  0
SECTION
  2
HEADER
  9
$LIMMIN
 10
0.000000
 20
0.000000
  9
$LIMMAX
 10
840.896415
 20
594.603557
  9
$EXTMIN
 10
0.000000
 20
0.000000
  9
$EXTMAX
 10
3363.600000
 20
2378.420000
  9
$ANGBASE
 50
0.0
  9
$ANGDIR
 70
0
  9
$DIMRND
 40
0.100000
  9
$DIMSE1
 70
0
  9
$DIMSE2
 70
0
  9
$DIMTXT
 40
3.500000
  9
$LTSCALE
 40
1.000000
  9
$LUPREC
 70
5
  9
$AUPREC
 70
5
  9
$PDMODE
 70
2
  9
$PDSIZE
 40
16.818000
  0
ENDSEC
  0
SECTION
  2
TABLES
  0
TABLE
  2
VPORT
  70
1
  0
VPORT
  2
*ACTIVE
 70
0
  10
0.0
 20
0.0
 11
1.0
 21
1.0
 12
594.0
 22
420.0
 13
0.0
 23
0.0
 14
10.0
 24
10.0
 15
10.0
 25
10.0
 16
0.0
 26
0.0
 36
1.0
 17
594.0
 27
420.0
 37
100.0
 40
1000.0
 41
1.0
 42
50.0
 43
0.0
 44
0.0
 50
0.0
 51
0.0
 71
0
 72
2000
 73
1
 74
3
 75
0
 76
0
 77
0
 78
1
  0
ENDTAB
  0
TABLE
  2
LTYPE
 70
4
  0
LTYPE
  2
CONTINUOUS
 70
0
  3
Solid line
 72
65
 73
0
 40
0.0
  0
LTYPE
  2
DASHED
 70
0
  3
Dashed line
 72
65
 73
2
 40
6.000000
 49
3.000000
 49
-3.000000
  0
LTYPE
  2
CENTER
 70
0
  3
Chain line
 72
65
 73
4
 40
24.000000
 49
15.000000
 49
-3.000000
 49
3.000000
 49
-3.000000
  0
LTYPE
  2
RANDOM
 70
0
  3
Random line
 72
65
 73
4
 40
22.500000
 49
6.000000
 49
-3.000000
 49
4.500000
 49
-9.000000
  0
ENDTAB
  0
TABLE
  2
STYLE
 70
9
  0
STYLE
  2
STANDARD
 40
0
 41
1.0
 50
0.0
 71
0
 42
0
  3
simplex
  4

 70
0
  0
ENDTAB
  0
TABLE
  2
LAYER
 70
2
  0
LAYER
  2
0
 70
0
 62
7
  6
CONTINUOUS
  0
LAYER
  2
0
 62
1
  6
CONTINUOUS
 70
0
  0
ENDTAB
  0
ENDSEC
  0
SECTION
  2
BLOCKS
  0
BLOCK
  2
FALCON-STAMP-NEW
  8
0
 70
0
 10
0.0
 20
0.0
 30
0.0
  0
LINE
  8
0
  6
CONTINUOUS
 62
7
 10
59.935006
 20
12.581055
 11
59.899698
 21
13.300999
  0
LINE
  8
0
  6
CONTINUOUS
 62
7
 10
59.899698
 20
13.300999
 11
59.794637
 21
13.858949
  0
LINE
  8
0
  6
CONTINUOUS
 62
7
 10
59.794637
 20
13.858949
 11
59.621058
 21
14.257453
  0
LINE
  8
0
  6
CONTINUOUS
 62
7
 10
59.621058
 20
14.257453
 11
59.368561
 21
14.523028
  0
LINE
  8
0
  6
CONTINUOUS
 62
7
 10
59.368561
 20
14.523028
 11
59.025110
 21
14.681457
  0
LINE
  8
0
  6
CONTINUOUS
 62
7
 10
59.025110
 20
14.681457
 11
58.589470
 21
14.733974
  0
LINE
  8
0
  6
CONTINUOUS
 62
7
 10
58.589470
 20
14.733974
 11
58.153805
 21
14.679577
  0
LINE
  8
0
  6
CONTINUOUS
 62
7
 10
58.153805
 20
14.679577
 11
57.810354
 21
14.515549
  0
LINE
  8
0
  6
CONTINUOUS
 62
7
 10
57.810354
 20
14.515549
 11
57.557844
 21
14.240629
  0
LINE
  8
0
  6
CONTINUOUS
 62
7
 10
57.557844
 20
14.240629
 11
57.384252
 21
13.839023
  0
LINE
  8
0
  6
CONTINUOUS
 62
7
 10
57.384252
 20
13.839023
 11
57.279191
 21
13.285411
  0
LINE
  8
0
  6
CONTINUOUS
 62
7
 10
57.279191
 20
13.285411
 11
57.243896
 21
12.581055
  0
LINE
  8
0
  6
CONTINUOUS
 62
7
 10
57.243896
 20
12.581055
 11
57.243896
 21
6.391450
  0
LINE
  8
0
  6
CONTINUOUS
 62
7
 10
57.243896
 20
6.391450
 11
57.277530
 21
5.660552
  0
LINE
  8
0
  6
CONTINUOUS
 62
7
 10
57.277530
 20
5.660552
 11
57.378434
 21
5.092833
  0
LINE
  8
0
  6
CONTINUOUS
 62
7
 10
57.378434
 20
5.092833
 11
57.546632
 21
4.687082
  0
LINE
  8
0
  6
CONTINUOUS
 62
7
 10
57.546632
 20
4.687082
 11
57.797070
 21
4.420039
  0
LINE
  8
0
  6
CONTINUOUS
 62
7
 10
57.797070
 20
4.420039
 11
58.144678
 21
4.258920
  0
LINE
  8
0
  6
CONTINUOUS
 62
7
 10
58.144678
 20
4.258920
 11
58.589470
 21
4.204935
  0
LINE
  8
0
  6
CONTINUOUS
 62
7
 10
58.589470
 20
4.204935
 11
59.017426
 21
4.259332
  0
LINE
  8
0
  6
CONTINUOUS
 62
7
 10
59.017426
 20
4.259332
 11
59.359409
 21
4.423360
  0
LINE
  8
0
  6
CONTINUOUS
 62
7
 10
59.359409
 20
4.423360
 11
59.615433
 21
4.698280
  0
LINE
  8
0
  6
CONTINUOUS
 62
7
 10
59.615433
 20
4.698280
 11
59.792977
 21
5.106117
  0
LINE
  8
0
  6
CONTINUOUS
 62
7
 10
59.792977
 20
5.106117
 11
59.899492
 21
5.669679
  0
LINE
  8
0
  6
CONTINUOUS
 62
7
 10
59.899492
 20
5.669679
 11
59.935006
 21
6.391450
  0
LINE
  8
0
  6
CONTINUOUS
 62
7
 10
59.935006
 20
6.391450
 11
59.935006
 21
7.534201
  0
LINE
  8
0
  6
CONTINUOUS
 62
7
 10
60.435006
 20
8.034201
 11
65.759213
 21
8.034201
  0
LINE
  8
0
  6
CONTINUOUS
 62
7
 10
66.259213
 20
7.534201
 11
66.259213
 21
2.595195
  0
LINE
  8
0
  6
CONTINUOUS
 62
7
 10
66.064254
 20
2.199026
 11
65.761620
 21
1.966005
  0
LINE
  8
0
  6
CONTINUOUS
 62
7
 10
65.761620
 20
1.966005
 11
65.233199
 21
1.618229
  0
LINE
  8
0
  6
CONTINUOUS
 62
7
 10
65.233199
 20
1.618229
 11
64.673949
 21
1.305646
  0
LINE
  8
0
  6
CONTINUOUS
 62
7
 10
64.673949
 20
1.305646
 11
64.083858
 21
1.028100
  0
LINE
  8
0
  6
CONTINUOUS
 62
7
 10
64.083858
 20
1.028100
 11
63.462939
 21
0.785449
  0
LINE
  8
0
  6
CONTINUOUS
 62
7
 10
63.462939
 20
0.785449
 11
62.811190
 21
0.577515
  0
LINE
  8
0
  6
CONTINUOUS
 62
7
 10
62.811190
 20
0.577515
 11
62.225617
 21
0.423708
  0
LINE
  8
0
  6
CONTINUOUS
 62
7
 10
62.225617
 20
0.423708
 11
61.612781
 21
0.293829
  0
LINE
  8
0
  6
CONTINUOUS
 62
7
 10
61.612781
 20
0.293829
 11
60.972889
 21
0.187790
  0
LINE
  8
0
  6
CONTINUOUS
 62
7
 10
60.972889
 20
0.187790
 11
60.306132
 21
0.105486
  0
LINE
  8
0
  6
CONTINUOUS
 62
7
 10
60.306132
 20
0.105486
 11
59.612691
 21
0.046815
  0
LINE
  8
0
  6
CONTINUOUS
 62
7
 10
59.612691
 20
0.046815
 11
58.892760
 21
0.011688
  0
LINE
  8
0
  6
CONTINUOUS
 62
7
 10
58.892760
 20
0.011688
 11
58.146558
 21
0.000000
  0
LINE
  8
0
  6
CONTINUOUS
 62
7
 10
58.146558
 20
0.000000
 11
57.320870
 21
0.014803
  0
LINE
  8
0
  6
CONTINUOUS
 62
7
 10
57.320870
 20
0.014803
 11
56.545950
 21
0.059250
  0
LINE
  8
0
  6
CONTINUOUS
 62
7
 10
56.545950
 20
0.059250
 11
55.821758
 21
0.133367
  0
LINE
  8
0
  6
CONTINUOUS
 62
7
 10
55.821758
 20
0.133367
 11
55.148257
 21
0.237179
  0
LINE
  8
0
  6
CONTINUOUS
 62
7
 10
55.148257
 20
0.237179
 11
54.525419
 21
0.370739
  0
LINE
  8
0
  6
CONTINUOUS
 62
7
 10
54.525419
 20
0.370739
 11
53.953220
 21
0.534059
  0
LINE
  8
0
  6
CONTINUOUS
 62
7
 10
53.953220
 20
0.534059
 11
53.431595
 21
0.727191
  0
LINE
  8
0
  6
CONTINUOUS
 62
7
 10
53.431595
 20
0.727191
 11
52.960544
 21
0.950160
  0
LINE
  8
0
  6
CONTINUOUS
 62
7
 10
52.960544
 20
0.950160
 11
52.540016
 21
1.203004
  0
LINE
  8
0
  6
CONTINUOUS
 62
7
 10
52.540016
 20
1.203004
 11
52.169998
 21
1.485751
  0
LINE
  8
0
  6
CONTINUOUS
 62
7
 10
52.169998
 20
1.485751
 11
51.808063
 21
1.843953
  0
LINE
  8
0
  6
CONTINUOUS
 62
7
 10
51.808063
 20
1.843953
 11
51.488541
 21
2.257015
  0
LINE
  8
0
  6
CONTINUOUS
 62
7
 10
51.488541
 20
2.257015
 11
51.211471
 21
2.725003
  0
LINE
  8
0
  6
CONTINUOUS
 62
7
 10
51.211471
 20
2.725003
 11
50.976905
 21
3.247940
  0
LINE
  8
0
  6
CONTINUOUS
 62
7
 10
50.976905
 20
3.247940
 11
50.784880
 21
3.825880
  0
LINE
  8
0
  6
CONTINUOUS
 62
7
 10
50.784880
 20
3.825880
 11
50.635449
 21
4.458874
  0
LINE
  8
0
  6
CONTINUOUS
 62
7
 10
50.635449
 20
4.458874
 11
50.528663
 21
5.146960
  0
LINE
  8
0
  6
CONTINUOUS
 62
7
 10
50.528663
 20
5.146960
 11
50.464548
 21
5.890189
  0
LINE
  8
0
  6
CONTINUOUS
 62
7
 10
50.464548
 20
5.890189
 11
50.443167
 21
6.688626
  0
LINE
  8
0
  6
CONTINUOUS
 62
7
 10
50.443167
 20
6.688626
 11
50.443167
 21
12.272732
  0
LINE
  8
0
  6
CONTINUOUS
 62
7
 10
50.443167
 20
12.272732
 11
50.464342
 21
13.059314
  0
LINE
  8
0
  6
CONTINUOUS
 62
7
 10
50.464342
 20
13.059314
 11
50.527891
 21
13.793147
  0
LINE
  8
0
  6
CONTINUOUS
 62
7
 10
50.527891
 20
13.793147
 11
50.633789
 21
14.474243
  0
LINE
  8
0
  6
CONTINUOUS
 62
7
 10
50.633789
 20
14.474243
 11
50.782035
 21
15.102590
  0
LINE
  8
0
  6
CONTINUOUS
 62
7
 10
50.782035
 20
15.102590
 11
50.972657
 21
15.678187
  0
LINE
  8
0
  6
CONTINUOUS
 62
7
 10
50.972657
 20
15.678187
 11
51.205640
 21
16.201048
  0
LINE
  8
0
  6
CONTINUOUS
 62
7
 10
51.205640
 20
16.201048
 11
51.480972
 21
16.671159
  0
LINE
  8
0
  6
CONTINUOUS
 62
7
 10
51.480972
 20
16.671159
 11
51.798679
 21
17.088534
  0
LINE
  8
0
  6
CONTINUOUS
 62
7
 10
51.798679
 20
17.088534
 11
52.158747
 21
17.453159
  0
LINE
  8
0
  6
CONTINUOUS
 62
7
 10
52.158747
 20
17.453159
 11
52.525419
 21
17.742290
  0
LINE
  8
0
  6
CONTINUOUS
 62
7
 10
52.525419
 20
17.742290
 11
52.939215
 21
18.000837
  0
LINE
  8
0
  6
CONTINUOUS
 62
7
 10
52.939215
 20
18.000837
 11
53.400188
 21
18.228851
  0
LINE
  8
0
  6
CONTINUOUS
 62
7
 10
53.400188
 20
18.228851
 11
53.908348
 21
18.426346
  0
LINE
  8
0
  6
CONTINUOUS
 62
7
 10
53.908348
 20
18.426346
 11
54.463737
 21
18.593373
  0
LINE
  8
0
  6
CONTINUOUS
 62
7
 10
54.463737
 20
18.593373
 11
55.066404
 21
18.729958
  0
LINE
  8
0
  6
CONTINUOUS
 62
7
 10
55.066404
 20
18.729958
 11
55.716350
 21
18.836127
  0
LINE
  8
0
  6
CONTINUOUS
 62
7
 10
55.716350
 20
18.836127
 11
56.413639
 21
18.911917
  0
LINE
  8
0
  6
CONTINUOUS
 62
7
 10
56.413639
 20
18.911917
 11
57.158284
 21
18.957368
  0
LINE
  8
0
  6
CONTINUOUS
 62
7
 10
57.158284
 20
18.957368
 11
57.950337
 21
18.972518
  0
LINE
  8
0
  6
CONTINUOUS
 62
7
 10
57.950337
 20
18.972518
 11
58.646789
 21
18.960174
  0
LINE
  8
0
  6
CONTINUOUS
 62
7
 10
58.646789
 20
18.960174
 11
59.328156
 21
18.923218
  0
LINE
  8
0
  6
CONTINUOUS
 62
7
 10
59.328156
 20
18.923218
 11
59.994411
 21
18.861755
  0
LINE
  8
0
  6
CONTINUOUS
 62
7
 10
59.994411
 20
18.861755
 11
60.645566
 21
18.775860
  0
LINE
  8
0
  6
CONTINUOUS
 62
7
 10
60.645566
 20
18.775860
 11
61.281624
 21
18.665650
  0
LINE
  8
0
  6
CONTINUOUS
 62
7
 10
61.281624
 20
18.665650
 11
61.902582
 21
18.531215
  0
LINE
  8
0
  6
CONTINUOUS
 62
7
 10
61.902582
 20
18.531215
 11
62.508441
 21
18.372644
  0
LINE
  8
0
  6
CONTINUOUS
 62
7
 10
62.508441
 20
18.372644
 11
63.194300
 21
18.157721
  0
LINE
  8
0
  6
CONTINUOUS
 62
7
 10
63.194300
 20
18.157721
 11
63.855856
 21
17.911029
  0
LINE
  8
0
  6
CONTINUOUS
 62
7
 10
63.855856
 20
17.911029
 11
64.493136
 21
17.632569
  0
LINE
  8
0
  6
CONTINUOUS
 62
7
 10
64.493136
 20
17.632569
 11
65.106114
 21
17.322328
  0
LINE
  8
0
  6
CONTINUOUS
 62
7
 10
65.106114
 20
17.322328
 11
65.694815
 21
16.980319
  0
LINE
  8
0
  6
CONTINUOUS
 62
7
 10
65.694815
 20
16.980319
 11
66.035283
 21
16.754849
  0
LINE
  8
0
  6
CONTINUOUS
 62
7
 10
66.259213
 20
16.337973
 11
66.259213
 21
12.195268
  0
LINE
  8
0
  6
CONTINUOUS
 62
7
 10
65.759213
 20
11.695268
 11
60.435006
 21
11.695268
  0
LINE
  8
0
  6
CONTINUOUS
 62
7
 10
59.935006
 20
12.195268
 11
59.935006
 21
12.581055
  0
LINE
  8
0
  6
CONTINUOUS
 62
7
 10
8.706943
 20
7.030597
 11
8.736845
 21
6.329382
  0
LINE
  8
0
  6
CONTINUOUS
 62
7
 10
8.736845
 20
6.329382
 11
8.826563
 21
5.782643
  0
LINE
  8
0
  6
CONTINUOUS
 62
7
 10
8.826563
 20
5.782643
 11
8.976097
 21
5.387885
  0
LINE
  8
0
  6
CONTINUOUS
 62
7
 10
8.976097
 20
5.387885
 11
9.204279
 21
5.104456
  0
LINE
  8
0
  6
CONTINUOUS
 62
7
 10
9.204279
 20
5.104456
 11
9.519694
 21
4.884551
  0
LINE
  8
0
  6
CONTINUOUS
 62
7
 10
9.519694
 20
4.884551
 11
9.600309
 21
4.854086
  0
LINE
  8
0
  6
CONTINUOUS
 62
7
 10
9.923553
 20
4.386371
 11
9.923553
 21
0.797163
  0
LINE
  8
0
  6
CONTINUOUS
 62
7
 10
9.423553
 20
0.297163
 11
0.500000
 21
0.297163
  0
LINE
  8
0
  6
CONTINUOUS
 62
7
 10
0.000000
 20
0.797163
 11
0.000000
 21
4.461429
  0
LINE
  8
0
  6
CONTINUOUS
 62
7
 10
0.226412
 20
4.879938
 11
0.305260
 21
4.931482
  0
LINE
  8
0
  6
CONTINUOUS
 62
7
 10
0.305260
 20
4.931482
 11
0.539491
 21
5.180864
  0
LINE
  8
0
  6
CONTINUOUS
 62
7
 10
0.539491
 20
5.180864
 11
0.706441
 21
5.477590
  0
LINE
  8
0
  6
CONTINUOUS
 62
7
 10
0.706441
 20
5.477590
 11
0.814618
 21
5.866530
  0
LINE
  8
0
  6
CONTINUOUS
 62
7
 10
0.814618
 20
5.866530
 11
0.880445
 21
6.383779
  0
LINE
  8
0
  6
CONTINUOUS
 62
7
 10
0.880445
 20
6.383779
 11
0.902662
 21
7.030597
  0
LINE
  8
0
  6
CONTINUOUS
 62
7
 10
0.902662
 20
7.030597
 11
0.902662
 21
18.624923
  0
LINE
  8
0
  6
CONTINUOUS
 62
7
 10
0.902662
 20
18.624923
 11
0.880445
 21
19.271535
  0
LINE
  8
0
  6
CONTINUOUS
 62
7
 10
0.880445
 20
19.271535
 11
0.814618
 21
19.787355
  0
LINE
  8
0
  6
CONTINUOUS
 62
7
 10
0.814618
 20
19.787355
 11
0.706441
 21
20.172343
  0
LINE
  8
0
  6
CONTINUOUS
 62
7
 10
0.706441
 20
20.172343
 11
0.539491
 21
20.467627
  0
LINE
  8
0
  6
CONTINUOUS
 62
7
 10
0.539491
 20
20.467627
 11
0.305260
 21
20.714306
  0
LINE
  8
0
  6
CONTINUOUS
 62
7
 10
0.305260
 20
20.714306
 11
0.227839
 21
20.764542
  0
LINE
  8
0
  6
CONTINUOUS
 62
7
 10
0.000000
 20
21.183980
 11
0.000000
 21
24.796725
  0
LINE
  8
0
  6
CONTINUOUS
 62
7
 10
0.500000
 20
25.296725
 11
17.637164
 21
25.296725
  0
LINE
  8
0
  6
CONTINUOUS
 62
7
 10
18.137164
 20
24.796725
 11
18.137164
 21
17.737528
  0
LINE
  8
0
  6
CONTINUOUS
 62
7
 10
17.637164
 20
17.237528
 11
11.903679
 21
17.237528
  0
LINE
  8
0
  6
CONTINUOUS
 62
7
 10
11.353221
 20
18.238492
 11
11.201859
 21
18.931019
  0
LINE
  8
0
  6
CONTINUOUS
 62
7
 10
11.201859
 20
18.931019
 11
10.949568
 21
19.393034
  0
LINE
  8
0
  6
CONTINUOUS
 62
7
 10
10.949568
 20
19.393034
 11
10.565210
 21
19.678741
  0
LINE
  8
0
  6
CONTINUOUS
 62
7
 10
10.565210
 20
19.678741
 11
10.008907
 21
19.851097
  0
LINE
  8
0
  6
CONTINUOUS
 62
7
 10
10.008907
 20
19.851097
 11
9.284420
 21
19.908828
  0
LINE
  8
0
  6
CONTINUOUS
 62
7
 10
9.284420
 20
19.908828
 11
9.206943
 21
19.908828
  0
LINE
  8
0
  6
CONTINUOUS
 62
7
 10
8.706943
 20
19.408828
 11
8.706943
 21
15.693724
  0
LINE
  8
0
  6
CONTINUOUS
 62
7
 10
9.206943
 20
15.193724
 11
13.135105
 21
15.193724
  0
LINE
  8
0
  6
CONTINUOUS
 62
7
 10
13.635105
 20
14.693724
 11
13.635105
 21
10.782386
  0
LINE
  8
0
  6
CONTINUOUS
 62
7
 10
13.135105
 20
10.282386
 11
9.206943
 21
10.282386
  0
LINE
  8
0
  6
CONTINUOUS
 62
7
 10
8.706943
 20
9.782386
 11
8.706943
 21
7.030597
  0
LINE
  8
0
  6
CONTINUOUS
 62
7
 10
39.947724
 20
19.202386
 11
39.925507
 21
19.759731
  0
LINE
  8
0
  6
CONTINUOUS
 62
7
 10
39.925507
 20
19.759731
 11
39.859679
 21
20.199941
  0
LINE
  8
0
  6
CONTINUOUS
 62
7
 10
39.859679
 20
20.199941
 11
39.751503
 21
20.525512
  0
LINE
  8
0
  6
CONTINUOUS
 62
7
 10
39.751503
 20
20.525512
 11
39.584553
 21
20.775757
  0
LINE
  8
0
  6
CONTINUOUS
 62
7
 10
39.584553
 20
20.775757
 11
39.209885
 21
21.114229
  0
LINE
  8
0
  6
CONTINUOUS
 62
7
 10
39.045062
 20
21.485249
 11
39.045062
 21
24.796725
  0
LINE
  8
0
  6
CONTINUOUS
 62
7
 10
39.545062
 20
25.296725
 11
46.315747
 21
25.296725
  0
LINE
  8
0
  6
CONTINUOUS
 62
7
 10
46.815747
 20
24.796725
 11
46.815747
 21
6.851200
  0
LINE
  8
0
  6
CONTINUOUS
 62
7
 10
46.815747
 20
6.851200
 11
46.836510
 21
6.178612
  0
LINE
  8
0
  6
CONTINUOUS
 62
7
 10
46.836510
 20
6.178612
 11
46.899634
 21
5.630625
  0
LINE
  8
0
  6
CONTINUOUS
 62
7
 10
46.899634
 20
5.630625
 11
47.006343
 21
5.208488
  0
LINE
  8
0
  6
CONTINUOUS
 62
7
 10
47.006343
 20
5.208488
 11
47.157512
 21
4.879582
  0
LINE
  8
0
  6
CONTINUOUS
 62
7
 10
47.157512
 20
4.879582
 11
47.513759
 21
4.433556
  0
LINE
  8
0
  6
CONTINUOUS
 62
7
 10
47.623079
 20
4.121515
 11
47.623079
 21
0.797163
  0
LINE
  8
0
  6
CONTINUOUS
 62
7
 10
47.123079
 20
0.297163
 11
39.545062
 21
0.297163
  0
LINE
  8
0
  6
CONTINUOUS
 62
7
 10
39.045062
 20
0.797163
 11
39.045062
 21
4.079710
  0
LINE
  8
0
  6
CONTINUOUS
 62
7
 10
39.186102
 20
4.427772
 11
39.551318
 21
4.804423
  0
LINE
  8
0
  6
CONTINUOUS
 62
7
 10
39.551318
 20
4.804423
 11
39.723481
 21
5.135619
  0
LINE
  8
0
  6
CONTINUOUS
 62
7
 10
39.723481
 20
5.135619
 11
39.848893
 21
5.565441
  0
LINE
  8
0
  6
CONTINUOUS
 62
7
 10
39.848893
 20
5.565441
 11
39.923228
 21
6.103671
  0
LINE
  8
0
  6
CONTINUOUS
 62
7
 10
39.923228
 20
6.103671
 11
39.947724
 21
6.750296
  0
LINE
  8
0
  6
CONTINUOUS
 62
7
 10
39.947724
 20
6.750296
 11
39.947724
 21
19.202386
  0
LINE
  8
0
  6
CONTINUOUS
 62
7
 10
29.031066
 20
0.724974
 11
29.003243
 21
0.915666
  0
LINE
  8
0
  6
CONTINUOUS
 62
7
 10
28.216654
 20
1.249478
 11
27.591157
 21
0.799879
  0
LINE
  8
0
  6
CONTINUOUS
 62
7
 10
27.591157
 20
0.799879
 11
26.873324
 21
0.442913
  0
LINE
  8
0
  6
CONTINUOUS
 62
7
 10
26.873324
 20
0.442913
 11
26.283580
 21
0.248365
  0
LINE
  8
0
  6
CONTINUOUS
 62
7
 10
26.283580
 20
0.248365
 11
25.632862
 21
0.110030
  0
LINE
  8
0
  6
CONTINUOUS
 62
7
 10
25.632862
 20
0.110030
 11
24.921169
 21
0.027417
  0
LINE
  8
0
  6
CONTINUOUS
 62
7
 10
24.921169
 20
0.027417
 11
24.148514
 21
0.000000
  0
LINE
  8
0
  6
CONTINUOUS
 62
7
 10
24.148514
 20
0.000000
 11
23.368754
 21
0.038307
  0
LINE
  8
0
  6
CONTINUOUS
 62
7
 10
23.368754
 20
0.038307
 11
22.649724
 21
0.153241
  0
LINE
  8
0
  6
CONTINUOUS
 62
7
 10
22.649724
 20
0.153241
 11
21.991424
 21
0.344802
  0
LINE
  8
0
  6
CONTINUOUS
 62
7
 10
21.991424
 20
0.344802
 11
21.393867
 21
0.612990
  0
LINE
  8
0
  6
CONTINUOUS
 62
7
 10
21.393867
 20
0.612990
 11
20.857041
 21
0.957793
  0
LINE
  8
0
  6
CONTINUOUS
 62
7
 10
20.857041
 20
0.957793
 11
20.380970
 21
1.379222
  0
LINE
  8
0
  6
CONTINUOUS
 62
7
 10
20.380970
 20
1.379222
 11
20.026050
 21
1.796610
  0
LINE
  8
0
  6
CONTINUOUS
 62
7
 10
20.026050
 20
1.796610
 11
19.725450
 21
2.260581
  0
LINE
  8
0
  6
CONTINUOUS
 62
7
 10
19.725450
 20
2.260581
 11
19.479299
 21
2.771033
  0
LINE
  8
0
  6
CONTINUOUS
 62
7
 10
19.479299
 20
2.771033
 11
19.287673
 21
3.327876
  0
LINE
  8
0
  6
CONTINUOUS
 62
7
 10
19.287673
 20
3.327876
 11
19.150677
 21
3.931019
  0
LINE
  8
0
  6
CONTINUOUS
 62
7
 10
19.150677
 20
3.931019
 11
19.068399
 21
4.580360
  0
LINE
  8
0
  6
CONTINUOUS
 62
7
 10
19.068399
 20
4.580360
 11
19.040956
 21
5.275795
  0
LINE
  8
0
  6
CONTINUOUS
 62
7
 10
19.040956
 20
5.275795
 11
19.058539
 21
5.632852
  0
LINE
  8
0
  6
CONTINUOUS
 62
7
 10
19.058539
 20
5.632852
 11
19.111288
 21
5.984438
  0
LINE
  8
0
  6
CONTINUOUS
 62
7
 10
19.111288
 20
5.984438
 11
19.199191
 21
6.330566
  0
LINE
  8
0
  6
CONTINUOUS
 62
7
 10
19.199191
 20
6.330566
 11
19.322260
 21
6.671236
  0
LINE
  8
0
  6
CONTINUOUS
 62
7
 10
19.322260
 20
6.671236
 11
19.480470
 21
7.006449
  0
LINE
  8
0
  6
CONTINUOUS
 62
7
 10
19.480470
 20
7.006449
 11
19.673833
 21
7.336204
  0
LINE
  8
0
  6
CONTINUOUS
 62
7
 10
19.673833
 20
7.336204
 11
19.902363
 21
7.660501
  0
LINE
  8
0
  6
CONTINUOUS
 62
7
 10
19.902363
 20
7.660501
 11
20.166020
 21
7.979353
  0
LINE
  8
0
  6
CONTINUOUS
 62
7
 10
20.166020
 20
7.979353
 11
20.464831
 21
8.292761
  0
LINE
  8
0
  6
CONTINUOUS
 62
7
 10
20.464831
 20
8.292761
 11
20.798769
 21
8.600723
  0
LINE
  8
0
  6
CONTINUOUS
 62
7
 10
20.798769
 20
8.600723
 11
21.167861
 21
8.903254
  0
LINE
  8
0
  6
CONTINUOUS
 62
7
 10
21.167861
 20
8.903254
 11
21.572080
 21
9.200327
  0
LINE
  8
0
  6
CONTINUOUS
 62
7
 10
21.572080
 20
9.200327
 11
22.011427
 21
9.491981
  0
LINE
  8
0
  6
CONTINUOUS
 62
7
 10
22.011427
 20
9.491981
 11
22.485915
 21
9.778190
  0
LINE
  8
0
  6
CONTINUOUS
 62
7
 10
22.485915
 20
9.778190
 11
22.995518
 21
10.058979
  0
LINE
  8
0
  6
CONTINUOUS
 62
7
 10
22.995518
 20
10.058979
 11
23.540261
 21
10.334337
  0
LINE
  8
0
  6
CONTINUOUS
 62
7
 10
23.540261
 20
10.334337
 11
24.120106
 21
10.604263
  0
LINE
  8
0
  6
CONTINUOUS
 62
7
 10
24.120106
 20
10.604263
 11
24.735078
 21
10.868783
  0
LINE
  8
0
  6
CONTINUOUS
 62
7
 10
24.735078
 20
10.868783
 11
25.385166
 21
11.127870
  0
LINE
  8
0
  6
CONTINUOUS
 62
7
 10
25.385166
 20
11.127870
 11
26.070368
 21
11.381552
  0
LINE
  8
0
  6
CONTINUOUS
 62
7
 10
26.070368
 20
11.381552
 11
26.790685
 21
11.629814
  0
LINE
  8
0
  6
CONTINUOUS
 62
7
 10
26.790685
 20
11.629814
 11
27.546105
 21
11.872670
  0
LINE
  8
0
  6
CONTINUOUS
 62
7
 10
27.546105
 20
11.872670
 11
28.336626
 21
12.110120
  0
LINE
  8
0
  6
CONTINUOUS
 62
7
 10
28.336626
 20
12.110120
 11
28.428785
 21
12.135972
  0
LINE
  8
0
  6
CONTINUOUS
 62
7
 10
28.793040
 20
12.643817
 11
28.760861
 21
13.251776
  0
LINE
  8
0
  6
CONTINUOUS
 62
7
 10
28.760861
 20
13.251776
 11
28.654332
 21
13.794177
  0
LINE
  8
0
  6
CONTINUOUS
 62
7
 10
28.654332
 20
13.794177
 11
28.476789
 21
14.206982
  0
LINE
  8
0
  6
CONTINUOUS
 62
7
 10
28.476789
 20
14.206982
 11
28.224498
 21
14.500592
  0
LINE
  8
0
  6
CONTINUOUS
 62
7
 10
28.224498
 20
14.500592
 11
27.893700
 21
14.675844
  0
LINE
  8
0
  6
CONTINUOUS
 62
7
 10
27.893700
 20
14.675844
 11
27.484435
 21
14.733974
  0
LINE
  8
0
  6
CONTINUOUS
 62
7
 10
25.020341
 20
14.330335
 11
24.861019
 21
13.519134
  0
LINE
  8
0
  6
CONTINUOUS
 62
7
 10
24.370392
 20
13.115494
 11
20.348300
 21
13.115494
  0
LINE
  8
0
  6
CONTINUOUS
 62
7
 10
19.848300
 20
13.615494
 11
19.848300
 21
16.315713
  0
LINE
  8
0
  6
CONTINUOUS
 62
7
 10
20.057583
 20
16.722510
 11
20.366025
 21
16.942938
  0
LINE
  8
0
  6
CONTINUOUS
 62
7
 10
20.366025
 20
16.942938
 11
20.921452
 21
17.284754
  0
LINE
  8
0
  6
CONTINUOUS
 62
7
 10
20.921452
 20
17.284754
 11
21.514864
 21
17.598226
  0
LINE
  8
0
  6
CONTINUOUS
 62
7
 10
21.514864
 20
17.598226
 11
22.146583
 21
17.883199
  0
LINE
  8
0
  6
CONTINUOUS
 62
7
 10
22.146583
 20
17.883199
 11
22.816919
 21
18.139520
  0
LINE
  8
0
  6
CONTINUOUS
 62
7
 10
22.816919
 20
18.139520
 11
23.526192
 21
18.367019
  0
LINE
  8
0
  6
CONTINUOUS
 62
7
 10
23.526192
 20
18.367019
 11
24.157473
 21
18.536595
  0
LINE
  8
0
  6
CONTINUOUS
 62
7
 10
24.157473
 20
18.536595
 11
24.801884
 21
18.680066
  0
LINE
  8
0
  6
CONTINUOUS
 62
7
 10
24.801884
 20
18.680066
 11
25.459527
 21
18.797459
  0
LINE
  8
0
  6
CONTINUOUS
 62
7
 10
25.459527
 20
18.797459
 11
26.130519
 21
18.888773
  0
LINE
  8
0
  6
CONTINUOUS
 62
7
 10
26.130519
 20
18.888773
 11
26.814936
 21
18.953983
  0
LINE
  8
0
  6
CONTINUOUS
 62
7
 10
26.814936
 20
18.953983
 11
27.512882
 21
18.993113
  0
LINE
  8
0
  6
CONTINUOUS
 62
7
 10
27.512882
 20
18.993113
 11
28.224472
 21
19.006166
  0
LINE
  8
0
  6
CONTINUOUS
 62
7
 10
28.224472
 20
19.006166
 11
28.968924
 21
18.990024
  0
LINE
  8
0
  6
CONTINUOUS
 62
7
 10
28.968924
 20
18.990024
 11
29.671684
 21
18.941625
  0
LINE
  8
0
  6
CONTINUOUS
 62
7
 10
29.671684
 20
18.941625
 11
30.332803
 21
18.860995
  0
LINE
  8
0
  6
CONTINUOUS
 62
7
 10
30.332803
 20
18.860995
 11
30.952306
 21
18.748172
  0
LINE
  8
0
  6
CONTINUOUS
 62
7
 10
30.952306
 20
18.748172
 11
31.530233
 21
18.603195
  0
LINE
  8
0
  6
CONTINUOUS
 62
7
 10
31.530233
 20
18.603195
 11
32.066622
 21
18.426089
  0
LINE
  8
0
  6
CONTINUOUS
 62
7
 10
32.066622
 20
18.426089
 11
32.561487
 21
18.216893
  0
LINE
  8
0
  6
CONTINUOUS
 62
7
 10
32.561487
 20
18.216893
 11
33.014890
 21
17.975646
  0
LINE
  8
0
  6
CONTINUOUS
 62
7
 10
33.014890
 20
17.975646
 11
33.426845
 21
17.702374
  0
LINE
  8
0
  6
CONTINUOUS
 62
7
 10
33.426845
 20
17.702374
 11
33.797392
 21
17.397114
  0
LINE
  8
0
  6
CONTINUOUS
 62
7
 10
33.797392
 20
17.397114
 11
34.164501
 21
17.014597
  0
LINE
  8
0
  6
CONTINUOUS
 62
7
 10
34.164501
 20
17.014597
 11
34.488438
 21
16.584646
  0
LINE
  8
0
  6
CONTINUOUS
 62
7
 10
34.488438
 20
16.584646
 11
34.769176
 21
16.107185
  0
LINE
  8
0
  6
CONTINUOUS
 62
7
 10
34.769176
 20
16.107185
 11
35.006729
 21
15.582085
  0
LINE
  8
0
  6
CONTINUOUS
 62
7
 10
35.006729
 20
15.582085
 11
35.201083
 21
15.009281
  0
LINE
  8
0
  6
CONTINUOUS
 62
7
 10
35.201083
 20
15.009281
 11
35.352252
 21
14.388670
  0
LINE
  8
0
  6
CONTINUOUS
 62
7
 10
35.352252
 20
14.388670
 11
35.460235
 21
13.720163
  0
LINE
  8
0
  6
CONTINUOUS
 62
7
 10
35.460235
 20
13.720163
 11
35.525020
 21
13.003669
  0
LINE
  8
0
  6
CONTINUOUS
 62
7
 10
35.525020
 20
13.003669
 11
35.546619
 21
12.239085
  0
LINE
  8
0
  6
CONTINUOUS
 62
7
 10
35.546619
 20
12.239085
 11
35.546619
 21
6.621319
  0
LINE
  8
0
  6
CONTINUOUS
 62
7
 10
35.546619
 20
6.621319
 11
35.569248
 21
6.015833
  0
LINE
  8
0
  6
CONTINUOUS
 62
7
 10
35.569248
 20
6.015833
 11
35.637985
 21
5.522449
  0
LINE
  8
0
  6
CONTINUOUS
 62
7
 10
35.637985
 20
5.522449
 11
35.754039
 21
5.141193
  0
LINE
  8
0
  6
CONTINUOUS
 62
7
 10
35.754039
 20
5.141193
 11
35.916857
 21
4.842189
  0
LINE
  8
0
  6
CONTINUOUS
 62
7
 10
35.916857
 20
4.842189
 11
36.280904
 21
4.452700
  0
LINE
  8
0
  6
CONTINUOUS
 62
7
 10
36.415621
 20
4.111279
 11
36.415621
 21
0.797163
  0
LINE
  8
0
  6
CONTINUOUS
 62
7
 10
35.915621
 20
0.297163
 11
29.525828
 21
0.297163
  0
LINE
  8
0
  6
CONTINUOUS
 62
7
 10
28.796362
 20
5.565082
 11
28.796362
 21
7.474346
  0
LINE
  8
0
  6
CONTINUOUS
 62
7
 10
28.100628
 20
7.934442
 11
27.693733
 21
7.761340
  0
LINE
  8
0
  6
CONTINUOUS
 62
7
 10
27.693733
 20
7.761340
 11
26.908812
 21
7.363274
  0
LINE
  8
0
  6
CONTINUOUS
 62
7
 10
26.908812
 20
7.363274
 11
26.441597
 21
7.036222
  0
LINE
  8
0
  6
CONTINUOUS
 62
7
 10
26.441597
 20
7.036222
 11
26.179973
 21
6.724127
  0
LINE
  8
0
  6
CONTINUOUS
 62
7
 10
26.179973
 20
6.724127
 11
26.022986
 21
6.359708
  0
LINE
  8
0
  6
CONTINUOUS
 62
7
 10
26.022986
 20
6.359708
 11
25.970662
 21
5.942951
  0
LINE
  8
0
  6
CONTINUOUS
 62
7
 10
25.970662
 20
5.942951
 11
26.004090
 21
5.550497
  0
LINE
  8
0
  6
CONTINUOUS
 62
7
 10
26.004090
 20
5.550497
 11
26.103552
 21
5.225311
  0
LINE
  8
0
  6
CONTINUOUS
 62
7
 10
26.103552
 20
5.225311
 11
26.267825
 21
4.967421
  0
LINE
  8
0
  6
CONTINUOUS
 62
7
 10
26.267825
 20
4.967421
 11
26.491875
 21
4.780520
  0
LINE
  8
0
  6
CONTINUOUS
 62
7
 10
26.491875
 20
4.780520
 11
26.770734
 21
4.668392
  0
LINE
  8
0
  6
CONTINUOUS
 62
7
 10
26.770734
 20
4.668392
 11
27.103192
 21
4.631024
  0
LINE
  8
0
  6
CONTINUOUS
 62
7
 10
27.103192
 20
4.631024
 11
27.407602
 21
4.651375
  0
LINE
  8
0
  6
CONTINUOUS
 62
7
 10
27.407602
 20
4.651375
 11
27.703297
 21
4.711590
  0
LINE
  8
0
  6
CONTINUOUS
 62
7
 10
27.703297
 20
4.711590
 11
27.989030
 21
4.810421
  0
LINE
  8
0
  6
CONTINUOUS
 62
7
 10
27.989030
 20
4.810421
 11
28.269344
 21
4.950803
  0
LINE
  8
0
  6
CONTINUOUS
 62
7
 10
28.269344
 20
4.950803
 11
28.569224
 21
5.146100
  0
LINE
  8
0
  6
CONTINUOUS
 62
7
 10
95.889748
 20
6.851200
 11
95.911965
 21
6.195448
  0
LINE
  8
0
  6
CONTINUOUS
 62
7
 10
95.911965
 20
6.195448
 11
95.977793
 21
5.653074
  0
LINE
  8
0
  6
CONTINUOUS
 62
7
 10
95.977793
 20
5.653074
 11
96.085969
 21
5.225311
  0
LINE
  8
0
  6
CONTINUOUS
 62
7
 10
96.085969
 20
5.225311
 11
96.242969
 21
4.887048
  0
LINE
  8
0
  6
CONTINUOUS
 62
7
 10
96.242969
 20
4.887048
 11
96.456013
 21
4.623545
  0
LINE
  8
0
  6
CONTINUOUS
 62
7
 10
96.456013
 20
4.623545
 11
96.512221
 21
4.584121
  0
LINE
  8
0
  6
CONTINUOUS
 62
7
 10
96.725103
 20
4.174776
 11
96.725103
 21
0.797163
  0
LINE
  8
0
  6
CONTINUOUS
 62
7
 10
96.225103
 20
0.297163
 11
88.652762
 21
0.297163
  0
LINE
  8
0
  6
CONTINUOUS
 62
7
 10
88.152762
 20
0.797163
 11
88.152762
 21
4.079758
  0
LINE
  8
0
  6
CONTINUOUS
 62
7
 10
88.293812
 20
4.427831
 11
88.658992
 21
4.804423
  0
LINE
  8
0
  6
CONTINUOUS
 62
7
 10
88.658992
 20
4.804423
 11
88.831129
 21
5.135619
  0
LINE
  8
0
  6
CONTINUOUS
 62
7
 10
88.831129
 20
5.135619
 11
88.956541
 21
5.565441
  0
LINE
  8
0
  6
CONTINUOUS
 62
7
 10
88.956541
 20
5.565441
 11
89.030864
 21
6.103671
  0
LINE
  8
0
  6
CONTINUOUS
 62
7
 10
89.030864
 20
6.103671
 11
89.055372
 21
6.750296
  0
LINE
  8
0
  6
CONTINUOUS
 62
7
 10
89.055372
 20
6.750296
 11
89.055372
 21
12.586680
  0
LINE
  8
0
  6
CONTINUOUS
 62
7
 10
89.055372
 20
12.586680
 11
89.033155
 21
13.132389
  0
LINE
  8
0
  6
CONTINUOUS
 62
7
 10
89.033155
 20
13.132389
 11
88.967341
 21
13.569702
  0
LINE
  8
0
  6
CONTINUOUS
 62
7
 10
88.967341
 20
13.569702
 11
88.859152
 21
13.898620
  0
LINE
  8
0
  6
CONTINUOUS
 62
7
 10
88.859152
 20
13.898620
 11
88.692202
 21
14.150898
  0
LINE
  8
0
  6
CONTINUOUS
 62
7
 10
88.692202
 20
14.150898
 11
88.457983
 21
14.358344
  0
LINE
  8
0
  6
CONTINUOUS
 62
7
 10
88.457983
 20
14.358344
 11
88.417691
 21
14.379806
  0
LINE
  8
0
  6
CONTINUOUS
 62
7
 10
88.152762
 20
14.821102
 11
88.152762
 21
18.158570
  0
LINE
  8
0
  6
CONTINUOUS
 62
7
 10
88.652762
 20
18.658570
 11
95.126220
 21
18.658570
  0
LINE
  8
0
  6
CONTINUOUS
 62
7
 10
96.381367
 20
17.883090
 11
96.334309
 21
17.853504
  0
LINE
  8
0
  6
CONTINUOUS
 62
7
 10
96.334309
 20
17.853504
 11
97.078529
 21
18.215233
  0
LINE
  8
0
  6
CONTINUOUS
 62
7
 10
97.078529
 20
18.215233
 11
97.857646
 21
18.495997
  0
LINE
  8
0
  6
CONTINUOUS
 62
7
 10
97.857646
 20
18.495997
 11
98.665415
 21
18.697624
  0
LINE
  8
0
  6
CONTINUOUS
 62
7
 10
98.665415
 20
18.697624
 11
99.486868
 21
18.819509
  0
LINE
  8
0
  6
CONTINUOUS
 62
7
 10
99.486868
 20
18.819509
 11
100.324500
 21
18.860416
  0
LINE
  8
0
  6
CONTINUOUS
 62
7
 10
100.324500
 20
18.860416
 11
101.062825
 21
18.832278
  0
LINE
  8
0
  6
CONTINUOUS
 62
7
 10
101.062825
 20
18.832278
 11
101.739854
 21
18.747953
  0
LINE
  8
0
  6
CONTINUOUS
 62
7
 10
101.739854
 20
18.747953
 11
102.355380
 21
18.607533
  0
LINE
  8
0
  6
CONTINUOUS
 62
7
 10
102.355380
 20
18.607533
 11
102.909224
 21
18.411106
  0
LINE
  8
0
  6
CONTINUOUS
 62
7
 10
102.909224
 20
18.411106
 11
103.401166
 21
18.158776
  0
LINE
  8
0
  6
CONTINUOUS
 62
7
 10
103.401166
 20
18.158776
 11
103.831039
 21
17.850646
  0
LINE
  8
0
  6
CONTINUOUS
 62
7
 10
103.831039
 20
17.850646
 11
104.198625
 21
17.486806
  0
LINE
  8
0
  6
CONTINUOUS
 62
7
 10
104.198625
 20
17.486806
 11
104.476415
 21
17.114934
  0
LINE
  8
0
  6
CONTINUOUS
 62
7
 10
104.476415
 20
17.114934
 11
104.716967
 21
16.684726
  0
LINE
  8
0
  6
CONTINUOUS
 62
7
 10
104.716967
 20
16.684726
 11
104.920319
 21
16.196156
  0
LINE
  8
0
  6
CONTINUOUS
 62
7
 10
104.920319
 20
16.196156
 11
105.086561
 21
15.649251
  0
LINE
  8
0
  6
CONTINUOUS
 62
7
 10
105.086561
 20
15.649251
 11
105.215757
 21
15.044009
  0
LINE
  8
0
  6
CONTINUOUS
 62
7
 10
105.215757
 20
15.044009
 11
105.307947
 21
14.380419
  0
LINE
  8
0
  6
CONTINUOUS
 62
7
 10
105.307947
 20
14.380419
 11
105.363219
 21
13.658493
  0
LINE
  8
0
  6
CONTINUOUS
 62
7
 10
105.363219
 20
13.658493
 11
105.381626
 21
12.878231
  0
LINE
  8
0
  6
CONTINUOUS
 62
7
 10
105.381626
 20
12.878231
 11
105.381626
 21
6.817539
  0
LINE
  8
0
  6
CONTINUOUS
 62
7
 10
105.381626
 20
6.817539
 11
105.400522
 21
6.055272
  0
LINE
  8
0
  6
CONTINUOUS
 62
7
 10
105.400522
 20
6.055272
 11
105.458021
 21
5.473664
  0
LINE
  8
0
  6
CONTINUOUS
 62
7
 10
105.458021
 20
5.473664
 11
105.555398
 21
5.073950
  0
LINE
  8
0
  6
CONTINUOUS
 62
7
 10
105.555398
 20
5.073950
 11
105.700980
 21
4.799853
  0
LINE
  8
0
  6
CONTINUOUS
 62
7
 10
105.700980
 20
4.799853
 11
105.912570
 21
4.585547
  0
LINE
  8
0
  6
CONTINUOUS
 62
7
 10
105.912570
 20
4.585547
 11
105.928373
 21
4.576929
  0
LINE
  8
0
  6
CONTINUOUS
 62
7
 10
106.188971
 20
4.137968
 11
106.188971
 21
0.797163
  0
LINE
  8
0
  6
CONTINUOUS
 62
7
 10
105.688971
 20
0.297163
 11
99.527761
 21
0.297163
  0
LINE
  8
0
  6
CONTINUOUS
 62
7
 10
99.035407
 20
0.710056
 11
98.991115
 21
0.960406
  0
LINE
  8
0
  6
CONTINUOUS
 62
7
 10
98.991115
 20
0.960406
 11
98.898707
 21
1.727049
  0
LINE
  8
0
  6
CONTINUOUS
 62
7
 10
98.898707
 20
1.727049
 11
98.833742
 21
2.595832
  0
LINE
  8
0
  6
CONTINUOUS
 62
7
 10
98.833742
 20
2.595832
 11
98.814010
 21
2.974011
  0
LINE
  8
0
  6
CONTINUOUS
 62
7
 10
98.814010
 20
2.974011
 11
98.796928
 21
3.418945
  0
LINE
  8
0
  6
CONTINUOUS
 62
7
 10
98.796928
 20
3.418945
 11
98.782460
 21
3.930633
  0
LINE
  8
0
  6
CONTINUOUS
 62
7
 10
98.782460
 20
3.930633
 11
98.770644
 21
4.509075
  0
LINE
  8
0
  6
CONTINUOUS
 62
7
 10
98.770644
 20
4.509075
 11
98.761440
 21
5.154258
  0
LINE
  8
0
  6
CONTINUOUS
 62
7
 10
98.761440
 20
5.154258
 11
98.754863
 21
5.866196
  0
LINE
  8
0
  6
CONTINUOUS
 62
7
 10
98.754863
 20
5.866196
 11
98.750924
 21
6.644887
  0
LINE
  8
0
  6
CONTINUOUS
 62
7
 10
98.750924
 20
6.644887
 11
98.749611
 21
7.490333
  0
LINE
  8
0
  6
CONTINUOUS
 62
7
 10
98.749611
 20
7.490333
 11
98.749611
 21
11.498996
  0
LINE
  8
0
  6
CONTINUOUS
 62
7
 10
98.749611
 20
11.498996
 11
98.710364
 21
12.350788
  0
LINE
  8
0
  6
CONTINUOUS
 62
7
 10
98.710364
 20
12.350788
 11
98.592637
 21
12.998237
  0
LINE
  8
0
  6
CONTINUOUS
 62
7
 10
98.592637
 20
12.998237
 11
98.396390
 21
13.438871
  0
LINE
  8
0
  6
CONTINUOUS
 62
7
 10
98.396390
 20
13.438871
 11
98.106951
 21
13.723162
  0
LINE
  8
0
  6
CONTINUOUS
 62
7
 10
98.106951
 20
13.723162
 11
97.710339
 21
13.892815
  0
LINE
  8
0
  6
CONTINUOUS
 62
7
 10
97.710339
 20
13.892815
 11
97.207816
 21
13.949091
  0
LINE
  8
0
  6
CONTINUOUS
 62
7
 10
96.971807
 20
13.949091
 11
96.816906
 21
13.943479
  0
LINE
  8
0
  6
CONTINUOUS
 62
7
 10
96.816906
 20
13.943479
 11
96.655774
 21
13.926655
  0
LINE
  8
0
  6
CONTINUOUS
 62
7
 10
96.655774
 20
13.926655
 11
96.489661
 21
13.898620
  0
LINE
  8
0
  6
CONTINUOUS
 62
7
 10
96.489661
 20
13.898620
 11
96.310457
 21
13.857082
  0
LINE
  8
0
  6
CONTINUOUS
 62
7
 10
96.310457
 20
13.857082
 11
96.248603
 21
13.838881
  0
LINE
  8
0
  6
CONTINUOUS
 62
7
 10
95.889748
 20
13.359217
 11
95.889748
 21
6.851200
  0
LINE
  8
0
  6
CONTINUOUS
 62
7
 10
85.282151
 20
12.272732
 11
85.282151
 21
6.683001
  0
LINE
  8
0
  6
CONTINUOUS
 62
7
 10
85.282151
 20
6.683001
 11
85.260346
 21
5.872541
  0
LINE
  8
0
  6
CONTINUOUS
 62
7
 10
85.260346
 20
5.872541
 11
85.194879
 21
5.119401
  0
LINE
  8
0
  6
CONTINUOUS
 62
7
 10
85.194879
 20
5.119401
 11
85.085725
 21
4.423566
  0
LINE
  8
0
  6
CONTINUOUS
 62
7
 10
85.085725
 20
4.423566
 11
84.932818
 21
3.785050
  0
LINE
  8
0
  6
CONTINUOUS
 62
7
 10
84.932818
 20
3.785050
 11
84.736121
 21
3.203841
  0
LINE
  8
0
  6
CONTINUOUS
 62
7
 10
84.736121
 20
3.203841
 11
84.495595
 21
2.679938
  0
LINE
  8
0
  6
CONTINUOUS
 62
7
 10
84.495595
 20
2.679938
 11
84.211188
 21
2.213353
  0
LINE
  8
0
  6
CONTINUOUS
 62
7
 10
84.211188
 20
2.213353
 11
83.882849
 21
1.804075
  0
LINE
  8
0
  6
CONTINUOUS
 62
7
 10
83.882849
 20
1.804075
 11
83.510526
 21
1.452103
  0
LINE
  8
0
  6
CONTINUOUS
 62
7
 10
83.510526
 20
1.452103
 11
83.164398
 21
1.199670
  0
LINE
  8
0
  6
CONTINUOUS
 62
7
 10
83.164398
 20
1.199670
 11
82.771287
 21
0.971386
  0
LINE
  8
0
  6
CONTINUOUS
 62
7
 10
82.771287
 20
0.971386
 11
82.331194
 21
0.767248
  0
LINE
  8
0
  6
CONTINUOUS
 62
7
 10
82.331194
 20
0.767248
 11
81.844117
 21
0.587221
  0
LINE
  8
0
  6
CONTINUOUS
 62
7
 10
81.844117
 20
0.587221
 11
81.310058
 21
0.431276
  0
LINE
  8
0
  6
CONTINUOUS
 62
7
 10
81.310058
 20
0.431276
 11
80.729016
 21
0.299390
  0
LINE
  8
0
  6
CONTINUOUS
 62
7
 10
80.729016
 20
0.299390
 11
80.101004
 21
0.191548
  0
LINE
  8
0
  6
CONTINUOUS
 62
7
 10
80.101004
 20
0.191548
 11
79.425996
 21
0.107700
  0
LINE
  8
0
  6
CONTINUOUS
 62
7
 10
79.425996
 20
0.107700
 11
78.704005
 21
0.047845
  0
LINE
  8
0
  6
CONTINUOUS
 62
7
 10
78.704005
 20
0.047845
 11
77.935032
 21
0.011958
  0
LINE
  8
0
  6
CONTINUOUS
 62
7
 10
77.935032
 20
0.011958
 11
77.119076
 21
0.000000
  0
LINE
  8
0
  6
CONTINUOUS
 62
7
 10
77.119076
 20
0.000000
 11
76.303248
 21
0.011958
  0
LINE
  8
0
  6
CONTINUOUS
 62
7
 10
76.303248
 20
0.011958
 11
75.534661
 21
0.047845
  0
LINE
  8
0
  6
CONTINUOUS
 62
7
 10
75.534661
 20
0.047845
 11
74.813289
 21
0.107700
  0
LINE
  8
0
  6
CONTINUOUS
 62
7
 10
74.813289
 20
0.107700
 11
74.139092
 21
0.191548
  0
LINE
  8
0
  6
CONTINUOUS
 62
7
 10
74.139092
 20
0.191548
 11
73.512058
 21
0.299390
  0
LINE
  8
0
  6
CONTINUOUS
 62
7
 10
73.512058
 20
0.299390
 11
72.932162
 21
0.431276
  0
LINE
  8
0
  6
CONTINUOUS
 62
7
 10
72.932162
 20
0.431276
 11
72.399377
 21
0.587221
  0
LINE
  8
0
  6
CONTINUOUS
 62
7
 10
72.399377
 20
0.587221
 11
71.913677
 21
0.767248
  0
LINE
  8
0
  6
CONTINUOUS
 62
7
 10
71.913677
 20
0.767248
 11
71.475025
 21
0.971386
  0
LINE
  8
0
  6
CONTINUOUS
 62
7
 10
71.475025
 20
0.971386
 11
71.083420
 21
1.199670
  0
LINE
  8
0
  6
CONTINUOUS
 62
7
 10
71.083420
 20
1.199670
 11
70.738811
 21
1.452103
  0
LINE
  8
0
  6
CONTINUOUS
 62
7
 10
70.738811
 20
1.452103
 11
70.368162
 21
1.804075
  0
LINE
  8
0
  6
CONTINUOUS
 62
7
 10
70.368162
 20
1.804075
 11
70.041110
 21
2.213353
  0
LINE
  8
0
  6
CONTINUOUS
 62
7
 10
70.041110
 20
2.213353
 11
69.757669
 21
2.679938
  0
LINE
  8
0
  6
CONTINUOUS
 62
7
 10
69.757669
 20
2.679938
 11
69.517838
 21
3.203841
  0
LINE
  8
0
  6
CONTINUOUS
 62
7
 10
69.517838
 20
3.203841
 11
69.321617
 21
3.785050
  0
LINE
  8
0
  6
CONTINUOUS
 62
7
 10
69.321617
 20
3.785050
 11
69.168993
 21
4.423566
  0
LINE
  8
0
  6
CONTINUOUS
 62
7
 10
69.168993
 20
4.423566
 11
69.059981
 21
5.119401
  0
LINE
  8
0
  6
CONTINUOUS
 62
7
 10
69.059981
 20
5.119401
 11
68.994565
 21
5.872541
  0
LINE
  8
0
  6
CONTINUOUS
 62
7
 10
68.994565
 20
5.872541
 11
68.972773
 21
6.683001
  0
LINE
  8
0
  6
CONTINUOUS
 62
7
 10
68.972773
 20
6.683001
 11
68.972773
 21
12.272732
  0
LINE
  8
0
  6
CONTINUOUS
 62
7
 10
68.972773
 20
12.272732
 11
68.994565
 21
13.083205
  0
LINE
  8
0
  6
CONTINUOUS
 62
7
 10
68.994565
 20
13.083205
 11
69.059981
 21
13.836397
  0
LINE
  8
0
  6
CONTINUOUS
 62
7
 10
69.059981
 20
13.836397
 11
69.168993
 21
14.532373
  0
LINE
  8
0
  6
CONTINUOUS
 62
7
 10
69.168993
 20
14.532373
 11
69.321617
 21
15.171172
  0
LINE
  8
0
  6
CONTINUOUS
 62
7
 10
69.321617
 20
15.171172
 11
69.517838
 21
15.752845
  0
LINE
  8
0
  6
CONTINUOUS
 62
7
 10
69.517838
 20
15.752845
 11
69.757669
 21
16.277443
  0
LINE
  8
0
  6
CONTINUOUS
 62
7
 10
69.757669
 20
16.277443
 11
70.041110
 21
16.745006
  0
LINE
  8
0
  6
CONTINUOUS
 62
7
 10
70.041110
 20
16.745006
 11
70.368162
 21
17.155571
  0
LINE
  8
0
  6
CONTINUOUS
 62
7
 10
70.368162
 20
17.155571
 11
70.738811
 21
17.509216
  0
LINE
  8
0
  6
CONTINUOUS
 62
7
 10
70.738811
 20
17.509216
 11
71.083420
 21
17.763168
  0
LINE
  8
0
  6
CONTINUOUS
 62
7
 10
71.083420
 20
17.763168
 11
71.475025
 21
17.992946
  0
LINE
  8
0
  6
CONTINUOUS
 62
7
 10
71.475025
 20
17.992946
 11
71.913677
 21
18.198538
  0
LINE
  8
0
  6
CONTINUOUS
 62
7
 10
71.913677
 20
18.198538
 11
72.399377
 21
18.379930
  0
LINE
  8
0
  6
CONTINUOUS
 62
7
 10
72.399377
 20
18.379930
 11
72.932162
 21
18.537149
  0
LINE
  8
0
  6
CONTINUOUS
 62
7
 10
72.932162
 20
18.537149
 11
73.512058
 21
18.670181
  0
LINE
  8
0
  6
CONTINUOUS
 62
7
 10
73.512058
 20
18.670181
 11
74.139092
 21
18.779013
  0
LINE
  8
0
  6
CONTINUOUS
 62
7
 10
74.139092
 20
18.779013
 11
74.813289
 21
18.863673
  0
LINE
  8
0
  6
CONTINUOUS
 62
7
 10
74.813289
 20
18.863673
 11
75.534661
 21
18.924145
  0
LINE
  8
0
  6
CONTINUOUS
 62
7
 10
75.534661
 20
18.924145
 11
76.303248
 21
18.960419
  0
LINE
  8
0
  6
CONTINUOUS
 62
7
 10
76.303248
 20
18.960419
 11
77.119076
 21
18.972518
  0
LINE
  8
0
  6
CONTINUOUS
 62
7
 10
77.119076
 20
18.972518
 11
77.937812
 21
18.960419
  0
LINE
  8
0
  6
CONTINUOUS
 62
7
 10
77.937812
 20
18.960419
 11
78.709038
 21
18.924145
  0
LINE
  8
0
  6
CONTINUOUS
 62
7
 10
78.709038
 20
18.924145
 11
79.432767
 21
18.863673
  0
LINE
  8
0
  6
CONTINUOUS
 62
7
 10
79.432767
 20
18.863673
 11
80.109036
 21
18.779013
  0
LINE
  8
0
  6
CONTINUOUS
 62
7
 10
80.109036
 20
18.779013
 11
80.737872
 21
18.670181
  0
LINE
  8
0
  6
CONTINUOUS
 62
7
 10
80.737872
 20
18.670181
 11
81.319300
 21
18.537149
  0
LINE
  8
0
  6
CONTINUOUS
 62
7
 10
81.319300
 20
18.537149
 11
81.853333
 21
18.379930
  0
LINE
  8
0
  6
CONTINUOUS
 62
7
 10
81.853333
 20
18.379930
 11
82.339998
 21
18.198538
  0
LINE
  8
0
  6
CONTINUOUS
 62
7
 10
82.339998
 20
18.198538
 11
82.779332
 21
17.992946
  0
LINE
  8
0
  6
CONTINUOUS
 62
7
 10
82.779332
 20
17.992946
 11
83.171362
 21
17.763168
  0
LINE
  8
0
  6
CONTINUOUS
 62
7
 10
83.171362
 20
17.763168
 11
83.516100
 21
17.509216
  0
LINE
  8
0
  6
CONTINUOUS
 62
7
 10
83.516100
 20
17.509216
 11
83.886762
 21
17.155571
  0
LINE
  8
0
  6
CONTINUOUS
 62
7
 10
83.886762
 20
17.155571
 11
84.213801
 21
16.745006
  0
LINE
  8
0
  6
CONTINUOUS
 62
7
 10
84.213801
 20
16.745006
 11
84.497242
 21
16.277443
  0
LINE
  8
0
  6
CONTINUOUS
 62
7
 10
84.497242
 20
16.277443
 11
84.737086
 21
15.752845
  0
LINE
  8
0
  6
CONTINUOUS
 62
7
 10
84.737086
 20
15.752845
 11
84.933307
 21
15.171172
  0
LINE
  8
0
  6
CONTINUOUS
 62
7
 10
84.933307
 20
15.171172
 11
85.085930
 21
14.532373
  0
LINE
  8
0
  6
CONTINUOUS
 62
7
 10
85.085930
 20
14.532373
 11
85.194943
 21
13.836397
  0
LINE
  8
0
  6
CONTINUOUS
 62
7
 10
85.194943
 20
13.836397
 11
85.260346
 21
13.083205
  0
LINE
  8
0
  6
CONTINUOUS
 62
7
 10
85.260346
 20
13.083205
 11
85.282151
 21
12.272732
  0
ARC
  8
0
  6
CONTINUOUS
 62
7
 10
17.637164
 20
24.796725
 40
0.500000
 50
0.000000
 51
90.000000
  0
ARC
  8
0
  6
CONTINUOUS
 62
7
 10
0.500000
 20
24.796725
 40
0.500000
 50
90.000000
 51
180.000000
  0
ARC
  8
0
  6
CONTINUOUS
 62
7
 10
0.500000
 20
0.797163
 40
0.500000
 50
180.000000
 51
270.000000
  0
ARC
  8
0
  6
CONTINUOUS
 62
7
 10
9.423553
 20
0.797163
 40
0.500000
 50
270.000000
 51
0.000000
  0
ARC
  8
0
  6
CONTINUOUS
 62
7
 10
13.135105
 20
10.782386
 40
0.500000
 50
270.000000
 51
0.000000
  0
ARC
  8
0
  6
CONTINUOUS
 62
7
 10
13.135105
 20
14.693724
 40
0.500000
 50
0.000000
 51
90.000000
  0
ARC
  8
0
  6
CONTINUOUS
 62
7
 10
9.206943
 20
15.693724
 40
0.500000
 50
180.000000
 51
270.000000
  0
ARC
  8
0
  6
CONTINUOUS
 62
7
 10
9.206943
 20
9.782386
 40
0.500000
 50
90.000000
 51
180.000000
  0
ARC
  8
0
  6
CONTINUOUS
 62
7
 10
17.637164
 20
17.737528
 40
0.500000
 50
270.000000
 51
0.000000
  0
ARC
  8
0
  6
CONTINUOUS
 62
7
 10
9.206943
 20
19.408828
 40
0.500000
 50
90.000000
 51
180.000000
  0
ARC
  8
0
  6
CONTINUOUS
 62
7
 10
11.903679
 20
17.737528
 40
0.500000
 50
180.000000
 51
270.000000
  0
ARC
  8
0
  6
CONTINUOUS
 62
7
 10
9.423553
 20
4.386371
 40
0.500000
 50
0.000000
 51
69.297802
  0
ARC
  8
0
  6
CONTINUOUS
 62
7
 10
0.500000
 20
4.461429
 40
0.500000
 50
123.173499
 51
180.000000
  0
ARC
  8
0
  6
CONTINUOUS
 62
7
 10
0.500000
 20
21.183980
 40
0.500000
 50
180.000000
 51
237.021589
  0
ARC
  8
0
  6
CONTINUOUS
 62
7
 10
20.348300
 20
16.315713
 40
0.500000
 50
125.551555
 51
180.000000
  0
ARC
  8
0
  6
CONTINUOUS
 62
7
 10
28.296362
 20
7.474346
 40
0.500000
 50
0.000000
 51
113.045927
  0
ARC
  8
0
  6
CONTINUOUS
 62
7
 10
28.296362
 20
5.565082
 40
0.500000
 50
303.074124
 51
0.000000
  0
ARC
  8
0
  6
CONTINUOUS
 62
7
 10
29.525828
 20
0.797163
 40
0.500000
 50
188.301213
 51
270.000000
  0
ARC
  8
0
  6
CONTINUOUS
 62
7
 10
35.915621
 20
0.797163
 40
0.500000
 50
270.000000
 51
0.000000
  0
ARC
  8
0
  6
CONTINUOUS
 62
7
 10
35.915621
 20
4.111279
 40
0.500000
 50
0.000000
 51
43.066215
  0
ARC
  8
0
  6
CONTINUOUS
 62
7
 10
28.293739
 20
12.617390
 40
0.500000
 50
285.669793
 51
3.029812
  0
ARC
  8
0
  6
CONTINUOUS
 62
7
 10
28.508482
 20
0.843478
 40
0.500000
 50
8.301213
 51
125.708090
  0
ARC
  8
0
  6
CONTINUOUS
 62
7
 10
39.545062
 20
24.796725
 40
0.500000
 50
90.000000
 51
180.000000
  0
ARC
  8
0
  6
CONTINUOUS
 62
7
 10
46.315747
 20
24.796725
 40
0.500000
 50
0.000000
 51
90.000000
  0
ARC
  8
0
  6
CONTINUOUS
 62
7
 10
47.123079
 20
0.797163
 40
0.500000
 50
270.000000
 51
0.000000
  0
ARC
  8
0
  6
CONTINUOUS
 62
7
 10
39.545062
 20
0.797163
 40
0.500000
 50
180.000000
 51
270.000000
  0
ARC
  8
0
  6
CONTINUOUS
 62
7
 10
39.545062
 20
4.079710
 40
0.500000
 50
135.883037
 51
180.000000
  0
ARC
  8
0
  6
CONTINUOUS
 62
7
 10
47.123079
 20
4.121515
 40
0.500000
 50
0.000000
 51
38.614793
  0
ARC
  8
0
  6
CONTINUOUS
 62
7
 10
39.545062
 20
21.485249
 40
0.500000
 50
180.000000
 51
227.905636
  0
ARC
  8
0
  6
CONTINUOUS
 62
7
 10
65.759213
 20
16.337973
 40
0.500000
 50
0.000000
 51
56.486096
  0
ARC
  8
0
  6
CONTINUOUS
 62
7
 10
65.759213
 20
12.195268
 40
0.500000
 50
270.000000
 51
0.000000
  0
ARC
  8
0
  6
CONTINUOUS
 62
7
 10
60.435006
 20
12.195268
 40
0.500000
 50
180.000000
 51
270.000000
  0
ARC
  8
0
  6
CONTINUOUS
 62
7
 10
60.435006
 20
7.534201
 40
0.500000
 50
90.000000
 51
180.000000
  0
ARC
  8
0
  6
CONTINUOUS
 62
7
 10
65.759213
 20
7.534201
 40
0.500000
 50
0.000000
 51
90.000000
  0
ARC
  8
0
  6
CONTINUOUS
 62
7
 10
65.759213
 20
2.595195
 40
0.500000
 50
307.595443
 51
0.000000
  0
ARC
  8
0
  6
CONTINUOUS
 62
7
 10
88.652762
 20
18.158570
 40
0.500000
 50
90.000000
 51
180.000000
  0
ARC
  8
0
  6
CONTINUOUS
 62
7
 10
95.126220
 20
18.158570
 40
0.500000
 50
8.500025
 51
90.000000
  0
ARC
  8
0
  6
CONTINUOUS
 62
7
 10
96.389748
 20
13.359217
 40
0.500000
 50
106.396912
 51
180.000000
  0
ARC
  8
0
  6
CONTINUOUS
 62
7
 10
96.225103
 20
4.174776
 40
0.500000
 50
0.000000
 51
54.953752
  0
ARC
  8
0
  6
CONTINUOUS
 62
7
 10
96.225103
 20
0.797163
 40
0.500000
 50
270.000000
 51
0.000000
  0
ARC
  8
0
  6
CONTINUOUS
 62
7
 10
99.527761
 20
0.797163
 40
0.500000
 50
190.032971
 51
270.000000
  0
ARC
  8
0
  6
CONTINUOUS
 62
7
 10
105.688971
 20
0.797163
 40
0.500000
 50
270.000000
 51
0.000000
  0
ARC
  8
0
  6
CONTINUOUS
 62
7
 10
105.688971
 20
4.137968
 40
0.500000
 50
0.000000
 51
61.392719
  0
ARC
  8
0
  6
CONTINUOUS
 62
7
 10
88.652762
 20
0.797163
 40
0.500000
 50
180.000000
 51
270.000000
  0
ARC
  8
0
  6
CONTINUOUS
 62
7
 10
88.652762
 20
14.821102
 40
0.500000
 50
180.000000
 51
241.956492
  0
ARC
  8
0
  6
CONTINUOUS
 62
7
 10
96.115236
 20
18.306380
 40
0.500000
 50
188.500025
 51
302.158481
  0
ARC
  8
0
  6
CONTINUOUS
 62
7
 10
88.652762
 20
4.079758
 40
0.500000
 50
135.881404
 51
180.000000
  0
ARC
  8
0
  6
CONTINUOUS
 62
7
 10
24.370392
 20
13.615494
 40
0.500000
 50
270.000000
 51
348.888409
  0
ARC
  8
0
  6
CONTINUOUS
 62
7
 10
20.348300
 20
13.615494
 40
0.500000
 50
180.000000
 51
270.000000
  0
LINE
  8
0
  6
CONTINUOUS
 62
7
 10
75.772282
 20
13.472777
 11
75.772282
 21
5.507648
  0
ARC
  8
0
  6
CONTINUOUS
 62
7
 10
77.072281
 20
5.507647
 40
1.299999
 50
179.999957
 51
270.000000
  0
LINE
  8
0
  6
CONTINUOUS
 62
7
 10
77.072282
 20
4.207648
 11
77.163165
 21
4.207648
  0
ARC
  8
0
  6
CONTINUOUS
 62
7
 10
77.163166
 20
5.507647
 40
1.299999
 50
270.000000
 51
0.000043
  0
LINE
  8
0
  6
CONTINUOUS
 62
7
 10
78.463165
 20
5.507648
 11
78.463165
 21
13.472777
  0
ARC
  8
0
  6
CONTINUOUS
 62
7
 10
77.163166
 20
13.472778
 40
1.299999
 50
0.000000
 51
90.000000
  0
LINE
  8
0
  6
CONTINUOUS
 62
7
 10
77.163165
 20
14.772777
 11
77.072282
 21
14.772777
  0
ARC
  8
0
  6
CONTINUOUS
 62
7
 10
77.072281
 20
13.472778
 40
1.299999
 50
90.000000
 51
180.000043
  0
LINE
  8
0
  6
CONTINUOUS
 62
7
 10
11.353221
 20
18.238492
 11
11.403679
 21
17.737528
  0
LINE
  8
0
  6
CONTINUOUS
 62
7
 10
27.484435
 20
14.733974
 11
25.510968
 21
14.733974
  0
ARC
  8
0
  6
CONTINUOUS
 62
7
 10
25.510968
 20
14.233974
 40
0.500000
 50
90.000000
 51
168.888409
  0
LINE
  8
0
  6
CONTINUOUS
 62
7
 10
97.207816
 20
13.949091
 11
96.971807
 21
13.949091
  0
ENDBLK
  0
ENDSEC
  0
SECTION
  2
ENTITIES
  0
LINE
  8
0
  6
CONTINUOUS
 62
1
 10
870.944111
 20
870.030485
 11
796.944111
 21
870.030485
  0
LINE
  8
0
  6
CONTINUOUS
 62
1
 10
811.505962
 20
864.092985
 11
812.476017
 21
770.967977
  0
ARC
  8
0
  6
CONTINUOUS
 62
1
 10
805.506290
 20
864.030485
 40
6.000000
 50
0.596809
 51
90.000000
  0
ARC
  8
0
  6
CONTINUOUS
 62
1
 10
862.381947
 20
864.030485
 40
6.000000
 50
90.000000
 51
179.403198
  0
LINE
  8
0
  6
CONTINUOUS
 62
1
 10
817.444111
 20
731.030485
 11
817.944111
 21
731.030485
  0
LINE
  8
0
  6
CONTINUOUS
 62
1
 10
817.944111
 20
731.030485
 11
817.444111
 21
731.030485
  0
LINE
  8
0
  6
CONTINUOUS
 62
1
 10
859.944111
 20
731.030485
 11
848.944111
 21
735.030470
  0
LINE
  8
0
  6
CONTINUOUS
 62
1
 10
807.944111
 20
731.030485
 11
818.944111
 21
735.030470
  0
ARC
  8
0
  6
CONTINUOUS
 62
1
 10
849.412540
 20
771.030477
 40
5.999996
 50
269.999969
 51
359.403160
  0
ARC
  8
0
  6
CONTINUOUS
 62
1
 10
818.475697
 20
771.030477
 40
6.000000
 50
180.596802
 51
270.000000
  0
LINE
  8
0
  6
CONTINUOUS
 62
1
 10
855.444111
 20
774.030477
 11
812.444111
 21
774.030477
  0
LINE
  8
0
  6
CONTINUOUS
 62
1
 10
856.382267
 20
864.092985
 11
855.412220
 21
770.967977
  0
LINE
  8
0
  6
CONTINUOUS
 62
1
 10
818.944111
 20
765.030477
 11
818.944111
 21
735.030470
  0
LINE
  8
0
  6
CONTINUOUS
 62
1
 10
848.944111
 20
765.030477
 11
848.944111
 21
735.030470
  0
LINE
  8
0
  6
CONTINUOUS
 62
1
 10
859.944111
 20
731.030485
 11
849.944111
 21
731.030485
  0
LINE
  8
0
  6
CONTINUOUS
 62
1
 10
807.944111
 20
731.030485
 11
807.944111
 21
730.030485
  0
LINE
  8
0
  6
CONTINUOUS
 62
1
 10
850.444111
 20
731.030485
 11
807.944111
 21
731.030485
  0
LINE
  8
0
  6
CONTINUOUS
 62
1
 10
848.944111
 20
735.030470
 11
818.975056
 21
735.030470
  0
LINE
  8
0
  6
CONTINUOUS
 62
1
 10
849.412540
 20
765.030477
 11
818.475697
 21
765.030477
  0
LINE
  8
0
  6
CONTINUOUS
 62
1
 10
859.944111
 20
730.030485
 11
807.944111
 21
730.030485
  0
LINE
  8
0
  6
CONTINUOUS
 62
1
 10
859.944111
 20
731.030485
 11
859.944111
 21
730.030485
  0
LINE
  8
0
  6
CONTINUOUS
 62
1
 10
1618.944111
 20
870.030485
 11
1544.944111
 21
870.030485
  0
LINE
  8
0
  6
CONTINUOUS
 62
1
 10
1559.505962
 20
864.092985
 11
1560.476017
 21
770.967977
  0
ARC
  8
0
  6
CONTINUOUS
 62
1
 10
1553.506290
 20
864.030485
 40
6.000000
 50
0.596809
 51
90.000000
  0
ARC
  8
0
  6
CONTINUOUS
 62
1
 10
1610.381947
 20
864.030485
 40
6.000000
 50
90.000000
 51
179.403198
  0
LINE
  8
0
  6
CONTINUOUS
 62
1
 10
1565.444111
 20
731.030485
 11
1565.944111
 21
731.030485
  0
LINE
  8
0
  6
CONTINUOUS
 62
1
 10
1565.944111
 20
731.030485
 11
1565.444111
 21
731.030485
  0
LINE
  8
0
  6
CONTINUOUS
 62
1
 10
1607.944111
 20
731.030485
 11
1596.944111
 21
735.030470
  0
LINE
  8
0
  6
CONTINUOUS
 62
1
 10
1555.944111
 20
731.030485
 11
1566.944111
 21
735.030470
  0
ARC
  8
0
  6
CONTINUOUS
 62
1
 10
1597.412540
 20
771.030477
 40
5.999996
 50
269.999969
 51
359.403160
  0
ARC
  8
0
  6
CONTINUOUS
 62
1
 10
1566.475697
 20
771.030477
 40
6.000000
 50
180.596802
 51
270.000000
  0
LINE
  8
0
  6
CONTINUOUS
 62
1
 10
1603.444111
 20
774.030477
 11
1560.444111
 21
774.030477
  0
LINE
  8
0
  6
CONTINUOUS
 62
1
 10
1604.382267
 20
864.092985
 11
1603.412220
 21
770.967977
  0
LINE
  8
0
  6
CONTINUOUS
 62
1
 10
1566.944111
 20
765.030477
 11
1566.944111
 21
735.030470
  0
LINE
  8
0
  6
CONTINUOUS
 62
1
 10
1596.944111
 20
765.030477
 11
1596.944111
 21
735.030470
  0
LINE
  8
0
  6
CONTINUOUS
 62
1
 10
1607.944111
 20
731.030485
 11
1597.944111
 21
731.030485
  0
LINE
  8
0
  6
CONTINUOUS
 62
1
 10
1555.944111
 20
731.030485
 11
1555.944111
 21
730.030485
  0
LINE
  8
0
  6
CONTINUOUS
 62
1
 10
1598.444111
 20
731.030485
 11
1555.944111
 21
731.030485
  0
LINE
  8
0
  6
CONTINUOUS
 62
1
 10
1596.944111
 20
735.030470
 11
1566.975056
 21
735.030470
  0
LINE
  8
0
  6
CONTINUOUS
 62
1
 10
1597.412540
 20
765.030477
 11
1566.475697
 21
765.030477
  0
LINE
  8
0
  6
CONTINUOUS
 62
1
 10
1607.944111
 20
730.030485
 11
1555.944111
 21
730.030485
  0
LINE
  8
0
  6
CONTINUOUS
 62
1
 10
1607.944111
 20
731.030485
 11
1607.944111
 21
730.030485
  0
LINE
  8
0
  6
CONTINUOUS
 62
1
 10
1593.314111
 20
1600.030485
 11
1263.544111
 21
1600.030485
  0
ARC
  8
0
  6
CONTINUOUS
 62
1
 10
1263.544111
 20
1580.030485
 40
20.000000
 50
89.999000
 51
153.740000
  0
LINE
  8
0
  6
CONTINUOUS
 62
1
 10
1245.604111
 20
1588.880485
 11
1243.464111
 21
1584.530485
  0
LINE
  8
0
  6
CONTINUOUS
 62
1
 10
1632.944111
 20
1600.030485
 11
1632.944111
 21
1645.030485
  0
LINE
  8
0
  6
CONTINUOUS
 62
1
 10
1632.944111
 20
1645.030485
 11
782.944111
 21
1645.030485
  0
LINE
  8
0
  6
CONTINUOUS
 62
1
 10
782.944111
 20
1645.030485
 11
782.944111
 21
1600.030485
  0
LINE
  8
0
  6
CONTINUOUS
 62
1
 10
1657.944111
 20
1600.030485
 11
1657.944111
 21
1625.030485
  0
LINE
  8
0
  6
CONTINUOUS
 62
1
 10
1657.944111
 20
1625.030485
 11
1632.944111
 21
1625.030485
  0
LINE
  8
0
  6
CONTINUOUS
 62
1
 10
1657.944111
 20
1615.030485
 11
1632.944111
 21
1615.030485
  0
LINE
  8
0
  6
CONTINUOUS
 62
1
 10
757.944111
 20
1600.030485
 11
757.944111
 21
1625.030485
  0
LINE
  8
0
  6
CONTINUOUS
 62
1
 10
757.944111
 20
1625.030485
 11
782.944111
 21
1625.030485
  0
LINE
  8
0
  6
CONTINUOUS
 62
1
 10
782.944111
 20
1615.030485
 11
757.944111
 21
1615.030485
  0
ARC
  8
0
  6
CONTINUOUS
 62
1
 10
1607.944111
 20
1625.030485
 40
7.500000
 50
0.000000
 51
180.000000
  0
LINE
  8
0
  6
CONTINUOUS
 62
1
 10
1615.444111
 20
1625.030485
 11
1615.444111
 21
1622.030485
  0
ARC
  8
0
  6
CONTINUOUS
 62
1
 10
1562.944111
 20
1622.030485
 40
52.500000
 50
270.000000
 51
0.000000
  0
LINE
  8
0
  6
CONTINUOUS
 62
1
 10
1562.944111
 20
1569.530485
 11
852.944111
 21
1569.530485
  0
ARC
  8
0
  6
CONTINUOUS
 62
1
 10
852.944111
 20
1622.030485
 40
52.500000
 50
180.000000
 51
270.000000
  0
LINE
  8
0
  6
CONTINUOUS
 62
1
 10
800.444111
 20
1622.030485
 11
800.444111
 21
1625.030485
  0
ARC
  8
0
  6
CONTINUOUS
 62
1
 10
807.944111
 20
1625.030485
 40
7.500000
 50
0.000000
 51
180.000000
  0
LINE
  8
0
  6
CONTINUOUS
 62
1
 10
815.444111
 20
1625.030485
 11
815.444111
 21
1622.030485
  0
ARC
  8
0
  6
CONTINUOUS
 62
1
 10
852.944111
 20
1622.030485
 40
37.500000
 50
180.000000
 51
270.000000
  0
LINE
  8
0
  6
CONTINUOUS
 62
1
 10
852.944111
 20
1584.530485
 11
1562.944111
 21
1584.530485
  0
ARC
  8
0
  6
CONTINUOUS
 62
1
 10
1562.944111
 20
1622.030485
 40
37.500000
 50
270.001000
 51
0.001000
  0
LINE
  8
0
  6
CONTINUOUS
 62
1
 10
1600.444111
 20
1622.030485
 11
1600.444111
 21
1625.030485
  0
LINE
  8
0
  6
CONTINUOUS
 62
1
 10
805.274111
 20
1600.030485
 11
757.944111
 21
1600.030485
  0
LINE
  8
0
  6
CONTINUOUS
 62
1
 10
757.944111
 20
1600.030485
 11
757.944111
 21
880.030485
  0
LINE
  8
0
  6
CONTINUOUS
 62
1
 10
757.944111
 20
880.030485
 11
1657.944111
 21
880.030485
  0
LINE
  8
0
  6
CONTINUOUS
 62
1
 10
1657.944111
 20
880.030485
 11
1657.944111
 21
1600.030485
  0
LINE
  8
0
  6
CONTINUOUS
 62
1
 10
1657.944111
 20
1600.030485
 11
1610.614111
 21
1600.030485
  0
LINE
  8
0
  6
CONTINUOUS
 62
1
 10
1657.944111
 20
1450.030485
 11
757.944111
 21
1450.030485
  0
LINE
  8
0
  6
CONTINUOUS
 62
1
 10
757.944111
 20
1415.030485
 11
1657.944111
 21
1415.030485
  0
LINE
  8
0
  6
CONTINUOUS
 62
1
 10
1657.944111
 20
1362.030485
 11
1605.644111
 21
1362.030485
  0
LINE
  8
0
  6
CONTINUOUS
 62
1
 10
757.944111
 20
1055.030485
 11
1657.944111
 21
1055.030485
  0
LINE
  8
0
  6
CONTINUOUS
 62
1
 10
757.944111
 20
1563.030485
 11
1137.144111
 21
1563.030485
  0
ARC
  8
0
  6
CONTINUOUS
 62
1
 10
1137.144111
 20
1543.030485
 40
20.000000
 50
26.257000
 51
89.999000
  0
LINE
  8
0
  6
CONTINUOUS
 62
1
 10
1155.084111
 20
1551.880485
 11
1162.904111
 21
1536.040485
  0
ARC
  8
0
  6
CONTINUOUS
 62
1
 10
1207.944111
 20
1558.260485
 40
50.230000
 50
206.257000
 51
333.743000
  0
LINE
  8
0
  6
CONTINUOUS
 62
1
 10
1252.984111
 20
1536.040485
 11
1260.804111
 21
1551.880485
  0
ARC
  8
0
  6
CONTINUOUS
 62
1
 10
1278.744111
 20
1543.030485
 40
20.000000
 50
90.001000
 51
153.743000
  0
LINE
  8
0
  6
CONTINUOUS
 62
1
 10
1278.744111
 20
1563.030485
 11
1657.944111
 21
1563.030485
  0
LINE
  8
0
  6
CONTINUOUS
 62
1
 10
1163.104111
 20
1569.530485
 11
1176.354111
 21
1542.670485
  0
ARC
  8
0
  6
CONTINUOUS
 62
1
 10
1207.944111
 20
1558.260485
 40
35.230000
 50
206.257000
 51
333.743000
  0
LINE
  8
0
  6
CONTINUOUS
 62
1
 10
1239.534111
 20
1542.670485
 11
1252.784111
 21
1569.530485
  0
LINE
  8
0
  6
CONTINUOUS
 62
1
 10
1152.344111
 20
1600.030485
 11
1263.544111
 21
1600.030485
  0
LINE
  8
0
  6
CONTINUOUS
 62
1
 10
1236.064111
 20
1569.530485
 11
1226.084111
 21
1549.310485
  0
ARC
  8
0
  6
CONTINUOUS
 62
1
 10
1207.944111
 20
1558.260485
 40
20.230000
 50
206.257000
 51
333.743000
  0
LINE
  8
0
  6
CONTINUOUS
 62
1
 10
1189.804111
 20
1549.310485
 11
1179.824111
 21
1569.530485
  0
LINE
  8
0
  6
CONTINUOUS
 62
1
 10
1172.424111
 20
1584.530485
 11
1170.284111
 21
1588.880485
  0
ARC
  8
0
  6
CONTINUOUS
 62
1
 10
1152.344111
 20
1580.030485
 40
20.000000
 50
26.260000
 51
90.000000
  0
LINE
  8
0
  6
CONTINUOUS
 62
1
 10
1152.344111
 20
1600.030485
 11
822.574111
 21
1600.030485
  0
ARC
  8
0
  6
CONTINUOUS
 62
1
 10
1577.944111
 20
1295.030485
 40
72.500000
 50
0.000000
 51
180.000000
  0
ARC
  8
0
  6
CONTINUOUS
 62
1
 10
1577.944111
 20
1295.030485
 40
72.500000
 50
180.000000
 51
0.000000
  0
ARC
  8
0
  6
CONTINUOUS
 62
1
 10
1577.944111
 20
1295.030485
 40
59.560000
 50
180.000000
 51
0.000000
  0
ARC
  8
0
  6
CONTINUOUS
 62
1
 10
1577.944111
 20
1295.030485
 40
59.560000
 50
0.000000
 51
180.000000
  0
ARC
  8
0
  6
CONTINUOUS
 62
1
 10
1577.944111
 20
1295.030485
 40
29.410000
 50
180.000000
 51
0.000000
  0
ARC
  8
0
  6
CONTINUOUS
 62
1
 10
1577.944111
 20
1295.030485
 40
29.410000
 50
0.000000
 51
180.000000
  0
ARC
  8
0
  6
CONTINUOUS
 62
1
 10
1577.944111
 20
1295.030485
 40
18.030000
 50
180.000000
 51
0.000000
  0
ARC
  8
0
  6
CONTINUOUS
 62
1
 10
1577.944111
 20
1295.030485
 40
18.030000
 50
0.000000
 51
180.000000
  0
LINE
  8
0
  6
CONTINUOUS
 62
1
 10
1550.244111
 20
1362.030485
 11
757.944111
 21
1362.030485
  0
LINE
  8
0
  6
CONTINUOUS
 62
1
 10
767.944111
 20
880.030485
 11
772.944111
 21
870.030485
  0
LINE
  8
0
  6
CONTINUOUS
 62
1
 10
772.944111
 20
870.030485
 11
1642.944111
 21
870.030485
  0
LINE
  8
0
  6
CONTINUOUS
 62
1
 10
1642.944111
 20
870.030485
 11
1647.944111
 21
880.030485
  0
LINE
  8
0
  6
CONTINUOUS
 62
1
 10
1602.003911
 20
916.030485
 11
1602.003911
 21
969.030485
  0
LINE
  8
0
  6
CONTINUOUS
 62
1
 10
1637.003911
 20
916.030485
 11
1637.003911
 21
969.030485
  0
LINE
  8
0
  6
CONTINUOUS
 62
1
 10
1602.003911
 20
969.030485
 11
1637.003911
 21
969.030485
  0
LINE
  8
0
  6
CONTINUOUS
 62
1
 10
1602.003911
 20
916.030485
 11
1637.003911
 21
916.030485
  0
CIRCLE
  8
0
  6
CONTINUOUS
 62
1
 10
955.977696
 20
1016.030485
 40
10.500000
  0
CIRCLE
  8
0
  6
CONTINUOUS
 62
1
 10
1455.977696
 20
1016.030485
 40
10.500000
  0
CIRCLE
  8
0
  6
CONTINUOUS
 62
1
 10
891.940170
 20
1331.330473
 40
3.000000
  0
CIRCLE
  8
0
  6
CONTINUOUS
 62
1
 10
841.940170
 20
1295.830442
 40
4.800000
  0
CIRCLE
  8
0
  6
CONTINUOUS
 62
1
 10
801.940170
 20
1295.830414
 40
4.800000
  0
LINE
  8
0
  6
CONTINUOUS
 62
1
 10
843.440170
 20
1280.880442
 11
843.440170
 21
1271.588542
  0
LINE
  8
0
  6
CONTINUOUS
 62
1
 10
840.440170
 20
1280.880442
 11
840.440170
 21
1271.588542
  0
ARC
  8
0
  6
CONTINUOUS
 62
1
 10
841.940170
 20
1280.880442
 40
1.500000
 50
0.000000
 51
180.000000
  0
LINE
  8
0
  6
CONTINUOUS
 62
1
 10
843.440170
 20
1273.885237
 11
840.440170
 21
1273.885237
  0
ARC
  8
0
  6
CONTINUOUS
 62
1
 10
841.940170
 20
1267.880442
 40
4.000000
 50
0.000000
 51
67.975687
  0
ARC
  8
0
  6
CONTINUOUS
 62
1
 10
841.940170
 20
1267.880442
 40
4.000000
 50
112.024313
 51
0.000000
  0
CIRCLE
  8
0
  6
CONTINUOUS
 62
1
 10
801.940185
 20
1273.080414
 40
9.250000
  0
ARC
  8
0
  6
CONTINUOUS
 62
1
 10
801.940185
 20
1273.080414
 40
7.250000
 50
0.920194
 51
168.059456
  0
LINE
  8
0
  6
CONTINUOUS
 62
1
 10
802.940185
 20
1277.580414
 11
802.940185
 21
1270.880414
  0
LINE
  8
0
  6
CONTINUOUS
 62
1
 10
800.940185
 20
1274.706059
 11
800.940185
 21
1268.006059
  0
LINE
  8
0
  6
CONTINUOUS
 62
1
 10
794.847055
 20
1274.580414
 11
802.940185
 21
1277.580414
  0
LINE
  8
0
  6
CONTINUOUS
 62
1
 10
800.940185
 20
1274.706059
 11
794.722081
 21
1272.401102
  0
LINE
  8
0
  6
CONTINUOUS
 62
1
 10
802.940185
 20
1270.880414
 11
809.189250
 21
1273.196847
  0
LINE
  8
0
  6
CONTINUOUS
 62
1
 10
808.868566
 20
1270.944989
 11
800.940185
 21
1268.006059
  0
ARC
  8
0
  6
CONTINUOUS
 62
1
 10
801.940185
 20
1273.080414
 40
7.250000
 50
185.376398
 51
342.869956
  0
POLYLINE
  8
0
  6
CONTINUOUS
 62
1
 66
1
 70
2
  0
VERTEX
  8
0
 10
894.440170
 20
1326.276011
 70
0
 42
0.305572
  0
VERTEX
  8
0
 10
893.190170
 20
1327.096570
 70
0
 42
0.101553
  0
VERTEX
  8
0
 10
890.690170
 20
1327.096570
 70
0
 42
0.305572
  0
VERTEX
  8
0
 10
889.440170
 20
1326.276011
 70
0
 42
0.305572
  0
VERTEX
  8
0
 10
890.690170
 20
1325.455452
 70
0
 42
0.101553
  0
VERTEX
  8
0
 10
893.190170
 20
1325.455452
 70
0
 42
0.305572
  0
VERTEX
  8
0
 10
894.440170
 20
1326.276011
 70
0
  0
SEQEND
  0
POLYLINE
  8
0
  6
CONTINUOUS
 62
1
 66
1
 70
2
  0
VERTEX
  8
0
 10
894.240170
 20
1326.276011
 70
0
 42
0.305572
  0
VERTEX
  8
0
 10
893.090170
 20
1327.030925
 70
0
 42
0.101553
  0
VERTEX
  8
0
 10
890.790170
 20
1327.030925
 70
0
 42
0.305572
  0
VERTEX
  8
0
 10
889.640170
 20
1326.276011
 70
0
 42
0.305572
  0
VERTEX
  8
0
 10
890.790170
 20
1325.521097
 70
0
 42
0.101553
  0
VERTEX
  8
0
 10
893.090170
 20
1325.521097
 70
0
 42
0.305572
  0
VERTEX
  8
0
 10
894.240170
 20
1326.276011
 70
0
  0
SEQEND
  0
POLYLINE
  8
0
  6
CONTINUOUS
 62
1
 66
1
 70
2
  0
VERTEX
  8
0
 10
894.040170
 20
1326.276011
 70
0
 42
0.305572
  0
VERTEX
  8
0
 10
892.990170
 20
1326.965281
 70
0
 42
0.101553
  0
VERTEX
  8
0
 10
890.890170
 20
1326.965281
 70
0
 42
0.305572
  0
VERTEX
  8
0
 10
889.840170
 20
1326.276011
 70
0
 42
0.305572
  0
VERTEX
  8
0
 10
890.890170
 20
1325.586741
 70
0
 42
0.101553
  0
VERTEX
  8
0
 10
892.990170
 20
1325.586741
 70
0
 42
0.305572
  0
VERTEX
  8
0
 10
894.040170
 20
1326.276011
 70
0
  0
SEQEND
  0
POLYLINE
  8
0
  6
CONTINUOUS
 62
1
 66
1
 70
2
  0
VERTEX
  8
0
 10
893.840170
 20
1326.276011
 70
0
 42
0.305572
  0
VERTEX
  8
0
 10
892.890170
 20
1326.899636
 70
0
 42
0.101553
  0
VERTEX
  8
0
 10
890.990170
 20
1326.899636
 70
0
 42
0.305572
  0
VERTEX
  8
0
 10
890.040170
 20
1326.276011
 70
0
 42
0.305572
  0
VERTEX
  8
0
 10
890.990170
 20
1325.652386
 70
0
 42
0.101553
  0
VERTEX
  8
0
 10
892.890170
 20
1325.652386
 70
0
 42
0.305572
  0
VERTEX
  8
0
 10
893.840170
 20
1326.276011
 70
0
  0
SEQEND
  0
POLYLINE
  8
0
  6
CONTINUOUS
 62
1
 66
1
 70
2
  0
VERTEX
  8
0
 10
893.640170
 20
1326.276011
 70
0
 42
0.305710
  0
VERTEX
  8
0
 10
892.465499
 20
1326.888777
 70
0
 42
0.135164
  0
VERTEX
  8
0
 10
890.564841
 20
1326.654721
 70
0
 42
0.857308
  0
VERTEX
  8
0
 10
890.564841
 20
1325.897301
 70
0
 42
0.135164
  0
VERTEX
  8
0
 10
892.465499
 20
1325.663245
 70
0
 42
0.305710
  0
VERTEX
  8
0
 10
893.640170
 20
1326.276011
 70
0
  0
SEQEND
  0
POLYLINE
  8
0
  6
CONTINUOUS
 62
1
 66
1
 70
2
  0
VERTEX
  8
0
 10
893.440170
 20
1326.276011
 70
0
 42
0.305710
  0
VERTEX
  8
0
 10
892.403696
 20
1326.816687
 70
0
 42
0.135164
  0
VERTEX
  8
0
 10
890.726645
 20
1326.610167
 70
0
 42
0.857308
  0
VERTEX
  8
0
 10
890.726645
 20
1325.941855
 70
0
 42
0.135164
  0
VERTEX
  8
0
 10
892.403696
 20
1325.735335
 70
0
 42
0.305710
  0
VERTEX
  8
0
 10
893.440170
 20
1326.276011
 70
0
  0
SEQEND
  0
POLYLINE
  8
0
  6
CONTINUOUS
 62
1
 66
1
 70
2
  0
VERTEX
  8
0
 10
893.240170
 20
1326.276011
 70
0
 42
0.305710
  0
VERTEX
  8
0
 10
892.341892
 20
1326.744597
 70
0
 42
0.135164
  0
VERTEX
  8
0
 10
890.888448
 20
1326.565613
 70
0
 42
0.857308
  0
VERTEX
  8
0
 10
890.888448
 20
1325.986409
 70
0
 42
0.135164
  0
VERTEX
  8
0
 10
892.341892
 20
1325.807425
 70
0
 42
0.305710
  0
VERTEX
  8
0
 10
893.240170
 20
1326.276011
 70
0
  0
SEQEND
  0
POLYLINE
  8
0
  6
CONTINUOUS
 62
1
 66
1
 70
2
  0
VERTEX
  8
0
 10
893.040170
 20
1326.276011
 70
0
 42
0.301311
  0
VERTEX
  8
0
 10
891.940170
 20
1326.692911
 70
0
 42
0.301311
  0
VERTEX
  8
0
 10
890.840170
 20
1326.276011
 70
0
 42
0.301311
  0
VERTEX
  8
0
 10
891.940170
 20
1325.859111
 70
0
 42
0.301311
  0
VERTEX
  8
0
 10
893.040170
 20
1326.276011
 70
0
  0
SEQEND
  0
POLYLINE
  8
0
  6
CONTINUOUS
 62
1
 66
1
 70
2
  0
VERTEX
  8
0
 10
892.840170
 20
1326.276011
 70
0
 42
0.301311
  0
VERTEX
  8
0
 10
891.940170
 20
1326.617111
 70
0
 42
0.301311
  0
VERTEX
  8
0
 10
891.040170
 20
1326.276011
 70
0
 42
0.301311
  0
VERTEX
  8
0
 10
891.940170
 20
1325.934911
 70
0
 42
0.301311
  0
VERTEX
  8
0
 10
892.840170
 20
1326.276011
 70
0
  0
SEQEND
  0
POLYLINE
  8
0
  6
CONTINUOUS
 62
1
 66
1
 70
2
  0
VERTEX
  8
0
 10
892.640170
 20
1326.276011
 70
0
 42
0.301311
  0
VERTEX
  8
0
 10
891.940170
 20
1326.541311
 70
0
 42
0.301311
  0
VERTEX
  8
0
 10
891.240170
 20
1326.276011
 70
0
 42
0.301311
  0
VERTEX
  8
0
 10
891.940170
 20
1326.010711
 70
0
 42
0.301311
  0
VERTEX
  8
0
 10
892.640170
 20
1326.276011
 70
0
  0
SEQEND
  0
POLYLINE
  8
0
  6
CONTINUOUS
 62
1
 66
1
 70
2
  0
VERTEX
  8
0
 10
892.440170
 20
1326.276011
 70
0
 42
0.301311
  0
VERTEX
  8
0
 10
891.940170
 20
1326.465511
 70
0
 42
0.301311
  0
VERTEX
  8
0
 10
891.440170
 20
1326.276011
 70
0
 42
0.301311
  0
VERTEX
  8
0
 10
891.940170
 20
1326.086511
 70
0
 42
0.301311
  0
VERTEX
  8
0
 10
892.440170
 20
1326.276011
 70
0
  0
SEQEND
  0
POLYLINE
  8
0
  6
CONTINUOUS
 62
1
 66
1
 70
2
  0
VERTEX
  8
0
 10
892.240170
 20
1326.276011
 70
0
 42
0.301311
  0
VERTEX
  8
0
 10
891.940170
 20
1326.389711
 70
0
 42
0.301311
  0
VERTEX
  8
0
 10
891.640170
 20
1326.276011
 70
0
 42
0.301311
  0
VERTEX
  8
0
 10
891.940170
 20
1326.162311
 70
0
 42
0.301311
  0
VERTEX
  8
0
 10
892.240170
 20
1326.276011
 70
0
  0
SEQEND
  0
ARC
  8
0
  6
CONTINUOUS
 62
1
 10
891.940170
 20
1295.830473
 40
32.500000
 50
90.502596
 51
90.000000
  0
ARC
  8
0
  6
CONTINUOUS
 62
1
 10
963.165170
 20
1295.830473
 40
61.225000
 50
156.778351
 51
203.221649
  0
ARC
  8
0
  6
CONTINUOUS
 62
1
 10
820.715170
 20
1295.830473
 40
61.225000
 50
336.778351
 51
23.221649
  0
ARC
  8
0
  6
CONTINUOUS
 62
1
 10
891.940170
 20
1324.230469
 40
0.250000
 50
180.251298
 51
359.748702
  0
LINE
  8
0
  6
CONTINUOUS
 62
1
 10
890.440934
 20
1315.272744
 11
891.690172
 21
1324.229372
  0
LINE
  8
0
  6
CONTINUOUS
 62
1
 10
892.190168
 20
1324.229372
 11
893.439406
 21
1315.272744
  0
LINE
  8
0
  6
CONTINUOUS
 62
1
 10
890.440170
 20
1278.884113
 11
890.440170
 21
1315.272695
  0
LINE
  8
0
  6
CONTINUOUS
 62
1
 10
893.440170
 20
1278.884113
 11
893.440170
 21
1315.272695
  0
ARC
  8
0
  6
CONTINUOUS
 62
1
 10
891.940170
 20
1310.334155
 40
4.651237
 50
71.196073
 51
108.803927
  0
CIRCLE
  8
0
  6
CONTINUOUS
 62
1
 10
891.940170
 20
1295.830473
 40
28.400000
  0
ARC
  8
0
  6
CONTINUOUS
 62
1
 10
891.940170
 20
1278.830473
 40
1.500000
 50
180.000000
 51
0.000000
  0
ARC
  8
0
  6
CONTINUOUS
 62
1
 10
891.940170
 20
1295.830473
 40
19.500000
 50
94.411726
 51
125.846828
  0
ARC
  8
0
  6
CONTINUOUS
 62
1
 10
891.940170
 20
1295.830473
 40
19.500000
 50
54.153171
 51
85.588274
  0
ARC
  8
0
  6
CONTINUOUS
 62
1
 10
881.106193
 20
1310.826304
 40
1.000000
 50
125.846828
 51
193.945195
  0
ARC
  8
0
  6
CONTINUOUS
 62
1
 10
902.774147
 20
1310.826304
 40
1.000000
 50
346.054805
 51
54.153172
  0
ARC
  8
0
  6
CONTINUOUS
 62
1
 10
891.940170
 20
1295.830473
 40
19.500000
 50
234.153172
 51
305.846828
  0
ARC
  8
0
  6
CONTINUOUS
 62
1
 10
881.106193
 20
1280.834642
 40
1.000000
 50
166.054805
 51
234.153172
  0
ARC
  8
0
  6
CONTINUOUS
 62
1
 10
902.774147
 20
1280.834642
 40
1.000000
 50
305.846828
 51
13.945195
  0
LINE
  8
0
  6
CONTINUOUS
 62
1
 10
867.677300
 20
1276.878844
 11
867.732261
 21
1276.609758
  0
LINE
  8
0
  6
CONTINUOUS
 62
1
 10
867.732261
 20
1276.609758
 11
866.348481
 21
1277.643896
  0
LINE
  8
0
  6
CONTINUOUS
 62
1
 10
866.348481
 20
1277.643896
 11
865.995810
 21
1278.129306
  0
LINE
  8
0
  6
CONTINUOUS
 62
1
 10
865.995810
 20
1278.129306
 11
866.609045
 21
1278.574847
  0
LINE
  8
0
  6
CONTINUOUS
 62
1
 10
866.609045
 20
1278.574847
 11
867.222280
 21
1279.020389
  0
LINE
  8
0
  6
CONTINUOUS
 62
1
 10
867.222280
 20
1279.020389
 11
867.486783
 21
1278.656331
  0
LINE
  8
0
  6
CONTINUOUS
 62
1
 10
867.486783
 20
1278.656331
 11
866.888879
 21
1278.221928
  0
LINE
  8
0
  6
CONTINUOUS
 62
1
 10
866.888879
 20
1278.221928
 11
866.382961
 21
1277.854357
  0
LINE
  8
0
  6
CONTINUOUS
 62
1
 10
866.382961
 20
1277.854357
 11
867.677300
 21
1276.878844
  0
LINE
  8
0
  6
CONTINUOUS
 62
1
 10
882.521008
 20
1267.094291
 11
882.562267
 21
1267.259775
  0
LINE
  8
0
  6
CONTINUOUS
 62
1
 10
882.562267
 20
1267.259775
 11
884.696918
 21
1266.727547
  0
LINE
  8
0
  6
CONTINUOUS
 62
1
 10
884.696918
 20
1266.727547
 11
886.831569
 21
1266.195319
  0
LINE
  8
0
  6
CONTINUOUS
 62
1
 10
886.831569
 20
1266.195319
 11
886.790309
 21
1266.029835
  0
POLYLINE
  8
0
  6
CONTINUOUS
 62
1
 66
1
 70
2
  0
VERTEX
  8
0
 10
886.790309
 20
1266.029835
 70
0
 42
-0.055305
  0
VERTEX
  8
0
 10
886.686781
 20
1265.821286
 70
0
  0
SEQEND
  0
POLYLINE
  8
0
  6
CONTINUOUS
 62
1
 66
1
 70
2
  0
VERTEX
  8
0
 10
886.686781
 20
1265.821286
 70
0
 42
-0.134337
  0
VERTEX
  8
0
 10
886.504561
 20
1265.710477
 70
0
  0
SEQEND
  0
POLYLINE
  8
0
  6
CONTINUOUS
 62
1
 66
1
 70
2
  0
VERTEX
  8
0
 10
886.504561
 20
1265.710477
 70
0
 42
-0.087551
  0
VERTEX
  8
0
 10
886.088937
 20
1265.696923
 70
0
  0
SEQEND
  0
POLYLINE
  8
0
  6
CONTINUOUS
 62
1
 66
1
 70
2
  0
VERTEX
  8
0
 10
886.088937
 20
1265.696923
 70
0
 42
-0.027068
  0
VERTEX
  8
0
 10
885.153402
 20
1265.871588
 70
0
  0
SEQEND
  0
LINE
  8
0
  6
CONTINUOUS
 62
1
 10
885.153402
 20
1265.871588
 11
883.344602
 21
1266.263982
  0
POLYLINE
  8
0
  6
CONTINUOUS
 62
1
 66
1
 70
2
  0
VERTEX
  8
0
 10
883.344602
 20
1266.263982
 70
0
 42
0.158884
  0
VERTEX
  8
0
 10
882.928977
 20
1266.250428
 70
0
  0
SEQEND
  0
POLYLINE
  8
0
  6
CONTINUOUS
 62
1
 66
1
 70
2
  0
VERTEX
  8
0
 10
882.928977
 20
1266.250428
 70
0
 42
0.317197
  0
VERTEX
  8
0
 10
882.807112
 20
1265.968331
 70
0
  0
SEQEND
  0
POLYLINE
  8
0
  6
CONTINUOUS
 62
1
 66
1
 70
2
  0
VERTEX
  8
0
 10
882.807112
 20
1265.968331
 70
0
 42
0.235432
  0
VERTEX
  8
0
 10
883.066109
 20
1265.767044
 70
0
  0
SEQEND
  0
POLYLINE
  8
0
  6
CONTINUOUS
 62
1
 66
1
 70
2
  0
VERTEX
  8
0
 10
883.066109
 20
1265.767044
 70
0
 42
0.039780
  0
VERTEX
  8
0
 10
883.493574
 20
1265.621405
 70
0
  0
SEQEND
  0
LINE
  8
0
  6
CONTINUOUS
 62
1
 10
883.493574
 20
1265.621405
 11
885.191591
 21
1265.198042
  0
POLYLINE
  8
0
  6
CONTINUOUS
 62
1
 66
1
 70
2
  0
VERTEX
  8
0
 10
885.191591
 20
1265.198042
 70
0
 42
0.045499
  0
VERTEX
  8
0
 10
885.787522
 20
1265.108050
 70
0
  0
SEQEND
  0
POLYLINE
  8
0
  6
CONTINUOUS
 62
1
 66
1
 70
2
  0
VERTEX
  8
0
 10
885.787522
 20
1265.108050
 70
0
 42
0.250514
  0
VERTEX
  8
0
 10
886.066771
 20
1265.194667
 70
0
  0
SEQEND
  0
LINE
  8
0
  6
CONTINUOUS
 62
1
 10
886.066771
 20
1265.194667
 11
886.117200
 21
1265.396925
  0
LINE
  8
0
  6
CONTINUOUS
 62
1
 10
886.117200
 20
1265.396925
 11
886.553833
 21
1265.288060
  0
LINE
  8
0
  6
CONTINUOUS
 62
1
 10
886.553833
 20
1265.288060
 11
886.507989
 21
1265.104189
  0
POLYLINE
  8
0
  6
CONTINUOUS
 62
1
 66
1
 70
2
  0
VERTEX
  8
0
 10
886.507989
 20
1265.104189
 70
0
 42
-0.296313
  0
VERTEX
  8
0
 10
886.201233
 20
1264.907250
 70
0
  0
SEQEND
  0
POLYLINE
  8
0
  6
CONTINUOUS
 62
1
 66
1
 70
2
  0
VERTEX
  8
0
 10
886.201233
 20
1264.907250
 70
0
 42
-0.066547
  0
VERTEX
  8
0
 10
885.693163
 20
1264.936275
 70
0
  0
SEQEND
  0
POLYLINE
  8
0
  6
CONTINUOUS
 62
1
 66
1
 70
2
  0
VERTEX
  8
0
 10
885.693163
 20
1264.936275
 70
0
 42
-0.018210
  0
VERTEX
  8
0
 10
883.165810
 20
1265.546885
 70
0
  0
SEQEND
  0
POLYLINE
  8
0
  6
CONTINUOUS
 62
1
 66
1
 70
2
  0
VERTEX
  8
0
 10
883.165810
 20
1265.546885
 70
0
 42
-0.111301
  0
VERTEX
  8
0
 10
882.474763
 20
1265.875423
 70
0
  0
SEQEND
  0
POLYLINE
  8
0
  6
CONTINUOUS
 62
1
 66
1
 70
2
  0
VERTEX
  8
0
 10
882.474763
 20
1265.875423
 70
0
 42
-0.336042
  0
VERTEX
  8
0
 10
882.354055
 20
1266.218001
 70
0
  0
SEQEND
  0
POLYLINE
  8
0
  6
CONTINUOUS
 62
1
 66
1
 70
2
  0
VERTEX
  8
0
 10
882.354055
 20
1266.218001
 70
0
 42
-0.266809
  0
VERTEX
  8
0
 10
882.568365
 20
1266.457520
 70
0
  0
SEQEND
  0
POLYLINE
  8
0
  6
CONTINUOUS
 62
1
 66
1
 70
2
  0
VERTEX
  8
0
 10
882.568365
 20
1266.457520
 70
0
 42
-0.113247
  0
VERTEX
  8
0
 10
883.187218
 20
1266.459463
 70
0
  0
SEQEND
  0
LINE
  8
0
  6
CONTINUOUS
 62
1
 10
883.187218
 20
1266.459463
 11
885.732909
 21
1265.922402
  0
POLYLINE
  8
0
  6
CONTINUOUS
 62
1
 66
1
 70
2
  0
VERTEX
  8
0
 10
885.732909
 20
1265.922402
 70
0
 42
0.100094
  0
VERTEX
  8
0
 10
886.139365
 20
1265.899182
 70
0
  0
SEQEND
  0
POLYLINE
  8
0
  6
CONTINUOUS
 62
1
 66
1
 70
2
  0
VERTEX
  8
0
 10
886.139365
 20
1265.899182
 70
0
 42
0.305118
  0
VERTEX
  8
0
 10
886.268486
 20
1266.003699
 70
0
  0
SEQEND
  0
LINE
  8
0
  6
CONTINUOUS
 62
1
 10
886.268486
 20
1266.003699
 11
886.305161
 21
1266.150796
  0
LINE
  8
0
  6
CONTINUOUS
 62
1
 10
886.305161
 20
1266.150796
 11
884.413084
 21
1266.622544
  0
LINE
  8
0
  6
CONTINUOUS
 62
1
 10
884.413084
 20
1266.622544
 11
882.521008
 21
1267.094291
  0
LINE
  8
0
  6
CONTINUOUS
 62
1
 10
907.286221
 20
1269.539948
 11
906.836824
 21
1269.320763
  0
LINE
  8
0
  6
CONTINUOUS
 62
1
 10
906.836824
 20
1269.320763
 11
906.778674
 21
1269.439988
  0
POLYLINE
  8
0
  6
CONTINUOUS
 62
1
 66
1
 70
2
  0
VERTEX
  8
0
 10
906.778674
 20
1269.439988
 70
0
 42
0.356158
  0
VERTEX
  8
0
 10
906.532459
 20
1269.488571
 70
0
  0
SEQEND
  0
POLYLINE
  8
0
  6
CONTINUOUS
 62
1
 66
1
 70
2
  0
VERTEX
  8
0
 10
906.532459
 20
1269.488571
 70
0
 42
0.043733
  0
VERTEX
  8
0
 10
906.156327
 20
1269.347286
 70
0
  0
SEQEND
  0
POLYLINE
  8
0
  6
CONTINUOUS
 62
1
 66
1
 70
2
  0
VERTEX
  8
0
 10
906.156327
 20
1269.347286
 70
0
 42
0.014896
  0
VERTEX
  8
0
 10
903.917649
 20
1268.234326
 70
0
  0
SEQEND
  0
POLYLINE
  8
0
  6
CONTINUOUS
 62
1
 66
1
 70
2
  0
VERTEX
  8
0
 10
903.917649
 20
1268.234326
 70
0
 42
0.118159
  0
VERTEX
  8
0
 10
903.681239
 20
1268.034686
 70
0
  0
SEQEND
  0
POLYLINE
  8
0
  6
CONTINUOUS
 62
1
 66
1
 70
2
  0
VERTEX
  8
0
 10
903.681239
 20
1268.034686
 70
0
 42
0.560835
  0
VERTEX
  8
0
 10
903.839075
 20
1267.711076
 70
0
  0
SEQEND
  0
POLYLINE
  8
0
  6
CONTINUOUS
 62
1
 66
1
 70
2
  0
VERTEX
  8
0
 10
903.839075
 20
1267.711076
 70
0
 42
0.141132
  0
VERTEX
  8
0
 10
904.240128
 20
1267.801263
 70
0
  0
SEQEND
  0
LINE
  8
0
  6
CONTINUOUS
 62
1
 10
904.240128
 20
1267.801263
 11
905.857957
 21
1268.590331
  0
LINE
  8
0
  6
CONTINUOUS
 62
1
 10
905.857957
 20
1268.590331
 11
905.924414
 21
1268.454074
  0
LINE
  8
0
  6
CONTINUOUS
 62
1
 10
905.924414
 20
1268.454074
 11
904.441404
 21
1267.730762
  0
POLYLINE
  8
0
  6
CONTINUOUS
 62
1
 66
1
 70
2
  0
VERTEX
  8
0
 10
904.441404
 20
1267.730762
 70
0
 42
0.084616
  0
VERTEX
  8
0
 10
904.106808
 20
1267.504317
 70
0
  0
SEQEND
  0
POLYLINE
  8
0
  6
CONTINUOUS
 62
1
 66
1
 70
2
  0
VERTEX
  8
0
 10
904.106808
 20
1267.504317
 70
0
 42
0.317106
  0
VERTEX
  8
0
 10
904.038446
 20
1267.302304
 70
0
  0
SEQEND
  0
LINE
  8
0
  6
CONTINUOUS
 62
1
 10
904.038446
 20
1267.302304
 11
904.096596
 21
1267.183079
  0
POLYLINE
  8
0
  6
CONTINUOUS
 62
1
 66
1
 70
2
  0
VERTEX
  8
0
 10
904.096596
 20
1267.183079
 70
0
 42
0.330723
  0
VERTEX
  8
0
 10
904.477631
 20
1267.200252
 70
0
  0
SEQEND
  0
POLYLINE
  8
0
  6
CONTINUOUS
 62
1
 66
1
 70
2
  0
VERTEX
  8
0
 10
904.477631
 20
1267.200252
 70
0
 42
0.014891
  0
VERTEX
  8
0
 10
906.769555
 20
1268.318098
 70
0
  0
SEQEND
  0
POLYLINE
  8
0
  6
CONTINUOUS
 62
1
 66
1
 70
2
  0
VERTEX
  8
0
 10
906.769555
 20
1268.318098
 70
0
 42
0.288339
  0
VERTEX
  8
0
 10
907.135881
 20
1268.707605
 70
0
  0
SEQEND
  0
LINE
  8
0
  6
CONTINUOUS
 62
1
 10
907.135881
 20
1268.707605
 11
907.086038
 21
1268.809798
  0
LINE
  8
0
  6
CONTINUOUS
 62
1
 10
907.086038
 20
1268.809798
 11
907.490496
 21
1269.007065
  0
LINE
  8
0
  6
CONTINUOUS
 62
1
 10
907.490496
 20
1269.007065
 11
907.548646
 21
1268.887840
  0
POLYLINE
  8
0
  6
CONTINUOUS
 62
1
 66
1
 70
2
  0
VERTEX
  8
0
 10
907.548646
 20
1268.887840
 70
0
 42
-0.349136
  0
VERTEX
  8
0
 10
907.350368
 20
1268.495960
 70
0
  0
SEQEND
  0
POLYLINE
  8
0
  6
CONTINUOUS
 62
1
 66
1
 70
2
  0
VERTEX
  8
0
 10
907.350368
 20
1268.495960
 70
0
 42
-0.045438
  0
VERTEX
  8
0
 10
906.970832
 20
1268.247597
 70
0
  0
SEQEND
  0
POLYLINE
  8
0
  6
CONTINUOUS
 62
1
 66
1
 70
2
  0
VERTEX
  8
0
 10
906.970832
 20
1268.247597
 70
0
 42
-0.018205
  0
VERTEX
  8
0
 10
904.409269
 20
1266.998239
 70
0
  0
SEQEND
  0
POLYLINE
  8
0
  6
CONTINUOUS
 62
1
 66
1
 70
2
  0
VERTEX
  8
0
 10
904.409269
 20
1266.998239
 70
0
 42
-0.158884
  0
VERTEX
  8
0
 10
903.795228
 20
1266.888506
 70
0
  0
SEQEND
  0
POLYLINE
  8
0
  6
CONTINUOUS
 62
1
 66
1
 70
2
  0
VERTEX
  8
0
 10
903.795228
 20
1266.888506
 70
0
 42
-0.359087
  0
VERTEX
  8
0
 10
903.612471
 20
1267.263213
 70
0
  0
SEQEND
  0
POLYLINE
  8
0
  6
CONTINUOUS
 62
1
 66
1
 70
2
  0
VERTEX
  8
0
 10
903.612471
 20
1267.263213
 70
0
 42
-0.111227
  0
VERTEX
  8
0
 10
904.003718
 20
1267.601623
 70
0
  0
SEQEND
  0
POLYLINE
  8
0
  6
CONTINUOUS
 62
1
 66
1
 70
2
  0
VERTEX
  8
0
 10
904.003718
 20
1267.601623
 70
0
 42
-0.104386
  0
VERTEX
  8
0
 10
903.512785
 20
1267.467599
 70
0
  0
SEQEND
  0
POLYLINE
  8
0
  6
CONTINUOUS
 62
1
 66
1
 70
2
  0
VERTEX
  8
0
 10
903.512785
 20
1267.467599
 70
0
 42
-0.316476
  0
VERTEX
  8
0
 10
903.253359
 20
1267.657325
 70
0
  0
SEQEND
  0
POLYLINE
  8
0
  6
CONTINUOUS
 62
1
 66
1
 70
2
  0
VERTEX
  8
0
 10
903.253359
 20
1267.657325
 70
0
 42
-0.187834
  0
VERTEX
  8
0
 10
903.280186
 20
1267.944499
 70
0
  0
SEQEND
  0
POLYLINE
  8
0
  6
CONTINUOUS
 62
1
 66
1
 70
2
  0
VERTEX
  8
0
 10
903.280186
 20
1267.944499
 70
0
 42
-0.108732
  0
VERTEX
  8
0
 10
903.671433
 20
1268.282909
 70
0
  0
SEQEND
  0
POLYLINE
  8
0
  6
CONTINUOUS
 62
1
 66
1
 70
2
  0
VERTEX
  8
0
 10
903.671433
 20
1268.282909
 70
0
 42
-0.011621
  0
VERTEX
  8
0
 10
905.047949
 20
1268.996449
 70
0
  0
SEQEND
  0
POLYLINE
  8
0
  6
CONTINUOUS
 62
1
 66
1
 70
2
  0
VERTEX
  8
0
 10
905.047949
 20
1268.996449
 70
0
 42
-0.011616
  0
VERTEX
  8
0
 10
906.547574
 20
1269.685697
 70
0
  0
SEQEND
  0
POLYLINE
  8
0
  6
CONTINUOUS
 62
1
 66
1
 70
2
  0
VERTEX
  8
0
 10
906.547574
 20
1269.685697
 70
0
 42
-0.151601
  0
VERTEX
  8
0
 10
907.071735
 20
1269.751593
 70
0
  0
SEQEND
  0
POLYLINE
  8
0
  6
CONTINUOUS
 62
1
 66
1
 70
2
  0
VERTEX
  8
0
 10
907.071735
 20
1269.751593
 70
0
 42
-0.209839
  0
VERTEX
  8
0
 10
907.286221
 20
1269.539948
 70
0
  0
SEQEND
  0
LINE
  8
0
  6
CONTINUOUS
 62
1
 10
920.478886
 20
1285.736699
 11
920.686626
 21
1285.644207
  0
LINE
  8
0
  6
CONTINUOUS
 62
1
 10
920.686626
 20
1285.644207
 11
920.462590
 21
1283.883073
  0
LINE
  8
0
  6
CONTINUOUS
 62
1
 10
920.462590
 20
1283.883073
 11
920.267965
 21
1282.327771
  0
LINE
  8
0
  6
CONTINUOUS
 62
1
 10
920.267965
 20
1282.327771
 11
920.003586
 21
1281.733966
  0
LINE
  8
0
  6
CONTINUOUS
 62
1
 10
920.003586
 20
1281.733966
 11
919.068755
 21
1282.150180
  0
LINE
  8
0
  6
CONTINUOUS
 62
1
 10
919.068755
 20
1282.150180
 11
918.784040
 21
1281.510698
  0
LINE
  8
0
  6
CONTINUOUS
 62
1
 10
918.784040
 20
1281.510698
 11
918.628234
 21
1281.580067
  0
LINE
  8
0
  6
CONTINUOUS
 62
1
 10
918.628234
 20
1281.580067
 11
918.912950
 21
1282.219549
  0
LINE
  8
0
  6
CONTINUOUS
 62
1
 10
918.912950
 20
1282.219549
 11
918.618651
 21
1282.350579
  0
LINE
  8
0
  6
CONTINUOUS
 62
1
 10
918.618651
 20
1282.350579
 11
918.801683
 21
1282.761674
  0
LINE
  8
0
  6
CONTINUOUS
 62
1
 10
918.801683
 20
1282.761674
 11
919.095982
 21
1282.630644
  0
LINE
  8
0
  6
CONTINUOUS
 62
1
 10
919.095982
 20
1282.630644
 11
919.990802
 21
1284.640444
  0
LINE
  8
0
  6
CONTINUOUS
 62
1
 10
919.990802
 20
1284.640444
 11
920.478886
 21
1285.736699
  0
LINE
  8
0
  6
CONTINUOUS
 62
1
 10
920.431323
 20
1285.210557
 11
919.251787
 21
1282.561275
  0
LINE
  8
0
  6
CONTINUOUS
 62
1
 10
919.251787
 20
1282.561275
 11
920.048124
 21
1282.206723
  0
LINE
  8
0
  6
CONTINUOUS
 62
1
 10
920.048124
 20
1282.206723
 11
920.431323
 21
1285.210557
  0
LINE
  8
0
  6
CONTINUOUS
 62
1
 10
922.509400
 20
1298.102181
 11
923.305300
 21
1298.102181
  0
LINE
  8
0
  6
CONTINUOUS
 62
1
 10
923.305300
 20
1298.102181
 11
923.305300
 21
1295.952181
  0
LINE
  8
0
  6
CONTINUOUS
 62
1
 10
923.305300
 20
1295.952181
 11
923.305300
 21
1293.852181
  0
LINE
  8
0
  6
CONTINUOUS
 62
1
 10
923.305300
 20
1293.852181
 11
923.153700
 21
1293.852181
  0
LINE
  8
0
  6
CONTINUOUS
 62
1
 10
923.153700
 20
1293.852181
 11
923.153700
 21
1295.852181
  0
LINE
  8
0
  6
CONTINUOUS
 62
1
 10
923.153700
 20
1295.852181
 11
923.153700
 21
1297.652181
  0
LINE
  8
0
  6
CONTINUOUS
 62
1
 10
923.153700
 20
1297.652181
 11
922.642050
 21
1297.652181
  0
POLYLINE
  8
0
  6
CONTINUOUS
 62
1
 66
1
 70
2
  0
VERTEX
  8
0
 10
922.642050
 20
1297.652181
 70
0
 42
-0.135220
  0
VERTEX
  8
0
 10
922.793650
 20
1297.202181
 70
0
  0
SEQEND
  0
POLYLINE
  8
0
  6
CONTINUOUS
 62
1
 66
1
 70
2
  0
VERTEX
  8
0
 10
922.793650
 20
1297.202181
 70
0
 42
-0.023491
  0
VERTEX
  8
0
 10
922.831550
 20
1296.402181
 70
0
  0
SEQEND
  0
LINE
  8
0
  6
CONTINUOUS
 62
1
 10
922.831550
 20
1296.402181
 11
922.831550
 21
1295.252181
  0
POLYLINE
  8
0
  6
CONTINUOUS
 62
1
 66
1
 70
2
  0
VERTEX
  8
0
 10
922.831550
 20
1295.252181
 70
0
 42
-0.018448
  0
VERTEX
  8
0
 10
922.793650
 20
1294.452181
 70
0
  0
SEQEND
  0
POLYLINE
  8
0
  6
CONTINUOUS
 62
1
 66
1
 70
2
  0
VERTEX
  8
0
 10
922.793650
 20
1294.452181
 70
0
 42
-0.191799
  0
VERTEX
  8
0
 10
922.547300
 20
1293.802181
 70
0
  0
SEQEND
  0
POLYLINE
  8
0
  6
CONTINUOUS
 62
1
 66
1
 70
2
  0
VERTEX
  8
0
 10
922.547300
 20
1293.802181
 70
0
 42
-0.207656
  0
VERTEX
  8
0
 10
922.073550
 20
1293.802181
 70
0
  0
SEQEND
  0
POLYLINE
  8
0
  6
CONTINUOUS
 62
1
 66
1
 70
2
  0
VERTEX
  8
0
 10
922.073550
 20
1293.802181
 70
0
 42
-0.225962
  0
VERTEX
  8
0
 10
921.884050
 20
1294.052181
 70
0
  0
SEQEND
  0
POLYLINE
  8
0
  6
CONTINUOUS
 62
1
 66
1
 70
2
  0
VERTEX
  8
0
 10
921.884050
 20
1294.052181
 70
0
 42
-0.060870
  0
VERTEX
  8
0
 10
921.789300
 20
1294.902181
 70
0
  0
SEQEND
  0
LINE
  8
0
  6
CONTINUOUS
 62
1
 10
921.789300
 20
1294.902181
 11
921.789300
 21
1297.102181
  0
POLYLINE
  8
0
  6
CONTINUOUS
 62
1
 66
1
 70
2
  0
VERTEX
  8
0
 10
921.789300
 20
1297.102181
 70
0
 42
-0.058327
  0
VERTEX
  8
0
 10
921.865100
 20
1297.852181
 70
0
  0
SEQEND
  0
POLYLINE
  8
0
  6
CONTINUOUS
 62
1
 66
1
 70
2
  0
VERTEX
  8
0
 10
921.865100
 20
1297.852181
 70
0
 42
-0.186290
  0
VERTEX
  8
0
 10
922.054600
 20
1298.152181
 70
0
  0
SEQEND
  0
POLYLINE
  8
0
  6
CONTINUOUS
 62
1
 66
1
 70
2
  0
VERTEX
  8
0
 10
922.054600
 20
1298.152181
 70
0
 42
-0.109888
  0
VERTEX
  8
0
 10
922.263050
 20
1298.202181
 70
0
  0
SEQEND
  0
LINE
  8
0
  6
CONTINUOUS
 62
1
 10
922.263050
 20
1298.202181
 11
922.263050
 21
1297.702181
  0
LINE
  8
0
  6
CONTINUOUS
 62
1
 10
922.263050
 20
1297.702181
 11
922.149350
 21
1297.702181
  0
POLYLINE
  8
0
  6
CONTINUOUS
 62
1
 66
1
 70
2
  0
VERTEX
  8
0
 10
922.149350
 20
1297.702181
 70
0
 42
0.303042
  0
VERTEX
  8
0
 10
921.959850
 20
1297.252181
 70
0
  0
SEQEND
  0
POLYLINE
  8
0
  6
CONTINUOUS
 62
1
 66
1
 70
2
  0
VERTEX
  8
0
 10
921.959850
 20
1297.252181
 70
0
 42
0.014891
  0
VERTEX
  8
0
 10
921.959850
 20
1294.802181
 70
0
  0
SEQEND
  0
POLYLINE
  8
0
  6
CONTINUOUS
 62
1
 66
1
 70
2
  0
VERTEX
  8
0
 10
921.959850
 20
1294.802181
 70
0
 42
0.116929
  0
VERTEX
  8
0
 10
922.073550
 20
1294.302181
 70
0
  0
SEQEND
  0
POLYLINE
  8
0
  6
CONTINUOUS
 62
1
 66
1
 70
2
  0
VERTEX
  8
0
 10
922.073550
 20
1294.302181
 70
0
 42
0.532705
  0
VERTEX
  8
0
 10
922.547300
 20
1294.352181
 70
0
  0
SEQEND
  0
POLYLINE
  8
0
  6
CONTINUOUS
 62
1
 66
1
 70
2
  0
VERTEX
  8
0
 10
922.547300
 20
1294.352181
 70
0
 42
0.113999
  0
VERTEX
  8
0
 10
922.661000
 20
1295.052181
 70
0
  0
SEQEND
  0
LINE
  8
0
  6
CONTINUOUS
 62
1
 10
922.661000
 20
1295.052181
 11
922.661000
 21
1296.852181
  0
POLYLINE
  8
0
  6
CONTINUOUS
 62
1
 66
1
 70
2
  0
VERTEX
  8
0
 10
922.661000
 20
1296.852181
 70
0
 42
0.034099
  0
VERTEX
  8
0
 10
922.623100
 20
1297.402181
 70
0
  0
SEQEND
  0
POLYLINE
  8
0
  6
CONTINUOUS
 62
1
 66
1
 70
2
  0
VERTEX
  8
0
 10
922.623100
 20
1297.402181
 70
0
 42
0.211956
  0
VERTEX
  8
0
 10
922.509400
 20
1297.652181
 70
0
  0
SEQEND
  0
LINE
  8
0
  6
CONTINUOUS
 62
1
 10
922.509400
 20
1297.652181
 11
922.509400
 21
1298.102181
  0
INSERT
  2
FALCON-STAMP-NEW
  8
0
 10
772.944111
 20
914.436159
 41
2.000000
 42
2.000000
 50
0.000000
  0
ENDSEC
  0
EOF
