  0
SECTION
  2
HEADER
  9
$ACADVER
  1
AC1015
  9
$ACADMAINTVER
 70
     6
  9
$DWGCODEPAGE
  3
ANSI_1252
  9
$INSBASE
 10
0.0
 20
0.0
 30
0.0
  9
$EXTMIN
 10
0.0
 20
0.0
 30
0.0
  9
$EXTMAX
 10
2000.0
 20
2000.0
 30
0.0
  9
$LIMMIN
 10
0.0
 20
0.0
  9
$LIMMAX
 10
2000.0
 20
2000.0
  9
$ORTHOMODE
 70
     0
  9
$REGENMODE
 70
     1
  9
$FILLMODE
 70
     1
  9
$QTEXTMODE
 70
     0
  9
$MIRRTEXT
 70
     1
  9
$LTSCALE
 40
1.0
  9
$ATTMODE
 70
     1
  9
$TEXTSIZE
 40
3.5
  9
$TRACEWID
 40
1.0
  9
$TEXTSTYLE
  7
STANDARD
  9
$CLAYER
  8
0
  9
$CELTYPE
  6
ByLayer
  9
$CECOLOR
 62
   256
  9
$CELTSCALE
 40
1.0
  9
$DISPSILH
 70
     0
  9
$DIMSCALE
 40
1.0
  9
$DIMASZ
 40
3.302
  9
$DIMEXO
 40
1.0
  9
$DIMDLI
 40
3.75
  9
$DIMRND
 40
0.0
  9
$DIMDLE
 40
0.0
  9
$DIMEXE
 40
1.0
  9
$DIMTP
 40
0.0
  9
$DIMTM
 40
0.0
  9
$DIMTXT
 40
3.5
  9
$DIMCEN
 40
2.5
  9
$DIMTSZ
 40
0.0
  9
$DIMTOL
 70
     0
  9
$DIMLIM
 70
     0
  9
$DIMTIH
 70
     1
  9
$DIMTOH
 70
     1
  9
$DIMSE1
 70
     0
  9
$DIMSE2
 70
     0
  9
$DIMTAD
 70
     1
  9
$DIMZIN
 70
     0
  9
$DIMBLK
  1

  9
$DIMASO
 70
     1
  9
$DIMSHO
 70
     1
  9
$DIMPOST
  1

  9
$DIMAPOST
  1

  9
$DIMALT
 70
     0
  9
$DIMALTD
 70
     3
  9
$DIMALTF
 40
0.0393700787
  9
$DIMLFAC
 40
1.0
  9
$DIMTOFL
 70
     1
  9
$DIMTVP
 40
0.0
  9
$DIMTIX
 70
     0
  9
$DIMSOXD
 70
     0
  9
$DIMSAH
 70
     0
  9
$DIMBLK1
  1

  9
$DIMBLK2
  1

  9
$DIMSTYLE
  2
ISO-25
  9
$DIMCLRD
 70
     0
  9
$DIMCLRE
 70
     0
  9
$DIMCLRT
 70
     0
  9
$DIMTFAC
 40
1.0
  9
$DIMGAP
 40
1.524
  9
$DIMJUST
 70
     0
  9
$DIMSD1
 70
     0
  9
$DIMSD2
 70
     0
  9
$DIMTOLJ
 70
     0
  9
$DIMTZIN
 70
     0
  9
$DIMALTZ
 70
     0
  9
$DIMALTTZ
 70
     0
  9
$DIMUPT
 70
     0
  9
$DIMDEC
 70
     1
  9
$DIMTDEC
 70
     1
  9
$DIMALTU
 70
     2
  9
$DIMALTTD
 70
     3
  9
$DIMTXSTY
  7
STANDARD
  9
$DIMAUNIT
 70
     0
  9
$DIMADEC
 70
     1
  9
$DIMALTRND
 40
0.0
  9
$DIMAZIN
 70
     0
  9
$DIMDSEP
 70
    44
  9
$DIMATFIT
 70
     3
  9
$DIMFRAC
 70
     0
  9
$DIMLDRBLK
  1

  9
$DIMLUNIT
 70
     2
  9
$DIMLWD
 70
    -2
  9
$DIMLWE
 70
    -2
  9
$DIMTMOVE
 70
     0
  9
$LUNITS
 70
     2
  9
$LUPREC
 70
     1
  9
$SKETCHINC
 40
1.0
  9
$FILLETRAD
 40
10.0
  9
$AUNITS
 70
     0
  9
$AUPREC
 70
     1
  9
$MENU
  1
.
  9
$ELEVATION
 40
0.0
  9
$PELEVATION
 40
0.0
  9
$THICKNESS
 40
0.0
  9
$LIMCHECK
 70
     0
  9
$CHAMFERA
 40
10.0
  9
$CHAMFERB
 40
10.0
  9
$CHAMFERC
 40
20.0
  9
$CHAMFERD
 40
0.0
  9
$SKPOLY
 70
     0
  9
$TDCREATE
 40
2455671.285830104
  9
$TDUCREATE
 40
2455671.244163437
  9
$TDUPDATE
 40
2455671.285830116
  9
$TDUUPDATE
 40
2455671.244163449
  9
$TDINDWG
 40
0.0000000116
  9
$TDUSRTIMER
 40
0.0000000116
  9
$USRTIMER
 70
     1
  9
$ANGBASE
 50
0.0
  9
$ANGDIR
 70
     0
  9
$PDMODE
 70
     0
  9
$PDSIZE
 40
-1.0
  9
$PLINEWID
 40
0.0
  9
$SPLFRAME
 70
     0
  9
$SPLINETYPE
 70
     6
  9
$SPLINESEGS
 70
     8
  9
$HANDSEED
  5
5E8
  9
$SURFTAB1
 70
     6
  9
$SURFTAB2
 70
     6
  9
$SURFTYPE
 70
     6
  9
$SURFU
 70
     6
  9
$SURFV
 70
     6
  9
$UCSBASE
  2

  9
$UCSNAME
  2

  9
$UCSORG
 10
0.0
 20
0.0
 30
0.0
  9
$UCSXDIR
 10
1.0
 20
0.0
 30
0.0
  9
$UCSYDIR
 10
0.0
 20
1.0
 30
0.0
  9
$UCSORTHOREF
  2

  9
$UCSORTHOVIEW
 70
     0
  9
$UCSORGTOP
 10
0.0
 20
0.0
 30
0.0
  9
$UCSORGBOTTOM
 10
0.0
 20
0.0
 30
0.0
  9
$UCSORGLEFT
 10
0.0
 20
0.0
 30
0.0
  9
$UCSORGRIGHT
 10
0.0
 20
0.0
 30
0.0
  9
$UCSORGFRONT
 10
0.0
 20
0.0
 30
0.0
  9
$UCSORGBACK
 10
0.0
 20
0.0
 30
0.0
  9
$PUCSBASE
  2

  9
$PUCSNAME
  2

  9
$PUCSORG
 10
0.0
 20
0.0
 30
0.0
  9
$PUCSXDIR
 10
1.0
 20
0.0
 30
0.0
  9
$PUCSYDIR
 10
0.0
 20
1.0
 30
0.0
  9
$PUCSORTHOREF
  2

  9
$PUCSORTHOVIEW
 70
     0
  9
$PUCSORGTOP
 10
0.0
 20
0.0
 30
0.0
  9
$PUCSORGBOTTOM
 10
0.0
 20
0.0
 30
0.0
  9
$PUCSORGLEFT
 10
0.0
 20
0.0
 30
0.0
  9
$PUCSORGRIGHT
 10
0.0
 20
0.0
 30
0.0
  9
$PUCSORGFRONT
 10
0.0
 20
0.0
 30
0.0
  9
$PUCSORGBACK
 10
0.0
 20
0.0
 30
0.0
  9
$USERI1
 70
     0
  9
$USERI2
 70
     0
  9
$USERI3
 70
     0
  9
$USERI4
 70
     0
  9
$USERI5
 70
     0
  9
$USERR1
 40
0.0
  9
$USERR2
 40
0.0
  9
$USERR3
 40
0.0
  9
$USERR4
 40
0.0
  9
$USERR5
 40
0.0
  9
$WORLDVIEW
 70
     1
  9
$SHADEDGE
 70
     3
  9
$SHADEDIF
 70
    70
  9
$TILEMODE
 70
     1
  9
$MAXACTVP
 70
    64
  9
$PINSBASE
 10
0.0
 20
0.0
 30
0.0
  9
$PLIMCHECK
 70
     0
  9
$PEXTMIN
 10
1.0000000000E+20
 20
1.0000000000E+20
 30
1.0000000000E+20
  9
$PEXTMAX
 10
-1.0000000000E+20
 20
-1.0000000000E+20
 30
-1.0000000000E+20
  9
$PLIMMIN
 10
0.0
 20
0.0
  9
$PLIMMAX
 10
420.0
 20
297.0
  9
$UNITMODE
 70
     0
  9
$VISRETAIN
 70
     1
  9
$PLINEGEN
 70
     0
  9
$PSLTSCALE
 70
     1
  9
$TREEDEPTH
 70
  3020
  9
$CMLSTYLE
  2
Standard
  9
$CMLJUST
 70
     0
  9
$CMLSCALE
 40
20.0
  9
$PROXYGRAPHICS
 70
     1
  9
$MEASUREMENT
 70
     1
  9
$CELWEIGHT
370
    -1
  9
$ENDCAPS
280
     0
  9
$JOINSTYLE
280
     0
  9
$LWDISPLAY
290
     1
  9
$INSUNITS
 70
     4
  9
$HYPERLINKBASE
  1

  9
$STYLESHEET
  1

  9
$XEDIT
290
     1
  9
$CEPSNTYPE
380
     0
  9
$PSTYLEMODE
290
     1
  9
$FINGERPRINTGUID
  2
{868FDDAE-5367-4C54-8AE1-420D5B4335E6}
  9
$VERSIONGUID
  2
{FAEB1C32-E019-11D5-929B-00C0DF256EC4}
  9
$EXTNAMES
290
     1
  9
$PSVPSCALE
 40
0.0
  9
$OLESTARTUP
290
     0
  0
ENDSEC
  0
SECTION
  2
CLASSES
  0
CLASS
  1
ACDBDICTIONARYWDFLT
  2
AcDbDictionaryWithDefault
  3
ObjectDBX Classes
 90
        0
280
     0
281
     0
  0
CLASS
  1
VISUALSTYLE
  2
AcDbVisualStyle
  3
ObjectDBX Classes
 90
     4095
280
     0
281
     0
  0
CLASS
  1
MATERIAL
  2
AcDbMaterial
  3
ObjectDBX Classes
 90
     1153
280
     0
281
     0
  0
CLASS
  1
ACDBPLACEHOLDER
  2
AcDbPlaceHolder
  3
ObjectDBX Classes
 90
        0
280
     0
281
     0
  0
CLASS
  1
LAYOUT
  2
AcDbLayout
  3
ObjectDBX Classes
 90
        0
280
     0
281
     0
  0
ENDSEC
  0
SECTION
  2
TABLES
  0
TABLE
  2
VPORT
  5
8
330
0
100
AcDbSymbolTable
 70
     1
  0
VPORT
  5
29
330
8
100
AcDbSymbolTableRecord
100
AcDbViewportTableRecord
  2
*Active
 70
     0
 10
0.0
 20
0.0
 11
1.0
 21
1.0
 12
1000.0
 22
1000.0
 13
0.0
 23
0.0
 14
10.0
 24
10.0
 15
10.0
 25
10.0
 16
0.0
 26
0.0
 36
1.0
 17
0.0
 27
0.0
 37
0.0
 40
2000.0
 41
1.0
 42
50.0
 43
0.0
 44
0.0
 50
0.0
 51
0.0
 71
     0
 72
  2000
 73
     1
 74
     3
 75
     0
 76
     0
 77
     0
 78
     0
281
     0
 65
     1
110
0.0
120
0.0
130
0.0
111
1.0
121
0.0
131
0.0
112
0.0
122
1.0
132
0.0
 79
     0
146
0.0
  0
ENDTAB
  0
TABLE
  2
LTYPE
  5
5
330
0
100
AcDbSymbolTable
 70
     8
  0
LTYPE
  5
14
330
5
100
AcDbSymbolTableRecord
100
AcDbLinetypeTableRecord
  2
ByBlock
 70
     0
  3

 72
    65
 73
     0
 40
0.0
  0
LTYPE
  5
15
330
5
100
AcDbSymbolTableRecord
100
AcDbLinetypeTableRecord
  2
ByLayer
 70
     0
  3

 72
    65
 73
     0
 40
0.0
  0
LTYPE
  5
16
330
5
100
AcDbSymbolTableRecord
100
AcDbLinetypeTableRecord
  2
Continuous
 70
     0
  3
Solid line
 72
    65
 73
     0
 40
0.0
  0
LTYPE
  5
3F
330
5
100
AcDbSymbolTableRecord
100
AcDbLinetypeTableRecord
  2
SLD-Solid
 70
     0
  3
SolidWorks Line Style
 72
    65
 73
     0
 40
0.0
  0
LTYPE
  5
40
330
5
100
AcDbSymbolTableRecord
100
AcDbLinetypeTableRecord
  2
SLD-Dashed
 70
     0
  3
SolidWorks Line Style
 72
    65
 73
     2
 40
1.905
 49
1.27
 74
     0
 49
-0.635
 74
     0
  0
LTYPE
  5
41
330
5
100
AcDbSymbolTableRecord
100
AcDbLinetypeTableRecord
  2
SLD-Phantom
 70
     0
  3
SolidWorks Line Style
 72
    65
 73
     6
 40
12.7
 49
6.35
 74
     0
 49
-1.27
 74
     0
 49
1.27
 74
     0
 49
-1.27
 74
     0
 49
1.27
 74
     0
 49
-1.27
 74
     0
  0
LTYPE
  5
42
330
5
100
AcDbSymbolTableRecord
100
AcDbLinetypeTableRecord
  2
SLD-Chain
 70
     0
  3
SolidWorks Line Style
 72
    65
 73
     4
 40
10.16
 49
6.35
 74
     0
 49
-1.27
 74
     0
 49
1.27
 74
     0
 49
-1.27
 74
     0
  0
LTYPE
  5
43
330
5
100
AcDbSymbolTableRecord
100
AcDbLinetypeTableRecord
  2
SLD-Center
 70
     0
  3
SolidWorks Line Style
 72
    65
 73
     4
 40
19.05
 49
15.24
 74
     0
 49
-1.27
 74
     0
 49
1.27
 74
     0
 49
-1.27
 74
     0
  0
LTYPE
  5
44
330
5
100
AcDbSymbolTableRecord
100
AcDbLinetypeTableRecord
  2
SLD-Stitch
 70
     0
  3
SolidWorks Line Style
 72
    65
 73
     2
 40
0.635
 49
0.0
 74
     0
 49
-0.635
 74
     0
  0
LTYPE
  5
45
330
5
100
AcDbSymbolTableRecord
100
AcDbLinetypeTableRecord
  2
SLD-Thin-Thick-Chain
 70
     0
  3
SolidWorks Line Style
 72
    65
 73
     4
 40
10.16
 49
6.35
 74
     0
 49
-1.27
 74
     0
 49
1.27
 74
     0
 49
-1.27
 74
     0
  0
ENDTAB
  0
TABLE
  2
LAYER
  5
2
330
0
100
AcDbSymbolTable
 70
     4
  0
LAYER
  5
10
330
2
100
AcDbSymbolTableRecord
100
AcDbLayerTableRecord
  2
0
 70
     0
 62
     7
  6
Continuous
370
    -3
390
F
  0
LAYER
  5
46
330
2
100
AcDbSymbolTableRecord
100
AcDbLayerTableRecord
  2
FORMAT
 70
     0
 62
     7
  6
SLD-Solid
370
    -3
390
F
  0
LAYER
  5
47
330
2
100
AcDbSymbolTableRecord
100
AcDbLayerTableRecord
  2
SLD-0
 70
     0
 62
     1
  6
SLD-Solid
370
    -3
390
F
  0
LAYER
  5
48
330
2
100
AcDbSymbolTableRecord
100
AcDbLayerTableRecord
  2
WATERMARK
 70
     0
 62
    20
  6
SLD-Solid
370
    -3
390
F
  0
ENDTAB
  0
TABLE
  2
STYLE
  5
3
330
0
100
AcDbSymbolTable
 70
     1
  0
STYLE
  5
11
330
3
100
AcDbSymbolTableRecord
100
AcDbTextStyleTableRecord
  2
STANDARD
 70
     0
 40
0.0
 41
1.0
 50
0.0
 71
     0
 42
2.5
  3
GOTHIC.TTF
  4

1001
ACAD
1000
CENTURY GOTHIC
1071
       34
  0
ENDTAB
  0
TABLE
  2
VIEW
  5
6
330
0
100
AcDbSymbolTable
 70
     0
  0
ENDTAB
  0
TABLE
  2
UCS
  5
7
330
0
100
AcDbSymbolTable
 70
     0
  0
ENDTAB
  0
TABLE
  2
APPID
  5
9
330
0
100
AcDbSymbolTable
 70
     1
  0
APPID
  5
12
330
9
100
AcDbSymbolTableRecord
100
AcDbRegAppTableRecord
  2
ACAD
 70
     0
  0
ENDTAB
  0
TABLE
  2
DIMSTYLE
  5
A
330
0
100
AcDbSymbolTable
 70
     1
100
AcDbDimStyleTable
  0
DIMSTYLE
105
27
330
A
100
AcDbSymbolTableRecord
100
AcDbDimStyleTableRecord
  2
ISO-25
 70
     0
 41
2.5
 42
0.625
 43
3.75
 44
1.25
 73
     0
 74
     0
 77
     1
 78
     8
140
2.5
141
2.5
143
0.0393700787
147
0.625
171
     3
172
     1
271
     2
272
     2
274
     3
278
    44
283
     0
284
     8
340
11
  0
ENDTAB
  0
TABLE
  2
BLOCK_RECORD
  5
1
330
0
100
AcDbSymbolTable
 70
     1
  0
BLOCK_RECORD
  5
1F
330
1
100
AcDbSymbolTableRecord
100
AcDbBlockTableRecord
  2
*Model_Space
340
22
  0
BLOCK_RECORD
  5
1B
330
1
100
AcDbSymbolTableRecord
100
AcDbBlockTableRecord
  2
*Paper_Space
340
1E
  0
BLOCK_RECORD
  5
23
330
1
100
AcDbSymbolTableRecord
100
AcDbBlockTableRecord
  2
*Paper_Space0
340
26
  0
ENDTAB
  0
ENDSEC
  0
SECTION
  2
BLOCKS
  0
BLOCK
  5
20
330
1F
100
AcDbEntity
  8
0
100
AcDbBlockBegin
  2
*Model_Space
 70
     0
 10
0.0
 20
0.0
 30
0.0
  3
*Model_Space
  1

  0
ENDBLK
  5
21
330
1F
100
AcDbEntity
  8
0
100
AcDbBlockEnd
  0
BLOCK
  5
1C
330
1B
100
AcDbEntity
 67
     1
  8
0
100
AcDbBlockBegin
  2
*Paper_Space
 70
     0
 10
0.0
 20
0.0
 30
0.0
  3
*Paper_Space
  1

  0
ENDBLK
  5
1D
330
1B
100
AcDbEntity
 67
     1
  8
0
100
AcDbBlockEnd
  0
BLOCK
  5
24
330
23
100
AcDbEntity
  8
0
100
AcDbBlockBegin
  2
*Paper_Space0
 70
     0
 10
0.0
 20
0.0
 30
0.0
  3
*Paper_Space0
  1

  0
ENDBLK
  5
25
330
23
100
AcDbEntity
  8
0
100
AcDbBlockEnd
  0
ENDSEC
  0
SECTION
  2
ENTITIES
  0
LINE
  5
49
330
1F
100
AcDbEntity
  8
0
  6
SLD-Solid
 62
     7
370
    15
100
AcDbLine
 10
560.4610175066
 20
1155.6985676625
 30
0.0
 11
569.1610306673
 21
1155.6985676625
 31
0.0
  0
LINE
  5
4A
330
1F
100
AcDbEntity
  8
0
  6
SLD-Solid
 62
     7
370
    15
100
AcDbLine
 10
569.1610306673
 20
1165.6985581258
 30
0.0
 11
560.4610175066
 21
1165.6985581258
 31
0.0
  0
LINE
  5
4B
330
1F
100
AcDbEntity
  8
0
  6
SLD-Solid
 62
     7
370
    15
100
AcDbLine
 10
1310.4945451193
 20
1769.5695460179
 30
0.0
 11
1318.7057405882
 21
1772.2375691274
 31
0.0
  0
LINE
  5
4C
330
1F
100
AcDbEntity
  8
0
  6
SLD-Solid
 62
     7
370
    15
100
AcDbLine
 10
1315.9245878629
 20
1780.7970345357
 30
0.0
 11
1307.713392394
 21
1778.1290114262
 31
0.0
  0
LINE
  5
4D
330
1F
100
AcDbEntity
  8
0
  6
SLD-Solid
 62
     7
370
    15
100
AcDbLine
 10
1310.4945451193
 20
944.1695511678
 30
0.0
 11
1318.7057405882
 21
946.8375146726
 31
0.0
  0
LINE
  5
4E
330
1F
100
AcDbEntity
  8
0
  6
SLD-Solid
 62
     7
370
    15
100
AcDbLine
 10
1315.9245878629
 20
955.3970396855
 30
0.0
 11
1307.713392394
 21
952.7290761807
 31
0.0
  0
LINE
  5
4F
330
1F
100
AcDbEntity
  8
0
  6
SLD-Solid
 62
     7
370
    15
100
AcDbLine
 10
1187.9610300236
 20
1033.9914858678
 30
0.0
 11
1188.4610235863
 21
1033.9914858678
 31
0.0
  0
LINE
  5
50
330
1F
100
AcDbEntity
  8
0
  6
SLD-Solid
 62
     7
370
    15
100
AcDbLine
 10
1188.4610235863
 20
1041.9915020802
 30
0.0
 11
1187.9610300236
 21
1041.9915020802
 31
0.0
  0
LINE
  5
51
330
1F
100
AcDbEntity
  8
0
  6
SLD-Solid
 62
     7
370
    15
100
AcDbLine
 10
675.961020606
 20
1134.991496835
 30
0.0
 11
675.4610270433
 21
1134.991496835
 31
0.0
  0
LINE
  5
52
330
1F
100
AcDbEntity
  8
0
  6
SLD-Solid
 62
     7
370
    15
100
AcDbLine
 10
675.4610270433
 20
1126.9914806226
 30
0.0
 11
675.961020606
 21
1126.9914806226
 31
0.0
  0
LINE
  5
53
330
1F
100
AcDbEntity
  8
0
  6
SLD-Solid
 62
     7
370
    15
100
AcDbLine
 10
675.961020606
 20
1041.9915020802
 30
0.0
 11
675.4610270433
 21
1041.9915020802
 31
0.0
  0
LINE
  5
54
330
1F
100
AcDbEntity
  8
0
  6
SLD-Solid
 62
     7
370
    15
100
AcDbLine
 10
675.4610270433
 20
1033.9914858678
 30
0.0
 11
675.961020606
 21
1033.9914858678
 31
0.0
  0
LINE
  5
55
330
1F
100
AcDbEntity
  8
0
  6
SLD-Solid
 62
     7
370
    15
100
AcDbLine
 10
1187.9610300236
 20
1126.9914806226
 30
0.0
 11
1188.4610235863
 21
1126.9914806226
 31
0.0
  0
LINE
  5
56
330
1F
100
AcDbEntity
  8
0
  6
SLD-Solid
 62
     7
370
    15
100
AcDbLine
 10
1188.4610235863
 20
1134.991496835
 30
0.0
 11
1187.9610300236
 21
1134.991496835
 31
0.0
  0
LWPOLYLINE
  5
57
330
1F
100
AcDbEntity
  8
0
  6
SLD-Solid
 62
     7
370
    15
100
AcDbPolyline
 90
        7
 70
   128
 43
0.0
 10
557.5620860033
 20
375.9545982221
 10
557.5624436311
 20
375.9627044537
 10
557.5811892919
 20
375.9922236541
 10
557.6247304849
 20
376.0264367202
 10
557.6869875364
 20
376.054063473
 10
557.7708512716
 20
376.0710656979
 10
557.8110248022
 20
376.0710656979
  0
ARC
  5
58
330
1F
100
AcDbEntity
  8
0
  6
SLD-Solid
 62
     7
370
    15
100
AcDbCircle
 10
562.9110286586
 20
376.3229557586
 30
0.0
 40
0.25
100
AcDbArc
 50
270.0
 51
0.0
  0
LINE
  5
59
330
1F
100
AcDbEntity
  8
0
  6
SLD-Solid
 62
     7
370
    15
100
AcDbLine
 10
557.8110248022
 20
376.0729581454
 30
0.0
 11
562.9110366277
 21
376.0729581454
 31
0.0
  0
ARC
  5
5A
330
1F
100
AcDbEntity
  8
0
  6
SLD-Solid
 62
     7
370
    15
100
AcDbCircle
 10
562.9110286586
 20
381.1491227308
 30
0.0
 40
0.25
100
AcDbArc
 50
0.0
 51
90.0
  0
LINE
  5
5B
330
1F
100
AcDbEntity
  8
0
  6
SLD-Solid
 62
     7
370
    15
100
AcDbLine
 10
562.9110366277
 20
381.3991248944
 30
0.0
 11
557.8110248022
 21
381.3991248944
 31
0.0
  0
ARC
  5
5C
330
1F
100
AcDbEntity
  8
0
  6
SLD-Solid
 62
     7
370
    15
100
AcDbCircle
 10
556.6110286586
 20
380.8485464227
 30
0.0
 40
0.25
100
AcDbArc
 50
90.0
 51
180.0
  0
LINE
  5
5D
330
1F
100
AcDbEntity
  8
0
  6
SLD-Solid
 62
     7
370
    15
100
AcDbLine
 10
556.8742484026
 20
381.098553572
 30
0.0
 11
556.6110342912
 21
381.098553572
 31
0.0
  0
ARC
  5
5E
330
1F
100
AcDbEntity
  8
0
  6
SLD-Solid
 62
     7
370
    15
100
AcDbCircle
 10
562.9110286586
 20
363.6479701146
 30
0.0
 40
0.25
100
AcDbArc
 50
270.0
 51
0.0
  0
LINE
  5
5F
330
1F
100
AcDbEntity
  8
0
  6
SLD-Solid
 62
     7
370
    15
100
AcDbLine
 10
558.3825439386
 20
363.3979708293
 30
0.0
 11
562.9110366277
 21
363.3979708293
 31
0.0
  0
LWPOLYLINE
  5
60
330
1F
100
AcDbEntity
  8
0
  6
SLD-Solid
 62
     7
370
    15
100
AcDbPolyline
 90
        7
 70
   128
 43
0.0
 10
557.5620860033
 20
1201.3545930722
 10
557.5624436311
 20
1201.3626993039
 10
557.5811892919
 20
1201.3922036031
 10
557.6247304849
 20
1201.4264166692
 10
557.6869875364
 20
1201.4540732243
 10
557.7708512716
 20
1201.4710605481
 10
557.8110248022
 20
1201.4710605481
  0
ARC
  5
61
330
1F
100
AcDbEntity
  8
0
  6
SLD-Solid
 62
     7
370
    15
100
AcDbCircle
 10
562.9110286585
 20
1201.7229557586
 30
0.0
 40
0.2500000000002274
100
AcDbArc
 50
270.0
 51
0.0
  0
LINE
  5
62
330
1F
100
AcDbEntity
  8
0
  6
SLD-Solid
 62
     7
370
    15
100
AcDbLine
 10
557.8110248022
 20
1201.4729678967
 30
0.0
 11
562.9110366277
 21
1201.4729678967
 31
0.0
  0
ARC
  5
63
330
1F
100
AcDbEntity
  8
0
  6
SLD-Solid
 62
     7
370
    15
100
AcDbCircle
 10
562.9110286585
 20
1206.5491227308
 30
0.0
 40
0.25
100
AcDbArc
 50
0.0
 51
90.0
  0
LINE
  5
64
330
1F
100
AcDbEntity
  8
0
  6
SLD-Solid
 62
     7
370
    15
100
AcDbLine
 10
562.9110366277
 20
1206.7991197446
 30
0.0
 11
557.8110248022
 21
1206.7991197446
 31
0.0
  0
ARC
  5
65
330
1F
100
AcDbEntity
  8
0
  6
SLD-Solid
 62
     7
370
    15
100
AcDbCircle
 10
556.6110286585
 20
1206.2485464227
 30
0.0
 40
0.25
100
AcDbArc
 50
90.0
 51
180.0
  0
LINE
  5
66
330
1F
100
AcDbEntity
  8
0
  6
SLD-Solid
 62
     7
370
    15
100
AcDbLine
 10
556.8742484026
 20
1206.498533521
 30
0.0
 11
556.6110342912
 21
1206.498533521
 31
0.0
  0
LINE
  5
67
330
1F
100
AcDbEntity
  8
0
  6
SLD-Solid
 62
     7
370
    15
100
AcDbLine
 10
558.3825439386
 20
1188.7979805806
 30
0.0
 11
562.9110366277
 21
1188.7979805806
 31
0.0
  0
ARC
  5
68
330
1F
100
AcDbEntity
  8
0
  6
SLD-Solid
 62
     7
370
    15
100
AcDbCircle
 10
562.9110286585
 20
1189.0479701146
 30
0.0
 40
0.2499999999998863
100
AcDbArc
 50
270.0
 51
0.0
  0
LWPOLYLINE
  5
69
330
1F
100
AcDbEntity
  8
0
  6
SLD-Solid
 62
     7
370
    15
100
AcDbPolyline
 90
        7
 70
   128
 43
0.0
 10
557.5586289339
 20
368.0606037715
 10
557.5578838758
 20
368.0385500529
 10
557.5215548448
 20
367.9812252858
 10
557.4691623621
 20
367.943525348
 10
557.4026435785
 20
367.9176867345
 10
557.3204785757
 20
367.9060936311
 10
557.3113292627
 20
367.9065704682
  0
ARC
  5
6A
330
1F
100
AcDbEntity
  8
0
  6
SLD-Solid
 62
     7
370
    15
100
AcDbCircle
 10
552.2110286586
 20
367.6559285273
 30
0.0
 40
0.2500000000001137
100
AcDbArc
 50
90.0
 51
180.0
  0
LINE
  5
6B
330
1F
100
AcDbEntity
  8
0
  6
SLD-Solid
 62
     7
370
    15
100
AcDbLine
 10
557.3110312395
 20
367.9059297183
 30
0.0
 11
552.2110194139
 21
367.9059297183
 31
0.0
  0
ARC
  5
6C
330
1F
100
AcDbEntity
  8
0
  6
SLD-Solid
 62
     7
370
    15
100
AcDbCircle
 10
552.2110286586
 20
363.2181073126
 30
0.0
 40
0.2500000000001137
100
AcDbArc
 50
180.0
 51
270.0
  0
LINE
  5
6D
330
1F
100
AcDbEntity
  8
0
  6
SLD-Solid
 62
     7
370
    15
100
AcDbLine
 10
552.2110194139
 20
362.9681095817
 30
0.0
 11
557.3110312395
 21
362.9681095817
 31
0.0
  0
ARC
  5
6E
330
1F
100
AcDbEntity
  8
0
  6
SLD-Solid
 62
     7
370
    15
100
AcDbCircle
 10
558.5110286586
 20
363.9485464227
 30
0.0
 40
0.2499999999999589
100
AcDbArc
 50
301.0756875733
 51
0.0
  0
ARC
  5
6F
330
1F
100
AcDbEntity
  8
0
  6
SLD-Solid
 62
     7
370
    15
100
AcDbCircle
 10
552.2110286586
 20
381.5789855327
 30
0.0
 40
0.25
100
AcDbArc
 50
90.0
 51
180.0
  0
LINE
  5
70
330
1F
100
AcDbEntity
  8
0
  6
SLD-Solid
 62
     7
370
    15
100
AcDbLine
 10
557.3110312395
 20
381.8289786914
 30
0.0
 11
552.2110194139
 21
381.8289786914
 31
0.0
  0
LWPOLYLINE
  5
71
330
1F
100
AcDbEntity
  8
0
  6
SLD-Solid
 62
     7
370
    15
100
AcDbPolyline
 90
        7
 70
   128
 43
0.0
 10
557.5586289339
 20
1193.4606135228
 10
557.5578838758
 20
1193.4385598042
 10
557.5215548448
 20
1193.381220136
 10
557.4691623621
 20
1193.3435500005
 10
557.4026435785
 20
1193.3176815846
 10
557.3204785757
 20
1193.3061182835
 10
557.3113292627
 20
1193.3065951207
  0
ARC
  5
72
330
1F
100
AcDbEntity
  8
0
  6
SLD-Solid
 62
     7
370
    15
100
AcDbCircle
 10
552.2110286585
 20
1193.0559285273
 30
0.0
 40
0.25
100
AcDbArc
 50
90.0
 51
180.0
  0
LINE
  5
73
330
1F
100
AcDbEntity
  8
0
  6
SLD-Solid
 62
     7
370
    15
100
AcDbLine
 10
557.3110312395
 20
1193.3059394696
 30
0.0
 11
552.2110194139
 21
1193.3059394696
 31
0.0
  0
ARC
  5
74
330
1F
100
AcDbEntity
  8
0
  6
SLD-Solid
 62
     7
370
    15
100
AcDbCircle
 10
552.2110286585
 20
1188.6181073126
 30
0.0
 40
0.25
100
AcDbArc
 50
180.0
 51
270.0
  0
LINE
  5
75
330
1F
100
AcDbEntity
  8
0
  6
SLD-Solid
 62
     7
370
    15
100
AcDbLine
 10
552.2110194139
 20
1188.3681118825
 30
0.0
 11
557.3110312395
 21
1188.3681118825
 31
0.0
  0
ARC
  5
76
330
1F
100
AcDbEntity
  8
0
  6
SLD-Solid
 62
     7
370
    15
100
AcDbCircle
 10
558.5110286585
 20
1189.3485464227
 30
0.0
 40
0.2500000000000175
100
AcDbArc
 50
301.0756875734
 51
0.0
  0
ARC
  5
77
330
1F
100
AcDbEntity
  8
0
  6
SLD-Solid
 62
     7
370
    15
100
AcDbCircle
 10
552.2110286585
 20
1206.9789855327
 30
0.0
 40
0.25
100
AcDbArc
 50
90.0
 51
180.0
  0
LINE
  5
78
330
1F
100
AcDbEntity
  8
0
  6
SLD-Solid
 62
     7
370
    15
100
AcDbLine
 10
557.3110312395
 20
1207.2289884427
 30
0.0
 11
552.2110194139
 21
1207.2289884427
 31
0.0
  0
LINE
  5
79
330
1F
100
AcDbEntity
  8
0
  6
SLD-Solid
 62
     7
370
    15
100
AcDbLine
 10
563.9610320501
 20
1202.7985751965
 30
0.0
 11
563.8728171758
 21
1202.9513419011
 31
0.0
  0
LINE
  5
7A
330
1F
100
AcDbEntity
  8
0
  6
SLD-Solid
 62
     7
370
    15
100
AcDbLine
 10
558.7610334329
 20
1192.7985251286
 30
0.0
 11
558.8492483072
 21
1192.6457584241
 31
0.0
  0
LINE
  5
7B
330
1F
100
AcDbEntity
  8
0
  6
SLD-Solid
 62
     7
370
    15
100
AcDbLine
 10
563.8728171758
 20
1192.6457584241
 30
0.0
 11
563.9610320501
 21
1192.7985251286
 31
0.0
  0
LINE
  5
7C
330
1F
100
AcDbEntity
  8
0
  6
SLD-Solid
 62
     7
370
    15
100
AcDbLine
 10
564.2110139303
 20
1192.7985251286
 30
0.0
 11
564.4073814325
 21
1192.4584210256
 31
0.0
  0
LINE
  5
7D
330
1F
100
AcDbEntity
  8
0
  6
SLD-Solid
 62
     7
370
    15
100
AcDbLine
 10
564.4073814325
 20
1203.138619695
 30
0.0
 11
564.2110139303
 21
1202.7985751965
 31
0.0
  0
LINE
  5
7E
330
1F
100
AcDbEntity
  8
0
  6
SLD-Solid
 62
     7
370
    15
100
AcDbLine
 10
564.2110139303
 20
367.3985451796
 30
0.0
 11
564.4073814325
 21
367.0584485271
 31
0.0
  0
LINE
  5
7F
330
1F
100
AcDbEntity
  8
0
  6
SLD-Solid
 62
     7
370
    15
100
AcDbLine
 10
564.4073814325
 20
377.738639746
 30
0.0
 11
564.2110139303
 21
377.3985505441
 31
0.0
  0
LINE
  5
80
330
1F
100
AcDbEntity
  8
0
  6
SLD-Solid
 62
     7
370
    15
100
AcDbLine
 10
563.9610320501
 20
377.3985505441
 30
0.0
 11
563.8728171758
 21
377.5513172486
 31
0.0
  0
LINE
  5
81
330
1F
100
AcDbEntity
  8
0
  6
SLD-Solid
 62
     7
370
    15
100
AcDbLine
 10
558.7610334329
 20
367.3985451796
 30
0.0
 11
558.8492483072
 21
367.2457710245
 31
0.0
  0
LINE
  5
82
330
1F
100
AcDbEntity
  8
0
  6
SLD-Solid
 62
     7
370
    15
100
AcDbLine
 10
563.8728171758
 20
367.2457710245
 30
0.0
 11
563.9610320501
 21
367.3985451796
 31
0.0
  0
LINE
  5
83
330
1F
100
AcDbEntity
  8
0
  6
SLD-Solid
 62
     7
370
    15
100
AcDbLine
 10
564.2110139303
 20
375.3985464909
 30
0.0
 11
563.9610320501
 21
375.3985464909
 31
0.0
  0
LINE
  5
84
330
1F
100
AcDbEntity
  8
0
  6
SLD-Solid
 62
     7
370
    15
100
AcDbLine
 10
563.9610320501
 20
369.3985492328
 30
0.0
 11
564.2110139303
 21
369.3985492328
 31
0.0
  0
LINE
  5
85
330
1F
100
AcDbEntity
  8
0
  6
SLD-Solid
 62
     7
370
    15
100
AcDbLine
 10
564.2110139303
 20
1200.7985413411
 30
0.0
 11
563.9610320501
 21
1200.7985413411
 31
0.0
  0
LINE
  5
86
330
1F
100
AcDbEntity
  8
0
  6
SLD-Solid
 62
     7
370
    15
100
AcDbLine
 10
563.9610320501
 20
1194.7985589841
 30
0.0
 11
564.2110139303
 21
1194.7985589841
 31
0.0
  0
LINE
  5
87
330
1F
100
AcDbEntity
  8
0
  6
SLD-Solid
 62
     7
370
    15
100
AcDbLine
 10
1309.9200755529
 20
955.6457698682
 30
0.0
 11
1307.0669204168
 21
954.718738828
 31
0.0
  0
LINE
  5
88
330
1F
100
AcDbEntity
  8
0
  6
SLD-Solid
 62
     7
370
    15
100
AcDbLine
 10
1313.2317990236
 20
935.7451498845
 30
0.0
 11
1316.084983962
 21
936.6721809247
 31
0.0
  0
LWPOLYLINE
  5
89
330
1F
100
AcDbEntity
  8
0
  6
SLD-Solid
 62
     7
370
    15
100
AcDbPolyline
 90
        3
 70
   128
 43
0.0
 10
1314.4938677721
 20
954.9321830609
 10
1314.4612640314
 20
954.9293816426
 10
1314.3655091696
 20
954.9084008077
  0
ARC
  5
8A
330
1F
100
AcDbEntity
  8
0
  6
SLD-Solid
 62
     7
370
    15
100
AcDbCircle
 10
1319.0934818613
 20
940.3572229904
 30
0.0
 40
0.499999999999912
100
AcDbArc
 50
288.0
 51
18.0
  0
LINE
  5
8B
330
1F
100
AcDbEntity
  8
0
  6
SLD-Solid
 62
     7
370
    15
100
AcDbLine
 10
1314.3655091696
 20
954.9084008077
 30
0.0
 11
1310.5613023214
 21
953.6723196843
 31
0.0
  0
LINE
  5
8C
330
1F
100
AcDbEntity
  8
0
  6
SLD-Solid
 62
     7
370
    15
100
AcDbLine
 10
1315.4437571935
 20
938.6456311086
 30
0.0
 11
1319.247993844
 21
939.8817122319
 31
0.0
  0
LINE
  5
8D
330
1F
100
AcDbEntity
  8
0
  6
SLD-Solid
 62
     7
370
    15
100
AcDbLine
 10
1318.4472054415
 20
954.1054070332
 30
0.0
 11
1316.5451020174
 21
953.4873664716
 31
0.0
  0
LINE
  5
8E
330
1F
100
AcDbEntity
  8
0
  6
SLD-Solid
 62
     7
370
    15
100
AcDbLine
 10
1319.0977603369
 20
941.9620931485
 30
0.0
 11
1322.0781415872
 21
942.9304898122
 31
0.0
  0
LINE
  5
8F
330
1F
100
AcDbEntity
  8
0
  6
SLD-Solid
 62
     7
370
    15
100
AcDbLine
 10
1309.9200755529
 20
1781.0457051137
 30
0.0
 11
1307.0669204168
 21
1780.1187336781
 31
0.0
  0
LINE
  5
90
330
1F
100
AcDbEntity
  8
0
  6
SLD-Solid
 62
     7
370
    15
100
AcDbLine
 10
1313.2317990236
 20
1761.1451447347
 30
0.0
 11
1316.084983962
 21
1762.0722353795
 31
0.0
  0
LWPOLYLINE
  5
91
330
1F
100
AcDbEntity
  8
0
  6
SLD-Solid
 62
     7
370
    15
100
AcDbPolyline
 90
        3
 70
   128
 43
0.0
 10
1314.4938677721
 20
1780.3321183064
 10
1314.4612640314
 20
1780.3293764928
 10
1314.3655091696
 20
1780.3083956578
  0
ARC
  5
92
330
1F
100
AcDbEntity
  8
0
  6
SLD-Solid
 62
     7
370
    15
100
AcDbCircle
 10
1319.0934818613
 20
1765.7572229904
 30
0.0
 40
0.5000000000001282
100
AcDbArc
 50
288.0
 51
18.0
  0
LINE
  5
93
330
1F
100
AcDbEntity
  8
0
  6
SLD-Solid
 62
     7
370
    15
100
AcDbLine
 10
1314.3655091696
 20
1780.3083956578
 30
0.0
 11
1310.5613023214
 21
1779.0723145345
 31
0.0
  0
LINE
  5
94
330
1F
100
AcDbEntity
  8
0
  6
SLD-Solid
 62
     7
370
    15
100
AcDbLine
 10
1315.4437571935
 20
1764.0456259587
 30
0.0
 11
1319.247993844
 21
1765.2817070821
 31
0.0
  0
LINE
  5
95
330
1F
100
AcDbEntity
  8
0
  6
SLD-Solid
 62
     7
370
    15
100
AcDbLine
 10
1318.4472054415
 20
1779.5054018834
 30
0.0
 11
1316.5451020174
 21
1778.8874209264
 31
0.0
  0
LINE
  5
96
330
1F
100
AcDbEntity
  8
0
  6
SLD-Solid
 62
     7
370
    15
100
AcDbLine
 10
1319.0977603369
 20
1767.3621476033
 30
0.0
 11
1322.0781415872
 21
1768.3304846623
 31
0.0
  0
LINE
  5
97
330
1F
100
AcDbEntity
  8
0
  6
SLD-Solid
 62
     7
370
    15
100
AcDbLine
 10
1329.2603522711
 20
1746.2259829381
 30
0.0
 11
1337.5348478727
 21
1753.12033299
 31
0.0
  0
LINE
  5
98
330
1F
100
AcDbEntity
  8
0
  6
SLD-Solid
 62
     7
370
    15
100
AcDbLine
 10
1311.668905633
 20
1807.8788817265
 30
0.0
 11
1309.1742426328
 21
1808.0447018483
 31
0.0
  0
LINE
  5
99
330
1F
100
AcDbEntity
  8
0
  6
SLD-Solid
 62
     7
370
    15
100
AcDbLine
 10
1319.9208706789
 20
1807.3306382039
 30
0.0
 11
1316.6577249937
 21
1807.5474799016
 31
0.0
  0
LINE
  5
9A
330
1F
100
AcDbEntity
  8
0
  6
SLD-Solid
 62
     7
370
    15
100
AcDbLine
 10
1320.4179138117
 20
1807.2763979771
 30
0.0
 11
1319.9208706789
 21
1807.3306382039
 31
0.0
  0
LINE
  5
9B
330
1F
100
AcDbEntity
  8
0
  6
SLD-Solid
 62
     7
370
    15
100
AcDbLine
 10
1337.5348478727
 20
1753.12033299
 30
0.0
 11
1353.296044486
 21
1767.4256861546
 31
0.0
  0
ARC
  5
9C
330
1F
100
AcDbEntity
  8
0
  6
SLD-Solid
 62
     7
370
    15
100
AcDbCircle
 10
1352.6239525978
 20
1768.1661583372
 30
0.0
 40
1.00000000000001
100
AcDbArc
 50
312.2277453179
 51
18.0
  0
LINE
  5
9D
330
1F
100
AcDbEntity
  8
0
  6
SLD-Solid
 62
     7
370
    15
100
AcDbLine
 10
1319.5128470831
 20
1769.753605161
 30
0.0
 11
1321.4257389478
 21
1770.3384459355
 31
0.0
  0
LINE
  5
9E
330
1F
100
AcDbEntity
  8
0
  6
SLD-Solid
 62
     7
370
    15
100
AcDbLine
 10
1316.6612118654
 20
1807.5572550633
 30
0.0
 11
1311.6667896681
 21
1807.8890145162
 31
0.0
  0
LINE
  5
9F
330
1F
100
AcDbEntity
  8
0
  6
SLD-Solid
 62
     7
370
    15
100
AcDbLine
 10
1329.2603522711
 20
920.8259880879
 30
0.0
 11
1337.5348478727
 21
927.7203977445
 31
0.0
  0
LINE
  5
A0
330
1F
100
AcDbEntity
  8
0
  6
SLD-Solid
 62
     7
370
    15
100
AcDbLine
 10
1311.668905633
 20
982.4788868764
 30
0.0
 11
1309.1742426328
 21
982.6446473935
 31
0.0
  0
LINE
  5
A1
330
1F
100
AcDbEntity
  8
0
  6
SLD-Solid
 62
     7
370
    15
100
AcDbLine
 10
1319.9208706789
 20
981.9305837491
 30
0.0
 11
1316.6577249937
 21
982.1474254468
 31
0.0
  0
LINE
  5
A2
330
1F
100
AcDbEntity
  8
0
  6
SLD-Solid
 62
     7
370
    15
100
AcDbLine
 10
1320.4179138117
 20
981.8763435223
 30
0.0
 11
1319.9208706789
 21
981.9305837491
 31
0.0
  0
LINE
  5
A3
330
1F
100
AcDbEntity
  8
0
  6
SLD-Solid
 62
     7
370
    15
100
AcDbLine
 10
1337.5348478727
 20
927.7203977445
 30
0.0
 11
1353.296044486
 21
942.0256913045
 31
0.0
  0
ARC
  5
A4
330
1F
100
AcDbEntity
  8
0
  6
SLD-Solid
 62
     7
370
    15
100
AcDbCircle
 10
1352.6239525978
 20
942.7661583372
 30
0.0
 40
1.000000000000075
100
AcDbArc
 50
312.227745318
 51
18.0
  0
LINE
  5
A5
330
1F
100
AcDbEntity
  8
0
  6
SLD-Solid
 62
     7
370
    15
100
AcDbLine
 10
1319.5128470831
 20
944.3535507062
 30
0.0
 11
1321.4257389478
 21
944.9383914807
 31
0.0
  0
LINE
  5
A6
330
1F
100
AcDbEntity
  8
0
  6
SLD-Solid
 62
     7
370
    15
100
AcDbLine
 10
1316.6612118654
 20
982.1572006085
 30
0.0
 11
1311.6667896681
 21
982.4890792706
 31
0.0
  0
LINE
  5
A7
330
1F
100
AcDbEntity
  8
0
  6
SLD-Solid
 62
     7
370
    15
100
AcDbLine
 10
569.1610306673
 20
978.4985483029
 30
0.0
 11
568.2610303335
 21
978.4985483029
 31
0.0
  0
LINE
  5
A8
330
1F
100
AcDbEntity
  8
0
  6
SLD-Solid
 62
     7
370
    15
100
AcDbLine
 10
568.2610303335
 20
946.4985430577
 30
0.0
 11
569.1610306673
 21
946.4985430577
 31
0.0
  0
LINE
  5
A9
330
1F
100
AcDbEntity
  8
0
  6
SLD-Solid
 62
     7
370
    15
100
AcDbLine
 10
569.1610306673
 20
1803.8986027577
 30
0.0
 11
568.2610303335
 21
1803.8986027577
 31
0.0
  0
LINE
  5
AA
330
1F
100
AcDbEntity
  8
0
  6
SLD-Solid
 62
     7
370
    15
100
AcDbLine
 10
568.2610303335
 20
1771.8985379079
 30
0.0
 11
569.1610306673
 21
1771.8985379079
 31
0.0
  0
LINE
  5
AB
330
1F
100
AcDbEntity
  8
0
  6
SLD-Solid
 62
     7
370
    15
100
AcDbLine
 10
1258.9610248976
 20
153.7985429504
 30
0.0
 11
1258.9610248976
 21
157.7985436061
 31
0.0
  0
LINE
  5
AC
330
1F
100
AcDbEntity
  8
0
  6
SLD-Solid
 62
     7
370
    15
100
AcDbLine
 10
1201.961028593
 20
157.7985436061
 30
0.0
 11
1201.961028593
 21
153.7985429504
 31
0.0
  0
ARC
  5
AD
330
1F
100
AcDbEntity
  8
0
  6
SLD-Solid
 62
     7
370
    15
100
AcDbCircle
 10
1256.9610286586
 20
153.7985464227
 30
0.0
 40
2.0
100
AcDbArc
 50
270.0
 51
0.0
  0
ARC
  5
AE
330
1F
100
AcDbEntity
  8
0
  6
SLD-Solid
 62
     7
370
    15
100
AcDbCircle
 10
1203.9610286586
 20
153.7985464227
 30
0.0
 40
2.0
100
AcDbArc
 50
180.0
 51
270.0
  0
LINE
  5
AF
330
1F
100
AcDbEntity
  8
0
  6
SLD-Solid
 62
     7
370
    15
100
AcDbLine
 10
669.961038249
 20
153.7985429504
 30
0.0
 11
669.961038249
 21
157.7985436061
 31
0.0
  0
LINE
  5
B0
330
1F
100
AcDbEntity
  8
0
  6
SLD-Solid
 62
     7
370
    15
100
AcDbLine
 10
612.9610270433
 20
157.7985436061
 30
0.0
 11
612.9610270433
 21
153.7985429504
 31
0.0
  0
ARC
  5
B1
330
1F
100
AcDbEntity
  8
0
  6
SLD-Solid
 62
     7
370
    15
100
AcDbCircle
 10
667.9610286586
 20
153.7985464227
 30
0.0
 40
2.0
100
AcDbArc
 50
270.0
 51
0.0
  0
ARC
  5
B2
330
1F
100
AcDbEntity
  8
0
  6
SLD-Solid
 62
     7
370
    15
100
AcDbCircle
 10
614.9610286586
 20
153.7985464227
 30
0.0
 40
2.0
100
AcDbArc
 50
180.0
 51
270.0
  0
LINE
  5
B3
330
1F
100
AcDbEntity
  8
0
  6
SLD-Solid
 62
     7
370
    15
100
AcDbLine
 10
1258.761021512
 20
157.7985436061
 30
0.0
 11
1258.761021512
 21
225.7985473016
 31
0.0
  0
LINE
  5
B4
330
1F
100
AcDbEntity
  8
0
  6
SLD-Solid
 62
     7
370
    15
100
AcDbLine
 10
1202.1610319786
 20
225.7985473016
 30
0.0
 11
1202.1610319786
 21
157.7985436061
 31
0.0
  0
LINE
  5
B5
330
1F
100
AcDbEntity
  8
0
  6
SLD-Solid
 62
     7
370
    15
100
AcDbLine
 10
669.7610348634
 20
157.7985436061
 30
0.0
 11
669.7610348634
 21
225.7985473016
 31
0.0
  0
LINE
  5
B6
330
1F
100
AcDbEntity
  8
0
  6
SLD-Solid
 62
     7
370
    15
100
AcDbLine
 10
613.1610304289
 20
225.7985473016
 30
0.0
 11
613.1610304289
 21
157.7985436061
 31
0.0
  0
ARC
  5
B7
330
1F
100
AcDbEntity
  8
0
  6
SLD-Solid
 62
     7
370
    15
100
AcDbCircle
 10
1263.8610286586
 20
318.2985464227
 30
0.0
 40
1.5
100
AcDbArc
 50
90.0
 51
180.0
  0
ARC
  5
B8
330
1F
100
AcDbEntity
  8
0
  6
SLD-Solid
 62
     7
370
    15
100
AcDbCircle
 10
1197.0610286586
 20
318.2985464227
 30
0.0
 40
1.5
100
AcDbArc
 50
0.0
 51
90.0
  0
ARC
  5
B9
330
1F
100
AcDbEntity
  8
0
  6
SLD-Solid
 62
     7
370
    15
100
AcDbCircle
 10
1257.6610286586
 20
231.8311123684
 30
0.0
 40
4.700000000000045
100
AcDbArc
 50
350.5402980318
 51
0.0
  0
ARC
  5
BA
330
1F
100
AcDbEntity
  8
0
  6
SLD-Solid
 62
     7
370
    15
100
AcDbCircle
 10
1203.2610286586
 20
231.8311123684
 30
0.0
 40
4.700000000000273
100
AcDbArc
 50
180.0
 51
189.4597019682
  0
LINE
  5
BB
330
1F
100
AcDbEntity
  8
0
  6
SLD-Solid
 62
     7
370
    15
100
AcDbLine
 10
1262.3610228472
 20
231.8311119789
 30
0.0
 11
1262.3610228472
 21
318.2985484937
 31
0.0
  0
LINE
  5
BC
330
1F
100
AcDbEntity
  8
0
  6
SLD-Solid
 62
     7
370
    15
100
AcDbLine
 10
1198.5610306434
 20
318.2985484937
 30
0.0
 11
1198.5610306434
 21
231.8311119789
 31
0.0
  0
LINE
  5
BD
330
1F
100
AcDbEntity
  8
0
  6
SLD-Solid
 62
     7
370
    15
100
AcDbLine
 10
1198.6249417238
 20
231.0586488211
 30
0.0
 11
1199.5013833217
 21
225.7985473016
 31
0.0
  0
LINE
  5
BE
330
1F
100
AcDbEntity
  8
0
  6
SLD-Solid
 62
     7
370
    15
100
AcDbLine
 10
1261.4206701689
 20
225.7985473016
 30
0.0
 11
1262.297126668
 21
231.0586488211
 31
0.0
  0
ARC
  5
BF
330
1F
100
AcDbEntity
  8
0
  6
SLD-Solid
 62
     7
370
    15
100
AcDbCircle
 10
674.8610286586
 20
318.2985464227
 30
0.0
 40
1.500000000000057
100
AcDbArc
 50
90.0
 51
180.0
  0
ARC
  5
C0
330
1F
100
AcDbEntity
  8
0
  6
SLD-Solid
 62
     7
370
    15
100
AcDbCircle
 10
608.0610286586
 20
318.2985464227
 30
0.0
 40
1.500000000000057
100
AcDbArc
 50
0.0
 51
90.0
  0
ARC
  5
C1
330
1F
100
AcDbEntity
  8
0
  6
SLD-Solid
 62
     7
370
    15
100
AcDbCircle
 10
668.6610286586
 20
231.8311123683
 30
0.0
 40
4.700000000000117
100
AcDbArc
 50
350.5402980318
 51
0.0
  0
ARC
  5
C2
330
1F
100
AcDbEntity
  8
0
  6
SLD-Solid
 62
     7
370
    15
100
AcDbCircle
 10
614.2610286586
 20
231.8311123683
 30
0.0
 40
4.700000000000045
100
AcDbArc
 50
180.0
 51
189.4597019682
  0
LINE
  5
C3
330
1F
100
AcDbEntity
  8
0
  6
SLD-Solid
 62
     7
370
    15
100
AcDbLine
 10
673.3610361986
 20
231.8311119789
 30
0.0
 11
673.3610361986
 21
318.2985484937
 31
0.0
  0
LINE
  5
C4
330
1F
100
AcDbEntity
  8
0
  6
SLD-Solid
 62
     7
370
    15
100
AcDbLine
 10
609.5610290937
 20
318.2985484937
 30
0.0
 11
609.5610290937
 21
231.8311119789
 31
0.0
  0
LINE
  5
C5
330
1F
100
AcDbEntity
  8
0
  6
SLD-Solid
 62
     7
370
    15
100
AcDbLine
 10
609.6249550752
 20
231.0586488211
 30
0.0
 11
610.501381772
 21
225.7985473016
 31
0.0
  0
LINE
  5
C6
330
1F
100
AcDbEntity
  8
0
  6
SLD-Solid
 62
     7
370
    15
100
AcDbLine
 10
672.4206835203
 20
225.7985473016
 30
0.0
 11
673.2971102171
 21
231.0586488211
 31
0.0
  0
LWPOLYLINE
  5
C7
330
1F
100
AcDbEntity
  8
0
  6
SLD-Solid
 62
     7
370
    15
100
AcDbPolyline
 90
        5
 70
   128
 43
0.0
 10
1335.7622057371
 20
786.2248123029
 10
1339.9660617285
 20
786.2253487447
 10
1355.4149002008
 20
786.3264978269
 10
1364.9493783884
 20
786.2522304395
 10
1370.3450590544
 20
786.0588729718
  0
LWPOLYLINE
  5
C8
330
1F
100
AcDbEntity
  8
0
  6
SLD-Solid
 62
     7
370
    15
100
AcDbPolyline
 90
        5
 70
   128
 43
0.0
 10
1370.3409463339
 20
815.5215084889
 10
1364.0962273054
 20
815.3283894399
 10
1354.78455128
 20
815.2722418645
 10
1343.7650829725
 20
815.3499067166
 10
1335.7610434465
 20
815.3608143666
  0
LWPOLYLINE
  5
C9
330
1F
100
AcDbEntity
  8
0
  6
SLD-Solid
 62
     7
370
    15
100
AcDbPolyline
 90
       15
 70
   128
 43
0.0
 10
1371.8849748544
 20
786.2450778821
 10
1371.8688219957
 20
786.2439453938
 10
1372.0620304518
 20
786.2394750455
 10
1372.5835412912
 20
786.219924722
 10
1373.0815380983
 20
786.2105071881
 10
1373.3425766401
 20
786.2103879788
 10
1373.5658556394
 20
786.2103283742
 10
1376.3855725698
 20
786.2097323277
 10
1378.8912028246
 20
786.2092554906
 10
1381.0822397642
 20
786.2088978627
 10
1382.9588622026
 20
786.2086594441
 10
1384.5210403375
 20
786.2085998395
 10
1384.6991390161
 20
786.2085998395
 10
1384.8781019621
 20
786.2101495602
 10
1384.8626345567
 20
786.210030351
  0
LWPOLYLINE
  5
CA
330
1F
100
AcDbEntity
  8
0
  6
SLD-Solid
 62
     7
370
    15
100
AcDbPolyline
 90
       18
 70
   128
 43
0.0
 10
1385.0587636404
 20
815.3369129041
 10
1385.0762278013
 20
815.3356016019
 10
1384.8626345567
 20
815.3551519254
 10
1384.3360871248
 20
815.385073457
 10
1384.1239243917
 20
815.3884113171
 10
1384.0550214224
 20
815.3884709218
 10
1384.0118080549
 20
815.3884709218
 10
1382.3386758737
 20
815.3883517125
 10
1380.3506821565
 20
815.3880536893
 10
1378.0482441358
 20
815.3876960614
 10
1375.4324644975
 20
815.3871596196
 10
1372.5021809511
 20
815.3865635732
 10
1371.5106278829
 20
815.383404527
 10
1371.4300424032
 20
815.3819144109
 10
1371.6443211012
 20
815.3754175046
 10
1372.1787363462
 20
815.3159320691
 10
1372.5209862165
 20
815.2456581929
 10
1372.6388245992
 20
815.2136504987
  0
LINE
  5
CB
330
1F
100
AcDbEntity
  8
0
  6
SLD-Solid
 62
     7
370
    15
100
AcDbLine
 10
1375.7573098116
 20
787.4818146565
 30
0.0
 11
1375.7334679537
 21
787.4873578885
 31
0.0
  0
ARC
  5
CC
330
1F
100
AcDbEntity
  8
0
  6
SLD-Solid
 62
     7
370
    15
100
AcDbCircle
 10
1373.9101585314
 20
1167.3393610154
 30
0.0
 40
351.9608155543579
100
AcDbArc
 50
269.4345847422
 51
271.7887821748
  0
LWPOLYLINE
  5
CD
330
1F
100
AcDbEntity
  8
0
  6
SLD-Solid
 62
     7
370
    15
100
AcDbPolyline
 90
        3
 70
   128
 43
0.0
 10
1366.2459582262
 20
815.3948486188
 10
1352.4668544702
 20
815.3950870374
 10
1335.7622951441
 20
815.3952658513
  0
LWPOLYLINE
  5
CE
330
1F
100
AcDbEntity
  8
0
  6
SLD-Solid
 62
     7
370
    15
100
AcDbPolyline
 90
        3
 70
   128
 43
0.0
 10
1335.7609242372
 20
786.20180491
 10
1359.4765097074
 20
786.2021029332
 10
1366.3933307104
 20
786.2004936078
  0
LWPOLYLINE
  5
CF
330
1F
100
AcDbEntity
  8
0
  6
SLD-Solid
 62
     7
370
    15
100
AcDbPolyline
 90
        4
 70
   128
 43
0.0
 10
1371.0697025232
 20
786.1993611195
 10
1376.8111795358
 20
786.1980498174
 10
1385.0247293882
 20
786.0420048573
 10
1385.1104706697
 20
786.039203439
  0
LINE
  5
D0
330
1F
100
AcDbEntity
  8
0
  6
SLD-Solid
 62
     7
370
    15
100
AcDbLine
 10
1391.9336825781
 20
810.1368248799
 30
0.0
 11
1390.9941941671
 21
812.3889267781
 31
0.0
  0
ARC
  5
D1
330
1F
100
AcDbEntity
  8
0
  6
SLD-Solid
 62
     7
370
    15
100
AcDbCircle
 10
1385.1942404037
 20
792.946909875
 30
0.0
 40
6.901425340489166
100
AcDbArc
 50
266.8349227596
 51
347.5606868137
  0
ARC
  5
D2
330
1F
100
AcDbEntity
  8
0
  6
SLD-Solid
 62
     7
370
    15
100
AcDbCircle
 10
1346.7008632796
 20
800.7985464227
 30
0.0
 40
46.24999970944334
100
AcDbArc
 50
348.5111848764
 51
11.4945663561
  0
LWPOLYLINE
  5
D3
330
1F
100
AcDbEntity
  8
0
  6
SLD-Solid
 62
     7
370
    15
100
AcDbPolyline
 90
        5
 70
   128
 43
0.0
 10
1335.7622057371
 20
1611.6248667577
 10
1339.9660617285
 20
1611.6253435948
 10
1355.4149002008
 20
1611.7265522817
 10
1364.9493783884
 20
1611.6522848943
 10
1370.3450590544
 20
1611.4589274266
  0
LWPOLYLINE
  5
D4
330
1F
100
AcDbEntity
  8
0
  6
SLD-Solid
 62
     7
370
    15
100
AcDbPolyline
 90
        5
 70
   128
 43
0.0
 10
1370.3409463339
 20
1640.9215033391
 10
1364.0962273054
 20
1640.72838429
 10
1354.78455128
 20
1640.6722367146
 10
1343.7650829725
 20
1640.7499611714
 10
1335.7610434465
 20
1640.7608092168
  0
LWPOLYLINE
  5
D5
330
1F
100
AcDbEntity
  8
0
  6
SLD-Solid
 62
     7
370
    15
100
AcDbPolyline
 90
       15
 70
   128
 43
0.0
 10
1371.8849748544
 20
1611.6451323369
 10
1371.8688219957
 20
1611.643940244
 10
1372.0620304518
 20
1611.639410291
 10
1372.5835412912
 20
1611.6199791768
 10
1373.0815380983
 20
1611.6105616429
 10
1373.3425766401
 20
1611.6103232243
 10
1373.5658556394
 20
1611.6103232243
 10
1376.3855725698
 20
1611.6097271779
 10
1378.8912028246
 20
1611.6092503407
 10
1381.0822397642
 20
1611.6088927129
 10
1382.9588622026
 20
1611.6086542943
 10
1384.5210403375
 20
1611.6086542943
 10
1384.6991390161
 20
1611.6086542943
 10
1384.8781019621
 20
1611.6102040151
 10
1384.8626345567
 20
1611.6100848058
  0
LWPOLYLINE
  5
D6
330
1F
100
AcDbEntity
  8
0
  6
SLD-Solid
 62
     7
370
    15
100
AcDbPolyline
 90
       18
 70
   128
 43
0.0
 10
1385.0587636404
 20
1640.7369673589
 10
1385.0762278013
 20
1640.7356560567
 10
1384.8626345567
 20
1640.7552063802
 10
1384.3360871248
 20
1640.7850087026
 10
1384.1239243917
 20
1640.7884657719
 10
1384.0550214224
 20
1640.7884657719
 10
1384.0118080549
 20
1640.7884657719
 10
1382.3386758737
 20
1640.7883465627
 10
1380.3506821565
 20
1640.7881081441
 10
1378.0482441358
 20
1640.7877505162
 10
1375.4324644975
 20
1640.7871544698
 10
1372.5021809511
 20
1640.7865584233
 10
1371.5106278829
 20
1640.7833397725
 10
1371.4300424032
 20
1640.781909261
 10
1371.6443211012
 20
1640.7754719594
 10
1372.1787363462
 20
1640.7159865239
 10
1372.5209862165
 20
1640.6456530431
 10
1372.6388245992
 20
1640.6137049535
  0
LINE
  5
D7
330
1F
100
AcDbEntity
  8
0
  6
SLD-Solid
 62
     7
370
    15
100
AcDbLine
 10
1375.7573098116
 20
1612.8818095067
 30
0.0
 11
1375.7334679537
 21
1612.887293134
 31
0.0
  0
ARC
  5
D8
330
1F
100
AcDbEntity
  8
0
  6
SLD-Solid
 62
     7
370
    15
100
AcDbCircle
 10
1373.970778259
 20
1987.0614417733
 30
0.0
 40
346.2837361828079
100
AcDbArc
 50
269.4152842505
 51
271.8080826666
  0
LWPOLYLINE
  5
D9
330
1F
100
AcDbEntity
  8
0
  6
SLD-Solid
 62
     7
370
    15
100
AcDbPolyline
 90
        3
 70
   128
 43
0.0
 10
1366.2459582262
 20
1640.7949030736
 10
1352.4668544702
 20
1640.7950222829
 10
1335.7622951441
 20
1640.7952607015
  0
LWPOLYLINE
  5
DA
330
1F
100
AcDbEntity
  8
0
  6
SLD-Solid
 62
     7
370
    15
100
AcDbPolyline
 90
        3
 70
   128
 43
0.0
 10
1335.7609242372
 20
1611.6018593648
 10
1359.4765097074
 20
1611.6020977834
 10
1366.3933307104
 20
1611.6005480626
  0
LWPOLYLINE
  5
DB
330
1F
100
AcDbEntity
  8
0
  6
SLD-Solid
 62
     7
370
    15
100
AcDbPolyline
 90
        4
 70
   128
 43
0.0
 10
1371.0697025232
 20
1611.5993559697
 10
1376.8111795358
 20
1611.5980446675
 10
1385.0247293882
 20
1611.4419997075
 10
1385.1104706697
 20
1611.4391386845
  0
LINE
  5
DC
330
1F
100
AcDbEntity
  8
0
  6
SLD-Solid
 62
     7
370
    15
100
AcDbLine
 10
1391.9336825781
 20
1635.5368197301
 30
0.0
 11
1390.9941941671
 21
1637.7889216283
 31
0.0
  0
ARC
  5
DD
330
1F
100
AcDbEntity
  8
0
  6
SLD-Solid
 62
     7
370
    15
100
AcDbCircle
 10
1385.1941434204
 20
1618.3469565045
 30
0.0
 40
6.901531200641901
100
AcDbArc
 50
266.8357777313
 51
347.5604404706
  0
ARC
  5
DE
330
1F
100
AcDbEntity
  8
0
  6
SLD-Solid
 62
     7
370
    15
100
AcDbCircle
 10
1346.7008632796
 20
1626.1985464227
 30
0.0
 40
46.24999970944351
100
AcDbArc
 50
348.5111848764
 51
11.4945663561
  0
LINE
  5
DF
330
1F
100
AcDbEntity
  8
0
  6
SLD-Solid
 62
     7
370
    15
100
AcDbLine
 10
1334.2610329561
 20
852.7985513547
 30
0.0
 11
1333.7610393934
 21
853.2985747197
 31
0.0
  0
LINE
  5
E0
330
1F
100
AcDbEntity
  8
0
  6
SLD-Solid
 62
     7
370
    15
100
AcDbLine
 10
1317.7610367708
 20
853.2985747197
 30
0.0
 11
1317.2610432081
 21
852.7985513547
 31
0.0
  0
LINE
  5
E1
330
1F
100
AcDbEntity
  8
0
  6
SLD-Solid
 62
     7
370
    15
100
AcDbLine
 10
1334.2610329561
 20
851.2985408643
 30
0.0
 11
1334.2610329561
 21
852.7985513547
 31
0.0
  0
LINE
  5
E2
330
1F
100
AcDbEntity
  8
0
  6
SLD-Solid
 62
     7
370
    15
100
AcDbLine
 10
1317.2610432081
 20
852.7985513547
 30
0.0
 11
1317.2610432081
 21
851.2985408643
 31
0.0
  0
LINE
  5
E3
330
1F
100
AcDbEntity
  8
0
  6
SLD-Solid
 62
     7
370
    15
100
AcDbLine
 10
1317.2610432081
 20
851.2985408643
 30
0.0
 11
1317.7610367708
 21
850.7985174992
 31
0.0
  0
LINE
  5
E4
330
1F
100
AcDbEntity
  8
0
  6
SLD-Solid
 62
     7
370
    15
100
AcDbLine
 10
1333.7610393934
 20
850.7985174992
 30
0.0
 11
1334.2610329561
 21
851.2985408643
 31
0.0
  0
LINE
  5
E5
330
1F
100
AcDbEntity
  8
0
  6
SLD-Solid
 62
     7
370
    15
100
AcDbLine
 10
1332.261028903
 20
849.9278128484
 30
0.0
 11
1332.261028903
 21
849.9985635617
 31
0.0
  0
LINE
  5
E6
330
1F
100
AcDbEntity
  8
0
  6
SLD-Solid
 62
     7
370
    15
100
AcDbLine
 10
1319.2610174589
 20
849.9985635617
 30
0.0
 11
1319.2610174589
 21
849.9278128484
 31
0.0
  0
LINE
  5
E7
330
1F
100
AcDbEntity
  8
0
  6
SLD-Solid
 62
     7
370
    15
100
AcDbLine
 10
1334.2610329561
 20
1676.6985953191
 30
0.0
 11
1334.2610329561
 21
1678.1986058095
 31
0.0
  0
LINE
  5
E8
330
1F
100
AcDbEntity
  8
0
  6
SLD-Solid
 62
     7
370
    15
100
AcDbLine
 10
1317.2610432081
 20
1678.1986058095
 30
0.0
 11
1317.2610432081
 21
1676.6985953191
 31
0.0
  0
LINE
  5
E9
330
1F
100
AcDbEntity
  8
0
  6
SLD-Solid
 62
     7
370
    15
100
AcDbLine
 10
1317.2610432081
 20
1676.6985953191
 30
0.0
 11
1317.7610367708
 21
1676.1985123494
 31
0.0
  0
LINE
  5
EA
330
1F
100
AcDbEntity
  8
0
  6
SLD-Solid
 62
     7
370
    15
100
AcDbLine
 10
1333.7610393934
 20
1676.1985123494
 30
0.0
 11
1334.2610329561
 21
1676.6985953191
 31
0.0
  0
LINE
  5
EB
330
1F
100
AcDbEntity
  8
0
  6
SLD-Solid
 62
     7
370
    15
100
AcDbLine
 10
1334.2610329561
 20
1678.1986058095
 30
0.0
 11
1333.7610393934
 21
1678.6985695699
 31
0.0
  0
LINE
  5
EC
330
1F
100
AcDbEntity
  8
0
  6
SLD-Solid
 62
     7
370
    15
100
AcDbLine
 10
1317.7610367708
 20
1678.6985695699
 30
0.0
 11
1317.2610432081
 21
1678.1986058095
 31
0.0
  0
LINE
  5
ED
330
1F
100
AcDbEntity
  8
0
  6
SLD-Solid
 62
     7
370
    15
100
AcDbLine
 10
1332.261028903
 20
1675.3278076985
 30
0.0
 11
1332.261028903
 21
1675.3984988072
 31
0.0
  0
LINE
  5
EE
330
1F
100
AcDbEntity
  8
0
  6
SLD-Solid
 62
     7
370
    15
100
AcDbLine
 10
1319.2610174589
 20
1675.3984988072
 30
0.0
 11
1319.2610174589
 21
1675.3278076985
 31
0.0
  0
LINE
  5
EF
330
1F
100
AcDbEntity
  8
0
  6
SLD-Solid
 62
     7
370
    15
100
AcDbLine
 10
1317.2610432081
 20
324.7985467651
 30
0.0
 11
1317.7610367708
 21
324.2985457518
 31
0.0
  0
LINE
  5
F0
330
1F
100
AcDbEntity
  8
0
  6
SLD-Solid
 62
     7
370
    15
100
AcDbLine
 10
1333.7610393934
 20
324.2985457518
 30
0.0
 11
1334.2610329561
 21
324.7985467651
 31
0.0
  0
LINE
  5
F1
330
1F
100
AcDbEntity
  8
0
  6
SLD-Solid
 62
     7
370
    15
100
AcDbLine
 10
1317.2610432081
 20
326.298549805
 30
0.0
 11
1317.2610432081
 21
324.7985467651
 31
0.0
  0
LINE
  5
F2
330
1F
100
AcDbEntity
  8
0
  6
SLD-Solid
 62
     7
370
    15
100
AcDbLine
 10
1334.2610329561
 20
324.7985467651
 30
0.0
 11
1334.2610329561
 21
326.298549805
 31
0.0
  0
LINE
  5
F3
330
1F
100
AcDbEntity
  8
0
  6
SLD-Solid
 62
     7
370
    15
100
AcDbLine
 10
1334.2610329561
 20
326.298549805
 30
0.0
 11
1333.7610393934
 21
326.7985433677
 31
0.0
  0
LINE
  5
F4
330
1F
100
AcDbEntity
  8
0
  6
SLD-Solid
 62
     7
370
    15
100
AcDbLine
 10
1317.7610367708
 20
326.7985433677
 30
0.0
 11
1317.2610432081
 21
326.298549805
 31
0.0
  0
LINE
  5
F5
330
1F
100
AcDbEntity
  8
0
  6
SLD-Solid
 62
     7
370
    15
100
AcDbLine
 10
1319.2610174589
 20
327.6692554691
 30
0.0
 11
1319.2610174589
 21
327.5985494593
 31
0.0
  0
LINE
  5
F6
330
1F
100
AcDbEntity
  8
0
  6
SLD-Solid
 62
     7
370
    15
100
AcDbLine
 10
1332.261028903
 20
327.5985494593
 30
0.0
 11
1332.261028903
 21
327.6692554691
 31
0.0
  0
LINE
  5
F7
330
1F
100
AcDbEntity
  8
0
  6
SLD-Solid
 62
     7
370
    15
100
AcDbLine
 10
1317.2610432081
 20
1150.1985490659
 30
0.0
 11
1317.7610367708
 21
1149.6985257008
 31
0.0
  0
LINE
  5
F8
330
1F
100
AcDbEntity
  8
0
  6
SLD-Solid
 62
     7
370
    15
100
AcDbLine
 10
1333.7610393934
 20
1149.6985257008
 30
0.0
 11
1334.2610329561
 21
1150.1985490659
 31
0.0
  0
LINE
  5
F9
330
1F
100
AcDbEntity
  8
0
  6
SLD-Solid
 62
     7
370
    15
100
AcDbLine
 10
1334.2610329561
 20
1151.6985595563
 30
0.0
 11
1333.7610393934
 21
1152.1985233167
 31
0.0
  0
LINE
  5
FA
330
1F
100
AcDbEntity
  8
0
  6
SLD-Solid
 62
     7
370
    15
100
AcDbLine
 10
1317.7610367708
 20
1152.1985233167
 30
0.0
 11
1317.2610432081
 21
1151.6985595563
 31
0.0
  0
LINE
  5
FB
330
1F
100
AcDbEntity
  8
0
  6
SLD-Solid
 62
     7
370
    15
100
AcDbLine
 10
1317.2610432081
 20
1151.6985595563
 30
0.0
 11
1317.2610432081
 21
1150.1985490659
 31
0.0
  0
LINE
  5
FC
330
1F
100
AcDbEntity
  8
0
  6
SLD-Solid
 62
     7
370
    15
100
AcDbLine
 10
1334.2610329561
 20
1150.1985490659
 30
0.0
 11
1334.2610329561
 21
1151.6985595563
 31
0.0
  0
LINE
  5
FD
330
1F
100
AcDbEntity
  8
0
  6
SLD-Solid
 62
     7
370
    15
100
AcDbLine
 10
1319.2610174589
 20
1153.0692279675
 30
0.0
 11
1319.2610174589
 21
1152.9985368588
 31
0.0
  0
LINE
  5
FE
330
1F
100
AcDbEntity
  8
0
  6
SLD-Solid
 62
     7
370
    15
100
AcDbLine
 10
1332.261028903
 20
1152.9985368588
 30
0.0
 11
1332.261028903
 21
1153.0692279675
 31
0.0
  0
LINE
  5
FF
330
1F
100
AcDbEntity
  8
0
  6
SLD-Solid
 62
     7
370
    15
100
AcDbLine
 10
1333.7610393934
 20
1147.198528085
 30
0.0
 11
1333.7610393934
 21
1149.6985257008
 31
0.0
  0
LINE
  5
100
330
1F
100
AcDbEntity
  8
0
  6
SLD-Solid
 62
     7
370
    15
100
AcDbLine
 10
1333.7610393934
 20
321.798548136
 30
0.0
 11
1333.7610393934
 21
324.2985457518
 31
0.0
  0
LINE
  5
101
330
1F
100
AcDbEntity
  8
0
  6
SLD-Solid
 62
     7
370
    15
100
AcDbLine
 10
1333.7610393934
 20
1679.498583112
 30
0.0
 11
1333.7610393934
 21
1681.9985211232
 31
0.0
  0
LINE
  5
102
330
1F
100
AcDbEntity
  8
0
  6
SLD-Solid
 62
     7
370
    15
100
AcDbLine
 10
1333.7610393934
 20
854.0985286572
 30
0.0
 11
1333.7610393934
 21
856.598526273
 31
0.0
  0
LINE
  5
103
330
1F
100
AcDbEntity
  8
0
  6
SLD-Solid
 62
     7
370
    15
100
AcDbLine
 10
1320.7610279493
 20
854.0985286572
 30
0.0
 11
1320.7610279493
 21
853.2985747197
 31
0.0
  0
LINE
  5
104
330
1F
100
AcDbEntity
  8
0
  6
SLD-Solid
 62
     7
370
    15
100
AcDbLine
 10
1330.7610184126
 20
853.2985747197
 30
0.0
 11
1330.7610184126
 21
854.0985286572
 31
0.0
  0
LINE
  5
105
330
1F
100
AcDbEntity
  8
0
  6
SLD-Solid
 62
     7
370
    15
100
AcDbLine
 10
1321.8610316686
 20
857.0985496381
 30
0.0
 11
1321.8610316686
 21
856.598526273
 31
0.0
  0
LINE
  5
106
330
1F
100
AcDbEntity
  8
0
  6
SLD-Solid
 62
     7
370
    15
100
AcDbLine
 10
1329.6610146932
 20
856.598526273
 30
0.0
 11
1329.6610146932
 21
857.0985496381
 31
0.0
  0
LINE
  5
107
330
1F
100
AcDbEntity
  8
0
  6
SLD-Solid
 62
     7
370
    15
100
AcDbLine
 10
1329.6610146932
 20
1146.6985643247
 30
0.0
 11
1329.6610146932
 21
1147.198528085
 31
0.0
  0
LINE
  5
108
330
1F
100
AcDbEntity
  8
0
  6
SLD-Solid
 62
     7
370
    15
100
AcDbLine
 10
1321.8610316686
 20
1147.198528085
 30
0.0
 11
1321.8610316686
 21
1146.6985643247
 31
0.0
  0
LINE
  5
109
330
1F
100
AcDbEntity
  8
0
  6
SLD-Solid
 62
     7
370
    15
100
AcDbLine
 10
1320.7610279493
 20
1679.498583112
 30
0.0
 11
1320.7610279493
 21
1678.6985695699
 31
0.0
  0
LINE
  5
10A
330
1F
100
AcDbEntity
  8
0
  6
SLD-Solid
 62
     7
370
    15
100
AcDbLine
 10
1330.7610184126
 20
1678.6985695699
 30
0.0
 11
1330.7610184126
 21
1679.498583112
 31
0.0
  0
LINE
  5
10B
330
1F
100
AcDbEntity
  8
0
  6
SLD-Solid
 62
     7
370
    15
100
AcDbLine
 10
1321.8610316686
 20
1682.4986040929
 30
0.0
 11
1321.8610316686
 21
1681.9985211232
 31
0.0
  0
LINE
  5
10C
330
1F
100
AcDbEntity
  8
0
  6
SLD-Solid
 62
     7
370
    15
100
AcDbLine
 10
1329.6610146932
 20
1681.9985211232
 30
0.0
 11
1329.6610146932
 21
1682.4986040929
 31
0.0
  0
LINE
  5
10D
330
1F
100
AcDbEntity
  8
0
  6
SLD-Solid
 62
     7
370
    15
100
AcDbLine
 10
1329.6610146932
 20
321.2985471228
 30
0.0
 11
1329.6610146932
 21
321.798548136
 31
0.0
  0
LINE
  5
10E
330
1F
100
AcDbEntity
  8
0
  6
SLD-Solid
 62
     7
370
    15
100
AcDbLine
 10
1321.8610316686
 20
321.798548136
 30
0.0
 11
1321.8610316686
 21
321.2985471228
 31
0.0
  0
LINE
  5
10F
330
1F
100
AcDbEntity
  8
0
  6
SLD-Solid
 62
     7
370
    15
100
AcDbLine
 10
1188.4610235863
 20
1145.9914744237
 30
0.0
 11
1188.4610235863
 21
1027.7985632756
 31
0.0
  0
LINE
  5
110
330
1F
100
AcDbEntity
  8
0
  6
SLD-Solid
 62
     7
370
    15
100
AcDbLine
 10
1188.4610235863
 20
1145.9914744237
 30
0.0
 11
1190.9110278063
 21
1145.9914744237
 31
0.0
  0
LINE
  5
111
330
1F
100
AcDbEntity
  8
0
  6
SLD-Solid
 62
     7
370
    15
100
AcDbLine
 10
1190.9110278063
 20
1023.0056345799
 30
0.0
 11
1189.4610256128
 21
1023.0056345799
 31
0.0
  0
LINE
  5
112
330
1F
100
AcDbEntity
  8
0
  6
SLD-Solid
 62
     7
370
    15
100
AcDbLine
 10
1212.4110341244
 20
1145.9914744237
 30
0.0
 11
1190.9110278063
 21
1145.9914744237
 31
0.0
  0
LINE
  5
113
330
1F
100
AcDbEntity
  8
0
  6
SLD-Solid
 62
     7
370
    15
100
AcDbLine
 10
1212.4110341244
 20
1023.0056345799
 30
0.0
 11
1190.9110278063
 21
1023.0056345799
 31
0.0
  0
LWPOLYLINE
  5
114
330
1F
100
AcDbEntity
  8
0
  6
SLD-Solid
 62
     7
370
    15
100
AcDbPolyline
 90
        6
 70
   128
 43
0.0
 10
1214.8610234432
 20
1024.2485702374
 10
1214.7086292677
 20
1023.9679515698
 10
1214.2702520065
 20
1023.6873329022
 10
1213.6004895143
 20
1023.4067142346
 10
1212.7826690845
 20
1023.126095567
 10
1212.4110341244
 20
1023.0056345799
  0
LINE
  5
115
330
1F
100
AcDbEntity
  8
0
  6
SLD-Solid
 62
     7
370
    15
100
AcDbLine
 10
1214.8610234432
 20
1144.7485387662
 30
0.0
 11
1214.8610234432
 21
1024.2485702374
 31
0.0
  0
LWPOLYLINE
  5
116
330
1F
100
AcDbEntity
  8
0
  6
SLD-Solid
 62
     7
370
    15
100
AcDbPolyline
 90
        6
 70
   128
 43
0.0
 10
1212.4110341244
 20
1145.9914744237
 10
1213.2616520099
 20
1145.7109153607
 10
1214.0065759592
 20
1145.4302966931
 10
1214.5529121332
 20
1145.1496780255
 10
1214.8326814346
 20
1144.8690593579
 10
1214.8610234432
 20
1144.7485387662
  0
ARC
  5
117
330
1F
100
AcDbEntity
  8
0
  6
SLD-Solid
 62
     7
370
    15
100
AcDbCircle
 10
1212.8164595698
 20
1144.8898337382
 30
0.0
 40
2.049440338595635
100
AcDbArc
 50
356.0467096989
 51
47.4063339731
  0
LWPOLYLINE
  5
118
330
1F
100
AcDbEntity
  8
0
  6
SLD-Solid
 62
     7
370
    15
100
AcDbPolyline
 90
        3
 70
   128
 43
0.0
 10
1213.0964726381
 20
1145.765394006
 10
1212.8386676483
 20
1145.9231078961
 10
1212.4110341244
 20
1145.9985673764
  0
LINE
  5
119
330
1F
100
AcDbEntity
  8
0
  6
SLD-Solid
 62
     7
370
    15
100
AcDbLine
 10
1212.4110341244
 20
1146.3985741475
 30
0.0
 11
1212.4110341244
 21
1145.9985673764
 31
0.0
  0
LINE
  5
11A
330
1F
100
AcDbEntity
  8
0
  6
SLD-Solid
 62
     7
370
    15
100
AcDbLine
 10
1212.4110341244
 20
1021.7985213139
 30
0.0
 11
1212.4110341244
 21
1022.9985416272
 31
0.0
  0
LWPOLYLINE
  5
11B
330
1F
100
AcDbEntity
  8
0
  6
SLD-Solid
 62
     7
370
    15
100
AcDbPolyline
 90
        3
 70
   128
 43
0.0
 10
1212.4110341244
 20
1022.9985416272
 10
1212.9229933195
 20
1023.1082141736
 10
1213.0997955971
 20
1023.2349336484
  0
ARC
  5
11C
330
1F
100
AcDbEntity
  8
0
  6
SLD-Solid
 62
     7
370
    15
100
AcDbCircle
 10
1212.4110280763
 20
1024.2485166814
 30
0.0
 40
2.449995367454865
100
AcDbArc
 50
270.0001414395
 51
0.0012524658
  0
LINE
  5
11D
330
1F
100
AcDbEntity
  8
0
  6
SLD-Solid
 62
     7
370
    15
100
AcDbLine
 10
1171.6610223226
 20
1146.3985741475
 30
0.0
 11
1171.6610223226
 21
1145.9985673764
 31
0.0
  0
LINE
  5
11E
330
1F
100
AcDbEntity
  8
0
  6
SLD-Solid
 62
     7
370
    15
100
AcDbLine
 10
1212.4110341244
 20
1145.9985673764
 30
0.0
 11
1171.6610223226
 21
1145.9985673764
 31
0.0
  0
LINE
  5
11F
330
1F
100
AcDbEntity
  8
0
  6
SLD-Solid
 62
     7
370
    15
100
AcDbLine
 10
1212.4110341244
 20
1022.9985416272
 30
0.0
 11
1189.6610289984
 21
1022.9985416272
 31
0.0
  0
LINE
  5
120
330
1F
100
AcDbEntity
  8
0
  6
SLD-Solid
 62
     7
370
    15
100
AcDbLine
 10
1193.9110338859
 20
1021.7985213139
 30
0.0
 11
1189.6610289984
 21
1021.7985213139
 31
0.0
  0
LINE
  5
121
330
1F
100
AcDbEntity
  8
0
  6
SLD-Solid
 62
     7
370
    15
100
AcDbLine
 10
1189.6610289984
 20
1021.7985213139
 30
0.0
 11
1189.6610289984
 21
1022.9985416272
 31
0.0
  0
LINE
  5
122
330
1F
100
AcDbEntity
  8
0
  6
SLD-Solid
 62
     7
370
    15
100
AcDbLine
 10
651.5110165052
 20
1145.9914744237
 30
0.0
 11
673.0110377245
 21
1145.9914744237
 31
0.0
  0
LINE
  5
123
330
1F
100
AcDbEntity
  8
0
  6
SLD-Solid
 62
     7
370
    15
100
AcDbLine
 10
651.5110165052
 20
1023.0056345799
 30
0.0
 11
673.0110377245
 21
1023.0056345799
 31
0.0
  0
LWPOLYLINE
  5
124
330
1F
100
AcDbEntity
  8
0
  6
SLD-Solid
 62
     7
370
    15
100
AcDbPolyline
 90
        6
 70
   128
 43
0.0
 10
649.0610271864
 20
1144.7485387662
 10
649.2134362631
 20
1145.0290978291
 10
649.6517986231
 20
1145.3097164967
 10
650.3215760164
 20
1145.5903351643
 10
651.139381545
 20
1145.8709538319
 10
651.5110165052
 20
1145.9914744237
  0
LWPOLYLINE
  5
125
330
1F
100
AcDbEntity
  8
0
  6
SLD-Solid
 62
     7
370
    15
100
AcDbPolyline
 90
        6
 70
   128
 43
0.0
 10
651.5110165052
 20
1023.0056345799
 10
650.6603986196
 20
1023.2861936429
 10
649.9154895715
 20
1023.5668123105
 10
649.3691533975
 20
1023.8474309781
 10
649.089369195
 20
1024.1280496457
 10
649.0610271864
 20
1024.2485702374
  0
LINE
  5
126
330
1F
100
AcDbEntity
  8
0
  6
SLD-Solid
 62
     7
370
    15
100
AcDbLine
 10
649.0610271864
 20
1024.2485702374
 30
0.0
 11
649.0610271864
 21
1144.7485387662
 31
0.0
  0
LINE
  5
127
330
1F
100
AcDbEntity
  8
0
  6
SLD-Solid
 62
     7
370
    15
100
AcDbLine
 10
673.0110377245
 20
1145.9914744237
 30
0.0
 11
675.4610270433
 21
1145.9914744237
 31
0.0
  0
LINE
  5
128
330
1F
100
AcDbEntity
  8
0
  6
SLD-Solid
 62
     7
370
    15
100
AcDbLine
 10
675.4610270433
 20
1027.7985632756
 30
0.0
 11
675.4610270433
 21
1145.9914744237
 31
0.0
  0
LINE
  5
129
330
1F
100
AcDbEntity
  8
0
  6
SLD-Solid
 62
     7
370
    15
100
AcDbLine
 10
674.4610399179
 20
1023.0056345799
 30
0.0
 11
673.0110377245
 21
1023.0056345799
 31
0.0
  0
ARC
  5
12A
330
1F
100
AcDbEntity
  8
0
  6
SLD-Solid
 62
     7
370
    15
100
AcDbCircle
 10
651.2827497265
 20
1144.7945435906
 30
0.0
 40
2.222198796039764
100
AcDbArc
 50
133.7949392641
 51
181.1862442752
  0
LINE
  5
12B
330
1F
100
AcDbEntity
  8
0
  6
SLD-Solid
 62
     7
370
    15
100
AcDbLine
 10
651.5110165052
 20
1146.3985741475
 30
0.0
 11
651.5110165052
 21
1145.9985673764
 31
0.0
  0
LWPOLYLINE
  5
12C
330
1F
100
AcDbEntity
  8
0
  6
SLD-Solid
 62
     7
370
    15
100
AcDbPolyline
 90
        3
 70
   128
 43
0.0
 10
651.5110165052
 20
1145.9985673764
 10
650.9990722112
 20
1145.88889483
 10
650.8222550325
 20
1145.7621753552
  0
LWPOLYLINE
  5
12D
330
1F
100
AcDbEntity
  8
0
  6
SLD-Solid
 62
     7
370
    15
100
AcDbPolyline
 90
        3
 70
   128
 43
0.0
 10
650.8255928926
 20
1023.2317149976
 10
651.0833829813
 20
1023.0740011075
 10
651.5110165052
 20
1022.9985416272
  0
LINE
  5
12E
330
1F
100
AcDbEntity
  8
0
  6
SLD-Solid
 62
     7
370
    15
100
AcDbLine
 10
651.5110165052
 20
1021.7985213139
 30
0.0
 11
651.5110165052
 21
1022.9985416272
 31
0.0
  0
ARC
  5
12F
330
1F
100
AcDbEntity
  8
0
  6
SLD-Solid
 62
     7
370
    15
100
AcDbCircle
 10
651.5110613485
 20
1024.2485554757
 30
0.0
 40
2.450034162195584
100
AcDbArc
 50
179.999654787
 51
269.9989513077
  0
LINE
  5
130
330
1F
100
AcDbEntity
  8
0
  6
SLD-Solid
 62
     7
370
    15
100
AcDbLine
 10
651.5110165052
 20
1145.9985673764
 30
0.0
 11
692.2610432081
 21
1145.9985673764
 31
0.0
  0
LINE
  5
131
330
1F
100
AcDbEntity
  8
0
  6
SLD-Solid
 62
     7
370
    15
100
AcDbLine
 10
692.2610432081
 20
1146.3985741475
 30
0.0
 11
692.2610432081
 21
1145.9985673764
 31
0.0
  0
LINE
  5
132
330
1F
100
AcDbEntity
  8
0
  6
SLD-Solid
 62
     7
370
    15
100
AcDbLine
 10
674.2610365324
 20
1021.7985213139
 30
0.0
 11
674.2610365324
 21
1022.9985416272
 31
0.0
  0
LINE
  5
133
330
1F
100
AcDbEntity
  8
0
  6
SLD-Solid
 62
     7
370
    15
100
AcDbLine
 10
670.4110235147
 20
1021.7985213139
 30
0.0
 11
674.2610365324
 21
1021.7985213139
 31
0.0
  0
LINE
  5
134
330
1F
100
AcDbEntity
  8
0
  6
SLD-Solid
 62
     7
370
    15
100
AcDbLine
 10
651.5110165052
 20
1022.9985416272
 30
0.0
 11
674.2610365324
 21
1022.9985416272
 31
0.0
  0
LINE
  5
135
330
1F
100
AcDbEntity
  8
0
  6
SLD-Solid
 62
     7
370
    15
100
AcDbLine
 10
675.961020606
 20
1145.9914744237
 30
0.0
 11
675.961020606
 21
1028.3692777493
 31
0.0
  0
LINE
  5
136
330
1F
100
AcDbEntity
  8
0
  6
SLD-Solid
 62
     7
370
    15
100
AcDbLine
 10
675.961020606
 20
1145.9914744237
 30
0.0
 11
678.4110397272
 21
1145.9914744237
 31
0.0
  0
LINE
  5
137
330
1F
100
AcDbEntity
  8
0
  6
SLD-Solid
 62
     7
370
    15
100
AcDbLine
 10
1168.7610328369
 20
1146.3985741475
 30
0.0
 11
1168.7610328369
 21
1144.7414458135
 31
0.0
  0
LINE
  5
138
330
1F
100
AcDbEntity
  8
0
  6
SLD-Solid
 62
     7
370
    15
100
AcDbLine
 10
695.1610177927
 20
1144.7414458135
 30
0.0
 11
695.1610177927
 21
1146.3985741475
 31
0.0
  0
LINE
  5
139
330
1F
100
AcDbEntity
  8
0
  6
SLD-Solid
 62
     7
370
    15
100
AcDbLine
 10
678.4110397272
 20
1145.9914744237
 30
0.0
 11
694.66102423
 21
1145.9914744237
 31
0.0
  0
LINE
  5
13A
330
1F
100
AcDbEntity
  8
0
  6
SLD-Solid
 62
     7
370
    15
100
AcDbLine
 10
694.66102423
 20
1145.9914744237
 30
0.0
 11
694.66102423
 21
1144.7414458135
 31
0.0
  0
ARC
  5
13B
330
1F
100
AcDbEntity
  8
0
  6
SLD-Solid
 62
     7
370
    15
100
AcDbCircle
 10
694.9110286586
 20
1144.7414753549
 30
0.0
 40
0.25
100
AcDbArc
 50
180.0
 51
0.0
  0
ARC
  5
13C
330
1F
100
AcDbEntity
  8
0
  6
SLD-Solid
 62
     7
370
    15
100
AcDbCircle
 10
1169.0110286586
 20
1144.7414753549
 30
0.0
 40
0.25
100
AcDbArc
 50
180.0
 51
0.0
  0
LINE
  5
13D
330
1F
100
AcDbEntity
  8
0
  6
SLD-Solid
 62
     7
370
    15
100
AcDbLine
 10
1169.2610263996
 20
1144.7414458135
 30
0.0
 11
1169.2610263996
 21
1145.9914744237
 31
0.0
  0
LINE
  5
13E
330
1F
100
AcDbEntity
  8
0
  6
SLD-Solid
 62
     7
370
    15
100
AcDbLine
 10
1169.2610263996
 20
1145.9914744237
 30
0.0
 11
1185.5110258035
 21
1145.9914744237
 31
0.0
  0
LINE
  5
13F
330
1F
100
AcDbEntity
  8
0
  6
SLD-Solid
 62
     7
370
    15
100
AcDbLine
 10
1185.5110258035
 20
1145.9914744237
 30
0.0
 11
1187.9610300236
 21
1145.9914744237
 31
0.0
  0
LINE
  5
140
330
1F
100
AcDbEntity
  8
0
  6
SLD-Solid
 62
     7
370
    15
100
AcDbLine
 10
1187.9610300236
 20
1028.3692777493
 30
0.0
 11
1187.9610300236
 21
1145.9914744237
 31
0.0
  0
LINE
  5
141
330
1F
100
AcDbEntity
  8
0
  6
SLD-Solid
 62
     7
370
    15
100
AcDbLine
 10
543.950918334
 20
1181.1014712193
 30
0.0
 11
543.4806972914
 21
1180.4542243817
 31
0.0
  0
LINE
  5
142
330
1F
100
AcDbEntity
  8
0
  6
SLD-Solid
 62
     7
370
    15
100
AcDbLine
 10
559.6160024576
 20
1169.7201431134
 30
0.0
 11
543.950918334
 21
1181.1014712193
 31
0.0
  0
LINE
  5
143
330
1F
100
AcDbEntity
  8
0
  6
SLD-Solid
 62
     7
370
    15
100
AcDbLine
 10
559.1457516126
 20
1169.0728962758
 30
0.0
 11
543.4806972914
 21
1180.4542243817
 31
0.0
  0
LINE
  5
144
330
1F
100
AcDbEntity
  8
0
  6
SLD-Solid
 62
     7
370
    15
100
AcDbLine
 10
560.9762996607
 20
1143.32416657
 30
0.0
 11
628.7122100763
 21
1094.1111743787
 31
0.0
  0
LINE
  5
145
330
1F
100
AcDbEntity
  8
0
  6
SLD-Solid
 62
     7
370
    15
100
AcDbLine
 10
560.506078618
 20
1142.676979337
 30
0.0
 11
628.2419890337
 21
1093.4639275411
 31
0.0
  0
LINE
  5
146
330
1F
100
AcDbEntity
  8
0
  6
SLD-Solid
 62
     7
370
    15
100
AcDbLine
 10
559.6610337667
 20
1168.0616438725
 30
0.0
 11
559.6610337667
 21
1144.3354785779
 31
0.0
  0
LINE
  5
147
330
1F
100
AcDbEntity
  8
0
  6
SLD-Solid
 62
     7
370
    15
100
AcDbLine
 10
560.4610175066
 20
1168.0616438725
 30
0.0
 11
560.4610175066
 21
1144.3354785779
 31
0.0
  0
ARC
  5
148
330
1F
100
AcDbEntity
  8
0
  6
SLD-Solid
 62
     7
370
    15
100
AcDbCircle
 10
558.4110286563
 20
1168.0616396108
 30
0.0
 40
2.050000000000102
100
AcDbArc
 50
0.0
 51
54.0
  0
ARC
  5
149
330
1F
100
AcDbEntity
  8
0
  6
SLD-Solid
 62
     7
370
    15
100
AcDbCircle
 10
558.4110286563
 20
1168.0616396108
 30
0.0
 40
1.25
100
AcDbArc
 50
0.0
 51
54.0
  0
ARC
  5
14A
330
1F
100
AcDbEntity
  8
0
  6
SLD-Solid
 62
     7
370
    15
100
AcDbCircle
 10
561.7110286563
 20
1144.3354532345
 30
0.0
 40
1.250000000000193
100
AcDbArc
 50
180.0
 51
234.0
  0
ARC
  5
14B
330
1F
100
AcDbEntity
  8
0
  6
SLD-Solid
 62
     7
370
    15
100
AcDbCircle
 10
561.7110286563
 20
1144.3354532345
 30
0.0
 40
2.050000000000169
100
AcDbArc
 50
180.0
 51
234.0
  0
ARC
  5
14C
330
1F
100
AcDbEntity
  8
0
  6
SLD-Solid
 62
     7
370
    15
100
AcDbCircle
 10
627.5072449763
 20
1092.4526795705
 30
0.0
 40
2.050000000000236
100
AcDbArc
 50
0.0
 51
54.0
  0
ARC
  5
14D
330
1F
100
AcDbEntity
  8
0
  6
SLD-Solid
 62
     7
370
    15
100
AcDbCircle
 10
627.5072449763
 20
1092.4526795705
 30
0.0
 40
1.250000000000009
100
AcDbArc
 50
0.0
 51
54.0
  0
LINE
  5
14E
330
1F
100
AcDbEntity
  8
0
  6
SLD-Solid
 62
     7
370
    15
100
AcDbLine
 10
629.5572549276
 20
1078.0895650723
 30
0.0
 11
628.7572413854
 21
1078.0895650723
 31
0.0
  0
LINE
  5
14F
330
1F
100
AcDbEntity
  8
0
  6
SLD-Solid
 62
     7
370
    15
100
AcDbLine
 10
629.5572549276
 20
1092.4526751378
 30
0.0
 11
629.5572549276
 21
1078.0895650723
 31
0.0
  0
LINE
  5
150
330
1F
100
AcDbEntity
  8
0
  6
SLD-Solid
 62
     7
370
    15
100
AcDbLine
 10
628.7572413854
 20
1092.4526751378
 30
0.0
 11
628.7572413854
 21
1078.0895650723
 31
0.0
  0
LWPOLYLINE
  5
151
330
1F
100
AcDbEntity
  8
0
  6
SLD-Solid
 62
     7
370
    15
100
AcDbPolyline
 90
        7
 70
   128
 43
0.0
 10
1315.9245878629
 20
1780.7970345357
 10
1315.9387439661
 20
1780.753523145
 10
1316.0502642565
 20
1780.4103196004
 10
1316.2642449312
 20
1779.7516882756
 10
1316.563370841
 20
1778.8311541417
 10
1316.9234126978
 20
1777.722984586
 10
1316.9288963251
 20
1777.7060568669
  0
LWPOLYLINE
  5
152
330
1F
100
AcDbEntity
  8
0
  6
SLD-Solid
 62
     7
370
    15
100
AcDbPolyline
 90
        7
 70
   128
 43
0.0
 10
1315.9245878629
 20
955.3970396855
 10
1315.9387439661
 20
955.3534686902
 10
1316.0502642565
 20
955.0103247502
 10
1316.2642449312
 20
954.3516934255
 10
1316.563370841
 20
953.4310996869
 10
1316.9234126978
 20
952.3230493405
 10
1316.9288963251
 20
952.3061216214
  0
ARC
  5
153
330
1F
100
AcDbEntity
  8
0
  6
SLD-Solid
 62
     7
370
    15
100
AcDbCircle
 10
1274.9610286586
 20
1232.7985464224
 30
0.0
 40
9.000000000000187
100
AcDbArc
 50
281.5369590329
 51
0.0
  0
ARC
  5
154
330
1F
100
AcDbEntity
  8
0
  6
SLD-Solid
 62
     7
370
    15
100
AcDbCircle
 10
1279.9610286586
 20
1659.5368388749
 30
0.0
 40
4.0
100
AcDbArc
 50
0.0
 51
143.1301023539
  0
ARC
  5
155
330
1F
100
AcDbEntity
  8
0
  6
SLD-Solid
 62
     7
370
    15
100
AcDbCircle
 10
1274.9610286586
 20
407.3985464224
 30
0.0
 40
8.999999999999979
100
AcDbArc
 50
281.5369590328
 51
0.0
  0
ARC
  5
156
330
1F
100
AcDbEntity
  8
0
  6
SLD-Solid
 62
     7
370
    15
100
AcDbCircle
 10
1279.9610286586
 20
834.1368388749
 30
0.0
 40
4.0
100
AcDbArc
 50
0.0
 51
143.1301023542
  0
LWPOLYLINE
  5
157
330
1F
100
AcDbEntity
  8
0
  6
SLD-Solid
 62
     7
370
    15
100
AcDbPolyline
 90
        6
 70
   128
 43
0.0
 10
1213.4110212497
 20
1867.1984970906
 10
1213.6972129516
 20
1867.0659363606
 10
1213.9834940605
 20
1866.6850626805
 10
1214.2697751693
 20
1866.1052286961
 10
1214.5560562782
 20
1865.4015362599
 10
1214.6539569072
 20
1865.1485741475
  0
LINE
  5
158
330
1F
100
AcDbEntity
  8
0
  6
SLD-Solid
 62
     7
370
    15
100
AcDbLine
 10
650.5110293798
 20
1867.1984970906
 30
0.0
 11
1213.4110212497
 21
1867.1984970906
 31
0.0
  0
LWPOLYLINE
  5
159
330
1F
100
AcDbEntity
  8
0
  6
SLD-Solid
 62
     7
370
    15
100
AcDbPolyline
 90
        6
 70
   128
 43
0.0
 10
649.2680937223
 20
1865.1485741475
 10
649.5542854242
 20
1865.8739626744
 10
649.8405665331
 20
1866.5056526997
 10
650.1268476419
 20
1866.9616282323
 10
650.4131287508
 20
1867.1828806737
 10
650.5110293798
 20
1867.1984970906
  0
LINE
  5
15A
330
1F
100
AcDbEntity
  8
0
  6
SLD-Solid
 62
     7
370
    15
100
AcDbLine
 10
1214.6539569072
 20
1849.2485583165
 30
0.0
 11
1214.6539569072
 21
1865.1485741475
 31
0.0
  0
LINE
  5
15B
330
1F
100
AcDbEntity
  8
0
  6
SLD-Solid
 62
     7
370
    15
100
AcDbLine
 10
649.2680937223
 20
1849.2485583165
 30
0.0
 11
649.2680937223
 21
1865.1485741475
 31
0.0
  0
LWPOLYLINE
  5
15C
330
1F
100
AcDbEntity
  8
0
  6
SLD-Solid
 62
     7
370
    15
100
AcDbPolyline
 90
        6
 70
   128
 43
0.0
 10
1214.6539569072
 20
1849.2485583165
 10
1214.3659323625
 20
1848.5226929524
 10
1214.0778184109
 20
1847.8906452992
 10
1213.789689558
 20
1847.4346697667
 10
1213.5015607052
 20
1847.2138941625
 10
1213.4039580993
 20
1847.1985161641
  0
LINE
  5
15D
330
1F
100
AcDbEntity
  8
0
  6
SLD-Solid
 62
     7
370
    15
100
AcDbLine
 10
1193.9110338859
 20
1847.1985161641
 30
0.0
 11
1189.4610256128
 21
1847.1985161641
 31
0.0
  0
LINE
  5
15E
330
1F
100
AcDbEntity
  8
0
  6
SLD-Solid
 62
     7
370
    15
100
AcDbLine
 10
674.4610399179
 20
1847.1985161641
 30
0.0
 11
670.4110235147
 21
1847.1985161641
 31
0.0
  0
LWPOLYLINE
  5
15F
330
1F
100
AcDbEntity
  8
0
  6
SLD-Solid
 62
     7
370
    15
100
AcDbPolyline
 90
        6
 70
   128
 43
0.0
 10
650.5180925302
 20
1847.1985161641
 10
650.2300828867
 20
1847.3313153127
 10
649.9419540338
 20
1847.7127850392
 10
649.653825181
 20
1848.2933342793
 10
649.3656963281
 20
1848.9977419713
 10
649.2680937223
 20
1849.2485583165
  0
LINE
  5
160
330
1F
100
AcDbEntity
  8
0
  6
SLD-Solid
 62
     7
370
    15
100
AcDbLine
 10
649.2610305719
 20
1849.2485583165
 30
0.0
 11
648.4610170297
 21
1849.2485583165
 31
0.0
  0
LWPOLYLINE
  5
161
330
1F
100
AcDbEntity
  8
0
  6
SLD-Solid
 62
     7
370
    15
100
AcDbPolyline
 90
        3
 70
   128
 43
0.0
 10
649.2610305719
 20
1849.2485583165
 10
649.3597954683
 20
1848.7615883687
 10
649.6213704519
 20
1848.3795225957
  0
ARC
  5
162
330
1F
100
AcDbEntity
  8
0
  6
SLD-Solid
 62
     7
370
    15
100
AcDbCircle
 10
650.5109993555
 20
1849.2484984905
 30
0.0
 40
2.04998232665639
100
AcDbArc
 50
179.9983279
 51
270.0008391612
  0
LINE
  5
163
330
1F
100
AcDbEntity
  8
0
  6
SLD-Solid
 62
     7
370
    15
100
AcDbLine
 10
1214.6610349588
 20
1849.2485583165
 30
0.0
 11
1215.4610335998
 21
1849.2485583165
 31
0.0
  0
ARC
  5
164
330
1F
100
AcDbEntity
  8
0
  6
SLD-Solid
 62
     7
370
    15
100
AcDbCircle
 10
1213.6242471913
 20
1849.1633588923
 30
0.0
 40
1.040282565784871
100
AcDbArc
 50
310.5747994697
 51
4.6978017675
  0
ARC
  5
165
330
1F
100
AcDbEntity
  8
0
  6
SLD-Solid
 62
     7
370
    15
100
AcDbCircle
 10
1213.4109919948
 20
1849.2485577689
 30
0.0
 40
2.050041604981526
100
AcDbArc
 50
270.0008176333
 51
0.0000153055
  0
ARC
  5
166
330
1F
100
AcDbEntity
  8
0
  6
SLD-Solid
 62
     7
370
    15
100
AcDbCircle
 10
650.3063108366
 20
1865.230361461
 30
0.0
 40
1.04847508145639
100
AcDbArc
 50
130.6706213753
 51
184.4739578713
  0
LINE
  5
167
330
1F
100
AcDbEntity
  8
0
  6
SLD-Solid
 62
     7
370
    15
100
AcDbLine
 10
648.4610170297
 20
1865.1485741475
 30
0.0
 11
649.2610305719
 21
1865.1485741475
 31
0.0
  0
ARC
  5
168
330
1F
100
AcDbEntity
  8
0
  6
SLD-Solid
 62
     7
370
    15
100
AcDbCircle
 10
650.5109438208
 20
1865.1485703014
 30
0.0
 40
2.049926791024241
100
AcDbArc
 50
89.9976086106
 51
179.9998925002
  0
LINE
  5
169
330
1F
100
AcDbEntity
  8
0
  6
SLD-Solid
 62
     7
370
    15
100
AcDbLine
 10
1215.4610335998
 20
1865.1485741475
 30
0.0
 11
1214.6610349588
 21
1865.1485741475
 31
0.0
  0
LWPOLYLINE
  5
16A
330
1F
100
AcDbEntity
  8
0
  6
SLD-Solid
 62
     7
370
    15
100
AcDbPolyline
 90
        3
 70
   128
 43
0.0
 10
1214.6610349588
 20
1865.1485741475
 10
1214.5625829868
 20
1865.6347096303
 10
1214.3119156532
 20
1866.0016358235
  0
ARC
  5
16B
330
1F
100
AcDbEntity
  8
0
  6
SLD-Solid
 62
     7
370
    15
100
AcDbCircle
 10
1213.4112691919
 20
1865.1487326916
 30
0.0
 40
2.049764414050014
100
AcDbArc
 50
359.9955683173
 51
90.0069305719
  0
LINE
  5
16C
330
1F
100
AcDbEntity
  8
0
  6
SLD-Solid
 62
     7
370
    15
100
AcDbLine
 10
648.4610170297
 20
1849.2485583165
 30
0.0
 11
648.4610170297
 21
1865.1485741475
 31
0.0
  0
LINE
  5
16D
330
1F
100
AcDbEntity
  8
0
  6
SLD-Solid
 62
     7
370
    15
100
AcDbLine
 10
649.2610305719
 20
1865.1485741475
 30
0.0
 11
649.2610305719
 21
1849.2485583165
 31
0.0
  0
LINE
  5
16E
330
1F
100
AcDbEntity
  8
0
  6
SLD-Solid
 62
     7
370
    15
100
AcDbLine
 10
1214.6610349588
 20
1865.1485741475
 30
0.0
 11
1214.6610349588
 21
1849.2485583165
 31
0.0
  0
LINE
  5
16F
330
1F
100
AcDbEntity
  8
0
  6
SLD-Solid
 62
     7
370
    15
100
AcDbLine
 10
1215.4610335998
 20
1849.2485583165
 30
0.0
 11
1215.4610335998
 21
1865.1485741475
 31
0.0
  0
LWPOLYLINE
  5
170
330
1F
100
AcDbEntity
  8
0
  6
SLD-Solid
 62
     7
370
    15
100
AcDbPolyline
 90
        7
 70
   128
 43
0.0
 10
556.3610226087
 20
375.7318556645
 10
556.3610524111
 20
375.7312149146
 10
556.380185502
 20
375.70869926
 10
556.4212531023
 20
375.692337785
 10
556.4747780733
 20
375.6807595828
 10
556.5387040548
 20
375.6733686068
 10
556.6110342912
 20
375.670701299
  0
LINE
  5
171
330
1F
100
AcDbEntity
  8
0
  6
SLD-Solid
 62
     7
370
    15
100
AcDbLine
 10
556.3610226087
 20
367.9059297183
 30
0.0
 11
556.3610226087
 21
375.7318556645
 31
0.0
  0
LWPOLYLINE
  5
172
330
1F
100
AcDbEntity
  8
0
  6
SLD-Solid
 62
     7
370
    15
100
AcDbPolyline
 90
        7
 70
   128
 43
0.0
 10
557.3110312395
 20
375.670701299
 10
557.3833614759
 20
375.6733686068
 10
557.4472874574
 20
375.6807595828
 10
557.5008124285
 20
375.692337785
 10
557.5418800287
 20
375.70869926
 10
557.5610131197
 20
375.7312149146
 10
557.561042922
 20
375.7318556645
  0
LINE
  5
173
330
1F
100
AcDbEntity
  8
0
  6
SLD-Solid
 62
     7
370
    15
100
AcDbLine
 10
557.561042922
 20
375.7318556645
 30
0.0
 11
557.561042922
 21
368.2286888698
 31
0.0
  0
LINE
  5
174
330
1F
100
AcDbEntity
  8
0
  6
SLD-Solid
 62
     7
370
    15
100
AcDbLine
 10
557.3110312395
 20
375.670701299
 30
0.0
 11
556.6110342912
 21
375.670701299
 31
0.0
  0
ARC
  5
175
330
1F
100
AcDbEntity
  8
0
  6
SLD-Solid
 62
     7
370
    15
100
AcDbCircle
 10
557.6381901731
 20
380.0912316944
 30
0.0
 40
1.289384405893224
100
AcDbArc
 50
82.2966400154
 51
172.1065038621
  0
LWPOLYLINE
  5
176
330
1F
100
AcDbEntity
  8
0
  6
SLD-Solid
 62
     7
370
    15
100
AcDbPolyline
 90
        6
 70
   128
 43
0.0
 10
556.3610226087
 20
375.9543449023
 10
556.450161355
 20
376.2962967494
 10
556.7128092222
 20
376.6016960481
 10
557.1071833544
 20
376.821607385
 10
557.5684338979
 20
376.9326061347
 10
557.8110248022
 20
376.9466281274
  0
LINE
  5
177
330
1F
100
AcDbEntity
  8
0
  6
SLD-Solid
 62
     7
370
    15
100
AcDbLine
 10
556.3610226087
 20
375.9543449023
 30
0.0
 11
556.3610226087
 21
380.2683055737
 31
0.0
  0
LINE
  5
178
330
1F
100
AcDbEntity
  8
0
  6
SLD-Solid
 62
     7
370
    15
100
AcDbLine
 10
563.1610185079
 20
381.1491281131
 30
0.0
 11
563.1610185079
 21
376.8351525405
 31
0.0
  0
LINE
  5
179
330
1F
100
AcDbEntity
  8
0
  6
SLD-Solid
 62
     7
370
    15
100
AcDbLine
 10
563.1610185079
 20
376.8351525405
 30
0.0
 11
563.1610185079
 21
376.3229549268
 31
0.0
  0
LINE
  5
17A
330
1F
100
AcDbEntity
  8
0
  6
SLD-Solid
 62
     7
370
    15
100
AcDbLine
 10
557.561042922
 20
375.9543449023
 30
0.0
 11
557.561042922
 21
375.7318556645
 31
0.0
  0
LINE
  5
17B
330
1F
100
AcDbEntity
  8
0
  6
SLD-Solid
 62
     7
370
    15
100
AcDbLine
 10
556.3610226087
 20
375.7318556645
 30
0.0
 11
556.3610226087
 21
375.9543449023
 31
0.0
  0
LINE
  5
17C
330
1F
100
AcDbEntity
  8
0
  6
SLD-Solid
 62
     7
370
    15
100
AcDbLine
 10
557.8110248022
 20
381.3991248944
 30
0.0
 11
557.8110248022
 21
381.3689798453
 31
0.0
  0
LINE
  5
17D
330
1F
100
AcDbEntity
  8
0
  6
SLD-Solid
 62
     7
370
    15
100
AcDbLine
 10
556.3610226087
 20
380.2683055737
 30
0.0
 11
556.3610226087
 21
380.8485418895
 31
0.0
  0
LINE
  5
17E
330
1F
100
AcDbEntity
  8
0
  6
SLD-Solid
 62
     7
370
    15
100
AcDbLine
 10
563.1610185079
 20
364.1601726749
 30
0.0
 11
563.1610185079
 21
363.6479676106
 31
0.0
  0
LINE
  5
17F
330
1F
100
AcDbEntity
  8
0
  6
SLD-Solid
 62
     7
370
    15
100
AcDbLine
 10
563.1610185079
 20
366.8972254136
 30
0.0
 11
563.1610185079
 21
364.1601726749
 31
0.0
  0
LWPOLYLINE
  5
180
330
1F
100
AcDbEntity
  8
0
  6
SLD-Solid
 62
     7
370
    15
100
AcDbPolyline
 90
        7
 70
   128
 43
0.0
 10
556.3610226087
 20
1201.1318505147
 10
556.3610524111
 20
1201.1311948636
 10
556.380185502
 20
1201.1086643079
 10
556.4212531023
 20
1201.0923326352
 10
556.4747780733
 20
1201.0807693341
 10
556.5387040548
 20
1201.0733783582
 10
556.6110342912
 20
1201.0706961491
  0
LINE
  5
181
330
1F
100
AcDbEntity
  8
0
  6
SLD-Solid
 62
     7
370
    15
100
AcDbLine
 10
556.3610226087
 20
1193.3059394696
 30
0.0
 11
556.3610226087
 21
1201.1318505147
 31
0.0
  0
LWPOLYLINE
  5
182
330
1F
100
AcDbEntity
  8
0
  6
SLD-Solid
 62
     7
370
    15
100
AcDbPolyline
 90
        7
 70
   128
 43
0.0
 10
557.3110312395
 20
1201.0706961491
 10
557.3833614759
 20
1201.0733783582
 10
557.4472874574
 20
1201.0807693341
 10
557.5008124285
 20
1201.0923326352
 10
557.5418800287
 20
1201.1086643079
 10
557.5610131197
 20
1201.1311948636
 10
557.561042922
 20
1201.1318505147
  0
LINE
  5
183
330
1F
100
AcDbEntity
  8
0
  6
SLD-Solid
 62
     7
370
    15
100
AcDbLine
 10
557.561042922
 20
1201.1318505147
 30
0.0
 11
557.561042922
 21
1193.6286986211
 31
0.0
  0
LINE
  5
184
330
1F
100
AcDbEntity
  8
0
  6
SLD-Solid
 62
     7
370
    15
100
AcDbLine
 10
557.3110312395
 20
1201.0706961491
 30
0.0
 11
556.6110342912
 21
1201.0706961491
 31
0.0
  0
ARC
  5
185
330
1F
100
AcDbEntity
  8
0
  6
SLD-Solid
 62
     7
370
    15
100
AcDbCircle
 10
557.6381377609
 20
1205.4912782935
 30
0.0
 40
1.289325384312054
100
AcDbArc
 50
82.2939348968
 51
172.1084618573
  0
LWPOLYLINE
  5
186
330
1F
100
AcDbEntity
  8
0
  6
SLD-Solid
 62
     7
370
    15
100
AcDbPolyline
 90
        6
 70
   128
 43
0.0
 10
556.3610226087
 20
1201.3543546536
 10
556.450161355
 20
1201.6963065007
 10
556.7128092222
 20
1202.0017207005
 10
557.1071833544
 20
1202.2216022351
 10
557.5684338979
 20
1202.3325860837
 10
557.8110248022
 20
1202.3466527799
  0
LINE
  5
187
330
1F
100
AcDbEntity
  8
0
  6
SLD-Solid
 62
     7
370
    15
100
AcDbLine
 10
556.3610226087
 20
1201.3543546536
 30
0.0
 11
556.3610226087
 21
1205.6683004239
 31
0.0
  0
LINE
  5
188
330
1F
100
AcDbEntity
  8
0
  6
SLD-Solid
 62
     7
370
    15
100
AcDbLine
 10
563.1610185079
 20
1206.5491378644
 30
0.0
 11
563.1610185079
 21
1202.2351324895
 31
0.0
  0
LINE
  5
189
330
1F
100
AcDbEntity
  8
0
  6
SLD-Solid
 62
     7
370
    15
100
AcDbLine
 10
563.1610185079
 20
1202.2351324895
 30
0.0
 11
563.1610185079
 21
1201.7229497769
 31
0.0
  0
LINE
  5
18A
330
1F
100
AcDbEntity
  8
0
  6
SLD-Solid
 62
     7
370
    15
100
AcDbLine
 10
557.561042922
 20
1201.3543546536
 30
0.0
 11
557.561042922
 21
1201.1318505147
 31
0.0
  0
LINE
  5
18B
330
1F
100
AcDbEntity
  8
0
  6
SLD-Solid
 62
     7
370
    15
100
AcDbLine
 10
556.3610226087
 20
1201.1318505147
 30
0.0
 11
556.3610226087
 21
1201.3543546536
 31
0.0
  0
LINE
  5
18C
330
1F
100
AcDbEntity
  8
0
  6
SLD-Solid
 62
     7
370
    15
100
AcDbLine
 10
557.8110248022
 20
1206.7991197446
 30
0.0
 11
557.8110248022
 21
1206.7689597943
 31
0.0
  0
LINE
  5
18D
330
1F
100
AcDbEntity
  8
0
  6
SLD-Solid
 62
     7
370
    15
100
AcDbLine
 10
556.3610226087
 20
1205.6683004239
 30
0.0
 11
556.3610226087
 21
1206.2485516408
 31
0.0
  0
LINE
  5
18E
330
1F
100
AcDbEntity
  8
0
  6
SLD-Solid
 62
     7
370
    15
100
AcDbLine
 10
563.1610185079
 20
1189.5601451733
 30
0.0
 11
563.1610185079
 21
1189.0479624608
 31
0.0
  0
LINE
  5
18F
330
1F
100
AcDbEntity
  8
0
  6
SLD-Solid
 62
     7
370
    15
100
AcDbLine
 10
563.1610185079
 20
1192.2972500661
 30
0.0
 11
563.1610185079
 21
1189.5601451733
 31
0.0
  0
ARC
  5
190
330
1F
100
AcDbEntity
  8
0
  6
SLD-Solid
 62
     7
370
    15
100
AcDbCircle
 10
558.5803169655
 20
367.8744460132
 30
0.0
 40
0.4671463712266948
100
AcDbArc
 50
67.2412424909
 51
98.5305809161
  0
LINE
  5
191
330
1F
100
AcDbEntity
  8
0
  6
SLD-Solid
 62
     7
370
    15
100
AcDbLine
 10
558.7610334329
 20
376.0729581454
 30
0.0
 11
558.7610334329
 21
368.3052212336
 31
0.0
  0
ARC
  5
192
330
1F
100
AcDbEntity
  8
0
  6
SLD-Solid
 62
     7
370
    15
100
AcDbCircle
 10
557.7412494844
 20
367.8784649272
 30
0.0
 40
0.4632443741555927
100
AcDbArc
 50
81.336960404
 51
112.8928950595
  0
LINE
  5
193
330
1F
100
AcDbEntity
  8
0
  6
SLD-Solid
 62
     7
370
    15
100
AcDbLine
 10
557.561042922
 20
368.3052212336
 30
0.0
 11
557.561042922
 21
375.7318556645
 31
0.0
  0
LINE
  5
194
330
1F
100
AcDbEntity
  8
0
  6
SLD-Solid
 62
     7
370
    15
100
AcDbLine
 10
557.8110248022
 20
368.3364242652
 30
0.0
 11
558.5110217504
 21
368.3364242652
 31
0.0
  0
ARC
  5
195
330
1F
100
AcDbEntity
  8
0
  6
SLD-Solid
 62
     7
370
    15
100
AcDbCircle
 10
557.4409817149
 20
364.3066443384
 30
0.0
 40
1.325585563196542
100
AcDbArc
 50
264.3741153191
 51
354.7628085469
  0
ARC
  5
196
330
1F
100
AcDbEntity
  8
0
  6
SLD-Solid
 62
     7
370
    15
100
AcDbCircle
 10
557.4328666508
 20
368.304895161
 30
0.0
 40
1.350405912100207
100
AcDbArc
 50
264.823660095
 51
349.5873281316
  0
LINE
  5
197
330
1F
100
AcDbEntity
  8
0
  6
SLD-Solid
 62
     7
370
    15
100
AcDbLine
 10
558.7610334329
 20
368.0608272889
 30
0.0
 11
558.7610334329
 21
364.18564621
 31
0.0
  0
LINE
  5
198
330
1F
100
AcDbEntity
  8
0
  6
SLD-Solid
 62
     7
370
    15
100
AcDbLine
 10
551.9610375337
 20
363.2181063631
 30
0.0
 11
551.9610375337
 21
367.093287442
 31
0.0
  0
LINE
  5
199
330
1F
100
AcDbEntity
  8
0
  6
SLD-Solid
 62
     7
370
    15
100
AcDbLine
 10
551.9610375337
 20
367.093287442
 30
0.0
 11
551.9610375337
 21
367.6559329369
 31
0.0
  0
LINE
  5
19A
330
1F
100
AcDbEntity
  8
0
  6
SLD-Solid
 62
     7
370
    15
100
AcDbLine
 10
557.561042922
 20
368.0608272889
 30
0.0
 11
557.561042922
 21
368.3052212336
 31
0.0
  0
LINE
  5
19B
330
1F
100
AcDbEntity
  8
0
  6
SLD-Solid
 62
     7
370
    15
100
AcDbLine
 10
558.7610334329
 20
368.3052212336
 30
0.0
 11
558.7610334329
 21
368.0608272889
 31
0.0
  0
LINE
  5
19C
330
1F
100
AcDbEntity
  8
0
  6
SLD-Solid
 62
     7
370
    15
100
AcDbLine
 10
557.3110312395
 20
362.9681095817
 30
0.0
 11
557.3110312395
 21
362.9874438384
 31
0.0
  0
LINE
  5
19D
330
1F
100
AcDbEntity
  8
0
  6
SLD-Solid
 62
     7
370
    15
100
AcDbLine
 10
558.7610334329
 20
364.18564621
 30
0.0
 11
558.7610334329
 21
363.9485463837
 31
0.0
  0
ARC
  5
19E
330
1F
100
AcDbEntity
  8
0
  6
SLD-Solid
 62
     7
370
    15
100
AcDbCircle
 10
557.3777287756
 20
380.3801023224
 30
0.0
 40
1.431104648238694
100
AcDbArc
 50
45.4022116933
 51
92.6712736297
  0
LINE
  5
19F
330
1F
100
AcDbEntity
  8
0
  6
SLD-Solid
 62
     7
370
    15
100
AcDbLine
 10
551.9610375337
 20
381.0163438657
 30
0.0
 11
551.9610375337
 21
381.57898191
 31
0.0
  0
LINE
  5
1A0
330
1F
100
AcDbEntity
  8
0
  6
SLD-Solid
 62
     7
370
    15
100
AcDbLine
 10
551.9610375337
 20
377.7152598241
 30
0.0
 11
551.9610375337
 21
381.0163438657
 31
0.0
  0
ARC
  5
1A1
330
1F
100
AcDbEntity
  8
0
  6
SLD-Solid
 62
     7
370
    15
100
AcDbCircle
 10
558.5803860114
 20
1193.2745678699
 30
0.0
 40
0.4670162840912256
100
AcDbArc
 50
67.2437332223
 51
98.5415406127
  0
LINE
  5
1A2
330
1F
100
AcDbEntity
  8
0
  6
SLD-Solid
 62
     7
370
    15
100
AcDbLine
 10
558.7610334329
 20
1201.4729678967
 30
0.0
 11
558.7610334329
 21
1193.705230985
 31
0.0
  0
ARC
  5
1A3
330
1F
100
AcDbEntity
  8
0
  6
SLD-Solid
 62
     7
370
    15
100
AcDbCircle
 10
557.7411317314
 20
1193.2789811484
 30
0.0
 40
0.4627319984827408
100
AcDbArc
 50
81.3125448823
 51
112.9038585989
  0
LINE
  5
1A4
330
1F
100
AcDbEntity
  8
0
  6
SLD-Solid
 62
     7
370
    15
100
AcDbLine
 10
557.561042922
 20
1193.705230985
 30
0.0
 11
557.561042922
 21
1201.1318505147
 31
0.0
  0
LINE
  5
1A5
330
1F
100
AcDbEntity
  8
0
  6
SLD-Solid
 62
     7
370
    15
100
AcDbLine
 10
557.8110248022
 20
1193.7364042142
 30
0.0
 11
558.5110217504
 21
1193.7364042142
 31
0.0
  0
ARC
  5
1A6
330
1F
100
AcDbEntity
  8
0
  6
SLD-Solid
 62
     7
370
    15
100
AcDbCircle
 10
557.4409339229
 20
1189.7066791123
 30
0.0
 40
1.325635439923374
100
AcDbArc
 50
264.3764033056
 51
354.7619201
  0
ARC
  5
1A7
330
1F
100
AcDbEntity
  8
0
  6
SLD-Solid
 62
     7
370
    15
100
AcDbCircle
 10
557.4329634105
 20
1193.704783261
 30
0.0
 40
1.350286070831965
100
AcDbArc
 50
264.8190768563
 51
349.5922848903
  0
LINE
  5
1A8
330
1F
100
AcDbEntity
  8
0
  6
SLD-Solid
 62
     7
370
    15
100
AcDbLine
 10
558.7610334329
 20
1193.4608519414
 30
0.0
 11
558.7610334329
 21
1189.5856559613
 31
0.0
  0
LINE
  5
1A9
330
1F
100
AcDbEntity
  8
0
  6
SLD-Solid
 62
     7
370
    15
100
AcDbLine
 10
551.9610375337
 20
1188.6180937627
 30
0.0
 11
551.9610375337
 21
1192.4932897427
 31
0.0
  0
LINE
  5
1AA
330
1F
100
AcDbEntity
  8
0
  6
SLD-Solid
 62
     7
370
    15
100
AcDbLine
 10
551.9610375337
 20
1192.4932897427
 30
0.0
 11
551.9610375337
 21
1193.0559575894
 31
0.0
  0
LINE
  5
1AB
330
1F
100
AcDbEntity
  8
0
  6
SLD-Solid
 62
     7
370
    15
100
AcDbLine
 10
557.561042922
 20
1193.4608519414
 30
0.0
 11
557.561042922
 21
1193.705230985
 31
0.0
  0
LINE
  5
1AC
330
1F
100
AcDbEntity
  8
0
  6
SLD-Solid
 62
     7
370
    15
100
AcDbLine
 10
558.7610334329
 20
1193.705230985
 30
0.0
 11
558.7610334329
 21
1193.4608519414
 31
0.0
  0
LINE
  5
1AD
330
1F
100
AcDbEntity
  8
0
  6
SLD-Solid
 62
     7
370
    15
100
AcDbLine
 10
557.3110312395
 20
1188.3681118825
 30
0.0
 11
557.3110312395
 21
1188.3874237874
 31
0.0
  0
LINE
  5
1AE
330
1F
100
AcDbEntity
  8
0
  6
SLD-Solid
 62
     7
370
    15
100
AcDbLine
 10
558.7610334329
 20
1189.5856559613
 30
0.0
 11
558.7610334329
 21
1189.3485486844
 31
0.0
  0
ARC
  5
1AF
330
1F
100
AcDbEntity
  8
0
  6
SLD-Solid
 62
     7
370
    15
100
AcDbCircle
 10
557.3776642746
 20
1205.7800326035
 30
0.0
 40
1.431195912601089
100
AcDbArc
 50
45.4021879719
 51
92.6685181597
  0
LINE
  5
1B0
330
1F
100
AcDbEntity
  8
0
  6
SLD-Solid
 62
     7
370
    15
100
AcDbLine
 10
551.9610375337
 20
1206.4163387158
 30
0.0
 11
551.9610375337
 21
1206.9790065625
 31
0.0
  0
LINE
  5
1B1
330
1F
100
AcDbEntity
  8
0
  6
SLD-Solid
 62
     7
370
    15
100
AcDbLine
 10
551.9610375337
 20
1203.1152546742
 30
0.0
 11
551.9610375337
 21
1206.4163387158
 31
0.0
  0
LINE
  5
1B2
330
1F
100
AcDbEntity
  8
0
  6
SLD-Solid
 62
     7
370
    15
100
AcDbLine
 10
555.9144348078
 20
1202.4061382153
 30
0.0
 11
556.3610226087
 21
1199.7477710584
 31
0.0
  0
LWPOLYLINE
  5
1B3
330
1F
100
AcDbEntity
  8
0
  6
SLD-Solid
 62
     7
370
    15
100
AcDbPolyline
 90
        3
 70
   128
 43
0.0
 10
556.3610226087
 20
1199.7477710584
 10
556.3586086206
 20
1199.5588243344
 10
555.9144348078
 20
1197.0894039014
  0
LINE
  5
1B4
330
1F
100
AcDbEntity
  8
0
  6
SLD-Solid
 62
     7
370
    15
100
AcDbLine
 10
555.9144348078
 20
1197.0894039014
 30
0.0
 11
551.6076117925
 21
1197.0894039014
 31
0.0
  0
LWPOLYLINE
  5
1B5
330
1F
100
AcDbEntity
  8
0
  6
SLD-Solid
 62
     7
370
    15
100
AcDbPolyline
 90
        3
 70
   128
 43
0.0
 10
551.1610239916
 20
1199.7477710584
 10
551.163467782
 20
1199.5588243344
 10
551.6076117925
 20
1197.0894039014
  0
LINE
  5
1B6
330
1F
100
AcDbEntity
  8
0
  6
SLD-Solid
 62
     7
370
    15
100
AcDbLine
 10
551.6076117925
 20
1202.4061382153
 30
0.0
 11
551.1610239916
 21
1199.7477710584
 31
0.0
  0
LINE
  5
1B7
330
1F
100
AcDbEntity
  8
0
  6
SLD-Solid
 62
     7
370
    15
100
AcDbLine
 10
555.9144348078
 20
1202.4061382153
 30
0.0
 11
551.6076117925
 21
1202.4061382153
 31
0.0
  0
LWPOLYLINE
  5
1B8
330
1F
100
AcDbEntity
  8
0
  6
SLD-Solid
 62
     7
370
    15
100
AcDbPolyline
 90
        3
 70
   128
 43
0.0
 10
551.1610239916
 20
1194.7856247762
 10
551.1964291506
 20
1195.4126060346
 10
551.6076117925
 20
1197.0894039014
  0
LINE
  5
1B9
330
1F
100
AcDbEntity
  8
0
  6
SLD-Solid
 62
     7
370
    15
100
AcDbLine
 10
551.1610239916
 20
1194.7856247762
 30
0.0
 11
551.1610239916
 21
1199.7477710584
 31
0.0
  0
LWPOLYLINE
  5
1BA
330
1F
100
AcDbEntity
  8
0
  6
SLD-Solid
 62
     7
370
    15
100
AcDbPolyline
 90
        3
 70
   128
 43
0.0
 10
556.3610226087
 20
1194.7856247762
 10
556.3256174497
 20
1195.4126060346
 10
555.9144348078
 20
1197.0894039014
  0
LINE
  5
1BB
330
1F
100
AcDbEntity
  8
0
  6
SLD-Solid
 62
     7
370
    15
100
AcDbLine
 10
556.1399489813
 20
1193.3059394696
 30
0.0
 11
556.3610226087
 21
1194.7856247762
 31
0.0
  0
LINE
  5
1BC
330
1F
100
AcDbEntity
  8
0
  6
SLD-Solid
 62
     7
370
    15
100
AcDbLine
 10
551.9610375337
 20
1192.4818456509
 30
0.0
 11
551.6076117925
 21
1192.4818456509
 31
0.0
  0
LWPOLYLINE
  5
1BD
330
1F
100
AcDbEntity
  8
0
  6
SLD-Solid
 62
     7
370
    15
100
AcDbPolyline
 90
        3
 70
   128
 43
0.0
 10
551.6076117925
 20
1192.4818456509
 10
551.4182478361
 20
1193.0640042165
 10
551.1610239916
 20
1194.7856247762
  0
LWPOLYLINE
  5
1BE
330
1F
100
AcDbEntity
  8
0
  6
SLD-Solid
 62
     7
370
    15
100
AcDbPolyline
 90
        3
 70
   128
 43
0.0
 10
556.3610226087
 20
1202.7606666425
 10
556.3586086206
 20
1202.7355134824
 10
555.9144348078
 20
1202.4061382153
  0
LWPOLYLINE
  5
1BF
330
1F
100
AcDbEntity
  8
0
  6
SLD-Solid
 62
     7
370
    15
100
AcDbPolyline
 90
        3
 70
   128
 43
0.0
 10
551.1610239916
 20
1202.7606666425
 10
551.163467782
 20
1202.7355134824
 10
551.6076117925
 20
1202.4061382153
  0
LINE
  5
1C0
330
1F
100
AcDbEntity
  8
0
  6
SLD-Solid
 62
     7
370
    15
100
AcDbLine
 10
551.1610239916
 20
1199.7477710584
 30
0.0
 11
551.1610239916
 21
1202.7606666425
 31
0.0
  0
LINE
  5
1C1
330
1F
100
AcDbEntity
  8
0
  6
SLD-Solid
 62
     7
370
    15
100
AcDbLine
 10
551.6076117925
 20
1192.4818456509
 30
0.0
 11
551.1610239916
 21
1192.8364336827
 31
0.0
  0
LINE
  5
1C2
330
1F
100
AcDbEntity
  8
0
  6
SLD-Solid
 62
     7
370
    15
100
AcDbLine
 10
551.1610239916
 20
1194.7856247762
 30
0.0
 11
551.1610239916
 21
1192.7987039426
 31
0.0
  0
LINE
  5
1C3
330
1F
100
AcDbEntity
  8
0
  6
SLD-Solid
 62
     7
370
    15
100
AcDbLine
 10
555.9144348078
 20
1203.1152546742
 30
0.0
 11
556.3610226087
 21
1202.7606666425
 31
0.0
  0
LINE
  5
1C4
330
1F
100
AcDbEntity
  8
0
  6
SLD-Solid
 62
     7
370
    15
100
AcDbLine
 10
551.6076117925
 20
1203.1152546742
 30
0.0
 11
551.1610239916
 21
1202.7606666425
 31
0.0
  0
LINE
  5
1C5
330
1F
100
AcDbEntity
  8
0
  6
SLD-Solid
 62
     7
370
    15
100
AcDbLine
 10
555.9144348078
 20
1203.1152546742
 30
0.0
 11
551.6076117925
 21
1203.1152546742
 31
0.0
  0
LINE
  5
1C6
330
1F
100
AcDbEntity
  8
0
  6
SLD-Solid
 62
     7
370
    15
100
AcDbLine
 10
563.5144442491
 20
1203.2998502591
 30
0.0
 11
563.9610320501
 21
1201.1660039761
 31
0.0
  0
LWPOLYLINE
  5
1C7
330
1F
100
AcDbEntity
  8
0
  6
SLD-Solid
 62
     7
370
    15
100
AcDbPolyline
 90
        3
 70
   128
 43
0.0
 10
563.9610320501
 20
1201.1660039761
 10
563.9585882597
 20
1201.0143101552
 10
563.5144442491
 20
1199.0320980885
  0
LINE
  5
1C8
330
1F
100
AcDbEntity
  8
0
  6
SLD-Solid
 62
     7
370
    15
100
AcDbLine
 10
563.5144442491
 20
1199.0320980885
 30
0.0
 11
559.2076212339
 21
1199.0320980885
 31
0.0
  0
LWPOLYLINE
  5
1C9
330
1F
100
AcDbEntity
  8
0
  6
SLD-Solid
 62
     7
370
    15
100
AcDbPolyline
 90
        3
 70
   128
 43
0.0
 10
558.7610334329
 20
1201.1660039761
 10
558.7634474211
 20
1201.0143101552
 10
559.2076212339
 20
1199.0320980885
  0
LINE
  5
1CA
330
1F
100
AcDbEntity
  8
0
  6
SLD-Solid
 62
     7
370
    15
100
AcDbLine
 10
558.82528724
 20
1201.4729678967
 30
0.0
 11
558.7610334329
 21
1201.1660039761
 31
0.0
  0
LINE
  5
1CB
330
1F
100
AcDbEntity
  8
0
  6
SLD-Solid
 62
     7
370
    15
100
AcDbLine
 10
563.5144442491
 20
1203.2998502591
 30
0.0
 11
563.1610185079
 21
1203.2998502591
 31
0.0
  0
LWPOLYLINE
  5
1CC
330
1F
100
AcDbEntity
  8
0
  6
SLD-Solid
 62
     7
370
    15
100
AcDbPolyline
 90
        3
 70
   128
 43
0.0
 10
558.7610334329
 20
1196.2814629414
 10
558.7964385919
 20
1197.0299780705
 10
559.2076212339
 20
1199.0320980885
  0
LWPOLYLINE
  5
1CD
330
1F
100
AcDbEntity
  8
0
  6
SLD-Solid
 62
     7
370
    15
100
AcDbPolyline
 90
        3
 70
   128
 43
0.0
 10
563.9610320501
 20
1196.2814629414
 10
563.9256268911
 20
1197.0299780705
 10
563.5144442491
 20
1199.0320980885
  0
LINE
  5
1CE
330
1F
100
AcDbEntity
  8
0
  6
SLD-Solid
 62
     7
370
    15
100
AcDbLine
 10
563.9610320501
 20
1196.2814629414
 30
0.0
 11
563.9610320501
 21
1201.1660039761
 31
0.0
  0
LWPOLYLINE
  5
1CF
330
1F
100
AcDbEntity
  8
0
  6
SLD-Solid
 62
     7
370
    15
100
AcDbPolyline
 90
        3
 70
   128
 43
0.0
 10
563.5144442491
 20
1193.5307681897
 10
563.7038082056
 20
1194.2258775571
 10
563.9610320501
 20
1196.2814629414
  0
LINE
  5
1D0
330
1F
100
AcDbEntity
  8
0
  6
SLD-Solid
 62
     7
370
    15
100
AcDbLine
 10
563.5144442491
 20
1193.5307681897
 30
0.0
 11
559.2076212339
 21
1193.5307681897
 31
0.0
  0
LWPOLYLINE
  5
1D1
330
1F
100
AcDbEntity
  8
0
  6
SLD-Solid
 62
     7
370
    15
100
AcDbPolyline
 90
        3
 70
   128
 43
0.0
 10
559.2076212339
 20
1193.5307681897
 10
559.0182572775
 20
1194.2258775571
 10
558.7610334329
 20
1196.2814629414
  0
LINE
  5
1D2
330
1F
100
AcDbEntity
  8
0
  6
SLD-Solid
 62
     7
370
    15
100
AcDbLine
 10
559.2076212339
 20
1193.5307681897
 30
0.0
 11
558.7610334329
 21
1192.9139793256
 31
0.0
  0
LINE
  5
1D3
330
1F
100
AcDbEntity
  8
0
  6
SLD-Solid
 62
     7
370
    15
100
AcDbLine
 10
563.5144442491
 20
1193.5307681897
 30
0.0
 11
563.9610320501
 21
1192.9139793256
 31
0.0
  0
LINE
  5
1D4
330
1F
100
AcDbEntity
  8
0
  6
SLD-Solid
 62
     7
370
    15
100
AcDbLine
 10
563.9610320501
 20
1196.2814629414
 30
0.0
 11
563.9610320501
 21
1192.9139793256
 31
0.0
  0
LINE
  5
1D5
330
1F
100
AcDbEntity
  8
0
  6
SLD-Solid
 62
     7
370
    15
100
AcDbLine
 10
563.8119012289
 20
1202.9161751607
 30
0.0
 11
563.5144442491
 21
1203.2998502591
 31
0.0
  0
LINE
  5
1D6
330
1F
100
AcDbEntity
  8
0
  6
SLD-Solid
 62
     7
370
    15
100
AcDbLine
 10
563.9610320501
 20
1202.7985751965
 30
0.0
 11
563.9610320501
 21
1201.1660039761
 31
0.0
  0
LWPOLYLINE
  5
1D7
330
1F
100
AcDbEntity
  8
0
  6
SLD-Solid
 62
     7
370
    15
100
AcDbPolyline
 90
        3
 70
   128
 43
0.0
 10
563.9610320501
 20
1192.9139793256
 10
563.9585882597
 20
1192.8701699117
 10
563.5144442491
 20
1192.2972500661
  0
LINE
  5
1D8
330
1F
100
AcDbEntity
  8
0
  6
SLD-Solid
 62
     7
370
    15
100
AcDbLine
 10
563.5144442491
 20
1192.2972500661
 30
0.0
 11
559.2076212339
 21
1192.2972500661
 31
0.0
  0
LINE
  5
1D9
330
1F
100
AcDbEntity
  8
0
  6
SLD-Solid
 62
     7
370
    15
100
AcDbLine
 10
558.9101344518
 20
1192.6809251645
 30
0.0
 11
559.2076212339
 21
1192.2972500661
 31
0.0
  0
LINE
  5
1DA
330
1F
100
AcDbEntity
  8
0
  6
SLD-Solid
 62
     7
370
    15
100
AcDbLine
 10
563.9610320501
 20
1192.9139793256
 30
0.0
 11
563.9610320501
 21
1192.7985251286
 31
0.0
  0
LINE
  5
1DB
330
1F
100
AcDbEntity
  8
0
  6
SLD-Solid
 62
     7
370
    15
100
AcDbLine
 10
568.9644545488
 20
1195.8946884015
 30
0.0
 11
569.1610306673
 21
1195.0652897694
 31
0.0
  0
LINE
  5
1DC
330
1F
100
AcDbEntity
  8
0
  6
SLD-Solid
 62
     7
370
    15
100
AcDbLine
 10
569.1610306673
 20
1192.900985513
 30
0.0
 11
568.9644545488
 21
1192.1263039449
 31
0.0
  0
LINE
  5
1DD
330
1F
100
AcDbEntity
  8
0
  6
SLD-Solid
 62
     7
370
    15
100
AcDbLine
 10
568.9644545488
 20
1192.1263039449
 30
0.0
 11
564.6576017313
 21
1192.1263039449
 31
0.0
  0
LWPOLYLINE
  5
1DE
330
1F
100
AcDbEntity
  8
0
  6
SLD-Solid
 62
     7
370
    15
100
AcDbPolyline
 90
        3
 70
   128
 43
0.0
 10
564.2110139303
 20
1194.0105259755
 10
564.2134577207
 20
1193.8765943387
 10
564.6576017313
 20
1192.1263039449
  0
LINE
  5
1DF
330
1F
100
AcDbEntity
  8
0
  6
SLD-Solid
 62
     7
370
    15
100
AcDbLine
 10
564.6576017313
 20
1195.8946884015
 30
0.0
 11
564.2110139303
 21
1194.0105259755
 31
0.0
  0
LINE
  5
1E0
330
1F
100
AcDbEntity
  8
0
  6
SLD-Solid
 62
     7
370
    15
100
AcDbLine
 10
568.9644545488
 20
1195.8946884015
 30
0.0
 11
564.6576017313
 21
1195.8946884015
 31
0.0
  0
LWPOLYLINE
  5
1E1
330
1F
100
AcDbEntity
  8
0
  6
SLD-Solid
 62
     7
370
    15
100
AcDbPolyline
 90
        3
 70
   128
 43
0.0
 10
564.6576017313
 20
1195.8946884015
 10
564.4682675771
 20
1196.6113746503
 10
564.2110139303
 20
1198.7308562138
  0
LINE
  5
1E2
330
1F
100
AcDbEntity
  8
0
  6
SLD-Solid
 62
     7
370
    15
100
AcDbLine
 10
564.2110139303
 20
1194.0105259755
 30
0.0
 11
564.2110139303
 21
1198.7308562138
 31
0.0
  0
LWPOLYLINE
  5
1E3
330
1F
100
AcDbEntity
  8
0
  6
SLD-Solid
 62
     7
370
    15
100
AcDbPolyline
 90
        3
 70
   128
 43
0.0
 10
568.9644545488
 20
1195.8946884015
 10
569.1537887029
 20
1196.6113746503
 10
569.1610306673
 20
1196.6709792951
  0
LWPOLYLINE
  5
1E4
330
1F
100
AcDbEntity
  8
0
  6
SLD-Solid
 62
     7
370
    15
100
AcDbPolyline
 90
        3
 70
   128
 43
0.0
 10
564.2110139303
 20
1198.7308562138
 10
564.2464488916
 20
1199.502676759
 10
564.6576017313
 20
1201.5669644215
  0
LINE
  5
1E5
330
1F
100
AcDbEntity
  8
0
  6
SLD-Solid
 62
     7
370
    15
100
AcDbLine
 10
568.9644545488
 20
1201.5669644215
 30
0.0
 11
564.6576017313
 21
1201.5669644215
 31
0.0
  0
LINE
  5
1E6
330
1F
100
AcDbEntity
  8
0
  6
SLD-Solid
 62
     7
370
    15
100
AcDbLine
 10
569.1610306673
 20
1200.5800307134
 30
0.0
 11
568.9644545488
 21
1201.5669644215
 31
0.0
  0
LWPOLYLINE
  5
1E7
330
1F
100
AcDbEntity
  8
0
  6
SLD-Solid
 62
     7
370
    15
100
AcDbPolyline
 90
        3
 70
   128
 43
0.0
 10
564.2110139303
 20
1202.5189102033
 10
564.2134577207
 20
1202.4511993268
 10
564.6576017313
 20
1201.5669644215
  0
LINE
  5
1E8
330
1F
100
AcDbEntity
  8
0
  6
SLD-Solid
 62
     7
370
    15
100
AcDbLine
 10
564.2110139303
 20
1198.7308562138
 30
0.0
 11
564.2110139303
 21
1202.5189102033
 31
0.0
  0
LINE
  5
1E9
330
1F
100
AcDbEntity
  8
0
  6
SLD-Solid
 62
     7
370
    15
100
AcDbLine
 10
569.1610306673
 20
1201.9583285191
 30
0.0
 11
568.9644545488
 21
1201.5669644215
 31
0.0
  0
LINE
  5
1EA
330
1F
100
AcDbEntity
  8
0
  6
SLD-Solid
 62
     7
370
    15
100
AcDbLine
 10
568.9644545488
 20
1203.4707963803
 30
0.0
 11
569.1403776579
 21
1203.0957639554
 31
0.0
  0
LINE
  5
1EB
330
1F
100
AcDbEntity
  8
0
  6
SLD-Solid
 62
     7
370
    15
100
AcDbLine
 10
564.6576017313
 20
1203.4707963803
 30
0.0
 11
564.2110139303
 21
1202.5189102033
 31
0.0
  0
LINE
  5
1EC
330
1F
100
AcDbEntity
  8
0
  6
SLD-Solid
 62
     7
370
    15
100
AcDbLine
 10
568.9644545488
 20
1203.4707963803
 30
0.0
 11
564.6576017313
 21
1203.4707963803
 31
0.0
  0
LINE
  5
1ED
330
1F
100
AcDbEntity
  8
0
  6
SLD-Solid
 62
     7
370
    15
100
AcDbLine
 10
564.6576017313
 20
1192.1263039449
 30
0.0
 11
564.4816786222
 21
1192.5013363698
 31
0.0
  0
LINE
  5
1EE
330
1F
100
AcDbEntity
  8
0
  6
SLD-Solid
 62
     7
370
    15
100
AcDbLine
 10
564.2110139303
 20
1192.7985251286
 30
0.0
 11
564.2110139303
 21
1194.0105259755
 31
0.0
  0
LINE
  5
1EF
330
1F
100
AcDbEntity
  8
0
  6
SLD-Solid
 62
     7
370
    15
100
AcDbLine
 10
568.9644545488
 20
1192.1263039449
 30
0.0
 11
569.1403776579
 21
1192.5013363698
 31
0.0
  0
LINE
  5
1F0
330
1F
100
AcDbEntity
  8
0
  6
SLD-Solid
 62
     7
370
    15
100
AcDbLine
 10
564.2110139303
 20
1202.5189102033
 30
0.0
 11
564.2110139303
 21
1202.7985751965
 31
0.0
  0
LINE
  5
1F1
330
1F
100
AcDbEntity
  8
0
  6
SLD-Solid
 62
     7
370
    15
100
AcDbLine
 10
568.9644545488
 20
370.4947084525
 30
0.0
 11
569.1610306673
 21
369.6652949193
 31
0.0
  0
LINE
  5
1F2
330
1F
100
AcDbEntity
  8
0
  6
SLD-Solid
 62
     7
370
    15
100
AcDbLine
 10
569.1610306673
 20
367.5009683111
 30
0.0
 11
568.9644545488
 21
366.7262941935
 31
0.0
  0
LINE
  5
1F3
330
1F
100
AcDbEntity
  8
0
  6
SLD-Solid
 62
     7
370
    15
100
AcDbLine
 10
568.9644545488
 20
366.7262941935
 30
0.0
 11
564.6576017313
 21
366.7262941935
 31
0.0
  0
LWPOLYLINE
  5
1F4
330
1F
100
AcDbEntity
  8
0
  6
SLD-Solid
 62
     7
370
    15
100
AcDbPolyline
 90
        3
 70
   128
 43
0.0
 10
564.2110139303
 20
368.610501323
 10
564.2134577207
 20
368.4765696862
 10
564.6576017313
 20
366.7262941935
  0
LINE
  5
1F5
330
1F
100
AcDbEntity
  8
0
  6
SLD-Solid
 62
     7
370
    15
100
AcDbLine
 10
564.6576017313
 20
370.4947084525
 30
0.0
 11
564.2110139303
 21
368.610501323
 31
0.0
  0
LINE
  5
1F6
330
1F
100
AcDbEntity
  8
0
  6
SLD-Solid
 62
     7
370
    15
100
AcDbLine
 10
568.9644545488
 20
370.4947084525
 30
0.0
 11
564.6576017313
 21
370.4947084525
 31
0.0
  0
LWPOLYLINE
  5
1F7
330
1F
100
AcDbEntity
  8
0
  6
SLD-Solid
 62
     7
370
    15
100
AcDbPolyline
 90
        3
 70
   128
 43
0.0
 10
564.6576017313
 20
370.4947084525
 10
564.4682675771
 20
371.2113947013
 10
564.2110139303
 20
373.3308464625
  0
LINE
  5
1F8
330
1F
100
AcDbEntity
  8
0
  6
SLD-Solid
 62
     7
370
    15
100
AcDbLine
 10
564.2110139303
 20
368.610501323
 30
0.0
 11
564.2110139303
 21
373.3308464625
 31
0.0
  0
LWPOLYLINE
  5
1F9
330
1F
100
AcDbEntity
  8
0
  6
SLD-Solid
 62
     7
370
    15
100
AcDbPolyline
 90
        3
 70
   128
 43
0.0
 10
568.9644545488
 20
370.4947084525
 10
569.1537887029
 20
371.2113947013
 10
569.1610306673
 20
371.2709546426
  0
LWPOLYLINE
  5
1FA
330
1F
100
AcDbEntity
  8
0
  6
SLD-Solid
 62
     7
370
    15
100
AcDbPolyline
 90
        3
 70
   128
 43
0.0
 10
564.2110139303
 20
373.3308464625
 10
564.2464488916
 20
374.1026670077
 10
564.6576017313
 20
376.1669695714
  0
LINE
  5
1FB
330
1F
100
AcDbEntity
  8
0
  6
SLD-Solid
 62
     7
370
    15
100
AcDbLine
 10
568.9644545488
 20
376.1669695714
 30
0.0
 11
564.6576017313
 21
376.1669695714
 31
0.0
  0
LINE
  5
1FC
330
1F
100
AcDbEntity
  8
0
  6
SLD-Solid
 62
     7
370
    15
100
AcDbLine
 10
569.1610306673
 20
375.1800060609
 30
0.0
 11
568.9644545488
 21
376.1669695714
 31
0.0
  0
LWPOLYLINE
  5
1FD
330
1F
100
AcDbEntity
  8
0
  6
SLD-Solid
 62
     7
370
    15
100
AcDbPolyline
 90
        3
 70
   128
 43
0.0
 10
564.2110139303
 20
377.1188855508
 10
564.2134577207
 20
377.0512193778
 10
564.6576017313
 20
376.1669695714
  0
LINE
  5
1FE
330
1F
100
AcDbEntity
  8
0
  6
SLD-Solid
 62
     7
370
    15
100
AcDbLine
 10
564.2110139303
 20
373.3308464625
 30
0.0
 11
564.2110139303
 21
377.1188855508
 31
0.0
  0
LINE
  5
1FF
330
1F
100
AcDbEntity
  8
0
  6
SLD-Solid
 62
     7
370
    15
100
AcDbLine
 10
569.1610306673
 20
376.558333669
 30
0.0
 11
568.9644545488
 21
376.1669695714
 31
0.0
  0
LINE
  5
200
330
1F
100
AcDbEntity
  8
0
  6
SLD-Solid
 62
     7
370
    15
100
AcDbLine
 10
568.9644545488
 20
378.0708015302
 30
0.0
 11
569.1403776579
 21
377.6957542041
 31
0.0
  0
LINE
  5
201
330
1F
100
AcDbEntity
  8
0
  6
SLD-Solid
 62
     7
370
    15
100
AcDbLine
 10
564.6576017313
 20
378.0708015302
 30
0.0
 11
564.2110139303
 21
377.1188855508
 31
0.0
  0
LINE
  5
202
330
1F
100
AcDbEntity
  8
0
  6
SLD-Solid
 62
     7
370
    15
100
AcDbLine
 10
568.9644545488
 20
378.0708015302
 30
0.0
 11
564.6576017313
 21
378.0708015302
 31
0.0
  0
LINE
  5
203
330
1F
100
AcDbEntity
  8
0
  6
SLD-Solid
 62
     7
370
    15
100
AcDbLine
 10
564.6576017313
 20
366.7262941935
 30
0.0
 11
564.4816786222
 21
367.101334069
 31
0.0
  0
LINE
  5
204
330
1F
100
AcDbEntity
  8
0
  6
SLD-Solid
 62
     7
370
    15
100
AcDbLine
 10
564.2110139303
 20
367.3985451796
 30
0.0
 11
564.2110139303
 21
368.610501323
 31
0.0
  0
LINE
  5
205
330
1F
100
AcDbEntity
  8
0
  6
SLD-Solid
 62
     7
370
    15
100
AcDbLine
 10
568.9644545488
 20
366.7262941935
 30
0.0
 11
569.1403776579
 21
367.101334069
 31
0.0
  0
LINE
  5
206
330
1F
100
AcDbEntity
  8
0
  6
SLD-Solid
 62
     7
370
    15
100
AcDbLine
 10
564.2110139303
 20
377.1188855508
 30
0.0
 11
564.2110139303
 21
377.3985505441
 31
0.0
  0
LINE
  5
207
330
1F
100
AcDbEntity
  8
0
  6
SLD-Solid
 62
     7
370
    15
100
AcDbLine
 10
563.5144442491
 20
377.8998703101
 30
0.0
 11
563.9610320501
 21
375.7659793237
 31
0.0
  0
LWPOLYLINE
  5
208
330
1F
100
AcDbEntity
  8
0
  6
SLD-Solid
 62
     7
370
    15
100
AcDbPolyline
 90
        3
 70
   128
 43
0.0
 10
563.9610320501
 20
375.7659793237
 10
563.9585882597
 20
375.6143004039
 10
563.5144442491
 20
373.6320883372
  0
LINE
  5
209
330
1F
100
AcDbEntity
  8
0
  6
SLD-Solid
 62
     7
370
    15
100
AcDbLine
 10
563.5144442491
 20
373.6320883372
 30
0.0
 11
559.2076212339
 21
373.6320883372
 31
0.0
  0
LWPOLYLINE
  5
20A
330
1F
100
AcDbEntity
  8
0
  6
SLD-Solid
 62
     7
370
    15
100
AcDbPolyline
 90
        3
 70
   128
 43
0.0
 10
558.7610334329
 20
375.7659793237
 10
558.7634474211
 20
375.6143004039
 10
559.2076212339
 20
373.6320883372
  0
LINE
  5
20B
330
1F
100
AcDbEntity
  8
0
  6
SLD-Solid
 62
     7
370
    15
100
AcDbLine
 10
558.82528724
 20
376.0729581454
 30
0.0
 11
558.7610334329
 21
375.7659793237
 31
0.0
  0
LINE
  5
20C
330
1F
100
AcDbEntity
  8
0
  6
SLD-Solid
 62
     7
370
    15
100
AcDbLine
 10
563.5144442491
 20
377.8998703101
 30
0.0
 11
563.1610185079
 21
377.8998703101
 31
0.0
  0
LWPOLYLINE
  5
20D
330
1F
100
AcDbEntity
  8
0
  6
SLD-Solid
 62
     7
370
    15
100
AcDbPolyline
 90
        3
 70
   128
 43
0.0
 10
563.9610320501
 20
370.881438289
 10
563.9256268911
 20
371.6299981215
 10
563.5144442491
 20
373.6320883372
  0
LINE
  5
20E
330
1F
100
AcDbEntity
  8
0
  6
SLD-Solid
 62
     7
370
    15
100
AcDbLine
 10
563.9610320501
 20
370.881438289
 30
0.0
 11
563.9610320501
 21
375.7659793237
 31
0.0
  0
LWPOLYLINE
  5
20F
330
1F
100
AcDbEntity
  8
0
  6
SLD-Solid
 62
     7
370
    15
100
AcDbPolyline
 90
        3
 70
   128
 43
0.0
 10
558.7610334329
 20
370.881438289
 10
558.7964385919
 20
371.6299981215
 10
559.2076212339
 20
373.6320883372
  0
LWPOLYLINE
  5
210
330
1F
100
AcDbEntity
  8
0
  6
SLD-Solid
 62
     7
370
    15
100
AcDbPolyline
 90
        3
 70
   128
 43
0.0
 10
563.5144442491
 20
368.1307733395
 10
563.7038082056
 20
368.8258678058
 10
563.9610320501
 20
370.881438289
  0
LINE
  5
211
330
1F
100
AcDbEntity
  8
0
  6
SLD-Solid
 62
     7
370
    15
100
AcDbLine
 10
563.5144442491
 20
368.1307733395
 30
0.0
 11
559.2076212339
 21
368.1307733395
 31
0.0
  0
LWPOLYLINE
  5
212
330
1F
100
AcDbEntity
  8
0
  6
SLD-Solid
 62
     7
370
    15
100
AcDbPolyline
 90
        3
 70
   128
 43
0.0
 10
559.2076212339
 20
368.1307733395
 10
559.0182572775
 20
368.8258678058
 10
558.7610334329
 20
370.881438289
  0
LINE
  5
213
330
1F
100
AcDbEntity
  8
0
  6
SLD-Solid
 62
     7
370
    15
100
AcDbLine
 10
563.5144442491
 20
368.1307733395
 30
0.0
 11
563.9610320501
 21
367.5139993766
 31
0.0
  0
LINE
  5
214
330
1F
100
AcDbEntity
  8
0
  6
SLD-Solid
 62
     7
370
    15
100
AcDbLine
 10
563.9610320501
 20
370.881438289
 30
0.0
 11
563.9610320501
 21
367.5139993766
 31
0.0
  0
LINE
  5
215
330
1F
100
AcDbEntity
  8
0
  6
SLD-Solid
 62
     7
370
    15
100
AcDbLine
 10
559.2076212339
 20
368.1307733395
 30
0.0
 11
558.7610334329
 21
367.5139993766
 31
0.0
  0
LINE
  5
216
330
1F
100
AcDbEntity
  8
0
  6
SLD-Solid
 62
     7
370
    15
100
AcDbLine
 10
563.8119012289
 20
377.5161505082
 30
0.0
 11
563.5144442491
 21
377.8998703101
 31
0.0
  0
LINE
  5
217
330
1F
100
AcDbEntity
  8
0
  6
SLD-Solid
 62
     7
370
    15
100
AcDbLine
 10
563.9610320501
 20
377.3985505441
 30
0.0
 11
563.9610320501
 21
375.7659793237
 31
0.0
  0
LWPOLYLINE
  5
218
330
1F
100
AcDbEntity
  8
0
  6
SLD-Solid
 62
     7
370
    15
100
AcDbPolyline
 90
        3
 70
   128
 43
0.0
 10
563.9610320501
 20
367.5139993766
 10
563.9585882597
 20
367.4701601603
 10
563.5144442491
 20
366.8972254136
  0
LINE
  5
219
330
1F
100
AcDbEntity
  8
0
  6
SLD-Solid
 62
     7
370
    15
100
AcDbLine
 10
563.5144442491
 20
366.8972254136
 30
0.0
 11
559.2076212339
 21
366.8972254136
 31
0.0
  0
LINE
  5
21A
330
1F
100
AcDbEntity
  8
0
  6
SLD-Solid
 62
     7
370
    15
100
AcDbLine
 10
558.9101344518
 20
367.2809377649
 30
0.0
 11
559.2076212339
 21
366.8972254136
 31
0.0
  0
LINE
  5
21B
330
1F
100
AcDbEntity
  8
0
  6
SLD-Solid
 62
     7
370
    15
100
AcDbLine
 10
563.9610320501
 20
367.5139993766
 30
0.0
 11
563.9610320501
 21
367.3985451796
 31
0.0
  0
LINE
  5
21C
330
1F
100
AcDbEntity
  8
0
  6
SLD-Solid
 62
     7
370
    15
100
AcDbLine
 10
555.9144348078
 20
377.006128464
 30
0.0
 11
556.3610226087
 21
374.3477762082
 31
0.0
  0
LWPOLYLINE
  5
21D
330
1F
100
AcDbEntity
  8
0
  6
SLD-Solid
 62
     7
370
    15
100
AcDbPolyline
 90
        3
 70
   128
 43
0.0
 10
556.3610226087
 20
374.3477762082
 10
556.3586086206
 20
374.1587996819
 10
555.9144348078
 20
371.6894239524
  0
LINE
  5
21E
330
1F
100
AcDbEntity
  8
0
  6
SLD-Solid
 62
     7
370
    15
100
AcDbLine
 10
555.9144348078
 20
371.6894239524
 30
0.0
 11
551.6076117925
 21
371.6894239524
 31
0.0
  0
LWPOLYLINE
  5
21F
330
1F
100
AcDbEntity
  8
0
  6
SLD-Solid
 62
     7
370
    15
100
AcDbPolyline
 90
        3
 70
   128
 43
0.0
 10
551.1610239916
 20
374.3477762082
 10
551.163467782
 20
374.1587996819
 10
551.6076117925
 20
371.6894239524
  0
LINE
  5
220
330
1F
100
AcDbEntity
  8
0
  6
SLD-Solid
 62
     7
370
    15
100
AcDbLine
 10
551.6076117925
 20
377.006128464
 30
0.0
 11
551.1610239916
 21
374.3477762082
 31
0.0
  0
LINE
  5
221
330
1F
100
AcDbEntity
  8
0
  6
SLD-Solid
 62
     7
370
    15
100
AcDbLine
 10
555.9144348078
 20
377.006128464
 30
0.0
 11
551.6076117925
 21
377.006128464
 31
0.0
  0
LWPOLYLINE
  5
222
330
1F
100
AcDbEntity
  8
0
  6
SLD-Solid
 62
     7
370
    15
100
AcDbPolyline
 90
        3
 70
   128
 43
0.0
 10
551.1610239916
 20
369.385629926
 10
551.1964291506
 20
370.0125813821
 10
551.6076117925
 20
371.6894239524
  0
LINE
  5
223
330
1F
100
AcDbEntity
  8
0
  6
SLD-Solid
 62
     7
370
    15
100
AcDbLine
 10
551.1610239916
 20
369.385629926
 30
0.0
 11
551.1610239916
 21
374.3477762082
 31
0.0
  0
LWPOLYLINE
  5
224
330
1F
100
AcDbEntity
  8
0
  6
SLD-Solid
 62
     7
370
    15
100
AcDbPolyline
 90
        3
 70
   128
 43
0.0
 10
556.3610226087
 20
369.385629926
 10
556.3256174497
 20
370.0125813821
 10
555.9144348078
 20
371.6894239524
  0
LINE
  5
225
330
1F
100
AcDbEntity
  8
0
  6
SLD-Solid
 62
     7
370
    15
100
AcDbLine
 10
556.1399489813
 20
367.9059297183
 30
0.0
 11
556.3610226087
 21
369.385629926
 31
0.0
  0
LINE
  5
226
330
1F
100
AcDbEntity
  8
0
  6
SLD-Solid
 62
     7
370
    15
100
AcDbLine
 10
551.9610375337
 20
367.0818433502
 30
0.0
 11
551.6076117925
 21
367.0818433502
 31
0.0
  0
LWPOLYLINE
  5
227
330
1F
100
AcDbEntity
  8
0
  6
SLD-Solid
 62
     7
370
    15
100
AcDbPolyline
 90
        3
 70
   128
 43
0.0
 10
551.6076117925
 20
367.0818433502
 10
551.4182478361
 20
367.6639944651
 10
551.1610239916
 20
369.385629926
  0
LWPOLYLINE
  5
228
330
1F
100
AcDbEntity
  8
0
  6
SLD-Solid
 62
     7
370
    15
100
AcDbPolyline
 90
        3
 70
   128
 43
0.0
 10
551.1610239916
 20
377.3606866935
 10
551.163467782
 20
377.3354888299
 10
551.6076117925
 20
377.006128464
  0
LINE
  5
229
330
1F
100
AcDbEntity
  8
0
  6
SLD-Solid
 62
     7
370
    15
100
AcDbLine
 10
551.1610239916
 20
374.3477762082
 30
0.0
 11
551.1610239916
 21
377.3606866935
 31
0.0
  0
LWPOLYLINE
  5
22A
330
1F
100
AcDbEntity
  8
0
  6
SLD-Solid
 62
     7
370
    15
100
AcDbPolyline
 90
        3
 70
   128
 43
0.0
 10
556.3610226087
 20
377.3606866935
 10
556.3586086206
 20
377.3354888299
 10
555.9144348078
 20
377.006128464
  0
LINE
  5
22B
330
1F
100
AcDbEntity
  8
0
  6
SLD-Solid
 62
     7
370
    15
100
AcDbLine
 10
551.6076117925
 20
367.0818433502
 30
0.0
 11
551.1610239916
 21
367.4364015797
 31
0.0
  0
LINE
  5
22C
330
1F
100
AcDbEntity
  8
0
  6
SLD-Solid
 62
     7
370
    15
100
AcDbLine
 10
551.1610239916
 20
369.385629926
 30
0.0
 11
551.1610239916
 21
367.3986941913
 31
0.0
  0
LINE
  5
22D
330
1F
100
AcDbEntity
  8
0
  6
SLD-Solid
 62
     7
370
    15
100
AcDbLine
 10
555.9144348078
 20
377.7152598241
 30
0.0
 11
556.3610226087
 21
377.3606866935
 31
0.0
  0
LINE
  5
22E
330
1F
100
AcDbEntity
  8
0
  6
SLD-Solid
 62
     7
370
    15
100
AcDbLine
 10
551.6076117925
 20
377.7152598241
 30
0.0
 11
551.1610239916
 21
377.3606866935
 31
0.0
  0
LINE
  5
22F
330
1F
100
AcDbEntity
  8
0
  6
SLD-Solid
 62
     7
370
    15
100
AcDbLine
 10
555.9144348078
 20
377.7152598241
 30
0.0
 11
551.6076117925
 21
377.7152598241
 31
0.0
  0
LINE
  5
230
330
1F
100
AcDbEntity
  8
0
  6
SLD-Solid
 62
     7
370
    15
100
AcDbLine
 10
674.4610399179
 20
1024.7985422948
 30
0.0
 11
674.4610399179
 21
1006.0485303738
 31
0.0
  0
ARC
  5
231
330
1F
100
AcDbEntity
  8
0
  6
SLD-Solid
 62
     7
370
    15
100
AcDbCircle
 10
679.4610286586
 20
1024.7985464227
 30
0.0
 40
5.000000000000114
100
AcDbArc
 50
90.0
 51
180.0
  0
LINE
  5
232
330
1F
100
AcDbEntity
  8
0
  6
SLD-Solid
 62
     7
370
    15
100
AcDbLine
 10
1184.4610303812
 20
1029.7985375264
 30
0.0
 11
679.4610351496
 21
1029.7985375264
 31
0.0
  0
ARC
  5
233
330
1F
100
AcDbEntity
  8
0
  6
SLD-Solid
 62
     7
370
    15
100
AcDbCircle
 10
1184.4610286586
 20
1024.7985464227
 30
0.0
 40
5.0
100
AcDbArc
 50
0.0
 51
90.0
  0
LINE
  5
234
330
1F
100
AcDbEntity
  8
0
  6
SLD-Solid
 62
     7
370
    15
100
AcDbLine
 10
1189.4610256128
 20
1006.0485303738
 30
0.0
 11
1189.4610256128
 21
1024.7985422948
 31
0.0
  0
LINE
  5
235
330
1F
100
AcDbEntity
  8
0
  6
SLD-Solid
 62
     7
370
    15
100
AcDbLine
 10
1189.4610256128
 20
1006.0485303738
 30
0.0
 11
1189.4610256128
 21
1004.0485561231
 31
0.0
  0
LINE
  5
236
330
1F
100
AcDbEntity
  8
0
  6
SLD-Solid
 62
     7
370
    15
100
AcDbLine
 10
674.4610399179
 20
1004.0485561231
 30
0.0
 11
674.4610399179
 21
1006.0485303738
 31
0.0
  0
LINE
  5
237
330
1F
100
AcDbEntity
  8
0
  6
SLD-Solid
 62
     7
370
    15
100
AcDbLine
 10
674.4610399179
 20
1850.1985371449
 30
0.0
 11
674.4610399179
 21
1831.4485848287
 31
0.0
  0
LINE
  5
238
330
1F
100
AcDbEntity
  8
0
  6
SLD-Solid
 62
     7
370
    15
100
AcDbLine
 10
1184.4610303812
 20
1855.1985323766
 30
0.0
 11
679.4610351496
 21
1855.1985323766
 31
0.0
  0
ARC
  5
239
330
1F
100
AcDbEntity
  8
0
  6
SLD-Solid
 62
     7
370
    15
100
AcDbCircle
 10
1184.4610286585
 20
1850.1985464227
 30
0.0
 40
5.0
100
AcDbArc
 50
0.0
 51
90.0
  0
LINE
  5
23A
330
1F
100
AcDbEntity
  8
0
  6
SLD-Solid
 62
     7
370
    15
100
AcDbLine
 10
1189.4610256128
 20
1831.4485848287
 30
0.0
 11
1189.4610256128
 21
1850.1985371449
 31
0.0
  0
ARC
  5
23B
330
1F
100
AcDbEntity
  8
0
  6
SLD-Solid
 62
     7
370
    15
100
AcDbCircle
 10
679.4610286585
 20
1850.1985464227
 30
0.0
 40
5.0
100
AcDbArc
 50
90.0
 51
180.0
  0
LINE
  5
23C
330
1F
100
AcDbEntity
  8
0
  6
SLD-Solid
 62
     7
370
    15
100
AcDbLine
 10
674.4610399179
 20
1829.4484913686
 30
0.0
 11
674.4610399179
 21
1831.4485848287
 31
0.0
  0
LINE
  5
23D
330
1F
100
AcDbEntity
  8
0
  6
SLD-Solid
 62
     7
370
    15
100
AcDbLine
 10
1189.4610256128
 20
1831.4485848287
 30
0.0
 11
1189.4610256128
 21
1829.4484913686
 31
0.0
  0
LWPOLYLINE
  5
23E
330
1F
100
AcDbEntity
  8
0
  6
SLD-Solid
 62
     7
370
    15
100
AcDbPolyline
 90
        6
 70
   128
 43
0.0
 10
1310.5613023214
 20
953.6723196843
 10
1310.491654294
 20
953.8866579869
 10
1310.1986378603
 20
954.7884762624
 10
1310.006979125
 20
955.3783238271
 10
1309.9235624246
 20
955.6350410321
 10
1309.9200755529
 20
955.6457698682
  0
LWPOLYLINE
  5
23F
330
1F
100
AcDbEntity
  8
0
  6
SLD-Solid
 62
     7
370
    15
100
AcDbPolyline
 90
       10
 70
   128
 43
0.0
 10
1316.084983962
 20
936.6721809247
 10
1316.0814970903
 20
936.6829097607
 10
1315.99808039
 20
936.9396269658
 10
1315.8064216547
 20
937.5294745305
 10
1315.513405221
 20
938.4312928059
 10
1315.1296705179
 20
939.6123588422
 10
1314.6690160208
 20
941.0300553182
 10
1314.1481608324
 20
942.6330626347
 10
1313.5858804159
 20
944.3635642865
 10
1313.3477002554
 20
945.096582208
  0
LWPOLYLINE
  5
240
330
1F
100
AcDbEntity
  8
0
  6
SLD-Solid
 62
     7
370
    15
100
AcDbPolyline
 90
        7
 70
   128
 43
0.0
 10
1319.5690244608
 20
940.5117333272
 10
1319.4084495477
 20
941.0058558324
 10
1319.1962570123
 20
941.6589439252
 10
1318.8992470674
 20
942.5730407575
 10
1318.5336023741
 20
943.6983764508
 10
1318.1240290575
 20
944.9589550832
 10
1317.6274627619
 20
946.4871585706
  0
LWPOLYLINE
  5
241
330
1F
100
AcDbEntity
  8
0
  6
SLD-Solid
 62
     7
370
    15
100
AcDbPolyline
 90
        6
 70
   128
 43
0.0
 10
1310.5613023214
 20
1779.0723145345
 10
1310.491654294
 20
1779.2866528371
 10
1310.1986378603
 20
1780.1884711125
 10
1310.006979125
 20
1780.7783186772
 10
1309.9235624246
 20
1781.0349762776
 10
1309.9200755529
 20
1781.0457051137
  0
LWPOLYLINE
  5
242
330
1F
100
AcDbEntity
  8
0
  6
SLD-Solid
 62
     7
370
    15
100
AcDbPolyline
 90
       10
 70
   128
 43
0.0
 10
1316.084983962
 20
1762.0722353795
 10
1316.0814970903
 20
1762.0829642156
 10
1315.99808039
 20
1762.339621816
 10
1315.8064216547
 20
1762.9294693807
 10
1315.513405221
 20
1763.8312876561
 10
1315.1296705179
 20
1765.0122940877
 10
1314.6690160208
 20
1766.4300501683
 10
1314.1481608324
 20
1768.0330574849
 10
1313.5858804159
 20
1769.7636187413
 10
1313.3477002554
 20
1770.4966366628
  0
LWPOLYLINE
  5
243
330
1F
100
AcDbEntity
  8
0
  6
SLD-Solid
 62
     7
370
    15
100
AcDbPolyline
 90
        7
 70
   128
 43
0.0
 10
1319.5690244608
 20
1765.9117281773
 10
1319.4084495477
 20
1766.4058506825
 10
1319.1962570123
 20
1767.0588791707
 10
1318.8992470674
 20
1767.9730952123
 10
1318.5336023741
 20
1769.0984309056
 10
1318.1240290575
 20
1770.3589499333
 10
1317.6274627619
 20
1771.8872130254
  0
LINE
  5
244
330
1F
100
AcDbEntity
  8
0
  6
SLD-Solid
 62
     7
370
    15
100
AcDbLine
 10
1276.7610281877
 20
1692.1847164967
 30
0.0
 11
1276.7610281877
 21
1810.8723461964
 31
0.0
  0
ARC
  5
245
330
1F
100
AcDbEntity
  8
0
  6
SLD-Solid
 62
     7
370
    15
100
AcDbCircle
 10
1277.7610286586
 20
1692.1846626023
 30
0.0
 40
1.000000000000227
100
AcDbArc
 50
180.0
 51
270.0
  0
ARC
  5
246
330
1F
100
AcDbEntity
  8
0
  6
SLD-Solid
 62
     7
370
    15
100
AcDbCircle
 10
1277.7610286586
 20
1810.8723371295
 30
0.0
 40
1.000000000000227
100
AcDbArc
 50
90.0
 51
180.0
  0
ARC
  5
247
330
1F
100
AcDbEntity
  8
0
  6
SLD-Solid
 62
     7
370
    15
100
AcDbCircle
 10
1277.7610286586
 20
985.4723371295
 30
0.0
 40
1.000000000000227
100
AcDbArc
 50
90.0
 51
180.0
  0
LINE
  5
248
330
1F
100
AcDbEntity
  8
0
  6
SLD-Solid
 62
     7
370
    15
100
AcDbLine
 10
1276.7610281877
 20
866.7846620419
 30
0.0
 11
1276.7610281877
 21
985.4723513463
 31
0.0
  0
ARC
  5
249
330
1F
100
AcDbEntity
  8
0
  6
SLD-Solid
 62
     7
370
    15
100
AcDbCircle
 10
1277.7610286586
 20
866.7846626023
 30
0.0
 40
1.000000000000227
100
AcDbArc
 50
180.0
 51
270.0
  0
LINE
  5
24A
330
1F
100
AcDbEntity
  8
0
  6
SLD-Solid
 62
     7
370
    15
100
AcDbLine
 10
1276.7610281877
 20
1691.1846697667
 30
0.0
 11
1276.7610281877
 21
1690.3846562245
 31
0.0
  0
LINE
  5
24B
330
1F
100
AcDbEntity
  8
0
  6
SLD-Solid
 62
     7
370
    15
100
AcDbLine
 10
1276.7610281877
 20
1691.1846697667
 30
0.0
 11
1337.405088561
 21
1691.1846697667
 31
0.0
  0
LINE
  5
24C
330
1F
100
AcDbEntity
  8
0
  6
SLD-Solid
 62
     7
370
    15
100
AcDbLine
 10
1276.7610281877
 20
1690.3846562245
 30
0.0
 11
1337.405088561
 21
1690.3846562245
 31
0.0
  0
LINE
  5
24D
330
1F
100
AcDbEntity
  8
0
  6
SLD-Solid
 62
     7
370
    15
100
AcDbLine
 10
1320.5131322317
 20
1736.1467182973
 30
0.0
 11
1296.1890131407
 21
1811.0086024144
 31
0.0
  0
LINE
  5
24E
330
1F
100
AcDbEntity
  8
0
  6
SLD-Solid
 62
     7
370
    15
100
AcDbLine
 10
1321.2739855222
 20
1736.3938391545
 30
0.0
 11
1296.9498664312
 21
1811.2558424809
 31
0.0
  0
ARC
  5
24F
330
1F
100
AcDbEntity
  8
0
  6
SLD-Solid
 62
     7
370
    15
100
AcDbCircle
 10
1295.0001894744
 20
1810.6223371295
 30
0.0
 40
2.050000000000182
100
AcDbArc
 50
18.0
 51
90.0
  0
ARC
  5
250
330
1F
100
AcDbEntity
  8
0
  6
SLD-Solid
 62
     7
370
    15
100
AcDbCircle
 10
1295.0001894744
 20
1810.6223371295
 30
0.0
 40
1.250000000000227
100
AcDbArc
 50
18.0
 51
90.0
  0
LINE
  5
251
330
1F
100
AcDbEntity
  8
0
  6
SLD-Solid
 62
     7
370
    15
100
AcDbLine
 10
1276.7610281877
 20
1812.6722872594
 30
0.0
 11
1295.0001985006
 21
1812.6722872594
 31
0.0
  0
LINE
  5
252
330
1F
100
AcDbEntity
  8
0
  6
SLD-Solid
 62
     7
370
    15
100
AcDbLine
 10
1276.7610281877
 20
1812.6722872594
 30
0.0
 11
1276.7610281877
 21
1811.8723929265
 31
0.0
  0
LINE
  5
253
330
1F
100
AcDbEntity
  8
0
  6
SLD-Solid
 62
     7
370
    15
100
AcDbLine
 10
1276.7610281877
 20
1811.8723929265
 30
0.0
 11
1295.0001985006
 21
1811.8723929265
 31
0.0
  0
ARC
  5
254
330
1F
100
AcDbEntity
  8
0
  6
SLD-Solid
 62
     7
370
    15
100
AcDbCircle
 10
1330.7845374493
 20
1739.4840576074
 30
0.0
 40
10.80000000000002
100
AcDbArc
 50
198.0
 51
250.0
  0
ARC
  5
255
330
1F
100
AcDbEntity
  8
0
  6
SLD-Solid
 62
     7
370
    15
100
AcDbCircle
 10
1330.7845374493
 20
1739.4840576074
 30
0.0
 40
10.00000000000003
100
AcDbArc
 50
198.0
 51
250.0
  0
LINE
  5
256
330
1F
100
AcDbEntity
  8
0
  6
SLD-Solid
 62
     7
370
    15
100
AcDbLine
 10
1346.8147248201
 20
1723.0077088216
 30
0.0
 11
1327.3643285208
 21
1730.0871909001
 31
0.0
  0
LINE
  5
257
330
1F
100
AcDbEntity
  8
0
  6
SLD-Solid
 62
     7
370
    15
100
AcDbLine
 10
1346.5411096983
 20
1722.2559750417
 30
0.0
 11
1327.0907133989
 21
1729.3353379109
 31
0.0
  0
LINE
  5
258
330
1F
100
AcDbEntity
  8
0
  6
SLD-Solid
 62
     7
370
    15
100
AcDbLine
 10
1338.3626669817
 20
1691.6312277654
 30
0.0
 11
1350.7813543253
 21
1706.4311802724
 31
0.0
  0
LINE
  5
259
330
1F
100
AcDbEntity
  8
0
  6
SLD-Solid
 62
     7
370
    15
100
AcDbLine
 10
1338.9754921369
 20
1691.1169588902
 30
0.0
 11
1351.3941794805
 21
1705.9170306065
 31
0.0
  0
ARC
  5
25A
330
1F
100
AcDbEntity
  8
0
  6
SLD-Solid
 62
     7
370
    15
100
AcDbCircle
 10
1337.4050979593
 20
1692.4346626023
 30
0.0
 40
2.050000000000272
100
AcDbArc
 50
270.0
 51
320.0
  0
ARC
  5
25B
330
1F
100
AcDbEntity
  8
0
  6
SLD-Solid
 62
     7
370
    15
100
AcDbCircle
 10
1337.4050979593
 20
1692.4346626023
 30
0.0
 40
1.250000000000307
100
AcDbArc
 50
270.0
 51
320.0
  0
ARC
  5
25C
330
1F
100
AcDbEntity
  8
0
  6
SLD-Solid
 62
     7
370
    15
100
AcDbCircle
 10
1343.1209112285
 20
1712.8590870855
 30
0.0
 40
10.80000000000002
100
AcDbArc
 50
320.0
 51
70.0
  0
ARC
  5
25D
330
1F
100
AcDbEntity
  8
0
  6
SLD-Solid
 62
     7
370
    15
100
AcDbCircle
 10
1343.1209112285
 20
1712.8590870855
 30
0.0
 40
9.999999999999858
100
AcDbArc
 50
320.0
 51
70.0
  0
LINE
  5
25E
330
1F
100
AcDbEntity
  8
0
  6
SLD-Solid
 62
     7
370
    15
100
AcDbLine
 10
1296.5534955435
 20
1812.4757111409
 30
0.0
 11
1296.9498664312
 21
1811.2558424809
 31
0.0
  0
LWPOLYLINE
  5
25F
330
1F
100
AcDbEntity
  8
0
  6
SLD-Solid
 62
     7
370
    15
100
AcDbPolyline
 90
        3
 70
   128
 43
0.0
 10
1296.0051924162
 20
1813.9505684712
 10
1295.8695322447
 20
1813.6958182195
 10
1295.7551807337
 20
1813.365846906
  0
LWPOLYLINE
  5
260
330
1F
100
AcDbEntity
  8
0
  6
SLD-Solid
 62
     7
370
    15
100
AcDbPolyline
 90
        3
 70
   128
 43
0.0
 10
1297.2338825636
 20
1814.0039742329
 10
1297.0342964105
 20
1813.8921559193
 10
1296.9036132269
 20
1813.7888014653
  0
ARC
  5
261
330
1F
100
AcDbEntity
  8
0
  6
SLD-Solid
 62
     7
370
    15
100
AcDbCircle
 10
1297.7423081906
 20
1812.8619878254
 30
0.0
 40
1.250000000000107
100
AcDbArc
 50
165.3068750544
 51
198.0
  0
LINE
  5
262
330
1F
100
AcDbEntity
  8
0
  6
SLD-Solid
 62
     7
370
    15
100
AcDbLine
 10
1297.2338825636
 20
1814.0039742329
 30
0.0
 11
1300.8422881536
 21
1815.6104386189
 31
0.0
  0
LINE
  5
263
330
1F
100
AcDbEntity
  8
0
  6
SLD-Solid
 62
     7
370
    15
100
AcDbLine
 10
1276.7610281877
 20
865.7846749165
 30
0.0
 11
1276.7610281877
 21
864.9846613744
 31
0.0
  0
LINE
  5
264
330
1F
100
AcDbEntity
  8
0
  6
SLD-Solid
 62
     7
370
    15
100
AcDbLine
 10
1276.7610281877
 20
865.7846749165
 30
0.0
 11
1337.405088561
 21
865.7846749165
 31
0.0
  0
LINE
  5
265
330
1F
100
AcDbEntity
  8
0
  6
SLD-Solid
 62
     7
370
    15
100
AcDbLine
 10
1276.7610281877
 20
864.9846613744
 30
0.0
 11
1337.405088561
 21
864.9846613744
 31
0.0
  0
LINE
  5
266
330
1F
100
AcDbEntity
  8
0
  6
SLD-Solid
 62
     7
370
    15
100
AcDbLine
 10
1321.2739855222
 20
910.993903909
 30
0.0
 11
1296.9498664312
 21
985.8558476308
 31
0.0
  0
LINE
  5
267
330
1F
100
AcDbEntity
  8
0
  6
SLD-Solid
 62
     7
370
    15
100
AcDbLine
 10
1320.5131322317
 20
910.7466638425
 30
0.0
 11
1296.1890131407
 21
985.6086075642
 31
0.0
  0
ARC
  5
268
330
1F
100
AcDbEntity
  8
0
  6
SLD-Solid
 62
     7
370
    15
100
AcDbCircle
 10
1295.0001894744
 20
985.2223371295
 30
0.0
 40
2.050000000000182
100
AcDbArc
 50
18.0
 51
90.0
  0
ARC
  5
269
330
1F
100
AcDbEntity
  8
0
  6
SLD-Solid
 62
     7
370
    15
100
AcDbCircle
 10
1295.0001894744
 20
985.2223371295
 30
0.0
 40
1.250000000000227
100
AcDbArc
 50
18.0
 51
90.0
  0
LINE
  5
26A
330
1F
100
AcDbEntity
  8
0
  6
SLD-Solid
 62
     7
370
    15
100
AcDbLine
 10
1276.7610281877
 20
987.2723520139
 30
0.0
 11
1295.0001985006
 21
987.2723520139
 31
0.0
  0
LINE
  5
26B
330
1F
100
AcDbEntity
  8
0
  6
SLD-Solid
 62
     7
370
    15
100
AcDbLine
 10
1276.7610281877
 20
987.2723520139
 30
0.0
 11
1276.7610281877
 21
986.4723384717
 31
0.0
  0
LINE
  5
26C
330
1F
100
AcDbEntity
  8
0
  6
SLD-Solid
 62
     7
370
    15
100
AcDbLine
 10
1276.7610281877
 20
986.4723384717
 30
0.0
 11
1295.0001985006
 21
986.4723384717
 31
0.0
  0
ARC
  5
26D
330
1F
100
AcDbEntity
  8
0
  6
SLD-Solid
 62
     7
370
    15
100
AcDbCircle
 10
1330.7845374493
 20
914.0840576074
 30
0.0
 40
10.80000000000002
100
AcDbArc
 50
198.0
 51
250.0
  0
ARC
  5
26E
330
1F
100
AcDbEntity
  8
0
  6
SLD-Solid
 62
     7
370
    15
100
AcDbCircle
 10
1330.7845374493
 20
914.0840576074
 30
0.0
 40
9.999999999999803
100
AcDbArc
 50
198.0
 51
250.0
  0
LINE
  5
26F
330
1F
100
AcDbEntity
  8
0
  6
SLD-Solid
 62
     7
370
    15
100
AcDbLine
 10
1346.8147248201
 20
897.6077735761
 30
0.0
 11
1327.3643285208
 21
904.6871364453
 31
0.0
  0
LINE
  5
270
330
1F
100
AcDbEntity
  8
0
  6
SLD-Solid
 62
     7
370
    15
100
AcDbLine
 10
1346.5411096983
 20
896.8560397961
 30
0.0
 11
1327.0907133989
 21
903.9354026654
 31
0.0
  0
LINE
  5
271
330
1F
100
AcDbEntity
  8
0
  6
SLD-Solid
 62
     7
370
    15
100
AcDbLine
 10
1338.3626669817
 20
866.2311733106
 30
0.0
 11
1350.7813543253
 21
881.0311854222
 31
0.0
  0
LINE
  5
272
330
1F
100
AcDbEntity
  8
0
  6
SLD-Solid
 62
     7
370
    15
100
AcDbLine
 10
1338.9754921369
 20
865.7169640401
 30
0.0
 11
1351.3941794805
 21
880.5169761517
 31
0.0
  0
ARC
  5
273
330
1F
100
AcDbEntity
  8
0
  6
SLD-Solid
 62
     7
370
    15
100
AcDbCircle
 10
1337.4050979593
 20
867.0346626023
 30
0.0
 40
2.050000000000126
100
AcDbArc
 50
270.0
 51
320.0
  0
ARC
  5
274
330
1F
100
AcDbEntity
  8
0
  6
SLD-Solid
 62
     7
370
    15
100
AcDbCircle
 10
1337.4050979593
 20
867.0346626023
 30
0.0
 40
1.250000000000161
100
AcDbArc
 50
270.0
 51
320.0
  0
ARC
  5
275
330
1F
100
AcDbEntity
  8
0
  6
SLD-Solid
 62
     7
370
    15
100
AcDbCircle
 10
1343.1209112285
 20
887.4590870855
 30
0.0
 40
10.80000000000002
100
AcDbArc
 50
320.0
 51
70.0
  0
ARC
  5
276
330
1F
100
AcDbEntity
  8
0
  6
SLD-Solid
 62
     7
370
    15
100
AcDbCircle
 10
1343.1209112285
 20
887.4590870855
 30
0.0
 40
9.999999999999858
100
AcDbArc
 50
320.0
 51
70.0
  0
LINE
  5
277
330
1F
100
AcDbEntity
  8
0
  6
SLD-Solid
 62
     7
370
    15
100
AcDbLine
 10
1296.5534955435
 20
987.0757162907
 30
0.0
 11
1296.9498664312
 21
985.8558476308
 31
0.0
  0
LINE
  5
278
330
1F
100
AcDbEntity
  8
0
  6
SLD-Solid
 62
     7
370
    15
100
AcDbLine
 10
1297.2338825636
 20
988.6039197781
 30
0.0
 11
1300.8422881536
 21
990.2105033734
 31
0.0
  0
LWPOLYLINE
  5
279
330
1F
100
AcDbEntity
  8
0
  6
SLD-Solid
 62
     7
370
    15
100
AcDbPolyline
 90
        3
 70
   128
 43
0.0
 10
1297.2338825636
 20
988.6039197781
 10
1297.0342964105
 20
988.4921610692
 10
1296.9036132269
 20
988.3888662198
  0
ARC
  5
27A
330
1F
100
AcDbEntity
  8
0
  6
SLD-Solid
 62
     7
370
    15
100
AcDbCircle
 10
1297.7423081906
 20
987.4619878254
 30
0.0
 40
1.250000000000016
100
AcDbArc
 50
165.3068750744
 51
198.0
  0
LWPOLYLINE
  5
27B
330
1F
100
AcDbEntity
  8
0
  6
SLD-Solid
 62
     7
370
    15
100
AcDbPolyline
 90
        3
 70
   128
 43
0.0
 10
1296.0051924162
 20
988.5505140164
 10
1295.8695322447
 20
988.2958233693
 10
1295.7551807337
 20
987.9657924512
  0
LINE
  5
27C
330
1F
100
AcDbEntity
  8
0
  6
SLD-Solid
 62
     7
370
    15
100
AcDbLine
 10
1192.6710337572
 20
1019.3485319951
 30
0.0
 11
1192.6710337572
 21
1006.6485703328
 31
0.0
  0
ARC
  5
27D
330
1F
100
AcDbEntity
  8
0
  6
SLD-Solid
 62
     7
370
    15
100
AcDbCircle
 10
1193.9110286586
 20
1019.3485464227
 30
0.0
 40
1.240000000000123
100
AcDbArc
 50
90.0
 51
180.0
  0
LINE
  5
27E
330
1F
100
AcDbEntity
  8
0
  6
SLD-Solid
 62
     7
370
    15
100
AcDbLine
 10
1215.7110303812
 20
1020.588547025
 30
0.0
 11
1193.9110338859
 21
1020.588547025
 31
0.0
  0
ARC
  5
27F
330
1F
100
AcDbEntity
  8
0
  6
SLD-Solid
 62
     7
370
    15
100
AcDbCircle
 10
1215.7110286586
 20
1023.0485464227
 30
0.0
 40
2.460000000000264
100
AcDbArc
 50
270.0
 51
0.0
  0
LINE
  5
280
330
1F
100
AcDbEntity
  8
0
  6
SLD-Solid
 62
     7
370
    15
100
AcDbLine
 10
1218.1710332804
 20
1039.2985642293
 30
0.0
 11
1218.1710332804
 21
1023.0485499242
 31
0.0
  0
LINE
  5
281
330
1F
100
AcDbEntity
  8
0
  6
SLD-Solid
 62
     7
370
    15
100
AcDbLine
 10
1219.4110334091
 20
1039.2985642293
 30
0.0
 11
1218.1710332804
 21
1039.2985642293
 31
0.0
  0
LINE
  5
282
330
1F
100
AcDbEntity
  8
0
  6
SLD-Solid
 62
     7
370
    15
100
AcDbLine
 10
1219.4110334091
 20
1039.3485725263
 30
0.0
 11
1219.4110334091
 21
1039.2985642293
 31
0.0
  0
LINE
  5
283
330
1F
100
AcDbEntity
  8
0
  6
SLD-Solid
 62
     7
370
    15
100
AcDbLine
 10
1310.7278376989
 20
1039.2985642293
 30
0.0
 11
1310.7278376989
 21
1039.3485725263
 31
0.0
  0
LINE
  5
284
330
1F
100
AcDbEntity
  8
0
  6
SLD-Solid
 62
     7
370
    15
100
AcDbLine
 10
1311.2278312616
 20
1039.2985642293
 30
0.0
 11
1310.7278376989
 21
1039.2985642293
 31
0.0
  0
LINE
  5
285
330
1F
100
AcDbEntity
  8
0
  6
SLD-Solid
 62
     7
370
    15
100
AcDbLine
 10
1311.2278312616
 20
1040.4928624967
 30
0.0
 11
1311.2278312616
 21
1039.2985642293
 31
0.0
  0
ARC
  5
286
330
1F
100
AcDbEntity
  8
0
  6
SLD-Solid
 62
     7
370
    15
100
AcDbCircle
 10
1310.727837157
 20
1018.4985464227
 30
0.0
 40
22.0000000000001
100
AcDbArc
 50
293.5
 51
88.6977110648
  0
LINE
  5
287
330
1F
100
AcDbEntity
  8
0
  6
SLD-Solid
 62
     7
370
    15
100
AcDbLine
 10
1296.0051924162
 20
988.1072342732
 30
0.0
 11
1319.5003301077
 21
998.3232319692
 31
0.0
  0
LINE
  5
288
330
1F
100
AcDbEntity
  8
0
  6
SLD-Solid
 62
     7
370
    15
100
AcDbLine
 10
1296.0051924162
 20
988.1072342732
 30
0.0
 11
1296.0051924162
 21
989.2485440114
 31
0.0
  0
ARC
  5
289
330
1F
100
AcDbEntity
  8
0
  6
SLD-Solid
 62
     7
370
    15
100
AcDbCircle
 10
1295.8801820864
 20
989.2485464227
 30
0.0
 40
0.1250000000002274
100
AcDbArc
 50
0.0
 51
180.0
  0
LINE
  5
28A
330
1F
100
AcDbEntity
  8
0
  6
SLD-Solid
 62
     7
370
    15
100
AcDbLine
 10
1275.5610376768
 20
1006.6985190251
 30
0.0
 11
1275.5610376768
 21
989.2485440114
 31
0.0
  0
LINE
  5
28B
330
1F
100
AcDbEntity
  8
0
  6
SLD-Solid
 62
     7
370
    15
100
AcDbLine
 10
1275.550606864
 20
1006.6985190251
 30
0.0
 11
1275.5610376768
 21
1006.6985190251
 31
0.0
  0
ARC
  5
28C
330
1F
100
AcDbEntity
  8
0
  6
SLD-Solid
 62
     7
370
    15
100
AcDbCircle
 10
1275.4360286586
 20
1006.6485464227
 30
0.0
 40
0.1250000000000312
100
AcDbArc
 50
23.5781784782
 51
156.4218215218
  0
LINE
  5
28D
330
1F
100
AcDbEntity
  8
0
  6
SLD-Solid
 62
     7
370
    15
100
AcDbLine
 10
1275.3110259943
 20
1006.6985190251
 30
0.0
 11
1275.3214568071
 21
1006.6985190251
 31
0.0
  0
LINE
  5
28E
330
1F
100
AcDbEntity
  8
0
  6
SLD-Solid
 62
     7
370
    15
100
AcDbLine
 10
1275.3110259943
 20
1006.6485703328
 30
0.0
 11
1275.3110259943
 21
1006.6985190251
 31
0.0
  0
ARC
  5
28F
330
1F
100
AcDbEntity
  8
0
  6
SLD-Solid
 62
     7
370
    15
100
AcDbCircle
 10
1298.7199002948
 20
1003.1913460614
 30
0.0
 40
0.25000000000004
100
AcDbArc
 50
99.9421486626
 51
279.9421486626
  0
ARC
  5
290
330
1F
100
AcDbEntity
  8
0
  6
SLD-Solid
 62
     7
370
    15
100
AcDbCircle
 10
1298.227837157
 20
1005.9985464227
 30
0.0
 40
3.100000000000274
100
AcDbArc
 50
279.9421486627
 51
80.0578513373
  0
ARC
  5
291
330
1F
100
AcDbEntity
  8
0
  6
SLD-Solid
 62
     7
370
    15
100
AcDbCircle
 10
1298.7199002948
 20
1008.805746784
 30
0.0
 40
0.25000000000004
100
AcDbArc
 50
80.0578513374
 51
260.0578513374
  0
ARC
  5
292
330
1F
100
AcDbEntity
  8
0
  6
SLD-Solid
 62
     7
370
    15
100
AcDbCircle
 10
1298.227837157
 20
1005.9985464227
 30
0.0
 40
2.600000000000194
100
AcDbArc
 50
279.9421486627
 51
80.0578513373
  0
ARC
  5
293
330
1F
100
AcDbEntity
  8
0
  6
SLD-Solid
 62
     7
370
    15
100
AcDbCircle
 10
1297.7357740192
 20
1008.805746784
 30
0.0
 40
0.25000000000004
100
AcDbArc
 50
279.9421486626
 51
99.9421486626
  0
ARC
  5
294
330
1F
100
AcDbEntity
  8
0
  6
SLD-Solid
 62
     7
370
    15
100
AcDbCircle
 10
1298.227837157
 20
1005.9985464227
 30
0.0
 40
3.100000000000274
100
AcDbArc
 50
99.9421486627
 51
260.0578513373
  0
ARC
  5
295
330
1F
100
AcDbEntity
  8
0
  6
SLD-Solid
 62
     7
370
    15
100
AcDbCircle
 10
1297.7357740192
 20
1003.1913460614
 30
0.0
 40
0.25000000000004
100
AcDbArc
 50
260.0578513374
 51
80.0578513374
  0
ARC
  5
296
330
1F
100
AcDbEntity
  8
0
  6
SLD-Solid
 62
     7
370
    15
100
AcDbCircle
 10
1298.227837157
 20
1005.9985464227
 30
0.0
 40
2.600000000000194
100
AcDbArc
 50
99.9421486627
 51
260.0578513373
  0
LINE
  5
297
330
1F
100
AcDbEntity
  8
0
  6
SLD-Solid
 62
     7
370
    15
100
AcDbLine
 10
1275.3110259943
 20
1006.6485703328
 30
0.0
 11
1275.3110259943
 21
1004.1985214093
 31
0.0
  0
LINE
  5
298
330
1F
100
AcDbEntity
  8
0
  6
SLD-Solid
 62
     7
370
    15
100
AcDbLine
 10
1275.3110259943
 20
1004.1985214093
 30
0.0
 11
1192.6710337572
 21
1004.1985214093
 31
0.0
  0
LINE
  5
299
330
1F
100
AcDbEntity
  8
0
  6
SLD-Solid
 62
     7
370
    15
100
AcDbLine
 10
1192.6710337572
 20
1004.1985214093
 30
0.0
 11
1192.6710337572
 21
1006.6485703328
 31
0.0
  0
LINE
  5
29A
330
1F
100
AcDbEntity
  8
0
  6
SLD-Solid
 62
     7
370
    15
100
AcDbLine
 10
1295.7551807337
 20
989.2485440114
 30
0.0
 11
1295.7551807337
 21
987.1282279828
 31
0.0
  0
LINE
  5
29B
330
1F
100
AcDbEntity
  8
0
  6
SLD-Solid
 62
     7
370
    15
100
AcDbLine
 10
1275.5610376768
 20
988.3157313207
 30
0.0
 11
1275.5610376768
 21
989.2485440114
 31
0.0
  0
LINE
  5
29C
330
1F
100
AcDbEntity
  8
0
  6
SLD-Solid
 62
     7
370
    15
100
AcDbLine
 10
1310.7278376989
 20
1041.7985618451
 30
0.0
 11
1310.7278376989
 21
1039.3485725263
 31
0.0
  0
LINE
  5
29D
330
1F
100
AcDbEntity
  8
0
  6
SLD-Solid
 62
     7
370
    15
100
AcDbLine
 10
1219.4110334091
 20
1041.7985618451
 30
0.0
 11
1310.7278376989
 21
1041.7985618451
 31
0.0
  0
LINE
  5
29E
330
1F
100
AcDbEntity
  8
0
  6
SLD-Solid
 62
     7
370
    15
100
AcDbLine
 10
1219.4110334091
 20
1039.3485725263
 30
0.0
 11
1219.4110334091
 21
1041.7985618451
 31
0.0
  0
LINE
  5
29F
330
1F
100
AcDbEntity
  8
0
  6
SLD-Solid
 62
     7
370
    15
100
AcDbLine
 10
1215.7110303812
 20
1020.5985606053
 30
0.0
 11
1193.9110338859
 21
1020.5985606053
 31
0.0
  0
LINE
  5
2A0
330
1F
100
AcDbEntity
  8
0
  6
SLD-Solid
 62
     7
370
    15
100
AcDbLine
 10
1215.7110303812
 20
1021.7985213139
 30
0.0
 11
1193.9110338859
 21
1021.7985213139
 31
0.0
  0
LINE
  5
2A1
330
1F
100
AcDbEntity
  8
0
  6
SLD-Solid
 62
     7
370
    15
100
AcDbLine
 10
1192.661035078
 20
1019.3485319951
 30
0.0
 11
1192.661035078
 21
1012.7985179761
 31
0.0
  0
LINE
  5
2A2
330
1F
100
AcDbEntity
  8
0
  6
SLD-Solid
 62
     7
370
    15
100
AcDbLine
 10
1191.4610296659
 20
1019.3485319951
 30
0.0
 11
1191.4610296659
 21
1012.7985179761
 31
0.0
  0
LINE
  5
2A3
330
1F
100
AcDbEntity
  8
0
  6
SLD-Solid
 62
     7
370
    15
100
AcDbLine
 10
1218.1610346012
 20
1039.3485725263
 30
0.0
 11
1216.9610291891
 21
1039.3485725263
 31
0.0
  0
LINE
  5
2A4
330
1F
100
AcDbEntity
  8
0
  6
SLD-Solid
 62
     7
370
    15
100
AcDbLine
 10
1216.9610291891
 20
1039.3485725263
 30
0.0
 11
1216.9610291891
 21
1023.0485499242
 31
0.0
  0
LINE
  5
2A5
330
1F
100
AcDbEntity
  8
0
  6
SLD-Solid
 62
     7
370
    15
100
AcDbLine
 10
1218.1610346012
 20
1039.3485725263
 30
0.0
 11
1218.1610346012
 21
1023.0485499242
 31
0.0
  0
ARC
  5
2A6
330
1F
100
AcDbEntity
  8
0
  6
SLD-Solid
 62
     7
370
    15
100
AcDbCircle
 10
1193.9110286586
 20
1019.3485464227
 30
0.0
 40
2.450000000000159
100
AcDbArc
 50
90.0
 51
180.0
  0
ARC
  5
2A7
330
1F
100
AcDbEntity
  8
0
  6
SLD-Solid
 62
     7
370
    15
100
AcDbCircle
 10
1193.9110286586
 20
1019.3485464227
 30
0.0
 40
1.250000000000227
100
AcDbArc
 50
90.0
 51
180.0
  0
LINE
  5
2A8
330
1F
100
AcDbEntity
  8
0
  6
SLD-Solid
 62
     7
370
    15
100
AcDbLine
 10
1192.661035078
 20
1011.7985308507
 30
0.0
 11
1191.4610296659
 21
1011.7985308507
 31
0.0
  0
LINE
  5
2A9
330
1F
100
AcDbEntity
  8
0
  6
SLD-Solid
 62
     7
370
    15
100
AcDbLine
 10
1192.661035078
 20
1012.7985179761
 30
0.0
 11
1192.661035078
 21
1011.7985308507
 31
0.0
  0
LINE
  5
2AA
330
1F
100
AcDbEntity
  8
0
  6
SLD-Solid
 62
     7
370
    15
100
AcDbLine
 10
1191.4610296659
 20
1011.7985308507
 30
0.0
 11
1191.4610296659
 21
1012.7985179761
 31
0.0
  0
ARC
  5
2AB
330
1F
100
AcDbEntity
  8
0
  6
SLD-Solid
 62
     7
370
    15
100
AcDbCircle
 10
1215.7110286586
 20
1023.0485464227
 30
0.0
 40
2.450000000000045
100
AcDbArc
 50
270.0
 51
0.0
  0
ARC
  5
2AC
330
1F
100
AcDbEntity
  8
0
  6
SLD-Solid
 62
     7
370
    15
100
AcDbCircle
 10
1215.7110286586
 20
1023.0485464227
 30
0.0
 40
1.250000000000114
100
AcDbArc
 50
270.0
 51
0.0
  0
LINE
  5
2AD
330
1F
100
AcDbEntity
  8
0
  6
SLD-Solid
 62
     7
370
    15
100
AcDbLine
 10
1296.8475848608
 20
987.0559871533
 30
0.0
 11
1296.3690787725
 21
988.1564081052
 31
0.0
  0
LWPOLYLINE
  5
2AE
330
1F
100
AcDbEntity
  8
0
  6
SLD-Solid
 62
     7
370
    15
100
AcDbPolyline
 90
        9
 70
   128
 43
0.0
 10
1296.3690787725
 20
988.1564081052
 10
1296.3867217474
 20
988.1640971043
 10
1296.4389056139
 20
988.186806474
 10
1296.5236336164
 20
988.2236421445
 10
1296.6376871042
 20
988.2732332089
 10
1296.7766553335
 20
988.3336723187
 10
1296.9352036886
 20
988.4025752881
 10
1297.1072524957
 20
988.4773791173
 10
1297.286155837
 20
988.5551631787
  0
LWPOLYLINE
  5
2AF
330
1F
100
AcDbEntity
  8
0
  6
SLD-Solid
 62
     7
370
    15
100
AcDbPolyline
 90
        9
 70
   128
 43
0.0
 10
1297.7646619253
 20
987.4547422269
 10
1297.5857287817
 20
987.3768985608
 10
1297.4137097769
 20
987.3020947316
 10
1297.2551614218
 20
987.2331917622
 10
1297.1161931925
 20
987.1727526524
 10
1297.0021397047
 20
987.123161588
 10
1296.9173818998
 20
987.0863259175
 10
1296.8651980333
 20
987.0636165479
 10
1296.8475848608
 20
987.0559871533
  0
LINE
  5
2B0
330
1F
100
AcDbEntity
  8
0
  6
SLD-Solid
 62
     7
370
    15
100
AcDbLine
 10
1297.286155837
 20
988.5551631787
 30
0.0
 11
1319.540205615
 21
998.2315004208
 31
0.0
  0
LINE
  5
2B1
330
1F
100
AcDbEntity
  8
0
  6
SLD-Solid
 62
     7
370
    15
100
AcDbLine
 10
1297.7646619253
 20
987.4547422269
 30
0.0
 11
1320.018681901
 21
997.1310198644
 31
0.0
  0
ARC
  5
2B2
330
1F
100
AcDbEntity
  8
0
  6
SLD-Solid
 62
     7
370
    15
100
AcDbCircle
 10
1310.727837157
 20
1018.4985464227
 30
0.0
 40
23.30000000000016
100
AcDbArc
 50
293.5
 51
88.7703824493
  0
ARC
  5
2B3
330
1F
100
AcDbEntity
  8
0
  6
SLD-Solid
 62
     7
370
    15
100
AcDbCircle
 10
1310.727837157
 20
1018.4985464227
 30
0.0
 40
22.10000000000003
100
AcDbArc
 50
293.5
 51
88.703604783
  0
LINE
  5
2B4
330
1F
100
AcDbEntity
  8
0
  6
SLD-Solid
 62
     7
370
    15
100
AcDbLine
 10
1311.2278312616
 20
1040.5928790906
 30
0.0
 11
1311.2278312616
 21
1041.7931974271
 31
0.0
  0
ARC
  5
2B5
330
1F
100
AcDbEntity
  8
0
  6
SLD-Solid
 62
     7
370
    15
100
AcDbCircle
 10
1219.4110286586
 20
1039.3485464227
 30
0.0
 40
1.250000000000227
100
AcDbArc
 50
90.0
 51
180.0
  0
ARC
  5
2B6
330
1F
100
AcDbEntity
  8
0
  6
SLD-Solid
 62
     7
370
    15
100
AcDbCircle
 10
1219.4110286586
 20
1039.3485464227
 30
0.0
 40
2.450000000000045
100
AcDbArc
 50
90.0
 51
180.0
  0
ARC
  5
2B7
330
1F
100
AcDbEntity
  8
0
  6
SLD-Solid
 62
     7
370
    15
100
AcDbCircle
 10
1310.727837157
 20
1018.4985464227
 30
0.0
 40
23.30000000000014
100
AcDbArc
 50
88.7703824493
 51
90.0
  0
ARC
  5
2B8
330
1F
100
AcDbEntity
  8
0
  6
SLD-Solid
 62
     7
370
    15
100
AcDbCircle
 10
1310.727837157
 20
1018.4985464227
 30
0.0
 40
22.10000000000014
100
AcDbArc
 50
88.703604783
 51
90.0
  0
LINE
  5
2B9
330
1F
100
AcDbEntity
  8
0
  6
SLD-Solid
 62
     7
370
    15
100
AcDbLine
 10
1275.3110259943
 20
1832.048565183
 30
0.0
 11
1275.3110259943
 21
1829.5985758641
 31
0.0
  0
LINE
  5
2BA
330
1F
100
AcDbEntity
  8
0
  6
SLD-Solid
 62
     7
370
    15
100
AcDbLine
 10
1275.3110259943
 20
1829.5985758641
 30
0.0
 11
1192.6710337572
 21
1829.5985758641
 31
0.0
  0
LINE
  5
2BB
330
1F
100
AcDbEntity
  8
0
  6
SLD-Solid
 62
     7
370
    15
100
AcDbLine
 10
1192.6710337572
 20
1829.5985758641
 30
0.0
 11
1192.6710337572
 21
1832.048565183
 31
0.0
  0
LINE
  5
2BC
330
1F
100
AcDbEntity
  8
0
  6
SLD-Solid
 62
     7
370
    15
100
AcDbLine
 10
1192.6710337572
 20
1844.7485268453
 30
0.0
 11
1192.6710337572
 21
1832.048565183
 31
0.0
  0
ARC
  5
2BD
330
1F
100
AcDbEntity
  8
0
  6
SLD-Solid
 62
     7
370
    15
100
AcDbCircle
 10
1193.9110286589
 20
1844.7485464227
 30
0.0
 40
1.240000000000009
100
AcDbArc
 50
90.0
 51
180.0
  0
LINE
  5
2BE
330
1F
100
AcDbEntity
  8
0
  6
SLD-Solid
 62
     7
370
    15
100
AcDbLine
 10
1215.7110303812
 20
1845.9885418752
 30
0.0
 11
1193.9110338859
 21
1845.9885418752
 31
0.0
  0
ARC
  5
2BF
330
1F
100
AcDbEntity
  8
0
  6
SLD-Solid
 62
     7
370
    15
100
AcDbCircle
 10
1215.7110286589
 20
1848.4485464227
 30
0.0
 40
2.460000000000036
100
AcDbArc
 50
270.0
 51
0.0
  0
LINE
  5
2C0
330
1F
100
AcDbEntity
  8
0
  6
SLD-Solid
 62
     7
370
    15
100
AcDbLine
 10
1218.1710332804
 20
1864.6985590794
 30
0.0
 11
1218.1710332804
 21
1848.4485447743
 31
0.0
  0
LINE
  5
2C1
330
1F
100
AcDbEntity
  8
0
  6
SLD-Solid
 62
     7
370
    15
100
AcDbLine
 10
1219.4110334091
 20
1864.6985590794
 30
0.0
 11
1218.1710332804
 21
1864.6985590794
 31
0.0
  0
LINE
  5
2C2
330
1F
100
AcDbEntity
  8
0
  6
SLD-Solid
 62
     7
370
    15
100
AcDbLine
 10
1219.4110334091
 20
1864.7485077718
 30
0.0
 11
1219.4110334091
 21
1864.6985590794
 31
0.0
  0
LINE
  5
2C3
330
1F
100
AcDbEntity
  8
0
  6
SLD-Solid
 62
     7
370
    15
100
AcDbLine
 10
1310.7278376989
 20
1864.6985590794
 30
0.0
 11
1310.7278376989
 21
1864.7485077718
 31
0.0
  0
LINE
  5
2C4
330
1F
100
AcDbEntity
  8
0
  6
SLD-Solid
 62
     7
370
    15
100
AcDbLine
 10
1311.2278312616
 20
1864.6985590794
 30
0.0
 11
1310.7278376989
 21
1864.6985590794
 31
0.0
  0
LINE
  5
2C5
330
1F
100
AcDbEntity
  8
0
  6
SLD-Solid
 62
     7
370
    15
100
AcDbLine
 10
1311.2278312616
 20
1865.8929169515
 30
0.0
 11
1311.2278312616
 21
1864.6985590794
 31
0.0
  0
ARC
  5
2C6
330
1F
100
AcDbEntity
  8
0
  6
SLD-Solid
 62
     7
370
    15
100
AcDbCircle
 10
1310.7278371573
 20
1843.8985464227
 30
0.0
 40
22.00000000000032
100
AcDbArc
 50
293.5
 51
88.6977110648
  0
LINE
  5
2C7
330
1F
100
AcDbEntity
  8
0
  6
SLD-Solid
 62
     7
370
    15
100
AcDbLine
 10
1296.0051924162
 20
1813.5072291234
 30
0.0
 11
1319.5003301077
 21
1823.7232268193
 31
0.0
  0
LINE
  5
2C8
330
1F
100
AcDbEntity
  8
0
  6
SLD-Solid
 62
     7
370
    15
100
AcDbLine
 10
1296.0051924162
 20
1813.5072291234
 30
0.0
 11
1296.0051924162
 21
1814.6485388615
 31
0.0
  0
ARC
  5
2C9
330
1F
100
AcDbEntity
  8
0
  6
SLD-Solid
 62
     7
370
    15
100
AcDbCircle
 10
1295.8801820867
 20
1814.6485464227
 30
0.0
 40
0.125
100
AcDbArc
 50
0.0
 51
180.0
  0
LINE
  5
2CA
330
1F
100
AcDbEntity
  8
0
  6
SLD-Solid
 62
     7
370
    15
100
AcDbLine
 10
1275.5610376768
 20
1832.0985138753
 30
0.0
 11
1275.5610376768
 21
1814.6485388615
 31
0.0
  0
LINE
  5
2CB
330
1F
100
AcDbEntity
  8
0
  6
SLD-Solid
 62
     7
370
    15
100
AcDbLine
 10
1275.550606864
 20
1832.0985138753
 30
0.0
 11
1275.5610376768
 21
1832.0985138753
 31
0.0
  0
ARC
  5
2CC
330
1F
100
AcDbEntity
  8
0
  6
SLD-Solid
 62
     7
370
    15
100
AcDbCircle
 10
1275.4360286589
 20
1832.0485464227
 30
0.0
 40
0.1250000000001486
100
AcDbArc
 50
23.578178478
 51
156.4218215219
  0
LINE
  5
2CD
330
1F
100
AcDbEntity
  8
0
  6
SLD-Solid
 62
     7
370
    15
100
AcDbLine
 10
1275.3110259943
 20
1832.0985138753
 30
0.0
 11
1275.3214568071
 21
1832.0985138753
 31
0.0
  0
LINE
  5
2CE
330
1F
100
AcDbEntity
  8
0
  6
SLD-Solid
 62
     7
370
    15
100
AcDbLine
 10
1275.3110259943
 20
1832.048565183
 30
0.0
 11
1275.3110259943
 21
1832.0985138753
 31
0.0
  0
ARC
  5
2CF
330
1F
100
AcDbEntity
  8
0
  6
SLD-Solid
 62
     7
370
    15
100
AcDbCircle
 10
1298.7199002951
 20
1828.5913460614
 30
0.0
 40
0.250000000000152
100
AcDbArc
 50
99.9421486626
 51
279.9421486626
  0
ARC
  5
2D0
330
1F
100
AcDbEntity
  8
0
  6
SLD-Solid
 62
     7
370
    15
100
AcDbCircle
 10
1298.2278371573
 20
1831.3985464227
 30
0.0
 40
3.100000000000458
100
AcDbArc
 50
279.9421486627
 51
80.0578513373
  0
ARC
  5
2D1
330
1F
100
AcDbEntity
  8
0
  6
SLD-Solid
 62
     7
370
    15
100
AcDbCircle
 10
1298.7199002951
 20
1834.205746784
 30
0.0
 40
0.250000000000152
100
AcDbArc
 50
80.0578513374
 51
260.0578513374
  0
ARC
  5
2D2
330
1F
100
AcDbEntity
  8
0
  6
SLD-Solid
 62
     7
370
    15
100
AcDbCircle
 10
1298.2278371573
 20
1831.3985464227
 30
0.0
 40
2.600000000000378
100
AcDbArc
 50
279.9421486627
 51
80.0578513373
  0
ARC
  5
2D3
330
1F
100
AcDbEntity
  8
0
  6
SLD-Solid
 62
     7
370
    15
100
AcDbCircle
 10
1297.7357740195
 20
1834.205746784
 30
0.0
 40
0.2500000000001912
100
AcDbArc
 50
279.9421486626
 51
99.9421486627
  0
ARC
  5
2D4
330
1F
100
AcDbEntity
  8
0
  6
SLD-Solid
 62
     7
370
    15
100
AcDbCircle
 10
1298.2278371573
 20
1831.3985464227
 30
0.0
 40
3.100000000000537
100
AcDbArc
 50
99.9421486627
 51
260.0578513373
  0
ARC
  5
2D5
330
1F
100
AcDbEntity
  8
0
  6
SLD-Solid
 62
     7
370
    15
100
AcDbCircle
 10
1297.7357740195
 20
1828.5913460614
 30
0.0
 40
0.2500000000001912
100
AcDbArc
 50
260.0578513373
 51
80.0578513374
  0
ARC
  5
2D6
330
1F
100
AcDbEntity
  8
0
  6
SLD-Solid
 62
     7
370
    15
100
AcDbCircle
 10
1298.2278371573
 20
1831.3985464227
 30
0.0
 40
2.600000000000418
100
AcDbArc
 50
99.9421486627
 51
260.0578513373
  0
LINE
  5
2D7
330
1F
100
AcDbEntity
  8
0
  6
SLD-Solid
 62
     7
370
    15
100
AcDbLine
 10
1295.7551807337
 20
1814.6485388615
 30
0.0
 11
1295.7551807337
 21
1812.5282824376
 31
0.0
  0
LINE
  5
2D8
330
1F
100
AcDbEntity
  8
0
  6
SLD-Solid
 62
     7
370
    15
100
AcDbLine
 10
1275.5610376768
 20
1813.7157261708
 30
0.0
 11
1275.5610376768
 21
1814.6485388615
 31
0.0
  0
LINE
  5
2D9
330
1F
100
AcDbEntity
  8
0
  6
SLD-Solid
 62
     7
370
    15
100
AcDbLine
 10
1310.7278376989
 20
1867.1984970906
 30
0.0
 11
1310.7278376989
 21
1864.7485077718
 31
0.0
  0
LINE
  5
2DA
330
1F
100
AcDbEntity
  8
0
  6
SLD-Solid
 62
     7
370
    15
100
AcDbLine
 10
1219.4110334091
 20
1867.1984970906
 30
0.0
 11
1310.7278376989
 21
1867.1984970906
 31
0.0
  0
LINE
  5
2DB
330
1F
100
AcDbEntity
  8
0
  6
SLD-Solid
 62
     7
370
    15
100
AcDbLine
 10
1219.4110334091
 20
1864.7485077718
 30
0.0
 11
1219.4110334091
 21
1867.1984970906
 31
0.0
  0
ARC
  5
2DC
330
1F
100
AcDbEntity
  8
0
  6
SLD-Solid
 62
     7
370
    15
100
AcDbCircle
 10
1193.9110286589
 20
1844.7485464227
 30
0.0
 40
1.25
100
AcDbArc
 50
90.0
 51
180.0
  0
ARC
  5
2DD
330
1F
100
AcDbEntity
  8
0
  6
SLD-Solid
 62
     7
370
    15
100
AcDbCircle
 10
1193.9110286589
 20
1844.7485464227
 30
0.0
 40
2.450000000000045
100
AcDbArc
 50
90.0
 51
180.0
  0
LINE
  5
2DE
330
1F
100
AcDbEntity
  8
0
  6
SLD-Solid
 62
     7
370
    15
100
AcDbLine
 10
1192.661035078
 20
1844.7485268453
 30
0.0
 11
1192.661035078
 21
1838.1985724309
 31
0.0
  0
LINE
  5
2DF
330
1F
100
AcDbEntity
  8
0
  6
SLD-Solid
 62
     7
370
    15
100
AcDbLine
 10
1191.4610296659
 20
1844.7485268453
 30
0.0
 11
1191.4610296659
 21
1838.1985724309
 31
0.0
  0
LINE
  5
2E0
330
1F
100
AcDbEntity
  8
0
  6
SLD-Solid
 62
     7
370
    15
100
AcDbLine
 10
1192.661035078
 20
1837.1985257008
 30
0.0
 11
1191.4610296659
 21
1837.1985257008
 31
0.0
  0
LINE
  5
2E1
330
1F
100
AcDbEntity
  8
0
  6
SLD-Solid
 62
     7
370
    15
100
AcDbLine
 10
1191.4610296659
 20
1837.1985257008
 30
0.0
 11
1191.4610296659
 21
1838.1985724309
 31
0.0
  0
LINE
  5
2E2
330
1F
100
AcDbEntity
  8
0
  6
SLD-Solid
 62
     7
370
    15
100
AcDbLine
 10
1192.661035078
 20
1838.1985724309
 30
0.0
 11
1192.661035078
 21
1837.1985257008
 31
0.0
  0
LINE
  5
2E3
330
1F
100
AcDbEntity
  8
0
  6
SLD-Solid
 62
     7
370
    15
100
AcDbLine
 10
1215.7110303812
 20
1847.1985161641
 30
0.0
 11
1193.9110338859
 21
1847.1985161641
 31
0.0
  0
LINE
  5
2E4
330
1F
100
AcDbEntity
  8
0
  6
SLD-Solid
 62
     7
370
    15
100
AcDbLine
 10
1215.7110303812
 20
1845.9985554555
 30
0.0
 11
1193.9110338859
 21
1845.9985554555
 31
0.0
  0
LINE
  5
2E5
330
1F
100
AcDbEntity
  8
0
  6
SLD-Solid
 62
     7
370
    15
100
AcDbLine
 10
1218.1610346012
 20
1864.7485077718
 30
0.0
 11
1216.9610291891
 21
1864.7485077718
 31
0.0
  0
LINE
  5
2E6
330
1F
100
AcDbEntity
  8
0
  6
SLD-Solid
 62
     7
370
    15
100
AcDbLine
 10
1218.1610346012
 20
1864.7485077718
 30
0.0
 11
1218.1610346012
 21
1848.4485447743
 31
0.0
  0
LINE
  5
2E7
330
1F
100
AcDbEntity
  8
0
  6
SLD-Solid
 62
     7
370
    15
100
AcDbLine
 10
1216.9610291891
 20
1864.7485077718
 30
0.0
 11
1216.9610291891
 21
1848.4485447743
 31
0.0
  0
ARC
  5
2E8
330
1F
100
AcDbEntity
  8
0
  6
SLD-Solid
 62
     7
370
    15
100
AcDbCircle
 10
1215.7110286589
 20
1848.4485464227
 30
0.0
 40
2.450000000000045
100
AcDbArc
 50
270.0
 51
0.0
  0
ARC
  5
2E9
330
1F
100
AcDbEntity
  8
0
  6
SLD-Solid
 62
     7
370
    15
100
AcDbCircle
 10
1215.7110286589
 20
1848.4485464227
 30
0.0
 40
1.25
100
AcDbArc
 50
270.0
 51
0.0
  0
LINE
  5
2EA
330
1F
100
AcDbEntity
  8
0
  6
SLD-Solid
 62
     7
370
    15
100
AcDbLine
 10
1296.8475848608
 20
1812.4559223988
 30
0.0
 11
1296.3690787725
 21
1813.55646256
 31
0.0
  0
LWPOLYLINE
  5
2EB
330
1F
100
AcDbEntity
  8
0
  6
SLD-Solid
 62
     7
370
    15
100
AcDbPolyline
 90
        9
 70
   128
 43
0.0
 10
1297.7646619253
 20
1812.8546774724
 10
1297.5857287817
 20
1812.7769530156
 10
1297.4137097769
 20
1812.7020895818
 10
1297.2551614218
 20
1812.6331866124
 10
1297.1161931925
 20
1812.5727475026
 10
1297.0021397047
 20
1812.5231564381
 10
1296.9173818998
 20
1812.4863207677
 10
1296.8651980333
 20
1812.4636710027
 10
1296.8475848608
 20
1812.4559223988
  0
LWPOLYLINE
  5
2EC
330
1F
100
AcDbEntity
  8
0
  6
SLD-Solid
 62
     7
370
    15
100
AcDbPolyline
 90
        9
 70
   128
 43
0.0
 10
1296.3690787725
 20
1813.55646256
 10
1296.3867217474
 20
1813.5640919545
 10
1296.4389056139
 20
1813.5867417195
 10
1296.5236336164
 20
1813.6236965993
 10
1296.6376871042
 20
1813.6731684544
 10
1296.7766553335
 20
1813.7336075642
 10
1296.9352036886
 20
1813.8026297429
 10
1297.1072524957
 20
1813.8773739674
 10
1297.286155837
 20
1813.9552176335
  0
LINE
  5
2ED
330
1F
100
AcDbEntity
  8
0
  6
SLD-Solid
 62
     7
370
    15
100
AcDbLine
 10
1297.7646619253
 20
1812.8546774724
 30
0.0
 11
1320.018681901
 21
1822.5310147145
 31
0.0
  0
LINE
  5
2EE
330
1F
100
AcDbEntity
  8
0
  6
SLD-Solid
 62
     7
370
    15
100
AcDbLine
 10
1297.286155837
 20
1813.9552176335
 30
0.0
 11
1319.540205615
 21
1823.6315548756
 31
0.0
  0
ARC
  5
2EF
330
1F
100
AcDbEntity
  8
0
  6
SLD-Solid
 62
     7
370
    15
100
AcDbCircle
 10
1310.7278371573
 20
1843.8985464227
 30
0.0
 40
22.1
100
AcDbArc
 50
293.5
 51
88.703604783
  0
ARC
  5
2F0
330
1F
100
AcDbEntity
  8
0
  6
SLD-Solid
 62
     7
370
    15
100
AcDbCircle
 10
1310.7278371573
 20
1843.8985464227
 30
0.0
 40
23.2999999999999
100
AcDbArc
 50
293.5
 51
88.7703824493
  0
LINE
  5
2F1
330
1F
100
AcDbEntity
  8
0
  6
SLD-Solid
 62
     7
370
    15
100
AcDbLine
 10
1311.2278312616
 20
1865.9929335454
 30
0.0
 11
1311.2278312616
 21
1867.1931326726
 31
0.0
  0
ARC
  5
2F2
330
1F
100
AcDbEntity
  8
0
  6
SLD-Solid
 62
     7
370
    15
100
AcDbCircle
 10
1219.4110286589
 20
1864.7485464227
 30
0.0
 40
2.450000000000045
100
AcDbArc
 50
90.0
 51
180.0
  0
ARC
  5
2F3
330
1F
100
AcDbEntity
  8
0
  6
SLD-Solid
 62
     7
370
    15
100
AcDbCircle
 10
1219.4110286589
 20
1864.7485464227
 30
0.0
 40
1.249999999999773
100
AcDbArc
 50
90.0
 51
180.0
  0
ARC
  5
2F4
330
1F
100
AcDbEntity
  8
0
  6
SLD-Solid
 62
     7
370
    15
100
AcDbCircle
 10
1310.7278371573
 20
1843.8985464227
 30
0.0
 40
22.1
100
AcDbArc
 50
88.703604783
 51
90.0
  0
ARC
  5
2F5
330
1F
100
AcDbEntity
  8
0
  6
SLD-Solid
 62
     7
370
    15
100
AcDbCircle
 10
1310.7278371573
 20
1843.8985464227
 30
0.0
 40
23.30000000000018
100
AcDbArc
 50
88.7703824493
 51
90.0
  0
LWPOLYLINE
  5
2F6
330
1F
100
AcDbEntity
  8
0
  6
SLD-Solid
 62
     7
370
    15
100
AcDbPolyline
 90
       31
 70
   128
 43
0.0
 10
1329.2603522711
 20
1746.2259829381
 10
1329.2053371839
 20
1746.3952601292
 10
1329.040887969
 20
1746.9014227727
 10
1328.7687927656
 20
1747.7387488225
 10
1328.3920616083
 20
1748.8982975819
 10
1327.9148370199
 20
1750.3670752385
 10
1327.3422748022
 20
1752.1291077474
 10
1326.6807228498
 20
1754.1652024129
 10
1325.9373933248
 20
1756.4529478886
 10
1325.1204520635
 20
1758.9673102239
 10
1324.2388099603
 20
1761.6806328633
 10
1323.30215277
 20
1764.5633519032
 10
1322.3207622938
 20
1767.5838768819
 10
1321.3053673677
 20
1770.7089484074
 10
1320.2670842581
 20
1773.9044726231
 10
1319.217297452
 20
1777.1352827886
 10
1318.1675106458
 20
1780.3662121632
 10
1317.1292275362
 20
1783.5617363789
 10
1316.1138028078
 20
1786.6868079045
 10
1315.1324123316
 20
1789.7073328832
 10
1314.1957551412
 20
1792.5900519231
 10
1313.3141428404
 20
1795.3033745625
 10
1312.4971717767
 20
1797.8177368977
 10
1311.7538422518
 20
1800.1054823735
 10
1311.0922902994
 20
1802.1414578297
 10
1310.519757884
 20
1803.9036095479
 10
1310.0425034933
 20
1805.3723872044
 10
1309.665772336
 20
1806.5318167546
 10
1309.3937069349
 20
1807.3692620137
 10
1309.22925772
 20
1807.8753054479
 10
1309.1742426328
 20
1808.0447018483
  0
LWPOLYLINE
  5
2F7
330
1F
100
AcDbEntity
  8
0
  6
SLD-Solid
 62
     7
370
    15
100
AcDbPolyline
 90
        6
 70
   128
 43
0.0
 10
1321.4042216711
 20
1802.765280042
 10
1320.8801776342
 20
1804.3781817296
 10
1320.4648822717
 20
1805.6563437322
 10
1320.1640576296
 20
1806.5821230748
 10
1319.9818760328
 20
1807.1428835729
 10
1319.9208706789
 20
1807.3306382039
  0
LWPOLYLINE
  5
2F8
330
1F
100
AcDbEntity
  8
0
  6
SLD-Solid
 62
     7
370
    15
100
AcDbPolyline
 90
        6
 70
   128
 43
0.0
 10
1337.5348478727
 20
1753.12033299
 10
1337.4738425188
 20
1753.3082068303
 10
1337.291660922
 20
1753.8688481191
 10
1336.9908362798
 20
1754.794746671
 10
1336.5755111151
 20
1756.0729086736
 10
1336.0514968805
 20
1757.6856911519
  0
LWPOLYLINE
  5
2F9
330
1F
100
AcDbEntity
  8
0
  6
SLD-Solid
 62
     7
370
    15
100
AcDbPolyline
 90
        7
 70
   128
 43
0.0
 10
1331.9172591142
 20
1753.9793551305
 10
1331.898751872
 20
1754.1131079533
 10
1331.9302529268
 20
1754.2761862615
 10
1332.0127755575
 20
1754.4516623357
 10
1332.1470648222
 20
1754.6413243153
 10
1332.4780196123
 20
1754.9778521397
 10
1332.8443497591
 20
1755.2721798756
  0
LINE
  5
2FA
330
1F
100
AcDbEntity
  8
0
  6
SLD-Solid
 62
     7
370
    15
100
AcDbLine
 10
1331.9665223531
 20
1753.8905442098
 30
0.0
 11
1331.9172591142
 21
1753.9793551305
 31
0.0
  0
LWPOLYLINE
  5
2FB
330
1F
100
AcDbEntity
  8
0
  6
SLD-Solid
 62
     7
370
    15
100
AcDbPolyline
 90
        7
 70
   128
 43
0.0
 10
1332.8443497591
 20
1755.2721798756
 10
1333.2196802072
 20
1755.5342018941
 10
1333.597931283
 20
1755.7316124776
 10
1333.7784141474
 20
1755.7829916814
 10
1333.9279323988
 20
1755.7817995885
 10
1334.0337306432
 20
1755.7220757344
 10
1334.0357572012
 20
1755.7184994557
  0
LINE
  5
2FC
330
1F
100
AcDbEntity
  8
0
  6
SLD-Solid
 62
     7
370
    15
100
AcDbLine
 10
1332.3702544145
 20
1752.8382838109
 30
0.0
 11
1332.1858078413
 21
1753.3859312871
 31
0.0
  0
LWPOLYLINE
  5
2FD
330
1F
100
AcDbEntity
  8
0
  6
SLD-Solid
 62
     7
370
    15
100
AcDbPolyline
 90
        4
 70
   128
 43
0.0
 10
1333.3929807119
 20
1753.8471520284
 10
1333.4162265234
 20
1753.8149655202
 10
1333.4563404493
 20
1753.7993491032
 10
1333.5668176584
 20
1753.8070977071
  0
ARC
  5
2FE
330
1F
100
AcDbEntity
  8
0
  6
SLD-Solid
 62
     7
370
    15
100
AcDbCircle
 10
1333.6589650227
 20
1754.3285631238
 30
0.0
 40
0.3958912905745287
100
AcDbArc
 50
309.9905215354
 51
1.7019007734
  0
LINE
  5
2FF
330
1F
100
AcDbEntity
  8
0
  6
SLD-Solid
 62
     7
370
    15
100
AcDbLine
 10
1333.9835733347
 20
1753.8011372426
 30
0.0
 11
1333.9133888654
 21
1754.0252507069
 31
0.0
  0
LWPOLYLINE
  5
300
330
1F
100
AcDbEntity
  8
0
  6
SLD-Solid
 62
     7
370
    15
100
AcDbPolyline
 90
        6
 70
   128
 43
0.0
 10
1333.5699469023
 20
1754.4718087056
 10
1333.8520854883
 20
1754.6519339421
 10
1333.9864939623
 20
1754.7082007268
 10
1334.1135710649
 20
1754.7402680257
 10
1334.3148857527
 20
1754.7287047246
 10
1334.3658775263
 20
1754.6721995213
  0
ARC
  5
301
330
1F
100
AcDbEntity
  8
0
  6
SLD-Solid
 62
     7
370
    15
100
AcDbCircle
 10
1334.0860701243
 20
1753.5396785035
 30
0.0
 40
1.065481062199714
100
AcDbArc
 50
118.9734274072
 51
177.9721195019
  0
LINE
  5
302
330
1F
100
AcDbEntity
  8
0
  6
SLD-Solid
 62
     7
370
    15
100
AcDbLine
 10
1333.065095561
 20
1753.5174191335
 30
0.0
 11
1333.0212563448
 21
1753.5773814061
 31
0.0
  0
LINE
  5
303
330
1F
100
AcDbEntity
  8
0
  6
SLD-Solid
 62
     7
370
    15
100
AcDbLine
 10
1332.6762050562
 20
1753.2773316243
 30
0.0
 11
1333.065095561
 21
1753.5174191335
 31
0.0
  0
LINE
  5
304
330
1F
100
AcDbEntity
  8
0
  6
SLD-Solid
 62
     7
370
    15
100
AcDbLine
 10
1332.1858078413
 20
1753.3859312871
 30
0.0
 11
1332.5447768144
 21
1753.662139211
 31
0.0
  0
LINE
  5
305
330
1F
100
AcDbEntity
  8
0
  6
SLD-Solid
 62
     7
370
    15
100
AcDbLine
 10
1332.6390415602
 20
1751.9687712529
 30
0.0
 11
1332.5441509657
 21
1752.2547543385
 31
0.0
  0
LINE
  5
306
330
1F
100
AcDbEntity
  8
0
  6
SLD-Solid
 62
     7
370
    15
100
AcDbLine
 10
1332.5441509657
 20
1752.2547543385
 30
0.0
 11
1334.5951169901
 21
1753.867179189
 31
0.0
  0
LWPOLYLINE
  5
307
330
1F
100
AcDbEntity
  8
0
  6
SLD-Solid
 62
     7
370
    15
100
AcDbPolyline
 90
        7
 70
   128
 43
0.0
 10
1327.4163335733
 20
1767.8538859227
 10
1327.3708552294
 20
1768.0725157597
 10
1327.380898612
 20
1768.3033049443
 10
1327.449950593
 20
1768.5203850606
 10
1327.578726428
 20
1768.7267363408
 10
1327.9187113218
 20
1769.0350115636
 10
1328.3069759779
 20
1769.2592442372
  0
ARC
  5
308
330
1F
100
AcDbEntity
  8
0
  6
SLD-Solid
 62
     7
370
    15
100
AcDbCircle
 10
1328.0350202768
 20
1768.0186877358
 30
0.0
 40
0.6402600055115406
100
AcDbArc
 50
194.9157400876
 51
242.5791179543
  0
ARC
  5
309
330
1F
100
AcDbEntity
  8
0
  6
SLD-Solid
 62
     7
370
    15
100
AcDbCircle
 10
1329.0028998059
 20
1768.3723509556
 30
0.0
 40
1.127337423915538
100
AcDbArc
 50
63.0365485491
 51
128.120424162
  0
LWPOLYLINE
  5
30A
330
1F
100
AcDbEntity
  8
0
  6
SLD-Solid
 62
     7
370
    15
100
AcDbPolyline
 90
        7
 70
   128
 43
0.0
 10
1328.4136384897
 20
1766.2031948903
 10
1328.4429937773
 20
1766.1375105718
 10
1328.4867435865
 20
1766.0826742986
 10
1328.5418182783
 20
1766.0444081166
 10
1328.6077410154
 20
1766.0214007237
 10
1328.7490934305
 20
1766.0218775609
 10
1328.8907140665
 20
1766.0720646718
  0
LINE
  5
30B
330
1F
100
AcDbEntity
  8
0
  6
SLD-Solid
 62
     7
370
    15
100
AcDbLine
 10
1329.6353548937
 20
1767.7370608189
 30
0.0
 11
1330.021145957
 21
1767.9411471227
 31
0.0
  0
LINE
  5
30C
330
1F
100
AcDbEntity
  8
0
  6
SLD-Solid
 62
     7
370
    15
100
AcDbLine
 10
1329.9009233885
 20
1766.9319212773
 30
0.0
 11
1329.6353548937
 21
1767.7370608189
 31
0.0
  0
LINE
  5
30D
330
1F
100
AcDbEntity
  8
0
  6
SLD-Solid
 62
     7
370
    15
100
AcDbLine
 10
1329.5592397623
 20
1767.0471966603
 30
0.0
 11
1329.9009233885
 21
1766.9319212773
 31
0.0
  0
ARC
  5
30E
330
1F
100
AcDbEntity
  8
0
  6
SLD-Solid
 62
     7
370
    15
100
AcDbCircle
 10
1328.9610294712
 20
1765.8463984891
 30
0.0
 40
1.341555738799431
100
AcDbArc
 50
63.5185599458
 51
113.3510873423
  0
ARC
  5
30F
330
1F
100
AcDbEntity
  8
0
  6
SLD-Solid
 62
     7
370
    15
100
AcDbCircle
 10
1328.8666147424
 20
1766.2971190628
 30
0.0
 40
0.8950669469380043
100
AcDbArc
 50
119.2486288179
 51
197.7649068158
  0
ARC
  5
310
330
1F
100
AcDbEntity
  8
0
  6
SLD-Solid
 62
     7
370
    15
100
AcDbCircle
 10
1328.6223063198
 20
1766.1705533794
 30
0.0
 40
0.6254842800985313
100
AcDbArc
 50
193.5483930167
 51
249.8939533669
  0
LINE
  5
311
330
1F
100
AcDbEntity
  8
0
  6
SLD-Solid
 62
     7
370
    15
100
AcDbLine
 10
1328.7740677767
 20
1763.8850510457
 30
0.0
 11
1328.5743028097
 21
1764.5024359563
 31
0.0
  0
LINE
  5
312
330
1F
100
AcDbEntity
  8
0
  6
SLD-Solid
 62
     7
370
    15
100
AcDbLine
 10
1328.5743028097
 20
1764.5024359563
 30
0.0
 11
1330.7468921118
 21
1765.7188475469
 31
0.0
  0
LWPOLYLINE
  5
313
330
1F
100
AcDbEntity
  8
0
  6
SLD-Solid
 62
     7
370
    15
100
AcDbPolyline
 90
       10
 70
   128
 43
0.0
 10
1311.668905633
 20
1807.8788817265
 10
1311.668816226
 20
1807.8788817265
 10
1311.8581503801
 20
1807.8527748921
 10
1312.3968273573
 20
1807.7841103413
 10
1313.2037550382
 20
1807.6968491414
 10
1314.1570717268
 20
1807.6187670567
 10
1315.1121765547
 20
1807.568222318
 10
1315.9235447817
 20
1807.5477183202
 10
1316.46621527
 20
1807.5458109715
 10
1316.6577249937
 20
1807.5474799016
  0
LWPOLYLINE
  5
314
330
1F
100
AcDbEntity
  8
0
  6
SLD-Solid
 62
     7
370
    15
100
AcDbPolyline
 90
       10
 70
   128
 43
0.0
 10
1326.7732888632
 20
1766.3246691563
 10
1326.6229361467
 20
1766.4165795186
 10
1326.1173695497
 20
1766.464501653
 10
1325.6085246973
 20
1766.2908137181
 10
1325.1738280229
 20
1765.9242451527
 10
1324.8797387056
 20
1765.4189169743
 10
1324.7667879038
 20
1764.854341779
 10
1324.8511582784
 20
1764.3171847203
 10
1325.1190215521
 20
1763.890534673
 10
1325.3356248312
 20
1763.7569010594
  0
LWPOLYLINE
  5
315
330
1F
100
AcDbEntity
  8
0
  6
SLD-Solid
 62
     7
370
    15
100
AcDbPolyline
 90
       12
 70
   128
 43
0.0
 10
1331.2569588594
 20
1751.571923528
 10
1331.5285474233
 20
1751.9953549245
 10
1331.6346138887
 20
1752.3654997685
 10
1331.5516144209
 20
1752.6269257405
 10
1331.2942117624
 20
1752.7404129842
 10
1330.9045165949
 20
1752.687245641
 10
1330.4446667604
 20
1752.4699271062
 10
1329.9869924955
 20
1752.1208823064
 10
1329.6016782694
 20
1751.691728864
 10
1329.3439775877
 20
1751.2513697484
 10
1329.250636714
 20
1750.8699000218
 10
1329.3334275656
 20
1750.6091893056
  0
LWPOLYLINE
  5
316
330
1F
100
AcDbEntity
  8
0
  6
SLD-Solid
 62
     7
370
    15
100
AcDbPolyline
 90
        9
 70
   128
 43
0.0
 10
1328.3209830694
 20
1760.1443827489
 10
1328.1827300958
 20
1760.2279484609
 10
1327.9475301676
 20
1760.2398693898
 10
1327.6989787988
 20
1760.149389539
 10
1327.4752229624
 20
1759.969860349
 10
1327.310177701
 20
1759.7289383748
 10
1327.2282511167
 20
1759.4636977055
 10
1327.2412449293
 20
1759.2152655461
 10
1327.3468941622
 20
1759.0214312413
  0
LWPOLYLINE
  5
317
330
1F
100
AcDbEntity
  8
0
  6
SLD-Solid
 62
     7
370
    15
100
AcDbPolyline
 90
        9
 70
   128
 43
0.0
 10
1329.8204273157
 20
1755.6672394612
 10
1329.6758264475
 20
1755.7474673131
 10
1329.4598192148
 20
1755.7424605229
 10
1329.2195528917
 20
1755.6445896962
 10
1328.9921015672
 20
1755.468279157
 10
1328.8119763307
 20
1755.2407086232
 10
1328.70596947
 20
1754.9969256261
 10
1328.6893993788
 20
1754.7748387196
 10
1328.7643820219
 20
1754.6087801793
  0
LWPOLYLINE
  5
318
330
1F
100
AcDbEntity
  8
0
  6
SLD-Solid
 62
     7
370
    15
100
AcDbPolyline
 90
       12
 70
   128
 43
0.0
 10
1331.574741023
 20
1749.2094338277
 10
1331.7352563314
 20
1749.3937313893
 10
1331.8212062292
 20
1749.5400011876
 10
1331.8187028341
 20
1749.6266663411
 10
1331.7280143671
 20
1749.6408522466
 10
1331.5634161405
 20
1749.579697881
 10
1331.3508957796
 20
1749.4515478948
 10
1331.1234444551
 20
1749.2751181462
 10
1330.915901082
 20
1749.076992307
 10
1330.7593196802
 20
1748.888045583
 10
1330.6766778402
 20
1748.7379610875
 10
1330.679896491
 20
1748.650461469
  0
LWPOLYLINE
  5
319
330
1F
100
AcDbEntity
  8
0
  6
SLD-Solid
 62
     7
370
    15
100
AcDbPolyline
 90
        3
 70
   128
 43
0.0
 10
1331.7997485571
 20
1748.372584615
 10
1331.9809764795
 20
1748.5322058537
 10
1332.0964902811
 20
1748.6433089116
  0
LWPOLYLINE
  5
31A
330
1F
100
AcDbEntity
  8
0
  6
SLD-Solid
 62
     7
370
    15
100
AcDbPolyline
 90
       10
 70
   128
 43
0.0
 10
1332.1269184522
 20
1748.688370023
 10
1332.1278423242
 20
1748.6896813252
 10
1332.0700258188
 20
1748.6647665837
 10
1331.9322198801
 20
1748.5719025472
 10
1331.7362696104
 20
1748.4240830281
 10
1331.5128117971
 20
1748.2430041173
 10
1331.2960893087
 20
1748.0557263234
 10
1331.1187058859
 20
1747.8914559224
 10
1331.0068577699
 20
1747.7760613301
 10
1330.9767872267
 20
1747.7280199864
  0
LWPOLYLINE
  5
31B
330
1F
100
AcDbEntity
  8
0
  6
SLD-Solid
 62
     7
370
    15
100
AcDbPolyline
 90
       17
 70
   128
 43
0.0
 10
1327.2812098436
 20
1764.6309435704
 10
1327.4026841097
 20
1765.1882469991
 10
1327.3241847925
 20
1765.7256424764
 10
1327.0503014498
 20
1766.1559880116
 10
1326.6269892626
 20
1766.4144337514
 10
1326.1209756307
 20
1766.4619982579
 10
1325.6120711736
 20
1766.2879526952
 10
1325.1774043016
 20
1765.9205496648
 10
1324.8836428098
 20
1765.4143870213
 10
1324.7714668684
 20
1764.8495734074
 10
1324.856850522
 20
1764.3120587209
 10
1325.1256078653
 20
1763.88600472
 10
1325.5374759607
 20
1763.6332810262
 10
1326.0326713495
 20
1763.5934651235
 10
1326.5382379465
 20
1763.7701332906
 10
1326.978030818
 20
1764.138370786
 10
1327.2812098436
 20
1764.6309435704
  0
LWPOLYLINE
  5
31C
330
1F
100
AcDbEntity
  8
0
  6
SLD-Solid
 62
     7
370
    15
100
AcDbPolyline
 90
       17
 70
   128
 43
0.0
 10
1321.9710618429
 20
1801.0207712987
 10
1322.6137489252
 20
1799.0427315572
 10
1323.3344584875
 20
1796.8246043065
 10
1324.1239518099
 20
1794.3947613576
 10
1324.972215312
 20
1791.7841971257
 10
1325.8683711462
 20
1789.0260517934
 10
1326.8010348253
 20
1786.1557305196
 10
1327.7582556181
 20
1783.2095921376
 10
1328.7278443746
 20
1780.2255452016
 10
1329.6974629335
 20
1777.2413790563
 10
1330.6546837263
 20
1774.2953598836
 10
1331.5873176031
 20
1771.4249194005
 10
1332.4835032396
 20
1768.6667740682
 10
1333.3317369394
 20
1766.0562098363
 10
1334.1212600641
 20
1763.6263668874
 10
1334.8419398241
 20
1761.4082396367
 10
1335.4846269064
 20
1759.4303191045
  0
LWPOLYLINE
  5
31D
330
1F
100
AcDbEntity
  8
0
  6
SLD-Solid
 62
     7
370
    15
100
AcDbPolyline
 90
        3
 70
   128
 43
0.0
 10
1327.4209529333
 20
1767.8517401555
 10
1327.4186581545
 20
1767.8528130391
 10
1327.4163335733
 20
1767.8538859227
  0
LWPOLYLINE
  5
31E
330
1F
100
AcDbEntity
  8
0
  6
SLD-Solid
 62
     7
370
    15
100
AcDbPolyline
 90
        7
 70
   128
 43
0.0
 10
1327.4209529333
 20
1767.8517401555
 10
1327.375444787
 20
1768.0704892018
 10
1327.3854583673
 20
1768.3012783864
 10
1327.4545103483
 20
1768.5183585027
 10
1327.583256381
 20
1768.7248289922
 10
1327.9232412748
 20
1769.0331042149
 10
1328.3114761286
 20
1769.2573368886
  0
LWPOLYLINE
  5
31F
330
1F
100
AcDbEntity
  8
0
  6
SLD-Solid
 62
     7
370
    15
100
AcDbPolyline
 90
        7
 70
   128
 43
0.0
 10
1328.3114761286
 20
1769.2573368886
 10
1328.7154764108
 20
1769.4275677541
 10
1329.1333645754
 20
1769.4988549092
 10
1329.3483287267
 20
1769.464999471
 10
1329.5186191969
 20
1769.3751156667
 10
1329.6546667986
 20
1769.2176401952
 10
1329.7427922659
 20
1769.0210640767
  0
LWPOLYLINE
  5
320
330
1F
100
AcDbEntity
  8
0
  6
SLD-Solid
 62
     7
370
    15
100
AcDbPolyline
 90
        7
 70
   128
 43
0.0
 10
1329.7427922659
 20
1769.0210640767
 10
1329.7887176447
 20
1768.8057720998
 10
1329.7809392385
 20
1768.5789168218
 10
1329.7124535017
 20
1768.3661282399
 10
1329.5838564806
 20
1768.1608498433
 10
1329.2469114237
 20
1767.8546011784
 10
1328.8624912672
 20
1767.6332295277
  0
LWPOLYLINE
  5
321
330
1F
100
AcDbEntity
  8
0
  6
SLD-Solid
 62
     7
370
    15
100
AcDbPolyline
 90
        3
 70
   128
 43
0.0
 10
1328.8624912672
 20
1767.6332295277
 10
1328.3950418405
 20
1767.4414217809
 10
1327.9167145662
 20
1767.3906386235
  0
ARC
  5
322
330
1F
100
AcDbEntity
  8
0
  6
SLD-Solid
 62
     7
370
    15
100
AcDbCircle
 10
1328.0444792131
 20
1768.0250713881
 30
0.0
 40
0.6471697905318916
100
AcDbArc
 50
195.535156728
 51
258.613837014
  0
ARC
  5
323
330
1F
100
AcDbEntity
  8
0
  6
SLD-Solid
 62
     7
370
    15
100
AcDbCircle
 10
1329.107004876
 20
1768.7488421934
 30
0.0
 40
0.2566435842064609
100
AcDbArc
 50
17.1982728495
 51
87.9936974679
  0
LWPOLYLINE
  5
324
330
1F
100
AcDbEntity
  8
0
  6
SLD-Solid
 62
     7
370
    15
100
AcDbPolyline
 90
        3
 70
   128
 43
0.0
 10
1329.1159898214
 20
1769.0053284505
 10
1328.7844091825
 20
1768.9525187352
 10
1328.4632295542
 20
1768.8159048894
  0
LWPOLYLINE
  5
325
330
1F
100
AcDbEntity
  8
0
  6
SLD-Solid
 62
     7
370
    15
100
AcDbPolyline
 90
        7
 70
   128
 43
0.0
 10
1328.4632295542
 20
1768.8159048894
 10
1328.0140191488
 20
1768.5379088261
 10
1327.9173702173
 20
1768.4421837666
 10
1327.8431028299
 20
1768.3254778722
 10
1327.8035849504
 20
1768.1932747701
 10
1327.8035849504
 20
1768.1258023122
 10
1327.817502635
 20
1768.0617869237
  0
LWPOLYLINE
  5
326
330
1F
100
AcDbEntity
  8
0
  6
SLD-Solid
 62
     7
370
    15
100
AcDbPolyline
 90
        7
 70
   128
 43
0.0
 10
1327.817502635
 20
1768.0617869237
 10
1327.8812796049
 20
1767.9499686101
 10
1327.9293507509
 20
1767.9088414052
 10
1327.9844254427
 20
1767.8816616872
 10
1328.1063467436
 20
1767.8661644795
 10
1328.2361656599
 20
1767.8828537801
 10
1328.7321657114
 20
1768.0784762242
  0
LWPOLYLINE
  5
327
330
1F
100
AcDbEntity
  8
0
  6
SLD-Solid
 62
     7
370
    15
100
AcDbPolyline
 90
        6
 70
   128
 43
0.0
 10
1328.7321657114
 20
1768.0784762242
 10
1329.1705280714
 20
1768.3536112645
 10
1329.2629450731
 20
1768.450170789
 10
1329.3326229028
 20
1768.5663998464
 10
1329.3671041899
 20
1768.6964571813
 10
1329.3521732263
 20
1768.8247263768
  0
ARC
  5
328
330
1F
100
AcDbEntity
  8
0
  6
SLD-Solid
 62
     7
370
    15
100
AcDbCircle
 10
1329.1021258794
 20
1768.7506094452
 30
0.0
 40
0.2570321488834562
100
AcDbArc
 50
17.2597990231
 51
87.9321712944
  0
LWPOLYLINE
  5
329
330
1F
100
AcDbEntity
  8
0
  6
SLD-Solid
 62
     7
370
    15
100
AcDbPolyline
 90
        6
 70
   128
 43
0.0
 10
1328.7275463514
 20
1768.0807412007
 10
1329.1658789091
 20
1768.355876241
 10
1329.2583257131
 20
1768.4523165563
 10
1329.3280035429
 20
1768.5685456136
 10
1329.3624848299
 20
1768.6986029485
 10
1329.3475836687
 20
1768.826872144
  0
LWPOLYLINE
  5
32A
330
1F
100
AcDbEntity
  8
0
  6
SLD-Solid
 62
     7
370
    15
100
AcDbPolyline
 90
        7
 70
   128
 43
0.0
 10
1327.812883275
 20
1768.0639326909
 10
1327.8766602449
 20
1767.9521143773
 10
1327.9247313909
 20
1767.9111063817
 10
1327.9798060827
 20
1767.8839266637
 10
1328.1017273836
 20
1767.868429456
 10
1328.2315164976
 20
1767.8851187566
 10
1328.7275463514
 20
1768.0807412007
  0
LINE
  5
32B
330
1F
100
AcDbEntity
  8
0
  6
SLD-Solid
 62
     7
370
    15
100
AcDbLine
 10
1329.3475836687
 20
1768.826872144
 30
0.0
 11
1329.3521732263
 21
1768.8247263768
 31
0.0
  0
LWPOLYLINE
  5
32C
330
1F
100
AcDbEntity
  8
0
  6
SLD-Solid
 62
     7
370
    15
100
AcDbPolyline
 90
        3
 70
   128
 43
0.0
 10
1328.4339934759
 20
1767.0755684712
 10
1328.4316390924
 20
1767.0768797734
 10
1328.429284709
 20
1767.0780718663
  0
ARC
  5
32D
330
1F
100
AcDbEntity
  8
0
  6
SLD-Solid
 62
     7
370
    15
100
AcDbCircle
 10
1328.8713743185
 20
1766.29461297
 30
0.0
 40
0.8950941271322299
100
AcDbArc
 50
119.251382135
 51
197.7721809812
  0
LINE
  5
32E
330
1F
100
AcDbEntity
  8
0
  6
SLD-Solid
 62
     7
370
    15
100
AcDbLine
 10
1328.0189961366
 20
1766.0214007237
 30
0.0
 11
1328.0142277651
 21
1766.0240233281
 31
0.0
  0
LINE
  5
32F
330
1F
100
AcDbEntity
  8
0
  6
SLD-Solid
 62
     7
370
    15
100
AcDbLine
 10
1328.8955420427
 20
1766.0693228581
 30
0.0
 11
1329.0264338426
 21
1765.6537592748
 31
0.0
  0
ARC
  5
330
330
1F
100
AcDbEntity
  8
0
  6
SLD-Solid
 62
     7
370
    15
100
AcDbCircle
 10
1328.6560985497
 20
1766.203087284
 30
0.0
 40
0.6625024459929134
100
AcDbArc
 50
195.916898181
 51
303.9862964399
  0
ARC
  5
331
330
1F
100
AcDbEntity
  8
0
  6
SLD-Solid
 62
     7
370
    15
100
AcDbCircle
 10
1328.965653466
 20
1765.8442721786
 30
0.0
 40
1.34117594120204
100
AcDbArc
 50
63.5035851103
 51
113.3541475909
  0
LINE
  5
332
330
1F
100
AcDbEntity
  8
0
  6
SLD-Solid
 62
     7
370
    15
100
AcDbLine
 10
1329.5640081339
 20
1767.0445740559
 30
0.0
 11
1329.9057215624
 21
1766.9291794637
 31
0.0
  0
LINE
  5
333
330
1F
100
AcDbEntity
  8
0
  6
SLD-Solid
 62
     7
370
    15
100
AcDbLine
 10
1329.9057215624
 20
1766.9291794637
 30
0.0
 11
1329.6400636606
 21
1767.7346766332
 31
0.0
  0
LINE
  5
334
330
1F
100
AcDbEntity
  8
0
  6
SLD-Solid
 62
     7
370
    15
100
AcDbLine
 10
1329.6400636606
 20
1767.7346766332
 30
0.0
 11
1330.0258547239
 21
1767.9386437276
 31
0.0
  0
LINE
  5
335
330
1F
100
AcDbEntity
  8
0
  6
SLD-Solid
 62
     7
370
    15
100
AcDbLine
 10
1330.0258547239
 20
1767.9386437276
 30
0.0
 11
1330.5305570535
 21
1766.3789093831
 31
0.0
  0
LINE
  5
336
330
1F
100
AcDbEntity
  8
0
  6
SLD-Solid
 62
     7
370
    15
100
AcDbLine
 10
1330.5305570535
 20
1766.3789093831
 30
0.0
 11
1330.3306728773
 21
1766.273051534
 31
0.0
  0
LINE
  5
337
330
1F
100
AcDbEntity
  8
0
  6
SLD-Solid
 62
     7
370
    15
100
AcDbLine
 10
1330.3306728773
 20
1766.273051534
 30
0.0
 11
1329.4201523237
 21
1766.6008770802
 31
0.0
  0
ARC
  5
338
330
1F
100
AcDbEntity
  8
0
  6
SLD-Solid
 62
     7
370
    15
100
AcDbCircle
 10
1328.9455445003
 20
1765.7466874565
 30
0.0
 40
0.9771860105776248
100
AcDbArc
 50
60.9424214564
 51
110.1103708204
  0
ARC
  5
339
330
1F
100
AcDbEntity
  8
0
  6
SLD-Solid
 62
     7
370
    15
100
AcDbCircle
 10
1328.7853152324
 20
1766.3205809543
 30
0.0
 40
0.3860448047106511
100
AcDbArc
 50
117.0825840779
 51
198.1301159271
  0
LWPOLYLINE
  5
33A
330
1F
100
AcDbEntity
  8
0
  6
SLD-Solid
 62
     7
370
    15
100
AcDbPolyline
 90
        7
 70
   128
 43
0.0
 10
1328.4184366636
 20
1766.2004530766
 10
1328.4477621488
 20
1766.1348879674
 10
1328.4915417604
 20
1766.0799324849
 10
1328.5466164522
 20
1766.041666303
 10
1328.6125391893
 20
1766.0186589101
 10
1328.7538916044
 20
1766.0191357472
 10
1328.8955420427
 20
1766.0693228581
  0
LWPOLYLINE
  5
33B
330
1F
100
AcDbEntity
  8
0
  6
SLD-Solid
 62
     7
370
    15
100
AcDbPolyline
 90
        3
 70
   128
 43
0.0
 10
1328.8955420427
 20
1766.0693228581
 10
1328.8931280546
 20
1766.0706341603
 10
1328.8907140665
 20
1766.0720646718
  0
LINE
  5
33C
330
1F
100
AcDbEntity
  8
0
  6
SLD-Solid
 62
     7
370
    15
100
AcDbLine
 10
1329.6400636606
 20
1767.7346766332
 30
0.0
 11
1329.6353548937
 21
1767.7370608189
 31
0.0
  0
LINE
  5
33D
330
1F
100
AcDbEntity
  8
0
  6
SLD-Solid
 62
     7
370
    15
100
AcDbLine
 10
1329.9057215624
 20
1766.9291794637
 30
0.0
 11
1329.9009233885
 21
1766.9319212773
 31
0.0
  0
LINE
  5
33E
330
1F
100
AcDbEntity
  8
0
  6
SLD-Solid
 62
     7
370
    15
100
AcDbLine
 10
1330.0258547239
 20
1767.9386437276
 30
0.0
 11
1330.021145957
 21
1767.9411471227
 31
0.0
  0
LINE
  5
33F
330
1F
100
AcDbEntity
  8
0
  6
SLD-Solid
 62
     7
370
    15
100
AcDbLine
 10
1330.7518094949
 20
1765.7157481053
 30
0.0
 11
1330.7468921118
 21
1765.7188475469
 31
0.0
  0
LINE
  5
340
330
1F
100
AcDbEntity
  8
0
  6
SLD-Solid
 62
     7
370
    15
100
AcDbLine
 10
1328.5792499952
 20
1764.4992173055
 30
0.0
 11
1330.7518094949
 21
1765.7157481053
 31
0.0
  0
LINE
  5
341
330
1F
100
AcDbEntity
  8
0
  6
SLD-Solid
 62
     7
370
    15
100
AcDbLine
 10
1328.5792499952
 20
1764.4992173055
 30
0.0
 11
1328.5743028097
 21
1764.5024359563
 31
0.0
  0
LINE
  5
342
330
1F
100
AcDbEntity
  8
0
  6
SLD-Solid
 62
     7
370
    15
100
AcDbLine
 10
1328.7790447645
 20
1763.8817131856
 30
0.0
 11
1328.5792499952
 21
1764.4992173055
 31
0.0
  0
LINE
  5
343
330
1F
100
AcDbEntity
  8
0
  6
SLD-Solid
 62
     7
370
    15
100
AcDbLine
 10
1330.7518094949
 20
1765.7157481053
 30
0.0
 11
1330.8853537016
 21
1765.3051913121
 31
0.0
  0
LINE
  5
344
330
1F
100
AcDbEntity
  8
0
  6
SLD-Solid
 62
     7
370
    15
100
AcDbLine
 10
1330.8853537016
 20
1765.3051913121
 30
0.0
 11
1329.1012972765
 21
1764.306336675
 31
0.0
  0
LINE
  5
345
330
1F
100
AcDbEntity
  8
0
  6
SLD-Solid
 62
     7
370
    15
100
AcDbLine
 10
1329.1012972765
 20
1764.306336675
 30
0.0
 11
1329.2425602846
 21
1763.8618052342
 31
0.0
  0
LINE
  5
346
330
1F
100
AcDbEntity
  8
0
  6
SLD-Solid
 62
     7
370
    15
100
AcDbLine
 10
1329.2425602846
 20
1763.8618052342
 30
0.0
 11
1328.7790447645
 21
1763.8817131856
 31
0.0
  0
LINE
  5
347
330
1F
100
AcDbEntity
  8
0
  6
SLD-Solid
 62
     7
370
    15
100
AcDbLine
 10
1328.7790447645
 20
1763.8817131856
 30
0.0
 11
1328.7740677767
 21
1763.8850510457
 31
0.0
  0
LWPOLYLINE
  5
348
330
1F
100
AcDbEntity
  8
0
  6
SLD-Solid
 62
     7
370
    15
100
AcDbPolyline
 90
       17
 70
   128
 43
0.0
 10
1328.406366723
 20
1759.407073293
 10
1328.4915119581
 20
1759.6696913579
 10
1328.480038064
 20
1759.9170506337
 10
1328.3733755522
 20
1760.1116001943
 10
1328.1880051069
 20
1760.2237761357
 10
1327.9527753763
 20
1760.235816274
 10
1327.7042240076
 20
1760.1452172139
 10
1327.4804979734
 20
1759.9658072331
 10
1327.3154229097
 20
1759.7247660497
 10
1327.2335261278
 20
1759.4595253804
 10
1327.2465497427
 20
1759.2108548024
 10
1327.3521989755
 20
1759.0171397069
 10
1327.5345891886
 20
1758.9073479512
 10
1327.7666002683
 20
1758.8980496266
 10
1328.0136019163
 20
1758.9898407796
 10
1328.2383114271
 20
1759.1684162953
 10
1328.406366723
 20
1759.407073293
  0
LWPOLYLINE
  5
349
330
1F
100
AcDbEntity
  8
0
  6
SLD-Solid
 62
     7
370
    15
100
AcDbPolyline
 90
       17
 70
   128
 43
0.0
 10
1329.786899703
 20
1755.0273239949
 10
1329.8965126447
 20
1755.2676499226
 10
1329.9152285032
 20
1755.4875910619
 10
1329.8397094183
 20
1755.6542456487
 10
1329.6815484934
 20
1755.7419836858
 10
1329.4655114584
 20
1755.7369768956
 10
1329.2252451353
 20
1755.6391060689
 10
1328.9977938108
 20
1755.4627955296
 10
1328.8176685743
 20
1755.2351057866
 10
1328.7116617136
 20
1754.9913227895
 10
1328.6951214247
 20
1754.769235883
 10
1328.7701040678
 20
1754.6031773427
 10
1328.9253443651
 20
1754.5181811192
 10
1329.1377753191
 20
1754.5267641881
 10
1329.3758660726
 20
1754.626780782
 10
1329.6038240366
 20
1754.8024952748
 10
1329.786899703
 20
1755.0273239949
  0
ARC
  5
34A
330
1F
100
AcDbEntity
  8
0
  6
SLD-Solid
 62
     7
370
    15
100
AcDbCircle
 10
1320.9967942638
 20
1801.6256341427
 30
0.0
 40
1.196667477565558
100
AcDbArc
 50
16.7739670408
 51
69.0225142177
  0
ARC
  5
34B
330
1F
100
AcDbEntity
  8
0
  6
SLD-Solid
 62
     7
370
    15
100
AcDbCircle
 10
1321.436383719
 20
1802.7745308021
 30
0.0
 40
0.0334660109827105
100
AcDbArc
 50
196.0468068269
 51
250.4817839952
  0
ARC
  5
34C
330
1F
100
AcDbEntity
  8
0
  6
SLD-Solid
 62
     7
370
    15
100
AcDbCircle
 10
1335.0539924869
 20
1758.3679507705
 30
0.0
 40
1.194831659566698
100
AcDbArc
 50
326.9365509733
 51
19.2700468723
  0
ARC
  5
34D
330
1F
100
AcDbEntity
  8
0
  6
SLD-Solid
 62
     7
370
    15
100
AcDbCircle
 10
1336.0832918289
 20
1757.6971123185
 30
0.0
 40
0.033784046422603
100
AcDbArc
 50
145.8251125088
 51
199.7589605066
  0
LWPOLYLINE
  5
34E
330
1F
100
AcDbEntity
  8
0
  6
SLD-Solid
 62
     7
370
    15
100
AcDbPolyline
 90
        3
 70
   128
 43
0.0
 10
1331.923249381
 20
1753.9729178288
 10
1331.9202393465
 20
1753.9761364797
 10
1331.9172591142
 20
1753.9793551305
  0
LWPOLYLINE
  5
34F
330
1F
100
AcDbEntity
  8
0
  6
SLD-Solid
 62
     7
370
    15
100
AcDbPolyline
 90
        7
 70
   128
 43
0.0
 10
1331.923249381
 20
1753.9729178288
 10
1331.9046825342
 20
1754.106789861
 10
1331.9362133913
 20
1754.2698681691
 10
1332.0187062197
 20
1754.4453442433
 10
1332.1529954843
 20
1754.6351254323
 10
1332.4839502744
 20
1754.9716532567
 10
1332.8502804212
 20
1755.2659809926
  0
LWPOLYLINE
  5
350
330
1F
100
AcDbEntity
  8
0
  6
SLD-Solid
 62
     7
370
    15
100
AcDbPolyline
 90
        7
 70
   128
 43
0.0
 10
1332.8502804212
 20
1755.2659809926
 10
1333.2256108694
 20
1755.528003011
 10
1333.6038619451
 20
1755.7254135945
 10
1333.7843448095
 20
1755.7767927983
 10
1333.9338630609
 20
1755.7754814961
 10
1334.0396911077
 20
1755.7157576421
 10
1334.0985804968
 20
1755.6125223973
  0
LWPOLYLINE
  5
351
330
1F
100
AcDbEntity
  8
0
  6
SLD-Solid
 62
     7
370
    15
100
AcDbPolyline
 90
        7
 70
   128
 43
0.0
 10
1334.0985804968
 20
1755.6125223973
 10
1334.1175049715
 20
1755.4823458531
 10
1334.0868383817
 20
1755.3255856374
 10
1334.0041369371
 20
1755.1567852834
 10
1333.8691920213
 20
1754.9723685124
 10
1333.5394293241
 20
1754.6434700826
 10
1333.1764966421
 20
1754.3537915089
  0
LWPOLYLINE
  5
352
330
1F
100
AcDbEntity
  8
0
  6
SLD-Solid
 62
     7
370
    15
100
AcDbPolyline
 90
        3
 70
   128
 43
0.0
 10
1333.1764966421
 20
1754.3537915089
 10
1332.7434092932
 20
1754.0527880528
 10
1332.3153585367
 20
1753.8417876103
  0
LWPOLYLINE
  5
353
330
1F
100
AcDbEntity
  8
0
  6
SLD-Solid
 62
     7
370
    15
100
AcDbPolyline
 90
        6
 70
   128
 43
0.0
 10
1332.3153585367
 20
1753.8417876103
 10
1332.1740061216
 20
1753.8161576131
 10
1332.0565551691
 20
1753.8295090535
 10
1331.9724828176
 20
1753.8842261174
 10
1331.9439023905
 20
1753.9251149037
 10
1331.923249381
 20
1753.9729178288
  0
LWPOLYLINE
  5
354
330
1F
100
AcDbEntity
  8
0
  6
SLD-Solid
 62
     7
370
    15
100
AcDbPolyline
 90
        5
 70
   128
 43
0.0
 10
1333.7323993616
 20
1755.3370297292
 10
1333.7082296781
 20
1755.3745806554
 10
1333.664956706
 20
1755.3932965138
 10
1333.6072892122
 20
1755.3928196767
 10
1333.5410386495
 20
1755.376488004
  0
LWPOLYLINE
  5
355
330
1F
100
AcDbEntity
  8
0
  6
SLD-Solid
 62
     7
370
    15
100
AcDbPolyline
 90
        3
 70
   128
 43
0.0
 10
1333.5410386495
 20
1755.376488004
 10
1333.2416743212
 20
1755.2210390904
 10
1332.9433232717
 20
1755.011707578
  0
LWPOLYLINE
  5
356
330
1F
100
AcDbEntity
  8
0
  6
SLD-Solid
 62
     7
370
    15
100
AcDbPolyline
 90
        7
 70
   128
 43
0.0
 10
1332.9433232717
 20
1755.011707578
 10
1332.5178653173
 20
1754.6587288716
 10
1332.4228555136
 20
1754.5578778127
 10
1332.3453992777
 20
1754.4508278706
 10
1332.2972983293
 20
1754.3458044865
 10
1332.2905033998
 20
1754.2994320729
 10
1332.2963148527
 20
1754.2605698445
  0
LWPOLYLINE
  5
357
330
1F
100
AcDbEntity
  8
0
  6
SLD-Solid
 62
     7
370
    15
100
AcDbPolyline
 90
        6
 70
   128
 43
0.0
 10
1332.2963148527
 20
1754.2605698445
 10
1332.3417931967
 20
1754.2072832921
 10
1332.4260145597
 20
1754.1982233861
 10
1332.5195044451
 20
1754.2263567784
 10
1332.6487571172
 20
1754.2904913762
 10
1333.1076234751
 20
1754.6038925984
  0
LWPOLYLINE
  5
358
330
1F
100
AcDbEntity
  8
0
  6
SLD-Solid
 62
     7
370
    15
100
AcDbPolyline
 90
        6
 70
   128
 43
0.0
 10
1333.1076234751
 20
1754.6038925984
 10
1333.5239917211
 20
1754.9503147939
 10
1333.6159020834
 20
1755.0492585042
 10
1333.6894244127
 20
1755.1536858418
 10
1333.733084815
 20
1755.2548945287
 10
1333.7323993616
 20
1755.3370297292
  0
LWPOLYLINE
  5
359
330
1F
100
AcDbEntity
  8
0
  6
SLD-Solid
 62
     7
370
    15
100
AcDbPolyline
 90
        6
 70
   128
 43
0.0
 10
1333.1016332083
 20
1754.6103299001
 10
1333.5180014543
 20
1754.9566328862
 10
1333.6099118166
 20
1755.0556958058
 10
1333.6834341459
 20
1755.1601231435
 10
1333.7271243505
 20
1755.261212621
 10
1333.7264388971
 20
1755.3433478215
  0
LWPOLYLINE
  5
35A
330
1F
100
AcDbEntity
  8
0
  6
SLD-Solid
 62
     7
370
    15
100
AcDbPolyline
 90
        6
 70
   128
 43
0.0
 10
1332.2903245859
 20
1754.2668879369
 10
1332.3358029299
 20
1754.2136013844
 10
1332.4200242929
 20
1754.2046606877
 10
1332.5135141783
 20
1754.2327940801
 10
1332.6427668504
 20
1754.2969286778
 10
1333.1016332083
 20
1754.6103299001
  0
LWPOLYLINE
  5
35B
330
1F
100
AcDbEntity
  8
0
  6
SLD-Solid
 62
     7
370
    15
100
AcDbPolyline
 90
       17
 70
   128
 43
0.0
 10
1331.2630683355
 20
1751.5651285985
 10
1331.534060853
 20
1751.9873679021
 10
1331.6406935625
 20
1752.3588240483
 10
1331.5574556761
 20
1752.6204884389
 10
1331.2997847967
 20
1752.7338564732
 10
1330.909702199
 20
1752.6804507115
 10
1330.4496139459
 20
1752.4628937581
 10
1329.9917608671
 20
1752.1132529118
 10
1329.6064466409
 20
1751.6836226323
 10
1329.3493122034
 20
1751.2431443074
 10
1329.2566567831
 20
1750.8615553716
 10
1329.3406397276
 20
1750.6008446553
 10
1329.58731355
 20
1750.4988015035
 10
1329.9624651842
 20
1750.5704462865
 10
1330.4120928221
 20
1750.8005202153
 10
1330.8708399706
 20
1751.1529028752
 10
1331.2630683355
 20
1751.5651285985
  0
ARC
  5
35C
330
1F
100
AcDbEntity
  8
0
  6
SLD-Solid
 62
     7
370
    15
100
AcDbCircle
 10
1323.5994878582
 20
1834.0577736681
 30
0.0
 40
26.96969590694854
100
AcDbArc
 50
263.2251277207
 51
263.7220050485
  0
LINE
  5
35D
330
1F
100
AcDbEntity
  8
0
  6
SLD-Solid
 62
     7
370
    15
100
AcDbLine
 10
1320.6502825193
 20
1807.2498143056
 30
0.0
 11
1339.6281331949
 21
1805.1293194631
 31
0.0
  0
LINE
  5
35E
330
1F
100
AcDbEntity
  8
0
  6
SLD-Solid
 62
     7
370
    15
100
AcDbLine
 10
1339.6281331949
 20
1805.1293194631
 30
0.0
 11
1341.0979837351
 21
1804.9673140386
 31
0.0
  0
LWPOLYLINE
  5
35F
330
1F
100
AcDbEntity
  8
0
  6
SLD-Solid
 62
     7
370
    15
100
AcDbPolyline
 90
        3
 70
   128
 43
0.0
 10
1332.2903245859
 20
1754.2668879369
 10
1332.2933346205
 20
1754.263669286
 10
1332.2963148527
 20
1754.2605698445
  0
LWPOLYLINE
  5
360
330
1F
100
AcDbEntity
  8
0
  6
SLD-Solid
 62
     7
370
    15
100
AcDbPolyline
 90
        3
 70
   128
 43
0.0
 10
1333.7264388971
 20
1755.3433478215
 10
1333.7294191293
 20
1755.34024838
 10
1333.7323993616
 20
1755.3370297292
  0
LINE
  5
361
330
1F
100
AcDbEntity
  8
0
  6
SLD-Solid
 62
     7
370
    15
100
AcDbLine
 10
1332.3763638906
 20
1752.8314888814
 30
0.0
 11
1332.1918279104
 21
1753.3793747762
 31
0.0
  0
LINE
  5
362
330
1F
100
AcDbEntity
  8
0
  6
SLD-Solid
 62
     7
370
    15
100
AcDbLine
 10
1332.1918279104
 20
1753.3793747762
 30
0.0
 11
1332.5507968836
 21
1753.6555827
 31
0.0
  0
LINE
  5
363
330
1F
100
AcDbEntity
  8
0
  6
SLD-Solid
 62
     7
370
    15
100
AcDbLine
 10
1332.5507968836
 20
1753.6555827
 30
0.0
 11
1332.6822847299
 21
1753.2706559041
 31
0.0
  0
LINE
  5
364
330
1F
100
AcDbEntity
  8
0
  6
SLD-Solid
 62
     7
370
    15
100
AcDbLine
 10
1332.6822847299
 20
1753.2706559041
 30
0.0
 11
1333.0711752348
 21
1753.5107434132
 31
0.0
  0
LINE
  5
365
330
1F
100
AcDbEntity
  8
0
  6
SLD-Solid
 62
     7
370
    15
100
AcDbLine
 10
1333.0711752348
 20
1753.5107434132
 30
0.0
 11
1333.0273062162
 21
1753.5707056859
 31
0.0
  0
ARC
  5
366
330
1F
100
AcDbEntity
  8
0
  6
SLD-Solid
 62
     7
370
    15
100
AcDbCircle
 10
1334.092040515
 20
1753.5331757604
 30
0.0
 40
1.06539552384383
100
AcDbArc
 50
118.9710886718
 51
177.9812649367
  0
LWPOLYLINE
  5
367
330
1F
100
AcDbEntity
  8
0
  6
SLD-Solid
 62
     7
370
    15
100
AcDbPolyline
 90
        6
 70
   128
 43
0.0
 10
1333.5759967737
 20
1754.4652521947
 10
1333.8581353597
 20
1754.6453774312
 10
1333.9925140314
 20
1754.7016442159
 10
1334.1196209364
 20
1754.7335923055
 10
1334.3209356241
 20
1754.7220290044
 10
1334.4244092874
 20
1754.6073496678
  0
ARC
  5
368
330
1F
100
AcDbEntity
  8
0
  6
SLD-Solid
 62
     7
370
    15
100
AcDbCircle
 10
1333.4600804176
 20
1754.6002590281
 30
0.0
 40
0.964354937998532
100
AcDbArc
 50
303.310629855
 51
0.4212840877
  0
LINE
  5
369
330
1F
100
AcDbEntity
  8
0
  6
SLD-Solid
 62
     7
370
    15
100
AcDbLine
 10
1333.9896828108
 20
1753.7943423131
 30
0.0
 11
1333.9194983415
 21
1754.0184557774
 31
0.0
  0
ARC
  5
36A
330
1F
100
AcDbEntity
  8
0
  6
SLD-Solid
 62
     7
370
    15
100
AcDbCircle
 10
1333.6645439193
 20
1754.3219730462
 30
0.0
 40
0.396389316001041
100
AcDbArc
 50
310.0302500235
 51
1.687377309
  0
LWPOLYLINE
  5
36B
330
1F
100
AcDbEntity
  8
0
  6
SLD-Solid
 62
     7
370
    15
100
AcDbPolyline
 90
        7
 70
   128
 43
0.0
 10
1334.0607613497
 20
1754.333645139
 10
1334.0124517851
 20
1754.3845475057
 10
1333.970758336
 20
1754.3914616444
 10
1333.9185446672
 20
1754.3858588078
 10
1333.8606685571
 20
1754.3684542516
 10
1333.7974876337
 20
1754.3394863942
 10
1333.6685925894
 20
1754.2547285893
  0
LWPOLYLINE
  5
36C
330
1F
100
AcDbEntity
  8
0
  6
SLD-Solid
 62
     7
370
    15
100
AcDbPolyline
 90
        7
 70
   128
 43
0.0
 10
1333.6685925894
 20
1754.2547285893
 10
1333.5526615553
 20
1754.1528046468
 10
1333.4588736467
 20
1754.0382445195
 10
1333.4247201853
 20
1753.9800703862
 10
1333.4024876528
 20
1753.9269030431
 10
1333.3939343862
 20
1753.8794577458
 10
1333.3990603857
 20
1753.8404763081
  0
LWPOLYLINE
  5
36D
330
1F
100
AcDbEntity
  8
0
  6
SLD-Solid
 62
     7
370
    15
100
AcDbPolyline
 90
        4
 70
   128
 43
0.0
 10
1333.3990603857
 20
1753.8404763081
 10
1333.4223061971
 20
1753.8082898
 10
1333.4623903208
 20
1753.792673383
 10
1333.5728973322
 20
1753.8003027776
  0
LINE
  5
36E
330
1F
100
AcDbEntity
  8
0
  6
SLD-Solid
 62
     7
370
    15
100
AcDbLine
 10
1333.5728973322
 20
1753.8003027776
 30
0.0
 11
1333.5575789385
 21
1753.570348058
 31
0.0
  0
LINE
  5
36F
330
1F
100
AcDbEntity
  8
0
  6
SLD-Solid
 62
     7
370
    15
100
AcDbLine
 10
1333.5575789385
 20
1753.570348058
 30
0.0
 11
1332.3763638906
 21
1752.8314888814
 31
0.0
  0
LINE
  5
370
330
1F
100
AcDbEntity
  8
0
  6
SLD-Solid
 62
     7
370
    15
100
AcDbLine
 10
1332.5507968836
 20
1753.6555827
 30
0.0
 11
1332.5447768144
 21
1753.662139211
 31
0.0
  0
LINE
  5
371
330
1F
100
AcDbEntity
  8
0
  6
SLD-Solid
 62
     7
370
    15
100
AcDbLine
 10
1332.1918279104
 20
1753.3793747762
 30
0.0
 11
1332.1858078413
 21
1753.3859312871
 31
0.0
  0
LINE
  5
372
330
1F
100
AcDbEntity
  8
0
  6
SLD-Solid
 62
     7
370
    15
100
AcDbLine
 10
1332.3763638906
 20
1752.8314888814
 30
0.0
 11
1332.3702544145
 21
1752.8382838109
 31
0.0
  0
LWPOLYLINE
  5
373
330
1F
100
AcDbEntity
  8
0
  6
SLD-Solid
 62
     7
370
    15
100
AcDbPolyline
 90
        3
 70
   128
 43
0.0
 10
1333.5759967737
 20
1754.4652521947
 10
1333.5729569368
 20
1754.4685900548
 10
1333.5699469023
 20
1754.4718087056
  0
LINE
  5
374
330
1F
100
AcDbEntity
  8
0
  6
SLD-Solid
 62
     7
370
    15
100
AcDbLine
 10
1333.0273062162
 20
1753.5707056859
 30
0.0
 11
1333.0212563448
 21
1753.5773814061
 31
0.0
  0
LINE
  5
375
330
1F
100
AcDbEntity
  8
0
  6
SLD-Solid
 62
     7
370
    15
100
AcDbLine
 10
1334.0607613497
 20
1754.333645139
 30
0.0
 11
1334.0546816759
 21
1754.3403208592
 31
0.0
  0
LINE
  5
376
330
1F
100
AcDbEntity
  8
0
  6
SLD-Solid
 62
     7
370
    15
100
AcDbLine
 10
1333.0711752348
 20
1753.5107434132
 30
0.0
 11
1333.065095561
 21
1753.5174191335
 31
0.0
  0
LWPOLYLINE
  5
377
330
1F
100
AcDbEntity
  8
0
  6
SLD-Solid
 62
     7
370
    15
100
AcDbPolyline
 90
        3
 70
   128
 43
0.0
 10
1333.5728973322
 20
1753.8003027776
 10
1333.5698574953
 20
1753.803759847
 10
1333.5668176584
 20
1753.8070977071
  0
LINE
  5
378
330
1F
100
AcDbEntity
  8
0
  6
SLD-Solid
 62
     7
370
    15
100
AcDbLine
 10
1333.3990603857
 20
1753.8404763081
 30
0.0
 11
1333.3929807119
 21
1753.8471520284
 31
0.0
  0
LINE
  5
379
330
1F
100
AcDbEntity
  8
0
  6
SLD-Solid
 62
     7
370
    15
100
AcDbLine
 10
1333.9194983415
 20
1754.0184557774
 30
0.0
 11
1333.9133888654
 21
1754.0252507069
 31
0.0
  0
LWPOLYLINE
  5
37A
330
1F
100
AcDbEntity
  8
0
  6
SLD-Solid
 62
     7
370
    15
100
AcDbPolyline
 90
        3
 70
   128
 43
0.0
 10
1333.9896828108
 20
1753.7943423131
 10
1333.9866429739
 20
1753.7976801732
 10
1333.9835733347
 20
1753.8011372426
  0
LINE
  5
37B
330
1F
100
AcDbEntity
  8
0
  6
SLD-Solid
 62
     7
370
    15
100
AcDbLine
 10
1332.6452106409
 20
1751.9617379048
 30
0.0
 11
1332.5502902441
 21
1752.2478401997
 31
0.0
  0
LINE
  5
37C
330
1F
100
AcDbEntity
  8
0
  6
SLD-Solid
 62
     7
370
    15
100
AcDbLine
 10
1332.5502902441
 20
1752.2478401997
 30
0.0
 11
1334.6012860708
 21
1753.8602650502
 31
0.0
  0
LINE
  5
37D
330
1F
100
AcDbEntity
  8
0
  6
SLD-Solid
 62
     7
370
    15
100
AcDbLine
 10
1334.6012860708
 20
1753.8602650502
 30
0.0
 11
1334.6655398779
 21
1753.6689341405
 31
0.0
  0
LINE
  5
37E
330
1F
100
AcDbEntity
  8
0
  6
SLD-Solid
 62
     7
370
    15
100
AcDbLine
 10
1334.6655398779
 20
1753.6689341405
 30
0.0
 11
1332.9811722212
 21
1752.3447573521
 31
0.0
  0
LINE
  5
37F
330
1F
100
AcDbEntity
  8
0
  6
SLD-Solid
 62
     7
370
    15
100
AcDbLine
 10
1332.9811722212
 20
1752.3447573521
 30
0.0
 11
1333.0456942491
 21
1752.1425783971
 31
0.0
  0
LINE
  5
380
330
1F
100
AcDbEntity
  8
0
  6
SLD-Solid
 62
     7
370
    15
100
AcDbLine
 10
1333.0456942491
 20
1752.1425783971
 30
0.0
 11
1332.6452106409
 21
1751.9617379048
 31
0.0
  0
LINE
  5
381
330
1F
100
AcDbEntity
  8
0
  6
SLD-Solid
 62
     7
370
    15
100
AcDbLine
 10
1334.6012860708
 20
1753.8602650502
 30
0.0
 11
1334.5951169901
 21
1753.867179189
 31
0.0
  0
LINE
  5
382
330
1F
100
AcDbEntity
  8
0
  6
SLD-Solid
 62
     7
370
    15
100
AcDbLine
 10
1332.5502902441
 20
1752.2478401997
 30
0.0
 11
1332.5441509657
 21
1752.2547543385
 31
0.0
  0
LINE
  5
383
330
1F
100
AcDbEntity
  8
0
  6
SLD-Solid
 62
     7
370
    15
100
AcDbLine
 10
1332.6452106409
 20
1751.9617379048
 30
0.0
 11
1332.6390415602
 21
1751.9687712529
 31
0.0
  0
LWPOLYLINE
  5
384
330
1F
100
AcDbEntity
  8
0
  6
SLD-Solid
 62
     7
370
    15
100
AcDbPolyline
 90
        9
 70
   128
 43
0.0
 10
1342.9383069448
 20
1801.2116253713
 10
1344.1242307596
 20
1797.5616753438
 10
1345.3244894914
 20
1793.8676178792
 10
1346.5343445711
 20
1790.1441157201
 10
1347.7489978246
 20
1786.405831609
 10
1348.9636212759
 20
1782.667547498
 10
1350.1734763555
 20
1778.9440453389
 10
1351.3737350874
 20
1775.2499878743
 10
1352.5596589021
 20
1771.6001570561
  0
LWPOLYLINE
  5
385
330
1F
100
AcDbEntity
  8
0
  6
SLD-Solid
 62
     7
370
    15
100
AcDbPolyline
 90
        9
 70
   128
 43
0.0
 10
1341.941419261
 20
1804.2797148564
 10
1341.9837683611
 20
1804.1492998937
 10
1342.0504063539
 20
1803.9442599156
 10
1342.1411246233
 20
1803.6650717595
 10
1342.2554761343
 20
1803.3131659367
 10
1342.3929840498
 20
1802.8898537495
 10
1342.553111928
 20
1802.3971617558
 10
1342.7351445131
 20
1801.8368780949
 10
1342.9383069448
 20
1801.2116253713
  0
ARC
  5
386
330
1F
100
AcDbEntity
  8
0
  6
SLD-Solid
 62
     7
370
    15
100
AcDbCircle
 10
1340.9871466246
 20
1803.9702622165
 30
0.0
 40
1.003193501192945
100
AcDbArc
 50
17.9669020899
 51
83.656767137
  0
LWPOLYLINE
  5
387
330
1F
100
AcDbEntity
  8
0
  6
SLD-Solid
 62
     7
370
    15
100
AcDbPolyline
 90
        5
 70
   128
 43
0.0
 10
1352.5596589021
 20
1771.6001570561
 10
1352.9963225298
 20
1770.2561915257
 10
1353.3153861933
 20
1769.2742646077
 10
1353.5097271375
 20
1768.6760723927
 10
1353.5749942236
 20
1768.4752047398
  0
LWPOLYLINE
  5
388
330
1F
100
AcDbEntity
  8
0
  6
SLD-Solid
 62
     7
370
    15
100
AcDbPolyline
 90
       17
 70
   128
 43
0.0
 10
1331.5810591154
 20
1749.2020428517
 10
1331.7415744238
 20
1749.3863404134
 10
1331.8274945192
 20
1749.5326102116
 10
1331.8250209265
 20
1749.6192753651
 10
1331.7343026571
 20
1749.6334612706
 10
1331.5697044306
 20
1749.5723069051
 10
1331.3571840696
 20
1749.4442761281
 10
1331.1297327451
 20
1749.2677271703
 10
1330.922189372
 20
1749.0697205403
 10
1330.7656079702
 20
1748.8807738164
 10
1330.6829959326
 20
1748.7306893208
 10
1330.6862145834
 20
1748.643070493
 10
1330.7746082716
 20
1748.6316264012
 10
1330.9352427892
 20
1748.6973107198
 10
1331.1444848947
 20
1748.8293946126
 10
1331.3712209635
 20
1749.0066588261
 10
1331.5810591154
 20
1749.2020428517
  0
LWPOLYLINE
  5
389
330
1F
100
AcDbEntity
  8
0
  6
SLD-Solid
 62
     7
370
    15
100
AcDbPolyline
 90
        9
 70
   128
 43
0.0
 10
1316.9288963251
 20
1777.7060568669
 10
1316.9311314993
 20
1777.6992619374
 10
1316.9377178125
 20
1777.6789963582
 10
1316.9484764509
 20
1777.6458561757
 10
1316.9631391935
 20
1777.6007950642
 10
1316.9812292032
 20
1777.5450051167
 10
1317.0022696428
 20
1777.4802744725
 10
1317.0256346636
 20
1777.4083912709
 10
1317.0506686144
 20
1777.3313820699
  0
ARC
  5
38A
330
1F
100
AcDbEntity
  8
0
  6
SLD-Solid
 62
     7
370
    15
100
AcDbCircle
 10
1465.9839854436
 20
1322.241759004
 30
0.0
 40
479.2339159741722
100
AcDbArc
 50
107.8820647781
 51
108.1211837355
  0
LWPOLYLINE
  5
38B
330
1F
100
AcDbEntity
  8
0
  6
SLD-Solid
 62
     7
370
    15
100
AcDbPolyline
 90
        9
 70
   128
 43
0.0
 10
1317.0506686144
 20
1777.3313820699
 10
1317.1119123869
 20
1777.1429121831
 10
1317.1734839849
 20
1776.9533694127
 10
1317.2353238039
 20
1776.7631113866
 10
1317.2973722391
 20
1776.5721381047
 10
1317.3595994882
 20
1776.3805687764
 10
1317.421975749
 20
1776.1886418202
 10
1317.4844414167
 20
1775.9963572362
 10
1317.5469368868
 20
1775.8039534428
  0
LWPOLYLINE
  5
38C
330
1F
100
AcDbEntity
  8
0
  6
SLD-Solid
 62
     7
370
    15
100
AcDbPolyline
 90
        9
 70
   128
 43
0.0
 10
1317.5469368868
 20
1775.8039534428
 10
1317.5770670347
 20
1775.7112086156
 10
1317.6060646944
 20
1775.622040067
 10
1317.6327675752
 20
1775.5397856572
 10
1317.6561922006
 20
1775.4677832463
 10
1317.6754146986
 20
1775.4086554387
 10
1317.689690011
 20
1775.3646672109
 10
1317.6984816961
 20
1775.3376067021
 10
1317.701432126
 20
1775.3284275868
  0
LINE
  5
38D
330
1F
100
AcDbEntity
  8
0
  6
SLD-Solid
 62
     7
370
    15
100
AcDbLine
 10
1319.6143537931
 20
1775.9132683614
 30
0.0
 11
1317.701432126
 21
1775.3284275868
 31
0.0
  0
LINE
  5
38E
330
1F
100
AcDbEntity
  8
0
  6
SLD-Solid
 62
     7
370
    15
100
AcDbLine
 10
1320.5340236597
 20
1773.0828821996
 30
0.0
 11
1318.630757945
 21
1772.4683583119
 31
0.0
  0
LWPOLYLINE
  5
38F
330
1F
100
AcDbEntity
  8
0
  6
SLD-Solid
 62
     7
370
    15
100
AcDbPolyline
 90
        9
 70
   128
 43
0.0
 10
1317.701432126
 20
1775.3284275868
 10
1317.8288072519
 20
1774.9364674428
 10
1317.9540068083
 20
1774.551183019
 10
1318.0764943533
 20
1774.1741240361
 10
1318.1957632475
 20
1773.8070786336
 10
1318.3113068514
 20
1773.4514773229
 10
1318.4226483278
 20
1773.1088698247
 10
1318.5292810373
 20
1772.7806866506
 10
1318.630757945
 20
1772.4683583119
  0
LWPOLYLINE
  5
390
330
1F
100
AcDbEntity
  8
0
  6
SLD-Solid
 62
     7
370
    15
100
AcDbPolyline
 90
        9
 70
   128
 43
0.0
 10
1318.9768225126
 20
1771.4032233098
 10
1318.9992040567
 20
1771.3343203404
 10
1319.02298631
 20
1771.2611258366
 10
1319.0476030283
 20
1771.1854279378
 10
1319.0723389559
 20
1771.1092532018
 10
1319.0966278486
 20
1771.0345089772
 10
1319.1198438577
 20
1770.9631026128
 10
1319.1413313322
 20
1770.8969414571
 10
1319.1605836324
 20
1770.8376944402
  0
LINE
  5
391
330
1F
100
AcDbEntity
  8
0
  6
SLD-Solid
 62
     7
370
    15
100
AcDbLine
 10
1318.630757945
 20
1772.4683583119
 30
0.0
 11
1318.9768225126
 21
1771.4032233098
 31
0.0
  0
LWPOLYLINE
  5
392
330
1F
100
AcDbEntity
  8
0
  6
SLD-Solid
 62
     7
370
    15
100
AcDbPolyline
 90
        9
 70
   128
 43
0.0
 10
1319.1605836324
 20
1770.8376944402
 10
1319.2057639532
 20
1770.6986964085
 10
1319.2497223787
 20
1770.5633938649
 10
1319.2924291067
 20
1770.4319060185
 10
1319.3338841371
 20
1770.3043520787
 10
1319.3740278654
 20
1770.1808512547
 10
1319.4128304891
 20
1770.0614035466
 10
1319.4502920084
 20
1769.9461281636
 10
1319.4863528185
 20
1769.835144315
  0
ARC
  5
393
330
1F
100
AcDbEntity
  8
0
  6
SLD-Solid
 62
     7
370
    15
100
AcDbCircle
 10
1347.4932675257
 20
1778.8902703791
 30
0.0
 40
29.43437751088887
100
AcDbArc
 50
197.9169286666
 51
198.083818056
  0
LWPOLYLINE
  5
394
330
1F
100
AcDbEntity
  8
0
  6
SLD-Solid
 62
     7
370
    15
100
AcDbPolyline
 90
       17
 70
   128
 43
0.0
 10
1331.8061560564
 20
1748.3648360112
 10
1331.9873839788
 20
1748.5245764592
 10
1332.1028679781
 20
1748.6355603078
 10
1332.1342498235
 20
1748.6820519307
 10
1332.0764333181
 20
1748.6571371892
 10
1331.9386273794
 20
1748.5642731526
 10
1331.7426771097
 20
1748.4164536336
 10
1331.5191894941
 20
1748.2353747228
 10
1331.3024670057
 20
1748.0480969289
 10
1331.1251133852
 20
1747.8838265279
 10
1331.0132652693
 20
1747.7684319356
 10
1330.983194726
 20
1747.7203905919
 10
1331.0391932897
 20
1747.7474511006
 10
1331.1731249265
 20
1747.8449642995
 10
1331.3654393129
 20
1747.9970753529
 10
1331.5876156263
 20
1748.1798231938
 10
1331.8061560564
 20
1748.3648360112
  0
LWPOLYLINE
  5
395
330
1F
100
AcDbEntity
  8
0
  6
SLD-Solid
 62
     7
370
    15
100
AcDbPolyline
 90
       10
 70
   128
 43
0.0
 10
1311.669740098
 20
1807.8888953069
 10
1311.6694718771
 20
1807.8888953069
 10
1311.8590444498
 20
1807.8627884724
 10
1312.3981982641
 20
1807.7940047124
 10
1313.2057517938
 20
1807.7067435124
 10
1314.1596049242
 20
1807.6285422185
 10
1315.1150077753
 20
1807.578116689
 10
1315.9261077814
 20
1807.5576126912
 10
1316.4683014326
 20
1807.5558245519
 10
1316.6584104471
 20
1807.5573742726
  0
LWPOLYLINE
  5
396
330
1F
100
AcDbEntity
  8
0
  6
SLD-Solid
 62
     7
370
    15
100
AcDbPolyline
 90
       31
 70
   128
 43
0.0
 10
1329.2603522711
 20
920.8259880879
 10
1329.2053371839
 20
920.9953248837
 10
1329.040887969
 20
921.5014279225
 10
1328.7687927656
 20
922.338813577
 10
1328.3920616083
 20
923.4982431271
 10
1327.9148370199
 20
924.9670803883
 10
1327.3422748022
 20
926.7291725018
 10
1326.6807228498
 20
928.7652075627
 10
1325.9373933248
 20
931.0529530385
 10
1325.1204520635
 20
933.567255769
 10
1324.2388099603
 20
936.2806380132
 10
1323.30215277
 20
939.1633570531
 10
1322.3207622938
 20
942.1838224271
 10
1321.3053673677
 20
945.3088939526
 10
1320.2670842581
 20
948.5044181683
 10
1319.217297452
 20
951.735347543
 10
1318.1675106458
 20
954.9662173131
 10
1317.1292275362
 20
958.1617415288
 10
1316.1138028078
 20
961.2868130544
 10
1315.1324123316
 20
964.3072784284
 10
1314.1957551412
 20
967.1899974683
 10
1313.3141428404
 20
969.9033797124
 10
1312.4971717767
 20
972.4176824429
 10
1311.7538422518
 20
974.7054279187
 10
1311.0922902994
 20
976.7415225842
 10
1310.519757884
 20
978.5036146977
 10
1310.0425034933
 20
979.9723923543
 10
1309.665772336
 20
981.1318815091
 10
1309.3937069349
 20
981.9692075589
 10
1309.22925772
 20
982.4753105977
 10
1309.1742426328
 20
982.6446473935
  0
LWPOLYLINE
  5
397
330
1F
100
AcDbEntity
  8
0
  6
SLD-Solid
 62
     7
370
    15
100
AcDbPolyline
 90
        6
 70
   128
 43
0.0
 10
1321.4042216711
 20
977.3653447965
 10
1320.8801776342
 20
978.9781272748
 10
1320.4648822717
 20
980.2562892774
 10
1320.1640576296
 20
981.1821282246
 10
1319.9818760328
 20
981.742829118
 10
1319.9208706789
 20
981.9305837491
  0
LWPOLYLINE
  5
398
330
1F
100
AcDbEntity
  8
0
  6
SLD-Solid
 62
     7
370
    15
100
AcDbPolyline
 90
        6
 70
   128
 43
0.0
 10
1337.5348478727
 20
927.7203977445
 10
1337.4738425188
 20
927.9081523755
 10
1337.291660922
 20
928.4688532689
 10
1336.9908362798
 20
929.3946922162
 10
1336.5755111151
 20
930.6728542188
 10
1336.0514968805
 20
932.2856963017
  0
LWPOLYLINE
  5
399
330
1F
100
AcDbEntity
  8
0
  6
SLD-Solid
 62
     7
370
    15
100
AcDbPolyline
 90
        7
 70
   128
 43
0.0
 10
1331.9172591142
 20
928.5793006757
 10
1331.898751872
 20
928.7131131032
 10
1331.9302529268
 20
928.8761914113
 10
1332.0127755575
 20
929.0516674855
 10
1332.1470648222
 20
929.2413294652
 10
1332.4780196123
 20
929.5779168942
 10
1332.8443497591
 20
929.8722446301
  0
LINE
  5
39A
330
1F
100
AcDbEntity
  8
0
  6
SLD-Solid
 62
     7
370
    15
100
AcDbLine
 10
1331.9665223531
 20
928.4906089642
 30
0.0
 11
1331.9172591142
 21
928.5793006757
 31
0.0
  0
LWPOLYLINE
  5
39B
330
1F
100
AcDbEntity
  8
0
  6
SLD-Solid
 62
     7
370
    15
100
AcDbPolyline
 90
        7
 70
   128
 43
0.0
 10
1332.8443497591
 20
929.8722446301
 10
1333.2196802072
 20
930.1342070439
 10
1333.597931283
 20
930.3316176274
 10
1333.7784141474
 20
930.3829968312
 10
1333.9279323988
 20
930.3817451337
 10
1334.0337306432
 20
930.3220212796
 10
1334.0357572012
 20
930.3185046056
  0
LINE
  5
39C
330
1F
100
AcDbEntity
  8
0
  6
SLD-Solid
 62
     7
370
    15
100
AcDbLine
 10
1332.3702544145
 20
927.4382293561
 30
0.0
 11
1332.1858078413
 21
927.9859364369
 31
0.0
  0
LWPOLYLINE
  5
39D
330
1F
100
AcDbEntity
  8
0
  6
SLD-Solid
 62
     7
370
    15
100
AcDbPolyline
 90
        4
 70
   128
 43
0.0
 10
1333.3929807119
 20
928.4472167828
 10
1333.4162265234
 20
928.41497067
 10
1333.4563404493
 20
928.3994138577
 10
1333.5668176584
 20
928.4070432523
  0
ARC
  5
39E
330
1F
100
AcDbEntity
  8
0
  6
SLD-Solid
 62
     7
370
    15
100
AcDbCircle
 10
1333.6589116587
 20
928.9285922046
 30
0.0
 40
0.3959439211154546
100
AcDbArc
 50
309.9942123315
 51
1.6982099773
  0
LINE
  5
39F
330
1F
100
AcDbEntity
  8
0
  6
SLD-Solid
 62
     7
370
    15
100
AcDbLine
 10
1333.9835733347
 20
928.4010827878
 30
0.0
 11
1333.9133888654
 21
928.6252558568
 31
0.0
  0
LWPOLYLINE
  5
3A0
330
1F
100
AcDbEntity
  8
0
  6
SLD-Solid
 62
     7
370
    15
100
AcDbPolyline
 90
        6
 70
   128
 43
0.0
 10
1333.5699469023
 20
929.0718138554
 10
1333.8520854883
 20
929.2518794873
 10
1333.9864939623
 20
929.308146272
 10
1334.1135710649
 20
929.3402135709
 10
1334.3148857527
 20
929.3287098744
 10
1334.3658775263
 20
929.2722046712
  0
ARC
  5
3A1
330
1F
100
AcDbEntity
  8
0
  6
SLD-Solid
 62
     7
370
    15
100
AcDbCircle
 10
1334.0860732797
 20
928.1396842282
 30
0.0
 40
1.065482087882902
100
AcDbArc
 50
118.9735908254
 51
177.9753595983
  0
LINE
  5
3A2
330
1F
100
AcDbEntity
  8
0
  6
SLD-Solid
 62
     7
370
    15
100
AcDbLine
 10
1333.065095561
 20
928.1173646787
 30
0.0
 11
1333.0212563448
 21
928.1773269513
 31
0.0
  0
LINE
  5
3A3
330
1F
100
AcDbEntity
  8
0
  6
SLD-Solid
 62
     7
370
    15
100
AcDbLine
 10
1332.6762050562
 20
927.8772771695
 30
0.0
 11
1333.065095561
 21
928.1173646787
 31
0.0
  0
LINE
  5
3A4
330
1F
100
AcDbEntity
  8
0
  6
SLD-Solid
 62
     7
370
    15
100
AcDbLine
 10
1332.1858078413
 20
927.9859364369
 30
0.0
 11
1332.5447768144
 21
928.2621443608
 31
0.0
  0
LINE
  5
3A5
330
1F
100
AcDbEntity
  8
0
  6
SLD-Solid
 62
     7
370
    15
100
AcDbLine
 10
1332.6390415602
 20
926.5687764027
 30
0.0
 11
1332.5441509657
 21
926.8546998837
 31
0.0
  0
LINE
  5
3A6
330
1F
100
AcDbEntity
  8
0
  6
SLD-Solid
 62
     7
370
    15
100
AcDbLine
 10
1332.5441509657
 20
926.8546998837
 30
0.0
 11
1334.5951169901
 21
928.4671247342
 31
0.0
  0
LWPOLYLINE
  5
3A7
330
1F
100
AcDbEntity
  8
0
  6
SLD-Solid
 62
     7
370
    15
100
AcDbPolyline
 90
        7
 70
   128
 43
0.0
 10
1327.4163335733
 20
942.4538910725
 10
1327.3708552294
 20
942.6725209096
 10
1327.380898612
 20
942.9033100942
 10
1327.449950593
 20
943.1203902104
 10
1327.578726428
 20
943.3268010953
 10
1327.9187113218
 20
943.6350763181
 10
1328.3069759779
 20
943.8592493871
  0
ARC
  5
3A8
330
1F
100
AcDbEntity
  8
0
  6
SLD-Solid
 62
     7
370
    15
100
AcDbCircle
 10
1328.0345274385
 20
942.6183812746
 30
0.0
 40
0.639703588774171
100
AcDbArc
 50
194.900132677
 51
242.602988519
  0
ARC
  5
3A9
330
1F
100
AcDbEntity
  8
0
  6
SLD-Solid
 62
     7
370
    15
100
AcDbCircle
 10
1329.0028706748
 20
942.9726543605
 30
0.0
 40
1.127084810574737
100
AcDbArc
 50
63.0283538932
 51
128.1286188179
  0
LWPOLYLINE
  5
3AA
330
1F
100
AcDbEntity
  8
0
  6
SLD-Solid
 62
     7
370
    15
100
AcDbPolyline
 90
        7
 70
   128
 43
0.0
 10
1328.4136384897
 20
940.8031404355
 10
1328.4429937773
 20
940.7375753262
 10
1328.4867435865
 20
940.6826198438
 10
1328.5418182783
 20
940.6444132665
 10
1328.6077410154
 20
940.6214058736
 10
1328.7490934305
 20
940.6218827107
 10
1328.8907140665
 20
940.6720698216
  0
LINE
  5
3AB
330
1F
100
AcDbEntity
  8
0
  6
SLD-Solid
 62
     7
370
    15
100
AcDbLine
 10
1329.6353548937
 20
942.3370659688
 30
0.0
 11
1330.021145957
 21
942.5411522725
 31
0.0
  0
LINE
  5
3AC
330
1F
100
AcDbEntity
  8
0
  6
SLD-Solid
 62
     7
370
    15
100
AcDbLine
 10
1329.9009233885
 20
941.5318668225
 30
0.0
 11
1329.6353548937
 21
942.3370659688
 31
0.0
  0
LINE
  5
3AD
330
1F
100
AcDbEntity
  8
0
  6
SLD-Solid
 62
     7
370
    15
100
AcDbLine
 10
1329.5592397623
 20
941.6472614148
 30
0.0
 11
1329.9009233885
 21
941.5318668225
 31
0.0
  0
ARC
  5
3AE
330
1F
100
AcDbEntity
  8
0
  6
SLD-Solid
 62
     7
370
    15
100
AcDbCircle
 10
1328.9610762869
 20
940.445797604
 30
0.0
 40
1.342130706026077
100
AcDbArc
 50
63.5330198588
 51
113.3426675839
  0
ARC
  5
3AF
330
1F
100
AcDbEntity
  8
0
  6
SLD-Solid
 62
     7
370
    15
100
AcDbCircle
 10
1328.8666147424
 20
940.8971242126
 30
0.0
 40
0.8950669469379051
100
AcDbArc
 50
119.248628818
 51
197.7649068158
  0
ARC
  5
3B0
330
1F
100
AcDbEntity
  8
0
  6
SLD-Solid
 62
     7
370
    15
100
AcDbCircle
 10
1328.621995231
 20
940.7703605389
 30
0.0
 40
0.6251354770918208
100
AcDbArc
 50
193.5374309909
 51
249.9126121486
  0
LINE
  5
3B1
330
1F
100
AcDbEntity
  8
0
  6
SLD-Solid
 62
     7
370
    15
100
AcDbLine
 10
1328.7740677767
 20
938.4849965909
 30
0.0
 11
1328.5743028097
 21
939.1024411061
 31
0.0
  0
LINE
  5
3B2
330
1F
100
AcDbEntity
  8
0
  6
SLD-Solid
 62
     7
370
    15
100
AcDbLine
 10
1328.5743028097
 20
939.1024411061
 30
0.0
 11
1330.7468921118
 21
940.3188526967
 31
0.0
  0
LWPOLYLINE
  5
3B3
330
1F
100
AcDbEntity
  8
0
  6
SLD-Solid
 62
     7
370
    15
100
AcDbPolyline
 90
       10
 70
   128
 43
0.0
 10
1311.668905633
 20
982.4788868764
 10
1311.668816226
 20
982.4788868764
 10
1311.8581503801
 20
982.452780042
 10
1312.3968273573
 20
982.3840558865
 10
1313.2037550382
 20
982.2969138959
 10
1314.1570717268
 20
982.2187722066
 10
1315.1121765547
 20
982.1682274678
 10
1315.9235447817
 20
982.14772347
 10
1316.46621527
 20
982.1458161214
 10
1316.6577249937
 20
982.1474254468
  0
LWPOLYLINE
  5
3B4
330
1F
100
AcDbEntity
  8
0
  6
SLD-Solid
 62
     7
370
    15
100
AcDbPolyline
 90
       10
 70
   128
 43
0.0
 10
1326.7732888632
 20
940.9247339108
 10
1326.6229361467
 20
941.0165846684
 10
1326.1173695497
 20
941.0645068028
 10
1325.6085246973
 20
940.8908784726
 10
1325.1738280229
 20
940.5242503026
 10
1324.8797387056
 20
940.0188625195
 10
1324.7667879038
 20
939.4543469289
 10
1324.8511582784
 20
938.9171898702
 10
1325.1190215521
 20
938.4905398229
 10
1325.3356248312
 20
938.3569658139
  0
LWPOLYLINE
  5
3B5
330
1F
100
AcDbEntity
  8
0
  6
SLD-Solid
 62
     7
370
    15
100
AcDbPolyline
 90
       12
 70
   128
 43
0.0
 10
1331.2569588594
 20
926.1719286778
 10
1331.5285474233
 20
926.5953600743
 10
1331.6346138887
 20
926.965564523
 10
1331.5516144209
 20
927.2268712857
 10
1331.2942117624
 20
927.340418134
 10
1330.9045165949
 20
927.2872507909
 10
1330.4446667604
 20
927.069932256
 10
1329.9869924955
 20
926.7208278516
 10
1329.6016782694
 20
926.2917936185
 10
1329.3439775877
 20
925.8513152936
 10
1329.250636714
 20
925.469845567
 10
1329.3334275656
 20
925.2091944554
  0
LWPOLYLINE
  5
3B6
330
1F
100
AcDbEntity
  8
0
  6
SLD-Solid
 62
     7
370
    15
100
AcDbPolyline
 90
        9
 70
   128
 43
0.0
 10
1328.3209830694
 20
934.7443878987
 10
1328.1827300958
 20
934.8279536107
 10
1327.9475301676
 20
934.8399341443
 10
1327.6989787988
 20
934.7493946889
 10
1327.4752229624
 20
934.5699251035
 10
1327.310177701
 20
934.3289435246
 10
1327.2282511167
 20
934.06376246
 10
1327.2412449293
 20
933.8152110913
 10
1327.3468941622
 20
933.6214363912
  0
LWPOLYLINE
  5
3B7
330
1F
100
AcDbEntity
  8
0
  6
SLD-Solid
 62
     7
370
    15
100
AcDbPolyline
 90
        9
 70
   128
 43
0.0
 10
1329.8204273157
 20
930.2673042157
 10
1329.6758264475
 20
930.3475320676
 10
1329.4598192148
 20
930.3424656728
 10
1329.2195528917
 20
930.2445352414
 10
1328.9921015672
 20
930.0682843068
 10
1328.8119763307
 20
929.8406541684
 10
1328.70596947
 20
929.5968711713
 10
1328.6893993788
 20
929.3748438695
 10
1328.7643820219
 20
929.2087853291
  0
LWPOLYLINE
  5
3B8
330
1F
100
AcDbEntity
  8
0
  6
SLD-Solid
 62
     7
370
    15
100
AcDbPolyline
 90
       12
 70
   128
 43
0.0
 10
1331.574741023
 20
923.8094389775
 10
1331.7352563314
 20
923.9937961438
 10
1331.8212062292
 20
924.1400063374
 10
1331.8187028341
 20
924.2266714909
 10
1331.7280143671
 20
924.2407977918
 10
1331.5634161405
 20
924.1797030309
 10
1331.3508957796
 20
924.0515530446
 10
1331.1234444551
 20
923.8751232961
 10
1330.915901082
 20
923.6770570615
 10
1330.7593196802
 20
923.4881103375
 10
1330.6766778402
 20
923.338025842
 10
1330.679896491
 20
923.2504666188
  0
LWPOLYLINE
  5
3B9
330
1F
100
AcDbEntity
  8
0
  6
SLD-Solid
 62
     7
370
    15
100
AcDbPolyline
 90
        3
 70
   128
 43
0.0
 10
1331.7997485571
 20
922.9725301602
 10
1331.9809764795
 20
923.1322110036
 10
1332.0964902811
 20
923.2432544568
  0
LWPOLYLINE
  5
3BA
330
1F
100
AcDbEntity
  8
0
  6
SLD-Solid
 62
     7
370
    15
100
AcDbPolyline
 90
       10
 70
   128
 43
0.0
 10
1332.1269184522
 20
923.2883751729
 10
1332.1278423242
 20
923.2896864751
 10
1332.0700258188
 20
923.2648313382
 10
1331.9322198801
 20
923.171907697
 10
1331.7362696104
 20
923.0241477826
 10
1331.5128117971
 20
922.8430092671
 10
1331.2960893087
 20
922.6557910779
 10
1331.1187058859
 20
922.4914610722
 10
1331.0068577699
 20
922.37606648
 10
1330.9767872267
 20
922.3280251363
  0
LWPOLYLINE
  5
3BB
330
1F
100
AcDbEntity
  8
0
  6
SLD-Solid
 62
     7
370
    15
100
AcDbPolyline
 90
       17
 70
   128
 43
0.0
 10
1327.2812098436
 20
939.2309487203
 10
1327.4026841097
 20
939.7882521489
 10
1327.3241847925
 20
940.3255880216
 10
1327.0503014498
 20
940.7559931615
 10
1326.6269892626
 20
941.0143792966
 10
1326.1209756307
 20
941.0620034078
 10
1325.6120711736
 20
940.8878982404
 10
1325.1774043016
 20
940.5205548146
 10
1324.8836428098
 20
940.0143325665
 10
1324.7714668684
 20
939.4495785573
 10
1324.856850522
 20
938.9120638707
 10
1325.1256078653
 20
938.4859502652
 10
1325.5374759607
 20
938.233286176
 10
1326.0326713495
 20
938.1934106686
 10
1326.5382379465
 20
938.3701980451
 10
1326.978030818
 20
938.7383759358
 10
1327.2812098436
 20
939.2309487203
  0
LWPOLYLINE
  5
3BC
330
1F
100
AcDbEntity
  8
0
  6
SLD-Solid
 62
     7
370
    15
100
AcDbPolyline
 90
       17
 70
   128
 43
0.0
 10
1321.9710618429
 20
975.6207168439
 10
1322.6137489252
 20
973.642736707
 10
1323.3344584875
 20
971.424669061
 10
1324.1239518099
 20
968.9948261121
 10
1324.972215312
 20
966.3841426709
 10
1325.8683711462
 20
963.6260569432
 10
1326.8010348253
 20
960.7556760648
 10
1327.7582556181
 20
957.8095972875
 10
1328.7278443746
 20
954.8254907468
 10
1329.6974629335
 20
951.8413842061
 10
1330.6546837263
 20
948.8953054288
 10
1331.5873176031
 20
946.0249245503
 10
1332.4835032396
 20
943.2668388226
 10
1333.3317369394
 20
940.6562149861
 10
1334.1212600641
 20
938.2263124326
 10
1334.8419398241
 20
936.0082447865
 10
1335.4846269064
 20
934.0302646497
  0
LWPOLYLINE
  5
3BD
330
1F
100
AcDbEntity
  8
0
  6
SLD-Solid
 62
     7
370
    15
100
AcDbPolyline
 90
        3
 70
   128
 43
0.0
 10
1327.4209529333
 20
942.4517453053
 10
1327.4186581545
 20
942.4528181889
 10
1327.4163335733
 20
942.4538910725
  0
LWPOLYLINE
  5
3BE
330
1F
100
AcDbEntity
  8
0
  6
SLD-Solid
 62
     7
370
    15
100
AcDbPolyline
 90
        7
 70
   128
 43
0.0
 10
1327.4209529333
 20
942.4517453053
 10
1327.375444787
 20
942.6704943517
 10
1327.3854583673
 20
942.9012835362
 10
1327.4545103483
 20
943.1183636525
 10
1327.583256381
 20
943.324834142
 10
1327.9232412748
 20
943.6331689694
 10
1328.3114761286
 20
943.8573420384
  0
LWPOLYLINE
  5
3BF
330
1F
100
AcDbEntity
  8
0
  6
SLD-Solid
 62
     7
370
    15
100
AcDbPolyline
 90
        7
 70
   128
 43
0.0
 10
1328.3114761286
 20
943.8573420384
 10
1328.7154764108
 20
944.0275729039
 10
1329.1333645754
 20
944.0989196637
 10
1329.3483287267
 20
944.0650046208
 10
1329.5186191969
 20
943.9751208165
 10
1329.6546667986
 20
943.817645345
 10
1329.7427922659
 20
943.6210692265
  0
LWPOLYLINE
  5
3C0
330
1F
100
AcDbEntity
  8
0
  6
SLD-Solid
 62
     7
370
    15
100
AcDbPolyline
 90
        7
 70
   128
 43
0.0
 10
1329.7427922659
 20
943.6210692265
 10
1329.7887176447
 20
943.405717645
 10
1329.7809392385
 20
943.178862367
 10
1329.7124535017
 20
942.9661333897
 10
1329.5838564806
 20
942.7607953885
 10
1329.2469114237
 20
942.4546063283
 10
1328.8624912672
 20
942.2331750729
  0
LWPOLYLINE
  5
3C1
330
1F
100
AcDbEntity
  8
0
  6
SLD-Solid
 62
     7
370
    15
100
AcDbPolyline
 90
        3
 70
   128
 43
0.0
 10
1328.8624912672
 20
942.2331750729
 10
1328.3950418405
 20
942.0414269307
 10
1327.9167145662
 20
941.9906437734
  0
ARC
  5
3C2
330
1F
100
AcDbEntity
  8
0
  6
SLD-Solid
 62
     7
370
    15
100
AcDbCircle
 10
1328.0444792131
 20
942.6250765379
 30
0.0
 40
0.6471697905318308
100
AcDbArc
 50
195.535156728
 51
258.613837014
  0
ARC
  5
3C3
330
1F
100
AcDbEntity
  8
0
  6
SLD-Solid
 62
     7
370
    15
100
AcDbCircle
 10
1329.1068649359
 20
943.3487740774
 30
0.0
 40
0.2567813080480095
100
AcDbArc
 50
17.1919522254
 51
87.9635296353
  0
LWPOLYLINE
  5
3C4
330
1F
100
AcDbEntity
  8
0
  6
SLD-Solid
 62
     7
370
    15
100
AcDbPolyline
 90
        3
 70
   128
 43
0.0
 10
1329.1159898214
 20
943.605393205
 10
1328.7844091825
 20
943.5524642804
 10
1328.4632295542
 20
943.4159696439
  0
LWPOLYLINE
  5
3C5
330
1F
100
AcDbEntity
  8
0
  6
SLD-Solid
 62
     7
370
    15
100
AcDbPolyline
 90
        7
 70
   128
 43
0.0
 10
1328.4632295542
 20
943.4159696439
 10
1328.0140191488
 20
943.137913976
 10
1327.9173702173
 20
943.0421889165
 10
1327.8431028299
 20
942.9254234174
 10
1327.8035849504
 20
942.7932799199
 10
1327.8035849504
 20
942.7257478574
 10
1327.817502635
 20
942.6617324689
  0
LWPOLYLINE
  5
3C6
330
1F
100
AcDbEntity
  8
0
  6
SLD-Solid
 62
     7
370
    15
100
AcDbPolyline
 90
        7
 70
   128
 43
0.0
 10
1327.817502635
 20
942.6617324689
 10
1327.8812796049
 20
942.5499141553
 10
1327.9293507509
 20
942.508846555
 10
1327.9844254427
 20
942.481666837
 10
1328.1063467436
 20
942.4661696294
 10
1328.2361656599
 20
942.4828589299
 10
1328.7321657114
 20
942.6784813741
  0
LWPOLYLINE
  5
3C7
330
1F
100
AcDbEntity
  8
0
  6
SLD-Solid
 62
     7
370
    15
100
AcDbPolyline
 90
        6
 70
   128
 43
0.0
 10
1328.7321657114
 20
942.6784813741
 10
1329.1705280714
 20
942.9536164143
 10
1329.2629450731
 20
943.0501163342
 10
1329.3326229028
 20
943.1664049962
 10
1329.3671041899
 20
943.2964027264
 10
1329.3521732263
 20
943.424671922
  0
ARC
  5
3C8
330
1F
100
AcDbEntity
  8
0
  6
SLD-Solid
 62
     7
370
    15
100
AcDbCircle
 10
1329.1023128521
 20
943.3507995051
 30
0.0
 40
0.2567811086608453
100
AcDbArc
 50
17.2200754239
 51
87.9718948935
  0
LWPOLYLINE
  5
3C9
330
1F
100
AcDbEntity
  8
0
  6
SLD-Solid
 62
     7
370
    15
100
AcDbPolyline
 90
        6
 70
   128
 43
0.0
 10
1328.7275463514
 20
942.6806867459
 10
1329.1658789091
 20
942.9558217862
 10
1329.2583257131
 20
943.0523217061
 10
1329.3280035429
 20
943.168610368
 10
1329.3624848299
 20
943.2986080983
 10
1329.3475836687
 20
943.4268176892
  0
LWPOLYLINE
  5
3CA
330
1F
100
AcDbEntity
  8
0
  6
SLD-Solid
 62
     7
370
    15
100
AcDbPolyline
 90
        7
 70
   128
 43
0.0
 10
1327.812883275
 20
942.6638782361
 10
1327.8766602449
 20
942.5521195271
 10
1327.9247313909
 20
942.5110519269
 10
1327.9798060827
 20
942.4838722089
 10
1328.1017273836
 20
942.4683750012
 10
1328.2315164976
 20
942.4851239064
 10
1328.7275463514
 20
942.6806867459
  0
LINE
  5
3CB
330
1F
100
AcDbEntity
  8
0
  6
SLD-Solid
 62
     7
370
    15
100
AcDbLine
 10
1329.3475836687
 20
943.4268176892
 30
0.0
 11
1329.3521732263
 21
943.424671922
 31
0.0
  0
LINE
  5
3CC
330
1F
100
AcDbEntity
  8
0
  6
SLD-Solid
 62
     7
370
    15
100
AcDbLine
 10
1328.4339934759
 20
941.6755736211
 30
0.0
 11
1328.429284709
 21
941.6780770162
 31
0.0
  0
ARC
  5
3CD
330
1F
100
AcDbEntity
  8
0
  6
SLD-Solid
 62
     7
370
    15
100
AcDbCircle
 10
1328.8714459146
 20
940.8945744872
 30
0.0
 40
0.8951671817498724
100
AcDbArc
 50
119.2540156968
 51
197.7717557468
  0
LWPOLYLINE
  5
3CE
330
1F
100
AcDbEntity
  8
0
  6
SLD-Solid
 62
     7
370
    15
100
AcDbPolyline
 90
        3
 70
   128
 43
0.0
 10
1328.0189961366
 20
940.6213462689
 10
1328.0166119509
 20
940.6227171758
 10
1328.0142277651
 20
940.6240284779
  0
LINE
  5
3CF
330
1F
100
AcDbEntity
  8
0
  6
SLD-Solid
 62
     7
370
    15
100
AcDbLine
 10
1328.8955420427
 20
940.6692684033
 30
0.0
 11
1329.0264338426
 21
940.25370482
 31
0.0
  0
ARC
  5
3D0
330
1F
100
AcDbEntity
  8
0
  6
SLD-Solid
 62
     7
370
    15
100
AcDbCircle
 10
1328.6561514675
 20
940.8031778383
 30
0.0
 40
0.662593114382922
100
AcDbArc
 50
195.9277017529
 51
303.975492868
  0
ARC
  5
3D1
330
1F
100
AcDbEntity
  8
0
  6
SLD-Solid
 62
     7
370
    15
100
AcDbCircle
 10
1328.9656437136
 20
940.4439217709
 30
0.0
 40
1.341498511130451
100
AcDbArc
 50
63.5099874293
 51
113.3477452719
  0
LINE
  5
3D2
330
1F
100
AcDbEntity
  8
0
  6
SLD-Solid
 62
     7
370
    15
100
AcDbLine
 10
1329.5640081339
 20
941.6445792058
 30
0.0
 11
1329.9057215624
 21
941.5291846135
 31
0.0
  0
LINE
  5
3D3
330
1F
100
AcDbEntity
  8
0
  6
SLD-Solid
 62
     7
370
    15
100
AcDbLine
 10
1329.9057215624
 20
941.5291846135
 30
0.0
 11
1329.6400636606
 21
942.3346221784
 31
0.0
  0
LINE
  5
3D4
330
1F
100
AcDbEntity
  8
0
  6
SLD-Solid
 62
     7
370
    15
100
AcDbLine
 10
1329.6400636606
 20
942.3346221784
 30
0.0
 11
1330.0258547239
 21
942.5387084821
 31
0.0
  0
LINE
  5
3D5
330
1F
100
AcDbEntity
  8
0
  6
SLD-Solid
 62
     7
370
    15
100
AcDbLine
 10
1330.0258547239
 20
942.5387084821
 30
0.0
 11
1330.5305570535
 21
940.9788549283
 31
0.0
  0
LINE
  5
3D6
330
1F
100
AcDbEntity
  8
0
  6
SLD-Solid
 62
     7
370
    15
100
AcDbLine
 10
1330.5305570535
 20
940.9788549283
 30
0.0
 11
1330.3306728773
 21
940.8729970792
 31
0.0
  0
LINE
  5
3D7
330
1F
100
AcDbEntity
  8
0
  6
SLD-Solid
 62
     7
370
    15
100
AcDbLine
 10
1330.3306728773
 20
940.8729970792
 30
0.0
 11
1329.4201523237
 21
941.2008822301
 31
0.0
  0
ARC
  5
3D8
330
1F
100
AcDbEntity
  8
0
  6
SLD-Solid
 62
     7
370
    15
100
AcDbCircle
 10
1328.9455469915
 20
940.3467244472
 30
0.0
 40
0.9771569676341019
100
AcDbArc
 50
60.9416423639
 51
110.1111499128
  0
ARC
  5
3D9
330
1F
100
AcDbEntity
  8
0
  6
SLD-Solid
 62
     7
370
    15
100
AcDbCircle
 10
1328.7853152324
 20
940.9205861041
 30
0.0
 40
0.3860448047106157
100
AcDbArc
 50
117.0825840779
 51
198.1301159271
  0
LWPOLYLINE
  5
3DA
330
1F
100
AcDbEntity
  8
0
  6
SLD-Solid
 62
     7
370
    15
100
AcDbPolyline
 90
        7
 70
   128
 43
0.0
 10
1328.4184366636
 20
940.8004582265
 10
1328.4477621488
 20
940.7348335126
 10
1328.4915417604
 20
940.6798780301
 10
1328.5466164522
 20
940.6416118482
 10
1328.6125391893
 20
940.6186044553
 10
1328.7538916044
 20
940.6190812924
 10
1328.8955420427
 20
940.6692684033
  0
LWPOLYLINE
  5
3DB
330
1F
100
AcDbEntity
  8
0
  6
SLD-Solid
 62
     7
370
    15
100
AcDbPolyline
 90
        3
 70
   128
 43
0.0
 10
1328.8955420427
 20
940.6692684033
 10
1328.8931280546
 20
940.6706989148
 10
1328.8907140665
 20
940.6720698216
  0
LINE
  5
3DC
330
1F
100
AcDbEntity
  8
0
  6
SLD-Solid
 62
     7
370
    15
100
AcDbLine
 10
1330.0258547239
 20
942.5387084821
 30
0.0
 11
1330.021145957
 21
942.5411522725
 31
0.0
  0
LINE
  5
3DD
330
1F
100
AcDbEntity
  8
0
  6
SLD-Solid
 62
     7
370
    15
100
AcDbLine
 10
1329.6400636606
 20
942.3346221784
 30
0.0
 11
1329.6353548937
 21
942.3370659688
 31
0.0
  0
LINE
  5
3DE
330
1F
100
AcDbEntity
  8
0
  6
SLD-Solid
 62
     7
370
    15
100
AcDbLine
 10
1329.9057215624
 20
941.5291846135
 30
0.0
 11
1329.9009233885
 21
941.5318668225
 31
0.0
  0
LINE
  5
3DF
330
1F
100
AcDbEntity
  8
0
  6
SLD-Solid
 62
     7
370
    15
100
AcDbLine
 10
1328.7790447645
 20
938.4816587308
 30
0.0
 11
1328.5792499952
 21
939.0992820599
 31
0.0
  0
LINE
  5
3E0
330
1F
100
AcDbEntity
  8
0
  6
SLD-Solid
 62
     7
370
    15
100
AcDbLine
 10
1328.5792499952
 20
939.0992820599
 30
0.0
 11
1330.7518094949
 21
940.3156936505
 31
0.0
  0
LINE
  5
3E1
330
1F
100
AcDbEntity
  8
0
  6
SLD-Solid
 62
     7
370
    15
100
AcDbLine
 10
1330.7518094949
 20
940.3156936505
 30
0.0
 11
1330.8853537016
 21
939.905196462
 31
0.0
  0
LINE
  5
3E2
330
1F
100
AcDbEntity
  8
0
  6
SLD-Solid
 62
     7
370
    15
100
AcDbLine
 10
1330.8853537016
 20
939.905196462
 30
0.0
 11
1329.1012972765
 21
938.9062822202
 31
0.0
  0
LINE
  5
3E3
330
1F
100
AcDbEntity
  8
0
  6
SLD-Solid
 62
     7
370
    15
100
AcDbLine
 10
1329.1012972765
 20
938.9062822202
 30
0.0
 11
1329.2425602846
 21
938.4618103841
 31
0.0
  0
LINE
  5
3E4
330
1F
100
AcDbEntity
  8
0
  6
SLD-Solid
 62
     7
370
    15
100
AcDbLine
 10
1329.2425602846
 20
938.4618103841
 30
0.0
 11
1328.7790447645
 21
938.4816587308
 31
0.0
  0
LINE
  5
3E5
330
1F
100
AcDbEntity
  8
0
  6
SLD-Solid
 62
     7
370
    15
100
AcDbLine
 10
1330.7518094949
 20
940.3156936505
 30
0.0
 11
1330.7468921118
 21
940.3188526967
 31
0.0
  0
LINE
  5
3E6
330
1F
100
AcDbEntity
  8
0
  6
SLD-Solid
 62
     7
370
    15
100
AcDbLine
 10
1328.5792499952
 20
939.0992820599
 30
0.0
 11
1328.5743028097
 21
939.1024411061
 31
0.0
  0
LINE
  5
3E7
330
1F
100
AcDbEntity
  8
0
  6
SLD-Solid
 62
     7
370
    15
100
AcDbLine
 10
1328.7790447645
 20
938.4816587308
 30
0.0
 11
1328.7740677767
 21
938.4849965909
 31
0.0
  0
LWPOLYLINE
  5
3E8
330
1F
100
AcDbEntity
  8
0
  6
SLD-Solid
 62
     7
370
    15
100
AcDbPolyline
 90
       17
 70
   128
 43
0.0
 10
1328.406366723
 20
934.0070188382
 10
1328.4915119581
 20
934.2696369031
 10
1328.480038064
 20
934.5169961789
 10
1328.3733755522
 20
934.7116649487
 10
1328.1880051069
 20
934.8237812856
 10
1327.9527753763
 20
934.8357618192
 10
1327.7042240076
 20
934.7452819684
 10
1327.4804979734
 20
934.5657527783
 10
1327.3154229097
 20
934.3247711995
 10
1327.2335261278
 20
934.0595305302
 10
1327.2465497427
 20
933.8109195569
 10
1327.3521989755
 20
933.6170852521
 10
1327.5345891886
 20
933.5074127057
 10
1327.7666002683
 20
933.4979951718
 10
1328.0136019163
 20
933.5897863248
 10
1328.2383114271
 20
933.7684810498
 10
1328.406366723
 20
934.0070188382
  0
LWPOLYLINE
  5
3E9
330
1F
100
AcDbEntity
  8
0
  6
SLD-Solid
 62
     7
370
    15
100
AcDbPolyline
 90
       17
 70
   128
 43
0.0
 10
1329.786899703
 20
929.6273291448
 10
1329.8965126447
 20
929.8675954678
 10
1329.9152285032
 20
930.0875366071
 10
1329.8397094183
 20
930.2541911939
 10
1329.6815484934
 20
930.3419888356
 10
1329.4655114584
 20
930.3369224408
 10
1329.2252451353
 20
930.2390516141
 10
1328.9977938108
 20
930.0628006795
 10
1328.8176685743
 20
929.8351705411
 10
1328.7116617136
 20
929.5913279393
 10
1328.6951214247
 20
929.3692410329
 10
1328.7701040678
 20
929.2031824925
 10
1328.9253443651
 20
929.1182458737
 10
1329.1377753191
 20
929.1268289426
 10
1329.3758660726
 20
929.2267859319
 10
1329.6038240366
 20
929.4025600293
 10
1329.786899703
 20
929.6273291448
  0
ARC
  5
3EA
330
1F
100
AcDbEntity
  8
0
  6
SLD-Solid
 62
     7
370
    15
100
AcDbCircle
 10
1320.9976313642
 20
976.2263575216
 30
0.0
 40
1.195641620704552
100
AcDbArc
 50
16.7498556802
 51
69.0466255783
  0
ARC
  5
3EB
330
1F
100
AcDbEntity
  8
0
  6
SLD-Solid
 62
     7
370
    15
100
AcDbCircle
 10
1321.4375646941
 20
977.3755330518
 30
0.0
 40
0.0348648495404823
100
AcDbArc
 50
196.9909953282
 51
249.232628658
  0
ARC
  5
3EC
330
1F
100
AcDbEntity
  8
0
  6
SLD-Solid
 62
     7
370
    15
100
AcDbCircle
 10
1335.0534028462
 20
932.9680272402
 30
0.0
 40
1.195364756528959
100
AcDbArc
 50
326.9491051267
 51
19.2574927188
  0
ARC
  5
3ED
330
1F
100
AcDbEntity
  8
0
  6
SLD-Solid
 62
     7
370
    15
100
AcDbCircle
 10
1336.0832918289
 20
932.2971174684
 30
0.0
 40
0.0337840464225646
100
AcDbArc
 50
145.8251125087
 51
199.7589605064
  0
LWPOLYLINE
  5
3EE
330
1F
100
AcDbEntity
  8
0
  6
SLD-Solid
 62
     7
370
    15
100
AcDbPolyline
 90
        3
 70
   128
 43
0.0
 10
1331.923249381
 20
928.5729825833
 10
1331.9202393465
 20
928.5761416295
 10
1331.9172591142
 20
928.5793006757
  0
LWPOLYLINE
  5
3EF
330
1F
100
AcDbEntity
  8
0
  6
SLD-Solid
 62
     7
370
    15
100
AcDbPolyline
 90
        7
 70
   128
 43
0.0
 10
1331.923249381
 20
928.5729825833
 10
1331.9046825342
 20
928.7067950108
 10
1331.9362133913
 20
928.8699329236
 10
1332.0187062197
 20
929.0454089978
 10
1332.1529954843
 20
929.2351305821
 10
1332.4839502744
 20
929.5716584065
 10
1332.8502804212
 20
929.8660457471
  0
LWPOLYLINE
  5
3F0
330
1F
100
AcDbEntity
  8
0
  6
SLD-Solid
 62
     7
370
    15
100
AcDbPolyline
 90
        7
 70
   128
 43
0.0
 10
1332.8502804212
 20
929.8660457471
 10
1333.2256108694
 20
930.1280081609
 10
1333.6038619451
 20
930.3253591397
 10
1333.7843448095
 20
930.3767383435
 10
1333.9338630609
 20
930.375486646
 10
1334.0396911077
 20
930.3157627919
 10
1334.0985804968
 20
930.2125871518
  0
LWPOLYLINE
  5
3F1
330
1F
100
AcDbEntity
  8
0
  6
SLD-Solid
 62
     7
370
    15
100
AcDbPolyline
 90
        7
 70
   128
 43
0.0
 10
1334.0985804968
 20
930.2125871518
 10
1334.1175049715
 20
930.0822913983
 10
1334.0868383817
 20
929.9255311826
 10
1334.0041369371
 20
929.7568500378
 10
1333.8691920213
 20
929.5723140576
 10
1333.5394293241
 20
929.2434156278
 10
1333.1764966421
 20
928.9537966588
  0
LWPOLYLINE
  5
3F2
330
1F
100
AcDbEntity
  8
0
  6
SLD-Solid
 62
     7
370
    15
100
AcDbPolyline
 90
        3
 70
   128
 43
0.0
 10
1333.1764966421
 20
928.9537966588
 10
1332.7434092932
 20
928.652733598
 10
1332.3153585367
 20
928.4417331555
  0
LWPOLYLINE
  5
3F3
330
1F
100
AcDbEntity
  8
0
  6
SLD-Solid
 62
     7
370
    15
100
AcDbPolyline
 90
        6
 70
   128
 43
0.0
 10
1332.3153585367
 20
928.4417331555
 10
1332.1740061216
 20
928.4161627629
 10
1332.0565551691
 20
928.4295142033
 10
1331.9724828176
 20
928.4841716626
 10
1331.9439023905
 20
928.5251200536
 10
1331.923249381
 20
928.5729825833
  0
LWPOLYLINE
  5
3F4
330
1F
100
AcDbEntity
  8
0
  6
SLD-Solid
 62
     7
370
    15
100
AcDbPolyline
 90
        5
 70
   128
 43
0.0
 10
1333.7323993616
 20
929.937034879
 10
1333.7082296781
 20
929.9745858052
 10
1333.664956706
 20
929.9933016637
 10
1333.6072892122
 20
929.9928844312
 10
1333.5410386495
 20
929.9764931538
  0
LWPOLYLINE
  5
3F5
330
1F
100
AcDbEntity
  8
0
  6
SLD-Solid
 62
     7
370
    15
100
AcDbPolyline
 90
        3
 70
   128
 43
0.0
 10
1333.5410386495
 20
929.9764931538
 10
1333.2416743212
 20
929.8209846356
 10
1332.9433232717
 20
929.6117723325
  0
LWPOLYLINE
  5
3F6
330
1F
100
AcDbEntity
  8
0
  6
SLD-Solid
 62
     7
370
    15
100
AcDbPolyline
 90
        7
 70
   128
 43
0.0
 10
1332.9433232717
 20
929.6117723325
 10
1332.5178653173
 20
929.2587340215
 10
1332.4228555136
 20
929.1579425671
 10
1332.3453992777
 20
929.0508926251
 10
1332.2972983293
 20
928.9458096364
 10
1332.2905033998
 20
928.8994372228
 10
1332.2963148527
 20
928.8605153897
  0
LWPOLYLINE
  5
3F7
330
1F
100
AcDbEntity
  8
0
  6
SLD-Solid
 62
     7
370
    15
100
AcDbPolyline
 90
        6
 70
   128
 43
0.0
 10
1332.2963148527
 20
928.8605153897
 10
1332.3417931967
 20
928.8072884419
 10
1332.4260145597
 20
928.7982881406
 10
1332.5195044451
 20
928.8263619283
 10
1332.6487571172
 20
928.890496526
 10
1333.1076234751
 20
929.2038977483
  0
LWPOLYLINE
  5
3F8
330
1F
100
AcDbEntity
  8
0
  6
SLD-Solid
 62
     7
370
    15
100
AcDbPolyline
 90
        6
 70
   128
 43
0.0
 10
1333.1076234751
 20
929.2038977483
 10
1333.5239917211
 20
929.5502603391
 10
1333.6159020834
 20
929.6493232587
 10
1333.6894244127
 20
929.7537505963
 10
1333.733084815
 20
929.8548996785
 10
1333.7323993616
 20
929.937034879
  0
LWPOLYLINE
  5
3F9
330
1F
100
AcDbEntity
  8
0
  6
SLD-Solid
 62
     7
370
    15
100
AcDbPolyline
 90
        6
 70
   128
 43
0.0
 10
1333.1016332083
 20
929.2103350499
 10
1333.5180014543
 20
929.5566976407
 10
1333.6099118166
 20
929.6557009557
 10
1333.6834341459
 20
929.7601282933
 10
1333.7271243505
 20
929.8612773755
 10
1333.7264388971
 20
929.9433529714
  0
LWPOLYLINE
  5
3FA
330
1F
100
AcDbEntity
  8
0
  6
SLD-Solid
 62
     7
370
    15
100
AcDbPolyline
 90
        6
 70
   128
 43
0.0
 10
1332.2903245859
 20
928.8668930867
 10
1332.3358029299
 20
928.8136661389
 10
1332.4200242929
 20
928.8046658376
 10
1332.5135141783
 20
928.8327396253
 10
1332.6427668504
 20
928.896874223
 10
1333.1016332083
 20
929.2103350499
  0
LWPOLYLINE
  5
3FB
330
1F
100
AcDbEntity
  8
0
  6
SLD-Solid
 62
     7
370
    15
100
AcDbPolyline
 90
       17
 70
   128
 43
0.0
 10
1331.2630683355
 20
926.1651337483
 10
1331.534060853
 20
926.5873730519
 10
1331.6406935625
 20
926.9588888028
 10
1331.5574556761
 20
927.2204935887
 10
1331.2997847967
 20
927.3339212277
 10
1330.909702199
 20
927.280515466
 10
1330.4496139459
 20
927.0628393033
 10
1329.9917608671
 20
926.7132580617
 10
1329.6064466409
 20
926.2836277821
 10
1329.3493122034
 20
925.8431494573
 10
1329.2566567831
 20
925.4615605214
 10
1329.3406397276
 20
925.2007902005
 10
1329.58731355
 20
925.0987470487
 10
1329.9624651842
 20
925.1703918317
 10
1330.4120928221
 20
925.4004657605
 10
1330.8708399706
 20
925.7529676297
 10
1331.2630683355
 20
926.1651337483
  0
ARC
  5
3FC
330
1F
100
AcDbEntity
  8
0
  6
SLD-Solid
 62
     7
370
    15
100
AcDbCircle
 10
1323.5425786849
 20
1008.2787899061
 30
0.0
 40
26.58670166863205
100
AcDbArc
 50
263.2505790852
 51
263.7545850803
  0
LINE
  5
3FD
330
1F
100
AcDbEntity
  8
0
  6
SLD-Solid
 62
     7
370
    15
100
AcDbLine
 10
1320.6502825193
 20
981.8498790601
 30
0.0
 11
1339.6281331949
 21
979.7293246129
 31
0.0
  0
LINE
  5
3FE
330
1F
100
AcDbEntity
  8
0
  6
SLD-Solid
 62
     7
370
    15
100
AcDbLine
 10
1339.6281331949
 20
979.7293246129
 30
0.0
 11
1341.0979837351
 21
979.567378793
 31
0.0
  0
LWPOLYLINE
  5
3FF
330
1F
100
AcDbEntity
  8
0
  6
SLD-Solid
 62
     7
370
    15
100
AcDbPolyline
 90
        3
 70
   128
 43
0.0
 10
1332.2903245859
 20
928.8668930867
 10
1332.2933346205
 20
928.8637340405
 10
1332.2963148527
 20
928.8605153897
  0
LINE
  5
400
330
1F
100
AcDbEntity
  8
0
  6
SLD-Solid
 62
     7
370
    15
100
AcDbLine
 10
1333.7264388971
 20
929.9433529714
 30
0.0
 11
1333.7323993616
 21
929.937034879
 31
0.0
  0
LINE
  5
401
330
1F
100
AcDbEntity
  8
0
  6
SLD-Solid
 62
     7
370
    15
100
AcDbLine
 10
1332.3763638906
 20
927.4315536359
 30
0.0
 11
1332.1918279104
 21
927.979379926
 31
0.0
  0
LINE
  5
402
330
1F
100
AcDbEntity
  8
0
  6
SLD-Solid
 62
     7
370
    15
100
AcDbLine
 10
1332.1918279104
 20
927.979379926
 30
0.0
 11
1332.5507968836
 21
928.2556474545
 31
0.0
  0
LINE
  5
403
330
1F
100
AcDbEntity
  8
0
  6
SLD-Solid
 62
     7
370
    15
100
AcDbLine
 10
1332.5507968836
 20
928.2556474545
 30
0.0
 11
1332.6822847299
 21
927.8706014493
 31
0.0
  0
LINE
  5
404
330
1F
100
AcDbEntity
  8
0
  6
SLD-Solid
 62
     7
370
    15
100
AcDbLine
 10
1332.6822847299
 20
927.8706014493
 30
0.0
 11
1333.0711752348
 21
928.1106889584
 31
0.0
  0
LINE
  5
405
330
1F
100
AcDbEntity
  8
0
  6
SLD-Solid
 62
     7
370
    15
100
AcDbLine
 10
1333.0711752348
 20
928.1106889584
 30
0.0
 11
1333.0273062162
 21
928.1706512311
 31
0.0
  0
ARC
  5
406
330
1F
100
AcDbEntity
  8
0
  6
SLD-Solid
 62
     7
370
    15
100
AcDbCircle
 10
1334.0922851422
 20
928.1330954799
 30
0.0
 40
1.065640909161679
100
AcDbArc
 50
118.9788184277
 51
177.9803405621
  0
LWPOLYLINE
  5
407
330
1F
100
AcDbEntity
  8
0
  6
SLD-Solid
 62
     7
370
    15
100
AcDbPolyline
 90
        6
 70
   128
 43
0.0
 10
1333.5759967737
 20
929.0653169492
 10
1333.8581353597
 20
929.2453229764
 10
1333.9925140314
 20
929.3015897611
 10
1334.1196209364
 20
929.3336570599
 10
1334.3209356241
 20
929.3220937589
 10
1334.4244092874
 20
929.2074144223
  0
ARC
  5
408
330
1F
100
AcDbEntity
  8
0
  6
SLD-Solid
 62
     7
370
    15
100
AcDbCircle
 10
1333.459883939
 20
929.200310666
 30
0.0
 40
0.9645515077627783
100
AcDbArc
 50
303.3169225167
 51
0.4219773957
  0
LINE
  5
409
330
1F
100
AcDbEntity
  8
0
  6
SLD-Solid
 62
     7
370
    15
100
AcDbLine
 10
1333.9896828108
 20
928.3942878583
 30
0.0
 11
1333.9194983415
 21
928.6185205319
 31
0.0
  0
ARC
  5
40A
330
1F
100
AcDbEntity
  8
0
  6
SLD-Solid
 62
     7
370
    15
100
AcDbCircle
 10
1333.6647500149
 20
928.9219432123
 30
0.0
 40
0.396184342049299
100
AcDbArc
 50
310.0162263318
 51
1.6933120777
  0
LWPOLYLINE
  5
40B
330
1F
100
AcDbEntity
  8
0
  6
SLD-Solid
 62
     7
370
    15
100
AcDbPolyline
 90
        7
 70
   128
 43
0.0
 10
1334.0607613497
 20
928.9336502889
 10
1334.0124517851
 20
928.9846122601
 10
1333.970758336
 20
928.9914667943
 10
1333.9185446672
 20
928.985804353
 10
1333.8606685571
 20
928.968519006
 10
1333.7974876337
 20
928.9394319394
 10
1333.6685925894
 20
928.8547337392
  0
LWPOLYLINE
  5
40C
330
1F
100
AcDbEntity
  8
0
  6
SLD-Solid
 62
     7
370
    15
100
AcDbPolyline
 90
        7
 70
   128
 43
0.0
 10
1333.6685925894
 20
928.8547337392
 10
1333.5526615553
 20
928.752750192
 10
1333.4588736467
 20
928.6382496693
 10
1333.4247201853
 20
928.5801351407
 10
1333.4024876528
 20
928.5269081929
 10
1333.3939343862
 20
928.479403291
 10
1333.3990603857
 20
928.4405410626
  0
LWPOLYLINE
  5
40D
330
1F
100
AcDbEntity
  8
0
  6
SLD-Solid
 62
     7
370
    15
100
AcDbPolyline
 90
        4
 70
   128
 43
0.0
 10
1333.3990603857
 20
928.4405410626
 10
1333.4223061971
 20
928.4082949498
 10
1333.4623903208
 20
928.3927381375
 10
1333.5728973322
 20
928.4003675321
  0
LINE
  5
40E
330
1F
100
AcDbEntity
  8
0
  6
SLD-Solid
 62
     7
370
    15
100
AcDbLine
 10
1333.5728973322
 20
928.4003675321
 30
0.0
 11
1333.5575789385
 21
928.1703532079
 31
0.0
  0
LINE
  5
40F
330
1F
100
AcDbEntity
  8
0
  6
SLD-Solid
 62
     7
370
    15
100
AcDbLine
 10
1333.5575789385
 20
928.1703532079
 30
0.0
 11
1332.3763638906
 21
927.4315536359
 31
0.0
  0
LINE
  5
410
330
1F
100
AcDbEntity
  8
0
  6
SLD-Solid
 62
     7
370
    15
100
AcDbLine
 10
1332.5507968836
 20
928.2556474545
 30
0.0
 11
1332.5447768144
 21
928.2621443608
 31
0.0
  0
LINE
  5
411
330
1F
100
AcDbEntity
  8
0
  6
SLD-Solid
 62
     7
370
    15
100
AcDbLine
 10
1332.1918279104
 20
927.979379926
 30
0.0
 11
1332.1858078413
 21
927.9859364369
 31
0.0
  0
LINE
  5
412
330
1F
100
AcDbEntity
  8
0
  6
SLD-Solid
 62
     7
370
    15
100
AcDbLine
 10
1332.3763638906
 20
927.4315536359
 30
0.0
 11
1332.3702544145
 21
927.4382293561
 31
0.0
  0
LWPOLYLINE
  5
413
330
1F
100
AcDbEntity
  8
0
  6
SLD-Solid
 62
     7
370
    15
100
AcDbPolyline
 90
        3
 70
   128
 43
0.0
 10
1333.5759967737
 20
929.0653169492
 10
1333.5729569368
 20
929.0685952046
 10
1333.5699469023
 20
929.0718138554
  0
LINE
  5
414
330
1F
100
AcDbEntity
  8
0
  6
SLD-Solid
 62
     7
370
    15
100
AcDbLine
 10
1333.0273062162
 20
928.1706512311
 30
0.0
 11
1333.0212563448
 21
928.1773269513
 31
0.0
  0
LINE
  5
415
330
1F
100
AcDbEntity
  8
0
  6
SLD-Solid
 62
     7
370
    15
100
AcDbLine
 10
1334.0607613497
 20
928.9336502889
 30
0.0
 11
1334.0546816759
 21
928.9403260091
 31
0.0
  0
LINE
  5
416
330
1F
100
AcDbEntity
  8
0
  6
SLD-Solid
 62
     7
370
    15
100
AcDbLine
 10
1333.0711752348
 20
928.1106889584
 30
0.0
 11
1333.065095561
 21
928.1173646787
 31
0.0
  0
LINE
  5
417
330
1F
100
AcDbEntity
  8
0
  6
SLD-Solid
 62
     7
370
    15
100
AcDbLine
 10
1333.5728973322
 20
928.4003675321
 30
0.0
 11
1333.5668176584
 21
928.4070432523
 31
0.0
  0
LINE
  5
418
330
1F
100
AcDbEntity
  8
0
  6
SLD-Solid
 62
     7
370
    15
100
AcDbLine
 10
1333.3990603857
 20
928.4405410626
 30
0.0
 11
1333.3929807119
 21
928.4472167828
 31
0.0
  0
LINE
  5
419
330
1F
100
AcDbEntity
  8
0
  6
SLD-Solid
 62
     7
370
    15
100
AcDbLine
 10
1333.9194983415
 20
928.6185205319
 30
0.0
 11
1333.9133888654
 21
928.6252558568
 31
0.0
  0
LWPOLYLINE
  5
41A
330
1F
100
AcDbEntity
  8
0
  6
SLD-Solid
 62
     7
370
    15
100
AcDbPolyline
 90
        3
 70
   128
 43
0.0
 10
1333.9896828108
 20
928.3942878583
 10
1333.9866429739
 20
928.397685323
 10
1333.9835733347
 20
928.4010827878
  0
LINE
  5
41B
330
1F
100
AcDbEntity
  8
0
  6
SLD-Solid
 62
     7
370
    15
100
AcDbLine
 10
1332.6452106409
 20
926.5618026593
 30
0.0
 11
1332.5502902441
 21
926.8478453496
 31
0.0
  0
LINE
  5
41C
330
1F
100
AcDbEntity
  8
0
  6
SLD-Solid
 62
     7
370
    15
100
AcDbLine
 10
1332.5502902441
 20
926.8478453496
 30
0.0
 11
1334.6012860708
 21
928.4602702
 31
0.0
  0
LINE
  5
41D
330
1F
100
AcDbEntity
  8
0
  6
SLD-Solid
 62
     7
370
    15
100
AcDbLine
 10
1334.6012860708
 20
928.4602702
 30
0.0
 11
1334.6655398779
 21
928.2688796857
 31
0.0
  0
LINE
  5
41E
330
1F
100
AcDbEntity
  8
0
  6
SLD-Solid
 62
     7
370
    15
100
AcDbLine
 10
1334.6655398779
 20
928.2688796857
 30
0.0
 11
1332.9811722212
 21
926.9448221066
 31
0.0
  0
LINE
  5
41F
330
1F
100
AcDbEntity
  8
0
  6
SLD-Solid
 62
     7
370
    15
100
AcDbLine
 10
1332.9811722212
 20
926.9448221066
 30
0.0
 11
1333.0456942491
 21
926.7425835469
 31
0.0
  0
LINE
  5
420
330
1F
100
AcDbEntity
  8
0
  6
SLD-Solid
 62
     7
370
    15
100
AcDbLine
 10
1333.0456942491
 20
926.7425835469
 30
0.0
 11
1332.6452106409
 21
926.5618026593
 31
0.0
  0
LINE
  5
421
330
1F
100
AcDbEntity
  8
0
  6
SLD-Solid
 62
     7
370
    15
100
AcDbLine
 10
1334.6012860708
 20
928.4602702
 30
0.0
 11
1334.5951169901
 21
928.4671247342
 31
0.0
  0
LINE
  5
422
330
1F
100
AcDbEntity
  8
0
  6
SLD-Solid
 62
     7
370
    15
100
AcDbLine
 10
1332.5502902441
 20
926.8478453496
 30
0.0
 11
1332.5441509657
 21
926.8546998837
 31
0.0
  0
LINE
  5
423
330
1F
100
AcDbEntity
  8
0
  6
SLD-Solid
 62
     7
370
    15
100
AcDbLine
 10
1332.6452106409
 20
926.5618026593
 30
0.0
 11
1332.6390415602
 21
926.5687764027
 31
0.0
  0
LWPOLYLINE
  5
424
330
1F
100
AcDbEntity
  8
0
  6
SLD-Solid
 62
     7
370
    15
100
AcDbPolyline
 90
        9
 70
   128
 43
0.0
 10
1342.9383069448
 20
975.8115709164
 10
1344.1242307596
 20
972.1616804936
 10
1345.3244894914
 20
968.4676826337
 10
1346.5343445711
 20
964.7441208699
 10
1347.7489978246
 20
961.0058367589
 10
1348.9636212759
 20
957.2675526479
 10
1350.1734763555
 20
953.5439908841
 10
1351.3737350874
 20
949.8499930241
 10
1352.5596589021
 20
946.2001026013
  0
LWPOLYLINE
  5
425
330
1F
100
AcDbEntity
  8
0
  6
SLD-Solid
 62
     7
370
    15
100
AcDbPolyline
 90
        9
 70
   128
 43
0.0
 10
1341.941419261
 20
978.8796604016
 10
1341.9837683611
 20
978.7493646481
 10
1342.0504063539
 20
978.5442054608
 10
1342.1411246233
 20
978.2650769093
 10
1342.2554761343
 20
977.9131710866
 10
1342.3929840498
 20
977.489918504
 10
1342.553111928
 20
976.997107301
 10
1342.7351445131
 20
976.4368832448
 10
1342.9383069448
 20
975.8115709164
  0
ARC
  5
426
330
1F
100
AcDbEntity
  8
0
  6
SLD-Solid
 62
     7
370
    15
100
AcDbCircle
 10
1340.9869878217
 20
978.5701858413
 30
0.0
 40
1.003351322221466
100
AcDbArc
 50
17.9652955111
 51
83.6486447147
  0
LWPOLYLINE
  5
427
330
1F
100
AcDbEntity
  8
0
  6
SLD-Solid
 62
     7
370
    15
100
AcDbPolyline
 90
        5
 70
   128
 43
0.0
 10
1352.5596589021
 20
946.2001026013
 10
1352.9963225298
 20
944.8562562802
 10
1353.3153861933
 20
943.8742101529
 10
1353.5097271375
 20
943.2760775426
 10
1353.5749942236
 20
943.075150285
  0
LWPOLYLINE
  5
428
330
1F
100
AcDbEntity
  8
0
  6
SLD-Solid
 62
     7
370
    15
100
AcDbPolyline
 90
       17
 70
   128
 43
0.0
 10
1331.5810591154
 20
923.8020480016
 10
1331.7415744238
 20
923.9863455632
 10
1331.8274945192
 20
924.1325557568
 10
1331.8250209265
 20
924.219280515
 10
1331.7343026571
 20
924.2334664204
 10
1331.5697044306
 20
924.1723120549
 10
1331.3571840696
 20
924.0442216733
 10
1331.1297327451
 20
923.8677919248
 10
1330.922189372
 20
923.6696660855
 10
1330.7656079702
 20
923.4807193616
 10
1330.6829959326
 20
923.330634866
 10
1330.6862145834
 20
923.2430756429
 10
1330.7746082716
 20
923.2316315511
 10
1330.9352427892
 20
923.2973754743
 10
1331.1444848947
 20
923.4293401578
 10
1331.3712209635
 20
923.6066043713
 10
1331.5810591154
 20
923.8020480016
  0
LWPOLYLINE
  5
429
330
1F
100
AcDbEntity
  8
0
  6
SLD-Solid
 62
     7
370
    15
100
AcDbPolyline
 90
        9
 70
   128
 43
0.0
 10
1316.9288963251
 20
952.3061216214
 10
1316.9311314993
 20
952.2992670873
 10
1316.9377178125
 20
952.279001508
 10
1316.9484764509
 20
952.2458613255
 10
1316.9631391935
 20
952.2007406094
 10
1316.9812292032
 20
952.1450698712
 10
1317.0022696428
 20
952.080339227
 10
1317.0256346636
 20
952.0083964208
 10
1317.0506686144
 20
951.9313872197
  0
LWPOLYLINE
  5
42A
330
1F
100
AcDbEntity
  8
0
  6
SLD-Solid
 62
     7
370
    15
100
AcDbPolyline
 90
        9
 70
   128
 43
0.0
 10
1316.9288963251
 20
952.3061216214
 10
1316.9292837553
 20
952.3062408307
 10
1316.9307738714
 20
952.3067176679
 10
1316.9344097547
 20
952.3079097607
 10
1316.9412940912
 20
952.3101151326
 10
1316.9555396013
 20
952.3147642949
 10
1317.0122236185
 20
952.3331821301
 10
1317.1281844549
 20
952.3708522656
 10
1318.8310295515
 20
952.9241621831
  0
LWPOLYLINE
  5
42B
330
1F
100
AcDbEntity
  8
0
  6
SLD-Solid
 62
     7
370
    15
100
AcDbPolyline
 90
        9
 70
   128
 43
0.0
 10
1317.0506686144
 20
951.9313872197
 10
1317.1119123869
 20
951.7428577283
 10
1317.1734839849
 20
951.5533745625
 10
1317.2353238039
 20
951.3630569318
 10
1317.2973722391
 20
951.1720836499
 10
1317.3595994882
 20
950.9805143216
 10
1317.421975749
 20
950.7885873654
 10
1317.4844414167
 20
950.596362386
 10
1317.5469368868
 20
950.4040181973
  0
LWPOLYLINE
  5
42C
330
1F
100
AcDbEntity
  8
0
  6
SLD-Solid
 62
     7
370
    15
100
AcDbPolyline
 90
        9
 70
   128
 43
0.0
 10
1317.5469368868
 20
950.4040181973
 10
1317.5770670347
 20
950.3112137654
 10
1317.6060646944
 20
950.2220452168
 10
1317.6327675752
 20
950.139790807
 10
1317.6561922006
 20
950.0677287915
 10
1317.6754146986
 20
950.0086009839
 10
1317.689690011
 20
949.9646723607
 10
1317.6984816961
 20
949.937611852
 10
1317.701432126
 20
949.9284923413
  0
LINE
  5
42D
330
1F
100
AcDbEntity
  8
0
  6
SLD-Solid
 62
     7
370
    15
100
AcDbLine
 10
1319.6143537931
 20
950.5133331159
 30
0.0
 11
1317.701432126
 21
949.9284923413
 31
0.0
  0
LINE
  5
42E
330
1F
100
AcDbEntity
  8
0
  6
SLD-Solid
 62
     7
370
    15
100
AcDbLine
 10
1320.5340236597
 20
947.6828277448
 30
0.0
 11
1318.630757945
 21
947.0683038571
 31
0.0
  0
LWPOLYLINE
  5
42F
330
1F
100
AcDbEntity
  8
0
  6
SLD-Solid
 62
     7
370
    15
100
AcDbPolyline
 90
        9
 70
   128
 43
0.0
 10
1317.701432126
 20
949.9284923413
 10
1317.8288072519
 20
949.5364725926
 10
1317.9540068083
 20
949.1511285642
 10
1318.0764943533
 20
948.774129186
 10
1318.1957632475
 20
948.4070837834
 10
1318.3113068514
 20
948.0514824727
 10
1318.4226483278
 20
947.7088749745
 10
1318.5292810373
 20
947.3806918004
 10
1318.630757945
 20
947.0683038571
  0
LWPOLYLINE
  5
430
330
1F
100
AcDbEntity
  8
0
  6
SLD-Solid
 62
     7
370
    15
100
AcDbPolyline
 90
        9
 70
   128
 43
0.0
 10
1318.9768225126
 20
946.0032284596
 10
1318.9992040567
 20
945.9343850949
 10
1319.02298631
 20
945.8611309865
 10
1319.0476030283
 20
945.7854926923
 10
1319.0723389559
 20
945.7092583516
 10
1319.0966278486
 20
945.6345141271
 10
1319.1198438577
 20
945.5631077626
 10
1319.1413313322
 20
945.4969466069
 10
1319.1605836324
 20
945.43769959
  0
LINE
  5
431
330
1F
100
AcDbEntity
  8
0
  6
SLD-Solid
 62
     7
370
    15
100
AcDbLine
 10
1318.630757945
 20
947.0683038571
 30
0.0
 11
1318.9768225126
 21
946.0032284596
 31
0.0
  0
LWPOLYLINE
  5
432
330
1F
100
AcDbEntity
  8
0
  6
SLD-Solid
 62
     7
370
    15
100
AcDbPolyline
 90
        9
 70
   128
 43
0.0
 10
1319.1605836324
 20
945.43769959
 10
1319.2057639532
 20
945.2987015584
 10
1319.2497223787
 20
945.1633990147
 10
1319.2924291067
 20
945.031970773
 10
1319.3338841371
 20
944.9044168332
 10
1319.3740278654
 20
944.7808564046
 10
1319.4128304891
 20
944.6614086964
 10
1319.4502920084
 20
944.5461333135
 10
1319.4863528185
 20
944.4350898602
  0
LWPOLYLINE
  5
433
330
1F
100
AcDbEntity
  8
0
  6
SLD-Solid
 62
     7
370
    15
100
AcDbPolyline
 90
        4
 70
   128
 43
0.0
 10
1319.4863528185
 20
944.4350898602
 10
1319.501283782
 20
944.3891346791
 10
1319.5102244787
 20
944.3615973332
 10
1319.5128470831
 20
944.3535507062
  0
LWPOLYLINE
  5
434
330
1F
100
AcDbEntity
  8
0
  6
SLD-Solid
 62
     7
370
    15
100
AcDbPolyline
 90
       17
 70
   128
 43
0.0
 10
1331.8061560564
 20
922.964841161
 10
1331.9873839788
 20
923.124581609
 10
1332.1028679781
 20
923.2355654576
 10
1332.1342498235
 20
923.2820570805
 10
1332.0764333181
 20
923.257142339
 10
1331.9386273794
 20
923.1642783025
 10
1331.7426771097
 20
923.0164587834
 10
1331.5191894941
 20
922.835320268
 10
1331.3024670057
 20
922.6481020787
 10
1331.1251133852
 20
922.4837720731
 10
1331.0132652693
 20
922.3683774808
 10
1330.983194726
 20
922.3203957417
 10
1331.0391932897
 20
922.3474562505
 10
1331.1731249265
 20
922.4449694493
 10
1331.3654393129
 20
922.5971401074
 10
1331.5876156263
 20
922.7798283437
 10
1331.8061560564
 20
922.964841161
  0
ARC
  5
435
330
1F
100
AcDbEntity
  8
0
  6
SLD-Solid
 62
     7
370
    15
100
AcDbCircle
 10
1316.3558475305
 20
1015.3083357307
 30
0.0
 40
33.15233699864796
100
AcDbArc
 50
261.8735163446
 51
270.5229139297
  0
LINE
  5
436
330
1F
100
AcDbEntity
  8
0
  6
SLD-Solid
 62
     7
370
    15
100
AcDbLine
 10
568.2610303335
 20
978.4985483029
 30
0.0
 11
568.2610303335
 21
946.4985430577
 31
0.0
  0
LINE
  5
437
330
1F
100
AcDbEntity
  8
0
  6
SLD-Solid
 62
     7
370
    15
100
AcDbLine
 10
568.2610303335
 20
1803.8986027577
 30
0.0
 11
568.2610303335
 21
1771.8985379079
 31
0.0
  0
ARC
  5
438
330
1F
100
AcDbEntity
  8
0
  6
SLD-Solid
 62
     7
370
    15
100
AcDbCircle
 10
569.2610286586
 20
1005.5985464227
 30
0.0
 40
0.9999999999998863
100
AcDbArc
 50
180.0
 51
270.0
  0
LINE
  5
439
330
1F
100
AcDbEntity
  8
0
  6
SLD-Solid
 62
     7
370
    15
100
AcDbLine
 10
568.2610303335
 20
1005.5985749104
 30
0.0
 11
568.2610303335
 21
1040.9985483029
 31
0.0
  0
LINE
  5
43A
330
1F
100
AcDbEntity
  8
0
  6
SLD-Solid
 62
     7
370
    15
100
AcDbLine
 10
670.6610351972
 20
1004.5985281804
 30
0.0
 11
569.2610174589
 21
1004.5985281804
 31
0.0
  0
ARC
  5
43B
330
1F
100
AcDbEntity
  8
0
  6
SLD-Solid
 62
     7
370
    15
100
AcDbCircle
 10
670.6610286586
 20
1005.5985464227
 30
0.0
 40
1.000000000000114
100
AcDbArc
 50
270.0
 51
0.0
  0
LINE
  5
43C
330
1F
100
AcDbEntity
  8
0
  6
SLD-Solid
 62
     7
370
    15
100
AcDbLine
 10
671.6610223226
 20
1010.9985173085
 30
0.0
 11
671.6610223226
 21
1005.5985749104
 31
0.0
  0
LINE
  5
43D
330
1F
100
AcDbEntity
  8
0
  6
SLD-Solid
 62
     7
370
    15
100
AcDbLine
 10
568.2610303335
 20
1830.9985697606
 30
0.0
 11
568.2610303335
 21
1866.3986027577
 31
0.0
  0
ARC
  5
43E
330
1F
100
AcDbEntity
  8
0
  6
SLD-Solid
 62
     7
370
    15
100
AcDbCircle
 10
569.2610286586
 20
1830.9985464227
 30
0.0
 40
1.0
100
AcDbArc
 50
180.0
 51
270.0
  0
LINE
  5
43F
330
1F
100
AcDbEntity
  8
0
  6
SLD-Solid
 62
     7
370
    15
100
AcDbLine
 10
670.6610351972
 20
1829.9985230306
 30
0.0
 11
569.2610174589
 21
1829.9985230306
 31
0.0
  0
ARC
  5
440
330
1F
100
AcDbEntity
  8
0
  6
SLD-Solid
 62
     7
370
    15
100
AcDbCircle
 10
670.6610286586
 20
1830.9985464227
 30
0.0
 40
1.0
100
AcDbArc
 50
270.0
 51
0.0
  0
LINE
  5
441
330
1F
100
AcDbEntity
  8
0
  6
SLD-Solid
 62
     7
370
    15
100
AcDbLine
 10
671.6610223226
 20
1836.3985121587
 30
0.0
 11
671.6610223226
 21
1830.9985697606
 31
0.0
  0
ARC
  5
442
330
1F
100
AcDbEntity
  8
0
  6
SLD-Solid
 62
     7
370
    15
100
AcDbCircle
 10
569.5110286586
 20
1089.7780015825
 30
0.0
 40
2.049999999999955
100
AcDbArc
 50
75.0
 51
180.0
  0
ARC
  5
443
330
1F
100
AcDbEntity
  8
0
  6
SLD-Solid
 62
     7
370
    15
100
AcDbCircle
 10
569.5110286586
 20
1089.7780015825
 30
0.0
 40
1.25000000000006
100
AcDbArc
 50
75.0
 51
180.0
  0
LINE
  5
444
330
1F
100
AcDbEntity
  8
0
  6
SLD-Solid
 62
     7
370
    15
100
AcDbLine
 10
570.0415998869
 20
1091.7581618169
 30
0.0
 11
603.3385724001
 21
1082.8362405637
 31
0.0
  0
LINE
  5
445
330
1F
100
AcDbEntity
  8
0
  6
SLD-Solid
 62
     7
370
    15
100
AcDbLine
 10
569.8345631532
 20
1090.9853875974
 30
0.0
 11
603.1315058641
 21
1082.0635259488
 31
0.0
  0
LINE
  5
446
330
1F
100
AcDbEntity
  8
0
  6
SLD-Solid
 62
     7
370
    15
100
AcDbLine
 10
567.4610167913
 20
1040.9985483029
 30
0.0
 11
568.2610303335
 21
1040.9985483029
 31
0.0
  0
LINE
  5
447
330
1F
100
AcDbEntity
  8
0
  6
SLD-Solid
 62
     7
370
    15
100
AcDbLine
 10
567.4610167913
 20
1040.9985483029
 30
0.0
 11
567.4610167913
 21
1089.7779763081
 31
0.0
  0
LINE
  5
448
330
1F
100
AcDbEntity
  8
0
  6
SLD-Solid
 62
     7
370
    15
100
AcDbLine
 10
568.2610303335
 20
1040.9985483029
 30
0.0
 11
568.2610303335
 21
1089.7779763081
 31
0.0
  0
ARC
  5
449
330
1F
100
AcDbEntity
  8
0
  6
SLD-Solid
 62
     7
370
    15
100
AcDbCircle
 10
596.6610286586
 20
1057.9153717232
 30
0.0
 40
25.80000000000007
100
AcDbArc
 50
0.0
 51
75.0
  0
ARC
  5
44A
330
1F
100
AcDbEntity
  8
0
  6
SLD-Solid
 62
     7
370
    15
100
AcDbCircle
 10
596.6610286586
 20
1057.9153717232
 30
0.0
 40
25.00000000000011
100
AcDbArc
 50
0.0
 51
75.0
  0
LINE
  5
44B
330
1F
100
AcDbEntity
  8
0
  6
SLD-Solid
 62
     7
370
    15
100
AcDbLine
 10
623.7110227518
 20
1041.7985618451
 30
0.0
 11
644.9110239916
 21
1041.7985618451
 31
0.0
  0
LINE
  5
44C
330
1F
100
AcDbEntity
  8
0
  6
SLD-Solid
 62
     7
370
    15
100
AcDbLine
 10
623.7110227518
 20
1040.9985483029
 30
0.0
 11
644.9110239916
 21
1040.9985483029
 31
0.0
  0
LINE
  5
44D
330
1F
100
AcDbEntity
  8
0
  6
SLD-Solid
 62
     7
370
    15
100
AcDbLine
 10
621.661040204
 20
1057.9153597691
 30
0.0
 11
621.661040204
 21
1043.0485308507
 31
0.0
  0
LINE
  5
44E
330
1F
100
AcDbEntity
  8
0
  6
SLD-Solid
 62
     7
370
    15
100
AcDbLine
 10
622.4610239439
 20
1057.9153597691
 30
0.0
 11
622.4610239439
 21
1043.0485308507
 31
0.0
  0
ARC
  5
44F
330
1F
100
AcDbEntity
  8
0
  6
SLD-Solid
 62
     7
370
    15
100
AcDbCircle
 10
623.7110286586
 20
1043.0485464227
 30
0.0
 40
2.049999999999955
100
AcDbArc
 50
180.0
 51
270.0
  0
ARC
  5
450
330
1F
100
AcDbEntity
  8
0
  6
SLD-Solid
 62
     7
370
    15
100
AcDbCircle
 10
623.7110286586
 20
1043.0485464227
 30
0.0
 40
1.25
100
AcDbArc
 50
180.0
 51
270.0
  0
LINE
  5
451
330
1F
100
AcDbEntity
  8
0
  6
SLD-Solid
 62
     7
370
    15
100
AcDbLine
 10
646.9610363416
 20
1039.7485196927
 30
0.0
 11
646.9610363416
 21
1023.0485499242
 31
0.0
  0
LINE
  5
452
330
1F
100
AcDbEntity
  8
0
  6
SLD-Solid
 62
     7
370
    15
100
AcDbLine
 10
646.1610227995
 20
1039.7485196927
 30
0.0
 11
646.1610227995
 21
1023.0485499242
 31
0.0
  0
ARC
  5
453
330
1F
100
AcDbEntity
  8
0
  6
SLD-Solid
 62
     7
370
    15
100
AcDbCircle
 10
648.2110286586
 20
1023.0485464227
 30
0.0
 40
1.25
100
AcDbArc
 50
180.0
 51
270.0
  0
ARC
  5
454
330
1F
100
AcDbEntity
  8
0
  6
SLD-Solid
 62
     7
370
    15
100
AcDbCircle
 10
648.2110286586
 20
1023.0485464227
 30
0.0
 40
2.049999999999955
100
AcDbArc
 50
180.0
 51
270.0
  0
ARC
  5
455
330
1F
100
AcDbEntity
  8
0
  6
SLD-Solid
 62
     7
370
    15
100
AcDbCircle
 10
644.9110286586
 20
1039.7485464227
 30
0.0
 40
1.25
100
AcDbArc
 50
0.0
 51
90.0
  0
ARC
  5
456
330
1F
100
AcDbEntity
  8
0
  6
SLD-Solid
 62
     7
370
    15
100
AcDbCircle
 10
644.9110286586
 20
1039.7485464227
 30
0.0
 40
2.049999999999955
100
AcDbArc
 50
0.0
 51
90.0
  0
LINE
  5
457
330
1F
100
AcDbEntity
  8
0
  6
SLD-Solid
 62
     7
370
    15
100
AcDbLine
 10
648.2110351496
 20
1021.7985213139
 30
0.0
 11
670.4110235147
 21
1021.7985213139
 31
0.0
  0
LINE
  5
458
330
1F
100
AcDbEntity
  8
0
  6
SLD-Solid
 62
     7
370
    15
100
AcDbLine
 10
648.2110351496
 20
1020.9985673764
 30
0.0
 11
670.4110235147
 21
1020.9985673764
 31
0.0
  0
ARC
  5
459
330
1F
100
AcDbEntity
  8
0
  6
SLD-Solid
 62
     7
370
    15
100
AcDbCircle
 10
670.4110286586
 20
1019.7485464227
 30
0.0
 40
2.049999999999955
100
AcDbArc
 50
0.0
 51
90.0
  0
ARC
  5
45A
330
1F
100
AcDbEntity
  8
0
  6
SLD-Solid
 62
     7
370
    15
100
AcDbCircle
 10
670.4110286586
 20
1019.7485464227
 30
0.0
 40
1.25
100
AcDbArc
 50
0.0
 51
90.0
  0
LINE
  5
45B
330
1F
100
AcDbEntity
  8
0
  6
SLD-Solid
 62
     7
370
    15
100
AcDbLine
 10
671.6610223226
 20
1010.9985173085
 30
0.0
 11
672.4610358648
 21
1010.9985173085
 31
0.0
  0
LINE
  5
45C
330
1F
100
AcDbEntity
  8
0
  6
SLD-Solid
 62
     7
370
    15
100
AcDbLine
 10
672.4610358648
 20
1019.7485387662
 30
0.0
 11
672.4610358648
 21
1010.9985173085
 31
0.0
  0
LINE
  5
45D
330
1F
100
AcDbEntity
  8
0
  6
SLD-Solid
 62
     7
370
    15
100
AcDbLine
 10
671.6610223226
 20
1019.7485387662
 30
0.0
 11
671.6610223226
 21
1010.9985173085
 31
0.0
  0
LINE
  5
45E
330
1F
100
AcDbEntity
  8
0
  6
SLD-Solid
 62
     7
370
    15
100
AcDbLine
 10
567.4610167913
 20
1866.3986027577
 30
0.0
 11
568.2610303335
 21
1866.3986027577
 31
0.0
  0
LINE
  5
45F
330
1F
100
AcDbEntity
  8
0
  6
SLD-Solid
 62
     7
370
    15
100
AcDbLine
 10
567.4610167913
 20
1866.3986027577
 30
0.0
 11
567.4610167913
 21
1915.1779711583
 31
0.0
  0
LINE
  5
460
330
1F
100
AcDbEntity
  8
0
  6
SLD-Solid
 62
     7
370
    15
100
AcDbLine
 10
568.2610303335
 20
1866.3986027577
 30
0.0
 11
568.2610303335
 21
1915.1779711583
 31
0.0
  0
LINE
  5
461
330
1F
100
AcDbEntity
  8
0
  6
SLD-Solid
 62
     7
370
    15
100
AcDbLine
 10
570.0415998869
 20
1917.158156667
 30
0.0
 11
603.3385724001
 21
1908.2362950185
 31
0.0
  0
LINE
  5
462
330
1F
100
AcDbEntity
  8
0
  6
SLD-Solid
 62
     7
370
    15
100
AcDbLine
 10
569.8345631532
 20
1916.3854420522
 30
0.0
 11
603.1315058641
 21
1907.4634611943
 31
0.0
  0
ARC
  5
463
330
1F
100
AcDbEntity
  8
0
  6
SLD-Solid
 62
     7
370
    15
100
AcDbCircle
 10
569.5110286586
 20
1915.1780015825
 30
0.0
 40
1.25
100
AcDbArc
 50
75.0
 51
180.0
  0
ARC
  5
464
330
1F
100
AcDbEntity
  8
0
  6
SLD-Solid
 62
     7
370
    15
100
AcDbCircle
 10
569.5110286586
 20
1915.1780015825
 30
0.0
 40
2.050000000000068
100
AcDbArc
 50
75.0
 51
180.0
  0
ARC
  5
465
330
1F
100
AcDbEntity
  8
0
  6
SLD-Solid
 62
     7
370
    15
100
AcDbCircle
 10
596.6610286586
 20
1883.3153717232
 30
0.0
 40
25.79999999999984
100
AcDbArc
 50
0.0
 51
75.0
  0
ARC
  5
466
330
1F
100
AcDbEntity
  8
0
  6
SLD-Solid
 62
     7
370
    15
100
AcDbCircle
 10
596.6610286586
 20
1883.3153717232
 30
0.0
 40
24.99999999999999
100
AcDbArc
 50
0.0
 51
75.0
  0
LINE
  5
467
330
1F
100
AcDbEntity
  8
0
  6
SLD-Solid
 62
     7
370
    15
100
AcDbLine
 10
623.7110227518
 20
1867.1984970906
 30
0.0
 11
644.9110239916
 21
1867.1984970906
 31
0.0
  0
LINE
  5
468
330
1F
100
AcDbEntity
  8
0
  6
SLD-Solid
 62
     7
370
    15
100
AcDbLine
 10
623.7110227518
 20
1866.3986027577
 30
0.0
 11
644.9110239916
 21
1866.3986027577
 31
0.0
  0
LINE
  5
469
330
1F
100
AcDbEntity
  8
0
  6
SLD-Solid
 62
     7
370
    15
100
AcDbLine
 10
621.661040204
 20
1883.3153546193
 30
0.0
 11
621.661040204
 21
1868.4485257008
 31
0.0
  0
LINE
  5
46A
330
1F
100
AcDbEntity
  8
0
  6
SLD-Solid
 62
     7
370
    15
100
AcDbLine
 10
622.4610239439
 20
1883.3153546193
 30
0.0
 11
622.4610239439
 21
1868.4485257008
 31
0.0
  0
ARC
  5
46B
330
1F
100
AcDbEntity
  8
0
  6
SLD-Solid
 62
     7
370
    15
100
AcDbCircle
 10
623.7110286586
 20
1868.4485464227
 30
0.0
 40
1.250000000000227
100
AcDbArc
 50
180.0
 51
270.0
  0
ARC
  5
46C
330
1F
100
AcDbEntity
  8
0
  6
SLD-Solid
 62
     7
370
    15
100
AcDbCircle
 10
623.7110286586
 20
1868.4485464227
 30
0.0
 40
2.050000000000182
100
AcDbArc
 50
180.0
 51
270.0
  0
ARC
  5
46D
330
1F
100
AcDbEntity
  8
0
  6
SLD-Solid
 62
     7
370
    15
100
AcDbCircle
 10
648.2110286586
 20
1848.4485464227
 30
0.0
 40
1.25
100
AcDbArc
 50
180.0
 51
270.0
  0
ARC
  5
46E
330
1F
100
AcDbEntity
  8
0
  6
SLD-Solid
 62
     7
370
    15
100
AcDbCircle
 10
648.2110286586
 20
1848.4485464227
 30
0.0
 40
2.050000000000182
100
AcDbArc
 50
180.0
 51
270.0
  0
ARC
  5
46F
330
1F
100
AcDbEntity
  8
0
  6
SLD-Solid
 62
     7
370
    15
100
AcDbCircle
 10
644.9110286586
 20
1865.1485464227
 30
0.0
 40
2.050000000000068
100
AcDbArc
 50
0.0
 51
90.0
  0
ARC
  5
470
330
1F
100
AcDbEntity
  8
0
  6
SLD-Solid
 62
     7
370
    15
100
AcDbCircle
 10
644.9110286586
 20
1865.1485464227
 30
0.0
 40
1.249999999999886
100
AcDbArc
 50
0.0
 51
90.0
  0
LINE
  5
471
330
1F
100
AcDbEntity
  8
0
  6
SLD-Solid
 62
     7
370
    15
100
AcDbLine
 10
646.9610363416
 20
1865.1485741475
 30
0.0
 11
646.9610363416
 21
1848.4485447743
 31
0.0
  0
LINE
  5
472
330
1F
100
AcDbEntity
  8
0
  6
SLD-Solid
 62
     7
370
    15
100
AcDbLine
 10
646.1610227995
 20
1865.1485741475
 30
0.0
 11
646.1610227995
 21
1848.4485447743
 31
0.0
  0
LINE
  5
473
330
1F
100
AcDbEntity
  8
0
  6
SLD-Solid
 62
     7
370
    15
100
AcDbLine
 10
648.2110351496
 20
1847.1985161641
 30
0.0
 11
670.4110235147
 21
1847.1985161641
 31
0.0
  0
LINE
  5
474
330
1F
100
AcDbEntity
  8
0
  6
SLD-Solid
 62
     7
370
    15
100
AcDbLine
 10
648.2110351496
 20
1846.3985026219
 30
0.0
 11
670.4110235147
 21
1846.3985026219
 31
0.0
  0
LINE
  5
475
330
1F
100
AcDbEntity
  8
0
  6
SLD-Solid
 62
     7
370
    15
100
AcDbLine
 10
672.4610358648
 20
1845.148593221
 30
0.0
 11
672.4610358648
 21
1836.3985121587
 31
0.0
  0
LINE
  5
476
330
1F
100
AcDbEntity
  8
0
  6
SLD-Solid
 62
     7
370
    15
100
AcDbLine
 10
671.6610223226
 20
1836.3985121587
 30
0.0
 11
672.4610358648
 21
1836.3985121587
 31
0.0
  0
LINE
  5
477
330
1F
100
AcDbEntity
  8
0
  6
SLD-Solid
 62
     7
370
    15
100
AcDbLine
 10
671.6610223226
 20
1845.148593221
 30
0.0
 11
671.6610223226
 21
1836.3985121587
 31
0.0
  0
ARC
  5
478
330
1F
100
AcDbEntity
  8
0
  6
SLD-Solid
 62
     7
370
    15
100
AcDbCircle
 10
670.4110286586
 20
1845.1485464227
 30
0.0
 40
1.25
100
AcDbArc
 50
0.0
 51
90.0
  0
ARC
  5
479
330
1F
100
AcDbEntity
  8
0
  6
SLD-Solid
 62
     7
370
    15
100
AcDbCircle
 10
670.4110286586
 20
1845.1485464227
 30
0.0
 40
2.050000000000068
100
AcDbArc
 50
0.0
 51
90.0
  0
LINE
  5
47A
330
1F
100
AcDbEntity
  8
0
  6
SLD-Solid
 62
     7
370
    15
100
AcDbLine
 10
569.9610144071
 20
1004.5985281804
 30
0.0
 11
569.9610144071
 21
1004.2586624959
 31
0.0
  0
LINE
  5
47B
330
1F
100
AcDbEntity
  8
0
  6
SLD-Solid
 62
     7
370
    15
100
AcDbLine
 10
570.7610279493
 20
1004.5985281804
 30
0.0
 11
570.7610279493
 21
1004.09856442
 31
0.0
  0
LINE
  5
47C
330
1F
100
AcDbEntity
  8
0
  6
SLD-Solid
 62
     7
370
    15
100
AcDbLine
 10
570.7610279493
 20
1002.7403533795
 30
0.0
 11
570.7610279493
 21
1002.3259222844
 31
0.0
  0
LINE
  5
47D
330
1F
100
AcDbEntity
  8
0
  6
SLD-Solid
 62
     7
370
    15
100
AcDbLine
 10
570.7610279493
 20
322.3985433915
 30
0.0
 11
569.9610144071
 21
322.3985433915
 31
0.0
  0
LINE
  5
47E
330
1F
100
AcDbEntity
  8
0
  6
SLD-Solid
 62
     7
370
    15
100
AcDbLine
 10
570.7610279493
 20
322.761751745
 30
0.0
 11
570.7610279493
 21
322.3985433915
 31
0.0
  0
LINE
  5
47F
330
1F
100
AcDbEntity
  8
0
  6
SLD-Solid
 62
     7
370
    15
100
AcDbLine
 10
569.9610144071
 20
1829.9985230306
 30
0.0
 11
569.9610144071
 21
1829.658657346
 31
0.0
  0
LINE
  5
480
330
1F
100
AcDbEntity
  8
0
  6
SLD-Solid
 62
     7
370
    15
100
AcDbLine
 10
570.7610279493
 20
1829.9985230306
 30
0.0
 11
570.7610279493
 21
1829.4985592702
 31
0.0
  0
LINE
  5
481
330
1F
100
AcDbEntity
  8
0
  6
SLD-Solid
 62
     7
370
    15
100
AcDbLine
 10
570.7610279493
 20
1828.140288625
 30
0.0
 11
570.7610279493
 21
1827.7259171346
 31
0.0
  0
LINE
  5
482
330
1F
100
AcDbEntity
  8
0
  6
SLD-Solid
 62
     7
370
    15
100
AcDbLine
 10
570.7610279493
 20
1147.798568044
 30
0.0
 11
569.9610144071
 21
1147.798568044
 31
0.0
  0
LINE
  5
483
330
1F
100
AcDbEntity
  8
0
  6
SLD-Solid
 62
     7
370
    15
100
AcDbLine
 10
570.7610279493
 20
1148.1617391446
 30
0.0
 11
570.7610279493
 21
1147.798568044
 31
0.0
  0
LINE
  5
484
330
1F
100
AcDbEntity
  8
0
  6
SLD-Solid
 62
     7
370
    15
100
AcDbLine
 10
1258.9610248976
 20
157.7985436061
 30
0.0
 11
1201.961028593
 21
157.7985436061
 31
0.0
  0
LINE
  5
485
330
1F
100
AcDbEntity
  8
0
  6
SLD-Solid
 62
     7
370
    15
100
AcDbLine
 10
1256.9610208444
 20
151.7985463479
 30
0.0
 11
1203.9610326462
 21
151.7985463479
 31
0.0
  0
LINE
  5
486
330
1F
100
AcDbEntity
  8
0
  6
SLD-Solid
 62
     7
370
    15
100
AcDbLine
 10
669.961038249
 20
157.7985436061
 30
0.0
 11
612.9610270433
 21
157.7985436061
 31
0.0
  0
LINE
  5
487
330
1F
100
AcDbEntity
  8
0
  6
SLD-Solid
 62
     7
370
    15
100
AcDbLine
 10
667.9610341959
 20
151.7985463479
 30
0.0
 11
614.9610310964
 21
151.7985463479
 31
0.0
  0
LINE
  5
488
330
1F
100
AcDbEntity
  8
0
  6
SLD-Solid
 62
     7
370
    15
100
AcDbLine
 10
1265.4610306196
 20
319.7985440829
 30
0.0
 11
1265.4610306196
 21
320.998549495
 31
0.0
  0
LINE
  5
489
330
1F
100
AcDbEntity
  8
0
  6
SLD-Solid
 62
     7
370
    15
100
AcDbLine
 10
1195.461022871
 20
319.7985440829
 30
0.0
 11
1195.461022871
 21
320.998549495
 31
0.0
  0
LINE
  5
48A
330
1F
100
AcDbEntity
  8
0
  6
SLD-Solid
 62
     7
370
    15
100
AcDbLine
 10
1195.461022871
 20
319.7985440829
 30
0.0
 11
1265.4610306196
 21
319.7985440829
 31
0.0
  0
LINE
  5
48B
330
1F
100
AcDbEntity
  8
0
  6
SLD-Solid
 62
     7
370
    15
100
AcDbLine
 10
1261.4206701689
 20
225.7985473016
 30
0.0
 11
1199.5013833217
 21
225.7985473016
 31
0.0
  0
LINE
  5
48C
330
1F
100
AcDbEntity
  8
0
  6
SLD-Solid
 62
     7
370
    15
100
AcDbLine
 10
676.4610141687
 20
319.7985440829
 30
0.0
 11
676.4610141687
 21
320.998549495
 31
0.0
  0
LINE
  5
48D
330
1F
100
AcDbEntity
  8
0
  6
SLD-Solid
 62
     7
370
    15
100
AcDbLine
 10
606.4610213213
 20
319.7985440829
 30
0.0
 11
606.4610213213
 21
320.998549495
 31
0.0
  0
LINE
  5
48E
330
1F
100
AcDbEntity
  8
0
  6
SLD-Solid
 62
     7
370
    15
100
AcDbLine
 10
606.4610213213
 20
319.7985440829
 30
0.0
 11
676.4610141687
 21
319.7985440829
 31
0.0
  0
LINE
  5
48F
330
1F
100
AcDbEntity
  8
0
  6
SLD-Solid
 62
     7
370
    15
100
AcDbLine
 10
672.4206835203
 20
225.7985473016
 30
0.0
 11
610.501381772
 21
225.7985473016
 31
0.0
  0
LWPOLYLINE
  5
490
330
1F
100
AcDbEntity
  8
0
  6
SLD-Solid
 62
     7
370
    15
100
AcDbPolyline
 90
        3
 70
   128
 43
0.0
 10
1313.7657076292
 20
1682.4235022405
 10
1314.0120834284
 20
1682.0085347035
 10
1314.0190273695
 20
1681.9985211232
  0
ARC
  5
491
330
1F
100
AcDbEntity
  8
0
  6
SLD-Solid
 62
     7
370
    15
100
AcDbCircle
 10
1307.9610286586
 20
1679.4985464235
 30
0.0
 40
6.49999999999998
100
AcDbArc
 50
26.7436839504
 51
153.2563160496
  0
LWPOLYLINE
  5
492
330
1F
100
AcDbEntity
  8
0
  6
SLD-Solid
 62
     7
370
    15
100
AcDbPolyline
 90
        3
 70
   128
 43
0.0
 10
1301.903012412
 20
1681.9985211232
 10
1301.9099563532
 20
1682.0085347035
 10
1302.1563321523
 20
1682.4235022405
  0
ARC
  5
493
330
1F
100
AcDbEntity
  8
0
  6
SLD-Solid
 62
     7
370
    15
100
AcDbCircle
 10
1279.4610286586
 20
1678.9985464235
 30
0.0
 40
1.500000000000208
100
AcDbArc
 50
102.0966651264
 51
180.0
  0
LINE
  5
494
330
1F
100
AcDbEntity
  8
0
  6
SLD-Solid
 62
     7
370
    15
100
AcDbLine
 10
1277.9610186987
 20
1669.4985926488
 30
0.0
 11
1277.9610186987
 21
1678.9985001424
 31
0.0
  0
LINE
  5
495
330
1F
100
AcDbEntity
  8
0
  6
SLD-Solid
 62
     7
370
    15
100
AcDbLine
 10
1299.0307539873
 20
1682.4986040929
 30
0.0
 11
1280.6027263574
 21
1682.4986040929
 31
0.0
  0
ARC
  5
496
330
1F
100
AcDbEntity
  8
0
  6
SLD-Solid
 62
     7
370
    15
100
AcDbCircle
 10
1299.0307431088
 20
1683.9985464235
 30
0.0
 40
1.500000000000227
100
AcDbArc
 50
270.0
 51
333.2563160496
  0
ARC
  5
497
330
1F
100
AcDbEntity
  8
0
  6
SLD-Solid
 62
     7
370
    15
100
AcDbCircle
 10
1307.9610286586
 20
1679.4985464235
 30
0.0
 40
8.500000000000231
100
AcDbArc
 50
26.7436839504
 51
153.2563160496
  0
ARC
  5
498
330
1F
100
AcDbEntity
  8
0
  6
SLD-Solid
 62
     7
370
    15
100
AcDbCircle
 10
1316.8913142083
 20
1683.9985464235
 30
0.0
 40
1.500000000000227
100
AcDbArc
 50
206.7436839504
 51
270.0
  0
LINE
  5
499
330
1F
100
AcDbEntity
  8
0
  6
SLD-Solid
 62
     7
370
    15
100
AcDbLine
 10
1331.1965495519
 20
1682.4986040929
 30
0.0
 11
1329.6610146932
 21
1682.4986040929
 31
0.0
  0
LINE
  5
49A
330
1F
100
AcDbEntity
  8
0
  6
SLD-Solid
 62
     7
370
    15
100
AcDbLine
 10
1321.8610316686
 20
1682.4986040929
 30
0.0
 11
1316.8913155966
 21
1682.4986040929
 31
0.0
  0
ARC
  5
49B
330
1F
100
AcDbEntity
  8
0
  6
SLD-Solid
 62
     7
370
    15
100
AcDbCircle
 10
1331.1965381875
 20
1683.9985464235
 30
0.0
 40
1.500000000000227
100
AcDbArc
 50
270.0
 51
290.0
  0
LINE
  5
49C
330
1F
100
AcDbEntity
  8
0
  6
SLD-Solid
 62
     7
370
    15
100
AcDbLine
 10
1333.3404094152
 20
1683.1826269963
 30
0.0
 11
1331.7095667295
 21
1682.5889647344
 31
0.0
  0
LINE
  5
49D
330
1F
100
AcDbEntity
  8
0
  6
SLD-Solid
 62
     7
370
    15
100
AcDbLine
 10
1333.7610393934
 20
1681.2073290685
 30
0.0
 11
1334.024462121
 21
1681.3031733373
 31
0.0
  0
ARC
  5
49E
330
1F
100
AcDbEntity
  8
0
  6
SLD-Solid
 62
     7
370
    15
100
AcDbCircle
 10
1279.4610286586
 20
1678.9985464235
 30
0.0
 40
3.500000000000199
100
AcDbArc
 50
121.0987556894
 51
140.4823472025
  0
LINE
  5
49F
330
1F
100
AcDbEntity
  8
0
  6
SLD-Solid
 62
     7
370
    15
100
AcDbLine
 10
1276.7610281877
 20
1669.4985926488
 30
0.0
 11
1277.9610186987
 21
1669.4985926488
 31
0.0
  0
LINE
  5
4A0
330
1F
100
AcDbEntity
  8
0
  6
SLD-Solid
 62
     7
370
    15
100
AcDbLine
 10
1338.0388647489
 20
1684.8926842549
 30
0.0
 11
1338.7229174547
 21
1683.0133498052
 31
0.0
  0
LWPOLYLINE
  5
4A1
330
1F
100
AcDbEntity
  8
0
  6
SLD-Solid
 62
     7
370
    15
100
AcDbPolyline
 90
        9
 70
   128
 43
0.0
 10
1333.3404094152
 20
1683.1826269963
 10
1334.2570394449
 20
1683.5161745885
 10
1335.1384431295
 20
1683.8369667867
 10
1335.9507352285
 20
1684.132725034
 10
1336.6627425127
 20
1684.3917668202
 10
1337.2470468454
 20
1684.6044361928
 10
1337.6812368803
 20
1684.7625077107
 10
1337.9485935144
 20
1684.859782491
 10
1338.0388647489
 20
1684.8926842549
  0
LWPOLYLINE
  5
4A2
330
1F
100
AcDbEntity
  8
0
  6
SLD-Solid
 62
     7
370
    15
100
AcDbPolyline
 90
        9
 70
   128
 43
0.0
 10
1338.7229174547
 20
1683.0133498052
 10
1338.6326462202
 20
1682.9804480412
 10
1338.3652597837
 20
1682.883173261
 10
1337.9310697489
 20
1682.725101743
 10
1337.3467654161
 20
1682.5124323705
 10
1336.6347879343
 20
1682.253271375
 10
1335.822466033
 20
1681.9576323369
 10
1334.9410921507
 20
1681.6368401387
 10
1334.024462121
 20
1681.3031733373
  0
LWPOLYLINE
  5
4A3
330
1F
100
AcDbEntity
  8
0
  6
SLD-Solid
 62
     7
370
    15
100
AcDbPolyline
 90
        3
 70
   128
 43
0.0
 10
1313.7657076292
 20
857.0235669949
 10
1314.0120834284
 20
856.6085398534
 10
1314.0190273695
 20
856.598526273
  0
ARC
  5
4A4
330
1F
100
AcDbEntity
  8
0
  6
SLD-Solid
 62
     7
370
    15
100
AcDbCircle
 10
1307.9610286586
 20
854.0985464235
 30
0.0
 40
6.500000000000131
100
AcDbArc
 50
26.7436839504
 51
153.2563160496
  0
LWPOLYLINE
  5
4A5
330
1F
100
AcDbEntity
  8
0
  6
SLD-Solid
 62
     7
370
    15
100
AcDbPolyline
 90
        3
 70
   128
 43
0.0
 10
1301.903012412
 20
856.598526273
 10
1301.9099563532
 20
856.6085398534
 10
1302.1563321523
 20
857.0235669949
  0
ARC
  5
4A6
330
1F
100
AcDbEntity
  8
0
  6
SLD-Solid
 62
     7
370
    15
100
AcDbCircle
 10
1279.4610286586
 20
853.5985464235
 30
0.0
 40
1.500000000000227
100
AcDbArc
 50
102.0966651189
 51
180.0
  0
LINE
  5
4A7
330
1F
100
AcDbEntity
  8
0
  6
SLD-Solid
 62
     7
370
    15
100
AcDbLine
 10
1277.9610186987
 20
844.098538194
 30
0.0
 11
1277.9610186987
 21
853.5985648969
 31
0.0
  0
LINE
  5
4A8
330
1F
100
AcDbEntity
  8
0
  6
SLD-Solid
 62
     7
370
    15
100
AcDbLine
 10
1276.7610281877
 20
844.098538194
 30
0.0
 11
1277.9610186987
 21
844.098538194
 31
0.0
  0
ARC
  5
4A9
330
1F
100
AcDbEntity
  8
0
  6
SLD-Solid
 62
     7
370
    15
100
AcDbCircle
 10
1279.4610286586
 20
853.5985464235
 30
0.0
 40
3.499999999999984
100
AcDbArc
 50
121.0987556299
 51
140.4823472028
  0
LINE
  5
4AA
330
1F
100
AcDbEntity
  8
0
  6
SLD-Solid
 62
     7
370
    15
100
AcDbLine
 10
1299.0307539873
 20
857.0985496381
 30
0.0
 11
1280.6027263574
 21
857.0985496381
 31
0.0
  0
ARC
  5
4AB
330
1F
100
AcDbEntity
  8
0
  6
SLD-Solid
 62
     7
370
    15
100
AcDbCircle
 10
1299.0307431088
 20
858.5985464235
 30
0.0
 40
1.500000000000114
100
AcDbArc
 50
270.0
 51
333.2563160496
  0
ARC
  5
4AC
330
1F
100
AcDbEntity
  8
0
  6
SLD-Solid
 62
     7
370
    15
100
AcDbCircle
 10
1307.9610286586
 20
854.0985464235
 30
0.0
 40
8.50000000000013
100
AcDbArc
 50
26.7436839504
 51
153.2563160496
  0
ARC
  5
4AD
330
1F
100
AcDbEntity
  8
0
  6
SLD-Solid
 62
     7
370
    15
100
AcDbCircle
 10
1316.8913142083
 20
858.5985464235
 30
0.0
 40
1.500000000000114
100
AcDbArc
 50
206.7436839504
 51
270.0
  0
LINE
  5
4AE
330
1F
100
AcDbEntity
  8
0
  6
SLD-Solid
 62
     7
370
    15
100
AcDbLine
 10
1331.1965495519
 20
857.0985496381
 30
0.0
 11
1329.6610146932
 21
857.0985496381
 31
0.0
  0
LINE
  5
4AF
330
1F
100
AcDbEntity
  8
0
  6
SLD-Solid
 62
     7
370
    15
100
AcDbLine
 10
1321.8610316686
 20
857.0985496381
 30
0.0
 11
1316.8913155966
 21
857.0985496381
 31
0.0
  0
ARC
  5
4B0
330
1F
100
AcDbEntity
  8
0
  6
SLD-Solid
 62
     7
370
    15
100
AcDbCircle
 10
1331.1965381875
 20
858.5985464235
 30
0.0
 40
1.500000000000114
100
AcDbArc
 50
270.0
 51
290.0
  0
LINE
  5
4B1
330
1F
100
AcDbEntity
  8
0
  6
SLD-Solid
 62
     7
370
    15
100
AcDbLine
 10
1333.3404094152
 20
857.7825725415
 30
0.0
 11
1331.7095667295
 21
857.1890294888
 31
0.0
  0
LINE
  5
4B2
330
1F
100
AcDbEntity
  8
0
  6
SLD-Solid
 62
     7
370
    15
100
AcDbLine
 10
1333.7610393934
 20
855.8073342183
 30
0.0
 11
1334.024462121
 21
855.9031784871
 31
0.0
  0
LINE
  5
4B3
330
1F
100
AcDbEntity
  8
0
  6
SLD-Solid
 62
     7
370
    15
100
AcDbLine
 10
1338.0388647489
 20
859.4926894048
 30
0.0
 11
1338.7229174547
 21
857.6132953503
 31
0.0
  0
LWPOLYLINE
  5
4B4
330
1F
100
AcDbEntity
  8
0
  6
SLD-Solid
 62
     7
370
    15
100
AcDbPolyline
 90
        9
 70
   128
 43
0.0
 10
1333.3404094152
 20
857.7825725415
 10
1334.2570394449
 20
858.116239343
 10
1335.1384431295
 20
858.4370315411
 10
1335.9507352285
 20
858.7326705792
 10
1336.6627425127
 20
858.9918315747
 10
1337.2470468454
 20
859.2045009473
 10
1337.6812368803
 20
859.3625128606
 10
1337.9485935144
 20
859.4598472455
 10
1338.0388647489
 20
859.4926894048
  0
LWPOLYLINE
  5
4B5
330
1F
100
AcDbEntity
  8
0
  6
SLD-Solid
 62
     7
370
    15
100
AcDbPolyline
 90
        9
 70
   128
 43
0.0
 10
1338.7229174547
 20
857.6132953503
 10
1338.6326462202
 20
857.5804531911
 10
1338.3652597837
 20
857.4831188062
 10
1337.9310697489
 20
857.3251068929
 10
1337.3467654161
 20
857.1124375203
 10
1336.6347879343
 20
856.8532765248
 10
1335.822466033
 20
856.5576374867
 10
1334.9410921507
 20
856.2368452886
 10
1334.024462121
 20
855.9031784871
  0
LINE
  5
4B6
330
1F
100
AcDbEntity
  8
0
  6
SLD-Solid
 62
     7
370
    15
100
AcDbLine
 10
1337.3610407285
 20
1182.1985543111
 30
0.0
 11
1337.3610407285
 21
1184.1925084927
 31
0.0
  0
LINE
  5
4B7
330
1F
100
AcDbEntity
  8
0
  6
SLD-Solid
 62
     7
370
    15
100
AcDbLine
 10
1335.7610434465
 20
1182.1985543111
 30
0.0
 11
1337.3610407285
 21
1182.1985543111
 31
0.0
  0
LINE
  5
4B8
330
1F
100
AcDbEntity
  8
0
  6
SLD-Solid
 62
     7
370
    15
100
AcDbLine
 10
1337.3610407285
 20
1184.1925084927
 30
0.0
 11
1337.3610407285
 21
1240.2041852811
 31
0.0
  0
LINE
  5
4B9
330
1F
100
AcDbEntity
  8
0
  6
SLD-Solid
 62
     7
370
    15
100
AcDbLine
 10
1335.7610434465
 20
1242.1985566953
 30
0.0
 11
1337.3610407285
 21
1242.1985566953
 31
0.0
  0
LINE
  5
4BA
330
1F
100
AcDbEntity
  8
0
  6
SLD-Solid
 62
     7
370
    15
100
AcDbLine
 10
1337.3610407285
 20
1240.2041852811
 30
0.0
 11
1337.3610407285
 21
1242.1985566953
 31
0.0
  0
LINE
  5
4BB
330
1F
100
AcDbEntity
  8
0
  6
SLD-Solid
 62
     7
370
    15
100
AcDbLine
 10
1335.7610434465
 20
416.7985469439
 30
0.0
 11
1337.3610407285
 21
416.7985469439
 31
0.0
  0
LINE
  5
4BC
330
1F
100
AcDbEntity
  8
0
  6
SLD-Solid
 62
     7
370
    15
100
AcDbLine
 10
1337.3610407285
 20
414.8041755298
 30
0.0
 11
1337.3610407285
 21
416.7985469439
 31
0.0
  0
LINE
  5
4BD
330
1F
100
AcDbEntity
  8
0
  6
SLD-Solid
 62
     7
370
    15
100
AcDbLine
 10
1337.3610407285
 20
356.7985445598
 30
0.0
 11
1337.3610407285
 21
358.7925285437
 31
0.0
  0
LINE
  5
4BE
330
1F
100
AcDbEntity
  8
0
  6
SLD-Solid
 62
     7
370
    15
100
AcDbLine
 10
1335.7610434465
 20
356.7985445598
 30
0.0
 11
1337.3610407285
 21
356.7985445598
 31
0.0
  0
LINE
  5
4BF
330
1F
100
AcDbEntity
  8
0
  6
SLD-Solid
 62
     7
370
    15
100
AcDbLine
 10
1337.3610407285
 20
358.7925285437
 30
0.0
 11
1337.3610407285
 21
414.8041755298
 31
0.0
  0
LINE
  5
4C0
330
1F
100
AcDbEntity
  8
0
  6
SLD-Solid
 62
     7
370
    15
100
AcDbLine
 10
1338.761034625
 20
1239.6608293393
 30
0.0
 11
1338.761034625
 21
1184.736281667
 31
0.0
  0
ARC
  5
4C1
330
1F
100
AcDbEntity
  8
0
  6
SLD-Solid
 62
     7
370
    15
100
AcDbCircle
 10
1335.7609963845
 20
1184.7362870673
 30
0.0
 40
3.000038240566037
100
AcDbArc
 50
302.231493346
 51
359.9998968644
  0
ARC
  5
4C2
330
1F
100
AcDbEntity
  8
0
  6
SLD-Solid
 62
     7
370
    15
100
AcDbCircle
 10
1335.7609496277
 20
1239.6607981447
 30
0.0
 40
3.000084997472475
100
AcDbArc
 50
0.0005957568
 51
57.7680140327
  0
LINE
  5
4C3
330
1F
100
AcDbEntity
  8
0
  6
SLD-Solid
 62
     7
370
    15
100
AcDbLine
 10
1338.761034625
 20
414.2608344891
 30
0.0
 11
1338.761034625
 21
359.3362644651
 31
0.0
  0
ARC
  5
4C4
330
1F
100
AcDbEntity
  8
0
  6
SLD-Solid
 62
     7
370
    15
100
AcDbCircle
 10
1335.7609896992
 20
414.2608104995
 30
0.0
 40
3.000044925967095
100
AcDbArc
 50
0.0004581606
 51
57.7684362187
  0
ARC
  5
4C5
330
1F
100
AcDbEntity
  8
0
  6
SLD-Solid
 62
     7
370
    15
100
AcDbCircle
 10
1335.7609476763
 20
359.336304187
 30
0.0
 40
3.000086948986262
100
AcDbArc
 50
302.2320065256
 51
359.9992413903
  0
ARC
  5
4C6
330
1F
100
AcDbEntity
  8
0
  6
SLD-Solid
 62
     7
370
    15
100
AcDbCircle
 10
1297.7610286586
 20
851.7985464227
 30
0.0
 40
2.0
100
AcDbArc
 50
90.0
 51
180.0
  0
LINE
  5
4C7
330
1F
100
AcDbEntity
  8
0
  6
SLD-Solid
 62
     7
370
    15
100
AcDbLine
 10
1297.761026042
 20
853.7985384801
 30
0.0
 11
1298.7610429697
 21
853.7985384801
 31
0.0
  0
LINE
  5
4C8
330
1F
100
AcDbEntity
  8
0
  6
SLD-Solid
 62
     7
370
    15
100
AcDbLine
 10
1295.7610219888
 20
851.7985642293
 30
0.0
 11
1295.7610219888
 21
850.7985174992
 31
0.0
  0
LINE
  5
4C9
330
1F
100
AcDbEntity
  8
0
  6
SLD-Solid
 62
     7
370
    15
100
AcDbLine
 10
1298.7610429697
 20
853.7985384801
 30
0.0
 11
1320.7610279493
 21
853.7985384801
 31
0.0
  0
LINE
  5
4CA
330
1F
100
AcDbEntity
  8
0
  6
SLD-Solid
 62
     7
370
    15
100
AcDbLine
 10
1295.7610219888
 20
1677.1985590794
 30
0.0
 11
1295.7610219888
 21
1676.1985123494
 31
0.0
  0
ARC
  5
4CB
330
1F
100
AcDbEntity
  8
0
  6
SLD-Solid
 62
     7
370
    15
100
AcDbCircle
 10
1297.7610286586
 20
1677.1985464227
 30
0.0
 40
2.000000000000227
100
AcDbArc
 50
90.0
 51
180.0
  0
LINE
  5
4CC
330
1F
100
AcDbEntity
  8
0
  6
SLD-Solid
 62
     7
370
    15
100
AcDbLine
 10
1297.761026042
 20
1679.1985333302
 30
0.0
 11
1298.7610429697
 21
1679.1985333302
 31
0.0
  0
LINE
  5
4CD
330
1F
100
AcDbEntity
  8
0
  6
SLD-Solid
 62
     7
370
    15
100
AcDbLine
 10
1298.7610429697
 20
1679.1985333302
 30
0.0
 11
1320.7610279493
 21
1679.1985333302
 31
0.0
  0
LINE
  5
4CE
330
1F
100
AcDbEntity
  8
0
  6
SLD-Solid
 62
     7
370
    15
100
AcDbLine
 10
1303.6372989588
 20
1679.1985333302
 30
0.0
 11
1303.7685185842
 21
1679.498583112
 31
0.0
  0
ARC
  5
4CF
330
1F
100
AcDbEntity
  8
0
  6
SLD-Solid
 62
     7
370
    15
100
AcDbCircle
 10
1309.7610286586
 20
1676.6985464227
 30
0.0
 40
6.614378277661733
100
AcDbArc
 50
53.2529562222
 51
126.7470437778
  0
LINE
  5
4D0
330
1F
100
AcDbEntity
  8
0
  6
SLD-Solid
 62
     7
370
    15
100
AcDbLine
 10
1315.7535225324
 20
1679.498583112
 30
0.0
 11
1315.8847421579
 21
1679.1985333302
 31
0.0
  0
LINE
  5
4D1
330
1F
100
AcDbEntity
  8
0
  6
SLD-Solid
 62
     7
370
    15
100
AcDbLine
 10
1311.3480836324
 20
1679.12307385
 30
0.0
 11
1311.3172680311
 21
1679.498583112
 31
0.0
  0
LINE
  5
4D2
330
1F
100
AcDbEntity
  8
0
  6
SLD-Solid
 62
     7
370
    15
100
AcDbLine
 10
1308.1930607729
 20
1679.498583112
 30
0.0
 11
1308.1849843435
 21
1679.1985333302
 31
0.0
  0
LINE
  5
4D3
330
1F
100
AcDbEntity
  8
0
  6
SLD-Solid
 62
     7
370
    15
100
AcDbLine
 10
1303.6372989588
 20
853.7985384801
 30
0.0
 11
1303.7685185842
 21
854.0985286572
 31
0.0
  0
ARC
  5
4D4
330
1F
100
AcDbEntity
  8
0
  6
SLD-Solid
 62
     7
370
    15
100
AcDbCircle
 10
1309.7610286586
 20
851.2985464227
 30
0.0
 40
6.614378277661641
100
AcDbArc
 50
53.252956222
 51
126.747043778
  0
LINE
  5
4D5
330
1F
100
AcDbEntity
  8
0
  6
SLD-Solid
 62
     7
370
    15
100
AcDbLine
 10
1315.7535225324
 20
854.0985286572
 30
0.0
 11
1315.8847421579
 21
853.7985384801
 31
0.0
  0
LINE
  5
4D6
330
1F
100
AcDbEntity
  8
0
  6
SLD-Solid
 62
     7
370
    15
100
AcDbLine
 10
1311.3480836324
 20
853.7230789998
 30
0.0
 11
1311.3172680311
 21
854.0985286572
 31
0.0
  0
LINE
  5
4D7
330
1F
100
AcDbEntity
  8
0
  6
SLD-Solid
 62
     7
370
    15
100
AcDbLine
 10
1308.1930607729
 20
854.0985286572
 30
0.0
 11
1308.1849843435
 21
853.7985384801
 31
0.0
  0
LINE
  5
4D8
330
1F
100
AcDbEntity
  8
0
  6
SLD-Solid
 62
     7
370
    15
100
AcDbLine
 10
1310.7610374861
 20
1679.1985333302
 30
0.0
 11
1310.7149630956
 21
1679.498583112
 31
0.0
  0
LINE
  5
4D9
330
1F
100
AcDbEntity
  8
0
  6
SLD-Solid
 62
     7
370
    15
100
AcDbLine
 10
1308.807078021
 20
1679.498583112
 30
0.0
 11
1308.7610334329
 21
1679.1985333302
 31
0.0
  0
LINE
  5
4DA
330
1F
100
AcDbEntity
  8
0
  6
SLD-Solid
 62
     7
370
    15
100
AcDbLine
 10
1316.2610262804
 20
1679.1985333302
 30
0.0
 11
1316.2541121416
 21
1679.498583112
 31
0.0
  0
ARC
  5
4DB
330
1F
100
AcDbEntity
  8
0
  6
SLD-Solid
 62
     7
370
    15
100
AcDbCircle
 10
1309.7610286586
 20
1679.1985464227
 30
0.0
 40
6.500000000000318
100
AcDbArc
 50
88.6070511721
 51
154.483612641
  0
LINE
  5
4DC
330
1F
100
AcDbEntity
  8
0
  6
SLD-Solid
 62
     7
370
    15
100
AcDbLine
 10
1303.2679587774
 20
1679.498583112
 30
0.0
 11
1303.2610148363
 21
1679.1985333302
 31
0.0
  0
ARC
  5
4DD
330
1F
100
AcDbEntity
  8
0
  6
SLD-Solid
 62
     7
370
    15
100
AcDbCircle
 10
1309.7610286586
 20
1679.1985464227
 30
0.0
 40
5.000000000000318
100
AcDbArc
 50
34.0557977323
 51
145.9442022677
  0
LINE
  5
4DE
330
1F
100
AcDbEntity
  8
0
  6
SLD-Solid
 62
     7
370
    15
100
AcDbLine
 10
1310.7610374861
 20
853.7985384801
 30
0.0
 11
1310.7149630956
 21
854.0985286572
 31
0.0
  0
LINE
  5
4DF
330
1F
100
AcDbEntity
  8
0
  6
SLD-Solid
 62
     7
370
    15
100
AcDbLine
 10
1308.807078021
 20
854.0985286572
 30
0.0
 11
1308.7610334329
 21
853.7985384801
 31
0.0
  0
LINE
  5
4E0
330
1F
100
AcDbEntity
  8
0
  6
SLD-Solid
 62
     7
370
    15
100
AcDbLine
 10
1316.2610262804
 20
853.7985384801
 30
0.0
 11
1316.2541121416
 21
854.0985286572
 31
0.0
  0
ARC
  5
4E1
330
1F
100
AcDbEntity
  8
0
  6
SLD-Solid
 62
     7
370
    15
100
AcDbCircle
 10
1309.7610286586
 20
853.7985464227
 30
0.0
 40
6.499999999999961
100
AcDbArc
 50
88.6070153745
 51
154.4836126412
  0
LINE
  5
4E2
330
1F
100
AcDbEntity
  8
0
  6
SLD-Solid
 62
     7
370
    15
100
AcDbLine
 10
1303.2679587774
 20
854.0985286572
 30
0.0
 11
1303.2610148363
 21
853.7985384801
 31
0.0
  0
ARC
  5
4E3
330
1F
100
AcDbEntity
  8
0
  6
SLD-Solid
 62
     7
370
    15
100
AcDbCircle
 10
1309.7610286586
 20
853.7985464227
 30
0.0
 40
5.000000000000091
100
AcDbArc
 50
34.0557977321
 51
145.9442022679
  0
LINE
  5
4E4
330
1F
100
AcDbEntity
  8
0
  6
SLD-Solid
 62
     7
370
    15
100
AcDbLine
 10
1370.3456551008
 20
786.140888963
 30
0.0
 11
1370.2413767748
 21
786.1000001767
 31
0.0
  0
LINE
  5
4E5
330
1F
100
AcDbEntity
  8
0
  6
SLD-Solid
 62
     7
370
    15
100
AcDbLine
 10
1371.4862793855
 20
815.3477013448
 30
0.0
 11
1371.8920678072
 21
815.3478205541
 31
0.0
  0
LWPOLYLINE
  5
4E6
330
1F
100
AcDbEntity
  8
0
  6
SLD-Solid
 62
     7
370
    15
100
AcDbPolyline
 90
        5
 70
   128
 43
0.0
 10
1376.2082487516
 20
787.3653471806
 10
1376.0663002901
 20
787.41243485
 10
1375.7491141729
 20
787.4891460278
 10
1375.7491141729
 20
787.4892056325
 10
1375.7491141729
 20
787.4892056325
  0
LINE
  5
4E7
330
1F
100
AcDbEntity
  8
0
  6
SLD-Solid
 62
     7
370
    15
100
AcDbLine
 10
1376.2176662855
 20
787.3183787206
 30
0.0
 11
1376.3524621897
 21
787.3175442555
 31
0.0
  0
LINE
  5
4E8
330
1F
100
AcDbEntity
  8
0
  6
SLD-Solid
 62
     7
370
    15
100
AcDbLine
 10
1372.6615339689
 20
815.2067363599
 30
0.0
 11
1370.2413767748
 21
815.4970705846
 31
0.0
  0
ARC
  5
4E9
330
1F
100
AcDbEntity
  8
0
  6
SLD-Solid
 62
     7
370
    15
100
AcDbCircle
 10
1370.6318325679
 20
792.9160750365
 30
0.0
 40
6.827249242636299
100
AcDbArc
 50
266.7214200612
 51
349.571674499
  0
LWPOLYLINE
  5
4EA
330
1F
100
AcDbEntity
  8
0
  6
SLD-Solid
 62
     7
370
    15
100
AcDbPolyline
 90
       10
 70
   128
 43
0.0
 10
1377.3463100366
 20
791.6803062299
 10
1377.9111236505
 20
791.8402850964
 10
1379.9643248491
 20
791.8570936063
 10
1383.6597532205
 20
791.8561995366
 10
1386.8155807428
 20
791.8555438855
 10
1389.810088294
 20
791.8550670483
 10
1391.0324305467
 20
791.8550074437
 10
1391.5747434072
 20
791.8550074437
 10
1391.8226689272
 20
791.8244898656
 10
1392.0261293821
 20
791.6294634679
  0
ARC
  5
4EB
330
1F
100
AcDbEntity
  8
0
  6
SLD-Solid
 62
     7
370
    15
100
AcDbCircle
 10
1385.1744823799
 20
793.0425173341
 30
0.0
 40
6.995840755180621
100
AcDbArc
 50
267.0397271227
 51
348.3469481179
  0
ARC
  5
4EC
330
1F
100
AcDbEntity
  8
0
  6
SLD-Solid
 62
     7
370
    15
100
AcDbCircle
 10
1385.1743532642
 20
808.5544610486
 30
0.0
 40
6.995985869004714
100
AcDbArc
 50
11.6535792663
 51
92.9591525743
  0
LWPOLYLINE
  5
4ED
330
1F
100
AcDbEntity
  8
0
  6
SLD-Solid
 62
     7
370
    15
100
AcDbPolyline
 90
        3
 70
   128
 43
0.0
 10
1375.0444084577
 20
787.7068817952
 10
1375.3333419733
 20
787.5964343884
 10
1376.3524621897
 20
787.3175442555
  0
LINE
  5
4EE
330
1F
100
AcDbEntity
  8
0
  6
SLD-Solid
 62
     7
370
    15
100
AcDbLine
 10
1391.8471664362
 20
810.1172149518
 30
0.0
 11
1392.0261293821
 21
809.9676072934
 31
0.0
  0
LINE
  5
4EF
330
1F
100
AcDbEntity
  8
0
  6
SLD-Solid
 62
     7
370
    15
100
AcDbLine
 10
1392.0261293821
 20
791.6294634679
 30
0.0
 11
1391.8471366339
 21
791.4798558095
 31
0.0
  0
LINE
  5
4F0
330
1F
100
AcDbEntity
  8
0
  6
SLD-Solid
 62
     7
370
    15
100
AcDbLine
 10
1370.3456551008
 20
1611.5408242085
 30
0.0
 11
1370.2413767748
 21
1611.5000546315
 31
0.0
  0
LINE
  5
4F1
330
1F
100
AcDbEntity
  8
0
  6
SLD-Solid
 62
     7
370
    15
100
AcDbLine
 10
1371.4862793855
 20
1640.7476961949
 30
0.0
 11
1371.8920678072
 21
1640.7478154042
 31
0.0
  0
LWPOLYLINE
  5
4F2
330
1F
100
AcDbEntity
  8
0
  6
SLD-Solid
 62
     7
370
    15
100
AcDbPolyline
 90
        5
 70
   128
 43
0.0
 10
1376.2082487516
 20
1612.7653420308
 10
1376.0663002901
 20
1612.8124297002
 10
1375.7491141729
 20
1612.8892004826
 10
1375.7491141729
 20
1612.8892004826
 10
1375.7491141729
 20
1612.8892004826
  0
LINE
  5
4F3
330
1F
100
AcDbEntity
  8
0
  6
SLD-Solid
 62
     7
370
    15
100
AcDbLine
 10
1376.2176662855
 20
1612.7183735707
 30
0.0
 11
1376.3524621897
 21
1612.7175391057
 31
0.0
  0
LINE
  5
4F4
330
1F
100
AcDbEntity
  8
0
  6
SLD-Solid
 62
     7
370
    15
100
AcDbLine
 10
1372.6615339689
 20
1640.6066716054
 30
0.0
 11
1370.2413767748
 21
1640.8970654347
 31
0.0
  0
ARC
  5
4F5
330
1F
100
AcDbEntity
  8
0
  6
SLD-Solid
 62
     7
370
    15
100
AcDbCircle
 10
1370.6319971525
 20
1618.3159199397
 30
0.0
 40
6.827049448953797
100
AcDbArc
 50
266.7199404726
 51
349.5731540875
  0
LWPOLYLINE
  5
4F6
330
1F
100
AcDbEntity
  8
0
  6
SLD-Solid
 62
     7
370
    15
100
AcDbPolyline
 90
       10
 70
   128
 43
0.0
 10
1377.3463100366
 20
1617.0803606847
 10
1377.9111236505
 20
1617.240220342
 10
1379.9643248491
 20
1617.2571480611
 10
1383.6597532205
 20
1617.2561943868
 10
1386.8155807428
 20
1617.255479131
 10
1389.810088294
 20
1617.2551215032
 10
1391.0324305467
 20
1617.2550022939
 10
1391.5747434072
 20
1617.2550022939
 10
1391.8226689272
 20
1617.2244847157
 10
1392.0261293821
 20
1617.029458318
  0
ARC
  5
4F7
330
1F
100
AcDbEntity
  8
0
  6
SLD-Solid
 62
     7
370
    15
100
AcDbCircle
 10
1385.1743134335
 20
1618.4426561096
 30
0.0
 40
6.996035290913368
100
AcDbArc
 50
267.0411949875
 51
348.3460731719
  0
ARC
  5
4F8
330
1F
100
AcDbEntity
  8
0
  6
SLD-Solid
 62
     7
370
    15
100
AcDbCircle
 10
1385.1745716622
 20
1633.954648712
 30
0.0
 40
6.995745066062582
100
AcDbArc
 50
11.6528720708
 51
92.9610456123
  0
LWPOLYLINE
  5
4F9
330
1F
100
AcDbEntity
  8
0
  6
SLD-Solid
 62
     7
370
    15
100
AcDbPolyline
 90
        3
 70
   128
 43
0.0
 10
1375.0444084577
 20
1613.1068766454
 10
1375.3333419733
 20
1612.9964888432
 10
1376.3524621897
 20
1612.7175391057
  0
LINE
  5
4FA
330
1F
100
AcDbEntity
  8
0
  6
SLD-Solid
 62
     7
370
    15
100
AcDbLine
 10
1391.8471664362
 20
1635.5172694066
 30
0.0
 11
1392.0261293821
 21
1635.3676617482
 31
0.0
  0
LINE
  5
4FB
330
1F
100
AcDbEntity
  8
0
  6
SLD-Solid
 62
     7
370
    15
100
AcDbLine
 10
1392.0261293821
 20
1617.029458318
 30
0.0
 11
1391.8471366339
 21
1616.8798506596
 31
0.0
  0
LINE
  5
4FC
330
1F
100
AcDbEntity
  8
0
  6
SLD-Solid
 62
     7
370
    15
100
AcDbLine
 10
1370.6320554189
 20
1611.6496622899
 30
0.0
 11
1370.56559624
 21
1611.6496622899
 31
0.0
  0
LWPOLYLINE
  5
4FD
330
1F
100
AcDbEntity
  8
0
  6
SLD-Solid
 62
     7
370
    15
100
AcDbPolyline
 90
        4
 70
   128
 43
0.0
 10
1370.2413767748
 20
1611.5000546315
 10
1370.5230385237
 20
1611.6390526631
 10
1370.56559624
 20
1611.6496622899
 10
1370.56559624
 20
1611.6496622899
  0
LINE
  5
4FE
330
1F
100
AcDbEntity
  8
0
  6
SLD-Solid
 62
     7
370
    15
100
AcDbLine
 10
1370.6320554189
 20
786.2496078351
 30
0.0
 11
1370.56559624
 21
786.2496674397
 31
0.0
  0
LWPOLYLINE
  5
4FF
330
1F
100
AcDbEntity
  8
0
  6
SLD-Solid
 62
     7
370
    15
100
AcDbPolyline
 90
        4
 70
   128
 43
0.0
 10
1370.2413767748
 20
786.1000001767
 10
1370.5230385237
 20
786.2391174176
 10
1370.56559624
 20
786.2496674397
 10
1370.56559624
 20
786.2496674397
  0
LINE
  5
500
330
1F
100
AcDbEntity
  8
0
  6
SLD-Solid
 62
     7
370
    15
100
AcDbLine
 10
1327.0674079828
 20
852.7985513547
 30
0.0
 11
1317.2610432081
 21
852.7985513547
 31
0.0
  0
LINE
  5
501
330
1F
100
AcDbEntity
  8
0
  6
SLD-Solid
 62
     7
370
    15
100
AcDbLine
 10
1334.2610329561
 20
852.7985513547
 30
0.0
 11
1327.0674079828
 21
852.7985513547
 31
0.0
  0
LINE
  5
502
330
1F
100
AcDbEntity
  8
0
  6
SLD-Solid
 62
     7
370
    15
100
AcDbLine
 10
1326.9905775957
 20
853.2985747197
 30
0.0
 11
1317.7610367708
 21
853.2985747197
 31
0.0
  0
LINE
  5
503
330
1F
100
AcDbEntity
  8
0
  6
SLD-Solid
 62
     7
370
    15
100
AcDbLine
 10
1333.7610393934
 20
853.2985747197
 30
0.0
 11
1326.9905775957
 21
853.2985747197
 31
0.0
  0
LINE
  5
504
330
1F
100
AcDbEntity
  8
0
  6
SLD-Solid
 62
     7
370
    15
100
AcDbLine
 10
1327.0674079828
 20
851.2985408643
 30
0.0
 11
1317.2610432081
 21
851.2985408643
 31
0.0
  0
LINE
  5
505
330
1F
100
AcDbEntity
  8
0
  6
SLD-Solid
 62
     7
370
    15
100
AcDbLine
 10
1334.2610329561
 20
851.2985408643
 30
0.0
 11
1327.0674079828
 21
851.2985408643
 31
0.0
  0
LINE
  5
506
330
1F
100
AcDbEntity
  8
0
  6
SLD-Solid
 62
     7
370
    15
100
AcDbLine
 10
1333.7610393934
 20
850.7985174992
 30
0.0
 11
1333.7110310964
 21
850.7985174992
 31
0.0
  0
LINE
  5
507
330
1F
100
AcDbEntity
  8
0
  6
SLD-Solid
 62
     7
370
    15
100
AcDbLine
 10
1327.0674079828
 20
1676.6985953191
 30
0.0
 11
1317.2610432081
 21
1676.6985953191
 31
0.0
  0
LINE
  5
508
330
1F
100
AcDbEntity
  8
0
  6
SLD-Solid
 62
     7
370
    15
100
AcDbLine
 10
1334.2610329561
 20
1676.6985953191
 30
0.0
 11
1327.0674079828
 21
1676.6985953191
 31
0.0
  0
LINE
  5
509
330
1F
100
AcDbEntity
  8
0
  6
SLD-Solid
 62
     7
370
    15
100
AcDbLine
 10
1327.0674079828
 20
1678.1986058095
 30
0.0
 11
1317.2610432081
 21
1678.1986058095
 31
0.0
  0
LINE
  5
50A
330
1F
100
AcDbEntity
  8
0
  6
SLD-Solid
 62
     7
370
    15
100
AcDbLine
 10
1334.2610329561
 20
1678.1986058095
 30
0.0
 11
1327.0674079828
 21
1678.1986058095
 31
0.0
  0
LINE
  5
50B
330
1F
100
AcDbEntity
  8
0
  6
SLD-Solid
 62
     7
370
    15
100
AcDbLine
 10
1333.7610393934
 20
1676.1985123494
 30
0.0
 11
1333.7110310964
 21
1676.1985123494
 31
0.0
  0
LINE
  5
50C
330
1F
100
AcDbEntity
  8
0
  6
SLD-Solid
 62
     7
370
    15
100
AcDbLine
 10
1326.9905775957
 20
1678.6985695699
 30
0.0
 11
1317.7610367708
 21
1678.6985695699
 31
0.0
  0
LINE
  5
50D
330
1F
100
AcDbEntity
  8
0
  6
SLD-Solid
 62
     7
370
    15
100
AcDbLine
 10
1333.7610393934
 20
1678.6985695699
 30
0.0
 11
1326.9905775957
 21
1678.6985695699
 31
0.0
  0
LINE
  5
50E
330
1F
100
AcDbEntity
  8
0
  6
SLD-Solid
 62
     7
370
    15
100
AcDbLine
 10
1332.8769534998
 20
324.7985467651
 30
0.0
 11
1334.2610329561
 21
324.7985467651
 31
0.0
  0
LINE
  5
50F
330
1F
100
AcDbEntity
  8
0
  6
SLD-Solid
 62
     7
370
    15
100
AcDbLine
 10
1317.2610432081
 20
324.7985467651
 30
0.0
 11
1332.8769534998
 21
324.7985467651
 31
0.0
  0
LINE
  5
510
330
1F
100
AcDbEntity
  8
0
  6
SLD-Solid
 62
     7
370
    15
100
AcDbLine
 10
1332.4583798818
 20
324.2985457518
 30
0.0
 11
1333.7610393934
 21
324.2985457518
 31
0.0
  0
LINE
  5
511
330
1F
100
AcDbEntity
  8
0
  6
SLD-Solid
 62
     7
370
    15
100
AcDbLine
 10
1325.7610231809
 20
324.2985457518
 30
0.0
 11
1332.4583798818
 21
324.2985457518
 31
0.0
  0
LINE
  5
512
330
1F
100
AcDbEntity
  8
0
  6
SLD-Solid
 62
     7
370
    15
100
AcDbLine
 10
1332.8769534998
 20
326.298549805
 30
0.0
 11
1334.2610329561
 21
326.298549805
 31
0.0
  0
LINE
  5
513
330
1F
100
AcDbEntity
  8
0
  6
SLD-Solid
 62
     7
370
    15
100
AcDbLine
 10
1317.2610432081
 20
326.298549805
 30
0.0
 11
1332.8769534998
 21
326.298549805
 31
0.0
  0
LINE
  5
514
330
1F
100
AcDbEntity
  8
0
  6
SLD-Solid
 62
     7
370
    15
100
AcDbLine
 10
1333.7110310964
 20
326.7985433677
 30
0.0
 11
1333.7610393934
 21
326.7985433677
 31
0.0
  0
LWPOLYLINE
  5
515
330
1F
100
AcDbEntity
  8
0
  6
SLD-Solid
 62
     7
370
    15
100
AcDbPolyline
 90
        3
 70
   128
 43
0.0
 10
1321.21941747
 20
326.7985433677
 10
1321.11496033
 20
326.6076520422
 10
1321.1099833421
 20
326.5985474327
  0
LINE
  5
516
330
1F
100
AcDbEntity
  8
0
  6
SLD-Solid
 62
     7
370
    15
100
AcDbLine
 10
1321.4448422365
 20
326.5985474327
 30
0.0
 11
1321.1099833421
 21
326.5985474327
 31
0.0
  0
LWPOLYLINE
  5
517
330
1F
100
AcDbEntity
  8
0
  6
SLD-Solid
 62
     7
370
    15
100
AcDbPolyline
 90
        3
 70
   128
 43
0.0
 10
1321.4448422365
 20
326.5985474327
 10
1321.4498490267
 20
326.6076520422
 10
1321.5542763643
 20
326.7985433677
  0
LINE
  5
518
330
1F
100
AcDbEntity
  8
0
  6
SLD-Solid
 62
     7
370
    15
100
AcDbLine
 10
1321.21941747
 20
326.5985474327
 30
0.0
 11
1321.21941747
 21
326.7985433677
 31
0.0
  0
LINE
  5
519
330
1F
100
AcDbEntity
  8
0
  6
SLD-Solid
 62
     7
370
    15
100
AcDbLine
 10
1332.8769534998
 20
1150.1985490659
 30
0.0
 11
1334.2610329561
 21
1150.1985490659
 31
0.0
  0
LINE
  5
51A
330
1F
100
AcDbEntity
  8
0
  6
SLD-Solid
 62
     7
370
    15
100
AcDbLine
 10
1317.2610432081
 20
1150.1985490659
 30
0.0
 11
1332.8769534998
 21
1150.1985490659
 31
0.0
  0
LINE
  5
51B
330
1F
100
AcDbEntity
  8
0
  6
SLD-Solid
 62
     7
370
    15
100
AcDbLine
 10
1332.4583798818
 20
1149.6985257008
 30
0.0
 11
1333.7610393934
 21
1149.6985257008
 31
0.0
  0
LINE
  5
51C
330
1F
100
AcDbEntity
  8
0
  6
SLD-Solid
 62
     7
370
    15
100
AcDbLine
 10
1325.7610231809
 20
1149.6985257008
 30
0.0
 11
1332.4583798818
 21
1149.6985257008
 31
0.0
  0
LINE
  5
51D
330
1F
100
AcDbEntity
  8
0
  6
SLD-Solid
 62
     7
370
    15
100
AcDbLine
 10
1332.8769534998
 20
1151.6985595563
 30
0.0
 11
1334.2610329561
 21
1151.6985595563
 31
0.0
  0
LINE
  5
51E
330
1F
100
AcDbEntity
  8
0
  6
SLD-Solid
 62
     7
370
    15
100
AcDbLine
 10
1317.2610432081
 20
1151.6985595563
 30
0.0
 11
1332.8769534998
 21
1151.6985595563
 31
0.0
  0
LINE
  5
51F
330
1F
100
AcDbEntity
  8
0
  6
SLD-Solid
 62
     7
370
    15
100
AcDbLine
 10
1333.7110310964
 20
1152.1985233167
 30
0.0
 11
1333.7610393934
 21
1152.1985233167
 31
0.0
  0
LWPOLYLINE
  5
520
330
1F
100
AcDbEntity
  8
0
  6
SLD-Solid
 62
     7
370
    15
100
AcDbPolyline
 90
        3
 70
   128
 43
0.0
 10
1321.21941747
 20
1152.1985233167
 10
1321.11496033
 20
1152.0076692441
 10
1321.1099833421
 20
1151.9985497334
  0
LINE
  5
521
330
1F
100
AcDbEntity
  8
0
  6
SLD-Solid
 62
     7
370
    15
100
AcDbLine
 10
1321.4448422365
 20
1151.9985497334
 30
0.0
 11
1321.1099833421
 21
1151.9985497334
 31
0.0
  0
LWPOLYLINE
  5
522
330
1F
100
AcDbEntity
  8
0
  6
SLD-Solid
 62
     7
370
    15
100
AcDbPolyline
 90
        3
 70
   128
 43
0.0
 10
1321.4448422365
 20
1151.9985497334
 10
1321.4498490267
 20
1152.0076692441
 10
1321.5542763643
 20
1152.1985233167
  0
LINE
  5
523
330
1F
100
AcDbEntity
  8
0
  6
SLD-Solid
 62
     7
370
    15
100
AcDbLine
 10
1321.21941747
 20
1151.9985497334
 30
0.0
 11
1321.21941747
 21
1152.1985233167
 31
0.0
  0
ARC
  5
524
330
1F
100
AcDbEntity
  8
0
  6
SLD-Solid
 62
     7
370
    15
100
AcDbCircle
 10
1286.2601187316
 20
1670.7707370252
 30
0.0
 40
2.906280756574949
100
AcDbArc
 50
99.8882522986
 51
142.2861444781
  0
ARC
  5
525
330
1F
100
AcDbEntity
  8
0
  6
SLD-Solid
 62
     7
370
    15
100
AcDbCircle
 10
1286.0323781065
 20
1157.2476823002
 30
0.0
 40
2.499619637402066
100
AcDbArc
 50
214.0381579216
 51
263.7679670877
  0
LINE
  5
526
330
1F
100
AcDbEntity
  8
0
  6
SLD-Solid
 62
     7
370
    15
100
AcDbLine
 10
1283.961030858
 20
1155.8485329488
 30
0.0
 11
1283.961030858
 21
1672.5485623219
 31
0.0
  0
ARC
  5
527
330
1F
100
AcDbEntity
  8
0
  6
SLD-Solid
 62
     7
370
    15
100
AcDbCircle
 10
1285.7871055464
 20
1672.9092847236
 30
0.0
 40
0.8397624036895287
100
AcDbArc
 50
91.779278861
 51
146.6952881449
  0
ARC
  5
528
330
1F
100
AcDbEntity
  8
0
  6
SLD-Solid
 62
     7
370
    15
100
AcDbCircle
 10
1285.9341248224
 20
1672.5873168642
 30
0.0
 40
1.973474526485155
100
AcDbArc
 50
95.0318741972
 51
181.1252308658
  0
ARC
  5
529
330
1F
100
AcDbEntity
  8
0
  6
SLD-Solid
 62
     7
370
    15
100
AcDbCircle
 10
1285.7879203926
 20
1155.4880771444
 30
0.0
 40
0.8402332819695429
100
AcDbArc
 50
213.3005049291
 51
268.1661263491
  0
ARC
  5
52A
330
1F
100
AcDbEntity
  8
0
  6
SLD-Solid
 62
     7
370
    15
100
AcDbCircle
 10
1285.9207296034
 20
1155.8019959158
 30
0.0
 40
1.960251225736226
100
AcDbArc
 50
178.6396508395
 51
265.3270388856
  0
ARC
  5
52B
330
1F
100
AcDbEntity
  8
0
  6
SLD-Solid
 62
     7
370
    15
100
AcDbCircle
 10
1286.2601721131
 20
845.3708108811
 30
0.0
 40
2.906280957899792
100
AcDbArc
 50
99.8893198655
 51
142.2878597578
  0
ARC
  5
52C
330
1F
100
AcDbEntity
  8
0
  6
SLD-Solid
 62
     7
370
    15
100
AcDbCircle
 10
1286.0324896462
 20
331.8477945593
 30
0.0
 40
2.499767849940624
100
AcDbArc
 50
214.0386197659
 51
263.7657663114
  0
LINE
  5
52D
330
1F
100
AcDbEntity
  8
0
  6
SLD-Solid
 62
     7
370
    15
100
AcDbLine
 10
1283.961030858
 20
330.4485455492
 30
0.0
 11
1283.961030858
 21
847.1485674718
 31
0.0
  0
ARC
  5
52E
330
1F
100
AcDbEntity
  8
0
  6
SLD-Solid
 62
     7
370
    15
100
AcDbCircle
 10
1285.78731985
 20
847.5090393174
 30
0.0
 40
0.8400790936792065
100
AcDbArc
 50
91.793231112
 51
146.6890316949
  0
ARC
  5
52F
330
1F
100
AcDbEntity
  8
0
  6
SLD-Solid
 62
     7
370
    15
100
AcDbCircle
 10
1285.9340089171
 20
847.1873676381
 30
0.0
 40
1.973359540094727
100
AcDbArc
 50
95.0287898773
 51
181.126621376
  0
ARC
  5
530
330
1F
100
AcDbEntity
  8
0
  6
SLD-Solid
 62
     7
370
    15
100
AcDbCircle
 10
1285.9207263139
 20
330.402005556
 30
0.0
 40
1.960248007421935
100
AcDbArc
 50
178.639562059
 51
265.3271276661
  0
ARC
  5
531
330
1F
100
AcDbEntity
  8
0
  6
SLD-Solid
 62
     7
370
    15
100
AcDbCircle
 10
1285.7879472858
 20
330.0881137504
 30
0.0
 40
0.8402730298527651
100
AcDbArc
 50
213.3012908543
 51
268.1643784185
  0
LINE
  5
532
330
1F
100
AcDbEntity
  8
0
  6
SLD-Solid
 62
     7
370
    15
100
AcDbLine
 10
1285.7610315256
 20
849.9278128484
 30
0.0
 11
1285.7610315256
 21
327.6692554691
 31
0.0
  0
LINE
  5
533
330
1F
100
AcDbEntity
  8
0
  6
SLD-Solid
 62
     7
370
    15
100
AcDbLine
 10
1333.7110310964
 20
849.9278128484
 30
0.0
 11
1285.7610315256
 21
849.9278128484
 31
0.0
  0
CIRCLE
  5
534
330
1F
100
AcDbEntity
  8
0
  6
SLD-Solid
 62
     7
370
    15
100
AcDbCircle
 10
1305.7610286586
 20
588.7985464227
 30
0.0
 40
1.599999999999682
  0
CIRCLE
  5
535
330
1F
100
AcDbEntity
  8
0
  6
SLD-Solid
 62
     7
370
    15
100
AcDbCircle
 10
1305.7610286586
 20
356.7985464227
 30
0.0
 40
1.599999999999682
  0
CIRCLE
  5
536
330
1F
100
AcDbEntity
  8
0
  6
SLD-Solid
 62
     7
370
    15
100
AcDbCircle
 10
1305.7610286586
 20
820.7985464227
 30
0.0
 40
1.599999999999682
  0
LINE
  5
537
330
1F
100
AcDbEntity
  8
0
  6
SLD-Solid
 62
     7
370
    15
100
AcDbLine
 10
1333.7110310964
 20
327.6692554691
 30
0.0
 11
1285.7610315256
 21
327.6692554691
 31
0.0
  0
LWPOLYLINE
  5
538
330
1F
100
AcDbEntity
  8
0
  6
SLD-Solid
 62
     7
370
    15
100
AcDbPolyline
 90
        6
 70
   128
 43
0.0
 10
1333.7110310964
 20
327.6692554691
 10
1334.2070907526
 20
327.7257755735
 10
1334.6266776495
 20
327.8027400711
 10
1335.2139622144
 20
328.0179873445
 10
1335.577312129
 20
328.3371925691
 10
1335.7610434465
 20
328.8485482672
  0
LWPOLYLINE
  5
539
330
1F
100
AcDbEntity
  8
0
  6
SLD-Solid
 62
     7
370
    15
100
AcDbPolyline
 90
        6
 70
   128
 43
0.0
 10
1335.7610434465
 20
848.7485349515
 10
1335.5613082819
 20
849.2767513135
 10
1335.2227538996
 20
849.5733440259
 10
1334.6695631914
 20
849.7721851209
 10
1334.2405289583
 20
849.855393205
 10
1333.7110310964
 20
849.9278128484
  0
LINE
  5
53A
330
1F
100
AcDbEntity
  8
0
  6
SLD-Solid
 62
     7
370
    15
100
AcDbLine
 10
1335.7610434465
 20
848.7485349515
 30
0.0
 11
1335.7610434465
 21
328.8485482672
 31
0.0
  0
LINE
  5
53B
330
1F
100
AcDbEntity
  8
0
  6
SLD-Solid
 62
     7
370
    15
100
AcDbLine
 10
1333.7110310964
 20
327.5985494593
 30
0.0
 11
1333.7110310964
 21
326.7985433677
 31
0.0
  0
ARC
  5
53C
330
1F
100
AcDbEntity
  8
0
  6
SLD-Solid
 62
     7
370
    15
100
AcDbCircle
 10
1333.7130196766
 20
328.8362936293
 30
0.0
 40
1.237745767450259
100
AcDbArc
 50
269.9079477359
 51
297.7444491185
  0
ARC
  5
53D
330
1F
100
AcDbEntity
  8
0
  6
SLD-Solid
 62
     7
370
    15
100
AcDbCircle
 10
1333.7110197148
 20
328.8485670994
 30
0.0
 40
2.050023731772951
100
AcDbArc
 50
270.0003181026
 51
359.9994736608
  0
LWPOLYLINE
  5
53E
330
1F
100
AcDbEntity
  8
0
  6
SLD-Solid
 62
     7
370
    15
100
AcDbPolyline
 90
        3
 70
   128
 43
0.0
 10
1333.7110310964
 20
849.9985635617
 10
1334.1906100683
 20
849.9028981068
 10
1334.2699438505
 20
849.8496711591
  0
LINE
  5
53F
330
1F
100
AcDbEntity
  8
0
  6
SLD-Solid
 62
     7
370
    15
100
AcDbLine
 10
1333.7110310964
 20
849.9985635617
 30
0.0
 11
1333.7110310964
 21
850.7985174992
 31
0.0
  0
ARC
  5
540
330
1F
100
AcDbEntity
  8
0
  6
SLD-Solid
 62
     7
370
    15
100
AcDbCircle
 10
1333.7110192174
 20
848.7484932698
 30
0.0
 40
2.050024229520805
100
AcDbArc
 50
0.0011649555
 51
89.9996679954
  0
LINE
  5
541
330
1F
100
AcDbEntity
  8
0
  6
SLD-Solid
 62
     7
370
    15
100
AcDbLine
 10
1285.7610315256
 20
850.7985174992
 30
0.0
 11
1285.7610315256
 21
849.9985635617
 31
0.0
  0
LINE
  5
542
330
1F
100
AcDbEntity
  8
0
  6
SLD-Solid
 62
     7
370
    15
100
AcDbLine
 10
1333.7110310964
 20
850.7985174992
 30
0.0
 11
1285.7610315256
 21
850.7985174992
 31
0.0
  0
LINE
  5
543
330
1F
100
AcDbEntity
  8
0
  6
SLD-Solid
 62
     7
370
    15
100
AcDbLine
 10
1333.7110310964
 20
849.9985635617
 30
0.0
 11
1285.7610315256
 21
849.9985635617
 31
0.0
  0
LINE
  5
544
330
1F
100
AcDbEntity
  8
0
  6
SLD-Solid
 62
     7
370
    15
100
AcDbLine
 10
1285.7610315256
 20
326.7985433677
 30
0.0
 11
1285.7610315256
 21
327.5985494593
 31
0.0
  0
LINE
  5
545
330
1F
100
AcDbEntity
  8
0
  6
SLD-Solid
 62
     7
370
    15
100
AcDbLine
 10
1333.7110310964
 20
327.5985494593
 30
0.0
 11
1285.7610315256
 21
327.5985494593
 31
0.0
  0
LINE
  5
546
330
1F
100
AcDbEntity
  8
0
  6
SLD-Solid
 62
     7
370
    15
100
AcDbLine
 10
1333.7110310964
 20
326.7985433677
 30
0.0
 11
1285.7610315256
 21
326.7985433677
 31
0.0
  0
LINE
  5
547
330
1F
100
AcDbEntity
  8
0
  6
SLD-Solid
 62
     7
370
    15
100
AcDbLine
 10
1284.7110361032
 20
849.9278128484
 30
0.0
 11
1284.7110361032
 21
848.7485349515
 31
0.0
  0
LINE
  5
548
330
1F
100
AcDbEntity
  8
0
  6
SLD-Solid
 62
     7
370
    15
100
AcDbLine
 10
1285.7610315256
 20
849.9278128484
 30
0.0
 11
1284.7110361032
 21
849.9278128484
 31
0.0
  0
LINE
  5
549
330
1F
100
AcDbEntity
  8
0
  6
SLD-Solid
 62
     7
370
    15
100
AcDbLine
 10
1283.961030858
 20
402.2985399106
 30
0.0
 11
1282.6610237531
 21
402.2985399106
 31
0.0
  0
LINE
  5
54A
330
1F
100
AcDbEntity
  8
0
  6
SLD-Solid
 62
     7
370
    15
100
AcDbLine
 10
1282.6610237531
 20
848.7485349515
 30
0.0
 11
1282.6610237531
 21
837.0881378987
 31
0.0
  0
LINE
  5
54B
330
1F
100
AcDbEntity
  8
0
  6
SLD-Solid
 62
     7
370
    15
100
AcDbLine
 10
1282.6610237531
 20
402.7391523459
 30
0.0
 11
1282.6610237531
 21
402.2985399106
 31
0.0
  0
LINE
  5
54C
330
1F
100
AcDbEntity
  8
0
  6
SLD-Solid
 62
     7
370
    15
100
AcDbLine
 10
1282.6610237531
 20
848.7485349515
 30
0.0
 11
1284.7110361032
 21
848.7485349515
 31
0.0
  0
LINE
  5
54D
330
1F
100
AcDbEntity
  8
0
  6
SLD-Solid
 62
     7
370
    15
100
AcDbLine
 10
1333.7110310964
 20
1153.0692279675
 30
0.0
 11
1285.7610315256
 21
1153.0692279675
 31
0.0
  0
LINE
  5
54E
330
1F
100
AcDbEntity
  8
0
  6
SLD-Solid
 62
     7
370
    15
100
AcDbLine
 10
1285.7610315256
 20
1675.3278076985
 30
0.0
 11
1285.7610315256
 21
1153.0692279675
 31
0.0
  0
LINE
  5
54F
330
1F
100
AcDbEntity
  8
0
  6
SLD-Solid
 62
     7
370
    15
100
AcDbLine
 10
1333.7110310964
 20
1675.3278076985
 30
0.0
 11
1285.7610315256
 21
1675.3278076985
 31
0.0
  0
CIRCLE
  5
550
330
1F
100
AcDbEntity
  8
0
  6
SLD-Solid
 62
     7
370
    15
100
AcDbCircle
 10
1305.7610286586
 20
1414.1985464227
 30
0.0
 40
1.600000000000136
  0
CIRCLE
  5
551
330
1F
100
AcDbEntity
  8
0
  6
SLD-Solid
 62
     7
370
    15
100
AcDbCircle
 10
1305.7610286586
 20
1182.1985464227
 30
0.0
 40
1.600000000000136
  0
CIRCLE
  5
552
330
1F
100
AcDbEntity
  8
0
  6
SLD-Solid
 62
     7
370
    15
100
AcDbCircle
 10
1305.7610286586
 20
1646.1985464227
 30
0.0
 40
1.599999999999909
  0
LWPOLYLINE
  5
553
330
1F
100
AcDbEntity
  8
0
  6
SLD-Solid
 62
     7
370
    15
100
AcDbPolyline
 90
        6
 70
   128
 43
0.0
 10
1333.7110310964
 20
1153.0692279675
 10
1334.2070907526
 20
1153.1257927754
 10
1334.6266776495
 20
1153.2027423718
 10
1335.2139622144
 20
1153.4179747441
 10
1335.577312129
 20
1153.7372172215
 10
1335.7610434465
 20
1154.2485654691
  0
LWPOLYLINE
  5
554
330
1F
100
AcDbEntity
  8
0
  6
SLD-Solid
 62
     7
370
    15
100
AcDbPolyline
 90
        6
 70
   128
 43
0.0
 10
1335.7610434465
 20
1674.1485894063
 10
1335.5613082819
 20
1674.676686559
 10
1335.2227538996
 20
1674.9732792714
 10
1334.6695631914
 20
1675.1721203664
 10
1334.2405289583
 20
1675.2554476598
 10
1333.7110310964
 20
1675.3278076985
  0
LINE
  5
555
330
1F
100
AcDbEntity
  8
0
  6
SLD-Solid
 62
     7
370
    15
100
AcDbLine
 10
1335.7610434465
 20
1674.1485894063
 30
0.0
 11
1335.7610434465
 21
1154.2485654691
 31
0.0
  0
ARC
  5
556
330
1F
100
AcDbEntity
  8
0
  6
SLD-Solid
 62
     7
370
    15
100
AcDbCircle
 10
1333.7109580043
 20
1154.2486087581
 30
0.0
 40
2.050085442700282
100
AcDbArc
 50
270.0020427794
 51
359.9987901594
  0
LINE
  5
557
330
1F
100
AcDbEntity
  8
0
  6
SLD-Solid
 62
     7
370
    15
100
AcDbLine
 10
1333.7110310964
 20
1152.9985368588
 30
0.0
 11
1333.7110310964
 21
1152.1985233167
 31
0.0
  0
ARC
  5
558
330
1F
100
AcDbEntity
  8
0
  6
SLD-Solid
 62
     7
370
    15
100
AcDbCircle
 10
1333.7130091578
 20
1154.2360370574
 30
0.0
 40
1.237501779473322
100
AcDbArc
 50
269.908416605
 51
297.7509415911
  0
ARC
  5
559
330
1F
100
AcDbEntity
  8
0
  6
SLD-Solid
 62
     7
370
    15
100
AcDbCircle
 10
1333.7109926589
 20
1674.1484615581
 30
0.0
 40
2.05005079165424
100
AcDbArc
 50
0.0035731608
 51
89.9989257284
  0
LWPOLYLINE
  5
55A
330
1F
100
AcDbEntity
  8
0
  6
SLD-Solid
 62
     7
370
    15
100
AcDbPolyline
 90
        3
 70
   128
 43
0.0
 10
1333.7110310964
 20
1675.3984988072
 10
1334.1906100683
 20
1675.302892957
 10
1334.2699438505
 20
1675.2497256139
  0
LINE
  5
55B
330
1F
100
AcDbEntity
  8
0
  6
SLD-Solid
 62
     7
370
    15
100
AcDbLine
 10
1333.7110310964
 20
1675.3984988072
 30
0.0
 11
1333.7110310964
 21
1676.1985123494
 31
0.0
  0
LINE
  5
55C
330
1F
100
AcDbEntity
  8
0
  6
SLD-Solid
 62
     7
370
    15
100
AcDbLine
 10
1333.7110310964
 20
1675.3984988072
 30
0.0
 11
1285.7610315256
 21
1675.3984988072
 31
0.0
  0
LINE
  5
55D
330
1F
100
AcDbEntity
  8
0
  6
SLD-Solid
 62
     7
370
    15
100
AcDbLine
 10
1285.7610315256
 20
1676.1985123494
 30
0.0
 11
1285.7610315256
 21
1675.3984988072
 31
0.0
  0
LINE
  5
55E
330
1F
100
AcDbEntity
  8
0
  6
SLD-Solid
 62
     7
370
    15
100
AcDbLine
 10
1333.7110310964
 20
1676.1985123494
 30
0.0
 11
1285.7610315256
 21
1676.1985123494
 31
0.0
  0
LINE
  5
55F
330
1F
100
AcDbEntity
  8
0
  6
SLD-Solid
 62
     7
370
    15
100
AcDbLine
 10
1333.7110310964
 20
1152.1985233167
 30
0.0
 11
1285.7610315256
 21
1152.1985233167
 31
0.0
  0
LINE
  5
560
330
1F
100
AcDbEntity
  8
0
  6
SLD-Solid
 62
     7
370
    15
100
AcDbLine
 10
1285.7610315256
 20
1152.1985233167
 30
0.0
 11
1285.7610315256
 21
1152.9985368588
 31
0.0
  0
LINE
  5
561
330
1F
100
AcDbEntity
  8
0
  6
SLD-Solid
 62
     7
370
    15
100
AcDbLine
 10
1333.7110310964
 20
1152.9985368588
 30
0.0
 11
1285.7610315256
 21
1152.9985368588
 31
0.0
  0
LINE
  5
562
330
1F
100
AcDbEntity
  8
0
  6
SLD-Solid
 62
     7
370
    15
100
AcDbLine
 10
1284.7110361032
 20
1675.3278076985
 30
0.0
 11
1284.7110361032
 21
1674.1485894063
 31
0.0
  0
LINE
  5
563
330
1F
100
AcDbEntity
  8
0
  6
SLD-Solid
 62
     7
370
    15
100
AcDbLine
 10
1285.7610315256
 20
1675.3278076985
 30
0.0
 11
1284.7110361032
 21
1675.3278076985
 31
0.0
  0
LINE
  5
564
330
1F
100
AcDbEntity
  8
0
  6
SLD-Solid
 62
     7
370
    15
100
AcDbLine
 10
1283.961030858
 20
1227.6985347607
 30
0.0
 11
1282.6610237531
 21
1227.6985347607
 31
0.0
  0
LINE
  5
565
330
1F
100
AcDbEntity
  8
0
  6
SLD-Solid
 62
     7
370
    15
100
AcDbLine
 10
1282.6610237531
 20
1674.1485894063
 30
0.0
 11
1282.6610237531
 21
1662.4881327489
 31
0.0
  0
LINE
  5
566
330
1F
100
AcDbEntity
  8
0
  6
SLD-Solid
 62
     7
370
    15
100
AcDbLine
 10
1282.6610237531
 20
1228.1391322949
 30
0.0
 11
1282.6610237531
 21
1227.6985347607
 31
0.0
  0
LINE
  5
567
330
1F
100
AcDbEntity
  8
0
  6
SLD-Solid
 62
     7
370
    15
100
AcDbLine
 10
1282.6610237531
 20
1674.1485894063
 30
0.0
 11
1284.7110361032
 21
1674.1485894063
 31
0.0
  0
LINE
  5
568
330
1F
100
AcDbEntity
  8
0
  6
SLD-Solid
 62
     7
370
    15
100
AcDbLine
 10
1276.7610281877
 20
1167.6985323766
 30
0.0
 11
1279.2610258035
 21
1167.6985323766
 31
0.0
  0
LINE
  5
569
330
1F
100
AcDbEntity
  8
0
  6
SLD-Solid
 62
     7
370
    15
100
AcDbLine
 10
1279.2610258035
 20
1162.6985371449
 30
0.0
 11
1279.2610258035
 21
1167.6985323766
 31
0.0
  0
LINE
  5
56A
330
1F
100
AcDbEntity
  8
0
  6
SLD-Solid
 62
     7
370
    15
100
AcDbLine
 10
1279.2610258035
 20
1152.6985466817
 30
0.0
 11
1279.2610258035
 21
1162.6985371449
 31
0.0
  0
ARC
  5
56B
330
1F
100
AcDbEntity
  8
0
  6
SLD-Solid
 62
     7
370
    15
100
AcDbCircle
 10
1282.2610286586
 20
1152.6985464227
 30
0.0
 40
5.500000000000227
100
AcDbArc
 50
180.0
 51
270.0
  0
ARC
  5
56C
330
1F
100
AcDbEntity
  8
0
  6
SLD-Solid
 62
     7
370
    15
100
AcDbCircle
 10
1282.2610286586
 20
1152.6985464227
 30
0.0
 40
3.000000000000227
100
AcDbArc
 50
180.0
 51
270.0
  0
LINE
  5
56D
330
1F
100
AcDbEntity
  8
0
  6
SLD-Solid
 62
     7
370
    15
100
AcDbLine
 10
1282.2610169821
 20
1147.198528085
 30
0.0
 11
1325.7610231809
 21
1147.198528085
 31
0.0
  0
LINE
  5
56E
330
1F
100
AcDbEntity
  8
0
  6
SLD-Solid
 62
     7
370
    15
100
AcDbLine
 10
1282.2610169821
 20
1149.6985257008
 30
0.0
 11
1325.7610231809
 21
1149.6985257008
 31
0.0
  0
LINE
  5
56F
330
1F
100
AcDbEntity
  8
0
  6
SLD-Solid
 62
     7
370
    15
100
AcDbLine
 10
1325.7610231809
 20
1147.198528085
 30
0.0
 11
1333.7610393934
 21
1147.198528085
 31
0.0
  0
LINE
  5
570
330
1F
100
AcDbEntity
  8
0
  6
SLD-Solid
 62
     7
370
    15
100
AcDbLine
 10
1325.7610231809
 20
1149.6985257008
 30
0.0
 11
1333.7610393934
 21
1149.6985257008
 31
0.0
  0
LINE
  5
571
330
1F
100
AcDbEntity
  8
0
  6
SLD-Solid
 62
     7
370
    15
100
AcDbLine
 10
1276.7610281877
 20
342.298544977
 30
0.0
 11
1279.2610258035
 21
342.298544977
 31
0.0
  0
LINE
  5
572
330
1F
100
AcDbEntity
  8
0
  6
SLD-Solid
 62
     7
370
    15
100
AcDbLine
 10
1279.2610258035
 20
337.2985497454
 30
0.0
 11
1279.2610258035
 21
342.298544977
 31
0.0
  0
LINE
  5
573
330
1F
100
AcDbEntity
  8
0
  6
SLD-Solid
 62
     7
370
    15
100
AcDbLine
 10
1279.2610258035
 20
327.2985443809
 30
0.0
 11
1279.2610258035
 21
337.2985497454
 31
0.0
  0
LINE
  5
574
330
1F
100
AcDbEntity
  8
0
  6
SLD-Solid
 62
     7
370
    15
100
AcDbLine
 10
1282.2610169821
 20
321.798548136
 30
0.0
 11
1325.7610231809
 21
321.798548136
 31
0.0
  0
LINE
  5
575
330
1F
100
AcDbEntity
  8
0
  6
SLD-Solid
 62
     7
370
    15
100
AcDbLine
 10
1282.2610169821
 20
324.2985457518
 30
0.0
 11
1325.7610231809
 21
324.2985457518
 31
0.0
  0
ARC
  5
576
330
1F
100
AcDbEntity
  8
0
  6
SLD-Solid
 62
     7
370
    15
100
AcDbCircle
 10
1282.2610286586
 20
327.2985464227
 30
0.0
 40
3.0
100
AcDbArc
 50
180.0
 51
270.0
  0
ARC
  5
577
330
1F
100
AcDbEntity
  8
0
  6
SLD-Solid
 62
     7
370
    15
100
AcDbCircle
 10
1282.2610286586
 20
327.2985464227
 30
0.0
 40
5.5
100
AcDbArc
 50
180.0
 51
270.0
  0
LINE
  5
578
330
1F
100
AcDbEntity
  8
0
  6
SLD-Solid
 62
     7
370
    15
100
AcDbLine
 10
1325.7610231809
 20
321.798548136
 30
0.0
 11
1333.7610393934
 21
321.798548136
 31
0.0
  0
LINE
  5
579
330
1F
100
AcDbEntity
  8
0
  6
SLD-Solid
 62
     7
370
    15
100
AcDbLine
 10
1325.7610231809
 20
324.2985457518
 30
0.0
 11
1333.7610393934
 21
324.2985457518
 31
0.0
  0
LINE
  5
57A
330
1F
100
AcDbEntity
  8
0
  6
SLD-Solid
 62
     7
370
    15
100
AcDbLine
 10
1282.2610169821
 20
1681.9985211232
 30
0.0
 11
1325.7610231809
 21
1681.9985211232
 31
0.0
  0
LINE
  5
57B
330
1F
100
AcDbEntity
  8
0
  6
SLD-Solid
 62
     7
370
    15
100
AcDbLine
 10
1282.2610169821
 20
1679.498583112
 30
0.0
 11
1325.7610231809
 21
1679.498583112
 31
0.0
  0
LINE
  5
57C
330
1F
100
AcDbEntity
  8
0
  6
SLD-Solid
 62
     7
370
    15
100
AcDbLine
 10
1279.2610258035
 20
1684.998542104
 30
0.0
 11
1279.2610258035
 21
1690.3846562245
 31
0.0
  0
ARC
  5
57D
330
1F
100
AcDbEntity
  8
0
  6
SLD-Solid
 62
     7
370
    15
100
AcDbCircle
 10
1282.2610286586
 20
1684.998546422
 30
0.0
 40
3.000000000000227
100
AcDbArc
 50
180.0
 51
270.0
  0
ARC
  5
57E
330
1F
100
AcDbEntity
  8
0
  6
SLD-Solid
 62
     7
370
    15
100
AcDbCircle
 10
1282.2610286586
 20
1684.998546422
 30
0.0
 40
5.5
100
AcDbArc
 50
180.0
 51
270.0
  0
LINE
  5
57F
330
1F
100
AcDbEntity
  8
0
  6
SLD-Solid
 62
     7
370
    15
100
AcDbLine
 10
1325.7610231809
 20
1679.498583112
 30
0.0
 11
1333.7610393934
 21
1679.498583112
 31
0.0
  0
LINE
  5
580
330
1F
100
AcDbEntity
  8
0
  6
SLD-Solid
 62
     7
370
    15
100
AcDbLine
 10
1325.7610231809
 20
1681.9985211232
 30
0.0
 11
1333.7610393934
 21
1681.9985211232
 31
0.0
  0
ARC
  5
581
330
1F
100
AcDbEntity
  8
0
  6
SLD-Solid
 62
     7
370
    15
100
AcDbCircle
 10
1282.2610286586
 20
859.5985464219
 30
0.0
 40
5.500000000000227
100
AcDbArc
 50
180.0
 51
270.0
  0
ARC
  5
582
330
1F
100
AcDbEntity
  8
0
  6
SLD-Solid
 62
     7
370
    15
100
AcDbCircle
 10
1282.2610286586
 20
859.5985464219
 30
0.0
 40
3.000000000000227
100
AcDbArc
 50
180.0
 51
270.0
  0
LINE
  5
583
330
1F
100
AcDbEntity
  8
0
  6
SLD-Solid
 62
     7
370
    15
100
AcDbLine
 10
1279.2610258035
 20
859.5985472539
 30
0.0
 11
1279.2610258035
 21
864.9846613744
 31
0.0
  0
LINE
  5
584
330
1F
100
AcDbEntity
  8
0
  6
SLD-Solid
 62
     7
370
    15
100
AcDbLine
 10
1282.2610169821
 20
856.598526273
 30
0.0
 11
1325.7610231809
 21
856.598526273
 31
0.0
  0
LINE
  5
585
330
1F
100
AcDbEntity
  8
0
  6
SLD-Solid
 62
     7
370
    15
100
AcDbLine
 10
1282.2610169821
 20
854.0985286572
 30
0.0
 11
1325.7610231809
 21
854.0985286572
 31
0.0
  0
LINE
  5
586
330
1F
100
AcDbEntity
  8
0
  6
SLD-Solid
 62
     7
370
    15
100
AcDbLine
 10
1325.7610231809
 20
856.598526273
 30
0.0
 11
1333.7610393934
 21
856.598526273
 31
0.0
  0
LINE
  5
587
330
1F
100
AcDbEntity
  8
0
  6
SLD-Solid
 62
     7
370
    15
100
AcDbLine
 10
1325.7610231809
 20
854.0985286572
 30
0.0
 11
1333.7610393934
 21
854.0985286572
 31
0.0
  0
LINE
  5
588
330
1F
100
AcDbEntity
  8
0
  6
SLD-Solid
 62
     7
370
    15
100
AcDbLine
 10
1329.6610146932
 20
857.0985496381
 30
0.0
 11
1321.8610316686
 21
857.0985496381
 31
0.0
  0
LINE
  5
589
330
1F
100
AcDbEntity
  8
0
  6
SLD-Solid
 62
     7
370
    15
100
AcDbLine
 10
1321.8610316686
 20
1146.6985643247
 30
0.0
 11
1329.6610146932
 21
1146.6985643247
 31
0.0
  0
LINE
  5
58A
330
1F
100
AcDbEntity
  8
0
  6
SLD-Solid
 62
     7
370
    15
100
AcDbLine
 10
1329.6610146932
 20
1682.4986040929
 30
0.0
 11
1321.8610316686
 21
1682.4986040929
 31
0.0
  0
LINE
  5
58B
330
1F
100
AcDbEntity
  8
0
  6
SLD-Solid
 62
     7
370
    15
100
AcDbLine
 10
1321.8610316686
 20
321.2985471228
 30
0.0
 11
1329.6610146932
 21
321.2985471228
 31
0.0
  0
ARC
  5
58C
330
1F
100
AcDbEntity
  8
0
  6
SLD-Solid
 62
     7
370
    15
100
AcDbCircle
 10
571.6923491049
 20
1145.2404011532
 30
0.0
 40
3.244058805227885
100
AcDbArc
 50
98.5322110602
 51
141.2874682227
  0
LINE
  5
58D
330
1F
100
AcDbEntity
  8
0
  6
SLD-Solid
 62
     7
370
    15
100
AcDbLine
 10
569.1610306673
 20
1828.6278546193
 30
0.0
 11
569.1610306673
 21
1147.2692787984
 31
0.0
  0
ARC
  5
58E
330
1F
100
AcDbEntity
  8
0
  6
SLD-Solid
 62
     7
370
    15
100
AcDbCircle
 10
571.6923860326
 20
1830.6566343106
 30
0.0
 40
3.244026359511328
100
AcDbArc
 50
218.710773924
 51
261.4670434537
  0
ARC
  5
58F
330
1F
100
AcDbEntity
  8
0
  6
SLD-Solid
 62
     7
370
    15
100
AcDbCircle
 10
567.259150728
 20
1826.5393761701
 30
0.0
 40
4.055118978501183
100
AcDbArc
 50
12.9555972384
 51
46.8646136837
  0
LINE
  5
590
330
1F
100
AcDbEntity
  8
0
  6
SLD-Solid
 62
     7
370
    15
100
AcDbLine
 10
1275.5610376768
 20
1829.4985592702
 30
0.0
 11
1189.4610256128
 21
1829.4985592702
 31
0.0
  0
LINE
  5
591
330
1F
100
AcDbEntity
  8
0
  6
SLD-Solid
 62
     7
370
    15
100
AcDbLine
 10
674.4610399179
 20
1829.4985592702
 30
0.0
 11
570.0317353182
 21
1829.4985592702
 31
0.0
  0
ARC
  5
592
330
1F
100
AcDbEntity
  8
0
  6
SLD-Solid
 62
     7
370
    15
100
AcDbCircle
 10
1281.1105779326
 20
1825.6125039395
 30
0.0
 40
6.657727795394316
100
AcDbArc
 50
146.4650185275
 51
163.9919899042
  0
LINE
  5
593
330
1F
100
AcDbEntity
  8
0
  6
SLD-Solid
 62
     7
370
    15
100
AcDbLine
 10
569.9610144071
 20
1828.6278546193
 30
0.0
 11
569.1610306673
 21
1828.6278546193
 31
0.0
  0
ARC
  5
594
330
1F
100
AcDbEntity
  8
0
  6
SLD-Solid
 62
     7
370
    15
100
AcDbCircle
 10
571.9354630541
 20
1829.4685071572
 30
0.0
 40
2.145959959734823
100
AcDbArc
 50
203.0626418935
 51
250.2708693227
  0
ARC
  5
595
330
1F
100
AcDbEntity
  8
0
  6
SLD-Solid
 62
     7
370
    15
100
AcDbCircle
 10
569.1876912965
 20
1826.7209456308
 30
0.0
 40
2.150188934687177
100
AcDbArc
 50
19.777938167
 51
66.8871051626
  0
LINE
  5
596
330
1F
100
AcDbEntity
  8
0
  6
SLD-Solid
 62
     7
370
    15
100
AcDbLine
 10
570.0317353182
 20
1829.4985592702
 30
0.0
 11
570.0317353182
 21
1828.698545728
 31
0.0
  0
ARC
  5
597
330
1F
100
AcDbEntity
  8
0
  6
SLD-Solid
 62
     7
370
    15
100
AcDbCircle
 10
1277.9191197744
 20
1148.9298993905
 30
0.0
 40
3.244013202733722
100
AcDbArc
 50
188.5329856973
 51
231.2886653174
  0
LINE
  5
598
330
1F
100
AcDbEntity
  8
0
  6
SLD-Solid
 62
     7
370
    15
100
AcDbLine
 10
570.0317353182
 20
1146.3985741475
 30
0.0
 11
1275.8903235369
 21
1146.3985741475
 31
0.0
  0
LWPOLYLINE
  5
599
330
1F
100
AcDbEntity
  8
0
  6
SLD-Solid
 62
     7
370
    15
100
AcDbPolyline
 90
        6
 70
   128
 43
0.0
 10
571.2110430174
 20
1148.4485566953
 10
570.9412723951
 20
1147.7276981213
 10
570.6714123659
 20
1147.0987499097
 10
570.401582139
 20
1146.64229754
 10
570.1317221098
 20
1146.4166939595
 10
570.0317353182
 20
1146.3985741475
  0
ARC
  5
59A
330
1F
100
AcDbEntity
  8
0
  6
SLD-Solid
 62
     7
370
    15
100
AcDbCircle
 10
571.9353961508
 20
1146.4285950821
 30
0.0
 40
2.145910618021201
100
AcDbArc
 50
109.7277054315
 51
156.9358924095
  0
LINE
  5
59B
330
1F
100
AcDbEntity
  8
0
  6
SLD-Solid
 62
     7
370
    15
100
AcDbLine
 10
569.9610144071
 20
1147.2692787984
 30
0.0
 11
569.1610306673
 21
1147.2692787984
 31
0.0
  0
LINE
  5
59C
330
1F
100
AcDbEntity
  8
0
  6
SLD-Solid
 62
     7
370
    15
100
AcDbLine
 10
570.0317353182
 20
1146.3985741475
 30
0.0
 11
570.0317353182
 21
1147.198528085
 31
0.0
  0
ARC
  5
59D
330
1F
100
AcDbEntity
  8
0
  6
SLD-Solid
 62
     7
370
    15
100
AcDbCircle
 10
569.193936999
 20
1149.1702358331
 30
0.0
 40
2.142320579929169
100
AcDbArc
 50
293.0211236694
 51
340.313833001
  0
LWPOLYLINE
  5
59E
330
1F
100
AcDbEntity
  8
0
  6
SLD-Solid
 62
     7
370
    15
100
AcDbPolyline
 90
        3
 70
   128
 43
0.0
 10
1275.5610376768
 20
1827.7721703389
 10
1274.9832302503
 20
1827.5485337117
 10
1274.7110158376
 20
1827.4485171178
  0
LINE
  5
59F
330
1F
100
AcDbEntity
  8
0
  6
SLD-Solid
 62
     7
370
    15
100
AcDbLine
 10
1276.7610281877
 20
1147.2692787984
 30
0.0
 11
1276.7610281877
 21
1690.3846562245
 31
0.0
  0
LINE
  5
5A0
330
1F
100
AcDbEntity
  8
0
  6
SLD-Solid
 62
     7
370
    15
100
AcDbLine
 10
1276.7610281877
 20
1691.1846697667
 30
0.0
 11
1276.7610281877
 21
1692.1847164967
 31
0.0
  0
LINE
  5
5A1
330
1F
100
AcDbEntity
  8
0
  6
SLD-Solid
 62
     7
370
    15
100
AcDbLine
 10
1276.7610281877
 20
1810.8723461964
 30
0.0
 11
1276.7610281877
 21
1811.8723929265
 31
0.0
  0
LWPOLYLINE
  5
5A2
330
1F
100
AcDbEntity
  8
0
  6
SLD-Solid
 62
     7
370
    15
100
AcDbPolyline
 90
        6
 70
   128
 43
0.0
 10
1274.7110158376
 20
1148.4485566953
 10
1275.4318744116
 20
1148.178786073
 10
1276.0608524256
 20
1147.9089558461
 10
1276.5172749929
 20
1147.6390660146
 10
1276.7428785734
 20
1147.3692357877
 10
1276.7610281877
 20
1147.2692787984
  0
ARC
  5
5A3
330
1F
100
AcDbEntity
  8
0
  6
SLD-Solid
 62
     7
370
    15
100
AcDbCircle
 10
1278.0432993402
 20
1825.809909666
 30
0.0
 40
3.713374169449099
100
AcDbArc
 50
131.9487237634
 51
153.8149422892
  0
LWPOLYLINE
  5
5A4
330
1F
100
AcDbEntity
  8
0
  6
SLD-Solid
 62
     7
370
    15
100
AcDbPolyline
 90
        3
 70
   128
 43
0.0
 10
1275.5610376768
 20
1828.0133307317
 10
1275.1851707868
 20
1827.7405798772
 10
1274.7110158376
 20
1827.4485171178
  0
ARC
  5
5A5
330
1F
100
AcDbEntity
  8
0
  6
SLD-Solid
 62
     7
370
    15
100
AcDbCircle
 10
1276.7310717619
 20
1149.1730188467
 30
0.0
 40
2.146036193981756
100
AcDbArc
 50
199.7295952721
 51
246.9354480575
  0
LINE
  5
5A6
330
1F
100
AcDbEntity
  8
0
  6
SLD-Solid
 62
     7
370
    15
100
AcDbLine
 10
1275.8903235369
 20
1147.198528085
 30
0.0
 11
1275.8903235369
 21
1146.3985741475
 31
0.0
  0
LINE
  5
5A7
330
1F
100
AcDbEntity
  8
0
  6
SLD-Solid
 62
     7
370
    15
100
AcDbLine
 10
1275.9610146456
 20
1147.2692787984
 30
0.0
 11
1276.7610281877
 21
1147.2692787984
 31
0.0
  0
ARC
  5
5A8
330
1F
100
AcDbEntity
  8
0
  6
SLD-Solid
 62
     7
370
    15
100
AcDbCircle
 10
1273.9894043432
 20
1146.4315510319
 30
0.0
 40
2.142203303864559
100
AcDbArc
 50
23.0204061831
 51
70.3146322675
  0
ARC
  5
5A9
330
1F
100
AcDbEntity
  8
0
  6
SLD-Solid
 62
     7
370
    15
100
AcDbCircle
 10
571.6923417188
 20
319.8404298777
 30
0.0
 40
3.244019659384462
100
AcDbArc
 50
98.5321828727
 51
141.2881222509
  0
LINE
  5
5AA
330
1F
100
AcDbEntity
  8
0
  6
SLD-Solid
 62
     7
370
    15
100
AcDbLine
 10
569.1610306673
 20
1003.2278597691
 30
0.0
 11
569.1610306673
 21
321.8692541459
 31
0.0
  0
ARC
  5
5AB
330
1F
100
AcDbEntity
  8
0
  6
SLD-Solid
 62
     7
370
    15
100
AcDbCircle
 10
571.6925242486
 20
1005.2568797179
 30
0.0
 40
3.244284467299611
100
AcDbArc
 50
218.7125582928
 51
261.4652590849
  0
ARC
  5
5AC
330
1F
100
AcDbEntity
  8
0
  6
SLD-Solid
 62
     7
370
    15
100
AcDbCircle
 10
567.2581934769
 20
1001.1388306514
 30
0.0
 40
4.056175332256565
100
AcDbArc
 50
12.9601462215
 51
46.8600647006
  0
LINE
  5
5AD
330
1F
100
AcDbEntity
  8
0
  6
SLD-Solid
 62
     7
370
    15
100
AcDbLine
 10
1275.5610376768
 20
1004.09856442
 30
0.0
 11
1189.4610256128
 21
1004.09856442
 31
0.0
  0
LINE
  5
5AE
330
1F
100
AcDbEntity
  8
0
  6
SLD-Solid
 62
     7
370
    15
100
AcDbLine
 10
674.4610399179
 20
1004.09856442
 30
0.0
 11
570.0317353182
 21
1004.09856442
 31
0.0
  0
ARC
  5
5AF
330
1F
100
AcDbEntity
  8
0
  6
SLD-Solid
 62
     7
370
    15
100
AcDbCircle
 10
1281.1105779326
 20
1000.2125090893
 30
0.0
 40
6.657727795394316
100
AcDbArc
 50
146.4650185275
 51
163.9919899042
  0
ARC
  5
5B0
330
1F
100
AcDbEntity
  8
0
  6
SLD-Solid
 62
     7
370
    15
100
AcDbCircle
 10
569.1873330728
 20
1001.3206128236
 30
0.0
 40
2.150640392596992
100
AcDbArc
 50
19.7831813589
 51
66.8818619707
  0
LINE
  5
5B1
330
1F
100
AcDbEntity
  8
0
  6
SLD-Solid
 62
     7
370
    15
100
AcDbLine
 10
570.0317353182
 20
1004.09856442
 30
0.0
 11
570.0317353182
 21
1003.2985508778
 31
0.0
  0
LINE
  5
5B2
330
1F
100
AcDbEntity
  8
0
  6
SLD-Solid
 62
     7
370
    15
100
AcDbLine
 10
569.9610144071
 20
1003.2278597691
 30
0.0
 11
569.1610306673
 21
1003.2278597691
 31
0.0
  0
ARC
  5
5B3
330
1F
100
AcDbEntity
  8
0
  6
SLD-Solid
 62
     7
370
    15
100
AcDbCircle
 10
571.9355783527
 20
1004.0686345168
 30
0.0
 40
2.146113918544116
100
AcDbArc
 50
203.0644379822
 51
250.2690732339
  0
ARC
  5
5B4
330
1F
100
AcDbEntity
  8
0
  6
SLD-Solid
 62
     7
370
    15
100
AcDbCircle
 10
1277.9192993611
 20
323.5299745506
 30
0.0
 40
3.244203401060314
100
AcDbArc
 50
188.533998106
 51
231.2872928796
  0
LINE
  5
5B5
330
1F
100
AcDbEntity
  8
0
  6
SLD-Solid
 62
     7
370
    15
100
AcDbLine
 10
570.0317353182
 20
320.998549495
 30
0.0
 11
1275.8903235369
 21
320.998549495
 31
0.0
  0
LWPOLYLINE
  5
5B6
330
1F
100
AcDbEntity
  8
0
  6
SLD-Solid
 62
     7
370
    15
100
AcDbPolyline
 90
        6
 70
   128
 43
0.0
 10
571.2110430174
 20
323.0485469439
 10
570.9412723951
 20
322.32768837
 10
570.6714123659
 20
321.6987327078
 10
570.401582139
 20
321.2422877887
 10
570.1317221098
 20
321.0166991094
 10
570.0317353182
 20
320.998549495
  0
ARC
  5
5B7
330
1F
100
AcDbEntity
  8
0
  6
SLD-Solid
 62
     7
370
    15
100
AcDbCircle
 10
571.9353951767
 20
321.0285969858
 30
0.0
 40
2.145899318287929
100
AcDbArc
 50
109.7277859926
 51
156.936534597
  0
LINE
  5
5B8
330
1F
100
AcDbEntity
  8
0
  6
SLD-Solid
 62
     7
370
    15
100
AcDbLine
 10
569.9610144071
 20
321.8692541459
 30
0.0
 11
569.1610306673
 21
321.8692541459
 31
0.0
  0
LINE
  5
5B9
330
1F
100
AcDbEntity
  8
0
  6
SLD-Solid
 62
     7
370
    15
100
AcDbLine
 10
570.0317353182
 20
320.998549495
 30
0.0
 11
570.0317353182
 21
321.798548136
 31
0.0
  0
ARC
  5
5BA
330
1F
100
AcDbEntity
  8
0
  6
SLD-Solid
 62
     7
370
    15
100
AcDbCircle
 10
569.1940359411
 20
323.770179744
 30
0.0
 40
2.142211811129479
100
AcDbArc
 50
293.0194845013
 51
340.3141084587
  0
LWPOLYLINE
  5
5BB
330
1F
100
AcDbEntity
  8
0
  6
SLD-Solid
 62
     7
370
    15
100
AcDbPolyline
 90
        3
 70
   128
 43
0.0
 10
1275.5610376768
 20
1002.3721158841
 10
1274.9832302503
 20
1002.1485388615
 10
1274.7110158376
 20
1002.0485222676
  0
LINE
  5
5BC
330
1F
100
AcDbEntity
  8
0
  6
SLD-Solid
 62
     7
370
    15
100
AcDbLine
 10
1276.7610281877
 20
321.8692541459
 30
0.0
 11
1276.7610281877
 21
864.9846613744
 31
0.0
  0
LINE
  5
5BD
330
1F
100
AcDbEntity
  8
0
  6
SLD-Solid
 62
     7
370
    15
100
AcDbLine
 10
1276.7610281877
 20
865.7846749165
 30
0.0
 11
1276.7610281877
 21
866.7846620419
 31
0.0
  0
LINE
  5
5BE
330
1F
100
AcDbEntity
  8
0
  6
SLD-Solid
 62
     7
370
    15
100
AcDbLine
 10
1276.7610281877
 20
985.4723513463
 30
0.0
 11
1276.7610281877
 21
986.4723384717
 31
0.0
  0
LWPOLYLINE
  5
5BF
330
1F
100
AcDbEntity
  8
0
  6
SLD-Solid
 62
     7
370
    15
100
AcDbPolyline
 90
        6
 70
   128
 43
0.0
 10
1274.7110158376
 20
323.0485469439
 10
1275.4318744116
 20
322.7787837723
 10
1276.0608524256
 20
322.5089386442
 10
1276.5172749929
 20
322.2390860656
 10
1276.7428785734
 20
321.9692409375
 10
1276.7610281877
 20
321.8692541459
  0
LWPOLYLINE
  5
5C0
330
1F
100
AcDbEntity
  8
0
  6
SLD-Solid
 62
     7
370
    15
100
AcDbPolyline
 90
        3
 70
   128
 43
0.0
 10
1275.5610376768
 20
1002.6133358815
 10
1275.1851707868
 20
1002.3406446317
 10
1274.7110158376
 20
1002.0485222676
  0
ARC
  5
5C1
330
1F
100
AcDbEntity
  8
0
  6
SLD-Solid
 62
     7
370
    15
100
AcDbCircle
 10
1278.0432993402
 20
1000.4099148158
 30
0.0
 40
3.713374169449149
100
AcDbArc
 50
131.9487237634
 51
153.8149422892
  0
LINE
  5
5C2
330
1F
100
AcDbEntity
  8
0
  6
SLD-Solid
 62
     7
370
    15
100
AcDbLine
 10
1275.9610146456
 20
321.8692541459
 30
0.0
 11
1276.7610281877
 21
321.8692541459
 31
0.0
  0
ARC
  5
5C3
330
1F
100
AcDbEntity
  8
0
  6
SLD-Solid
 62
     7
370
    15
100
AcDbCircle
 10
1273.9895118545
 20
321.0316658229
 30
0.0
 40
2.142049825283425
100
AcDbArc
 50
23.0180979332
 51
70.3162177677
  0
ARC
  5
5C4
330
1F
100
AcDbEntity
  8
0
  6
SLD-Solid
 62
     7
370
    15
100
AcDbCircle
 10
1276.7309677038
 20
323.7729579973
 30
0.0
 40
2.145920994777755
100
AcDbArc
 50
199.7292489659
 51
246.9371580741
  0
LINE
  5
5C5
330
1F
100
AcDbEntity
  8
0
  6
SLD-Solid
 62
     7
370
    15
100
AcDbLine
 10
1275.8903235369
 20
321.798548136
 30
0.0
 11
1275.8903235369
 21
320.998549495
 31
0.0
  0
LINE
  5
5C6
330
1F
100
AcDbEntity
  8
0
  6
SLD-Solid
 62
     7
370
    15
100
AcDbLine
 10
1228.0110299759
 20
1004.09856442
 30
0.0
 11
1228.0110299759
 21
1004.1985214093
 31
0.0
  0
LINE
  5
5C7
330
1F
100
AcDbEntity
  8
0
  6
SLD-Solid
 62
     7
370
    15
100
AcDbLine
 10
1215.9326106481
 20
1020.5985606053
 30
0.0
 11
1215.7110303812
 21
1020.5985606053
 31
0.0
  0
LINE
  5
5C8
330
1F
100
AcDbEntity
  8
0
  6
SLD-Solid
 62
     7
370
    15
100
AcDbLine
 10
1194.9610293083
 20
1020.588547025
 30
0.0
 11
1194.9610293083
 21
1020.5985606053
 31
0.0
  0
LINE
  5
5C9
330
1F
100
AcDbEntity
  8
0
  6
SLD-Solid
 62
     7
370
    15
100
AcDbLine
 10
1313.4889632635
 20
995.6003725865
 30
0.0
 11
1313.1749957971
 21
995.5728948453
 31
0.0
  0
LINE
  5
5CA
330
1F
100
AcDbEntity
  8
0
  6
SLD-Solid
 62
     7
370
    15
100
AcDbLine
 10
1314.2586380415
 20
996.0440695622
 30
0.0
 11
1314.2678171568
 21
995.9390461781
 31
0.0
  0
LINE
  5
5CB
330
1F
100
AcDbEntity
  8
0
  6
SLD-Solid
 62
     7
370
    15
100
AcDbLine
 10
1228.0110299759
 20
1829.4985592702
 30
0.0
 11
1228.0110299759
 21
1829.5985758641
 31
0.0
  0
LINE
  5
5CC
330
1F
100
AcDbEntity
  8
0
  6
SLD-Solid
 62
     7
370
    15
100
AcDbLine
 10
1194.9610293083
 20
1845.9885418752
 30
0.0
 11
1194.9610293083
 21
1845.9985554555
 31
0.0
  0
LINE
  5
5CD
330
1F
100
AcDbEntity
  8
0
  6
SLD-Solid
 62
     7
370
    15
100
AcDbLine
 10
1215.9326106481
 20
1845.9985554555
 30
0.0
 11
1215.7110303812
 21
1845.9985554555
 31
0.0
  0
LINE
  5
5CE
330
1F
100
AcDbEntity
  8
0
  6
SLD-Solid
 62
     7
370
    15
100
AcDbLine
 10
1313.4889632635
 20
1821.0003674367
 30
0.0
 11
1313.1749957971
 21
1820.9729493001
 31
0.0
  0
LINE
  5
5CF
330
1F
100
AcDbEntity
  8
0
  6
SLD-Solid
 62
     7
370
    15
100
AcDbLine
 10
1314.2586380415
 20
1821.4440644124
 30
0.0
 11
1314.2678171568
 21
1821.3390410283
 31
0.0
  0
LINE
  5
5D0
330
1F
100
AcDbEntity
  8
0
  6
SLD-Solid
 62
     7
370
    15
100
AcDbLine
 10
635.9610289507
 20
1829.4985592702
 30
0.0
 11
635.9610289507
 21
1829.9985230306
 31
0.0
  0
LINE
  5
5D1
330
1F
100
AcDbEntity
  8
0
  6
SLD-Solid
 62
     7
370
    15
100
AcDbLine
 10
635.9610289507
 20
1004.09856442
 30
0.0
 11
635.9610289507
 21
1004.5985281804
 31
0.0
  0
LINE
  5
5D2
330
1F
100
AcDbEntity
  8
0
  6
SLD-Solid
 62
     7
370
    15
100
AcDbLine
 10
624.7610181741
 20
1829.4985592702
 30
0.0
 11
624.7610181741
 21
1829.9985230306
 31
0.0
  0
LINE
  5
5D3
330
1F
100
AcDbEntity
  8
0
  6
SLD-Solid
 62
     7
370
    15
100
AcDbLine
 10
574.7610360555
 20
1829.9985230306
 30
0.0
 11
574.7610360555
 21
1829.4985592702
 31
0.0
  0
LINE
  5
5D4
330
1F
100
AcDbEntity
  8
0
  6
SLD-Solid
 62
     7
370
    15
100
AcDbLine
 10
624.7610181741
 20
1004.09856442
 30
0.0
 11
624.7610181741
 21
1004.5985281804
 31
0.0
  0
LINE
  5
5D5
330
1F
100
AcDbEntity
  8
0
  6
SLD-Solid
 62
     7
370
    15
100
AcDbLine
 10
574.7610360555
 20
1004.5985281804
 30
0.0
 11
574.7610360555
 21
1004.09856442
 31
0.0
  0
ARC
  5
5D6
330
1F
100
AcDbEntity
  8
0
  6
SLD-Solid
 62
     7
370
    15
100
AcDbCircle
 10
1274.7370333493
 20
1220.6913275613
 30
0.0
 40
2.699999999999918
100
AcDbArc
 50
359.6890354576
 51
41.4418449498
  0
LINE
  5
5D7
330
1F
100
AcDbEntity
  8
0
  6
SLD-Solid
 62
     7
370
    15
100
AcDbLine
 10
1277.4370044641
 20
1220.6766903737
 30
0.0
 11
1277.3881584577
 21
1211.6768062451
 31
0.0
  0
LINE
  5
5D8
330
1F
100
AcDbEntity
  8
0
  6
SLD-Solid
 62
     7
370
    15
100
AcDbLine
 10
1277.361008542
 20
1206.6768706181
 30
0.0
 11
1276.7610281877
 21
1206.6801488736
 31
0.0
  0
LWPOLYLINE
  5
5D9
330
1F
100
AcDbEntity
  8
0
  6
SLD-Solid
 62
     7
370
    15
100
AcDbPolyline
 90
        9
 70
   128
 43
0.0
 10
1277.3881584577
 20
1211.6768062451
 10
1277.3828536443
 20
1210.7013762334
 10
1277.3777574472
 20
1209.7634375432
 10
1277.3730784826
 20
1208.89899138
 10
1277.3689657621
 20
1208.1412971356
 10
1277.3655980997
 20
1207.5195014813
 10
1277.3630649023
 20
1207.0575058797
 10
1277.3615449838
 20
1206.7729533055
 10
1277.361008542
 20
1206.6768706181
  0
ARC
  5
5DA
330
1F
100
AcDbEntity
  8
0
  6
SLD-Solid
 62
     7
370
    15
100
AcDbCircle
 10
1274.7370333493
 20
395.2913275613
 30
0.0
 40
2.700000000000069
100
AcDbArc
 50
359.6890354576
 51
41.4418449497
  0
LINE
  5
5DB
330
1F
100
AcDbEntity
  8
0
  6
SLD-Solid
 62
     7
370
    15
100
AcDbLine
 10
1277.4370044641
 20
395.2766806224
 30
0.0
 11
1277.3881584577
 21
386.276811395
 31
0.0
  0
LINE
  5
5DC
330
1F
100
AcDbEntity
  8
0
  6
SLD-Solid
 62
     7
370
    15
100
AcDbLine
 10
1277.361008542
 20
381.276875768
 30
0.0
 11
1276.7610281877
 21
381.2801391223
 31
0.0
  0
LWPOLYLINE
  5
5DD
330
1F
100
AcDbEntity
  8
0
  6
SLD-Solid
 62
     7
370
    15
100
AcDbPolyline
 90
        9
 70
   128
 43
0.0
 10
1277.3881584577
 20
386.276811395
 10
1277.3828536443
 20
385.3013664821
 10
1277.3777574472
 20
384.3634128907
 10
1277.3730784826
 20
383.4989965299
 10
1277.3689657621
 20
382.7413171866
 10
1277.3655980997
 20
382.1195215323
 10
1277.3630649023
 20
381.6574812272
 10
1277.3615449838
 20
381.3729584554
 10
1277.361008542
 20
381.276875768
  0
LWPOLYLINE
  5
5DE
330
1F
100
AcDbEntity
  8
0
  6
SLD-Solid
 62
     7
370
    15
100
AcDbPolyline
 90
        3
 70
   128
 43
0.0
 10
1275.1287847929
 20
1147.8010118344
 10
1275.3555804662
 20
1148.0040252545
 10
1275.3714054994
 20
1148.0199992993
  0
LWPOLYLINE
  5
5DF
330
1F
100
AcDbEntity
  8
0
  6
SLD-Solid
 62
     7
370
    15
100
AcDbPolyline
 90
        3
 70
   128
 43
0.0
 10
1275.1286953859
 20
322.4009648302
 10
1275.3555804662
 20
322.604000602
 10
1275.3713756971
 20
322.6199373939
  0
LINE
  5
5E0
330
1F
100
AcDbEntity
  8
0
  6
SLD-Center
 62
     7
370
     0
100
AcDbLine
 10
542.9233017151
 20
1787.8985464227
 30
0.0
 11
660.9610286586
 21
1787.8985464227
 31
0.0
  0
LINE
  5
5E1
330
1F
100
AcDbEntity
  8
0
  6
SLD-Center
 62
     7
370
     0
100
AcDbLine
 10
542.9233017151
 20
962.4985464227
 30
0.0
 11
668.9610286586
 21
962.4985464227
 31
0.0
  0
LINE
  5
5E2
330
1F
100
AcDbEntity
  8
0
  6
SLD-Solid
 62
     7
370
     0
100
AcDbLine
 10
567.4610286586
 20
1915.1780015825
 30
0.0
 11
567.4610286586
 21
1915.878588033
 31
0.0
  0
LINE
  5
5E3
330
1F
100
AcDbEntity
  8
0
  6
SLD-Solid
 62
     7
370
     0
100
AcDbLine
 10
1392.4610286586
 20
1636.7465021977
 30
0.0
 11
1392.4610286586
 21
1635.2231658525
 31
0.0
  0
LINE
  5
5E4
330
1F
100
AcDbEntity
  8
0
  6
SLD-Solid
 62
     7
370
     0
100
AcDbLine
 10
1353.4610286586
 20
1716.1985464227
 30
0.0
 11
1353.4610286586
 21
1717.1647054975
 31
0.0
  0
LINE
  5
5E5
330
1F
100
AcDbEntity
  8
0
  6
SLD-Solid
 62
     7
370
     0
100
AcDbLine
 10
569.5110286586
 20
1917.2280015825
 30
0.0
 11
568.1570210558
 21
1917.2280015825
 31
0.0
  0
LINE
  5
5E6
330
1F
100
AcDbEntity
  8
0
  6
SLD-Center
 62
     7
370
     0
100
AcDbLine
 10
641.4610286586
 20
358.2985464227
 30
0.0
 11
641.4610286586
 21
113.7985464227
 31
0.0
  0
LINE
  5
5E7
330
1F
100
AcDbEntity
  8
0
  6
SLD-Center
 62
     7
370
     0
100
AcDbLine
 10
1230.4610286586
 20
113.7985464227
 30
0.0
 11
1230.4610286586
 21
359.7985464227
 31
0.0
  0
ENDSEC
  0
SECTION
  2
OBJECTS
  0
DICTIONARY
  5
C
330
0
100
AcDbDictionary
281
     1
  3
ACAD_GROUP
350
D
  3
ACAD_LAYOUT
350
1A
  3
ACAD_MLINESTYLE
350
17
  3
ACAD_PLOTSETTINGS
350
19
  3
ACAD_PLOTSTYLENAME
350
E
  0
DICTIONARY
  5
D
102
{ACAD_REACTORS
330
C
102
}
330
C
100
AcDbDictionary
281
     1
  0
DICTIONARY
  5
1A
102
{ACAD_REACTORS
330
C
102
}
330
C
100
AcDbDictionary
281
     1
  3
Layout1
350
1E
  3
Layout2
350
26
  3
Model
350
22
  0
DICTIONARY
  5
17
102
{ACAD_REACTORS
330
C
102
}
330
C
100
AcDbDictionary
281
     1
  3
Standard
350
18
  0
DICTIONARY
  5
19
102
{ACAD_REACTORS
330
C
102
}
330
C
100
AcDbDictionary
281
     1
  0
ACDBDICTIONARYWDFLT
  5
E
102
{ACAD_REACTORS
330
C
102
}
330
C
100
AcDbDictionary
281
     1
  3
Normal
350
F
100
AcDbDictionaryWithDefault
340
F
  0
LAYOUT
  5
1E
102
{ACAD_REACTORS
330
1A
102
}
330
1A
100
AcDbPlotSettings
  1

  2
none_device
  4

  6

 40
0.0
 41
0.0
 42
0.0
 43
0.0
 44
0.0
 45
0.0
 46
0.0
 47
0.0
 48
0.0
 49
0.0
140
0.0
141
0.0
142
1.0
143
1.0
 70
   688
 72
     0
 73
     0
 74
     5
  7

 75
    16
147
1.0
148
0.0
149
0.0
100
AcDbLayout
  1
Layout1
 70
     1
 71
     1
 10
0.0
 20
0.0
 11
420.0
 21
297.0
 12
0.0
 22
0.0
 32
0.0
 14
1.0000000000E+20
 24
1.0000000000E+20
 34
1.0000000000E+20
 15
-1.0000000000E+20
 25
-1.0000000000E+20
 35
-1.0000000000E+20
146
0.0
 13
0.0
 23
0.0
 33
0.0
 16
1.0
 26
0.0
 36
0.0
 17
0.0
 27
1.0
 37
0.0
 76
     0
330
1B
  0
LAYOUT
  5
26
102
{ACAD_REACTORS
330
1A
102
}
330
1A
100
AcDbPlotSettings
  1

  2
none_device
  4

  6

 40
0.0
 41
0.0
 42
0.0
 43
0.0
 44
0.0
 45
0.0
 46
0.0
 47
0.0
 48
0.0
 49
0.0
140
0.0
141
0.0
142
1.0
143
1.0
 70
   688
 72
     0
 73
     0
 74
     5
  7

 75
    16
147
1.0
148
0.0
149
0.0
100
AcDbLayout
  1
Layout2
 70
     1
 71
     2
 10
0.0
 20
0.0
 11
0.0
 21
0.0
 12
0.0
 22
0.0
 32
0.0
 14
0.0
 24
0.0
 34
0.0
 15
0.0
 25
0.0
 35
0.0
146
0.0
 13
0.0
 23
0.0
 33
0.0
 16
1.0
 26
0.0
 36
0.0
 17
0.0
 27
1.0
 37
0.0
 76
     0
330
23
  0
LAYOUT
  5
22
102
{ACAD_REACTORS
330
1A
102
}
330
1A
100
AcDbPlotSettings
  1

  2
none_device
  4

  6

 40
0.0
 41
0.0
 42
0.0
 43
0.0
 44
0.0
 45
0.0
 46
0.0
 47
0.0
 48
0.0
 49
0.0
140
0.0
141
0.0
142
1.0
143
1.0
 70
  1712
 72
     0
 73
     0
 74
     0
  7

 75
     0
147
1.0
148
0.0
149
0.0
100
AcDbLayout
  1
Model
 70
     1
 71
     0
 10
0.0
 20
0.0
 11
2000.0
 21
2000.0
 12
0.0
 22
0.0
 32
0.0
 14
0.0
 24
0.0
 34
0.0
 15
2000.0
 25
2000.0
 35
0.0
146
0.0
 13
0.0
 23
0.0
 33
0.0
 16
1.0
 26
0.0
 36
0.0
 17
0.0
 27
1.0
 37
0.0
 76
     0
330
1F
331
29
  0
MLINESTYLE
  5
18
102
{ACAD_REACTORS
330
17
102
}
330
17
100
AcDbMlineStyle
  2
Standard
 70
     0
  3

 62
   256
 51
90.0
 52
90.0
 71
     2
 49
0.5
 62
   256
  6
BYLAYER
 49
-0.5
 62
   256
  6
BYLAYER
  0
ACDBPLACEHOLDER
  5
F
102
{ACAD_REACTORS
330
E
102
}
330
E
  0
ENDSEC
  0
EOF
