  0
SECTION
  2
HEADER
  9
$ACADVER
  1
AC1015
  9
$ACADMAINTVER
 70
     6
  9
$DWGCODEPAGE
  3
ANSI_1252
  9
$INSBASE
 10
0.0
 20
0.0
 30
0.0
  9
$EXTMIN
 10
0.0
 20
0.0
 30
0.0
  9
$EXTMAX
 10
2000.0
 20
2000.0
 30
0.0
  9
$LIMMIN
 10
0.0
 20
0.0
  9
$LIMMAX
 10
2000.0
 20
2000.0
  9
$ORTHOMODE
 70
     0
  9
$REGENMODE
 70
     1
  9
$FILLMODE
 70
     1
  9
$QTEXTMODE
 70
     0
  9
$MIRRTEXT
 70
     1
  9
$LTSCALE
 40
1.0
  9
$ATTMODE
 70
     1
  9
$TEXTSIZE
 40
3.5
  9
$TRACEWID
 40
1.0
  9
$TEXTSTYLE
  7
STANDARD
  9
$CLAYER
  8
0
  9
$CELTYPE
  6
ByLayer
  9
$CECOLOR
 62
   256
  9
$CELTSCALE
 40
1.0
  9
$DISPSILH
 70
     0
  9
$DIMSCALE
 40
1.0
  9
$DIMASZ
 40
3.302
  9
$DIMEXO
 40
1.0
  9
$DIMDLI
 40
3.75
  9
$DIMRND
 40
0.0
  9
$DIMDLE
 40
0.0
  9
$DIMEXE
 40
1.0
  9
$DIMTP
 40
0.0
  9
$DIMTM
 40
0.0
  9
$DIMTXT
 40
3.5
  9
$DIMCEN
 40
2.5
  9
$DIMTSZ
 40
0.0
  9
$DIMTOL
 70
     0
  9
$DIMLIM
 70
     0
  9
$DIMTIH
 70
     1
  9
$DIMTOH
 70
     1
  9
$DIMSE1
 70
     0
  9
$DIMSE2
 70
     0
  9
$DIMTAD
 70
     1
  9
$DIMZIN
 70
     0
  9
$DIMBLK
  1

  9
$DIMASO
 70
     1
  9
$DIMSHO
 70
     1
  9
$DIMPOST
  1

  9
$DIMAPOST
  1

  9
$DIMALT
 70
     0
  9
$DIMALTD
 70
     3
  9
$DIMALTF
 40
0.0393700787
  9
$DIMLFAC
 40
1.0
  9
$DIMTOFL
 70
     1
  9
$DIMTVP
 40
0.0
  9
$DIMTIX
 70
     0
  9
$DIMSOXD
 70
     0
  9
$DIMSAH
 70
     0
  9
$DIMBLK1
  1

  9
$DIMBLK2
  1

  9
$DIMSTYLE
  2
ISO-25
  9
$DIMCLRD
 70
     0
  9
$DIMCLRE
 70
     0
  9
$DIMCLRT
 70
     0
  9
$DIMTFAC
 40
1.0
  9
$DIMGAP
 40
1.524
  9
$DIMJUST
 70
     0
  9
$DIMSD1
 70
     0
  9
$DIMSD2
 70
     0
  9
$DIMTOLJ
 70
     0
  9
$DIMTZIN
 70
     0
  9
$DIMALTZ
 70
     0
  9
$DIMALTTZ
 70
     0
  9
$DIMUPT
 70
     0
  9
$DIMDEC
 70
     1
  9
$DIMTDEC
 70
     1
  9
$DIMALTU
 70
     2
  9
$DIMALTTD
 70
     3
  9
$DIMTXSTY
  7
STANDARD
  9
$DIMAUNIT
 70
     0
  9
$DIMADEC
 70
     1
  9
$DIMALTRND
 40
0.0
  9
$DIMAZIN
 70
     0
  9
$DIMDSEP
 70
    44
  9
$DIMATFIT
 70
     3
  9
$DIMFRAC
 70
     0
  9
$DIMLDRBLK
  1

  9
$DIMLUNIT
 70
     2
  9
$DIMLWD
 70
    -2
  9
$DIMLWE
 70
    -2
  9
$DIMTMOVE
 70
     0
  9
$LUNITS
 70
     2
  9
$LUPREC
 70
     1
  9
$SKETCHINC
 40
1.0
  9
$FILLETRAD
 40
10.0
  9
$AUNITS
 70
     0
  9
$AUPREC
 70
     1
  9
$MENU
  1
.
  9
$ELEVATION
 40
0.0
  9
$PELEVATION
 40
0.0
  9
$THICKNESS
 40
0.0
  9
$LIMCHECK
 70
     0
  9
$CHAMFERA
 40
10.0
  9
$CHAMFERB
 40
10.0
  9
$CHAMFERC
 40
20.0
  9
$CHAMFERD
 40
0.0
  9
$SKPOLY
 70
     0
  9
$TDCREATE
 40
2455671.28375397
  9
$TDUCREATE
 40
2455671.242087303
  9
$TDUPDATE
 40
2455671.283753981
  9
$TDUUPDATE
 40
2455671.242087315
  9
$TDINDWG
 40
0.0000000116
  9
$TDUSRTIMER
 40
0.0000000116
  9
$USRTIMER
 70
     1
  9
$ANGBASE
 50
0.0
  9
$ANGDIR
 70
     0
  9
$PDMODE
 70
     0
  9
$PDSIZE
 40
-1.0
  9
$PLINEWID
 40
0.0
  9
$SPLFRAME
 70
     0
  9
$SPLINETYPE
 70
     6
  9
$SPLINESEGS
 70
     8
  9
$HANDSEED
  5
52A
  9
$SURFTAB1
 70
     6
  9
$SURFTAB2
 70
     6
  9
$SURFTYPE
 70
     6
  9
$SURFU
 70
     6
  9
$SURFV
 70
     6
  9
$UCSBASE
  2

  9
$UCSNAME
  2

  9
$UCSORG
 10
0.0
 20
0.0
 30
0.0
  9
$UCSXDIR
 10
1.0
 20
0.0
 30
0.0
  9
$UCSYDIR
 10
0.0
 20
1.0
 30
0.0
  9
$UCSORTHOREF
  2

  9
$UCSORTHOVIEW
 70
     0
  9
$UCSORGTOP
 10
0.0
 20
0.0
 30
0.0
  9
$UCSORGBOTTOM
 10
0.0
 20
0.0
 30
0.0
  9
$UCSORGLEFT
 10
0.0
 20
0.0
 30
0.0
  9
$UCSORGRIGHT
 10
0.0
 20
0.0
 30
0.0
  9
$UCSORGFRONT
 10
0.0
 20
0.0
 30
0.0
  9
$UCSORGBACK
 10
0.0
 20
0.0
 30
0.0
  9
$PUCSBASE
  2

  9
$PUCSNAME
  2

  9
$PUCSORG
 10
0.0
 20
0.0
 30
0.0
  9
$PUCSXDIR
 10
1.0
 20
0.0
 30
0.0
  9
$PUCSYDIR
 10
0.0
 20
1.0
 30
0.0
  9
$PUCSORTHOREF
  2

  9
$PUCSORTHOVIEW
 70
     0
  9
$PUCSORGTOP
 10
0.0
 20
0.0
 30
0.0
  9
$PUCSORGBOTTOM
 10
0.0
 20
0.0
 30
0.0
  9
$PUCSORGLEFT
 10
0.0
 20
0.0
 30
0.0
  9
$PUCSORGRIGHT
 10
0.0
 20
0.0
 30
0.0
  9
$PUCSORGFRONT
 10
0.0
 20
0.0
 30
0.0
  9
$PUCSORGBACK
 10
0.0
 20
0.0
 30
0.0
  9
$USERI1
 70
     0
  9
$USERI2
 70
     0
  9
$USERI3
 70
     0
  9
$USERI4
 70
     0
  9
$USERI5
 70
     0
  9
$USERR1
 40
0.0
  9
$USERR2
 40
0.0
  9
$USERR3
 40
0.0
  9
$USERR4
 40
0.0
  9
$USERR5
 40
0.0
  9
$WORLDVIEW
 70
     1
  9
$SHADEDGE
 70
     3
  9
$SHADEDIF
 70
    70
  9
$TILEMODE
 70
     1
  9
$MAXACTVP
 70
    64
  9
$PINSBASE
 10
0.0
 20
0.0
 30
0.0
  9
$PLIMCHECK
 70
     0
  9
$PEXTMIN
 10
1.0000000000E+20
 20
1.0000000000E+20
 30
1.0000000000E+20
  9
$PEXTMAX
 10
-1.0000000000E+20
 20
-1.0000000000E+20
 30
-1.0000000000E+20
  9
$PLIMMIN
 10
0.0
 20
0.0
  9
$PLIMMAX
 10
420.0
 20
297.0
  9
$UNITMODE
 70
     0
  9
$VISRETAIN
 70
     1
  9
$PLINEGEN
 70
     0
  9
$PSLTSCALE
 70
     1
  9
$TREEDEPTH
 70
  3020
  9
$CMLSTYLE
  2
Standard
  9
$CMLJUST
 70
     0
  9
$CMLSCALE
 40
20.0
  9
$PROXYGRAPHICS
 70
     1
  9
$MEASUREMENT
 70
     1
  9
$CELWEIGHT
370
    -1
  9
$ENDCAPS
280
     0
  9
$JOINSTYLE
280
     0
  9
$LWDISPLAY
290
     1
  9
$INSUNITS
 70
     4
  9
$HYPERLINKBASE
  1

  9
$STYLESHEET
  1

  9
$XEDIT
290
     1
  9
$CEPSNTYPE
380
     0
  9
$PSTYLEMODE
290
     1
  9
$FINGERPRINTGUID
  2
{031095C0-23FB-49F1-AED7-8F9AA283B967}
  9
$VERSIONGUID
  2
{FAEB1C32-E019-11D5-929B-00C0DF256EC4}
  9
$EXTNAMES
290
     1
  9
$PSVPSCALE
 40
0.0
  9
$OLESTARTUP
290
     0
  0
ENDSEC
  0
SECTION
  2
CLASSES
  0
CLASS
  1
ACDBDICTIONARYWDFLT
  2
AcDbDictionaryWithDefault
  3
ObjectDBX Classes
 90
        0
280
     0
281
     0
  0
CLASS
  1
VISUALSTYLE
  2
AcDbVisualStyle
  3
ObjectDBX Classes
 90
     4095
280
     0
281
     0
  0
CLASS
  1
MATERIAL
  2
AcDbMaterial
  3
ObjectDBX Classes
 90
     1153
280
     0
281
     0
  0
CLASS
  1
ACDBPLACEHOLDER
  2
AcDbPlaceHolder
  3
ObjectDBX Classes
 90
        0
280
     0
281
     0
  0
CLASS
  1
LAYOUT
  2
AcDbLayout
  3
ObjectDBX Classes
 90
        0
280
     0
281
     0
  0
ENDSEC
  0
SECTION
  2
TABLES
  0
TABLE
  2
VPORT
  5
8
330
0
100
AcDbSymbolTable
 70
     1
  0
VPORT
  5
29
330
8
100
AcDbSymbolTableRecord
100
AcDbViewportTableRecord
  2
*Active
 70
     0
 10
0.0
 20
0.0
 11
1.0
 21
1.0
 12
1000.0
 22
1000.0
 13
0.0
 23
0.0
 14
10.0
 24
10.0
 15
10.0
 25
10.0
 16
0.0
 26
0.0
 36
1.0
 17
0.0
 27
0.0
 37
0.0
 40
2000.0
 41
1.0
 42
50.0
 43
0.0
 44
0.0
 50
0.0
 51
0.0
 71
     0
 72
  2000
 73
     1
 74
     3
 75
     0
 76
     0
 77
     0
 78
     0
281
     0
 65
     1
110
0.0
120
0.0
130
0.0
111
1.0
121
0.0
131
0.0
112
0.0
122
1.0
132
0.0
 79
     0
146
0.0
  0
ENDTAB
  0
TABLE
  2
LTYPE
  5
5
330
0
100
AcDbSymbolTable
 70
     8
  0
LTYPE
  5
14
330
5
100
AcDbSymbolTableRecord
100
AcDbLinetypeTableRecord
  2
ByBlock
 70
     0
  3

 72
    65
 73
     0
 40
0.0
  0
LTYPE
  5
15
330
5
100
AcDbSymbolTableRecord
100
AcDbLinetypeTableRecord
  2
ByLayer
 70
     0
  3

 72
    65
 73
     0
 40
0.0
  0
LTYPE
  5
16
330
5
100
AcDbSymbolTableRecord
100
AcDbLinetypeTableRecord
  2
Continuous
 70
     0
  3
Solid line
 72
    65
 73
     0
 40
0.0
  0
LTYPE
  5
3F
330
5
100
AcDbSymbolTableRecord
100
AcDbLinetypeTableRecord
  2
SLD-Solid
 70
     0
  3
SolidWorks Line Style
 72
    65
 73
     0
 40
0.0
  0
LTYPE
  5
40
330
5
100
AcDbSymbolTableRecord
100
AcDbLinetypeTableRecord
  2
SLD-Dashed
 70
     0
  3
SolidWorks Line Style
 72
    65
 73
     2
 40
1.905
 49
1.27
 74
     0
 49
-0.635
 74
     0
  0
LTYPE
  5
41
330
5
100
AcDbSymbolTableRecord
100
AcDbLinetypeTableRecord
  2
SLD-Phantom
 70
     0
  3
SolidWorks Line Style
 72
    65
 73
     6
 40
12.7
 49
6.35
 74
     0
 49
-1.27
 74
     0
 49
1.27
 74
     0
 49
-1.27
 74
     0
 49
1.27
 74
     0
 49
-1.27
 74
     0
  0
LTYPE
  5
42
330
5
100
AcDbSymbolTableRecord
100
AcDbLinetypeTableRecord
  2
SLD-Chain
 70
     0
  3
SolidWorks Line Style
 72
    65
 73
     4
 40
10.16
 49
6.35
 74
     0
 49
-1.27
 74
     0
 49
1.27
 74
     0
 49
-1.27
 74
     0
  0
LTYPE
  5
43
330
5
100
AcDbSymbolTableRecord
100
AcDbLinetypeTableRecord
  2
SLD-Center
 70
     0
  3
SolidWorks Line Style
 72
    65
 73
     4
 40
19.05
 49
15.24
 74
     0
 49
-1.27
 74
     0
 49
1.27
 74
     0
 49
-1.27
 74
     0
  0
LTYPE
  5
44
330
5
100
AcDbSymbolTableRecord
100
AcDbLinetypeTableRecord
  2
SLD-Stitch
 70
     0
  3
SolidWorks Line Style
 72
    65
 73
     2
 40
0.635
 49
0.0
 74
     0
 49
-0.635
 74
     0
  0
LTYPE
  5
45
330
5
100
AcDbSymbolTableRecord
100
AcDbLinetypeTableRecord
  2
SLD-Thin-Thick-Chain
 70
     0
  3
SolidWorks Line Style
 72
    65
 73
     4
 40
10.16
 49
6.35
 74
     0
 49
-1.27
 74
     0
 49
1.27
 74
     0
 49
-1.27
 74
     0
  0
ENDTAB
  0
TABLE
  2
LAYER
  5
2
330
0
100
AcDbSymbolTable
 70
     4
  0
LAYER
  5
10
330
2
100
AcDbSymbolTableRecord
100
AcDbLayerTableRecord
  2
0
 70
     0
 62
     7
  6
Continuous
370
    -3
390
F
  0
LAYER
  5
46
330
2
100
AcDbSymbolTableRecord
100
AcDbLayerTableRecord
  2
FORMAT
 70
     0
 62
     7
  6
SLD-Solid
370
    -3
390
F
  0
LAYER
  5
47
330
2
100
AcDbSymbolTableRecord
100
AcDbLayerTableRecord
  2
SLD-0
 70
     0
 62
     1
  6
SLD-Solid
370
    -3
390
F
  0
LAYER
  5
48
330
2
100
AcDbSymbolTableRecord
100
AcDbLayerTableRecord
  2
WATERMARK
 70
     0
 62
    20
  6
SLD-Solid
370
    -3
390
F
  0
ENDTAB
  0
TABLE
  2
STYLE
  5
3
330
0
100
AcDbSymbolTable
 70
     1
  0
STYLE
  5
11
330
3
100
AcDbSymbolTableRecord
100
AcDbTextStyleTableRecord
  2
STANDARD
 70
     0
 40
0.0
 41
1.0
 50
0.0
 71
     0
 42
2.5
  3
GOTHIC.TTF
  4

1001
ACAD
1000
CENTURY GOTHIC
1071
       34
  0
ENDTAB
  0
TABLE
  2
VIEW
  5
6
330
0
100
AcDbSymbolTable
 70
     0
  0
ENDTAB
  0
TABLE
  2
UCS
  5
7
330
0
100
AcDbSymbolTable
 70
     0
  0
ENDTAB
  0
TABLE
  2
APPID
  5
9
330
0
100
AcDbSymbolTable
 70
     1
  0
APPID
  5
12
330
9
100
AcDbSymbolTableRecord
100
AcDbRegAppTableRecord
  2
ACAD
 70
     0
  0
ENDTAB
  0
TABLE
  2
DIMSTYLE
  5
A
330
0
100
AcDbSymbolTable
 70
     1
100
AcDbDimStyleTable
  0
DIMSTYLE
105
27
330
A
100
AcDbSymbolTableRecord
100
AcDbDimStyleTableRecord
  2
ISO-25
 70
     0
 41
2.5
 42
0.625
 43
3.75
 44
1.25
 73
     0
 74
     0
 77
     1
 78
     8
140
2.5
141
2.5
143
0.0393700787
147
0.625
171
     3
172
     1
271
     2
272
     2
274
     3
278
    44
283
     0
284
     8
340
11
  0
ENDTAB
  0
TABLE
  2
BLOCK_RECORD
  5
1
330
0
100
AcDbSymbolTable
 70
     1
  0
BLOCK_RECORD
  5
1F
330
1
100
AcDbSymbolTableRecord
100
AcDbBlockTableRecord
  2
*Model_Space
340
22
  0
BLOCK_RECORD
  5
1B
330
1
100
AcDbSymbolTableRecord
100
AcDbBlockTableRecord
  2
*Paper_Space
340
1E
  0
BLOCK_RECORD
  5
23
330
1
100
AcDbSymbolTableRecord
100
AcDbBlockTableRecord
  2
*Paper_Space0
340
26
  0
ENDTAB
  0
ENDSEC
  0
SECTION
  2
BLOCKS
  0
BLOCK
  5
20
330
1F
100
AcDbEntity
  8
0
100
AcDbBlockBegin
  2
*Model_Space
 70
     0
 10
0.0
 20
0.0
 30
0.0
  3
*Model_Space
  1

  0
ENDBLK
  5
21
330
1F
100
AcDbEntity
  8
0
100
AcDbBlockEnd
  0
BLOCK
  5
1C
330
1B
100
AcDbEntity
 67
     1
  8
0
100
AcDbBlockBegin
  2
*Paper_Space
 70
     0
 10
0.0
 20
0.0
 30
0.0
  3
*Paper_Space
  1

  0
ENDBLK
  5
1D
330
1B
100
AcDbEntity
 67
     1
  8
0
100
AcDbBlockEnd
  0
BLOCK
  5
24
330
23
100
AcDbEntity
  8
0
100
AcDbBlockBegin
  2
*Paper_Space0
 70
     0
 10
0.0
 20
0.0
 30
0.0
  3
*Paper_Space0
  1

  0
ENDBLK
  5
25
330
23
100
AcDbEntity
  8
0
100
AcDbBlockEnd
  0
ENDSEC
  0
SECTION
  2
ENTITIES
  0
LINE
  5
49
330
1F
100
AcDbEntity
  8
0
  6
SLD-Solid
 62
     7
370
    15
100
AcDbLine
 10
1012.4979447486
 20
1168.1640657599
 30
0.0
 11
902.4979416194
 21
1168.1640657599
 31
0.0
  0
LINE
  5
4A
330
1F
100
AcDbEntity
  8
0
  6
SLD-Solid
 62
     7
370
    15
100
AcDbLine
 10
1368.122937149
 20
1256.9777878935
 30
0.0
 11
1368.122937149
 21
1253.1150492842
 31
0.0
  0
LINE
  5
4B
330
1F
100
AcDbEntity
  8
0
  6
SLD-Solid
 62
     7
370
    15
100
AcDbLine
 10
1379.8729497852
 20
1253.1150492842
 30
0.0
 11
1379.8729497852
 21
1256.9777878935
 31
0.0
  0
LINE
  5
4C
330
1F
100
AcDbEntity
  8
0
  6
SLD-Solid
 62
     7
370
    15
100
AcDbLine
 10
1366.0979289474
 20
1252.9605540449
 30
0.0
 11
1366.0979289474
 21
1251.7244729216
 31
0.0
  0
LINE
  5
4D
330
1F
100
AcDbEntity
  8
0
  6
SLD-Solid
 62
     7
370
    15
100
AcDbLine
 10
1381.8979281845
 20
1251.7244729216
 30
0.0
 11
1381.8979281845
 21
1252.9605540449
 31
0.0
  0
LINE
  5
4E
330
1F
100
AcDbEntity
  8
0
  6
SLD-Solid
 62
     7
370
    15
100
AcDbLine
 10
1364.0229422512
 20
1251.7244729216
 30
0.0
 11
1364.0229422512
 21
1250.7974418814
 31
0.0
  0
LINE
  5
4F
330
1F
100
AcDbEntity
  8
0
  6
SLD-Solid
 62
     7
370
    15
100
AcDbLine
 10
1383.972944683
 20
1250.7974418814
 30
0.0
 11
1383.972944683
 21
1251.7244729216
 31
0.0
  0
LINE
  5
50
330
1F
100
AcDbEntity
  8
0
  6
SLD-Solid
 62
     7
370
    15
100
AcDbLine
 10
1081.997940308
 20
1205.3450855429
 30
0.0
 11
1081.997940308
 21
1205.335668009
 31
0.0
  0
LINE
  5
51
330
1F
100
AcDbEntity
  8
0
  6
SLD-Solid
 62
     7
370
    15
100
AcDbLine
 10
1086.9979429903
 20
1205.335668009
 30
0.0
 11
1086.9979429903
 21
1205.3450855429
 31
0.0
  0
ARC
  5
52
330
1F
100
AcDbEntity
  8
0
  6
SLD-Solid
 62
     7
370
    15
100
AcDbCircle
 10
1048.8631396414
 20
1251.456589224
 30
0.0
 40
0.999999999999958
100
AcDbArc
 50
164.8756041223
 51
169.6983762009
  0
ARC
  5
53
330
1F
100
AcDbEntity
  8
0
  6
SLD-Solid
 62
     7
370
    15
100
AcDbCircle
 10
1070.1327461622
 20
1251.456589224
 30
0.0
 40
1.000000000000043
100
AcDbArc
 50
10.3016237991
 51
15.1243958777
  0
ARC
  5
54
330
1F
100
AcDbEntity
  8
0
  6
SLD-Solid
 62
     7
370
    15
100
AcDbCircle
 10
1059.9979429018
 20
1284.839842465
 30
0.0
 40
1.000000000000227
100
AcDbArc
 50
306.6480530193
 51
0.0
  0
ARC
  5
55
330
1F
100
AcDbEntity
  8
0
  6
SLD-Solid
 62
     7
370
    15
100
AcDbCircle
 10
1058.9979429018
 20
1284.839842465
 30
0.0
 40
1.000000000000227
100
AcDbArc
 50
180.0
 51
229.7562252183
  0
ARC
  5
56
330
1F
100
AcDbEntity
  8
0
  6
SLD-Solid
 62
     7
370
    15
100
AcDbCircle
 10
1359.172487012
 20
1295.0385880581
 30
0.0
 40
0.9745441101797496
100
AcDbArc
 50
180.0
 51
270.0
  0
LINE
  5
57
330
1F
100
AcDbEntity
  8
0
  6
SLD-Solid
 62
     7
370
    15
100
AcDbLine
 10
1359.6927840175
 20
1294.0640362913
 30
0.0
 11
1359.1724950733
 21
1294.0640362913
 31
0.0
  0
LINE
  5
58
330
1F
100
AcDbEntity
  8
0
  6
SLD-Solid
 62
     7
370
    15
100
AcDbLine
 10
1407.4979443016
 20
1397.3935159857
 30
0.0
 11
507.4979383411
 21
1397.3935159857
 31
0.0
  0
ARC
  5
59
330
1F
100
AcDbEntity
  8
0
  6
SLD-Solid
 62
     7
370
    15
100
AcDbCircle
 10
1358.0479429018
 20
459.3640439478
 30
0.0
 40
2.000000000000227
100
AcDbArc
 50
270.0
 51
0.0
  0
ARC
  5
5A
330
1F
100
AcDbEntity
  8
0
  6
SLD-Solid
 62
     7
370
    15
100
AcDbCircle
 10
1305.0479429018
 20
459.3640439478
 30
0.0
 40
2.0
100
AcDbArc
 50
180.0
 51
270.0
  0
LINE
  5
5B
330
1F
100
AcDbEntity
  8
0
  6
SLD-Solid
 62
     7
370
    15
100
AcDbLine
 10
1360.0479382934
 20
459.3640404756
 30
0.0
 11
1360.0479382934
 21
463.3640411312
 31
0.0
  0
LINE
  5
5C
330
1F
100
AcDbEntity
  8
0
  6
SLD-Solid
 62
     7
370
    15
100
AcDbLine
 10
1303.0479568901
 20
463.3640411312
 30
0.0
 11
1303.0479568901
 21
459.3640404756
 31
0.0
  0
LINE
  5
5D
330
1F
100
AcDbEntity
  8
0
  6
SLD-Solid
 62
     7
370
    15
100
AcDbLine
 10
612.0479423465
 20
459.3640404756
 30
0.0
 11
612.0479423465
 21
463.3640411312
 31
0.0
  0
LINE
  5
5E
330
1F
100
AcDbEntity
  8
0
  6
SLD-Solid
 62
     7
370
    15
100
AcDbLine
 10
555.0479311409
 20
463.3640411312
 30
0.0
 11
555.0479311409
 21
459.3640404756
 31
0.0
  0
ARC
  5
5F
330
1F
100
AcDbEntity
  8
0
  6
SLD-Solid
 62
     7
370
    15
100
AcDbCircle
 10
610.0479429018
 20
459.3640439478
 30
0.0
 40
2.0
100
AcDbArc
 50
270.0
 51
0.0
  0
ARC
  5
60
330
1F
100
AcDbEntity
  8
0
  6
SLD-Solid
 62
     7
370
    15
100
AcDbCircle
 10
557.0479429018
 20
459.3640439478
 30
0.0
 40
2.0
100
AcDbArc
 50
180.0
 51
270.0
  0
LINE
  5
61
330
1F
100
AcDbEntity
  8
0
  6
SLD-Solid
 62
     7
370
    15
100
AcDbLine
 10
1359.8479349079
 20
463.3640411312
 30
0.0
 11
1359.8479349079
 21
531.3640448267
 31
0.0
  0
LINE
  5
62
330
1F
100
AcDbEntity
  8
0
  6
SLD-Solid
 62
     7
370
    15
100
AcDbLine
 10
1303.2479304733
 20
531.3640448267
 30
0.0
 11
1303.2479304733
 21
463.3640411312
 31
0.0
  0
LINE
  5
63
330
1F
100
AcDbEntity
  8
0
  6
SLD-Solid
 62
     7
370
    15
100
AcDbLine
 10
611.847938961
 20
463.3640411312
 30
0.0
 11
611.847938961
 21
531.3640448267
 31
0.0
  0
LINE
  5
64
330
1F
100
AcDbEntity
  8
0
  6
SLD-Solid
 62
     7
370
    15
100
AcDbLine
 10
555.2479345264
 20
531.3640448267
 30
0.0
 11
555.2479345264
 21
463.3640411312
 31
0.0
  0
ARC
  5
65
330
1F
100
AcDbEntity
  8
0
  6
SLD-Solid
 62
     7
370
    15
100
AcDbCircle
 10
616.9479429018
 20
623.8640439478
 30
0.0
 40
1.500000000000114
100
AcDbArc
 50
90.0
 51
180.0
  0
ARC
  5
66
330
1F
100
AcDbEntity
  8
0
  6
SLD-Solid
 62
     7
370
    15
100
AcDbCircle
 10
550.1479429018
 20
623.8640439478
 30
0.0
 40
1.5
100
AcDbArc
 50
0.0
 51
90.0
  0
LINE
  5
67
330
1F
100
AcDbEntity
  8
0
  6
SLD-Solid
 62
     7
370
    15
100
AcDbLine
 10
615.4479402961
 20
537.396609504
 30
0.0
 11
615.4479402961
 21
623.8640460188
 31
0.0
  0
LINE
  5
68
330
1F
100
AcDbEntity
  8
0
  6
SLD-Solid
 62
     7
370
    15
100
AcDbLine
 10
551.6479331913
 20
623.8640460188
 30
0.0
 11
551.6479331913
 21
537.396609504
 31
0.0
  0
ARC
  5
69
330
1F
100
AcDbEntity
  8
0
  6
SLD-Solid
 62
     7
370
    15
100
AcDbCircle
 10
610.7479429018
 20
537.3966098935
 30
0.0
 40
4.70000000000001
100
AcDbArc
 50
350.5402980318
 51
0.0
  0
ARC
  5
6A
330
1F
100
AcDbEntity
  8
0
  6
SLD-Solid
 62
     7
370
    15
100
AcDbCircle
 10
556.3479429018
 20
537.3966098935
 30
0.0
 40
4.700000000000045
100
AcDbArc
 50
180.0
 51
189.4597019682
  0
LINE
  5
6B
330
1F
100
AcDbEntity
  8
0
  6
SLD-Solid
 62
     7
370
    15
100
AcDbLine
 10
551.7118591728
 20
536.6241463462
 30
0.0
 11
552.5882858696
 21
531.3640448267
 31
0.0
  0
LINE
  5
6C
330
1F
100
AcDbEntity
  8
0
  6
SLD-Solid
 62
     7
370
    15
100
AcDbLine
 10
614.5075876178
 20
531.3640448267
 30
0.0
 11
615.3840441169
 21
536.6241463462
 31
0.0
  0
ARC
  5
6D
330
1F
100
AcDbEntity
  8
0
  6
SLD-Solid
 62
     7
370
    15
100
AcDbCircle
 10
1364.9479429018
 20
623.8640439478
 30
0.0
 40
1.5
100
AcDbArc
 50
90.0
 51
180.0
  0
ARC
  5
6E
330
1F
100
AcDbEntity
  8
0
  6
SLD-Solid
 62
     7
370
    15
100
AcDbCircle
 10
1298.1479429018
 20
623.8640439478
 30
0.0
 40
1.5
100
AcDbArc
 50
0.0
 51
90.0
  0
ARC
  5
6F
330
1F
100
AcDbEntity
  8
0
  6
SLD-Solid
 62
     7
370
    15
100
AcDbCircle
 10
1358.7479429018
 20
537.3966098935
 30
0.0
 40
4.700000000000045
100
AcDbArc
 50
350.5402980318
 51
0.0
  0
ARC
  5
70
330
1F
100
AcDbEntity
  8
0
  6
SLD-Solid
 62
     7
370
    15
100
AcDbCircle
 10
1304.3479429018
 20
537.3966098935
 30
0.0
 40
4.700000000000235
100
AcDbArc
 50
180.0
 51
189.4597019682
  0
LINE
  5
71
330
1F
100
AcDbEntity
  8
0
  6
SLD-Solid
 62
     7
370
    15
100
AcDbLine
 10
1363.447936243
 20
537.396609504
 30
0.0
 11
1363.447936243
 21
623.8640460188
 31
0.0
  0
LINE
  5
72
330
1F
100
AcDbEntity
  8
0
  6
SLD-Solid
 62
     7
370
    15
100
AcDbLine
 10
1299.6479291381
 20
623.8640460188
 30
0.0
 11
1299.6479291381
 21
537.396609504
 31
0.0
  0
LINE
  5
73
330
1F
100
AcDbEntity
  8
0
  6
SLD-Solid
 62
     7
370
    15
100
AcDbLine
 10
1299.7118551197
 20
536.6241463462
 30
0.0
 11
1300.5882818164
 21
531.3640448267
 31
0.0
  0
LINE
  5
74
330
1F
100
AcDbEntity
  8
0
  6
SLD-Solid
 62
     7
370
    15
100
AcDbLine
 10
1362.5075835647
 20
531.3640448267
 30
0.0
 11
1363.3840400638
 21
536.6241463462
 31
0.0
  0
LWPOLYLINE
  5
75
330
1F
100
AcDbEntity
  8
0
  6
SLD-Solid
 62
     7
370
    15
100
AcDbPolyline
 90
       12
 70
   128
 43
0.0
 10
744.5548195304
 20
1091.6536363775
 10
745.468022293
 20
1091.687789839
 10
752.5832373561
 20
1091.8064626867
 10
760.130600995
 20
1091.7908462698
 10
773.4058517875
 20
1091.77570669
 10
795.4216021957
 20
1091.7752298529
 10
821.6425646009
 20
1091.7747530157
 10
847.8919062676
 20
1091.7743953879
 10
874.1643447341
 20
1091.7741569693
 10
900.4582967522
 20
1091.7740973646
 10
908.1054422917
 20
1091.7598518545
 10
912.9305090668
 20
1091.5979060347
  0
LWPOLYLINE
  5
76
330
1F
100
AcDbEntity
  8
0
  6
SLD-Solid
 62
     7
370
    15
100
AcDbPolyline
 90
       12
 70
   128
 43
0.0
 10
912.9313435318
 20
1121.1150201971
 10
910.0224841299
 20
1121.0129174406
 10
901.656424618
 20
1120.9185632879
 10
893.0811677041
 20
1120.9534320051
 10
872.2299802961
 20
1120.9539088423
 10
847.4574405612
 20
1120.9536704237
 10
821.2083596649
 20
1120.9533127958
 10
794.9882913293
 20
1120.9528955633
 10
768.8000220718
 20
1120.9522995169
 10
755.7189930143
 20
1120.951941889
 10
748.6115712585
 20
1120.9585580046
 10
744.5560414257
 20
1121.099105757
  0
ARC
  5
77
330
1F
100
AcDbEntity
  8
0
  6
SLD-Solid
 62
     7
370
    15
100
AcDbCircle
 10
919.9286317568
 20
971.315159314
 30
0.0
 40
120.5145789355498
100
AcDbArc
 50
88.1556069431
 51
92.6782187451
  0
ARC
  5
78
330
1F
100
AcDbEntity
  8
0
  6
SLD-Solid
 62
     7
370
    15
100
AcDbCircle
 10
919.6757281826
 20
1208.9499038559
 30
0.0
 40
88.0860792821705
100
AcDbArc
 50
266.5096056984
 51
272.6882685578
  0
LWPOLYLINE
  5
79
330
1F
100
AcDbEntity
  8
0
  6
SLD-Solid
 62
     7
370
    15
100
AcDbPolyline
 90
        8
 70
   128
 43
0.0
 10
743.0914509954
 20
1120.9760817702
 10
742.9784256877
 20
1120.9547433073
 10
742.7486497821
 20
1120.9195169623
 10
741.7595554056
 20
1120.8423289473
 10
740.5777443113
 20
1120.8433422262
 10
739.0113193454
 20
1120.898416918
 10
737.1510434808
 20
1120.942047518
 10
736.6854417982
 20
1120.9421071226
  0
ARC
  5
7A
330
1F
100
AcDbEntity
  8
0
  6
SLD-Solid
 62
     7
370
    15
100
AcDbCircle
 10
739.7144373646
 20
1058.6408417949
 30
0.0
 40
33.28298456199527
100
AcDbArc
 50
84.1782664869
 51
95.1521186687
  0
LWPOLYLINE
  5
7B
330
1F
100
AcDbEntity
  8
0
  6
SLD-Solid
 62
     7
370
    15
100
AcDbPolyline
 90
       12
 70
   128
 43
0.0
 10
1170.4275179567
 20
1121.0744890387
 10
1169.5143151941
 20
1121.0402759726
 10
1162.399100131
 20
1120.9216627295
 10
1154.8517364921
 20
1120.9372195418
 10
1141.5764856996
 20
1120.9524187262
 10
1119.5607352914
 20
1120.9528955633
 10
1093.3397728862
 20
1120.9533724005
 10
1067.0904386701
 20
1120.9536704237
 10
1040.817992753
 20
1120.9539088423
 10
1014.5240444603
 20
1120.9539684469
 10
1006.8768951954
 20
1120.968213957
 10
1002.0518321456
 20
1121.1302193815
  0
LWPOLYLINE
  5
7C
330
1F
100
AcDbEntity
  8
0
  6
SLD-Solid
 62
     7
370
    15
100
AcDbPolyline
 90
       12
 70
   128
 43
0.0
 10
1002.0509939553
 20
1091.6130456144
 10
1004.9598570826
 20
1091.7152079756
 10
1013.3259165945
 20
1091.8095621283
 10
1021.9011772337
 20
1091.7746934111
 10
1042.7523646416
 20
1091.7741569693
 10
1067.5249043765
 20
1091.7743953879
 10
1093.7739927234
 20
1091.7747530157
 10
1119.9940461578
 20
1091.7752298529
 10
1146.1823154153
 20
1091.7758258993
 10
1159.2633444728
 20
1091.7761835272
 10
1166.3707662286
 20
1091.7695674116
 10
1170.4262960615
 20
1091.6289600546
  0
ARC
  5
7D
330
1F
100
AcDbEntity
  8
0
  6
SLD-Solid
 62
     7
370
    15
100
AcDbCircle
 10
995.0532338502
 20
1241.4782671669
 30
0.0
 40
120.5798904631695
100
AcDbArc
 50
268.1568324045
 51
272.6769932836
  0
ARC
  5
7E
330
1F
100
AcDbEntity
  8
0
  6
SLD-Solid
 62
     7
370
    15
100
AcDbCircle
 10
995.306665589
 20
1003.7070528137
 30
0.0
 40
88.15711269471366
100
AcDbArc
 50
86.5124582449
 51
92.6861350688
  0
LWPOLYLINE
  5
7F
330
1F
100
AcDbEntity
  8
0
  6
SLD-Solid
 62
     7
370
    15
100
AcDbPolyline
 90
        8
 70
   128
 43
0.0
 10
1171.8908864917
 20
1091.7519840414
 10
1172.0039117994
 20
1091.7733821089
 10
1172.233687705
 20
1091.8085488493
 10
1173.2227820816
 20
1091.8857964689
 10
1174.4045931758
 20
1091.8847235853
 10
1175.9710330429
 20
1091.8297084982
 10
1177.8312940063
 20
1091.7860778982
 10
1178.296895689
 20
1091.7859586889
  0
ARC
  5
80
330
1F
100
AcDbEntity
  8
0
  6
SLD-Solid
 62
     7
370
    15
100
AcDbCircle
 10
1175.267717116
 20
1154.1090639279
 30
0.0
 40
33.30469335294658
100
AcDbArc
 50
264.1823907974
 51
275.1490674345
  0
LINE
  5
81
330
1F
100
AcDbEntity
  8
0
  6
SLD-Solid
 62
     7
370
    15
100
AcDbLine
 10
1399.9979514541
 20
1156.8640383894
 30
0.0
 11
1399.9979514541
 21
1158.3640488798
 31
0.0
  0
LINE
  5
82
330
1F
100
AcDbEntity
  8
0
  6
SLD-Solid
 62
     7
370
    15
100
AcDbLine
 10
1382.9979319038
 20
1158.3640488798
 30
0.0
 11
1382.9979319038
 21
1156.8640383894
 31
0.0
  0
LINE
  5
83
330
1F
100
AcDbEntity
  8
0
  6
SLD-Solid
 62
     7
370
    15
100
AcDbLine
 10
1382.9979319038
 20
1156.8640383894
 30
0.0
 11
1383.2979518833
 21
1156.5640482123
 31
0.0
  0
LINE
  5
84
330
1F
100
AcDbEntity
  8
0
  6
SLD-Solid
 62
     7
370
    15
100
AcDbLine
 10
1399.4979280891
 20
1156.3640150244
 30
0.0
 11
1399.9979514541
 21
1156.8640383894
 31
0.0
  0
LINE
  5
85
330
1F
100
AcDbEntity
  8
0
  6
SLD-Solid
 62
     7
370
    15
100
AcDbLine
 10
1399.9979514541
 20
1158.3640488798
 30
0.0
 11
1399.4979280891
 21
1158.8640722449
 31
0.0
  0
LINE
  5
86
330
1F
100
AcDbEntity
  8
0
  6
SLD-Solid
 62
     7
370
    15
100
AcDbLine
 10
1383.4979552688
 20
1158.8640722449
 30
0.0
 11
1382.9979319038
 21
1158.3640488798
 31
0.0
  0
LINE
  5
87
330
1F
100
AcDbEntity
  8
0
  6
SLD-Solid
 62
     7
370
    15
100
AcDbLine
 10
1382.9979319038
 20
630.3640442903
 30
0.0
 11
1383.4979552688
 21
629.864043277
 31
0.0
  0
LINE
  5
88
330
1F
100
AcDbEntity
  8
0
  6
SLD-Solid
 62
     7
370
    15
100
AcDbLine
 10
1399.4979280891
 20
629.864043277
 30
0.0
 11
1399.9979514541
 21
630.3640442903
 31
0.0
  0
LINE
  5
89
330
1F
100
AcDbEntity
  8
0
  6
SLD-Solid
 62
     7
370
    15
100
AcDbLine
 10
1382.9979319038
 20
631.8640473301
 30
0.0
 11
1382.9979319038
 21
630.3640442903
 31
0.0
  0
LINE
  5
8A
330
1F
100
AcDbEntity
  8
0
  6
SLD-Solid
 62
     7
370
    15
100
AcDbLine
 10
1399.9979514541
 20
630.3640442903
 30
0.0
 11
1399.9979514541
 21
631.8640473301
 31
0.0
  0
LINE
  5
8B
330
1F
100
AcDbEntity
  8
0
  6
SLD-Solid
 62
     7
370
    15
100
AcDbLine
 10
1399.9979514541
 20
631.8640473301
 30
0.0
 11
1399.4979280891
 21
632.3640408928
 31
0.0
  0
LINE
  5
8C
330
1F
100
AcDbEntity
  8
0
  6
SLD-Solid
 62
     7
370
    15
100
AcDbLine
 10
1383.4979552688
 20
632.3640408928
 30
0.0
 11
1382.9979319038
 21
631.8640473301
 31
0.0
  0
LINE
  5
8D
330
1F
100
AcDbEntity
  8
0
  6
SLD-Solid
 62
     7
370
    15
100
AcDbLine
 10
514.9979311885
 20
630.3640442903
 30
0.0
 11
515.4979545536
 21
629.864043277
 31
0.0
  0
LINE
  5
8E
330
1F
100
AcDbEntity
  8
0
  6
SLD-Solid
 62
     7
370
    15
100
AcDbLine
 10
531.4979571762
 20
629.864043277
 30
0.0
 11
531.9979507389
 21
630.3640442903
 31
0.0
  0
LINE
  5
8F
330
1F
100
AcDbEntity
  8
0
  6
SLD-Solid
 62
     7
370
    15
100
AcDbLine
 10
514.9979311885
 20
631.8640473301
 30
0.0
 11
514.9979311885
 21
630.3640442903
 31
0.0
  0
LINE
  5
90
330
1F
100
AcDbEntity
  8
0
  6
SLD-Solid
 62
     7
370
    15
100
AcDbLine
 10
531.9979507389
 20
630.3640442903
 30
0.0
 11
531.9979507389
 21
631.8640473301
 31
0.0
  0
LINE
  5
91
330
1F
100
AcDbEntity
  8
0
  6
SLD-Solid
 62
     7
370
    15
100
AcDbLine
 10
531.9979507389
 20
631.8640473301
 30
0.0
 11
531.4979571762
 21
632.3640408928
 31
0.0
  0
LINE
  5
92
330
1F
100
AcDbEntity
  8
0
  6
SLD-Solid
 62
     7
370
    15
100
AcDbLine
 10
515.4979545536
 20
632.3640408928
 30
0.0
 11
514.9979311885
 21
631.8640473301
 31
0.0
  0
LINE
  5
93
330
1F
100
AcDbEntity
  8
0
  6
SLD-Solid
 62
     7
370
    15
100
AcDbLine
 10
531.9979507389
 20
1158.3640488798
 30
0.0
 11
531.4979571762
 21
1158.8640722449
 31
0.0
  0
LINE
  5
94
330
1F
100
AcDbEntity
  8
0
  6
SLD-Solid
 62
     7
370
    15
100
AcDbLine
 10
515.4979545536
 20
1158.8640722449
 30
0.0
 11
514.9979311885
 21
1158.3640488798
 31
0.0
  0
LINE
  5
95
330
1F
100
AcDbEntity
  8
0
  6
SLD-Solid
 62
     7
370
    15
100
AcDbLine
 10
514.9979311885
 20
1156.8640383894
 30
0.0
 11
515.4979545536
 21
1156.3640150244
 31
0.0
  0
LINE
  5
96
330
1F
100
AcDbEntity
  8
0
  6
SLD-Solid
 62
     7
370
    15
100
AcDbLine
 10
531.4979571762
 20
1156.3640150244
 30
0.0
 11
531.9979507389
 21
1156.8640383894
 31
0.0
  0
LINE
  5
97
330
1F
100
AcDbEntity
  8
0
  6
SLD-Solid
 62
     7
370
    15
100
AcDbLine
 10
531.9979507389
 20
1156.8640383894
 30
0.0
 11
531.9979507389
 21
1158.3640488798
 31
0.0
  0
LINE
  5
98
330
1F
100
AcDbEntity
  8
0
  6
SLD-Solid
 62
     7
370
    15
100
AcDbLine
 10
514.9979311885
 20
1158.3640488798
 30
0.0
 11
514.9979311885
 21
1156.8640383894
 31
0.0
  0
LINE
  5
99
330
1F
100
AcDbEntity
  8
0
  6
SLD-Solid
 62
     7
370
    15
100
AcDbLine
 10
1386.4979464473
 20
1159.6640261824
 30
0.0
 11
1386.4979464473
 21
1158.8640722449
 31
0.0
  0
LINE
  5
9A
330
1F
100
AcDbEntity
  8
0
  6
SLD-Solid
 62
     7
370
    15
100
AcDbLine
 10
1396.4979369106
 20
1158.8640722449
 30
0.0
 11
1396.4979369106
 21
1159.6640261824
 31
0.0
  0
LINE
  5
9B
330
1F
100
AcDbEntity
  8
0
  6
SLD-Solid
 62
     7
370
    15
100
AcDbLine
 10
1387.5979501667
 20
1162.6640471632
 30
0.0
 11
1387.5979501667
 21
1162.1640237982
 31
0.0
  0
LINE
  5
9C
330
1F
100
AcDbEntity
  8
0
  6
SLD-Solid
 62
     7
370
    15
100
AcDbLine
 10
1395.3979331913
 20
1162.1640237982
 30
0.0
 11
1395.3979331913
 21
1162.6640471632
 31
0.0
  0
LINE
  5
9D
330
1F
100
AcDbEntity
  8
0
  6
SLD-Solid
 62
     7
370
    15
100
AcDbLine
 10
527.397932476
 20
626.8640446479
 30
0.0
 11
527.397932476
 21
627.3640456612
 31
0.0
  0
LINE
  5
9E
330
1F
100
AcDbEntity
  8
0
  6
SLD-Solid
 62
     7
370
    15
100
AcDbLine
 10
519.5979494514
 20
627.3640456612
 30
0.0
 11
519.5979494514
 21
626.8640446479
 31
0.0
  0
LINE
  5
9F
330
1F
100
AcDbEntity
  8
0
  6
SLD-Solid
 62
     7
370
    15
100
AcDbLine
 10
518.4979457321
 20
1159.6640261824
 30
0.0
 11
518.4979457321
 21
1158.8640722449
 31
0.0
  0
LINE
  5
A0
330
1F
100
AcDbEntity
  8
0
  6
SLD-Solid
 62
     7
370
    15
100
AcDbLine
 10
528.4979361953
 20
1158.8640722449
 30
0.0
 11
528.4979361953
 21
1159.6640261824
 31
0.0
  0
LINE
  5
A1
330
1F
100
AcDbEntity
  8
0
  6
SLD-Solid
 62
     7
370
    15
100
AcDbLine
 10
519.5979494514
 20
1162.6640471632
 30
0.0
 11
519.5979494514
 21
1162.1640237982
 31
0.0
  0
LINE
  5
A2
330
1F
100
AcDbEntity
  8
0
  6
SLD-Solid
 62
     7
370
    15
100
AcDbLine
 10
527.397932476
 20
1162.1640237982
 30
0.0
 11
527.397932476
 21
1162.6640471632
 31
0.0
  0
LINE
  5
A3
330
1F
100
AcDbEntity
  8
0
  6
SLD-Solid
 62
     7
370
    15
100
AcDbLine
 10
1395.3979331913
 20
626.8640446479
 30
0.0
 11
1395.3979331913
 21
627.3640456612
 31
0.0
  0
LINE
  5
A4
330
1F
100
AcDbEntity
  8
0
  6
SLD-Solid
 62
     7
370
    15
100
AcDbLine
 10
1387.5979501667
 20
627.3640456612
 30
0.0
 11
1387.5979501667
 21
626.8640446479
 31
0.0
  0
LINE
  5
A5
330
1F
100
AcDbEntity
  8
0
  6
SLD-Solid
 62
     7
370
    15
100
AcDbLine
 10
1012.4979447486
 20
1161.4686760122
 30
0.0
 11
1012.4979447486
 21
1160.8751329596
 31
0.0
  0
LINE
  5
A6
330
1F
100
AcDbEntity
  8
0
  6
SLD-Solid
 62
     7
370
    15
100
AcDbLine
 10
902.4979416194
 20
1160.8751329596
 30
0.0
 11
902.4979416194
 21
1161.4686760122
 31
0.0
  0
LWPOLYLINE
  5
A7
330
1F
100
AcDbEntity
  8
0
  6
SLD-Solid
 62
     7
370
    15
100
AcDbPolyline
 90
        9
 70
   128
 43
0.0
 10
907.4979443016
 20
1163.1787928755
 10
906.5224919381
 20
1163.1459507162
 10
905.5845271709
 20
1163.0486163313
 10
904.7200921835
 20
1162.890604418
 10
903.962409115
 20
1162.6779350454
 10
903.3405948343
 20
1162.41877405
 10
902.8785470786
 20
1162.1231350119
 10
902.5940168561
 20
1161.8023428137
 10
902.4979416194
 20
1161.4686760122
  0
LINE
  5
A8
330
1F
100
AcDbEntity
  8
0
  6
SLD-Solid
 62
     7
370
    15
100
AcDbLine
 10
1007.4979420664
 20
1163.1787928755
 30
0.0
 11
907.4979443016
 21
1163.1787928755
 31
0.0
  0
LWPOLYLINE
  5
A9
330
1F
100
AcDbEntity
  8
0
  6
SLD-Solid
 62
     7
370
    15
100
AcDbPolyline
 90
        9
 70
   128
 43
0.0
 10
1012.4979447486
 20
1161.4686760122
 10
1012.4018695118
 20
1161.8023428137
 10
1012.1173392894
 20
1162.1231350119
 10
1011.6552915337
 20
1162.41877405
 10
1011.0334772529
 20
1162.6779350454
 10
1010.2757941844
 20
1162.890604418
 10
1009.4113591971
 20
1163.0486163313
 10
1008.4733944299
 20
1163.1459507162
 10
1007.4979420664
 20
1163.1787928755
  0
LWPOLYLINE
  5
AA
330
1F
100
AcDbEntity
  8
0
  6
SLD-Solid
 62
     7
370
    15
100
AcDbPolyline
 90
        9
 70
   128
 43
0.0
 10
902.4979416194
 20
1163.3480700667
 10
902.5940168561
 20
1163.6817368681
 10
902.8785470786
 20
1164.0025290663
 10
903.3405948343
 20
1164.2981681044
 10
903.962409115
 20
1164.5573290999
 10
904.7200921835
 20
1164.7699984724
 10
905.5845271709
 20
1164.9280103857
 10
906.5224919381
 20
1165.0253447706
 10
907.4979443016
 20
1165.0581869299
  0
LINE
  5
AB
330
1F
100
AcDbEntity
  8
0
  6
SLD-Solid
 62
     7
370
    15
100
AcDbLine
 10
902.4979416194
 20
1161.4686760122
 30
0.0
 11
902.4979416194
 21
1163.3480700667
 31
0.0
  0
LWPOLYLINE
  5
AC
330
1F
100
AcDbEntity
  8
0
  6
SLD-Solid
 62
     7
370
    15
100
AcDbPolyline
 90
        9
 70
   128
 43
0.0
 10
1007.4979420664
 20
1165.0581869299
 10
1008.4733944299
 20
1165.0253447706
 10
1009.4113591971
 20
1164.9280103857
 10
1010.2757941844
 20
1164.7699984724
 10
1011.0334772529
 20
1164.5573290999
 10
1011.6552915337
 20
1164.2981681044
 10
1012.1173392894
 20
1164.0025290663
 10
1012.4018695118
 20
1163.6817368681
 10
1012.4979447486
 20
1163.3480700667
  0
LINE
  5
AD
330
1F
100
AcDbEntity
  8
0
  6
SLD-Solid
 62
     7
370
    15
100
AcDbLine
 10
1012.4979447486
 20
1163.3480700667
 30
0.0
 11
1012.4979447486
 21
1161.4686760122
 31
0.0
  0
LINE
  5
AE
330
1F
100
AcDbEntity
  8
0
  6
SLD-Solid
 62
     7
370
    15
100
AcDbLine
 10
907.4979443016
 20
1165.0581869299
 30
0.0
 11
1007.4979420664
 21
1165.0581869299
 31
0.0
  0
LINE
  5
AF
330
1F
100
AcDbEntity
  8
0
  6
SLD-Solid
 62
     7
370
    15
100
AcDbLine
 10
1012.4979447486
 20
1160.6640729124
 30
0.0
 11
902.4979416194
 21
1160.6640729124
 31
0.0
  0
LINE
  5
B0
330
1F
100
AcDbEntity
  8
0
  6
SLD-Solid
 62
     7
370
    15
100
AcDbLine
 10
1012.4979447486
 20
1160.6640729124
 30
0.0
 11
1012.4979447486
 21
1160.8751329596
 31
0.0
  0
LINE
  5
B1
330
1F
100
AcDbEntity
  8
0
  6
SLD-Solid
 62
     7
370
    15
100
AcDbLine
 10
902.4979416194
 20
1160.8751329596
 30
0.0
 11
902.4979416194
 21
1160.6640729124
 31
0.0
  0
LINE
  5
B2
330
1F
100
AcDbEntity
  8
0
  6
SLD-Solid
 62
     7
370
    15
100
AcDbLine
 10
1012.4979447486
 20
1163.3480700667
 30
0.0
 11
1012.4979447486
 21
1163.4890350516
 31
0.0
  0
LINE
  5
B3
330
1F
100
AcDbEntity
  8
0
  6
SLD-Solid
 62
     7
370
    15
100
AcDbLine
 10
902.4979416194
 20
1163.4890350516
 30
0.0
 11
902.4979416194
 21
1163.3480700667
 31
0.0
  0
LINE
  5
B4
330
1F
100
AcDbEntity
  8
0
  6
SLD-Solid
 62
     7
370
    15
100
AcDbLine
 10
1012.4979447486
 20
1168.1640657599
 30
0.0
 11
1012.4979447486
 21
1163.4890350516
 31
0.0
  0
LINE
  5
B5
330
1F
100
AcDbEntity
  8
0
  6
SLD-Solid
 62
     7
370
    15
100
AcDbLine
 10
902.4979416194
 20
1163.4890350516
 30
0.0
 11
902.4979416194
 21
1168.1640657599
 31
0.0
  0
LINE
  5
B6
330
1F
100
AcDbEntity
  8
0
  6
SLD-Solid
 62
     7
370
    15
100
AcDbLine
 10
1012.4979447486
 20
1159.3640360052
 30
0.0
 11
1012.4979447486
 21
1160.6640729124
 31
0.0
  0
LINE
  5
B7
330
1F
100
AcDbEntity
  8
0
  6
SLD-Solid
 62
     7
370
    15
100
AcDbLine
 10
902.4979416194
 20
1160.6640729124
 30
0.0
 11
902.4979416194
 21
1159.3640360052
 31
0.0
  0
ARC
  5
B8
330
1F
100
AcDbEntity
  8
0
  6
SLD-Solid
 62
     7
370
    15
100
AcDbCircle
 10
947.4979429019
 20
1154.6640439487
 30
0.0
 40
3.999999999999978
100
AcDbArc
 50
25.1506634003
 51
52.3197638634
  0
ARC
  5
B9
330
1F
100
AcDbEntity
  8
0
  6
SLD-Solid
 62
     7
370
    15
100
AcDbCircle
 10
967.4979429019
 20
1154.6640439487
 30
0.0
 40
3.999999999999969
100
AcDbArc
 50
127.6802356359
 51
154.8493366246
  0
LWPOLYLINE
  5
BA
330
1F
100
AcDbEntity
  8
0
  6
SLD-Solid
 62
     7
370
    15
100
AcDbPolyline
 90
       26
 70
   128
 43
0.0
 10
1368.122937149
 20
1256.9777878935
 10
1368.3075029315
 20
1258.3672913725
 10
1368.8496369781
 20
1259.6695336516
 10
1369.7152454319
 20
1260.8026179487
 10
1370.8499688568
 20
1261.6953763182
 10
1372.182460493
 20
1262.2917207892
 10
1373.6290354194
 20
1262.5542196448
 10
1375.0987965526
 20
1262.4662431891
 10
1376.4993864955
 20
1262.0334538634
 10
1377.7427989902
 20
1261.282971781
 10
1378.7509221496
 20
1260.2620038206
 10
1379.4603664341
 20
1259.0346249754
 10
1379.8266071739
 20
1257.678082865
 10
1379.8266071739
 20
1256.277492922
 10
1379.4603664341
 20
1254.9208912069
 10
1378.7509221496
 20
1253.6935123617
 10
1377.7427989902
 20
1252.6725444014
 10
1376.4993864955
 20
1251.922062319
 10
1375.0987965526
 20
1251.4892729933
 10
1373.6290354194
 20
1251.4013561423
 10
1372.182460493
 20
1251.6637953932
 10
1370.8499688568
 20
1252.2601398642
 10
1369.7152454319
 20
1253.1528982336
 10
1368.8496369781
 20
1254.2859825308
 10
1368.3075029315
 20
1255.5882248099
 10
1368.122937149
 20
1256.9777878935
  0
ARC
  5
BB
330
1F
100
AcDbEntity
  8
0
  6
SLD-Solid
 62
     7
370
    15
100
AcDbCircle
 10
1373.9979434671
 20
1253.3183185852
 30
0.0
 40
5.878521722879358
100
AcDbArc
 50
181.9815858001
 51
358.0184142
  0
ARC
  5
BC
330
1F
100
AcDbEntity
  8
0
  6
SLD-Solid
 62
     7
370
    15
100
AcDbCircle
 10
1373.4340403312
 20
1252.9238149203
 30
0.0
 40
7.336203377703275
100
AcDbArc
 50
135.0204561065
 51
179.7130660814
  0
LWPOLYLINE
  5
BD
330
1F
100
AcDbEntity
  8
0
  6
SLD-Solid
 62
     7
370
    15
100
AcDbPolyline
 90
       20
 70
   128
 43
0.0
 10
1379.7511774959
 20
1258.1094416792
 10
1380.7671088638
 20
1256.8340810949
 10
1381.484391159
 20
1255.3595813925
 10
1381.8516451778
 20
1253.7728461439
 10
1381.8516451778
 20
1252.1482023413
 10
1381.484391159
 20
1250.5615266974
 10
1380.7671088638
 20
1249.0870269949
 10
1379.7332961025
 20
1247.7936062033
 10
1378.4313220443
 20
1246.7418226416
 10
1376.9220430316
 20
1245.9807905371
 10
1375.2760309639
 20
1245.5461534674
 10
1373.5702354373
 20
1245.4582366163
 10
1371.8844670715
 20
1245.7210334952
 10
1370.2975232067
 20
1246.3223847563
 10
1368.8835818233
 20
1247.2341570074
 10
1367.7088040771
 20
1248.4136733229
 10
1366.8280858459
 20
1249.8057398016
 10
1366.2826437416
 20
1251.3453873808
 10
1366.0979289474
 20
1252.9605540449
 10
1366.0979289474
 20
1252.9605540449
  0
ARC
  5
BE
330
1F
100
AcDbEntity
  8
0
  6
SLD-Solid
 62
     7
370
    15
100
AcDbCircle
 10
1373.9979285659
 20
1252.0273984708
 30
0.0
 40
7.9058053265417
100
AcDbArc
 50
182.1959312955
 51
357.8040687045
  0
ARC
  5
BF
330
1F
100
AcDbEntity
  8
0
  6
SLD-Solid
 62
     7
370
    15
100
AcDbCircle
 10
1373.4616130192
 20
1251.616546642
 30
0.0
 40
9.439287788226467
100
AcDbArc
 50
118.0679464706
 51
179.3448811816
  0
LWPOLYLINE
  5
C0
330
1F
100
AcDbEntity
  8
0
  6
SLD-Solid
 62
     7
370
    15
100
AcDbPolyline
 90
       25
 70
   128
 43
0.0
 10
1378.9756316604
 20
1259.9456819708
 10
1378.9854366245
 20
1259.9402579481
 10
1380.5301804008
 20
1258.8941368277
 10
1381.8388301792
 20
1257.5887951071
 10
1382.864089674
 20
1256.0715588743
 10
1383.5688847961
 20
1254.397204798
 10
1383.9277643623
 20
1252.6262315924
 10
1383.9277643623
 20
1250.8227142508
 10
1383.5688847961
 20
1249.0517410452
 10
1382.864089674
 20
1247.3773869688
 10
1381.8388301792
 20
1245.8601507361
 10
1380.5301804008
 20
1244.5548090155
 10
1378.9854366245
 20
1243.508687895
 10
1377.2604484024
 20
1242.7594575102
 10
1375.4175323905
 20
1242.3342379744
 10
1373.5233265819
 20
1242.2484072859
 10
1371.6462571086
 20
1242.5051244909
 10
1369.8541838588
 20
1243.0949720556
 10
1368.211867279
 20
1243.9967903311
 10
1366.7787033977
 20
1245.1778563673
 10
1365.6064290466
 20
1246.5955528433
 10
1364.7374827327
 20
1248.1985601599
 10
1364.2032164993
 20
1249.9290618117
 10
1364.0229422512
 20
1251.7244729216
 10
1364.0229422512
 20
1251.7244729216
  0
LWPOLYLINE
  5
C1
330
1F
100
AcDbEntity
  8
0
  6
SLD-Solid
 62
     7
370
    15
100
AcDbPolyline
 90
       18
 70
   128
 43
0.0
 10
1383.972944683
 20
1250.7974418814
 10
1383.9277643623
 20
1249.8956236059
 10
1383.5688847961
 20
1248.124710005
 10
1382.864089674
 20
1246.450296324
 10
1381.8388301792
 20
1244.9330600912
 10
1380.5301804008
 20
1243.6277779753
 10
1378.9854366245
 20
1242.5815972502
 10
1377.2604484024
 20
1241.8323668654
 10
1375.4175323905
 20
1241.4072069342
 10
1373.5233265819
 20
1241.3213762457
 10
1371.6462571086
 20
1241.5780338461
 10
1369.8541838588
 20
1242.1679410155
 10
1368.211867279
 20
1243.0696996863
 10
1366.7787033977
 20
1244.2507657225
 10
1365.6064290466
 20
1245.6684621985
 10
1364.7374827327
 20
1247.2715291197
 10
1364.2032164993
 20
1249.0020307715
 10
1364.0229422512
 20
1250.7974418814
  0
LINE
  5
C2
330
1F
100
AcDbEntity
  8
0
  6
SLD-Solid
 62
     7
370
    15
100
AcDbLine
 10
961.2979427824
 20
1085.4933175261
 30
0.0
 11
961.4979429083
 21
1085.4933175261
 31
0.0
  0
LINE
  5
C3
330
1F
100
AcDbEntity
  8
0
  6
SLD-Solid
 62
     7
370
    15
100
AcDbLine
 10
961.2979427824
 20
1085.4933175261
 30
0.0
 11
961.2979427824
 21
1145.4933199103
 31
0.0
  0
LINE
  5
C4
330
1F
100
AcDbEntity
  8
0
  6
SLD-Solid
 62
     7
370
    15
100
AcDbLine
 10
961.2979427824
 20
1145.4933199103
 30
0.0
 11
961.4979429083
 21
1145.4933199103
 31
0.0
  0
LINE
  5
C5
330
1F
100
AcDbEntity
  8
0
  6
SLD-Solid
 62
     7
370
    15
100
AcDbLine
 10
1407.4979443016
 20
1186.0824736769
 30
0.0
 11
1407.4979443016
 21
1203.1732711012
 31
0.0
  0
LINE
  5
C6
330
1F
100
AcDbEntity
  8
0
  6
SLD-Solid
 62
     7
370
    15
100
AcDbLine
 10
507.4979383411
 20
1186.0824736769
 30
0.0
 11
507.4979383411
 21
1203.1732711012
 31
0.0
  0
LINE
  5
C7
330
1F
100
AcDbEntity
  8
0
  6
SLD-Solid
 62
     7
370
    15
100
AcDbLine
 10
507.4979383411
 20
1171.2824615652
 30
0.0
 11
507.4979383411
 21
1186.0824736769
 31
0.0
  0
LINE
  5
C8
330
1F
100
AcDbEntity
  8
0
  6
SLD-Solid
 62
     7
370
    15
100
AcDbLine
 10
1407.4979443016
 20
1171.2824615652
 30
0.0
 11
1407.4979443016
 21
1186.0824736769
 31
0.0
  0
LWPOLYLINE
  5
C9
330
1F
100
AcDbEntity
  8
0
  6
SLD-Solid
 62
     7
370
    15
100
AcDbPolyline
 90
       17
 70
   128
 43
0.0
 10
1085.9979409637
 20
1206.426671427
 10
1086.9600344362
 20
1206.1958822424
 10
1087.6445937814
 20
1205.869248789
 10
1087.9744756879
 20
1205.4834875281
 10
1087.9124719562
 20
1205.0821694548
 10
1087.465586132
 20
1204.71047489
 10
1086.6841841402
 20
1204.4103058989
 10
1085.6563467445
 20
1204.2155179197
 10
1084.4979453744
 20
1204.1480454619
 10
1083.3395291032
 20
1204.2155179197
 10
1082.3117066087
 20
1204.4103058989
 10
1081.5303046169
 20
1204.71047489
 10
1081.0834187927
 20
1205.0821694548
 10
1081.021415061
 20
1205.4834875281
 10
1081.3512895169
 20
1205.869248789
 10
1082.0358563127
 20
1206.1958822424
 10
1082.9979497852
 20
1206.426671427
  0
LINE
  5
CA
330
1F
100
AcDbEntity
  8
0
  6
SLD-Solid
 62
     7
370
    15
100
AcDbLine
 10
1085.9979409637
 20
1206.426671427
 30
0.0
 11
1085.9979409637
 21
1208.7652596647
 31
0.0
  0
LWPOLYLINE
  5
CB
330
1F
100
AcDbEntity
  8
0
  6
SLD-Solid
 62
     7
370
    15
100
AcDbPolyline
 90
        9
 70
   128
 43
0.0
 10
1082.9979497852
 20
1208.7712797339
 10
1083.1179786386
 20
1208.9664849455
 10
1083.4465492429
 20
1209.1312321837
 10
1083.9339960279
 20
1209.2406663115
 10
1084.5066774549
 20
1209.278336447
 10
1085.0780177774
 20
1209.238401335
 10
1085.5616945686
 20
1209.1270002539
 10
1085.8846027317
 20
1208.9609417135
 10
1085.9979409637
 20
1208.7652596647
  0
LINE
  5
CC
330
1F
100
AcDbEntity
  8
0
  6
SLD-Solid
 62
     7
370
    15
100
AcDbLine
 10
1082.9979497852
 20
1206.426671427
 30
0.0
 11
1082.9979497852
 21
1208.7712797339
 31
0.0
  0
LINE
  5
CD
330
1F
100
AcDbEntity
  8
0
  6
SLD-Solid
 62
     7
370
    15
100
AcDbLine
 10
1380.4394323291
 20
1205.5668148215
 30
0.0
 11
1378.1256098213
 21
1206.7129525358
 31
0.0
  0
LINE
  5
CE
330
1F
100
AcDbEntity
  8
0
  6
SLD-Solid
 62
     7
370
    15
100
AcDbLine
 10
1380.997957653
 20
1208.1592592413
 30
0.0
 11
1378.1256098213
 21
1206.7129525358
 31
0.0
  0
LINE
  5
CF
330
1F
100
AcDbEntity
  8
0
  6
SLD-Solid
 62
     7
370
    15
100
AcDbLine
 10
1376.5298742713
 20
1207.6680573637
 30
0.0
 11
1380.997957653
 21
1208.1592592413
 31
0.0
  0
LINE
  5
D0
330
1F
100
AcDbEntity
  8
0
  6
SLD-Solid
 62
     7
370
    15
100
AcDbLine
 10
1376.5298742713
 20
1207.6680573637
 30
0.0
 11
1373.8968688907
 21
1209.2507991011
 31
0.0
  0
LINE
  5
D1
330
1F
100
AcDbEntity
  8
0
  6
SLD-Solid
 62
     7
370
    15
100
AcDbLine
 10
1372.3011333408
 20
1207.5043234045
 30
0.0
 11
1373.8968688907
 21
1209.2507991011
 31
0.0
  0
LINE
  5
D2
330
1F
100
AcDbEntity
  8
0
  6
SLD-Solid
 62
     7
370
    15
100
AcDbLine
 10
1372.3011333408
 20
1207.5043234045
 30
0.0
 11
1368.4713561
 21
1207.6680573637
 31
0.0
  0
LINE
  5
D3
330
1F
100
AcDbEntity
  8
0
  6
SLD-Solid
 62
     7
370
    15
100
AcDbLine
 10
1371.1841124954
 20
1206.7129525358
 30
0.0
 11
1368.4713561
 21
1207.6680573637
 31
0.0
  0
LINE
  5
D4
330
1F
100
AcDbEntity
  8
0
  6
SLD-Solid
 62
     7
370
    15
100
AcDbLine
 10
1364.4022066059
 20
1204.502573889
 30
0.0
 11
1371.1841124954
 21
1206.7129525358
 31
0.0
  0
LINE
  5
D5
330
1F
100
AcDbEntity
  8
0
  6
SLD-Solid
 62
     7
370
    15
100
AcDbLine
 10
1364.4022066059
 20
1204.502573889
 30
0.0
 11
1373.1788117351
 21
1205.8942827398
 31
0.0
  0
LINE
  5
D6
330
1F
100
AcDbEntity
  8
0
  6
SLD-Solid
 62
     7
370
    15
100
AcDbLine
 10
1373.1788117351
 20
1205.8942827398
 30
0.0
 11
1375.4128534259
 21
1204.120508116
 31
0.0
  0
LINE
  5
D7
330
1F
100
AcDbEntity
  8
0
  6
SLD-Solid
 62
     7
370
    15
100
AcDbLine
 10
1375.7319766941
 20
1205.8942827398
 30
0.0
 11
1375.4128534259
 21
1204.120508116
 31
0.0
  0
LINE
  5
D8
330
1F
100
AcDbEntity
  8
0
  6
SLD-Solid
 62
     7
370
    15
100
AcDbLine
 10
1375.7319766941
 20
1205.8942827398
 30
0.0
 11
1380.4394323291
 21
1205.5668148215
 31
0.0
  0
LINE
  5
D9
330
1F
100
AcDbEntity
  8
0
  6
SLD-Solid
 62
     7
370
    15
100
AcDbLine
 10
507.4979383411
 20
1203.1732711012
 30
0.0
 11
507.4979383411
 21
1210.2526339705
 31
0.0
  0
LINE
  5
DA
330
1F
100
AcDbEntity
  8
0
  6
SLD-Solid
 62
     7
370
    15
100
AcDbLine
 10
1407.4979443016
 20
1203.1732711012
 30
0.0
 11
1407.4979443016
 21
1210.2526339705
 31
0.0
  0
LINE
  5
DB
330
1F
100
AcDbEntity
  8
0
  6
SLD-Solid
 62
     7
370
    15
100
AcDbLine
 10
1364.4583541812
 20
1204.5114549811
 30
0.0
 11
1371.1841124954
 21
1206.703535002
 31
0.0
  0
LINE
  5
DC
330
1F
100
AcDbEntity
  8
0
  6
SLD-Solid
 62
     7
370
    15
100
AcDbLine
 10
1372.3011333408
 20
1207.4949058706
 30
0.0
 11
1368.5017246665
 21
1207.6573881323
 31
0.0
  0
LINE
  5
DD
330
1F
100
AcDbEntity
  8
0
  6
SLD-Solid
 62
     7
370
    15
100
AcDbLine
 10
1372.3011333408
 20
1207.4949058706
 30
0.0
 11
1373.8968688907
 21
1209.2413815672
 31
0.0
  0
LINE
  5
DE
330
1F
100
AcDbEntity
  8
0
  6
SLD-Solid
 62
     7
370
    15
100
AcDbLine
 10
1376.5298742713
 20
1207.6586398298
 30
0.0
 11
1373.8968688907
 21
1209.2413815672
 31
0.0
  0
LINE
  5
DF
330
1F
100
AcDbEntity
  8
0
  6
SLD-Solid
 62
     7
370
    15
100
AcDbLine
 10
1376.5298742713
 20
1207.6586398298
 30
0.0
 11
1380.9740561904
 21
1208.1472191031
 31
0.0
  0
LINE
  5
E0
330
1F
100
AcDbEntity
  8
0
  6
SLD-Solid
 62
     7
370
    15
100
AcDbLine
 10
1380.4173488082
 20
1205.5683645422
 30
0.0
 11
1378.1256098213
 21
1206.703535002
 31
0.0
  0
LINE
  5
E1
330
1F
100
AcDbEntity
  8
0
  6
SLD-Solid
 62
     7
370
    15
100
AcDbLine
 10
1378.5386700096
 20
1207.5202378447
 30
0.0
 11
1376.922996706
 21
1206.7066940481
 31
0.0
  0
LINE
  5
E2
330
1F
100
AcDbEntity
  8
0
  6
SLD-Solid
 62
     7
370
    15
100
AcDbLine
 10
1372.591050333
 20
1206.6990646536
 30
0.0
 11
1371.1724895896
 21
1207.1984919722
 31
0.0
  0
LINE
  5
E3
330
1F
100
AcDbEntity
  8
0
  6
SLD-Solid
 62
     7
370
    15
100
AcDbLine
 10
1369.477959341
 20
1205.6749972517
 30
0.0
 11
1373.6906070175
 21
1206.3430461104
 31
0.0
  0
LINE
  5
E4
330
1F
100
AcDbEntity
  8
0
  6
SLD-Solid
 62
     7
370
    15
100
AcDbLine
 10
1373.6906070175
 20
1206.3430461104
 30
0.0
 11
1374.6722955169
 21
1205.5635961706
 31
0.0
  0
LINE
  5
E5
330
1F
100
AcDbEntity
  8
0
  6
SLD-Solid
 62
     7
370
    15
100
AcDbLine
 10
1374.804498619
 20
1206.2984022314
 30
0.0
 11
1374.6722955169
 21
1205.5635961706
 31
0.0
  0
LINE
  5
E6
330
1F
100
AcDbEntity
  8
0
  6
SLD-Solid
 62
     7
370
    15
100
AcDbLine
 10
1374.804498619
 20
1206.2984022314
 30
0.0
 11
1378.2059270801
 21
1206.0618313963
 31
0.0
  0
LINE
  5
E7
330
1F
100
AcDbEntity
  8
0
  6
SLD-Solid
 62
     7
370
    15
100
AcDbLine
 10
1082.9979497852
 20
1206.4172538931
 30
0.0
 11
1082.9979497852
 21
1206.426671427
 31
0.0
  0
LWPOLYLINE
  5
E8
330
1F
100
AcDbEntity
  8
0
  6
SLD-Solid
 62
     7
370
    15
100
AcDbPolyline
 90
        5
 70
   128
 43
0.0
 10
1085.9979409637
 20
1206.4172538931
 10
1086.9600344362
 20
1206.1865243132
 10
1087.6445937814
 20
1205.8598312552
 10
1087.9744756879
 20
1205.4741295988
 10
1087.9979450168
 20
1205.335668009
  0
LWPOLYLINE
  5
E9
330
1F
100
AcDbEntity
  8
0
  6
SLD-Solid
 62
     7
370
    15
100
AcDbPolyline
 90
        5
 70
   128
 43
0.0
 10
1080.9979457321
 20
1205.335668009
 10
1081.021415061
 20
1205.4741295988
 10
1081.3512895169
 20
1205.8598312552
 10
1082.0358563127
 20
1206.1865243132
 10
1082.9979497852
 20
1206.4172538931
  0
LINE
  5
EA
330
1F
100
AcDbEntity
  8
0
  6
SLD-Solid
 62
     7
370
    15
100
AcDbLine
 10
1085.9979409637
 20
1206.4172538931
 30
0.0
 11
1085.9979409637
 21
1206.426671427
 31
0.0
  0
LWPOLYLINE
  5
EB
330
1F
100
AcDbEntity
  8
0
  6
SLD-Solid
 62
     7
370
    15
100
AcDbPolyline
 90
        9
 70
   128
 43
0.0
 10
1082.9979497852
 20
1208.7618622
 10
1083.1179786386
 20
1208.9570674116
 10
1083.4465492429
 20
1209.1218146498
 10
1083.9339960279
 20
1209.2313083822
 10
1084.5066774549
 20
1209.2689189131
 10
1085.0780177774
 20
1209.2289838011
 10
1085.5616945686
 20
1209.11758272
 10
1085.8846027317
 20
1208.9515241797
 10
1085.9979409637
 20
1208.7559017355
  0
LINE
  5
EC
330
1F
100
AcDbEntity
  8
0
  6
SLD-Solid
 62
     7
370
    15
100
AcDbLine
 10
1083.5979450407
 20
1207.2501095946
 30
0.0
 11
1083.9979369106
 21
1207.2501095946
 31
0.0
  0
LWPOLYLINE
  5
ED
330
1F
100
AcDbEntity
  8
0
  6
SLD-Solid
 62
     7
370
    15
100
AcDbPolyline
 90
       10
 70
   128
 43
0.0
 10
1086.9979429903
 20
1205.335668009
 10
1086.9487542572
 20
1205.1669272597
 10
1086.5743029775
 20
1204.8594865019
 10
1085.8847815456
 20
1204.6242865736
 10
1084.9848557176
 20
1204.497030657
 10
1084.0110350313
 20
1204.497030657
 10
1083.1110943021
 20
1204.6242865736
 10
1082.4215877714
 20
1204.8594865019
 10
1082.0471290411
 20
1205.1669272597
 10
1081.997940308
 20
1205.335668009
  0
LINE
  5
EE
330
1F
100
AcDbEntity
  8
0
  6
SLD-Solid
 62
     7
370
    15
100
AcDbLine
 10
1084.9979389371
 20
1207.2501095946
 30
0.0
 11
1085.3979457082
 21
1207.2501095946
 31
0.0
  0
LWPOLYLINE
  5
EF
330
1F
100
AcDbEntity
  8
0
  6
SLD-Solid
 62
     7
370
    15
100
AcDbPolyline
 90
       16
 70
   128
 43
0.0
 10
1084.9979389371
 20
1206.1828884298
 10
1085.8958829107
 20
1206.0539635832
 10
1086.5817088546
 20
1205.8175119574
 10
1086.9513619604
 20
1205.5093559439
 10
1086.9487542572
 20
1205.1763447935
 10
1086.5743029775
 20
1204.8688444311
 10
1085.8847815456
 20
1204.6336445028
 10
1084.9848557176
 20
1204.5063885863
 10
1084.0110350313
 20
1204.5063885863
 10
1083.1110943021
 20
1204.6336445028
 10
1082.4215877714
 20
1204.8688444311
 10
1082.0471290411
 20
1205.1763447935
 10
1082.0445287885
 20
1205.5093559439
 10
1082.4141818943
 20
1205.8175119574
 10
1083.1000078382
 20
1206.0539635832
 10
1083.9979369106
 20
1206.1828884298
  0
LWPOLYLINE
  5
F0
330
1F
100
AcDbEntity
  8
0
  6
SLD-Solid
 62
     7
370
    15
100
AcDbPolyline
 90
        9
 70
   128
 43
0.0
 10
1083.5979450407
 20
1208.769908827
 10
1083.6709756317
 20
1208.8868531401
 10
1083.8687140407
 20
1208.9853796179
 10
1084.1613281431
 20
1209.0507659132
 10
1084.5046956005
 20
1209.073117655
 10
1084.8470348777
 20
1209.0490373785
 10
1085.1367283525
 20
1208.9821013624
 10
1085.3300858202
 20
1208.8825616057
 10
1085.3979457082
 20
1208.7652596647
  0
LINE
  5
F1
330
1F
100
AcDbEntity
  8
0
  6
SLD-Solid
 62
     7
370
    15
100
AcDbLine
 10
1085.3979457082
 20
1207.2594675238
 30
0.0
 11
1085.3979457082
 21
1208.7652596647
 31
0.0
  0
LINE
  5
F2
330
1F
100
AcDbEntity
  8
0
  6
SLD-Solid
 62
     7
370
    15
100
AcDbLine
 10
1084.9979389371
 20
1207.2594675238
 30
0.0
 11
1085.3979457082
 21
1207.2594675238
 31
0.0
  0
LINE
  5
F3
330
1F
100
AcDbEntity
  8
0
  6
SLD-Solid
 62
     7
370
    15
100
AcDbLine
 10
1084.9979389371
 20
1206.1828884298
 30
0.0
 11
1084.9979389371
 21
1207.2594675238
 31
0.0
  0
LINE
  5
F4
330
1F
100
AcDbEntity
  8
0
  6
SLD-Solid
 62
     7
370
    15
100
AcDbLine
 10
1083.9979369106
 20
1206.1828884298
 30
0.0
 11
1083.9979369106
 21
1207.2594675238
 31
0.0
  0
LINE
  5
F5
330
1F
100
AcDbEntity
  8
0
  6
SLD-Solid
 62
     7
370
    15
100
AcDbLine
 10
1083.5979450407
 20
1207.2594675238
 30
0.0
 11
1083.9979369106
 21
1207.2594675238
 31
0.0
  0
LINE
  5
F6
330
1F
100
AcDbEntity
  8
0
  6
SLD-Solid
 62
     7
370
    15
100
AcDbLine
 10
1083.5979450407
 20
1207.2594675238
 30
0.0
 11
1083.5979450407
 21
1208.769908827
 31
0.0
  0
LINE
  5
F7
330
1F
100
AcDbEntity
  8
0
  6
SLD-Solid
 62
     7
370
    15
100
AcDbLine
 10
1371.1841124954
 20
1206.703535002
 30
0.0
 11
1371.1841124954
 21
1206.7129525358
 31
0.0
  0
LINE
  5
F8
330
1F
100
AcDbEntity
  8
0
  6
SLD-Solid
 62
     7
370
    15
100
AcDbLine
 10
1378.1256098213
 20
1206.703535002
 30
0.0
 11
1378.1256098213
 21
1206.7129525358
 31
0.0
  0
LINE
  5
F9
330
1F
100
AcDbEntity
  8
0
  6
SLD-Solid
 62
     7
370
    15
100
AcDbLine
 10
1374.804498619
 20
1206.2984022314
 30
0.0
 11
1374.804498619
 21
1206.3078197653
 31
0.0
  0
LINE
  5
FA
330
1F
100
AcDbEntity
  8
0
  6
SLD-Solid
 62
     7
370
    15
100
AcDbLine
 10
1374.6722955169
 20
1205.5635961706
 30
0.0
 11
1374.6722955169
 21
1205.5730137045
 31
0.0
  0
LINE
  5
FB
330
1F
100
AcDbEntity
  8
0
  6
SLD-Solid
 62
     7
370
    15
100
AcDbLine
 10
1374.804498619
 20
1206.3078197653
 30
0.0
 11
1374.6722955169
 21
1205.5730137045
 31
0.0
  0
LINE
  5
FC
330
1F
100
AcDbEntity
  8
0
  6
SLD-Solid
 62
     7
370
    15
100
AcDbLine
 10
1373.6906070175
 20
1206.3430461104
 30
0.0
 11
1373.6906070175
 21
1206.3524040396
 31
0.0
  0
LINE
  5
FD
330
1F
100
AcDbEntity
  8
0
  6
SLD-Solid
 62
     7
370
    15
100
AcDbLine
 10
1373.6906070175
 20
1206.3524040396
 30
0.0
 11
1374.6722955169
 21
1205.5730137045
 31
0.0
  0
LINE
  5
FE
330
1F
100
AcDbEntity
  8
0
  6
SLD-Solid
 62
     7
370
    15
100
AcDbLine
 10
1369.477959341
 20
1205.6844147856
 30
0.0
 11
1373.6906070175
 21
1206.3524040396
 31
0.0
  0
LINE
  5
FF
330
1F
100
AcDbEntity
  8
0
  6
SLD-Solid
 62
     7
370
    15
100
AcDbLine
 10
1369.477959341
 20
1205.6844147856
 30
0.0
 11
1372.6049084129
 21
1206.7035946066
 31
0.0
  0
LINE
  5
100
330
1F
100
AcDbEntity
  8
0
  6
SLD-Solid
 62
     7
370
    15
100
AcDbLine
 10
1372.6049084129
 20
1206.7035946066
 30
0.0
 11
1371.1724895896
 21
1207.2079095061
 31
0.0
  0
LINE
  5
101
330
1F
100
AcDbEntity
  8
0
  6
SLD-Solid
 62
     7
370
    15
100
AcDbLine
 10
1373.0063456954
 20
1207.1294697935
 30
0.0
 11
1371.1724895896
 21
1207.2079095061
 31
0.0
  0
LINE
  5
102
330
1F
100
AcDbEntity
  8
0
  6
SLD-Solid
 62
     7
370
    15
100
AcDbLine
 10
1373.0063456954
 20
1207.1294697935
 30
0.0
 11
1374.1652388038
 21
1208.3978566343
 31
0.0
  0
LINE
  5
103
330
1F
100
AcDbEntity
  8
0
  6
SLD-Solid
 62
     7
370
    15
100
AcDbLine
 10
1376.062454647
 20
1207.2574409659
 30
0.0
 11
1374.1652388038
 21
1208.3978566343
 31
0.0
  0
LINE
  5
104
330
1F
100
AcDbEntity
  8
0
  6
SLD-Solid
 62
     7
370
    15
100
AcDbLine
 10
1376.062454647
 20
1207.2574409659
 30
0.0
 11
1378.5386700096
 21
1207.5296553785
 31
0.0
  0
LINE
  5
105
330
1F
100
AcDbEntity
  8
0
  6
SLD-Solid
 62
     7
370
    15
100
AcDbLine
 10
1378.5386700096
 20
1207.5296553785
 30
0.0
 11
1376.9135791721
 21
1206.7113432104
 31
0.0
  0
LINE
  5
106
330
1F
100
AcDbEntity
  8
0
  6
SLD-Solid
 62
     7
370
    15
100
AcDbLine
 10
1378.2059270801
 20
1206.0711893255
 30
0.0
 11
1376.9135791721
 21
1206.7113432104
 31
0.0
  0
LINE
  5
107
330
1F
100
AcDbEntity
  8
0
  6
SLD-Solid
 62
     7
370
    15
100
AcDbLine
 10
1374.804498619
 20
1206.3078197653
 30
0.0
 11
1378.2059270801
 21
1206.0711893255
 31
0.0
  0
LINE
  5
108
330
1F
100
AcDbEntity
  8
0
  6
SLD-Solid
 62
     7
370
    15
100
AcDbLine
 10
1369.477959341
 20
1205.6749972517
 30
0.0
 11
1369.477959341
 21
1205.6844147856
 31
0.0
  0
LINE
  5
109
330
1F
100
AcDbEntity
  8
0
  6
SLD-Solid
 62
     7
370
    15
100
AcDbLine
 10
1407.4979443016
 20
1170.5501588995
 30
0.0
 11
1407.4979443016
 21
1171.2824615652
 31
0.0
  0
LINE
  5
10A
330
1F
100
AcDbEntity
  8
0
  6
SLD-Solid
 62
     7
370
    15
100
AcDbLine
 10
1407.4979443016
 20
1170.5501588995
 30
0.0
 11
507.4979383411
 21
1170.5501588995
 31
0.0
  0
LINE
  5
10B
330
1F
100
AcDbEntity
  8
0
  6
SLD-Solid
 62
     7
370
    15
100
AcDbLine
 10
507.4979383411
 20
1170.5501588995
 30
0.0
 11
507.4979383411
 21
1171.2824615652
 31
0.0
  0
LINE
  5
10C
330
1F
100
AcDbEntity
  8
0
  6
SLD-Solid
 62
     7
370
    15
100
AcDbLine
 10
1378.2059270801
 20
1206.0618313963
 30
0.0
 11
1378.2059270801
 21
1206.0711893255
 31
0.0
  0
LINE
  5
10D
330
1F
100
AcDbEntity
  8
0
  6
SLD-Solid
 62
     7
370
    15
100
AcDbLine
 10
1371.1724895896
 20
1207.1984919722
 30
0.0
 11
1371.1724895896
 21
1207.2079095061
 31
0.0
  0
LINE
  5
10E
330
1F
100
AcDbEntity
  8
0
  6
SLD-Solid
 62
     7
370
    15
100
AcDbLine
 10
1378.5386700096
 20
1207.5202378447
 30
0.0
 11
1378.5386700096
 21
1207.5296553785
 31
0.0
  0
LINE
  5
10F
330
1F
100
AcDbEntity
  8
0
  6
SLD-Solid
 62
     7
370
    15
100
AcDbLine
 10
1083.5979450407
 20
1207.2501095946
 30
0.0
 11
1083.5979450407
 21
1207.2594675238
 31
0.0
  0
LINE
  5
110
330
1F
100
AcDbEntity
  8
0
  6
SLD-Solid
 62
     7
370
    15
100
AcDbLine
 10
1085.3979457082
 20
1207.2501095946
 30
0.0
 11
1085.3979457082
 21
1207.2594675238
 31
0.0
  0
LINE
  5
111
330
1F
100
AcDbEntity
  8
0
  6
SLD-Solid
 62
     7
370
    15
100
AcDbLine
 10
1373.8968688907
 20
1209.2413815672
 30
0.0
 11
1373.8968688907
 21
1209.2507991011
 31
0.0
  0
LINE
  5
112
330
1F
100
AcDbEntity
  8
0
  6
SLD-Solid
 62
     7
370
    15
100
AcDbLine
 10
1372.3011333408
 20
1207.4949058706
 30
0.0
 11
1372.3011333408
 21
1207.5043234045
 31
0.0
  0
LINE
  5
113
330
1F
100
AcDbEntity
  8
0
  6
SLD-Solid
 62
     7
370
    15
100
AcDbLine
 10
1376.5298742713
 20
1207.6586398298
 30
0.0
 11
1376.5298742713
 21
1207.6680573637
 31
0.0
  0
LINE
  5
114
330
1F
100
AcDbEntity
  8
0
  6
SLD-Solid
 62
     7
370
    15
100
AcDbLine
 10
1407.4979443016
 20
1210.2526339705
 30
0.0
 11
1407.4979443016
 21
1216.5594014342
 31
0.0
  0
LINE
  5
115
330
1F
100
AcDbEntity
  8
0
  6
SLD-Solid
 62
     7
370
    15
100
AcDbLine
 10
507.4979383411
 20
1210.2526339705
 30
0.0
 11
507.4979383411
 21
1216.5594014342
 31
0.0
  0
LINE
  5
116
330
1F
100
AcDbEntity
  8
0
  6
SLD-Solid
 62
     7
370
    15
100
AcDbLine
 10
507.4979383411
 20
1216.5594014342
 30
0.0
 11
507.4979383411
 21
1291.4213451559
 31
0.0
  0
LINE
  5
117
330
1F
100
AcDbEntity
  8
0
  6
SLD-Solid
 62
     7
370
    15
100
AcDbLine
 10
522.997947401
 20
1291.4213451559
 30
0.0
 11
522.4979538383
 21
1291.4213451559
 31
0.0
  0
LINE
  5
118
330
1F
100
AcDbEntity
  8
0
  6
SLD-Solid
 62
     7
370
    15
100
AcDbLine
 10
522.997947401
 20
1292.6214846785
 30
0.0
 11
522.997947401
 21
1291.4213451559
 31
0.0
  0
LINE
  5
119
330
1F
100
AcDbEntity
  8
0
  6
SLD-Solid
 62
     7
370
    15
100
AcDbLine
 10
537.9979330959
 20
1292.6214846785
 30
0.0
 11
537.9979330959
 21
1292.2850760634
 31
0.0
  0
LINE
  5
11A
330
1F
100
AcDbEntity
  8
0
  6
SLD-Solid
 62
     7
370
    15
100
AcDbLine
 10
557.497950262
 20
1292.2850760634
 30
0.0
 11
537.9979330959
 21
1292.2850760634
 31
0.0
  0
LINE
  5
11B
330
1F
100
AcDbEntity
  8
0
  6
SLD-Solid
 62
     7
370
    15
100
AcDbLine
 10
557.497950262
 20
1291.4213451559
 30
0.0
 11
557.497950262
 21
1292.2850760634
 31
0.0
  0
LINE
  5
11C
330
1F
100
AcDbEntity
  8
0
  6
SLD-Solid
 62
     7
370
    15
100
AcDbLine
 10
557.9979438247
 20
1291.4213451559
 30
0.0
 11
557.497950262
 21
1291.4213451559
 31
0.0
  0
LINE
  5
11D
330
1F
100
AcDbEntity
  8
0
  6
SLD-Solid
 62
     7
370
    15
100
AcDbLine
 10
1357.4979323806
 20
1291.4213451559
 30
0.0
 11
1356.9979388179
 21
1291.4213451559
 31
0.0
  0
LINE
  5
11E
330
1F
100
AcDbEntity
  8
0
  6
SLD-Solid
 62
     7
370
    15
100
AcDbLine
 10
1357.4979323806
 20
1292.2850760634
 30
0.0
 11
1357.4979323806
 21
1291.4213451559
 31
0.0
  0
LINE
  5
11F
330
1F
100
AcDbEntity
  8
0
  6
SLD-Solid
 62
     7
370
    15
100
AcDbLine
 10
1376.9979495468
 20
1292.2850760634
 30
0.0
 11
1357.4979323806
 21
1292.2850760634
 31
0.0
  0
LINE
  5
120
330
1F
100
AcDbEntity
  8
0
  6
SLD-Solid
 62
     7
370
    15
100
AcDbLine
 10
1376.9979495468
 20
1292.6214846785
 30
0.0
 11
1376.9979495468
 21
1292.2850760634
 31
0.0
  0
LINE
  5
121
330
1F
100
AcDbEntity
  8
0
  6
SLD-Solid
 62
     7
370
    15
100
AcDbLine
 10
1391.9979352417
 20
1292.6214846785
 30
0.0
 11
1391.9979352417
 21
1291.4213451559
 31
0.0
  0
LINE
  5
122
330
1F
100
AcDbEntity
  8
0
  6
SLD-Solid
 62
     7
370
    15
100
AcDbLine
 10
1392.4979288044
 20
1291.4213451559
 30
0.0
 11
1391.9979352417
 21
1291.4213451559
 31
0.0
  0
LINE
  5
123
330
1F
100
AcDbEntity
  8
0
  6
SLD-Solid
 62
     7
370
    15
100
AcDbLine
 10
1407.4979443016
 20
1216.5594014342
 30
0.0
 11
1407.4979443016
 21
1291.4213451559
 31
0.0
  0
LWPOLYLINE
  5
124
330
1F
100
AcDbEntity
  8
0
  6
SLD-Solid
 62
     7
370
    15
100
AcDbPolyline
 90
        3
 70
   128
 43
0.0
 10
530.4979402484
 20
1296.4774283583
 10
529.656024641
 20
1296.5455564673
 10
529.362888998
 20
1296.6057571585
  0
LWPOLYLINE
  5
125
330
1F
100
AcDbEntity
  8
0
  6
SLD-Solid
 62
     7
370
    15
100
AcDbPolyline
 90
        3
 70
   128
 43
0.0
 10
531.6329914989
 20
1296.6057571585
 10
531.3398558559
 20
1296.5455564673
 10
530.4979402484
 20
1296.4774283583
  0
LWPOLYLINE
  5
126
330
1F
100
AcDbEntity
  8
0
  6
SLD-Solid
 62
     7
370
    15
100
AcDbPolyline
 90
        3
 70
   128
 43
0.0
 10
1384.4979423942
 20
1296.4774283583
 10
1383.6560267868
 20
1296.5455564673
 10
1383.3628911438
 20
1296.6057571585
  0
LWPOLYLINE
  5
127
330
1F
100
AcDbEntity
  8
0
  6
SLD-Solid
 62
     7
370
    15
100
AcDbPolyline
 90
        3
 70
   128
 43
0.0
 10
1385.6329936447
 20
1296.6057571585
 10
1385.3398580017
 20
1296.5455564673
 10
1384.4979423942
 20
1296.4774283583
  0
LINE
  5
128
330
1F
100
AcDbEntity
  8
0
  6
SLD-Solid
 62
     7
370
    15
100
AcDbLine
 10
1392.4979288044
 20
1291.4213451559
 30
0.0
 11
1392.4979288044
 21
1292.6214846785
 31
0.0
  0
LINE
  5
129
330
1F
100
AcDbEntity
  8
0
  6
SLD-Solid
 62
     7
370
    15
100
AcDbLine
 10
1407.4979443016
 20
1292.837849539
 30
0.0
 11
1406.4960796299
 21
1292.837849539
 31
0.0
  0
LINE
  5
12A
330
1F
100
AcDbEntity
  8
0
  6
SLD-Solid
 62
     7
370
    15
100
AcDbLine
 10
1407.4979443016
 20
1292.837849539
 30
0.0
 11
1407.4979443016
 21
1291.4213451559
 31
0.0
  0
LINE
  5
12B
330
1F
100
AcDbEntity
  8
0
  6
SLD-Solid
 62
     7
370
    15
100
AcDbLine
 10
557.9979438247
 20
1291.4213451559
 30
0.0
 11
557.9979438247
 21
1292.837849539
 31
0.0
  0
LINE
  5
12C
330
1F
100
AcDbEntity
  8
0
  6
SLD-Solid
 62
     7
370
    15
100
AcDbLine
 10
1356.9979388179
 20
1292.837849539
 30
0.0
 11
1018.263300872
 21
1292.837849539
 31
0.0
  0
LINE
  5
12D
330
1F
100
AcDbEntity
  8
0
  6
SLD-Solid
 62
     7
370
    15
100
AcDbLine
 10
998.7325873138
 20
1292.837849539
 30
0.0
 11
557.9979438247
 21
1292.837849539
 31
0.0
  0
LINE
  5
12E
330
1F
100
AcDbEntity
  8
0
  6
SLD-Solid
 62
     7
370
    15
100
AcDbLine
 10
1356.9979388179
 20
1292.837849539
 30
0.0
 11
1356.9979388179
 21
1291.4213451559
 31
0.0
  0
LINE
  5
12F
330
1F
100
AcDbEntity
  8
0
  6
SLD-Solid
 62
     7
370
    15
100
AcDbLine
 10
508.4998030128
 20
1292.837849539
 30
0.0
 11
507.4979383411
 21
1292.837849539
 31
0.0
  0
LINE
  5
130
330
1F
100
AcDbEntity
  8
0
  6
SLD-Solid
 62
     7
370
    15
100
AcDbLine
 10
522.4979538383
 20
1292.6214846785
 30
0.0
 11
522.4979538383
 21
1291.4213451559
 31
0.0
  0
LINE
  5
131
330
1F
100
AcDbEntity
  8
0
  6
SLD-Solid
 62
     7
370
    15
100
AcDbLine
 10
507.4979383411
 20
1291.4213451559
 30
0.0
 11
507.4979383411
 21
1292.837849539
 31
0.0
  0
LINE
  5
132
330
1F
100
AcDbEntity
  8
0
  6
SLD-Solid
 62
     7
370
    15
100
AcDbLine
 10
508.697928852
 20
1347.3586949522
 30
0.0
 11
509.9479574623
 21
1347.3586949522
 31
0.0
  0
LINE
  5
133
330
1F
100
AcDbEntity
  8
0
  6
SLD-Solid
 62
     7
370
    15
100
AcDbLine
 10
509.9479574623
 20
1347.3586949522
 30
0.0
 11
509.9479574623
 21
1347.3640593702
 31
0.0
  0
LINE
  5
134
330
1F
100
AcDbEntity
  8
0
  6
SLD-Solid
 62
     7
370
    15
100
AcDbLine
 10
1405.0479549827
 20
1347.3640593702
 30
0.0
 11
509.9479574623
 21
1347.3640593702
 31
0.0
  0
LINE
  5
135
330
1F
100
AcDbEntity
  8
0
  6
SLD-Solid
 62
     7
370
    15
100
AcDbLine
 10
1405.0479549827
 20
1347.3640593702
 30
0.0
 11
1405.0479549827
 21
1347.3586949522
 31
0.0
  0
LINE
  5
136
330
1F
100
AcDbEntity
  8
0
  6
SLD-Solid
 62
     7
370
    15
100
AcDbLine
 10
1405.0479549827
 20
1347.3586949522
 30
0.0
 11
1406.2979537906
 21
1347.3586949522
 31
0.0
  0
LINE
  5
137
330
1F
100
AcDbEntity
  8
0
  6
SLD-Solid
 62
     7
370
    15
100
AcDbLine
 10
1406.2979537906
 20
1302.6965173895
 30
0.0
 11
1406.2979537906
 21
1347.3586949522
 31
0.0
  0
LINE
  5
138
330
1F
100
AcDbEntity
  8
0
  6
SLD-Solid
 62
     7
370
    15
100
AcDbLine
 10
508.697928852
 20
1302.6965173895
 30
0.0
 11
508.697928852
 21
1347.3586949522
 31
0.0
  0
LINE
  5
139
330
1F
100
AcDbEntity
  8
0
  6
SLD-Solid
 62
     7
370
    15
100
AcDbLine
 10
507.4979383411
 20
1346.0583600218
 30
0.0
 11
508.697928852
 21
1346.0583600218
 31
0.0
  0
LINE
  5
13A
330
1F
100
AcDbEntity
  8
0
  6
SLD-Solid
 62
     7
370
    15
100
AcDbLine
 10
507.4979383411
 20
1303.8887294943
 30
0.0
 11
507.4979383411
 21
1346.0583600218
 31
0.0
  0
LINE
  5
13B
330
1F
100
AcDbEntity
  8
0
  6
SLD-Solid
 62
     7
370
    15
100
AcDbLine
 10
1407.4979443016
 20
1346.0583600218
 30
0.0
 11
1406.2979537906
 21
1346.0583600218
 31
0.0
  0
LINE
  5
13C
330
1F
100
AcDbEntity
  8
0
  6
SLD-Solid
 62
     7
370
    15
100
AcDbLine
 10
1407.4979443016
 20
1303.8887294943
 30
0.0
 11
1407.4979443016
 21
1346.0583600218
 31
0.0
  0
LWPOLYLINE
  5
13D
330
1F
100
AcDbEntity
  8
0
  6
SLD-Solid
 62
     7
370
    15
100
AcDbPolyline
 90
        9
 70
   128
 43
0.0
 10
1359.4979364337
 20
1296.6089758093
 10
1359.4018835487
 20
1296.9978961165
 10
1359.1173309745
 20
1297.3719152624
 10
1358.6553055706
 20
1297.7166089232
 10
1358.0334801139
 20
1298.0187448675
 10
1357.2757858696
 20
1298.2667001898
 10
1356.4113695087
 20
1298.4509381468
 10
1355.4734010162
 20
1298.5643657858
 10
1354.4979412021
 20
1298.6026915724
  0
LINE
  5
13E
330
1F
100
AcDbEntity
  8
0
  6
SLD-Solid
 62
     7
370
    15
100
AcDbLine
 10
1354.4979412021
 20
1298.6026915724
 30
0.0
 11
1025.9979460301
 21
1298.6026915724
 31
0.0
  0
LWPOLYLINE
  5
13F
330
1F
100
AcDbEntity
  8
0
  6
SLD-Solid
 62
     7
370
    15
100
AcDbPolyline
 90
        9
 70
   128
 43
0.0
 10
1025.9979460301
 20
1298.6026915724
 10
1025.0224936666
 20
1298.5643657858
 10
1024.0845251741
 20
1298.4509381468
 10
1023.2200939121
 20
1298.2667001898
 10
1022.4624071183
 20
1298.0187448675
 10
1021.8405965628
 20
1297.7166089232
 10
1021.3785488071
 20
1297.3719152624
 10
1021.0940185847
 20
1296.9978961165
 10
1020.9979433479
 20
1296.6089758093
  0
LINE
  5
140
330
1F
100
AcDbEntity
  8
0
  6
SLD-Solid
 62
     7
370
    15
100
AcDbLine
 10
1020.9979433479
 20
1296.6089758093
 30
0.0
 11
1020.9979433479
 21
1294.6152004416
 31
0.0
  0
LWPOLYLINE
  5
141
330
1F
100
AcDbEntity
  8
0
  6
SLD-Solid
 62
     7
370
    15
100
AcDbPolyline
 90
        9
 70
   128
 43
0.0
 10
1015.997944391
 20
1292.6214846785
 10
1016.9733930292
 20
1292.6597508604
 10
1017.9113615217
 20
1292.7732381041
 10
1018.7757927837
 20
1292.9574760611
 10
1019.5334758522
 20
1293.2054313833
 10
1020.155290133
 20
1293.5075673277
 10
1020.6173378887
 20
1293.8522609884
 10
1020.9018681111
 20
1294.2262205298
 10
1020.9979433479
 20
1294.6152004416
  0
LINE
  5
142
330
1F
100
AcDbEntity
  8
0
  6
SLD-Solid
 62
     7
370
    15
100
AcDbLine
 10
1015.997944391
 20
1292.6214846785
 30
0.0
 11
1000.9979437949
 21
1292.6214846785
 31
0.0
  0
LWPOLYLINE
  5
143
330
1F
100
AcDbEntity
  8
0
  6
SLD-Solid
 62
     7
370
    15
100
AcDbPolyline
 90
        9
 70
   128
 43
0.0
 10
995.9979411127
 20
1294.6152004416
 10
996.0940163495
 20
1294.2262205298
 10
996.3785465719
 20
1293.8522609884
 10
996.8405943276
 20
1293.5075673277
 10
997.4624086084
 20
1293.2054313833
 10
998.2200916769
 20
1292.9574760611
 10
999.0845266642
 20
1292.7732381041
 10
1000.0224914314
 20
1292.6597508604
 10
1000.9979437949
 20
1292.6214846785
  0
LINE
  5
144
330
1F
100
AcDbEntity
  8
0
  6
SLD-Solid
 62
     7
370
    15
100
AcDbLine
 10
995.9979411127
 20
1294.6152004416
 30
0.0
 11
995.9979411127
 21
1296.6089758093
 31
0.0
  0
LWPOLYLINE
  5
145
330
1F
100
AcDbEntity
  8
0
  6
SLD-Solid
 62
     7
370
    15
100
AcDbPolyline
 90
        9
 70
   128
 43
0.0
 10
995.9979411127
 20
1296.6089758093
 10
995.9018696012
 20
1296.9978961165
 10
995.6173393788
 20
1297.3719152624
 10
995.1552916231
 20
1297.7166089232
 10
994.5334773423
 20
1298.0187448675
 10
993.7757942738
 20
1298.2667001898
 10
992.9113592865
 20
1298.4509381468
 10
991.9733945193
 20
1298.5643657858
 10
990.9979421558
 20
1298.6026915724
  0
LINE
  5
146
330
1F
100
AcDbEntity
  8
0
  6
SLD-Solid
 62
     7
370
    15
100
AcDbLine
 10
990.9979421558
 20
1298.6026915724
 30
0.0
 11
560.4979414405
 21
1298.6026915724
 31
0.0
  0
LWPOLYLINE
  5
147
330
1F
100
AcDbEntity
  8
0
  6
SLD-Solid
 62
     7
370
    15
100
AcDbPolyline
 90
        9
 70
   128
 43
0.0
 10
560.4979414405
 20
1298.6026915724
 10
559.5224816265
 20
1298.5643657858
 10
558.584513134
 20
1298.4509381468
 10
557.7200967731
 20
1298.2667001898
 10
556.9624025287
 20
1298.0187448675
 10
556.3406068744
 20
1297.7166089232
 10
555.8785516681
 20
1297.3719152624
 10
555.5940288963
 20
1296.9978961165
 10
555.4979462089
 20
1296.6089758093
  0
LINE
  5
148
330
1F
100
AcDbEntity
  8
0
  6
SLD-Solid
 62
     7
370
    15
100
AcDbLine
 10
555.4979462089
 20
1296.6089758093
 30
0.0
 11
555.4979462089
 21
1294.6152004416
 31
0.0
  0
LWPOLYLINE
  5
149
330
1F
100
AcDbEntity
  8
0
  6
SLD-Solid
 62
     7
370
    15
100
AcDbPolyline
 90
        9
 70
   128
 43
0.0
 10
550.4979509773
 20
1292.6214846785
 10
551.473380989
 20
1292.6597508604
 10
552.4113494815
 20
1292.7732381041
 10
553.2757956447
 20
1292.9574760611
 10
554.0334898891
 20
1293.2054313833
 10
554.6552855434
 20
1293.5075673277
 10
555.1173407497
 20
1293.8522609884
 10
555.4018635215
 20
1294.2262205298
 10
555.4979462089
 20
1294.6152004416
  0
LINE
  5
14A
330
1F
100
AcDbEntity
  8
0
  6
SLD-Solid
 62
     7
370
    15
100
AcDbLine
 10
550.4979509773
 20
1292.6214846785
 30
0.0
 11
509.6979457798
 21
1292.6214846785
 31
0.0
  0
LWPOLYLINE
  5
14B
330
1F
100
AcDbEntity
  8
0
  6
SLD-Solid
 62
     7
370
    15
100
AcDbPolyline
 90
        9
 70
   128
 43
0.0
 10
508.697928852
 20
1293.020239752
 10
508.71715135
 20
1292.9423960859
 10
508.7740737857
 20
1292.8675922568
 10
508.8664609851
 20
1292.7986892874
 10
508.9908260765
 20
1292.7382501776
 10
509.1423708858
 20
1292.6886591131
 10
509.315254158
 20
1292.6518234427
 10
509.5028597774
 20
1292.629114073
 10
509.6979457798
 20
1292.6214846785
  0
LINE
  5
14C
330
1F
100
AcDbEntity
  8
0
  6
SLD-Solid
 62
     7
370
    15
100
AcDbLine
 10
508.697928852
 20
1293.020239752
 30
0.0
 11
508.697928852
 21
1302.6965173895
 31
0.0
  0
LWPOLYLINE
  5
14D
330
1F
100
AcDbEntity
  8
0
  6
SLD-Solid
 62
     7
370
    15
100
AcDbPolyline
 90
        9
 70
   128
 43
0.0
 10
1405.2979368629
 20
1292.6214846785
 10
1405.4930228652
 20
1292.629114073
 10
1405.6806284847
 20
1292.6518234427
 10
1405.8535117569
 20
1292.6886591131
 10
1406.0050565662
 20
1292.7382501776
 10
1406.1294216575
 20
1292.7986892874
 10
1406.2218088569
 20
1292.8675922568
 10
1406.2787312927
 20
1292.9423960859
 10
1406.2979537906
 20
1293.020239752
  0
LINE
  5
14E
330
1F
100
AcDbEntity
  8
0
  6
SLD-Solid
 62
     7
370
    15
100
AcDbLine
 10
1405.2979368629
 20
1292.6214846785
 30
0.0
 11
1364.4979316654
 21
1292.6214846785
 31
0.0
  0
LWPOLYLINE
  5
14F
330
1F
100
AcDbEntity
  8
0
  6
SLD-Solid
 62
     7
370
    15
100
AcDbPolyline
 90
        9
 70
   128
 43
0.0
 10
1359.4979364337
 20
1294.6152004416
 10
1359.5940191211
 20
1294.2262205298
 10
1359.878541893
 20
1293.8522609884
 10
1360.3405970993
 20
1293.5075673277
 10
1360.9624225559
 20
1293.2054313833
 10
1361.7200869979
 20
1292.9574760611
 10
1362.5845331611
 20
1292.7732381041
 10
1363.5225016536
 20
1292.6597508604
 10
1364.4979316654
 20
1292.6214846785
  0
LINE
  5
150
330
1F
100
AcDbEntity
  8
0
  6
SLD-Solid
 62
     7
370
    15
100
AcDbLine
 10
1359.4979364337
 20
1294.6152004416
 30
0.0
 11
1359.4979364337
 21
1296.6089758093
 31
0.0
  0
LWPOLYLINE
  5
151
330
1F
100
AcDbEntity
  8
0
  6
SLD-Solid
 62
     7
370
    15
100
AcDbPolyline
 90
       19
 70
   128
 43
0.0
 10
1384.4979423942
 20
1294.1366943533
 10
1385.5924028816
 20
1294.2136439497
 10
1386.5548688831
 20
1294.435254019
 10
1387.2692305507
 20
1294.774702471
 10
1387.6493293705
 20
1295.191160124
 10
1387.6493293705
 20
1295.6342610533
 10
1387.2692305507
 20
1296.0507187063
 10
1386.5548688831
 20
1296.3901671583
 10
1385.5924028816
 20
1296.6117772276
 10
1384.4979423942
 20
1296.688726824
 10
1383.4034819068
 20
1296.6117772276
 10
1382.4410159053
 20
1296.3901671583
 10
1381.7266542377
 20
1296.0507187063
 10
1381.346555418
 20
1295.6342610533
 10
1381.346555418
 20
1295.191160124
 10
1381.7266542377
 20
1294.774702471
 10
1382.4410159053
 20
1294.435254019
 10
1383.4034819068
 20
1294.2136439497
 10
1384.4979423942
 20
1294.1366943533
  0
LWPOLYLINE
  5
152
330
1F
100
AcDbEntity
  8
0
  6
SLD-Solid
 62
     7
370
    15
100
AcDbPolyline
 90
       19
 70
   128
 43
0.0
 10
530.4979402484
 20
1294.1366943533
 10
531.5924007358
 20
1294.2136439497
 10
532.5548667373
 20
1294.435254019
 10
533.269228405
 20
1294.774702471
 10
533.6493272247
 20
1295.191160124
 10
533.6493272247
 20
1295.6342610533
 10
533.269228405
 20
1296.0507187063
 10
532.5548667373
 20
1296.3901671583
 10
531.5924007358
 20
1296.6117772276
 10
530.4979402484
 20
1296.688726824
 10
529.4034797611
 20
1296.6117772276
 10
528.4410137596
 20
1296.3901671583
 10
527.7266520919
 20
1296.0507187063
 10
527.3465532722
 20
1295.6342610533
 10
527.3465532722
 20
1295.191160124
 10
527.7266520919
 20
1294.774702471
 10
528.4410137596
 20
1294.435254019
 10
529.4034797611
 20
1294.2136439497
 10
530.4979402484
 20
1294.1366943533
  0
LWPOLYLINE
  5
153
330
1F
100
AcDbEntity
  8
0
  6
SLD-Solid
 62
     7
370
    15
100
AcDbPolyline
 90
       19
 70
   128
 43
0.0
 10
1008.4979440929
 20
1294.1366943533
 10
1009.5924083056
 20
1294.2136439497
 10
1010.5548631312
 20
1294.435254019
 10
1011.2692247989
 20
1294.774702471
 10
1011.6493273439
 20
1295.191160124
 10
1011.6493273439
 20
1295.6342610533
 10
1011.2692247989
 20
1296.0507187063
 10
1010.5548631312
 20
1296.3901671583
 10
1009.5924083056
 20
1296.6117772276
 10
1008.4979440929
 20
1296.688726824
 10
1007.4034798803
 20
1296.6117772276
 10
1006.4410213294
 20
1296.3901671583
 10
1005.726663387
 20
1296.0507187063
 10
1005.3465571167
 20
1295.6342610533
 10
1005.3465571167
 20
1295.191160124
 10
1005.726663387
 20
1294.774702471
 10
1006.4410213294
 20
1294.435254019
 10
1007.4034798803
 20
1294.2136439497
 10
1008.4979440929
 20
1294.1366943533
  0
LINE
  5
154
330
1F
100
AcDbEntity
  8
0
  6
SLD-Solid
 62
     7
370
    15
100
AcDbLine
 10
1406.2979537906
 20
1293.020239752
 30
0.0
 11
1406.2979537906
 21
1302.6965173895
 31
0.0
  0
LINE
  5
155
330
1F
100
AcDbEntity
  8
0
  6
SLD-Solid
 62
     7
370
    15
100
AcDbLine
 10
508.697928852
 20
1293.6727317984
 30
0.0
 11
507.4979383411
 21
1293.6727317984
 31
0.0
  0
LINE
  5
156
330
1F
100
AcDbEntity
  8
0
  6
SLD-Solid
 62
     7
370
    15
100
AcDbLine
 10
507.4979383411
 20
1293.6727317984
 30
0.0
 11
507.4979383411
 21
1303.8887294943
 31
0.0
  0
LINE
  5
157
330
1F
100
AcDbEntity
  8
0
  6
SLD-Solid
 62
     7
370
    15
100
AcDbLine
 10
1406.2979537906
 20
1293.6727317984
 30
0.0
 11
1407.4979443016
 21
1293.6727317984
 31
0.0
  0
LINE
  5
158
330
1F
100
AcDbEntity
  8
0
  6
SLD-Solid
 62
     7
370
    15
100
AcDbLine
 10
1407.4979443016
 20
1293.6727317984
 30
0.0
 11
1407.4979443016
 21
1303.8887294943
 31
0.0
  0
LINE
  5
159
330
1F
100
AcDbEntity
  8
0
  6
SLD-Solid
 62
     7
370
    15
100
AcDbLine
 10
509.9479574623
 20
1347.3640593702
 30
0.0
 11
509.7858924331
 21
1347.3586949522
 31
0.0
  0
ARC
  5
15A
330
1F
100
AcDbEntity
  8
0
  6
SLD-Solid
 62
     7
370
    15
100
AcDbCircle
 10
509.9479429018
 20
1344.9140439478
 30
0.0
 40
2.449999999999861
100
AcDbArc
 50
120.6774244726
 51
152.1558358072
  0
ARC
  5
15B
330
1F
100
AcDbEntity
  8
0
  6
SLD-Solid
 62
     7
370
    15
100
AcDbCircle
 10
1405.0479429018
 20
1344.9140439478
 30
0.0
 40
2.450000000000012
100
AcDbArc
 50
27.8441641928
 51
59.3225755274
  0
LINE
  5
15C
330
1F
100
AcDbEntity
  8
0
  6
SLD-Solid
 62
     7
370
    15
100
AcDbLine
 10
1405.2099902095
 20
1347.3586949522
 30
0.0
 11
1405.0479549827
 21
1347.3640593702
 31
0.0
  0
ARC
  5
15D
330
1F
100
AcDbEntity
  8
0
  6
SLD-Solid
 62
     7
370
    15
100
AcDbCircle
 10
1008.8945890026
 20
1299.7650611778
 30
0.0
 40
4.545226203472038
100
AcDbArc
 50
264.9936433808
 51
303.2263036214
  0
ARC
  5
15E
330
1F
100
AcDbEntity
  8
0
  6
SLD-Solid
 62
     7
370
    15
100
AcDbCircle
 10
1008.1012967987
 20
1299.7650516914
 30
0.0
 40
4.545216961275278
100
AcDbArc
 50
236.773655998
 51
275.0063969998
  0
ARC
  5
15F
330
1F
100
AcDbEntity
  8
0
  6
SLD-Solid
 62
     7
370
    15
100
AcDbCircle
 10
530.8946112278
 20
1299.7649574667
 30
0.0
 40
4.545125163129515
100
AcDbArc
 50
264.9932019109
 51
303.2267450913
  0
ARC
  5
160
330
1F
100
AcDbEntity
  8
0
  6
SLD-Solid
 62
     7
370
    15
100
AcDbCircle
 10
530.1012692691
 20
1299.7649574667
 30
0.0
 40
4.545125163129633
100
AcDbArc
 50
236.7732549087
 51
275.0067980891
  0
ARC
  5
161
330
1F
100
AcDbEntity
  8
0
  6
SLD-Solid
 62
     7
370
    15
100
AcDbCircle
 10
1384.8946133735
 20
1299.7649574667
 30
0.0
 40
4.545125163129571
100
AcDbArc
 50
264.9932019109
 51
303.2267450913
  0
ARC
  5
162
330
1F
100
AcDbEntity
  8
0
  6
SLD-Solid
 62
     7
370
    15
100
AcDbCircle
 10
1384.1012714149
 20
1299.7649574667
 30
0.0
 40
4.545125163129571
100
AcDbArc
 50
236.7732549087
 51
275.0067980891
  0
ARC
  5
163
330
1F
100
AcDbEntity
  8
0
  6
SLD-Solid
 62
     7
370
    15
100
AcDbCircle
 10
509.9479429018
 20
1294.8140439478
 30
0.0
 40
2.450000000000066
100
AcDbArc
 50
207.7643057669
 51
270.0
  0
ARC
  5
164
330
1F
100
AcDbEntity
  8
0
  6
SLD-Solid
 62
     7
370
    15
100
AcDbCircle
 10
1405.0479429018
 20
1294.8140439478
 30
0.0
 40
2.450000000000016
100
AcDbArc
 50
300.0682714757
 51
332.2356942331
  0
ARC
  5
165
330
1F
100
AcDbEntity
  8
0
  6
SLD-Solid
 62
     7
370
    15
100
AcDbCircle
 10
1075.2989112953
 20
1237.9110705687
 30
0.0
 40
0.0662918513765016
100
AcDbArc
 50
295.4141558553
 51
333.5974103079
  0
ARC
  5
166
330
1F
100
AcDbEntity
  8
0
  6
SLD-Solid
 62
     7
370
    15
100
AcDbCircle
 10
1059.4979431393
 20
1262.9524790156
 30
0.0
 40
29.67566322321571
100
AcDbArc
 50
237.7635751065
 51
302.2364248935
  0
ARC
  5
167
330
1F
100
AcDbEntity
  8
0
  6
SLD-Solid
 62
     7
370
    15
100
AcDbCircle
 10
1043.6987287084
 20
1237.9128548122
 30
0.0
 40
0.0686609344090136
100
AcDbArc
 50
207.085450332
 51
243.9029835042
  0
LINE
  5
168
330
1F
100
AcDbEntity
  8
0
  6
SLD-Solid
 62
     7
370
    15
100
AcDbLine
 10
1045.4030651512
 20
1240.2278694327
 30
0.0
 11
1047.8947702708
 21
1251.698723715
 31
0.0
  0
LINE
  5
169
330
1F
100
AcDbEntity
  8
0
  6
SLD-Solid
 62
     7
370
    15
100
AcDbLine
 10
1047.879258162
 20
1251.6354235823
 30
0.0
 11
1047.8841233911
 21
1251.6591462309
 31
0.0
  0
LINE
  5
16A
330
1F
100
AcDbEntity
  8
0
  6
SLD-Solid
 62
     7
370
    15
100
AcDbLine
 10
1071.1166281166
 20
1251.6354235823
 30
0.0
 11
1071.1117628874
 21
1251.6591462309
 31
0.0
  0
LINE
  5
16B
330
1F
100
AcDbEntity
  8
0
  6
SLD-Solid
 62
     7
370
    15
100
AcDbLine
 10
1071.1011160078
 20
1251.698723715
 30
0.0
 11
1073.5928211274
 21
1240.2278694327
 31
0.0
  0
ARC
  5
16C
330
1F
100
AcDbEntity
  8
0
  6
SLD-Solid
 62
     7
370
    15
100
AcDbCircle
 10
994.0680829106
 20
1266.2677082236
 30
0.0
 40
55.76349685756361
100
AcDbArc
 50
344.8549337107
 51
15.1450662893
  0
ARC
  5
16D
330
1F
100
AcDbEntity
  8
0
  6
SLD-Solid
 62
     7
370
    15
100
AcDbCircle
 10
993.9638370971
 20
1261.2917458455
 30
0.0
 40
55.58765197422318
100
AcDbArc
 50
359.3366458795
 51
16.8658549072
  0
ARC
  5
16E
330
1F
100
AcDbEntity
  8
0
  6
SLD-Solid
 62
     7
370
    15
100
AcDbCircle
 10
1124.927803368
 20
1266.2677082236
 30
0.0
 40
55.76349685756361
100
AcDbArc
 50
164.8549337107
 51
195.1450662893
  0
ARC
  5
16F
330
1F
100
AcDbEntity
  8
0
  6
SLD-Solid
 62
     7
370
    15
100
AcDbCircle
 10
1125.1011701295
 20
1261.2825912551
 30
0.0
 40
55.65666319297321
100
AcDbArc
 50
162.321170039
 51
180.6531067421
  0
ARC
  5
170
330
1F
100
AcDbEntity
  8
0
  6
SLD-Solid
 62
     7
370
    15
100
AcDbCircle
 10
1059.4979431393
 20
1250.4639959885
 30
0.0
 40
1.501222952724394
100
AcDbArc
 50
182.3135082113
 51
357.6864917887
  0
LINE
  5
171
330
1F
100
AcDbEntity
  8
0
  6
SLD-Solid
 62
     7
370
    15
100
AcDbLine
 10
1060.9979424538
 20
1250.4033955748
 30
0.0
 11
1060.9979424538
 21
1284.4451579268
 31
0.0
  0
LINE
  5
172
330
1F
100
AcDbEntity
  8
0
  6
SLD-Solid
 62
     7
370
    15
100
AcDbLine
 10
1057.9979438247
 20
1284.4451579268
 30
0.0
 11
1057.9979438247
 21
1250.4033955748
 31
0.0
  0
ARC
  5
173
330
1F
100
AcDbEntity
  8
0
  6
SLD-Solid
 62
     7
370
    15
100
AcDbCircle
 10
1059.5572270514
 20
1264.7578958418
 30
0.0
 40
20.4258534774477
100
AcDbArc
 50
57.1163156368
 51
85.9553459333
  0
LINE
  5
174
330
1F
100
AcDbEntity
  8
0
  6
SLD-Solid
 62
     7
370
    15
100
AcDbLine
 10
1060.9979424538
 20
1284.4451579268
 30
0.0
 11
1060.9979424538
 21
1285.1328763182
 31
0.0
  0
ARC
  5
175
330
1F
100
AcDbEntity
  8
0
  6
SLD-Solid
 62
     7
370
    15
100
AcDbCircle
 10
1059.4386592272
 20
1264.7578958418
 30
0.0
 40
20.4258534774477
100
AcDbArc
 50
94.0446540667
 51
122.8836843632
  0
LINE
  5
176
330
1F
100
AcDbEntity
  8
0
  6
SLD-Solid
 62
     7
370
    15
100
AcDbLine
 10
1057.9979438247
 20
1285.1328763182
 30
0.0
 11
1057.9979438247
 21
1284.4451579268
 31
0.0
  0
ARC
  5
177
330
1F
100
AcDbEntity
  8
0
  6
SLD-Solid
 62
     7
370
    15
100
AcDbCircle
 10
1075.2486282737
 20
1282.7896468688
 30
0.0
 40
0.1616632212325741
100
AcDbArc
 50
47.2871691102
 51
60.8553013803
  0
LINE
  5
178
330
1F
100
AcDbEntity
  8
0
  6
SLD-Solid
 62
     7
370
    15
100
AcDbLine
 10
1059.7630683245
 20
1287.4153765852
 30
0.0
 11
1060.9979424538
 21
1285.294822138
 31
0.0
  0
ARC
  5
179
330
1F
100
AcDbEntity
  8
0
  6
SLD-Solid
 62
     7
370
    15
100
AcDbCircle
 10
1059.58080803
 20
1286.8863728921
 30
0.0
 40
0.559520975737506
100
AcDbArc
 50
70.9893770757
 51
96.9003419877
  0
ELLIPSE
  5
17A
330
1F
100
AcDbEntity
  8
0
  6
SLD-Solid
 62
     7
370
    15
100
AcDbEllipse
 10
1059.4979429018
 20
1248.7652747002
 30
0.0
 11
0.0
 21
38.67659121471888
 31
0.0
210
0.0
220
0.0
230
1.0
 40
0.8983300055
 41
6.28273502979974
 42
6.283635584559457
  0
ARC
  5
17B
330
1F
100
AcDbEntity
  8
0
  6
SLD-Solid
 62
     7
370
    15
100
AcDbCircle
 10
1059.4382068226
 20
1286.668337897
 30
0.0
 40
0.7747589231588122
100
AcDbArc
 50
86.7373647141
 51
105.3729162226
  0
LINE
  5
17C
330
1F
100
AcDbEntity
  8
0
  6
SLD-Solid
 62
     7
370
    15
100
AcDbLine
 10
1059.232817954
 20
1287.4153765852
 30
0.0
 11
1057.9979438247
 21
1285.294822138
 31
0.0
  0
ARC
  5
17D
330
1F
100
AcDbEntity
  8
0
  6
SLD-Solid
 62
     7
370
    15
100
AcDbCircle
 10
1043.7413757906
 20
1282.7977642462
 30
0.0
 40
0.1517134481882802
100
AcDbArc
 50
118.6974783659
 51
133.1600511436
  0
ARC
  5
17E
330
1F
100
AcDbEntity
  8
0
  6
SLD-Solid
 62
     7
370
    15
100
AcDbCircle
 10
1059.4979431393
 20
1257.8290434134
 30
0.0
 40
29.67609775627863
100
AcDbArc
 50
57.7641041683
 51
122.2358958317
  0
LINE
  5
17F
330
1F
100
AcDbEntity
  8
0
  6
SLD-Solid
 62
     7
370
    15
100
AcDbLine
 10
1060.9979424538
 20
1285.1328763182
 30
0.0
 11
1060.9979424538
 21
1285.294822138
 31
0.0
  0
LWPOLYLINE
  5
180
330
1F
100
AcDbEntity
  8
0
  6
SLD-Solid
 62
     7
370
    15
100
AcDbPolyline
 90
        3
 70
   128
 43
0.0
 10
1059.9979404273
 20
1283.827474993
 10
1060.0024182262
 20
1283.8281902487
 10
1060.0305367174
 20
1283.8326009924
  0
ARC
  5
181
330
1F
100
AcDbEntity
  8
0
  6
SLD-Solid
 62
     7
370
    15
100
AcDbCircle
 10
1059.9518861906
 20
1284.8796131496
 30
0.0
 40
1.049962076788682
100
AcDbArc
 50
274.295934445
 51
307.3840087853
  0
ARC
  5
182
330
1F
100
AcDbEntity
  8
0
  6
SLD-Solid
 62
     7
370
    15
100
AcDbCircle
 10
1059.0040273633
 20
1284.7980020728
 30
0.0
 40
0.9661755629208042
100
AcDbArc
 50
227.8763323399
 51
267.7057304772
  0
LWPOLYLINE
  5
183
330
1F
100
AcDbEntity
  8
0
  6
SLD-Solid
 62
     7
370
    15
100
AcDbPolyline
 90
        3
 70
   128
 43
0.0
 10
1058.9653495612
 20
1283.8326009924
 10
1058.9934680523
 20
1283.8281902487
 10
1058.9979458513
 20
1283.827474993
  0
LINE
  5
184
330
1F
100
AcDbEntity
  8
0
  6
SLD-Solid
 62
     7
370
    15
100
AcDbLine
 10
1059.232817954
 20
1287.1564540083
 30
0.0
 11
1059.232817954
 21
1287.4153765852
 31
0.0
  0
ARC
  5
185
330
1F
100
AcDbEntity
  8
0
  6
SLD-Solid
 62
     7
370
    15
100
AcDbCircle
 10
1073.8545690111
 20
1238.3669156826
 30
0.0
 40
1.580098335164669
100
AcDbArc
 50
342.1125817019
 51
20.7904317756
  0
ARC
  5
186
330
1F
100
AcDbEntity
  8
0
  6
SLD-Solid
 62
     7
370
    15
100
AcDbCircle
 10
1045.1406901631
 20
1238.3669315728
 30
0.0
 40
1.579506438128858
100
AcDbArc
 50
159.2020327183
 51
197.8949538042
  0
LWPOLYLINE
  5
187
330
1F
100
AcDbEntity
  8
0
  6
SLD-Solid
 62
     7
370
    15
100
AcDbPolyline
 90
       61
 70
   128
 43
0.0
 10
1059.497939414
 20
1288.2101449186
 10
1062.8951210441
 20
1288.0408081228
 10
1066.255072123
 20
1287.5347050841
 10
1069.5409942331
 20
1286.6973790342
 10
1072.7168861689
 20
1285.5378898794
 10
1075.7479462685
 20
1284.0691122229
 10
1078.6009672942
 20
1282.3070201094
 10
1081.2446866097
 20
1280.2709254439
 10
1083.6501438083
 20
1277.9831799681
 10
1085.790993637
 20
1275.4688772375
 10
1087.6437742176
 20
1272.7554949934
 10
1089.1881752672
 20
1269.8727759535
 10
1090.4072839679
 20
1266.8523105795
 10
1091.2877339782
 20
1263.7272390539
 10
1091.8198991479
 20
1260.5317148382
 10
1091.9979382219
 20
1257.3008450682
 10
1091.8198991479
 20
1254.0699156935
 10
1091.2877339782
 20
1250.8743914778
 10
1090.4072839679
 20
1247.7493199522
 10
1089.1881752672
 20
1244.7288545782
 10
1087.6437742176
 20
1241.8461355383
 10
1085.790993637
 20
1239.1327532942
 10
1083.6501438083
 20
1236.6184505636
 10
1081.2446866097
 20
1234.3307050879
 10
1078.6009672942
 20
1232.294670027
 10
1075.7479462685
 20
1230.5325779135
 10
1072.7168861689
 20
1229.0637406523
 10
1069.5409942331
 20
1227.9043111021
 10
1066.255072123
 20
1227.0669254477
 10
1062.8951210441
 20
1226.5608224089
 10
1059.497939414
 20
1226.3914856131
 10
1056.1007652344
 20
1226.5608224089
 10
1052.7408141555
 20
1227.0669254477
 10
1049.4548920455
 20
1227.9043111021
 10
1046.2790001096
 20
1229.0637406523
 10
1043.24794001
 20
1230.5325779135
 10
1040.3949189844
 20
1232.294670027
 10
1037.7511996688
 20
1234.3307050879
 10
1035.3457350196
 20
1236.6184505636
 10
1033.2048926415
 20
1239.1327532942
 10
1031.3521195116
 20
1241.8461355383
 10
1029.8077184619
 20
1244.7288545782
 10
1028.5886097612
 20
1247.7493199522
 10
1027.7081448497
 20
1250.8743914778
 10
1027.17597968
 20
1254.0699156935
 10
1026.9979406061
 20
1257.3008450682
 10
1027.17597968
 20
1260.5317148382
 10
1027.7081448497
 20
1263.7272390539
 10
1028.5886097612
 20
1266.8523105795
 10
1029.8077184619
 20
1269.8727759535
 10
1031.3521195116
 20
1272.7554949934
 10
1033.2048926415
 20
1275.4688772375
 10
1035.3457350196
 20
1277.9831799681
 10
1037.7511996688
 20
1280.2709254439
 10
1040.3949189844
 20
1282.3070201094
 10
1043.24794001
 20
1284.0691122229
 10
1046.2790001096
 20
1285.5378898794
 10
1049.4548920455
 20
1286.6973790342
 10
1052.7408141555
 20
1287.5347050841
 10
1056.1007652344
 20
1288.0408081228
 10
1059.497939414
 20
1288.2101449186
  0
ARC
  5
188
330
1F
100
AcDbEntity
  8
0
  6
SLD-Solid
 62
     7
370
    15
100
AcDbCircle
 10
1061.2104204839
 20
1259.8844234446
 30
0.0
 40
27.08234241591625
100
AcDbArc
 50
12.3490378426
 51
53.6110777248
  0
ARC
  5
189
330
1F
100
AcDbEntity
  8
0
  6
SLD-Solid
 62
     7
370
    15
100
AcDbCircle
 10
1057.8637109155
 20
1259.8446528579
 30
0.0
 40
27.16081102869476
100
AcDbArc
 50
126.4720357439
 51
170.1534939891
  0
LWPOLYLINE
  5
18A
330
1F
100
AcDbEntity
  8
0
  6
SLD-Solid
 62
     7
370
    15
100
AcDbPolyline
 90
        3
 70
   128
 43
0.0
 10
1089.0008080663
 20
1252.1587523634
 10
1088.805632657
 20
1252.1971377546
 10
1088.6274892749
 20
1252.340367716
  0
LWPOLYLINE
  5
18B
330
1F
100
AcDbEntity
  8
0
  6
SLD-Solid
 62
     7
370
    15
100
AcDbPolyline
 90
        6
 70
   128
 43
0.0
 10
1088.3327443065
 20
1253.6902937109
 10
1088.3897263469
 20
1253.897002619
 10
1088.4636808099
 20
1254.0690216238
 10
1088.5516274633
 20
1254.1844758207
 10
1088.6469948949
 20
1254.2386564428
 10
1088.7122470798
 20
1254.2270335371
  0
ARC
  5
18C
330
1F
100
AcDbEntity
  8
0
  6
SLD-Solid
 62
     7
370
    15
100
AcDbCircle
 10
1089.6519767763
 20
1253.2711964689
 30
0.0
 40
1.3842025890629
100
AcDbArc
 50
162.375851449
 51
222.2576545687
  0
LINE
  5
18D
330
1F
100
AcDbEntity
  8
0
  6
SLD-Solid
 62
     7
370
    15
100
AcDbLine
 10
1088.888274497
 20
1255.2037748511
 30
0.0
 11
1089.0411306085
 21
1256.2874468977
 31
0.0
  0
LINE
  5
18E
330
1F
100
AcDbEntity
  8
0
  6
SLD-Solid
 62
     7
370
    15
100
AcDbLine
 10
1088.6126030149
 20
1254.9247655089
 30
0.0
 11
1088.6892992916
 21
1255.3868803198
 31
0.0
  0
LINE
  5
18F
330
1F
100
AcDbEntity
  8
0
  6
SLD-Solid
 62
     7
370
    15
100
AcDbLine
 10
1088.8116080226
 20
1254.7416600401
 30
0.0
 11
1088.6126030149
 21
1254.9247655089
 31
0.0
  0
LINE
  5
190
330
1F
100
AcDbEntity
  8
0
  6
SLD-Solid
 62
     7
370
    15
100
AcDbLine
 10
1088.7726116838
 20
1254.5209440405
 30
0.0
 11
1088.8116080226
 21
1254.7416600401
 31
0.0
  0
LINE
  5
191
330
1F
100
AcDbEntity
  8
0
  6
SLD-Solid
 62
     7
370
    15
100
AcDbLine
 10
1088.943274683
 20
1254.3641242201
 30
0.0
 11
1088.7726116838
 21
1254.5209440405
 31
0.0
  0
LINE
  5
192
330
1F
100
AcDbEntity
  8
0
  6
SLD-Solid
 62
     7
370
    15
100
AcDbLine
 10
1089.6063316526
 20
1254.0115627463
 30
0.0
 11
1088.9822412195
 21
1254.5848402197
 31
0.0
  0
LINE
  5
193
330
1F
100
AcDbEntity
  8
0
  6
SLD-Solid
 62
     7
370
    15
100
AcDbLine
 10
1089.6269548597
 20
1257.3455485518
 30
0.0
 11
1089.6540153684
 21
1257.8058752234
 31
0.0
  0
ARC
  5
194
330
1F
100
AcDbEntity
  8
0
  6
SLD-Solid
 62
     7
370
    15
100
AcDbCircle
 10
1089.1114954684
 20
1256.9339465821
 30
0.0
 40
0.6596321440528535
100
AcDbArc
 50
352.3278568103
 51
38.6078841785
  0
LWPOLYLINE
  5
195
330
1F
100
AcDbEntity
  8
0
  6
SLD-Solid
 62
     7
370
    15
100
AcDbPolyline
 90
        8
 70
   128
 43
0.0
 10
1089.6078962745
 20
1256.6136035139
 10
1089.6343011322
 20
1256.5974506552
 10
1089.6608550014
 20
1256.5944108183
 10
1089.6864402952
 20
1256.606212538
 10
1089.7099543275
 20
1256.6326173956
 10
1089.7302795114
 20
1256.6717180426
 10
1089.7465515794
 20
1256.7220243628
 10
1089.7652227344
 20
1256.8458828146
  0
LINE
  5
196
330
1F
100
AcDbEntity
  8
0
  6
SLD-Solid
 62
     7
370
    15
100
AcDbLine
 10
1088.8686049642
 20
1256.7094477827
 30
0.0
 11
1089.0000183048
 21
1258.428624552
 31
0.0
  0
LINE
  5
197
330
1F
100
AcDbEntity
  8
0
  6
SLD-Solid
 62
     7
370
    15
100
AcDbLine
 10
1089.039327568
 20
1256.5650257284
 30
0.0
 11
1088.8686049642
 21
1256.7094477827
 31
0.0
  0
LINE
  5
198
330
1F
100
AcDbEntity
  8
0
  6
SLD-Solid
 62
     7
370
    15
100
AcDbLine
 10
1089.2112124624
 20
1257.074347418
 30
0.0
 11
1089.1188103618
 21
1257.4497970755
 31
0.0
  0
ARC
  5
199
330
1F
100
AcDbEntity
  8
0
  6
SLD-Solid
 62
     7
370
    15
100
AcDbCircle
 10
1091.0947976661
 20
1257.2643387389
 30
0.0
 40
1.893142868813052
100
AcDbArc
 50
185.7597644417
 51
216.7269016133
  0
LINE
  5
19A
330
1F
100
AcDbEntity
  8
0
  6
SLD-Solid
 62
     7
370
    15
100
AcDbLine
 10
1089.6969903173
 20
1256.1013015921
 30
0.0
 11
1089.5774532022
 21
1256.1322364027
 31
0.0
  0
LWPOLYLINE
  5
19B
330
1F
100
AcDbEntity
  8
0
  6
SLD-Solid
 62
     7
370
    15
100
AcDbPolyline
 90
        3
 70
   128
 43
0.0
 10
1087.4269623222
 20
1270.1339635069
 10
1087.3750913801
 20
1270.105591696
 10
1087.2274059715
 20
1270.1460036452
  0
LWPOLYLINE
  5
19C
330
1F
100
AcDbEntity
  8
0
  6
SLD-Solid
 62
     7
370
    15
100
AcDbPolyline
 90
        6
 70
   128
 43
0.0
 10
1086.3971430721
 20
1271.1394938643
 10
1086.3096136512
 20
1271.3362487967
 10
1086.2465817394
 20
1271.5114864523
 10
1086.2189549865
 20
1271.6462525541
 10
1086.2269122066
 20
1271.7324408705
 10
1086.2686205568
 20
1271.7569383795
  0
ARC
  5
19D
330
1F
100
AcDbEntity
  8
0
  6
SLD-Solid
 62
     7
370
    15
100
AcDbCircle
 10
1088.2002143472
 20
1271.8026544301
 30
0.0
 40
1.92115797348994
100
AcDbArc
 50
200.1932688233
 51
239.5779517661
  0
LINE
  5
19E
330
1F
100
AcDbEntity
  8
0
  6
SLD-Solid
 62
     7
370
    15
100
AcDbLine
 10
1086.3417852582
 20
1272.3978671248
 30
0.0
 11
1085.8154613437
 21
1273.3113083059
 31
0.0
  0
LINE
  5
19F
330
1F
100
AcDbEntity
  8
0
  6
SLD-Solid
 62
     7
370
    15
100
AcDbLine
 10
1085.3520799341
 20
1273.1317195112
 30
0.0
 11
1085.2138269605
 21
1273.4571608717
 31
0.0
  0
LINE
  5
1A0
330
1F
100
AcDbEntity
  8
0
  6
SLD-Solid
 62
     7
370
    15
100
AcDbLine
 10
1086.6944510402
 20
1271.8465837652
 30
0.0
 11
1085.3520799341
 21
1273.1317195112
 31
0.0
  0
LINE
  5
1A1
330
1F
100
AcDbEntity
  8
0
  6
SLD-Solid
 62
     7
370
    15
100
AcDbLine
 10
1086.7800135078
 20
1271.8154701407
 30
0.0
 11
1086.6944659414
 21
1271.8465837652
 31
0.0
  0
LINE
  5
1A2
330
1F
100
AcDbEntity
  8
0
  6
SLD-Solid
 62
     7
370
    15
100
AcDbLine
 10
1084.8152357997
 20
1274.7283491308
 30
0.0
 11
1084.5456439914
 21
1275.117269438
 31
0.0
  0
ARC
  5
1A3
330
1F
100
AcDbEntity
  8
0
  6
SLD-Solid
 62
     7
370
    15
100
AcDbCircle
 10
1084.2935835502
 20
1273.8649929104
 30
0.0
 40
1.008714544748523
100
AcDbArc
 50
30.5056111854
 51
58.8590245726
  0
LWPOLYLINE
  5
1A4
330
1F
100
AcDbEntity
  8
0
  6
SLD-Solid
 62
     7
370
    15
100
AcDbPolyline
 90
        8
 70
   128
 43
0.0
 10
1085.2444935503
 20
1274.1184148009
 10
1085.2634478273
 20
1274.1164478476
 10
1085.2746833028
 20
1274.1253885443
 10
1085.2768439712
 20
1274.1461309607
 10
1085.2696914138
 20
1274.177781027
 10
1085.2538514795
 20
1274.2184313948
 10
1085.2295476856
 20
1274.2671879942
 10
1085.1626712741
 20
1274.3770393545
  0
LINE
  5
1A5
330
1F
100
AcDbEntity
  8
0
  6
SLD-Solid
 62
     7
370
    15
100
AcDbLine
 10
1084.9228519859
 20
1273.8781484778
 30
0.0
 11
1083.9434433641
 21
1275.3490719015
 31
0.0
  0
LINE
  5
1A6
330
1F
100
AcDbEntity
  8
0
  6
SLD-Solid
 62
     7
370
    15
100
AcDbLine
 10
1085.068734354
 20
1273.8327893431
 30
0.0
 11
1084.9228519859
 21
1273.8781484778
 31
0.0
  0
LINE
  5
1A7
330
1F
100
AcDbEntity
  8
0
  6
SLD-Solid
 62
     7
370
    15
100
AcDbLine
 10
1084.8314184608
 20
1274.3272098715
 30
0.0
 11
1084.5752525987
 21
1274.5969208891
 31
0.0
  0
ARC
  5
1A8
330
1F
100
AcDbEntity
  8
0
  6
SLD-Solid
 62
     7
370
    15
100
AcDbCircle
 10
1086.8299974115
 20
1275.8484190196
 30
0.0
 40
2.511651865651682
100
AcDbArc
 50
217.2764095496
 51
238.4600898874
  0
LINE
  5
1A9
330
1F
100
AcDbEntity
  8
0
  6
SLD-Solid
 62
     7
370
    15
100
AcDbLine
 10
1085.5775941076
 20
1273.7337860281
 30
0.0
 11
1085.5161715211
 21
1273.707798403
 31
0.0
  0
LINE
  5
1AA
330
1F
100
AcDbEntity
  8
0
  6
SLD-Solid
 62
     7
370
    15
100
AcDbLine
 10
1078.6874536337
 20
1236.9149240668
 30
0.0
 11
1078.5487610759
 21
1237.1590646918
 31
0.0
  0
LWPOLYLINE
  5
1AB
330
1F
100
AcDbEntity
  8
0
  6
SLD-Solid
 62
     7
370
    15
100
AcDbPolyline
 90
        6
 70
   128
 43
0.0
 10
1078.9119843306
 20
1238.4947451765
 10
1079.0929440321
 20
1238.6277827437
 10
1079.2764965357
 20
1238.7197527105
 10
1079.4424358668
 20
1238.7541445906
 10
1079.5932356181
 20
1238.7328061278
 10
1079.7092635097
 20
1238.6448892767
  0
ARC
  5
1AC
330
1F
100
AcDbEntity
  8
0
  6
SLD-Solid
 62
     7
370
    15
100
AcDbCircle
 10
1079.5219728085
 20
1237.6116382069
 30
0.0
 40
1.073295794744507
100
AcDbArc
 50
124.6340013403
 51
204.9398827043
  0
LINE
  5
1AD
330
1F
100
AcDbEntity
  8
0
  6
SLD-Solid
 62
     7
370
    15
100
AcDbLine
 10
1081.1329875054
 20
1238.7644561941
 30
0.0
 11
1081.5108884038
 21
1239.1342434103
 31
0.0
  0
LINE
  5
1AE
330
1F
100
AcDbEntity
  8
0
  6
SLD-Solid
 62
     7
370
    15
100
AcDbLine
 10
1080.2119392814
 20
1239.5902785475
 30
0.0
 11
1080.5637631478
 21
1239.9251970465
 31
0.0
  0
LINE
  5
1AF
330
1F
100
AcDbEntity
  8
0
  6
SLD-Solid
 62
     7
370
    15
100
AcDbLine
 10
1080.905036992
 20
1238.1768140013
 30
0.0
 11
1080.2119392814
 21
1239.5902785475
 31
0.0
  0
LINE
  5
1B0
330
1F
100
AcDbEntity
  8
0
  6
SLD-Solid
 62
     7
370
    15
100
AcDbLine
 10
1082.602651781
 20
1240.6101140196
 30
0.0
 11
1082.9149652185
 21
1240.965774935
 31
0.0
  0
ARC
  5
1B1
330
1F
100
AcDbEntity
  8
0
  6
SLD-Solid
 62
     7
370
    15
100
AcDbCircle
 10
1082.1425731766
 20
1240.453620482
 30
0.0
 40
0.4859655847921158
100
AcDbArc
 50
313.8724963931
 51
18.7854911433
  0
LWPOLYLINE
  5
1B2
330
1F
100
AcDbEntity
  8
0
  6
SLD-Solid
 62
     7
370
    15
100
AcDbPolyline
 90
        8
 70
   128
 43
0.0
 10
1082.1433085861
 20
1240.0255712683
 10
1082.1670461359
 20
1239.9934443648
 10
1082.1986365976
 20
1239.9718078787
 10
1082.2376329364
 20
1239.9632844145
 10
1082.2831261816
 20
1239.9680527861
 10
1082.3320466938
 20
1239.9854573424
 10
1082.3821742
 20
1240.0150808508
 10
1082.4793744745
 20
1240.1032957251
  0
LINE
  5
1B3
330
1F
100
AcDbEntity
  8
0
  6
SLD-Solid
 62
     7
370
    15
100
AcDbLine
 10
1081.2699887814
 20
1240.6299027617
 30
0.0
 11
1082.4595261278
 21
1241.9425758536
 31
0.0
  0
LINE
  5
1B4
330
1F
100
AcDbEntity
  8
0
  6
SLD-Solid
 62
     7
370
    15
100
AcDbLine
 10
1081.400105721
 20
1240.3897556479
 30
0.0
 11
1081.2699887814
 21
1240.6299027617
 31
0.0
  0
LINE
  5
1B5
330
1F
100
AcDbEntity
  8
0
  6
SLD-Solid
 62
     7
370
    15
100
AcDbLine
 10
1081.914873785
 20
1240.6856331045
 30
0.0
 11
1082.0211190643
 21
1241.0591158087
 31
0.0
  0
ARC
  5
1B6
330
1F
100
AcDbEntity
  8
0
  6
SLD-Solid
 62
     7
370
    15
100
AcDbCircle
 10
1083.2347048015
 20
1240.0481557011
 30
0.0
 40
1.465718715156549
100
AcDbArc
 50
154.2194917962
 51
195.689484352
  0
LINE
  5
1B7
330
1F
100
AcDbEntity
  8
0
  6
SLD-Solid
 62
     7
370
    15
100
AcDbLine
 10
1081.9555912079
 20
1239.5415815527
 30
0.0
 11
1081.8235967221
 21
1239.6517905409
 31
0.0
  0
ARC
  5
1B8
330
1F
100
AcDbEntity
  8
0
  6
SLD-Solid
 62
     7
370
    15
100
AcDbCircle
 10
1062.2241896855
 20
1230.9318666188
 30
0.0
 40
0.7604109918507678
100
AcDbArc
 50
7.9616120202
 51
104.7873194579
  0
ARC
  5
1B9
330
1F
100
AcDbEntity
  8
0
  6
SLD-Solid
 62
     7
370
    15
100
AcDbCircle
 10
1061.9993375776
 20
1230.8205869235
 30
0.0
 40
0.8470648884111004
100
AcDbArc
 50
87.918176235
 51
186.8946305722
  0
ARC
  5
1BA
330
1F
100
AcDbEntity
  8
0
  6
SLD-Solid
 62
     7
370
    15
100
AcDbCircle
 10
1063.8379890152
 20
1230.5148049425
 30
0.0
 40
0.4125095125026003
100
AcDbArc
 50
118.9119881917
 51
181.5965218175
  0
ARC
  5
1BB
330
1F
100
AcDbEntity
  8
0
  6
SLD-Solid
 62
     7
370
    15
100
AcDbCircle
 10
1064.613166359
 20
1230.6762897647
 30
0.0
 40
0.3780343562063629
100
AcDbArc
 50
8.6868770485
 51
73.5232804358
  0
LWPOLYLINE
  5
1BC
330
1F
100
AcDbEntity
  8
0
  6
SLD-Solid
 62
     7
370
    15
100
AcDbPolyline
 90
        7
 70
   128
 43
0.0
 10
1064.0801358881
 20
1231.9039019758
 10
1064.4234958949
 20
1231.9334658796
 10
1064.5921323361
 20
1231.9210681135
 10
1064.7363383235
 20
1231.8841728384
 10
1064.8588109674
 20
1231.8215879614
 10
1064.9517048063
 20
1231.7395719702
 10
1065.0368425908
 20
1231.5348300154
  0
LWPOLYLINE
  5
1BD
330
1F
100
AcDbEntity
  8
0
  6
SLD-Solid
 62
     7
370
    15
100
AcDbPolyline
 90
        7
 70
   128
 43
0.0
 10
1063.2262844505
 20
1231.2628540213
 10
1063.2753837766
 20
1231.484046858
 10
1063.3513871493
 20
1231.590441149
 10
1063.4570512833
 20
1231.6864046271
 10
1063.5891798796
 20
1231.7662152464
 10
1063.7459028425
 20
1231.8290981466
 10
1064.0801358881
 20
1231.9039019758
  0
LINE
  5
1BE
330
1F
100
AcDbEntity
  8
0
  6
SLD-Solid
 62
     7
370
    15
100
AcDbLine
 10
1066.4384830656
 20
1230.9102329428
 30
0.0
 11
1066.9624823989
 21
1231.0299786741
 31
0.0
  0
LINE
  5
1BF
330
1F
100
AcDbEntity
  8
0
  6
SLD-Solid
 62
     7
370
    15
100
AcDbLine
 10
1065.7789353194
 20
1232.1640166456
 30
0.0
 11
1066.2615094246
 21
1232.2680863554
 31
0.0
  0
LINE
  5
1C0
330
1F
100
AcDbEntity
  8
0
  6
SLD-Solid
 62
     7
370
    15
100
AcDbLine
 10
1065.9941825928
 20
1230.5104645903
 30
0.0
 11
1065.7789353194
 21
1232.1640166456
 31
0.0
  0
LWPOLYLINE
  5
1C1
330
1F
100
AcDbEntity
  8
0
  6
SLD-Solid
 62
     7
370
    15
100
AcDbPolyline
 90
        3
 70
   128
 43
0.0
 10
1044.4689709606
 20
1234.5257910902
 10
1044.3292949261
 20
1234.2247280295
 10
1044.3104747595
 20
1234.2092904265
  0
ARC
  5
1C2
330
1F
100
AcDbEntity
  8
0
  6
SLD-Solid
 62
     7
370
    15
100
AcDbCircle
 10
1043.5091592978
 20
1234.8603090821
 30
0.0
 40
1.016435297888065
100
AcDbArc
 50
340.7852964016
 51
65.3883587723
  0
LWPOLYLINE
  5
1C3
330
1F
100
AcDbEntity
  8
0
  6
SLD-Solid
 62
     7
370
    15
100
AcDbPolyline
 90
        6
 70
   128
 43
0.0
 10
1043.0037695827
 20
1235.6997045691
 10
1043.2019028725
 20
1235.8971151526
 10
1043.3494914236
 20
1235.9484943564
 10
1043.5272250237
 20
1235.9472426588
 10
1043.7287632288
 20
1235.8875188048
 10
1043.9324695529
 20
1235.7844027693
  0
LINE
  5
1C4
330
1F
100
AcDbEntity
  8
0
  6
SLD-Solid
 62
     7
370
    15
100
AcDbLine
 10
1045.8297375502
 20
1233.9725407774
 30
0.0
 11
1046.1774784984
 21
1233.7425860579
 31
0.0
  0
ARC
  5
1C5
330
1F
100
AcDbEntity
  8
0
  6
SLD-Solid
 62
     7
370
    15
100
AcDbCircle
 10
1045.7324445878
 20
1234.4337319914
 30
0.0
 40
0.4713419739407016
100
AcDbArc
 50
243.2822174125
 51
281.9124572623
  0
ARC
  5
1C6
330
1F
100
AcDbEntity
  8
0
  6
SLD-Solid
 62
     7
370
    15
100
AcDbCircle
 10
1045.666484703
 20
1234.3879166232
 30
0.0
 40
0.4025906845969925
100
AcDbArc
 50
174.4507928496
 51
248.7439651343
  0
ARC
  5
1C7
330
1F
100
AcDbEntity
  8
0
  6
SLD-Solid
 62
     7
370
    15
100
AcDbCircle
 10
1045.3956386614
 20
1233.7779209817
 30
0.0
 40
1.072095514151586
100
AcDbArc
 50
10.1352567396
 51
69.116524213
  0
ARC
  5
1C8
330
1F
100
AcDbEntity
  8
0
  6
SLD-Solid
 62
     7
370
    15
100
AcDbCircle
 10
1045.3335734785
 20
1234.15201401
 30
0.0
 40
0.76889018754895
100
AcDbArc
 50
54.7068961825
 51
120.0767285516
  0
LINE
  5
1C9
330
1F
100
AcDbEntity
  8
0
  6
SLD-Solid
 62
     7
370
    15
100
AcDbLine
 10
1045.3928057017
 20
1233.4427746947
 30
0.0
 11
1045.5691981973
 21
1233.6828622038
 31
0.0
  0
LINE
  5
1CA
330
1F
100
AcDbEntity
  8
0
  6
SLD-Solid
 62
     7
370
    15
100
AcDbLine
 10
1044.6394625964
 20
1233.827641886
 30
0.0
 11
1045.3928057017
 21
1233.4427746947
 31
0.0
  0
LINE
  5
1CB
330
1F
100
AcDbEntity
  8
0
  6
SLD-Solid
 62
     7
370
    15
100
AcDbLine
 10
1047.4220011296
 20
1232.5172337706
 30
0.0
 11
1047.9219946923
 21
1232.3151144201
 31
0.0
  0
LINE
  5
1CC
330
1F
100
AcDbEntity
  8
0
  6
SLD-Solid
 62
     7
370
    15
100
AcDbLine
 10
1047.7403644385
 20
1233.8413509543
 30
0.0
 11
1047.4220011296
 21
1232.5172337706
 31
0.0
  0
LINE
  5
1CD
330
1F
100
AcDbEntity
  8
0
  6
SLD-Solid
 62
     7
370
    15
100
AcDbLine
 10
1047.2841132345
 20
1234.0326222593
 30
0.0
 11
1047.7403644385
 21
1233.8413509543
 31
0.0
  0
LWPOLYLINE
  5
1CE
330
1F
100
AcDbEntity
  8
0
  6
SLD-Solid
 62
     7
370
    15
100
AcDbPolyline
 90
        3
 70
   128
 43
0.0
 10
1032.0011768403
 20
1247.8010567839
 10
1031.7978653969
 20
1247.609249037
 10
1031.6797587933
 20
1247.5850495512
  0
ARC
  5
1CF
330
1F
100
AcDbEntity
  8
0
  6
SLD-Solid
 62
     7
370
    15
100
AcDbCircle
 10
1030.9675049183
 20
1248.5815467612
 30
0.0
 40
1.295238297353518
100
AcDbArc
 50
322.9448062385
 51
27.954328964
  0
ARC
  5
1D0
330
1F
100
AcDbEntity
  8
0
  6
SLD-Solid
 62
     7
370
    15
100
AcDbCircle
 10
1031.4939943842
 20
1249.0638671916
 30
0.0
 40
0.6301141164903167
100
AcDbArc
 50
11.4277036121
 51
72.9615457854
  0
LINE
  5
1D1
330
1F
100
AcDbEntity
  8
0
  6
SLD-Solid
 62
     7
370
    15
100
AcDbLine
 10
1032.5028020801
 20
1246.2375673468
 30
0.0
 11
1032.7234510245
 21
1245.8221229727
 31
0.0
  0
LWPOLYLINE
  5
1D2
330
1F
100
AcDbEntity
  8
0
  6
SLD-Solid
 62
     7
370
    15
100
AcDbPolyline
 90
        7
 70
   128
 43
0.0
 10
1032.1845430793
 20
1246.3686379606
 10
1032.2226826014
 20
1246.3030728514
 10
1032.2658512654
 20
1246.2481173689
 10
1032.3102492752
 20
1246.2099107916
 10
1032.3559660377
 20
1246.1869033987
 10
1032.4376169505
 20
1246.1873802359
 10
1032.5028020801
 20
1246.2375673468
  0
ARC
  5
1D3
330
1F
100
AcDbEntity
  8
0
  6
SLD-Solid
 62
     7
370
    15
100
AcDbCircle
 10
1032.5917998777
 20
1246.6357035388
 30
0.0
 40
0.4870134729932873
100
AcDbArc
 50
156.1760601481
 51
213.2555412365
  0
LINE
  5
1D4
330
1F
100
AcDbEntity
  8
0
  6
SLD-Solid
 62
     7
370
    15
100
AcDbLine
 10
1032.2473440232
 20
1246.8906554396
 30
0.0
 11
1032.146284348
 21
1246.8324217016
 31
0.0
  0
LINE
  5
1D5
330
1F
100
AcDbEntity
  8
0
  6
SLD-Solid
 62
     7
370
    15
100
AcDbLine
 10
1033.3527196111
 20
1246.5473326857
 30
0.0
 11
1033.2724843087
 21
1246.4414748366
 31
0.0
  0
LINE
  5
1D6
330
1F
100
AcDbEntity
  8
0
  6
SLD-Solid
 62
     7
370
    15
100
AcDbLine
 10
1032.5569528999
 20
1248.1066497976
 30
0.0
 11
1033.3527196111
 21
1246.5473326857
 31
0.0
  0
LINE
  5
1D7
330
1F
100
AcDbEntity
  8
0
  6
SLD-Solid
 62
     7
370
    15
100
AcDbLine
 10
1032.5683150353
 20
1247.21275894
 30
0.0
 11
1032.8002963128
 21
1247.0973643477
 31
0.0
  0
LWPOLYLINE
  5
1D8
330
1F
100
AcDbEntity
  8
0
  6
SLD-Solid
 62
     7
370
    15
100
AcDbPolyline
 90
        3
 70
   128
 43
0.0
 10
1032.0573467674
 20
1247.3371538336
 10
1032.2175118985
 20
1247.3457965071
 10
1032.5683150353
 20
1247.21275894
  0
LINE
  5
1D9
330
1F
100
AcDbEntity
  8
0
  6
SLD-Solid
 62
     7
370
    15
100
AcDbLine
 10
1032.7234510245
 20
1245.8221229727
 30
0.0
 11
1032.5898472132
 21
1245.7324179823
 31
0.0
  0
LINE
  5
1DA
330
1F
100
AcDbEntity
  8
0
  6
SLD-Solid
 62
     7
370
    15
100
AcDbLine
 10
1033.2844052376
 20
1244.4751176054
 30
0.0
 11
1033.559875554
 21
1244.030705374
 31
0.0
  0
LINE
  5
1DB
330
1F
100
AcDbEntity
  8
0
  6
SLD-Solid
 62
     7
370
    15
100
AcDbLine
 10
1033.9805129828
 20
1245.4739722426
 30
0.0
 11
1033.2844052376
 21
1244.4751176054
 31
0.0
  0
LINE
  5
1DC
330
1F
100
AcDbEntity
  8
0
  6
SLD-Solid
 62
     7
370
    15
100
AcDbLine
 10
1033.7340924801
 20
1245.8843502218
 30
0.0
 11
1033.9805129828
 21
1245.4739722426
 31
0.0
  0
LINE
  5
1DD
330
1F
100
AcDbEntity
  8
0
  6
SLD-Solid
 62
     7
370
    15
100
AcDbLine
 10
1076.572204
 20
1283.0889734442
 30
0.0
 11
1073.9533323707
 21
1284.5590027983
 31
0.0
  0
LINE
  5
1DE
330
1F
100
AcDbEntity
  8
0
  6
SLD-Solid
 62
     7
370
    15
100
AcDbLine
 10
1077.2937331261
 20
1282.4970993216
 30
0.0
 11
1076.3682518067
 21
1283.0706748182
 31
0.0
  0
LINE
  5
1DF
330
1F
100
AcDbEntity
  8
0
  6
SLD-Solid
 62
     7
370
    15
100
AcDbLine
 10
1077.3900616827
 20
1282.5063976462
 30
0.0
 11
1077.2937331261
 21
1282.4970993216
 31
0.0
  0
LINE
  5
1E0
330
1F
100
AcDbEntity
  8
0
  6
SLD-Solid
 62
     7
370
    15
100
AcDbLine
 10
1077.4418357672
 20
1282.5461539442
 30
0.0
 11
1077.3900616827
 21
1282.5063976462
 31
0.0
  0
LWPOLYLINE
  5
1E1
330
1F
100
AcDbEntity
  8
0
  6
SLD-Solid
 62
     7
370
    15
100
AcDbPolyline
 90
        7
 70
   128
 43
0.0
 10
1073.2839275064
 20
1284.421792906
 10
1072.8487465443
 20
1284.6422108824
 10
1072.649041182
 20
1284.7463401968
 10
1072.4874827923
 20
1284.8372968847
 10
1072.399215764
 20
1284.9003585989
 10
1072.3744798364
 20
1284.9370154555
 10
1072.3830182018
 20
1284.9414858038
  0
LINE
  5
1E2
330
1F
100
AcDbEntity
  8
0
  6
SLD-Solid
 62
     7
370
    15
100
AcDbLine
 10
1075.5868572654
 20
1283.133140486
 30
0.0
 11
1073.2839275064
 21
1284.421792906
 31
0.0
  0
ARC
  5
1E3
330
1F
100
AcDbEntity
  8
0
  6
SLD-Solid
 62
     7
370
    15
100
AcDbCircle
 10
1078.0296244083
 20
1286.2670568614
 30
0.0
 40
3.973479981402306
100
AcDbArc
 50
232.0649572178
 51
253.3754721608
  0
LINE
  5
1E4
330
1F
100
AcDbEntity
  8
0
  6
SLD-Solid
 62
     7
370
    15
100
AcDbLine
 10
1077.0155358972
 20
1282.4714693243
 30
0.0
 11
1076.8928173842
 21
1282.4596676047
 31
0.0
  0
LINE
  5
1E5
330
1F
100
AcDbEntity
  8
0
  6
SLD-Solid
 62
     7
370
    15
100
AcDbLine
 10
1073.9533323707
 20
1284.5590027983
 30
0.0
 11
1073.3071658673
 21
1284.5007690603
 31
0.0
  0
ARC
  5
1E6
330
1F
100
AcDbEntity
  8
0
  6
SLD-Solid
 62
     7
370
    15
100
AcDbCircle
 10
1060.3353119199
 20
1302.1630356766
 30
0.0
 40
14.47435490411713
100
AcDbArc
 50
266.6834643877
 51
276.5863619223
  0
ARC
  5
1E7
330
1F
100
AcDbEntity
  8
0
  6
SLD-Solid
 62
     7
370
    15
100
AcDbCircle
 10
1058.6602975424
 20
1302.2208563466
 30
0.0
 40
14.53209464287896
100
AcDbArc
 50
263.4521685499
 51
273.3044073142
  0
LWPOLYLINE
  5
1E8
330
1F
100
AcDbEntity
  8
0
  6
SLD-Solid
 62
     7
370
    15
100
AcDbPolyline
 90
        5
 70
   128
 43
0.0
 10
1089.5281452598
 20
1266.1832484419
 10
1089.6535385313
 20
1265.938750189
 10
1089.7814650001
 20
1265.7604130919
 10
1089.8935217323
 20
1265.6758341009
 10
1089.9728555145
 20
1265.6979474241
  0
ARC
  5
1E9
330
1F
100
AcDbEntity
  8
0
  6
SLD-Solid
 62
     7
370
    15
100
AcDbCircle
 10
1090.6724768015
 20
1266.854769154
 30
0.0
 40
1.326813756343144
100
AcDbArc
 50
171.7199031341
 51
210.4054149684
  0
ARC
  5
1EA
330
1F
100
AcDbEntity
  8
0
  6
SLD-Solid
 62
     7
370
    15
100
AcDbCircle
 10
1091.358301863
 20
1260.0441939773
 30
0.0
 40
0.7621040199267123
100
AcDbArc
 50
186.2625642924
 51
233.0328983678
  0
LWPOLYLINE
  5
1EB
330
1F
100
AcDbEntity
  8
0
  6
SLD-Solid
 62
     7
370
    15
100
AcDbPolyline
 90
        6
 70
   128
 43
0.0
 10
1090.7087642612
 20
1260.9041246588
 10
1090.6162727537
 20
1260.8781966383
 10
1090.553717679
 20
1260.7446226294
 10
1090.5293542804
 20
1260.5235490019
 10
1090.5458945694
 20
1260.2484139616
 10
1090.6007457437
 20
1259.9610599692
  0
LWPOLYLINE
  5
1EC
330
1F
100
AcDbEntity
  8
0
  6
SLD-Solid
 62
     7
370
    15
100
AcDbPolyline
 90
        5
 70
   128
 43
0.0
 10
1087.008269495
 20
1271.8840750868
 10
1087.3340982856
 20
1271.4330467398
 10
1087.636144823
 20
1271.0974129851
 10
1087.8719556989
 20
1270.9346327002
 10
1087.9625249567
 20
1270.9574612791
  0
ARC
  5
1ED
330
1F
100
AcDbEntity
  8
0
  6
SLD-Solid
 62
     7
370
    15
100
AcDbCircle
 10
1088.6142138081
 20
1273.4672646372
 30
0.0
 40
2.255115582305538
100
AcDbArc
 50
180.8624898989
 51
224.5911962926
  0
LWPOLYLINE
  5
1EE
330
1F
100
AcDbEntity
  8
0
  6
SLD-Solid
 62
     7
370
    15
100
AcDbPolyline
 90
        6
 70
   128
 43
0.0
 10
1032.0581737818
 20
1244.799366873
 10
1031.9340098562
 20
1245.3582796271
 10
1031.7119304003
 20
1245.8937677557
 10
1031.4242262306
 20
1246.3235768492
 10
1031.1138275923
 20
1246.5820821936
 10
1030.8230388822
 20
1246.630004328
  0
LWPOLYLINE
  5
1EF
330
1F
100
AcDbEntity
  8
0
  6
SLD-Solid
 62
     7
370
    15
100
AcDbPolyline
 90
        5
 70
   128
 43
0.0
 10
1031.7286867561
 20
1243.7881740744
 10
1031.9299716415
 20
1243.9365300352
 10
1032.0568177762
 20
1244.3019065077
 10
1032.0741925301
 20
1244.5402058775
 10
1032.0581737818
 20
1244.799366873
  0
LWPOLYLINE
  5
1F0
330
1F
100
AcDbEntity
  8
0
  6
SLD-Solid
 62
     7
370
    15
100
AcDbPolyline
 90
        7
 70
   128
 43
0.0
 10
1046.0773575964
 20
1231.737426203
 10
1045.7781571807
 20
1232.1608575995
 10
1045.3377980651
 20
1232.5310620482
 10
1044.8209810915
 20
1232.7923688109
 10
1044.3081874313
 20
1232.9059156592
 10
1043.8747275533
 20
1232.852748316
 10
1043.5858238401
 20
1232.6354297812
  0
ARC
  5
1F1
330
1F
100
AcDbEntity
  8
0
  6
SLD-Solid
 62
     7
370
    15
100
AcDbCircle
 10
1045.4231700853
 20
1231.3623518645
 30
0.0
 40
0.7540835888713597
100
AcDbArc
 50
332.1598436778
 51
29.8275349995
  0
LWPOLYLINE
  5
1F2
330
1F
100
AcDbEntity
  8
0
  6
SLD-Solid
 62
     7
370
    15
100
AcDbPolyline
 90
        4
 70
   128
 43
0.0
 10
1035.1415295066
 20
1239.0679630453
 10
1035.2688375773
 20
1239.1597541983
 10
1035.3254694404
 20
1239.3384489233
 10
1035.3030804457
 20
1239.5769271071
  0
ARC
  5
1F3
330
1F
100
AcDbEntity
  8
0
  6
SLD-Solid
 62
     7
370
    15
100
AcDbCircle
 10
1089.015365185
 20
1247.4482773515
 30
0.0
 40
0.4811089823009986
100
AcDbArc
 50
165.2236174295
 51
236.5835933057
  0
LWPOLYLINE
  5
1F4
330
1F
100
AcDbEntity
  8
0
  6
SLD-Solid
 62
     7
370
    15
100
AcDbPolyline
 90
        6
 70
   128
 43
0.0
 10
1089.0731830062
 20
1248.5087427313
 10
1088.9431256713
 20
1248.4841856177
 10
1088.8029355468
 20
1248.350730818
 10
1088.6793006124
 20
1248.1303128416
 10
1088.590430087
 20
1247.8564891035
 10
1088.5501671495
 20
1247.5709828551
  0
LWPOLYLINE
  5
1F5
330
1F
100
AcDbEntity
  8
0
  6
SLD-Solid
 62
     7
370
    15
100
AcDbPolyline
 90
        4
 70
   128
 43
0.0
 10
1085.5203289451
 20
1241.960457247
 10
1085.5085421266
 20
1241.7161378081
 10
1085.56838519
 20
1241.5357145483
 10
1085.6911111536
 20
1241.4464863951
  0
LWPOLYLINE
  5
1F6
330
1F
100
AcDbEntity
  8
0
  6
SLD-Solid
 62
     7
370
    15
100
AcDbPolyline
 90
        7
 70
   128
 43
0.0
 10
1086.2745065155
 20
1242.8147706206
 10
1086.2488914194
 20
1242.8335460837
 10
1086.0870350065
 20
1242.8156646902
 10
1085.9076846303
 20
1242.6947864706
 10
1085.7371408405
 20
1242.4897464926
 10
1085.6009591283
 20
1242.2319564039
 10
1085.5203289451
 20
1241.960457247
  0
LWPOLYLINE
  5
1F7
330
1F
100
AcDbEntity
  8
0
  6
SLD-Solid
 62
     7
370
    15
100
AcDbPolyline
 90
        7
 70
   128
 43
0.0
 10
1039.8890022101
 20
1235.1985487158
 10
1039.7629011335
 20
1235.4387554342
 10
1039.5707506599
 20
1235.6586965735
 10
1039.3423084082
 20
1235.8252915556
 10
1039.11224193
 20
1235.9130295927
 10
1038.9149133029
 20
1235.9079631979
 10
1038.7795213522
 20
1235.8100327665
  0
LWPOLYLINE
  5
1F8
330
1F
100
AcDbEntity
  8
0
  6
SLD-Solid
 62
     7
370
    15
100
AcDbPolyline
 90
        4
 70
   128
 43
0.0
 10
1039.8380327882
 20
1234.7702893431
 10
1039.8762691679
 20
1234.7980651076
 10
1039.9290416302
 20
1234.9737796004
 10
1039.8890022101
 20
1235.1985487158
  0
LWPOLYLINE
  5
1F9
330
1F
100
AcDbEntity
  8
0
  6
SLD-Solid
 62
     7
370
    15
100
AcDbPolyline
 90
        3
 70
   128
 43
0.0
 10
1076.1296171608
 20
1233.1563147719
 10
1076.0823134245
 20
1232.9397114927
 10
1076.1343259277
 20
1232.764831465
  0
LWPOLYLINE
  5
1FA
330
1F
100
AcDbEntity
  8
0
  6
SLD-Solid
 62
     7
370
    15
100
AcDbPolyline
 90
        7
 70
   128
 43
0.0
 10
1077.2975031199
 20
1233.6980613882
 10
1077.1790165367
 20
1233.7852033789
 10
1076.9696701231
 20
1233.8026675398
 10
1076.7234209837
 20
1233.7318572218
 10
1076.4772239985
 20
1233.5842165167
 10
1076.2685406866
 20
1233.3823355848
 10
1076.1296171608
 20
1233.1563147719
  0
LWPOLYLINE
  5
1FB
330
1F
100
AcDbEntity
  8
0
  6
SLD-Solid
 62
     7
370
    15
100
AcDbPolyline
 90
        3
 70
   128
 43
0.0
 10
1070.1917055907
 20
1230.3565653975
 10
1070.1357368292
 20
1230.1542672331
 10
1070.1880771579
 20
1229.9786719496
  0
LWPOLYLINE
  5
1FC
330
1F
100
AcDbEntity
  8
0
  6
SLD-Solid
 62
     7
370
    15
100
AcDbPolyline
 90
        8
 70
   128
 43
0.0
 10
1071.5077016415
 20
1230.664542597
 10
1071.4964214625
 20
1230.7024511511
 10
1071.3454279961
 20
1230.8209451849
 10
1071.1181927385
 20
1230.8655890639
 10
1070.8488393487
 20
1230.8304223234
 10
1070.5780777993
 20
1230.7215246374
 10
1070.3471917572
 20
1230.5554064924
 10
1070.1917055907
 20
1230.3565653975
  0
ARC
  5
1FD
330
1F
100
AcDbEntity
  8
0
  6
SLD-Solid
 62
     7
370
    15
100
AcDbCircle
 10
1091.1397911615
 20
1253.3343775649
 30
0.0
 40
1.169412730970019
100
AcDbArc
 50
174.5004774023
 51
234.090608547
  0
LWPOLYLINE
  5
1FE
330
1F
100
AcDbEntity
  8
0
  6
SLD-Solid
 62
     7
370
    15
100
AcDbPolyline
 90
        7
 70
   128
 43
0.0
 10
1090.5407387676
 20
1255.3540977652
 10
1090.3832334938
 20
1255.3147586996
 10
1090.1882816019
 20
1255.0401004965
 10
1090.0441426696
 20
1254.5887145216
 10
1089.9699646892
 20
1254.0286692793
 10
1089.961903161
 20
1253.7321361715
 10
1089.9757612409
 20
1253.4464511091
  0
LWPOLYLINE
  5
1FF
330
1F
100
AcDbEntity
  8
0
  6
SLD-Solid
 62
     7
370
    15
100
AcDbPolyline
 90
        4
 70
   128
 43
0.0
 10
1080.7765591802
 20
1236.9592699225
 10
1080.7094145479
 20
1236.5003141577
 10
1080.8151084842
 20
1236.1460837538
 10
1080.9187237086
 20
1236.0715779478
  0
LWPOLYLINE
  5
200
330
1F
100
AcDbEntity
  8
0
  6
SLD-Solid
 62
     7
370
    15
100
AcDbPolyline
 90
        8
 70
   128
 43
0.0
 10
1082.7069301071
 20
1238.4070071394
 10
1082.5838912191
 20
1238.495341223
 10
1082.2148192586
 20
1238.4860428984
 10
1081.7877072753
 20
1238.2838043387
 10
1081.3645440998
 20
1237.922659796
 10
1081.0095164837
 20
1237.4576243574
 10
1080.8729994955
 20
1237.2059735472
 10
1080.7765591802
 20
1236.9592699225
  0
LWPOLYLINE
  5
201
330
1F
100
AcDbEntity
  8
0
  6
SLD-Solid
 62
     7
370
    15
100
AcDbPolyline
 90
        9
 70
   128
 43
0.0
 10
1065.8853966655
 20
1229.0271434004
 10
1065.8250469627
 20
1229.2292031462
 10
1065.5103269877
 20
1229.5001062567
 10
1065.0350395503
 20
1229.6495947058
 10
1064.4697938027
 20
1229.6577605421
 10
1063.9006365003
 20
1229.5263323004
 10
1063.415097064
 20
1229.2732509787
 10
1063.2244441571
 20
1229.1113647635
 10
1063.0851257505
 20
1228.9354714567
  0
LWPOLYLINE
  5
202
330
1F
100
AcDbEntity
  8
0
  6
SLD-Solid
 62
     7
370
    15
100
AcDbPolyline
 90
        7
 70
   128
 43
0.0
 10
1052.162813014
 20
1229.3749365027
 10
1052.0019102754
 20
1229.559293669
 10
1051.7634246411
 20
1229.7055038626
 10
1051.4839384617
 20
1229.7921690161
 10
1051.2060690584
 20
1229.8062953169
 10
1050.9719494643
 20
1229.745200556
 10
1050.8168879809
 20
1229.6170505697
  0
LWPOLYLINE
  5
203
330
1F
100
AcDbEntity
  8
0
  6
SLD-Solid
 62
     7
370
    15
100
AcDbPolyline
 90
        3
 70
   128
 43
0.0
 10
1052.1683636965
 20
1229.0022882635
 10
1052.2213224234
 20
1229.1795524771
 10
1052.162813014
 20
1229.3749365027
  0
LWPOLYLINE
  5
204
330
1F
100
AcDbEntity
  8
0
  6
SLD-Solid
 62
     7
370
    15
100
AcDbPolyline
 90
        9
 70
   128
 43
0.0
 10
1058.2382175984
 20
1228.5380276854
 10
1058.0730233254
 20
1228.6977085287
 10
1057.8281376423
 20
1228.8087519819
 10
1057.5409252109
 20
1228.8551840002
 10
1057.2551358404
 20
1228.8303288634
 10
1057.0142734708
 20
1228.7374052221
 10
1056.8549130024
 20
1228.5896453077
 10
1056.8012315692
 20
1228.4085067923
 10
1056.8254236044
 20
1228.3331665213
  0
LWPOLYLINE
  5
205
330
1F
100
AcDbEntity
  8
0
  6
SLD-Solid
 62
     7
370
    15
100
AcDbPolyline
 90
        3
 70
   128
 43
0.0
 10
1058.2606661977
 20
1228.2244476492
 10
1058.2985151472
 20
1228.3529552633
 10
1058.2382175984
 20
1228.5380276854
  0
ARC
  5
206
330
1F
100
AcDbEntity
  8
0
  6
SLD-Solid
 62
     7
370
    15
100
AcDbCircle
 10
1072.3270499175
 20
1287.5877325527
 30
0.0
 40
2.106258431937631
100
AcDbArc
 50
242.6344968681
 51
265.3064514746
  0
LWPOLYLINE
  5
207
330
1F
100
AcDbEntity
  8
0
  6
SLD-Solid
 62
     7
370
    15
100
AcDbPolyline
 90
        8
 70
   128
 43
0.0
 10
1070.5693755211
 20
1286.0824379141
 10
1070.5648232164
 20
1286.0818418677
 10
1070.5810505809
 20
1286.0614570791
 10
1070.6298220815
 20
1286.0301646406
 10
1070.8083677949
 20
1285.9422477896
 10
1071.0634756746
 20
1285.8328732664
 10
1071.2082181038
 20
1285.7749971564
 10
1071.3588762941
 20
1285.7171806509
  0
ARC
  5
208
330
1F
100
AcDbEntity
  8
0
  6
SLD-Solid
 62
     7
370
    15
100
AcDbCircle
 10
1061.9732197692
 20
1230.6916501906
 30
0.0
 40
0.8145439093247011
100
AcDbArc
 50
178.6196051478
 51
281.3868282024
  0
ARC
  5
209
330
1F
100
AcDbEntity
  8
0
  6
SLD-Solid
 62
     7
370
    15
100
AcDbCircle
 10
1061.9998664782
 20
1230.8128999246
 30
0.0
 40
0.8470726787869253
100
AcDbArc
 50
87.9000347709
 51
186.8906421464
  0
LWPOLYLINE
  5
20A
330
1F
100
AcDbEntity
  8
0
  6
SLD-Solid
 62
     7
370
    15
100
AcDbPolyline
 90
        7
 70
   128
 43
0.0
 10
1062.0309058489
 20
1231.659403723
 10
1062.2632075014
 20
1231.6636356527
 10
1062.4830294313
 20
1231.6304954703
 10
1062.6621190371
 20
1231.5576585943
 10
1062.8065634431
 20
1231.4445885832
 10
1062.9565510811
 20
1231.1739834959
 10
1063.0011130037
 20
1230.8787616903
  0
LWPOLYLINE
  5
20B
330
1F
100
AcDbEntity
  8
0
  6
SLD-Solid
 62
     7
370
    15
100
AcDbPolyline
 90
        3
 70
   128
 43
0.0
 10
1063.0011130037
 20
1230.8787616903
 10
1062.9787091078
 20
1230.5279287512
 10
1062.8127399745
 20
1230.184486788
  0
ARC
  5
20C
330
1F
100
AcDbEntity
  8
0
  6
SLD-Solid
 62
     7
370
    15
100
AcDbCircle
 10
1062.0852070204
 20
1230.9430937433
 30
0.0
 40
1.051089297708152
100
AcDbArc
 50
272.662710756
 51
313.8021654505
  0
ARC
  5
20D
330
1F
100
AcDbEntity
  8
0
  6
SLD-Solid
 62
     7
370
    15
100
AcDbCircle
 10
1062.0639273629
 20
1230.9695078642
 30
0.0
 40
0.3932206053460612
100
AcDbArc
 50
92.3641369564
 51
139.6707895249
  0
LWPOLYLINE
  5
20E
330
1F
100
AcDbEntity
  8
0
  6
SLD-Solid
 62
     7
370
    15
100
AcDbPolyline
 90
        3
 70
   128
 43
0.0
 10
1061.7641601624
 20
1231.2239917929
 10
1061.6675037803
 20
1230.9881362135
 10
1061.6572294297
 20
1230.7475122626
  0
LWPOLYLINE
  5
20F
330
1F
100
AcDbEntity
  8
0
  6
SLD-Solid
 62
     7
370
    15
100
AcDbPolyline
 90
        7
 70
   128
 43
0.0
 10
1061.6572294297
 20
1230.7475122626
 10
1061.7280024948
 20
1230.3982290442
 10
1061.7818031373
 20
1230.3149017508
 10
1061.8593115272
 20
1230.2501711065
 10
1061.9710478844
 20
1230.2045735533
 10
1062.0372984471
 20
1230.1955136473
 10
1062.1064025821
 20
1230.1965269262
  0
LWPOLYLINE
  5
210
330
1F
100
AcDbEntity
  8
0
  6
SLD-Solid
 62
     7
370
    15
100
AcDbPolyline
 90
        7
 70
   128
 43
0.0
 10
1062.1064025821
 20
1230.1965269262
 10
1062.2454155149
 20
1230.2263292486
 10
1062.3071435751
 20
1230.2545818503
 10
1062.3587909998
 20
1230.2896293814
 10
1062.4242667021
 20
1230.3643736059
 10
1062.4713767232
 20
1230.4657015021
 10
1062.5025723042
 20
1230.8365616018
  0
LWPOLYLINE
  5
211
330
1F
100
AcDbEntity
  8
0
  6
SLD-Solid
 62
     7
370
    15
100
AcDbPolyline
 90
        6
 70
   128
 43
0.0
 10
1062.5025723042
 20
1230.8365616018
 10
1062.4293778004
 20
1231.176486891
 10
1062.3762477102
 20
1231.2529596502
 10
1062.293129033
 20
1231.3160213644
 10
1062.180625266
 20
1231.3564333136
 10
1062.0477069082
 20
1231.3623937781
  0
ARC
  5
212
330
1F
100
AcDbEntity
  8
0
  6
SLD-Solid
 62
     7
370
    15
100
AcDbCircle
 10
1063.6906282209
 20
1231.3356985836
 30
0.0
 40
0.4701203474066154
100
AcDbArc
 50
189.856279924
 51
263.7967390737
  0
LWPOLYLINE
  5
213
330
1F
100
AcDbEntity
  8
0
  6
SLD-Solid
 62
     7
370
    15
100
AcDbPolyline
 90
        7
 70
   128
 43
0.0
 10
1063.2274467411
 20
1231.2552246267
 10
1063.2764268579
 20
1231.4761194403
 10
1063.3526462974
 20
1231.5828713591
 10
1063.4582955303
 20
1231.6787752325
 10
1063.5904539289
 20
1231.7585858519
 10
1063.7472364964
 20
1231.8214687521
 10
1064.0815813007
 20
1231.896332186
  0
LWPOLYLINE
  5
214
330
1F
100
AcDbEntity
  8
0
  6
SLD-Solid
 62
     7
370
    15
100
AcDbPolyline
 90
        7
 70
   128
 43
0.0
 10
1064.0815813007
 20
1231.896332186
 10
1064.4250456156
 20
1231.9258960898
 10
1064.5937193098
 20
1231.9135579283
 10
1064.7379849019
 20
1231.8766030485
 10
1064.8604947986
 20
1231.8140181715
 10
1064.9534109892
 20
1231.732061785
 10
1065.0385711255
 20
1231.5273198301
  0
ARC
  5
215
330
1F
100
AcDbEntity
  8
0
  6
SLD-Solid
 62
     7
370
    15
100
AcDbCircle
 10
1064.42968737
 20
1231.5668147348
 30
0.0
 40
0.6101633184486511
100
AcDbArc
 50
298.6252249596
 51
356.288740358
  0
ARC
  5
216
330
1F
100
AcDbEntity
  8
0
  6
SLD-Solid
 62
     7
370
    15
100
AcDbCircle
 10
1064.6224126383
 20
1230.6752865591
 30
0.0
 40
0.3696137427335021
100
AcDbArc
 50
7.866795718
 51
74.3687250883
  0
LWPOLYLINE
  5
217
330
1F
100
AcDbEntity
  8
0
  6
SLD-Solid
 62
     7
370
    15
100
AcDbPolyline
 90
        7
 70
   128
 43
0.0
 10
1064.9885479273
 20
1230.7258757765
 10
1064.9478305044
 20
1230.5278095419
 10
1064.8823324503
 20
1230.4310712034
 10
1064.7903401317
 20
1230.3439292128
 10
1064.6754894318
 20
1230.2690061743
 10
1064.5410660567
 20
1230.2076133902
 10
1064.2488095822
 20
1230.133644026
  0
LWPOLYLINE
  5
218
330
1F
100
AcDbEntity
  8
0
  6
SLD-Solid
 62
     7
370
    15
100
AcDbPolyline
 90
        7
 70
   128
 43
0.0
 10
1064.2488095822
 20
1230.133644026
 10
1063.9519933524
 20
1230.1202329809
 10
1063.8122279109
 20
1230.1413926298
 10
1063.6878479185
 20
1230.1824602301
 10
1063.5847765865
 20
1230.2414688284
 10
1063.5037887754
 20
1230.3165110762
 10
1063.4268466296
 20
1230.495742243
  0
ARC
  5
219
330
1F
100
AcDbEntity
  8
0
  6
SLD-Solid
 62
     7
370
    15
100
AcDbCircle
 10
1063.8545192373
 20
1230.4984400718
 30
0.0
 40
0.4276811167719773
100
AcDbArc
 50
120.1315384138
 51
180.361426363
  0
LWPOLYLINE
  5
21A
330
1F
100
AcDbEntity
  8
0
  6
SLD-Solid
 62
     7
370
    15
100
AcDbPolyline
 90
        8
 70
   128
 43
0.0
 10
1064.1929227771
 20
1230.8185013945
 10
1064.0799347224
 20
1230.7882222349
 10
1064.0306640329
 20
1230.7630690748
 10
1063.988471395
 20
1230.7318958456
 10
1063.9560241165
 20
1230.6971463377
 10
1063.9341343107
 20
1230.6594762022
 10
1063.923807806
 20
1230.621090811
 10
1063.9231819572
 20
1230.5830630476
  0
LWPOLYLINE
  5
21B
330
1F
100
AcDbEntity
  8
0
  6
SLD-Solid
 62
     7
370
    15
100
AcDbPolyline
 90
        8
 70
   128
 43
0.0
 10
1063.9231819572
 20
1230.5830630476
 10
1063.9496836724
 20
1230.5131467993
 10
1063.9794487419
 20
1230.4843577559
 10
1064.0198010864
 20
1230.4615887816
 10
1064.0673059883
 20
1230.4462703879
 10
1064.121777183
 20
1230.4382833655
 10
1064.1786325635
 20
1230.4379853422
 10
1064.2364267172
 20
1230.4441842253
  0
LWPOLYLINE
  5
21C
330
1F
100
AcDbEntity
  8
0
  6
SLD-Solid
 62
     7
370
    15
100
AcDbPolyline
 90
        8
 70
   128
 43
0.0
 10
1064.2364267172
 20
1230.4441842253
 10
1064.3453840079
 20
1230.4735097105
 10
1064.3934775056
 20
1230.4981264288
 10
1064.4341576757
 20
1230.5280479605
 10
1064.466128117
 20
1230.5619630034
 10
1064.4879210653
 20
1230.598262232
 10
1064.4986275496
 20
1230.6354555304
 10
1064.499543971
 20
1230.6722315962
  0
LWPOLYLINE
  5
21D
330
1F
100
AcDbEntity
  8
0
  6
SLD-Solid
 62
     7
370
    15
100
AcDbPolyline
 90
        8
 70
   128
 43
0.0
 10
1064.499543971
 20
1230.6722315962
 10
1064.4731018605
 20
1230.7420286352
 10
1064.4443873229
 20
1230.7706388647
 10
1064.4052047195
 20
1230.794421118
 10
1064.3583182158
 20
1230.8120640928
 10
1064.3070880236
 20
1230.8220180685
 10
1064.2507616343
 20
1230.8238658125
 10
1064.1929227771
 20
1230.8185013945
  0
LWPOLYLINE
  5
21E
330
1F
100
AcDbEntity
  8
0
  6
SLD-Solid
 62
     7
370
    15
100
AcDbPolyline
 90
        8
 70
   128
 43
0.0
 10
1064.1166064801
 20
1231.594971102
 10
1063.9640781941
 20
1231.5590295012
 10
1063.8936031522
 20
1231.5298828299
 10
1063.8315398159
 20
1231.4929279501
 10
1063.7799072923
 20
1231.4489397223
 10
1063.7443382206
 20
1231.4010771925
 10
1063.7253913941
 20
1231.3501748259
 10
1063.7224782171
 20
1231.2993916685
  0
LWPOLYLINE
  5
21F
330
1F
100
AcDbEntity
  8
0
  6
SLD-Solid
 62
     7
370
    15
100
AcDbPolyline
 90
        7
 70
   128
 43
0.0
 10
1063.7224782171
 20
1231.2993916685
 10
1063.7622643175
 20
1231.2061700041
 10
1063.8048220338
 20
1231.1693343336
 10
1063.8619903388
 20
1231.1393531973
 10
1064.0001315536
 20
1231.1080011542
 10
1064.0767756762
 20
1231.1069878752
 10
1064.1548056068
 20
1231.1147960837
  0
LWPOLYLINE
  5
220
330
1F
100
AcDbEntity
  8
0
  6
SLD-Solid
 62
     7
370
    15
100
AcDbPolyline
 90
        7
 70
   128
 43
0.0
 10
1064.1548056068
 20
1231.1147960837
 10
1064.3069688143
 20
1231.1531814749
 10
1064.4381213846
 20
1231.2227400953
 10
1064.4919965329
 20
1231.268278044
 10
1064.5296443166
 20
1231.3151868994
 10
1064.5523164334
 20
1231.3665064985
 10
1064.5563993516
 20
1231.4177068884
  0
LWPOLYLINE
  5
221
330
1F
100
AcDbEntity
  8
0
  6
SLD-Solid
 62
     7
370
    15
100
AcDbPolyline
 90
        8
 70
   128
 43
0.0
 10
1064.5563993516
 20
1231.4177068884
 10
1064.5444039168
 20
1231.4665230925
 10
1064.5157191815
 20
1231.5110477621
 10
1064.4714850845
 20
1231.5474662001
 10
1064.4137281837
 20
1231.5760168249
 10
1064.3466580572
 20
1231.5952095205
 10
1064.2731580796
 20
1231.6042098219
 10
1064.1166064801
 20
1231.594971102
  0
LWPOLYLINE
  5
222
330
1F
100
AcDbEntity
  8
0
  6
SLD-Solid
 62
     7
370
    15
100
AcDbPolyline
 90
        3
 70
   128
 43
0.0
 10
1062.0309058489
 20
1231.659403723
 10
1062.0305035176
 20
1231.6632184202
 10
1062.0301086368
 20
1231.6670927221
  0
LWPOLYLINE
  5
223
330
1F
100
AcDbEntity
  8
0
  6
SLD-Solid
 62
     7
370
    15
100
AcDbPolyline
 90
        3
 70
   128
 43
0.0
 10
1061.1589122476
 20
1230.7112726385
 10
1061.1586589279
 20
1230.7150873358
 10
1061.1583981576
 20
1230.7189020331
  0
LINE
  5
224
330
1F
100
AcDbEntity
  8
0
  6
SLD-Solid
 62
     7
370
    15
100
AcDbLine
 10
1066.7234528722
 20
1230.6621584112
 30
0.0
 11
1065.9961569967
 21
1230.5030140097
 31
0.0
  0
LINE
  5
225
330
1F
100
AcDbEntity
  8
0
  6
SLD-Solid
 62
     7
370
    15
100
AcDbLine
 10
1065.9961569967
 20
1230.5030140097
 30
0.0
 11
1065.7809097232
 21
1232.156566065
 31
0.0
  0
LINE
  5
226
330
1F
100
AcDbEntity
  8
0
  6
SLD-Solid
 62
     7
370
    15
100
AcDbLine
 10
1065.7809097232
 20
1232.156566065
 30
0.0
 11
1066.2636328401
 21
1232.2606357748
 31
0.0
  0
LINE
  5
227
330
1F
100
AcDbEntity
  8
0
  6
SLD-Solid
 62
     7
370
    15
100
AcDbLine
 10
1066.2636328401
 20
1232.2606357748
 30
0.0
 11
1066.4406139316
 21
1230.9027823622
 31
0.0
  0
LINE
  5
228
330
1F
100
AcDbEntity
  8
0
  6
SLD-Solid
 62
     7
370
    15
100
AcDbLine
 10
1066.4406139316
 20
1230.9027823622
 30
0.0
 11
1066.9647697272
 21
1231.0225280935
 31
0.0
  0
LINE
  5
229
330
1F
100
AcDbEntity
  8
0
  6
SLD-Solid
 62
     7
370
    15
100
AcDbLine
 10
1066.9647697272
 20
1231.0225280935
 30
0.0
 11
1066.7234528722
 21
1230.6621584112
 31
0.0
  0
LINE
  5
22A
330
1F
100
AcDbEntity
  8
0
  6
SLD-Solid
 62
     7
370
    15
100
AcDbLine
 10
1065.7809097232
 20
1232.156566065
 30
0.0
 11
1065.7789353194
 21
1232.1640166456
 31
0.0
  0
LINE
  5
22B
330
1F
100
AcDbEntity
  8
0
  6
SLD-Solid
 62
     7
370
    15
100
AcDbLine
 10
1065.9961569967
 20
1230.5030140097
 30
0.0
 11
1065.9941825928
 21
1230.5104645903
 31
0.0
  0
LWPOLYLINE
  5
22C
330
1F
100
AcDbEntity
  8
0
  6
SLD-Solid
 62
     7
370
    15
100
AcDbPolyline
 90
        3
 70
   128
 43
0.0
 10
1064.0815813007
 20
1231.896332186
 10
1064.0808585944
 20
1231.9001468832
 10
1064.0801358881
 20
1231.9039019758
  0
LINE
  5
22D
330
1F
100
AcDbEntity
  8
0
  6
SLD-Solid
 62
     7
370
    15
100
AcDbLine
 10
1063.2274467411
 20
1231.2552246267
 30
0.0
 11
1063.2262844505
 21
1231.2628540213
 31
0.0
  0
LWPOLYLINE
  5
22E
330
1F
100
AcDbEntity
  8
0
  6
SLD-Solid
 62
     7
370
    15
100
AcDbPolyline
 90
        7
 70
   128
 43
0.0
 10
1061.656566328
 20
1230.7552012617
 10
1061.7273170414
 20
1230.4059180433
 10
1061.7811027827
 20
1230.3225907499
 10
1061.8585813703
 20
1230.2578601057
 10
1061.9702879252
 20
1230.2122029478
 10
1062.0365235867
 20
1230.2031430418
 10
1062.10560537
 20
1230.2041563208
  0
LWPOLYLINE
  5
22F
330
1F
100
AcDbEntity
  8
0
  6
SLD-Solid
 62
     7
370
    15
100
AcDbPolyline
 90
        7
 70
   128
 43
0.0
 10
1062.10560537
 20
1230.2041563208
 10
1062.2445810499
 20
1230.2340182478
 10
1062.3062793078
 20
1230.2622708494
 10
1062.3579118313
 20
1230.2972587759
 10
1062.4233651819
 20
1230.3720030005
 10
1062.4704677524
 20
1230.4733308966
 10
1062.5016484322
 20
1230.8441909964
  0
LINE
  5
230
330
1F
100
AcDbEntity
  8
0
  6
SLD-Solid
 62
     7
370
    15
100
AcDbLine
 10
1066.2636328401
 20
1232.2606357748
 30
0.0
 11
1066.2615094246
 21
1232.2680863554
 31
0.0
  0
LWPOLYLINE
  5
231
330
1F
100
AcDbEntity
  8
0
  6
SLD-Solid
 62
     7
370
    15
100
AcDbPolyline
 90
        7
 70
   128
 43
0.0
 10
1063.7211594643
 20
1231.3069614584
 10
1063.7609455647
 20
1231.213739794
 10
1063.8034883799
 20
1231.1769041235
 10
1063.8606343331
 20
1231.1469229872
 10
1063.998738295
 20
1231.115570944
 10
1064.0753526153
 20
1231.1146172697
 10
1064.1533601942
 20
1231.1223658735
  0
LWPOLYLINE
  5
232
330
1F
100
AcDbEntity
  8
0
  6
SLD-Solid
 62
     7
370
    15
100
AcDbPolyline
 90
        7
 70
   128
 43
0.0
 10
1064.1533601942
 20
1231.1223658735
 10
1064.3054786982
 20
1231.1607512648
 10
1064.4365940156
 20
1231.2302502806
 10
1064.4904393615
 20
1231.2758478338
 10
1064.5280796947
 20
1231.3227566893
 10
1064.5507443609
 20
1231.3740762884
 10
1064.554827279
 20
1231.4252766783
  0
LWPOLYLINE
  5
233
330
1F
100
AcDbEntity
  8
0
  6
SLD-Solid
 62
     7
370
    15
100
AcDbPolyline
 90
        3
 70
   128
 43
0.0
 10
1064.554827279
 20
1231.4252766783
 10
1064.55560959
 20
1231.421461981
 10
1064.5563993516
 20
1231.4177068884
  0
LINE
  5
234
330
1F
100
AcDbEntity
  8
0
  6
SLD-Solid
 62
     7
370
    15
100
AcDbLine
 10
1047.5810859265
 20
1232.1273001845
 30
0.0
 11
1046.8925032677
 21
1232.4133428747
 31
0.0
  0
LINE
  5
235
330
1F
100
AcDbEntity
  8
0
  6
SLD-Solid
 62
     7
370
    15
100
AcDbLine
 10
1046.8925032677
 20
1232.4133428747
 30
0.0
 11
1047.2802687349
 21
1234.0257677252
 31
0.0
  0
LINE
  5
236
330
1F
100
AcDbEntity
  8
0
  6
SLD-Solid
 62
     7
370
    15
100
AcDbLine
 10
1047.2802687349
 20
1234.0257677252
 30
0.0
 11
1047.7366614999
 21
1233.8343772108
 31
0.0
  0
LINE
  5
237
330
1F
100
AcDbEntity
  8
0
  6
SLD-Solid
 62
     7
370
    15
100
AcDbLine
 10
1047.7366614999
 20
1233.8343772108
 30
0.0
 11
1047.4183056416
 21
1232.5103196318
 31
0.0
  0
LINE
  5
238
330
1F
100
AcDbEntity
  8
0
  6
SLD-Solid
 62
     7
370
    15
100
AcDbLine
 10
1047.4183056416
 20
1232.5103196318
 30
0.0
 11
1047.9184556665
 21
1232.3080810721
 31
0.0
  0
LINE
  5
239
330
1F
100
AcDbEntity
  8
0
  6
SLD-Solid
 62
     7
370
    15
100
AcDbLine
 10
1047.9184556665
 20
1232.3080810721
 30
0.0
 11
1047.5810859265
 21
1232.1273001845
 31
0.0
  0
LINE
  5
23A
330
1F
100
AcDbEntity
  8
0
  6
SLD-Solid
 62
     7
370
    15
100
AcDbLine
 10
1047.4183056416
 20
1232.5103196318
 30
0.0
 11
1047.4220011296
 21
1232.5172337706
 31
0.0
  0
LINE
  5
23B
330
1F
100
AcDbEntity
  8
0
  6
SLD-Solid
 62
     7
370
    15
100
AcDbLine
 10
1047.7366614999
 20
1233.8343772108
 30
0.0
 11
1047.7403644385
 21
1233.8413509543
 31
0.0
  0
LINE
  5
23C
330
1F
100
AcDbEntity
  8
0
  6
SLD-Solid
 62
     7
370
    15
100
AcDbLine
 10
1045.641416675
 20
1232.997051161
 30
0.0
 11
1044.5565823378
 21
1233.5448774512
 31
0.0
  0
LINE
  5
23D
330
1F
100
AcDbEntity
  8
0
  6
SLD-Solid
 62
     7
370
    15
100
AcDbLine
 10
1044.5565823378
 20
1233.5448774512
 30
0.0
 11
1044.6349177422
 21
1233.8211449797
 31
0.0
  0
LINE
  5
23E
330
1F
100
AcDbEntity
  8
0
  6
SLD-Solid
 62
     7
370
    15
100
AcDbLine
 10
1044.6349177422
 20
1233.8211449797
 30
0.0
 11
1045.3884843649
 21
1233.4360989744
 31
0.0
  0
LINE
  5
23F
330
1F
100
AcDbEntity
  8
0
  6
SLD-Solid
 62
     7
370
    15
100
AcDbLine
 10
1045.3884843649
 20
1233.4360989744
 30
0.0
 11
1045.5649141135
 21
1233.6761864836
 31
0.0
  0
LINE
  5
240
330
1F
100
AcDbEntity
  8
0
  6
SLD-Solid
 62
     7
370
    15
100
AcDbLine
 10
1045.5649141135
 20
1233.6761864836
 30
0.0
 11
1045.4103592696
 21
1233.7361487562
 31
0.0
  0
ARC
  5
241
330
1F
100
AcDbEntity
  8
0
  6
SLD-Solid
 62
     7
370
    15
100
AcDbCircle
 10
1045.6902209408
 20
1234.5543970081
 30
0.0
 40
0.8647848036886294
100
AcDbArc
 50
174.9303959384
 51
251.1180100272
  0
LWPOLYLINE
  5
242
330
1F
100
AcDbEntity
  8
0
  6
SLD-Solid
 62
     7
370
    15
100
AcDbPolyline
 90
        6
 70
   128
 43
0.0
 10
1044.8288191022
 20
1234.6308144743
 10
1044.9436847033
 20
1234.8108205015
 10
1045.0411606493
 20
1234.8670872862
 10
1045.1647210779
 20
1234.8991545851
 10
1045.4552490177
 20
1234.887591284
 10
1045.7734931173
 20
1234.7729119475
  0
ARC
  5
243
330
1F
100
AcDbEntity
  8
0
  6
SLD-Solid
 62
     7
370
    15
100
AcDbCircle
 10
1045.3912989911
 20
1233.7709324033
 30
0.0
 40
1.072397014621524
100
AcDbArc
 50
10.1428874827
 51
69.1211956107
  0
LINE
  5
244
330
1F
100
AcDbEntity
  8
0
  6
SLD-Solid
 62
     7
370
    15
100
AcDbLine
 10
1046.4469361963
 20
1233.9597853834
 30
0.0
 11
1045.9779817523
 21
1234.1840180571
 31
0.0
  0
ARC
  5
245
330
1F
100
AcDbEntity
  8
0
  6
SLD-Solid
 62
     7
370
    15
100
AcDbCircle
 10
1045.4533299861
 20
1233.9900073832
 30
0.0
 40
0.5593743088512456
100
AcDbArc
 50
20.2938606401
 51
65.5324939821
  0
LWPOLYLINE
  5
246
330
1F
100
AcDbEntity
  8
0
  6
SLD-Solid
 62
     7
370
    15
100
AcDbPolyline
 90
        7
 70
   128
 43
0.0
 10
1045.6850025715
 20
1234.499147814
 10
1045.5393437209
 20
1234.5501097853
 10
1045.4711709084
 20
1234.5569643194
 10
1045.4076770606
 20
1234.5513018782
 10
1045.3541148366
 20
1234.5340165312
 10
1045.3110579314
 20
1234.5049294645
 10
1045.2613551082
 20
1234.4202312643
  0
ARC
  5
247
330
1F
100
AcDbEntity
  8
0
  6
SLD-Solid
 62
     7
370
    15
100
AcDbCircle
 10
1045.6621697369
 20
1234.3813461024
 30
0.0
 40
0.4026964395129057
100
AcDbArc
 50
174.4587724759
 51
248.7465708499
  0
ARC
  5
248
330
1F
100
AcDbEntity
  8
0
  6
SLD-Solid
 62
     7
370
    15
100
AcDbCircle
 10
1045.7281762136
 20
1234.4273047648
 30
0.0
 40
0.4715911014315763
100
AcDbArc
 50
243.2892348061
 51
281.9096721379
  0
LINE
  5
249
330
1F
100
AcDbEntity
  8
0
  6
SLD-Solid
 62
     7
370
    15
100
AcDbLine
 10
1045.8254981699
 20
1233.9658650572
 30
0.0
 11
1046.1733434262
 21
1233.735850733
 31
0.0
  0
LINE
  5
24A
330
1F
100
AcDbEntity
  8
0
  6
SLD-Solid
 62
     7
370
    15
100
AcDbLine
 10
1046.1733434262
 20
1233.735850733
 30
0.0
 11
1045.641416675
 21
1232.997051161
 31
0.0
  0
LWPOLYLINE
  5
24B
330
1F
100
AcDbEntity
  8
0
  6
SLD-Solid
 62
     7
370
    15
100
AcDbPolyline
 90
        3
 70
   128
 43
0.0
 10
1064.1533601942
 20
1231.1223658735
 10
1064.1540829005
 20
1231.1185511763
 10
1064.1548056068
 20
1231.1147960837
  0
LWPOLYLINE
  5
24C
330
1F
100
AcDbEntity
  8
0
  6
SLD-Solid
 62
     7
370
    15
100
AcDbPolyline
 90
        3
 70
   128
 43
0.0
 10
1063.7211594643
 20
1231.3069614584
 10
1063.721822566
 20
1231.3031467611
 10
1063.7224782171
 20
1231.2993916685
  0
LINE
  5
24D
330
1F
100
AcDbEntity
  8
0
  6
SLD-Solid
 62
     7
370
    15
100
AcDbLine
 10
1047.2802687349
 20
1234.0257677252
 30
0.0
 11
1047.2841132345
 21
1234.0326222593
 31
0.0
  0
LINE
  5
24E
330
1F
100
AcDbEntity
  8
0
  6
SLD-Solid
 62
     7
370
    15
100
AcDbLine
 10
1046.4469361963
 20
1233.9597853834
 30
0.0
 11
1046.4510042133
 21
1233.9665803129
 31
0.0
  0
LWPOLYLINE
  5
24F
330
1F
100
AcDbEntity
  8
0
  6
SLD-Solid
 62
     7
370
    15
100
AcDbPolyline
 90
        3
 70
   128
 43
0.0
 10
1045.7734931173
 20
1234.7729119475
 10
1045.7756463351
 20
1234.7762498076
 10
1045.7778070035
 20
1234.7795876677
  0
LWPOLYLINE
  5
250
330
1F
100
AcDbEntity
  8
0
  6
SLD-Solid
 62
     7
370
    15
100
AcDbPolyline
 90
        3
 70
   128
 43
0.0
 10
1062.10560537
 20
1230.2041563208
 10
1062.1060077014
 20
1230.2003416235
 10
1062.1064025821
 20
1230.1965269262
  0
ARC
  5
251
330
1F
100
AcDbEntity
  8
0
  6
SLD-Solid
 62
     7
370
    15
100
AcDbCircle
 10
1043.8602924347
 20
1235.0739394146
 30
0.0
 40
1.041101624865377
100
AcDbArc
 50
159.9105955912
 51
243.9652922471
  0
LWPOLYLINE
  5
252
330
1F
100
AcDbEntity
  8
0
  6
SLD-Solid
 62
     7
370
    15
100
AcDbPolyline
 90
        7
 70
   128
 43
0.0
 10
1042.8825337352
 20
1235.4315432722
 10
1042.9986435833
 20
1235.693505686
 10
1043.1967992248
 20
1235.8908566649
 10
1043.3444250288
 20
1235.9422358687
 10
1043.5222033324
 20
1235.9409841711
 10
1043.7238011422
 20
1235.8812603171
 10
1043.9275670709
 20
1235.7780846769
  0
ARC
  5
253
330
1F
100
AcDbEntity
  8
0
  6
SLD-Solid
 62
     7
370
    15
100
AcDbCircle
 10
1043.5040767616
 20
1234.8536735034
 30
0.0
 40
1.016798927903015
100
AcDbArc
 50
340.800712097
 51
65.3865852123
  0
LWPOLYLINE
  5
254
330
1F
100
AcDbEntity
  8
0
  6
SLD-Solid
 62
     7
370
    15
100
AcDbPolyline
 90
        3
 70
   128
 43
0.0
 10
1044.4643217983
 20
1234.5192941839
 10
1044.3246308627
 20
1234.2182311232
 10
1044.0673474135
 20
1234.0072306807
  0
ARC
  5
255
330
1F
100
AcDbEntity
  8
0
  6
SLD-Solid
 62
     7
370
    15
100
AcDbCircle
 10
1043.8924177156
 20
1234.8675345892
 30
0.0
 40
0.8779069470592801
100
AcDbArc
 50
236.1445999818
 51
281.4930570999
  0
ARC
  5
256
330
1F
100
AcDbEntity
  8
0
  6
SLD-Solid
 62
     7
370
    15
100
AcDbCircle
 10
1043.6597568681
 20
1235.2500060658
 30
0.0
 40
0.3095366891169527
100
AcDbArc
 50
54.6685598329
 51
109.3874049118
  0
LWPOLYLINE
  5
257
330
1F
100
AcDbEntity
  8
0
  6
SLD-Solid
 62
     7
370
    15
100
AcDbPolyline
 90
        3
 70
   128
 43
0.0
 10
1043.5570049943
 20
1235.541990679
 10
1043.3962289156
 20
1235.3864821608
 10
1043.3045867743
 20
1235.1772698576
  0
LWPOLYLINE
  5
258
330
1F
100
AcDbEntity
  8
0
  6
SLD-Solid
 62
     7
370
    15
100
AcDbPolyline
 90
        7
 70
   128
 43
0.0
 10
1043.3045867743
 20
1235.1772698576
 10
1043.2426351966
 20
1234.8242315466
 10
1043.2565603318
 20
1234.7234400923
 10
1043.2996693911
 20
1234.6163901503
 10
1043.3760750951
 20
1234.5113071615
 10
1043.4275213542
 20
1234.4649347479
 10
1043.4849802317
 20
1234.4260129149
  0
LWPOLYLINE
  5
259
330
1F
100
AcDbEntity
  8
0
  6
SLD-Solid
 62
     7
370
    15
100
AcDbPolyline
 90
        6
 70
   128
 43
0.0
 10
1043.4849802317
 20
1234.4260129149
 10
1043.6101648869
 20
1234.3727859671
 10
1043.7259767117
 20
1234.3637856657
 10
1043.8047591509
 20
1234.3918594534
 10
1043.8803080382
 20
1234.4559940512
 10
1044.0342593851
 20
1234.7693952734
  0
LWPOLYLINE
  5
25A
330
1F
100
AcDbEntity
  8
0
  6
SLD-Solid
 62
     7
370
    15
100
AcDbPolyline
 90
        6
 70
   128
 43
0.0
 10
1044.0342593851
 20
1234.7693952734
 10
1044.0909210505
 20
1235.1157578642
 10
1044.0733525815
 20
1235.2148207838
 10
1044.0260413947
 20
1235.3192481215
 10
1043.9467076125
 20
1235.4203972037
 10
1043.8387636008
 20
1235.5025324042
  0
LWPOLYLINE
  5
25B
330
1F
100
AcDbEntity
  8
0
  6
SLD-Solid
 62
     7
370
    15
100
AcDbPolyline
 90
        3
 70
   128
 43
0.0
 10
1044.4643217983
 20
1234.5192941839
 10
1044.4666463794
 20
1234.5225128348
 10
1044.4689709606
 20
1234.5257910902
  0
LINE
  5
25C
330
1F
100
AcDbEntity
  8
0
  6
SLD-Solid
 62
     7
370
    15
100
AcDbLine
 10
1043.9275670709
 20
1235.7780846769
 30
0.0
 11
1043.9324695529
 21
1235.7844027693
 31
0.0
  0
LWPOLYLINE
  5
25D
330
1F
100
AcDbEntity
  8
0
  6
SLD-Solid
 62
     7
370
    15
100
AcDbPolyline
 90
        3
 70
   128
 43
0.0
 10
1063.4268466296
 20
1230.495742243
 10
1063.4262431325
 20
1230.4994973356
 10
1063.4256396355
 20
1230.5033120329
  0
LWPOLYLINE
  5
25E
330
1F
100
AcDbEntity
  8
0
  6
SLD-Solid
 62
     7
370
    15
100
AcDbPolyline
 90
        8
 70
   128
 43
0.0
 10
1063.9218259515
 20
1230.5906328375
 10
1063.9483202161
 20
1230.5207165892
 10
1063.978077835
 20
1230.4919275458
 10
1064.0184152784
 20
1230.4691585715
 10
1064.0659052791
 20
1230.4538401777
 10
1064.1203615727
 20
1230.4458531553
 10
1064.1772020521
 20
1230.4456147368
 10
1064.2349813046
 20
1230.4517540152
  0
LWPOLYLINE
  5
25F
330
1F
100
AcDbEntity
  8
0
  6
SLD-Solid
 62
     7
370
    15
100
AcDbPolyline
 90
        8
 70
   128
 43
0.0
 10
1064.2349813046
 20
1230.4517540152
 10
1064.3439013423
 20
1230.4810795004
 10
1064.3919799389
 20
1230.5056962187
 10
1064.4326452078
 20
1230.5356177504
 10
1064.4646081986
 20
1230.5695327933
 10
1064.4863936963
 20
1230.6058320219
 10
1064.49709273
 20
1230.6430253203
 10
1064.4980091514
 20
1230.6798013861
  0
LWPOLYLINE
  5
260
330
1F
100
AcDbEntity
  8
0
  6
SLD-Solid
 62
     7
370
    15
100
AcDbPolyline
 90
        3
 70
   128
 43
0.0
 10
1045.2613551082
 20
1234.4202312643
 10
1045.2635679307
 20
1234.4235095198
 10
1045.2657807531
 20
1234.4268473799
  0
LWPOLYLINE
  5
261
330
1F
100
AcDbEntity
  8
0
  6
SLD-Solid
 62
     7
370
    15
100
AcDbPolyline
 90
        3
 70
   128
 43
0.0
 10
1064.4980091514
 20
1230.6798013861
 10
1064.4987765612
 20
1230.6760462935
 10
1064.499543971
 20
1230.6722315962
  0
LWPOLYLINE
  5
262
330
1F
100
AcDbEntity
  8
0
  6
SLD-Solid
 62
     7
370
    15
100
AcDbPolyline
 90
        7
 70
   128
 43
0.0
 10
1043.309601015
 20
1235.1835283453
 10
1043.2476345362
 20
1234.8304900343
 10
1043.2615373196
 20
1234.7297581846
 10
1043.3046314778
 20
1234.6227082426
 10
1043.3810073795
 20
1234.5176252539
 10
1043.4324312868
 20
1234.4713124449
 10
1043.4898752632
 20
1234.4323906119
  0
LWPOLYLINE
  5
263
330
1F
100
AcDbEntity
  8
0
  6
SLD-Solid
 62
     7
370
    15
100
AcDbPolyline
 90
        3
 70
   128
 43
0.0
 10
1043.5619819822
 20
1235.5483087713
 10
1043.4012282552
 20
1235.3928002531
 10
1043.309601015
 20
1235.1835283453
  0
LWPOLYLINE
  5
264
330
1F
100
AcDbEntity
  8
0
  6
SLD-Solid
 62
     7
370
    15
100
AcDbPolyline
 90
        6
 70
   128
 43
0.0
 10
1043.4898752632
 20
1234.4323906119
 10
1043.615030116
 20
1234.3791636641
 10
1043.7308046879
 20
1234.3701633627
 10
1043.809572226
 20
1234.3982371504
 10
1043.8851062121
 20
1234.4623717482
 10
1043.8984203996
 20
1234.4894918616
  0
LWPOLYLINE
  5
265
330
1F
100
AcDbEntity
  8
0
  6
SLD-Solid
 62
     7
370
    15
100
AcDbPolyline
 90
        3
 70
   128
 43
0.0
 10
1064.2349813046
 20
1230.4517540152
 10
1064.2357040109
 20
1230.4479989226
 10
1064.2364267172
 20
1230.4441842253
  0
LWPOLYLINE
  5
266
330
1F
100
AcDbEntity
  8
0
  6
SLD-Solid
 62
     7
370
    15
100
AcDbPolyline
 90
        3
 70
   128
 43
0.0
 10
1063.9218259515
 20
1230.5906328375
 10
1063.9225039544
 20
1230.5868777449
 10
1063.9231819572
 20
1230.5830630476
  0
LWPOLYLINE
  5
267
330
1F
100
AcDbEntity
  8
0
  6
SLD-Solid
 62
     7
370
    15
100
AcDbPolyline
 90
        3
 70
   128
 43
0.0
 10
1045.5162022175
 20
1234.0060385878
 10
1045.5183628859
 20
1234.0093764479
 10
1045.5205310049
 20
1234.012714308
  0
LWPOLYLINE
  5
268
330
1F
100
AcDbEntity
  8
0
  6
SLD-Solid
 62
     7
370
    15
100
AcDbPolyline
 90
        7
 70
   128
 43
0.0
 10
1079.6065945091
 20
1236.9632634337
 10
1079.4221255841
 20
1236.830821913
 10
1079.233678049
 20
1236.7433222944
 10
1079.0592674078
 20
1236.7137583906
 10
1078.9081174793
 20
1236.7412361319
 10
1078.6933544936
 20
1236.9092616255
 10
1078.5546544852
 20
1237.1533426459
  0
ARC
  5
269
330
1F
100
AcDbEntity
  8
0
  6
SLD-Solid
 62
     7
370
    15
100
AcDbCircle
 10
1079.5281723023
 20
1237.6058918776
 30
0.0
 40
1.07356310824597
100
AcDbArc
 50
124.6299860437
 51
204.9318193543
  0
LWPOLYLINE
  5
26A
330
1F
100
AcDbEntity
  8
0
  6
SLD-Solid
 62
     7
370
    15
100
AcDbPolyline
 90
        7
 70
   128
 43
0.0
 10
1078.9180938067
 20
1238.4892615492
 10
1079.0991131129
 20
1238.6222991163
 10
1079.2827103199
 20
1238.7143286879
 10
1079.4486869039
 20
1238.7487205679
 10
1079.5995239081
 20
1238.7274417097
 10
1079.8097941937
 20
1238.5681780989
 10
1079.9461025657
 20
1238.3281501944
  0
ARC
  5
26B
330
1F
100
AcDbEntity
  8
0
  6
SLD-Solid
 62
     7
370
    15
100
AcDbCircle
 10
1078.9830713054
 20
1237.837758579
 30
0.0
 40
1.080700302946526
100
AcDbArc
 50
347.3565811829
 51
26.9859549607
  0
ARC
  5
26C
330
1F
100
AcDbEntity
  8
0
  6
SLD-Solid
 62
     7
370
    15
100
AcDbCircle
 10
1078.8018107726
 20
1237.9714891246
 30
0.0
 40
1.290037172501703
100
AcDbArc
 50
308.5974918704
 51
343.3198718913
  0
ARC
  5
26D
330
1F
100
AcDbEntity
  8
0
  6
SLD-Solid
 62
     7
370
    15
100
AcDbCircle
 10
1079.3482449433
 20
1237.8410206789
 30
0.0
 40
0.5023333537758601
100
AcDbArc
 50
128.7825554894
 51
167.3984725266
  0
LWPOLYLINE
  5
26E
330
1F
100
AcDbEntity
  8
0
  6
SLD-Solid
 62
     7
370
    15
100
AcDbPolyline
 90
        3
 70
   128
 43
0.0
 10
1078.8580123248
 20
1237.9506143744
 10
1078.862750894
 20
1237.6854929144
 10
1078.9372045459
 20
1237.4640616591
  0
LWPOLYLINE
  5
26F
330
1F
100
AcDbEntity
  8
0
  6
SLD-Solid
 62
     7
370
    15
100
AcDbPolyline
 90
        7
 70
   128
 43
0.0
 10
1078.9372045459
 20
1237.4640616591
 10
1079.1127700271
 20
1237.190237921
 10
1079.1802871885
 20
1237.1465477163
 10
1079.2670641007
 20
1237.1304544623
 10
1079.3707761826
 20
1237.1517929251
 10
1079.4260296883
 20
1237.1804627592
 10
1079.4800240459
 20
1237.2197422201
  0
LWPOLYLINE
  5
270
330
1F
100
AcDbEntity
  8
0
  6
SLD-Solid
 62
     7
370
    15
100
AcDbPolyline
 90
        7
 70
   128
 43
0.0
 10
1079.4800240459
 20
1237.2197422201
 10
1079.578990108
 20
1237.3238119299
 10
1079.6180833044
 20
1237.3834761793
 10
1079.6464625659
 20
1237.443438452
 10
1079.6731058421
 20
1237.5572833235
 10
1079.6742904844
 20
1237.663916033
 10
1079.5709807338
 20
1238.0137952978
  0
LWPOLYLINE
  5
271
330
1F
100
AcDbEntity
  8
0
  6
SLD-Solid
 62
     7
370
    15
100
AcDbPolyline
 90
        6
 70
   128
 43
0.0
 10
1079.5709807338
 20
1238.0137952978
 10
1079.3969947757
 20
1238.2780226881
 10
1079.328985876
 20
1238.3169445212
 10
1079.2422313156
 20
1238.327375334
 10
1079.140076405
 20
1238.301030081
 10
1079.0336001577
 20
1238.2326039488
  0
LWPOLYLINE
  5
272
330
1F
100
AcDbEntity
  8
0
  6
SLD-Solid
 62
     7
370
    15
100
AcDbPolyline
 90
        3
 70
   128
 43
0.0
 10
1045.8254981699
 20
1233.9658650572
 10
1045.8276141347
 20
1233.9692029173
 10
1045.8297375502
 20
1233.9725407774
  0
LINE
  5
273
330
1F
100
AcDbEntity
  8
0
  6
SLD-Solid
 62
     7
370
    15
100
AcDbLine
 10
1046.1733434262
 20
1233.735850733
 30
0.0
 11
1046.1774784984
 21
1233.7425860579
 31
0.0
  0
LINE
  5
274
330
1F
100
AcDbEntity
  8
0
  6
SLD-Solid
 62
     7
370
    15
100
AcDbLine
 10
1078.9180938067
 20
1238.4892615492
 30
0.0
 11
1078.9119843306
 21
1238.4947451765
 31
0.0
  0
LINE
  5
275
330
1F
100
AcDbEntity
  8
0
  6
SLD-Solid
 62
     7
370
    15
100
AcDbLine
 10
1066.9647697272
 20
1231.0225280935
 30
0.0
 11
1066.9624823989
 21
1231.0299786741
 31
0.0
  0
LWPOLYLINE
  5
276
330
1F
100
AcDbEntity
  8
0
  6
SLD-Solid
 62
     7
370
    15
100
AcDbPolyline
 90
        3
 70
   128
 43
0.0
 10
1043.4898752632
 20
1234.4323906119
 10
1043.4874240222
 20
1234.4292315657
 10
1043.4849802317
 20
1234.4260129149
  0
LINE
  5
277
330
1F
100
AcDbEntity
  8
0
  6
SLD-Solid
 62
     7
370
    15
100
AcDbLine
 10
1045.3884843649
 20
1233.4360989744
 30
0.0
 11
1045.3928057017
 21
1233.4427746947
 31
0.0
  0
ARC
  5
278
330
1F
100
AcDbEntity
  8
0
  6
SLD-Solid
 62
     7
370
    15
100
AcDbCircle
 10
1079.2619894398
 20
1237.4433189952
 30
0.0
 40
0.3041001180900354
100
AcDbArc
 50
253.23097196
 51
314.1782275982
  0
LINE
  5
279
330
1F
100
AcDbEntity
  8
0
  6
SLD-Solid
 62
     7
370
    15
100
AcDbLine
 10
1079.5647669496
 20
1238.0192193205
 30
0.0
 11
1079.3973375024
 21
1238.2734927351
 31
0.0
  0
LWPOLYLINE
  5
27A
330
1F
100
AcDbEntity
  8
0
  6
SLD-Solid
 62
     7
370
    15
100
AcDbPolyline
 90
        7
 70
   128
 43
0.0
 10
1079.4739145698
 20
1237.2252258475
 10
1079.572843379
 20
1237.3292359526
 10
1079.6119291248
 20
1237.3889598066
 10
1079.6402934851
 20
1237.4488624746
 10
1079.6669144096
 20
1237.5627073462
 10
1079.6680916013
 20
1237.6693400557
 10
1079.5647669496
 20
1238.0192193205
  0
LINE
  5
27B
330
1F
100
AcDbEntity
  8
0
  6
SLD-Solid
 62
     7
370
    15
100
AcDbLine
 10
1047.9184556665
 20
1232.3080810721
 30
0.0
 11
1047.9219946923
 21
1232.3151144201
 31
0.0
  0
LWPOLYLINE
  5
27C
330
1F
100
AcDbEntity
  8
0
  6
SLD-Solid
 62
     7
370
    15
100
AcDbPolyline
 90
       17
 70
   128
 43
0.0
 10
1063.0861986341
 20
1228.9278420622
 10
1062.968509263
 20
1228.5515579397
 10
1063.0734879436
 20
1228.1895193274
 10
1063.3921567263
 20
1227.9017481024
 10
1063.8721454801
 20
1227.7347358877
 10
1064.4400585355
 20
1227.7166160757
 10
1065.0083739223
 20
1227.853825968
 10
1065.491864449
 20
1228.1228217299
 10
1065.8156741323
 20
1228.4806284125
 10
1065.9332070412
 20
1228.8675817663
 10
1065.8257920208
 20
1229.223361891
 10
1065.5099917116
 20
1229.4936689551
 10
1065.0334600272
 20
1229.6425613577
 10
1064.4674245181
 20
1229.6497735197
 10
1063.8976413669
 20
1229.5171531851
 10
1063.4114537301
 20
1229.2621645147
 10
1063.0861986341
 20
1228.9278420622
  0
LINE
  5
27D
330
1F
100
AcDbEntity
  8
0
  6
SLD-Solid
 62
     7
370
    15
100
AcDbLine
 10
1080.2184510889
 20
1239.585152548
 30
0.0
 11
1080.2119392814
 21
1239.5902785475
 31
0.0
  0
LINE
  5
27E
330
1F
100
AcDbEntity
  8
0
  6
SLD-Solid
 62
     7
370
    15
100
AcDbLine
 10
1080.91155625
 20
1238.1716880018
 30
0.0
 11
1080.2184510889
 21
1239.585152548
 31
0.0
  0
LINE
  5
27F
330
1F
100
AcDbEntity
  8
0
  6
SLD-Solid
 62
     7
370
    15
100
AcDbLine
 10
1080.91155625
 20
1238.1716880018
 30
0.0
 11
1080.905036992
 21
1238.1768140013
 31
0.0
  0
LINE
  5
280
330
1F
100
AcDbEntity
  8
0
  6
SLD-Solid
 62
     7
370
    15
100
AcDbLine
 10
1081.4402718009
 20
1238.6784466917
 30
0.0
 11
1080.91155625
 21
1238.1716880018
 31
0.0
  0
LINE
  5
281
330
1F
100
AcDbEntity
  8
0
  6
SLD-Solid
 62
     7
370
    15
100
AcDbLine
 10
1080.2184510889
 20
1239.585152548
 30
0.0
 11
1080.5703867139
 21
1239.9201902563
 31
0.0
  0
LINE
  5
282
330
1F
100
AcDbEntity
  8
0
  6
SLD-Solid
 62
     7
370
    15
100
AcDbLine
 10
1080.5703867139
 20
1239.9201902563
 30
0.0
 11
1081.1396110715
 21
1238.7593897993
 31
0.0
  0
LINE
  5
283
330
1F
100
AcDbEntity
  8
0
  6
SLD-Solid
 62
     7
370
    15
100
AcDbLine
 10
1081.1396110715
 20
1238.7593897993
 30
0.0
 11
1081.5176237287
 21
1239.1293558294
 31
0.0
  0
LINE
  5
284
330
1F
100
AcDbEntity
  8
0
  6
SLD-Solid
 62
     7
370
    15
100
AcDbLine
 10
1081.5176237287
 20
1239.1293558294
 30
0.0
 11
1081.4402718009
 21
1238.6784466917
 31
0.0
  0
LINE
  5
285
330
1F
100
AcDbEntity
  8
0
  6
SLD-Solid
 62
     7
370
    15
100
AcDbLine
 10
1080.5703867139
 20
1239.9201902563
 30
0.0
 11
1080.5637631478
 21
1239.9251970465
 31
0.0
  0
LINE
  5
286
330
1F
100
AcDbEntity
  8
0
  6
SLD-Solid
 62
     7
370
    15
100
AcDbLine
 10
1044.6349177422
 20
1233.8211449797
 30
0.0
 11
1044.6394625964
 21
1233.827641886
 31
0.0
  0
LINE
  5
287
330
1F
100
AcDbEntity
  8
0
  6
SLD-Solid
 62
     7
370
    15
100
AcDbLine
 10
1082.6097596349
 20
1240.6055840666
 30
0.0
 11
1082.9221624794
 21
1240.9613641913
 31
0.0
  0
ARC
  5
288
330
1F
100
AcDbEntity
  8
0
  6
SLD-Solid
 62
     7
370
    15
100
AcDbCircle
 10
1081.8738945461
 20
1240.6523766814
 30
0.0
 40
1.092858152309408
100
AcDbArc
 50
311.4251543901
 51
16.4234109988
  0
LWPOLYLINE
  5
289
330
1F
100
AcDbEntity
  8
0
  6
SLD-Solid
 62
     7
370
    15
100
AcDbPolyline
 90
        6
 70
   128
 43
0.0
 10
1082.5969744386
 20
1239.8329290564
 10
1082.378568119
 20
1239.63599531
 10
1082.2651106777
 20
1239.5694169218
 10
1082.1549016895
 20
1239.5305546934
 10
1081.9624606432
 20
1239.5368131811
 10
1081.8304512562
 20
1239.6470221693
  0
ARC
  5
28A
330
1F
100
AcDbEntity
  8
0
  6
SLD-Solid
 62
     7
370
    15
100
AcDbCircle
 10
1083.2414293896
 20
1240.0432738897
 30
0.0
 40
1.465562935807739
100
AcDbArc
 50
154.2090368879
 51
195.6865884997
  0
LINE
  5
28B
330
1F
100
AcDbEntity
  8
0
  6
SLD-Solid
 62
     7
370
    15
100
AcDbLine
 10
1081.921854979
 20
1240.6809243376
 30
0.0
 11
1082.0281598629
 21
1241.0544666464
 31
0.0
  0
LINE
  5
28C
330
1F
100
AcDbEntity
  8
0
  6
SLD-Solid
 62
     7
370
    15
100
AcDbLine
 10
1082.0281598629
 20
1241.0544666464
 30
0.0
 11
1081.4069528045
 21
1240.3849276716
 31
0.0
  0
LINE
  5
28D
330
1F
100
AcDbEntity
  8
0
  6
SLD-Solid
 62
     7
370
    15
100
AcDbLine
 10
1081.4069528045
 20
1240.3849276716
 30
0.0
 11
1081.276835865
 21
1240.6250747854
 31
0.0
  0
LINE
  5
28E
330
1F
100
AcDbEntity
  8
0
  6
SLD-Solid
 62
     7
370
    15
100
AcDbLine
 10
1081.276835865
 20
1240.6250747854
 30
0.0
 11
1082.4667382898
 21
1241.9381651098
 31
0.0
  0
LINE
  5
28F
330
1F
100
AcDbEntity
  8
0
  6
SLD-Solid
 62
     7
370
    15
100
AcDbLine
 10
1082.4667382898
 20
1241.9381651098
 30
0.0
 11
1082.5341064395
 21
1241.8140682394
 31
0.0
  0
LINE
  5
290
330
1F
100
AcDbEntity
  8
0
  6
SLD-Solid
 62
     7
370
    15
100
AcDbLine
 10
1082.5341064395
 20
1241.8140682394
 30
0.0
 11
1082.2451431217
 21
1240.7919677908
 31
0.0
  0
ARC
  5
291
330
1F
100
AcDbEntity
  8
0
  6
SLD-Solid
 62
     7
370
    15
100
AcDbCircle
 10
1083.3257181967
 20
1240.2676260475
 30
0.0
 40
1.201073168716544
100
AcDbArc
 50
154.1153334986
 51
191.8559922165
  0
LWPOLYLINE
  5
292
330
1F
100
AcDbEntity
  8
0
  6
SLD-Solid
 62
     7
370
    15
100
AcDbPolyline
 90
        8
 70
   128
 43
0.0
 10
1082.1502674284
 20
1240.0208625014
 10
1082.2055954399
 20
1239.9671587164
 10
1082.2445917787
 20
1239.9586352522
 10
1082.290099925
 20
1239.9634036238
 10
1082.3390204372
 20
1239.9808081801
 10
1082.3891777458
 20
1240.0104316885
 10
1082.4387986125
 20
1240.0509032423
 10
1082.4864078226
 20
1240.0986465628
  0
ARC
  5
293
330
1F
100
AcDbEntity
  8
0
  6
SLD-Solid
 62
     7
370
    15
100
AcDbCircle
 10
1082.1691940468
 20
1240.4443095765
 30
0.0
 40
0.469156155911015
100
AcDbArc
 50
312.5424971982
 51
20.1057778844
  0
LINE
  5
294
330
1F
100
AcDbEntity
  8
0
  6
SLD-Solid
 62
     7
370
    15
100
AcDbLine
 10
1081.276835865
 20
1240.6250747854
 30
0.0
 11
1081.2699887814
 21
1240.6299027617
 31
0.0
  0
LINE
  5
295
330
1F
100
AcDbEntity
  8
0
  6
SLD-Solid
 62
     7
370
    15
100
AcDbLine
 10
1081.4069528045
 20
1240.3849276716
 30
0.0
 11
1081.400105721
 21
1240.3897556479
 31
0.0
  0
LINE
  5
296
330
1F
100
AcDbEntity
  8
0
  6
SLD-Solid
 62
     7
370
    15
100
AcDbLine
 10
1082.4667382898
 20
1241.9381651098
 30
0.0
 11
1082.4595261278
 21
1241.9425758536
 31
0.0
  0
LWPOLYLINE
  5
297
330
1F
100
AcDbEntity
  8
0
  6
SLD-Solid
 62
     7
370
    15
100
AcDbPolyline
 90
       17
 70
   128
 43
0.0
 10
1058.2378450694
 20
1228.5303386862
 10
1058.0725986423
 20
1228.6900791342
 10
1057.827645904
 20
1228.8010629828
 10
1057.540336615
 20
1228.8475546057
 10
1057.2544652881
 20
1228.8226398642
 10
1057.0135358634
 20
1228.7297758276
 10
1056.8541306915
 20
1228.5819563086
 10
1056.8004343571
 20
1228.4008177931
 10
1056.8605903449
 20
1228.2135996039
 10
1057.0254865946
 20
1228.0492695982
 10
1057.2701115074
 20
1227.9338750059
 10
1057.5572941365
 20
1227.8858932669
 10
1057.8433293762
 20
1227.9129537756
 10
1058.0846164288
 20
1228.0104669745
 10
1058.2443494262
 20
1228.1626376326
 10
1058.2981575193
 20
1228.3453258688
 10
1058.2378450694
 20
1228.5303386862
  0
LINE
  5
298
330
1F
100
AcDbEntity
  8
0
  6
SLD-Solid
 62
     7
370
    15
100
AcDbLine
 10
1079.4739145698
 20
1237.2252258475
 30
0.0
 11
1079.4800240459
 21
1237.2197422201
 31
0.0
  0
LWPOLYLINE
  5
299
330
1F
100
AcDbEntity
  8
0
  6
SLD-Solid
 62
     7
370
    15
100
AcDbPolyline
 90
       17
 70
   128
 43
0.0
 10
1046.073349184
 20
1231.7306312735
 10
1045.7751843991
 20
1232.1528705771
 10
1045.3335065307
 20
1232.524386328
 10
1044.8159295978
 20
1232.7859911139
 10
1044.3029496731
 20
1232.8994187529
 10
1043.869333333
 20
1232.8460129912
 10
1043.5806456866
 20
1232.6283368284
 10
1043.4765759768
 20
1232.2787555868
 10
1043.5758475127
 20
1231.8491253073
 10
1043.8625905575
 20
1231.4086469824
 10
1044.2974883976
 20
1231.0270580465
 10
1044.8144096794
 20
1230.7662877257
 10
1045.3358311119
 20
1230.6642445738
 10
1045.7793865265
 20
1230.7358893568
 10
1046.0759792389
 20
1230.9659632857
 10
1046.177024013
 20
1231.3184651549
 10
1046.073349184
 20
1231.7306312735
  0
LWPOLYLINE
  5
29A
330
1F
100
AcDbEntity
  8
0
  6
SLD-Solid
 62
     7
370
    15
100
AcDbPolyline
 90
       17
 70
   128
 43
0.0
 10
1052.1606299939
 20
1229.3675455267
 10
1051.9996825518
 20
1229.5518430884
 10
1051.7611149611
 20
1229.698053282
 10
1051.4815468254
 20
1229.7847780401
 10
1051.2035954656
 20
1229.7989639456
 10
1050.9694162669
 20
1229.7378095801
 10
1050.81431008
 20
1229.6097191984
 10
1050.761619574
 20
1229.4332894499
 10
1050.8192870678
 20
1229.2351636107
 10
1050.9787592949
 20
1229.0462168867
 10
1051.2160826387
 20
1228.8961323912
 10
1051.4953825535
 20
1228.808573168
 10
1051.77419073
 20
1228.7971290762
 10
1052.0098600449
 20
1228.8628729994
 10
1052.1662030282
 20
1228.9948376829
 10
1052.2191692056
 20
1229.1721018965
 10
1052.1606299939
 20
1229.3675455267
  0
LINE
  5
29B
330
1F
100
AcDbEntity
  8
0
  6
SLD-Solid
 62
     7
370
    15
100
AcDbLine
 10
1081.8304512562
 20
1239.6470221693
 30
0.0
 11
1081.8235967221
 21
1239.6517905409
 31
0.0
  0
LWPOLYLINE
  5
29C
330
1F
100
AcDbEntity
  8
0
  6
SLD-Solid
 62
     7
370
    15
100
AcDbPolyline
 90
       17
 70
   128
 43
0.0
 10
1070.1948869886
 20
1230.3494128401
 10
1070.1388884248
 20
1230.1470550711
 10
1070.1912362041
 20
1229.9715193922
 10
1070.3439135017
 20
1229.8495086844
 10
1070.5733317794
 20
1229.8004540617
 10
1070.8441231312
 20
1229.8327597792
 10
1071.1147654714
 20
1229.9420746977
 10
1071.3440719904
 20
1230.1117095167
 10
1071.4974868955
 20
1230.3150805647
 10
1071.552122003
 20
1230.5202993567
 10
1071.4999753894
 20
1230.695417803
 10
1071.3489521207
 20
1230.8139714415
 10
1071.1216572585
 20
1230.8584961111
 10
1070.8522293629
 20
1230.8233293707
 10
1070.5813858571
 20
1230.7144316847
 10
1070.3504253091
 20
1230.5482539351
 10
1070.1948869886
 20
1230.3494128401
  0
LINE
  5
29D
330
1F
100
AcDbEntity
  8
0
  6
SLD-Solid
 62
     7
370
    15
100
AcDbLine
 10
1033.2520622673
 20
1244.0471562559
 30
0.0
 11
1032.878296441
 21
1244.6647795851
 31
0.0
  0
LINE
  5
29E
330
1F
100
AcDbEntity
  8
0
  6
SLD-Solid
 62
     7
370
    15
100
AcDbLine
 10
1032.878296441
 20
1244.6647795851
 30
0.0
 11
1033.725993699
 21
1245.8811911757
 31
0.0
  0
LINE
  5
29F
330
1F
100
AcDbEntity
  8
0
  6
SLD-Solid
 62
     7
370
    15
100
AcDbLine
 10
1033.725993699
 20
1245.8811911757
 30
0.0
 11
1033.9724887075
 21
1245.4706939871
 31
0.0
  0
LINE
  5
2A0
330
1F
100
AcDbEntity
  8
0
  6
SLD-Solid
 62
     7
370
    15
100
AcDbLine
 10
1033.9724887075
 20
1245.4706939871
 30
0.0
 11
1033.2763809623
 21
1244.4717797453
 31
0.0
  0
LINE
  5
2A1
330
1F
100
AcDbEntity
  8
0
  6
SLD-Solid
 62
     7
370
    15
100
AcDbLine
 10
1033.2763809623
 20
1244.4717797453
 30
0.0
 11
1033.5519406857
 21
1244.0273079092
 31
0.0
  0
LINE
  5
2A2
330
1F
100
AcDbEntity
  8
0
  6
SLD-Solid
 62
     7
370
    15
100
AcDbLine
 10
1033.5519406857
 20
1244.0273079092
 30
0.0
 11
1033.2520622673
 21
1244.0471562559
 31
0.0
  0
LINE
  5
2A3
330
1F
100
AcDbEntity
  8
0
  6
SLD-Solid
 62
     7
370
    15
100
AcDbLine
 10
1033.2763809623
 20
1244.4717797453
 30
0.0
 11
1033.2844052376
 21
1244.4751176054
 31
0.0
  0
LINE
  5
2A4
330
1F
100
AcDbEntity
  8
0
  6
SLD-Solid
 62
     7
370
    15
100
AcDbLine
 10
1033.9724887075
 20
1245.4706939871
 30
0.0
 11
1033.9805129828
 21
1245.4739722426
 31
0.0
  0
LINE
  5
2A5
330
1F
100
AcDbEntity
  8
0
  6
SLD-Solid
 62
     7
370
    15
100
AcDbLine
 10
1081.5176237287
 20
1239.1293558294
 30
0.0
 11
1081.5108884038
 21
1239.1342434103
 31
0.0
  0
LINE
  5
2A6
330
1F
100
AcDbEntity
  8
0
  6
SLD-Solid
 62
     7
370
    15
100
AcDbLine
 10
1033.725993699
 20
1245.8811911757
 30
0.0
 11
1033.7340924801
 21
1245.8843502218
 31
0.0
  0
LINE
  5
2A7
330
1F
100
AcDbEntity
  8
0
  6
SLD-Solid
 62
     7
370
    15
100
AcDbLine
 10
1082.4864078226
 20
1240.0986465628
 30
0.0
 11
1082.4793744745
 21
1240.1032957251
 31
0.0
  0
LWPOLYLINE
  5
2A8
330
1F
100
AcDbEntity
  8
0
  6
SLD-Solid
 62
     7
370
    15
100
AcDbPolyline
 90
        3
 70
   128
 43
0.0
 10
1082.6097596349
 20
1240.6055840666
 10
1082.6062131586
 20
1240.6078490431
 10
1082.602651781
 20
1240.6101140196
  0
LWPOLYLINE
  5
2A9
330
1F
100
AcDbEntity
  8
0
  6
SLD-Solid
 62
     7
370
    15
100
AcDbPolyline
 90
       17
 70
   128
 43
0.0
 10
1076.1345643463
 20
1233.1499966795
 10
1076.0872233572
 20
1232.9333337958
 10
1076.1392358603
 20
1232.758453768
 10
1076.2827191414
 20
1232.6519402678
 10
1076.4953587117
 20
1232.6305422003
 10
1076.7441037955
 20
1232.6983722861
 10
1076.9905690016
 20
1232.8458341772
 10
1077.1971736016
 20
1233.0503973181
 10
1077.3329082789
 20
1233.2804116423
 10
1077.3778129282
 20
1233.4999951536
 10
1077.3255992593
 20
1233.6751136
 10
1077.1842766466
 20
1233.7790641005
 10
1076.9748706283
 20
1233.7964686567
 10
1076.7285618844
 20
1233.7256583388
 10
1076.4822903933
 20
1233.577958029
 10
1076.2735400261
 20
1233.3760174925
 10
1076.1345643463
 20
1233.1499966795
  0
LINE
  5
2AA
330
1F
100
AcDbEntity
  8
0
  6
SLD-Solid
 62
     7
370
    15
100
AcDbLine
 10
1082.9221624794
 20
1240.9613641913
 30
0.0
 11
1082.9149652185
 21
1240.965774935
 31
0.0
  0
LINE
  5
2AB
330
1F
100
AcDbEntity
  8
0
  6
SLD-Solid
 62
     7
370
    15
100
AcDbLine
 10
1032.4945021333
 20
1246.2347659285
 30
0.0
 11
1032.7152181329
 21
1245.8192023451
 31
0.0
  0
LWPOLYLINE
  5
2AC
330
1F
100
AcDbEntity
  8
0
  6
SLD-Solid
 62
     7
370
    15
100
AcDbPolyline
 90
        7
 70
   128
 43
0.0
 10
1032.7152181329
 20
1245.8192023451
 10
1032.5671974482
 20
1245.7198414023
 10
1032.4767175974
 20
1245.715013426
 10
1032.380210227
 20
1245.745888632
 10
1032.2794634761
 20
1245.812347811
 10
1032.1809220972
 20
1245.9120663817
 10
1032.0054758253
 20
1246.1868437941
  0
ARC
  5
2AD
330
1F
100
AcDbEntity
  8
0
  6
SLD-Solid
 62
     7
370
    15
100
AcDbCircle
 10
1032.9829109154
 20
1246.8013142953
 30
0.0
 40
1.154535990023913
100
AcDbArc
 50
157.6108752101
 51
212.1557711185
  0
LWPOLYLINE
  5
2AE
330
1F
100
AcDbEntity
  8
0
  6
SLD-Solid
 62
     7
370
    15
100
AcDbPolyline
 90
        4
 70
   128
 43
0.0
 10
1031.9154057564
 20
1247.2410711462
 10
1032.0488903584
 20
1247.3346504385
 10
1032.2090703907
 20
1247.343293112
 10
1032.5599331321
 20
1247.2100767309
  0
LINE
  5
2AF
330
1F
100
AcDbEntity
  8
0
  6
SLD-Solid
 62
     7
370
    15
100
AcDbLine
 10
1032.5599331321
 20
1247.2100767309
 30
0.0
 11
1032.7919442119
 21
1247.0946821387
 31
0.0
  0
LINE
  5
2B0
330
1F
100
AcDbEntity
  8
0
  6
SLD-Solid
 62
     7
370
    15
100
AcDbLine
 10
1032.7919442119
 20
1247.0946821387
 30
0.0
 11
1032.3935616674
 21
1247.9001197035
 31
0.0
  0
LINE
  5
2B1
330
1F
100
AcDbEntity
  8
0
  6
SLD-Solid
 62
     7
370
    15
100
AcDbLine
 10
1032.3935616674
 20
1247.9001197035
 30
0.0
 11
1032.5484815897
 21
1248.1042060072
 31
0.0
  0
LINE
  5
2B2
330
1F
100
AcDbEntity
  8
0
  6
SLD-Solid
 62
     7
370
    15
100
AcDbLine
 10
1032.5484815897
 20
1248.1042060072
 30
0.0
 11
1033.3444941701
 21
1246.5443524534
 31
0.0
  0
LINE
  5
2B3
330
1F
100
AcDbEntity
  8
0
  6
SLD-Solid
 62
     7
370
    15
100
AcDbLine
 10
1033.3444941701
 20
1246.5443524534
 30
0.0
 11
1033.2642588677
 21
1246.4384946043
 31
0.0
  0
LINE
  5
2B4
330
1F
100
AcDbEntity
  8
0
  6
SLD-Solid
 62
     7
370
    15
100
AcDbLine
 10
1033.2642588677
 20
1246.4384946043
 30
0.0
 11
1032.6204392972
 21
1246.7663797552
 31
0.0
  0
LWPOLYLINE
  5
2B5
330
1F
100
AcDbEntity
  8
0
  6
SLD-Solid
 62
     7
370
    15
100
AcDbPolyline
 90
        4
 70
   128
 43
0.0
 10
1032.6204392972
 20
1246.7663797552
 10
1032.3601830663
 20
1246.878496092
 10
1032.2389472188
 20
1246.8880328352
 10
1032.1378875436
 20
1246.8297990973
  0
ARC
  5
2B6
330
1F
100
AcDbEntity
  8
0
  6
SLD-Solid
 62
     7
370
    15
100
AcDbCircle
 10
1032.6231648308
 20
1246.636362142
 30
0.0
 40
0.5224097061815566
100
AcDbArc
 50
158.2672208894
 51
211.1723149886
  0
LWPOLYLINE
  5
2B7
330
1F
100
AcDbEntity
  8
0
  6
SLD-Solid
 62
     7
370
    15
100
AcDbPolyline
 90
        7
 70
   128
 43
0.0
 10
1032.1761909785
 20
1246.3659557516
 10
1032.2143379511
 20
1246.3003310377
 10
1032.2575140657
 20
1246.2453755552
 10
1032.3019120755
 20
1246.2071093733
 10
1032.3476511898
 20
1246.1841019804
 10
1032.4293095531
 20
1246.1845788176
 10
1032.4945021333
 20
1246.2347659285
  0
LINE
  5
2B8
330
1F
100
AcDbEntity
  8
0
  6
SLD-Solid
 62
     7
370
    15
100
AcDbLine
 10
1033.2642588677
 20
1246.4384946043
 30
0.0
 11
1033.2724768581
 21
1246.4414748366
 31
0.0
  0
LINE
  5
2B9
330
1F
100
AcDbEntity
  8
0
  6
SLD-Solid
 62
     7
370
    15
100
AcDbLine
 10
1033.3444941701
 20
1246.5443524534
 30
0.0
 11
1033.3527196111
 21
1246.5473326857
 31
0.0
  0
LINE
  5
2BA
330
1F
100
AcDbEntity
  8
0
  6
SLD-Solid
 62
     7
370
    15
100
AcDbLine
 10
1032.5484815897
 20
1248.1042060072
 30
0.0
 11
1032.5569528999
 21
1248.1066497976
 31
0.0
  0
LWPOLYLINE
  5
2BB
330
1F
100
AcDbEntity
  8
0
  6
SLD-Solid
 62
     7
370
    15
100
AcDbPolyline
 90
       17
 70
   128
 43
0.0
 10
1080.782921976
 20
1236.9539651091
 10
1080.7156730356
 20
1236.4962610418
 10
1080.8214042248
 20
1236.1407193358
 10
1081.0900721612
 20
1235.9477791006
 10
1081.4762730064
 20
1235.9462293799
 10
1081.918159491
 20
1236.1377391035
 10
1082.3449660005
 20
1236.4970955069
 10
1082.6918948354
 20
1236.9688066656
 10
1082.9063821497
 20
1237.4803933317
 10
1082.960771388
 20
1237.9505547697
 10
1082.8488785686
 20
1238.3060964758
 10
1082.5890917243
 20
1238.4910496885
 10
1082.2191852989
 20
1238.4805592711
 10
1081.7915517749
 20
1238.2769498045
 10
1081.367986268
 20
1237.9142555411
 10
1081.0125339689
 20
1237.4467763121
 10
1080.782921976
 20
1236.9539651091
  0
LWPOLYLINE
  5
2BC
330
1F
100
AcDbEntity
  8
0
  6
SLD-Solid
 62
     7
370
    15
100
AcDbPolyline
 90
       17
 70
   128
 43
0.0
 10
1039.8831684055
 20
1235.1928266699
 10
1039.7570151748
 20
1235.433092993
 10
1039.564797646
 20
1235.6530341322
 10
1039.3362883391
 20
1235.819688719
 10
1039.1061697068
 20
1235.9074863608
 10
1038.9087963762
 20
1235.902419966
 10
1038.7733820738
 20
1235.8045491392
 10
1038.7200508179
 20
1235.6282982046
 10
1038.7570653023
 20
1235.4006680662
 10
1038.8794559898
 20
1235.1568254645
 10
1039.0694085421
 20
1234.934738558
 10
1039.2984840931
 20
1234.7686800177
 10
1039.5316574635
 20
1234.6837433989
 10
1039.7327933373
 20
1234.6923264677
 10
1039.8704651656
 20
1234.792283457
 10
1039.9232376279
 20
1234.9680575545
 10
1039.8831684055
 20
1235.1928266699
  0
ARC
  5
2BD
330
1F
100
AcDbEntity
  8
0
  6
SLD-Solid
 62
     7
370
    15
100
AcDbCircle
 10
1032.3310125428
 20
1248.6081869624
 30
0.0
 40
1.317164245078929
100
AcDbArc
 50
141.7940673845
 51
206.6570240918
  0
LWPOLYLINE
  5
2BE
330
1F
100
AcDbEntity
  8
0
  6
SLD-Solid
 62
     7
370
    15
100
AcDbPolyline
 90
        7
 70
   128
 43
0.0
 10
1031.2959942879
 20
1249.4228395636
 10
1031.4684901299
 20
1249.5930704291
 10
1031.6699165763
 20
1249.6644171889
 10
1031.7896176042
 20
1249.630502146
 10
1031.899424261
 20
1249.5406183417
 10
1032.0082846941
 20
1249.3831428702
 10
1032.1029964747
 20
1249.1865667517
  0
ARC
  5
2BF
330
1F
100
AcDbEntity
  8
0
  6
SLD-Solid
 62
     7
370
    15
100
AcDbCircle
 10
1030.9587372105
 20
1248.5791953739
 30
0.0
 40
1.295464879573548
100
AcDbArc
 50
322.9505550576
 51
27.9593063302
  0
LWPOLYLINE
  5
2C0
330
1F
100
AcDbEntity
  8
0
  6
SLD-Solid
 62
     7
370
    15
100
AcDbPolyline
 90
        3
 70
   128
 43
0.0
 10
1031.9926682772
 20
1247.7986725981
 10
1031.7893493833
 20
1247.6069244559
 10
1031.5414089622
 20
1247.5561412985
  0
ARC
  5
2C1
330
1F
100
AcDbEntity
  8
0
  6
SLD-Solid
 62
     7
370
    15
100
AcDbCircle
 10
1031.9285086083
 20
1248.2749213601
 30
0.0
 40
0.8163889471356095
100
AcDbArc
 50
198.3989752203
 51
241.6952753621
  0
ARC
  5
2C2
330
1F
100
AcDbEntity
  8
0
  6
SLD-Solid
 62
     7
370
    15
100
AcDbCircle
 10
1031.690613283
 20
1248.9231786832
 30
0.0
 40
0.2613591193993884
100
AcDbArc
 50
14.8516327485
 51
71.4028387243
  0
LWPOLYLINE
  5
2C3
330
1F
100
AcDbEntity
  8
0
  6
SLD-Solid
 62
     7
370
    15
100
AcDbPolyline
 90
        3
 70
   128
 43
0.0
 10
1031.7739639344
 20
1249.1708907301
 10
1031.6115040245
 20
1249.1179618056
 10
1031.4742717804
 20
1248.981467169
  0
ARC
  5
2C4
330
1F
100
AcDbEntity
  8
0
  6
SLD-Solid
 62
     7
370
    15
100
AcDbCircle
 10
1031.9533204006
 20
1248.4850210753
 30
0.0
 40
0.6898886174065728
100
AcDbArc
 50
133.9782659711
 51
201.9421705077
  0
LWPOLYLINE
  5
2C5
330
1F
100
AcDbEntity
  8
0
  6
SLD-Solid
 62
     7
370
    15
100
AcDbPolyline
 90
        7
 70
   128
 43
0.0
 10
1031.3134062948
 20
1248.227229994
 10
1031.3754919829
 20
1248.1154116804
 10
1031.4116869034
 20
1248.0743440802
 10
1031.448254353
 20
1248.0471643622
 10
1031.5179247322
 20
1248.0316671545
 10
1031.5836463036
 20
1248.0483564551
 10
1031.8005923094
 20
1248.2439788992
  0
ARC
  5
2C6
330
1F
100
AcDbEntity
  8
0
  6
SLD-Solid
 62
     7
370
    15
100
AcDbCircle
 10
1031.3147125139
 20
1248.723594579
 30
0.0
 40
0.6827227665896078
100
AcDbArc
 50
315.3717286822
 51
22.9830280427
  0
LINE
  5
2C7
330
1F
100
AcDbEntity
  8
0
  6
SLD-Solid
 62
     7
370
    15
100
AcDbLine
 10
1031.9926682772
 20
1247.7986725981
 30
0.0
 11
1032.0011768403
 21
1247.8010567839
 31
0.0
  0
LWPOLYLINE
  5
2C8
330
1F
100
AcDbEntity
  8
0
  6
SLD-Solid
 62
     7
370
    15
100
AcDbPolyline
 90
        3
 70
   128
 43
0.0
 10
1032.1029964747
 20
1249.1865667517
 10
1032.1073029103
 20
1249.1876396353
 10
1032.1116167964
 20
1249.1887125189
  0
ARC
  5
2C9
330
1F
100
AcDbEntity
  8
0
  6
SLD-Solid
 62
     7
370
    15
100
AcDbCircle
 10
1031.9617596338
 20
1248.4870546521
 30
0.0
 40
0.6896787253008849
100
AcDbArc
 50
133.9681656046
 51
201.9391468708
  0
LWPOLYLINE
  5
2CA
330
1F
100
AcDbEntity
  8
0
  6
SLD-Solid
 62
     7
370
    15
100
AcDbPolyline
 90
        3
 70
   128
 43
0.0
 10
1031.782621509
 20
1249.172917288
 10
1031.6201690497
 20
1249.1199883635
 10
1031.4829442563
 20
1248.9834341223
  0
ARC
  5
2CB
330
1F
100
AcDbEntity
  8
0
  6
SLD-Solid
 62
     7
370
    15
100
AcDbCircle
 10
1031.5634668733
 20
1248.2772147623
 30
0.0
 40
0.2461340439602408
100
AcDbArc
 50
191.2074311481
 51
261.3621447333
  0
LWPOLYLINE
  5
2CC
330
1F
100
AcDbEntity
  8
0
  6
SLD-Solid
 62
     7
370
    15
100
AcDbPolyline
 90
        3
 70
   128
 43
0.0
 10
1032.1378875436
 20
1246.8297990973
 10
1032.1420896711
 20
1246.8311103995
 10
1032.146284348
 20
1246.8324217016
  0
LINE
  5
2CD
330
1F
100
AcDbEntity
  8
0
  6
SLD-Solid
 62
     7
370
    15
100
AcDbLine
 10
1033.5519406857
 20
1244.0273079092
 30
0.0
 11
1033.559875554
 21
1244.030705374
 31
0.0
  0
LINE
  5
2CE
330
1F
100
AcDbEntity
  8
0
  6
SLD-Solid
 62
     7
370
    15
100
AcDbLine
 10
1032.7152181329
 20
1245.8192023451
 30
0.0
 11
1032.7234510245
 21
1245.8221229727
 31
0.0
  0
LWPOLYLINE
  5
2CF
330
1F
100
AcDbEntity
  8
0
  6
SLD-Solid
 62
     7
370
    15
100
AcDbPolyline
 90
        3
 70
   128
 43
0.0
 10
1032.4945021333
 20
1246.2347659285
 10
1032.4986521067
 20
1246.23619644
 10
1032.5028020801
 20
1246.2375673468
  0
LWPOLYLINE
  5
2D0
330
1F
100
AcDbEntity
  8
0
  6
SLD-Solid
 62
     7
370
    15
100
AcDbPolyline
 90
        3
 70
   128
 43
0.0
 10
1032.1761835279
 20
1246.3659557516
 10
1032.1803633036
 20
1246.3673266585
 10
1032.1845430793
 20
1246.3686379606
  0
LWPOLYLINE
  5
2D1
330
1F
100
AcDbEntity
  8
0
  6
SLD-Solid
 62
     7
370
    15
100
AcDbPolyline
 90
        3
 70
   128
 43
0.0
 10
1031.3220266165
 20
1248.2293757612
 10
1031.3177127304
 20
1248.2283028776
 10
1031.3134062948
 20
1248.227229994
  0
LWPOLYLINE
  5
2D2
330
1F
100
AcDbEntity
  8
0
  6
SLD-Solid
 62
     7
370
    15
100
AcDbPolyline
 90
       17
 70
   128
 43
0.0
 10
1035.2958831849
 20
1239.5725163634
 10
1035.1987276139
 20
1239.8351344282
 10
1035.0425932469
 20
1240.082493704
 10
1034.8517466249
 20
1240.2771624739
 10
1034.6549320879
 20
1240.3892788107
 10
1034.4812143507
 20
1240.4012593443
 10
1034.3560594978
 20
1240.3107794935
 10
1034.2980492773
 20
1240.1312503035
 10
1034.3163404526
 20
1239.8902687246
 10
1034.4090554776
 20
1239.6250280554
 10
1034.5630291762
 20
1239.376417082
 10
1034.7552616062
 20
1239.1825827772
 10
1034.9561963143
 20
1239.0729102308
 10
1035.1343545975
 20
1239.063492697
 10
1035.2616775693
 20
1239.1552838499
 10
1035.3182945313
 20
1239.333978575
 10
1035.2958831849
 20
1239.5725163634
  0
LWPOLYLINE
  5
2D3
330
1F
100
AcDbEntity
  8
0
  6
SLD-Solid
 62
     7
370
    15
100
AcDbPolyline
 90
        7
 70
   128
 43
0.0
 10
1089.3464554014
 20
1252.7035388167
 10
1089.2864633264
 20
1252.4954590017
 10
1089.2065782012
 20
1252.3237380202
 10
1089.1111809673
 20
1252.2090586836
 10
1089.00983817
 20
1252.1578582937
 10
1088.8146478595
 20
1252.1961244757
 10
1088.6365044775
 20
1252.3393544371
  0
ARC
  5
2D4
330
1F
100
AcDbEntity
  8
0
  6
SLD-Solid
 62
     7
370
    15
100
AcDbCircle
 10
1089.6614549527
 20
1253.270318535
 30
0.0
 40
1.384636280154987
100
AcDbArc
 50
162.3744894868
 51
222.2489167832
  0
LWPOLYLINE
  5
2D5
330
1F
100
AcDbEntity
  8
0
  6
SLD-Solid
 62
     7
370
    15
100
AcDbPolyline
 90
        7
 70
   128
 43
0.0
 10
1088.3418191137
 20
1253.6895784552
 10
1088.3988160553
 20
1253.8963469679
 10
1088.4727854194
 20
1254.068485182
 10
1088.5607320728
 20
1254.1839393789
 10
1088.6561144056
 20
1254.2381796057
 10
1088.842974967
 20
1254.2048010046
 10
1089.017512268
 20
1254.0637764151
  0
ARC
  5
2D6
330
1F
100
AcDbEntity
  8
0
  6
SLD-Solid
 62
     7
370
    15
100
AcDbCircle
 10
1088.1871357641
 20
1253.1941183327
 30
0.0
 40
1.202426845347897
100
AcDbArc
 50
13.558601795
 51
46.3236602714
  0
ARC
  5
2D7
330
1F
100
AcDbEntity
  8
0
  6
SLD-Solid
 62
     7
370
    15
100
AcDbCircle
 10
1087.6391898673
 20
1253.1110456075
 30
0.0
 40
1.755225737122893
100
AcDbArc
 50
346.5752707275
 51
12.00124995
  0
ARC
  5
2D8
330
1F
100
AcDbEntity
  8
0
  6
SLD-Solid
 62
     7
370
    15
100
AcDbCircle
 10
1089.1955080424
 20
1253.3626632096
 30
0.0
 40
0.7035420337303143
100
AcDbArc
 50
166.7980379361
 51
194.3241725807
  0
LWPOLYLINE
  5
2D9
330
1F
100
AcDbEntity
  8
0
  6
SLD-Solid
 62
     7
370
    15
100
AcDbPolyline
 90
        3
 70
   128
 43
0.0
 10
1088.5138381185
 20
1253.1886014158
 10
1088.6188466014
 20
1252.959361952
 10
1088.7491423549
 20
1252.8034958059
  0
LWPOLYLINE
  5
2DA
330
1F
100
AcDbEntity
  8
0
  6
SLD-Solid
 62
     7
370
    15
100
AcDbPolyline
 90
        7
 70
   128
 43
0.0
 10
1088.7491423549
 20
1252.8034958059
 10
1088.9610517683
 20
1252.6531728918
 10
1089.0187043609
 20
1252.6490005667
 10
1089.0773404302
 20
1252.6791009123
 10
1089.1316849651
 20
1252.7495536024
 10
1089.1539174976
 20
1252.8023037131
 10
1089.1711879434
 20
1252.8636964972
  0
ARC
  5
2DB
330
1F
100
AcDbEntity
  8
0
  6
SLD-Solid
 62
     7
370
    15
100
AcDbCircle
 10
1088.4567792899
 20
1253.0309391026
 30
0.0
 40
0.7337232538477567
100
AcDbArc
 50
346.8243610885
 51
51.122916908
  0
LWPOLYLINE
  5
2DC
330
1F
100
AcDbEntity
  8
0
  6
SLD-Solid
 62
     7
370
    15
100
AcDbPolyline
 90
        6
 70
   128
 43
0.0
 10
1088.917301959
 20
1253.6021384413
 10
1088.7106228532
 20
1253.7448915655
 10
1088.6548776092
 20
1253.7448319609
 10
1088.5989535512
 20
1253.7105592901
 10
1088.5478723707
 20
1253.6367091353
 10
1088.510559863
 20
1253.5233411009
  0
LWPOLYLINE
  5
2DD
330
1F
100
AcDbEntity
  8
0
  6
SLD-Solid
 62
     7
370
    15
100
AcDbPolyline
 90
        3
 70
   128
 43
0.0
 10
1088.3418191137
 20
1253.6895784552
 10
1088.3372891607
 20
1253.689936083
 10
1088.3327443065
 20
1253.6902937109
  0
ARC
  5
2DE
330
1F
100
AcDbEntity
  8
0
  6
SLD-Solid
 62
     7
370
    15
100
AcDbCircle
 10
1088.8984207866
 20
1252.890322722
 30
0.0
 40
0.2649623247982153
100
AcDbArc
 50
294.8201706902
 51
354.3880110928
  0
LINE
  5
2DF
330
1F
100
AcDbEntity
  8
0
  6
SLD-Solid
 62
     7
370
    15
100
AcDbLine
 10
1088.9081973495
 20
1253.6027344877
 30
0.0
 11
1088.7015182437
 21
1253.745487612
 31
0.0
  0
ARC
  5
2E0
330
1F
100
AcDbEntity
  8
0
  6
SLD-Solid
 62
     7
370
    15
100
AcDbCircle
 10
1088.4478403795
 20
1253.0315902901
 30
0.0
 40
0.7335763316174029
100
AcDbArc
 50
346.8268140309
 51
51.1302889316
  0
LWPOLYLINE
  5
2E1
330
1F
100
AcDbEntity
  8
0
  6
SLD-Solid
 62
     7
370
    15
100
AcDbPolyline
 90
       17
 70
   128
 43
0.0
 10
1085.5280775489
 20
1241.956761759
 10
1085.5162609281
 20
1241.7123827154
 10
1085.5760890903
 20
1241.5319594557
 10
1085.6988448562
 20
1241.4427313025
 10
1085.8653653326
 20
1241.4584669287
 10
1086.0493350687
 20
1241.5773185904
 10
1086.2217564048
 20
1241.781583708
 10
1086.356000966
 20
1242.040327471
 10
1086.4320266904
 20
1242.3140319998
 10
1086.4392537536
 20
1242.5604972059
 10
1086.3775927486
 20
1242.7417549307
 10
1086.2568337383
 20
1242.8300890143
 10
1086.0949475231
 20
1242.8122076208
 10
1085.9155673446
 20
1242.6912697966
 10
1085.7449639501
 20
1242.4861702139
 10
1085.6087375345
 20
1242.2283205206
 10
1085.5280775489
 20
1241.956761759
  0
LWPOLYLINE
  5
2E2
330
1F
100
AcDbEntity
  8
0
  6
SLD-Solid
 62
     7
370
    15
100
AcDbPolyline
 90
       17
 70
   128
 43
0.0
 10
1032.0499483408
 20
1244.7964462454
 10
1031.9262538018
 20
1245.3537496741
 10
1031.7035484972
 20
1245.8910855467
 10
1031.4154419961
 20
1246.3214906866
 10
1031.1049241485
 20
1246.5798768217
 10
1030.813964075
 20
1246.6275009329
 10
1030.5836368265
 20
1246.4533957655
 10
1030.4463971319
 20
1246.0860523398
 10
1030.4269138636
 20
1245.5798300917
 10
1030.5310953321
 20
1245.0150760824
 10
1030.7481679978
 20
1244.4775613959
 10
1031.0456249775
 20
1244.0514477904
 10
1031.3766989769
 20
1243.7987837012
 10
1031.6861811938
 20
1243.7589081938
 10
1031.923266119
 20
1243.9356955702
 10
1032.0493820967
 20
1244.303873461
 10
1032.0499483408
 20
1244.7964462454
  0
LINE
  5
2E3
330
1F
100
AcDbEntity
  8
0
  6
SLD-Solid
 62
     7
370
    15
100
AcDbLine
 10
1089.6937716665
 20
1254.48410837
 30
0.0
 11
1089.6154958667
 21
1254.0112051184
 31
0.0
  0
LINE
  5
2E4
330
1F
100
AcDbEntity
  8
0
  6
SLD-Solid
 62
     7
370
    15
100
AcDbLine
 10
1089.6154958667
 20
1254.0112051184
 30
0.0
 11
1088.9914054336
 21
1254.5844825918
 31
0.0
  0
LINE
  5
2E5
330
1F
100
AcDbEntity
  8
0
  6
SLD-Solid
 62
     7
370
    15
100
AcDbLine
 10
1088.9914054336
 20
1254.5844825918
 30
0.0
 11
1088.9524090948
 21
1254.3637069876
 31
0.0
  0
LINE
  5
2E6
330
1F
100
AcDbEntity
  8
0
  6
SLD-Solid
 62
     7
370
    15
100
AcDbLine
 10
1088.9524090948
 20
1254.3637069876
 30
0.0
 11
1088.7817460956
 21
1254.520526808
 31
0.0
  0
LINE
  5
2E7
330
1F
100
AcDbEntity
  8
0
  6
SLD-Solid
 62
     7
370
    15
100
AcDbLine
 10
1088.7817460956
 20
1254.520526808
 30
0.0
 11
1088.8207722368
 21
1254.7413024122
 31
0.0
  0
LINE
  5
2E8
330
1F
100
AcDbEntity
  8
0
  6
SLD-Solid
 62
     7
370
    15
100
AcDbLine
 10
1088.8207722368
 20
1254.7413024122
 30
0.0
 11
1088.6217523279
 21
1254.924407881
 31
0.0
  0
LINE
  5
2E9
330
1F
100
AcDbEntity
  8
0
  6
SLD-Solid
 62
     7
370
    15
100
AcDbLine
 10
1088.6217523279
 20
1254.924407881
 30
0.0
 11
1088.6984784069
 21
1255.3867015059
 31
0.0
  0
LINE
  5
2EA
330
1F
100
AcDbEntity
  8
0
  6
SLD-Solid
 62
     7
370
    15
100
AcDbLine
 10
1088.6984784069
 20
1255.3867015059
 30
0.0
 11
1088.8974536123
 21
1255.2035960371
 31
0.0
  0
LINE
  5
2EB
330
1F
100
AcDbEntity
  8
0
  6
SLD-Solid
 62
     7
370
    15
100
AcDbLine
 10
1088.8974536123
 20
1255.2035960371
 30
0.0
 11
1089.0503544273
 21
1256.287566107
 31
0.0
  0
LINE
  5
2EC
330
1F
100
AcDbEntity
  8
0
  6
SLD-Solid
 62
     7
370
    15
100
AcDbLine
 10
1089.0503544273
 20
1256.287566107
 30
0.0
 11
1089.2210323276
 21
1256.1307462866
 31
0.0
  0
LINE
  5
2ED
330
1F
100
AcDbEntity
  8
0
  6
SLD-Solid
 62
     7
370
    15
100
AcDbLine
 10
1089.2210323276
 20
1256.1307462866
 30
0.0
 11
1089.6937716665
 21
1254.48410837
 31
0.0
  0
LINE
  5
2EE
330
1F
100
AcDbEntity
  8
0
  6
SLD-Solid
 62
     7
370
    15
100
AcDbLine
 10
1089.1528893175
 20
1255.6142720396
 30
0.0
 11
1089.0680421056
 21
1255.0467762167
 31
0.0
  0
LINE
  5
2EF
330
1F
100
AcDbEntity
  8
0
  6
SLD-Solid
 62
     7
370
    15
100
AcDbLine
 10
1089.0680421056
 20
1255.0467762167
 30
0.0
 11
1089.3929917278
 21
1254.7482761557
 31
0.0
  0
LINE
  5
2F0
330
1F
100
AcDbEntity
  8
0
  6
SLD-Solid
 62
     7
370
    15
100
AcDbLine
 10
1089.3929917278
 20
1254.7482761557
 30
0.0
 11
1089.1528893175
 21
1255.6142720396
 31
0.0
  0
LINE
  5
2F1
330
1F
100
AcDbEntity
  8
0
  6
SLD-Solid
 62
     7
370
    15
100
AcDbLine
 10
1088.6217523279
 20
1254.924407881
 30
0.0
 11
1088.6126030149
 21
1254.9247655089
 31
0.0
  0
LINE
  5
2F2
330
1F
100
AcDbEntity
  8
0
  6
SLD-Solid
 62
     7
370
    15
100
AcDbLine
 10
1088.8207722368
 20
1254.7413024122
 30
0.0
 11
1088.8116080226
 21
1254.7416600401
 31
0.0
  0
LINE
  5
2F3
330
1F
100
AcDbEntity
  8
0
  6
SLD-Solid
 62
     7
370
    15
100
AcDbLine
 10
1088.6984784069
 20
1255.3867015059
 30
0.0
 11
1088.6892992916
 21
1255.3868803198
 31
0.0
  0
LINE
  5
2F4
330
1F
100
AcDbEntity
  8
0
  6
SLD-Solid
 62
     7
370
    15
100
AcDbLine
 10
1088.7817460956
 20
1254.520526808
 30
0.0
 11
1088.7726116838
 21
1254.5209440405
 31
0.0
  0
LINE
  5
2F5
330
1F
100
AcDbEntity
  8
0
  6
SLD-Solid
 62
     7
370
    15
100
AcDbLine
 10
1088.9524090948
 20
1254.3637069876
 30
0.0
 11
1088.943274683
 21
1254.3641242201
 31
0.0
  0
LWPOLYLINE
  5
2F6
330
1F
100
AcDbEntity
  8
0
  6
SLD-Solid
 62
     7
370
    15
100
AcDbPolyline
 90
        3
 70
   128
 43
0.0
 10
1089.1621131362
 20
1252.8644117529
 10
1089.1666579904
 20
1252.864054125
 10
1089.1711879434
 20
1252.8636964972
  0
LINE
  5
2F7
330
1F
100
AcDbEntity
  8
0
  6
SLD-Solid
 62
     7
370
    15
100
AcDbLine
 10
1089.636223382
 20
1257.3461445982
 30
0.0
 11
1089.6632987918
 21
1257.8066500837
 31
0.0
  0
ARC
  5
2F8
330
1F
100
AcDbEntity
  8
0
  6
SLD-Solid
 62
     7
370
    15
100
AcDbCircle
 10
1088.4724795174
 20
1256.9087522118
 30
0.0
 40
1.491399052153164
100
AcDbArc
 50
350.7853798478
 51
37.0169112062
  0
LWPOLYLINE
  5
2F9
330
1F
100
AcDbEntity
  8
0
  6
SLD-Solid
 62
     7
370
    15
100
AcDbPolyline
 90
        6
 70
   128
 43
0.0
 10
1089.9446327152
 20
1256.6699299032
 10
1089.9017173709
 20
1256.3922318632
 10
1089.8646134796
 20
1256.2786254103
 10
1089.8180473508
 20
1256.19058935
 10
1089.7062290372
 20
1256.1015996153
 10
1089.5866919221
 20
1256.1324748213
  0
ARC
  5
2FA
330
1F
100
AcDbEntity
  8
0
  6
SLD-Solid
 62
     7
370
    15
100
AcDbCircle
 10
1091.1045842162
 20
1257.2647242512
 30
0.0
 40
1.893669925823269
100
AcDbArc
 50
185.7571913244
 51
216.7205565771
  0
LINE
  5
2FB
330
1F
100
AcDbEntity
  8
0
  6
SLD-Solid
 62
     7
370
    15
100
AcDbLine
 10
1089.2204660835
 20
1257.0747646506
 30
0.0
 11
1089.1280639829
 21
1257.4503335173
 31
0.0
  0
LINE
  5
2FC
330
1F
100
AcDbEntity
  8
0
  6
SLD-Solid
 62
     7
370
    15
100
AcDbLine
 10
1089.1280639829
 20
1257.4503335173
 30
0.0
 11
1089.0485662879
 21
1256.565264147
 31
0.0
  0
LINE
  5
2FD
330
1F
100
AcDbEntity
  8
0
  6
SLD-Solid
 62
     7
370
    15
100
AcDbLine
 10
1089.0485662879
 20
1256.565264147
 30
0.0
 11
1088.8778436842
 21
1256.7096862013
 31
0.0
  0
LINE
  5
2FE
330
1F
100
AcDbEntity
  8
0
  6
SLD-Solid
 62
     7
370
    15
100
AcDbLine
 10
1088.8778436842
 20
1256.7096862013
 30
0.0
 11
1089.009286827
 21
1258.4293994124
 31
0.0
  0
LINE
  5
2FF
330
1F
100
AcDbEntity
  8
0
  6
SLD-Solid
 62
     7
370
    15
100
AcDbLine
 10
1089.009286827
 20
1258.4293994124
 30
0.0
 11
1089.0977252187
 21
1258.3548340017
 31
0.0
  0
LINE
  5
300
330
1F
100
AcDbEntity
  8
0
  6
SLD-Solid
 62
     7
370
    15
100
AcDbLine
 10
1089.0977252187
 20
1258.3548340017
 30
0.0
 11
1089.3566626968
 21
1257.3290380652
 31
0.0
  0
ARC
  5
301
330
1F
100
AcDbEntity
  8
0
  6
SLD-Solid
 62
     7
370
    15
100
AcDbCircle
 10
1090.9417589137
 20
1257.5015452154
 30
0.0
 40
1.594455623021146
100
AcDbArc
 50
186.2110958016
 51
213.8231726747
  0
LWPOLYLINE
  5
302
330
1F
100
AcDbEntity
  8
0
  6
SLD-Solid
 62
     7
370
    15
100
AcDbPolyline
 90
        8
 70
   128
 43
0.0
 10
1089.6171498956
 20
1256.6140207464
 10
1089.6701086225
 20
1256.5948280508
 10
1089.6956790151
 20
1256.6066297705
 10
1089.7192079486
 20
1256.6330346281
 10
1089.7395331325
 20
1256.6721948797
 10
1089.7558052005
 20
1256.7225011999
 10
1089.7673386993
 20
1256.7816290075
 10
1089.7744912567
 20
1256.8463596518
  0
ARC
  5
303
330
1F
100
AcDbEntity
  8
0
  6
SLD-Solid
 62
     7
370
    15
100
AcDbCircle
 10
1089.1204635869
 20
1256.9344490032
 30
0.0
 40
0.659925320878372
100
AcDbArc
 50
352.3342661033
 51
38.5979616866
  0
LINE
  5
304
330
1F
100
AcDbEntity
  8
0
  6
SLD-Solid
 62
     7
370
    15
100
AcDbLine
 10
1088.8778436842
 20
1256.7096862013
 30
0.0
 11
1088.8686049642
 21
1256.7094477827
 31
0.0
  0
LINE
  5
305
330
1F
100
AcDbEntity
  8
0
  6
SLD-Solid
 62
     7
370
    15
100
AcDbLine
 10
1089.0485662879
 20
1256.565264147
 30
0.0
 11
1089.039327568
 21
1256.5650257284
 31
0.0
  0
LINE
  5
306
330
1F
100
AcDbEntity
  8
0
  6
SLD-Solid
 62
     7
370
    15
100
AcDbLine
 10
1089.009286827
 20
1258.4293994124
 30
0.0
 11
1089.0000183048
 21
1258.428624552
 31
0.0
  0
LINE
  5
307
330
1F
100
AcDbEntity
  8
0
  6
SLD-Solid
 62
     7
370
    15
100
AcDbLine
 10
1089.0503544273
 20
1256.287566107
 30
0.0
 11
1089.0411306085
 21
1256.2874468977
 31
0.0
  0
LINE
  5
308
330
1F
100
AcDbEntity
  8
0
  6
SLD-Solid
 62
     7
370
    15
100
AcDbLine
 10
1089.6154958667
 20
1254.0112051184
 30
0.0
 11
1089.6063316526
 21
1254.0115627463
 31
0.0
  0
LINE
  5
309
330
1F
100
AcDbEntity
  8
0
  6
SLD-Solid
 62
     7
370
    15
100
AcDbLine
 10
1089.3838126125
 20
1254.7484549696
 30
0.0
 11
1089.1436803998
 21
1255.6142720396
 31
0.0
  0
LINE
  5
30A
330
1F
100
AcDbEntity
  8
0
  6
SLD-Solid
 62
     7
370
    15
100
AcDbLine
 10
1089.5866919221
 20
1256.1324748213
 30
0.0
 11
1089.5774532022
 21
1256.1322364027
 31
0.0
  0
LWPOLYLINE
  5
30B
330
1F
100
AcDbEntity
  8
0
  6
SLD-Solid
 62
     7
370
    15
100
AcDbPolyline
 90
       17
 70
   128
 43
0.0
 10
1088.558809823
 20
1247.5689562971
 10
1088.5743219318
 20
1247.3149213011
 10
1088.644416994
 20
1247.130862158
 10
1088.759036726
 20
1247.0445546324
 10
1088.9004189434
 20
1247.0693501646
 10
1089.0460032882
 20
1247.201672476
 10
1089.1724694433
 20
1247.4215540106
 10
1089.259983963
 20
1247.6957353766
 10
1089.2955083313
 20
1247.9823741133
 10
1089.2746318044
 20
1248.2375415976
 10
1089.2017204227
 20
1248.4222563917
 10
1089.0884864988
 20
1248.5082062895
 10
1088.9518875541
 20
1248.4823974783
 10
1088.8116676273
 20
1248.3489426787
 10
1088.6880177917
 20
1248.128405493
 10
1088.599117464
 20
1247.8545221502
 10
1088.558809823
 20
1247.5689562971
  0
LINE
  5
30C
330
1F
100
AcDbEntity
  8
0
  6
SLD-Solid
 62
     7
370
    15
100
AcDbLine
 10
1089.7744912567
 20
1256.8463596518
 30
0.0
 11
1089.7652227344
 21
1256.8458828146
 31
0.0
  0
LINE
  5
30D
330
1F
100
AcDbEntity
  8
0
  6
SLD-Solid
 62
     7
370
    15
100
AcDbLine
 10
1089.636223382
 20
1257.3461445982
 30
0.0
 11
1089.6269548597
 21
1257.3455485518
 31
0.0
  0
LINE
  5
30E
330
1F
100
AcDbEntity
  8
0
  6
SLD-Solid
 62
     7
370
    15
100
AcDbLine
 10
1089.6632987918
 20
1257.8066500837
 30
0.0
 11
1089.6540153684
 21
1257.8058752234
 31
0.0
  0
ARC
  5
30F
330
1F
100
AcDbEntity
  8
0
  6
SLD-Solid
 62
     7
370
    15
100
AcDbCircle
 10
1074.4642204774
 20
1282.5526769497
 30
0.0
 40
0.9622464831312277
100
AcDbArc
 50
334.36880944
 51
21.6978537085
  0
ARC
  5
310
330
1F
100
AcDbEntity
  8
0
  6
SLD-Solid
 62
     7
370
    15
100
AcDbCircle
 10
1044.5316658011
 20
1282.5526769497
 30
0.0
 40
0.9622464831310187
100
AcDbArc
 50
158.3021462915
 51
205.63119056
  0
LWPOLYLINE
  5
311
330
1F
100
AcDbEntity
  8
0
  6
SLD-Solid
 62
     7
370
    15
100
AcDbPolyline
 90
       17
 70
   128
 43
0.0
 10
1089.9849105539
 20
1253.4460934813
 10
1090.0764334859
 20
1252.9320630247
 10
1090.2428496542
 20
1252.5571498091
 10
1090.4633272352
 20
1252.3866209204
 10
1090.7026994886
 20
1252.4436029608
 10
1090.9212250175
 20
1252.7182015593
 10
1091.0798925819
 20
1253.1705412085
 10
1091.1524910392
 20
1253.7304672415
 10
1091.1271739664
 20
1254.3133410628
 10
1091.0127032461
 20
1254.8296364958
 10
1090.8306706609
 20
1255.201271456
 10
1090.6127113761
 20
1255.3706678564
 10
1090.3911609115
 20
1255.3139838392
 10
1090.1963580312
 20
1255.0377163107
 10
1090.0524575176
 20
1254.5844825918
 10
1089.9787116708
 20
1254.0216955359
 10
1089.9849105539
 20
1253.4460934813
  0
LINE
  5
312
330
1F
100
AcDbEntity
  8
0
  6
SLD-Solid
 62
     7
370
    15
100
AcDbLine
 10
1086.4056069316
 20
1271.1442622358
 30
0.0
 11
1086.3971430721
 21
1271.1394938643
 31
0.0
  0
ARC
  5
313
330
1F
100
AcDbEntity
  8
0
  6
SLD-Solid
 62
     7
370
    15
100
AcDbCircle
 10
1088.2091288462
 20
1271.8075185611
 30
0.0
 40
1.921613969901264
100
AcDbArc
 50
200.1913104209
 51
239.5744756932
  0
LWPOLYLINE
  5
314
330
1F
100
AcDbEntity
  8
0
  6
SLD-Solid
 62
     7
370
    15
100
AcDbPolyline
 90
        7
 70
   128
 43
0.0
 10
1087.3318482103
 20
1270.7666668112
 10
1087.4183047475
 20
1270.5673488791
 10
1087.4764490785
 20
1270.389667433
 10
1087.4978620471
 20
1270.256272238
 10
1087.4834675254
 20
1270.1647791083
 10
1087.3836744489
 20
1270.1101812536
 10
1087.2359890403
 20
1270.1505335982
  0
LWPOLYLINE
  5
315
330
1F
100
AcDbEntity
  8
0
  6
SLD-Solid
 62
     7
370
    15
100
AcDbPolyline
 90
        7
 70
   128
 43
0.0
 10
1086.4056069316
 20
1271.1442622358
 10
1086.3180477085
 20
1271.3410767729
 10
1086.2549859943
 20
1271.5163740332
 10
1086.2273294391
 20
1271.6511997397
 10
1086.2352866592
 20
1271.7374476607
 10
1086.3264817657
 20
1271.7909726317
 10
1086.4710081281
 20
1271.7503818686
  0
LWPOLYLINE
  5
316
330
1F
100
AcDbEntity
  8
0
  6
SLD-Solid
 62
     7
370
    15
100
AcDbPolyline
 90
        3
 70
   128
 43
0.0
 10
1086.4710081281
 20
1271.7503818686
 10
1086.6710711183
 20
1271.6401132757
 10
1086.9211424055
 20
1271.412363928
  0
ARC
  5
317
330
1F
100
AcDbEntity
  8
0
  6
SLD-Solid
 62
     7
370
    15
100
AcDbCircle
 10
1084.6859784085
 20
1269.5371862184
 30
0.0
 40
2.917575969227658
100
AcDbArc
 50
24.9233118203
 51
39.9947711763
  0
ARC
  5
318
330
1F
100
AcDbEntity
  8
0
  6
SLD-Solid
 62
     7
370
    15
100
AcDbCircle
 10
1087.6363125506
 20
1271.5778896584
 30
0.0
 40
1.184172763892451
100
AcDbArc
 50
204.8437068719
 51
220.8132360201
  0
LWPOLYLINE
  5
319
330
1F
100
AcDbEntity
  8
0
  6
SLD-Solid
 62
     7
370
    15
100
AcDbPolyline
 90
        3
 70
   128
 43
0.0
 10
1086.7400783958
 20
1270.8039197142
 10
1086.9037080469
 20
1270.6592592413
 10
1087.0386678638
 20
1270.5871376211
  0
LWPOLYLINE
  5
31A
330
1F
100
AcDbEntity
  8
0
  6
SLD-Solid
 62
     7
370
    15
100
AcDbPolyline
 90
        7
 70
   128
 43
0.0
 10
1087.0386678638
 20
1270.5871376211
 10
1087.2038919391
 20
1270.5551895315
 10
1087.2291345062
 20
1270.577600878
 10
1087.2368533077
 20
1270.6285032446
 10
1087.2210431757
 20
1270.7114133055
 10
1087.2021783056
 20
1270.7648190672
 10
1087.1763545932
 20
1270.8235296423
  0
ARC
  5
31B
330
1F
100
AcDbEntity
  8
0
  6
SLD-Solid
 62
     7
370
    15
100
AcDbCircle
 10
1086.3019737967
 20
1270.4545290512
 30
0.0
 40
0.9490538517628564
100
AcDbArc
 50
22.8804064181
 51
66.4633034911
  0
LWPOLYLINE
  5
31C
330
1F
100
AcDbEntity
  8
0
  6
SLD-Solid
 62
     7
370
    15
100
AcDbPolyline
 90
        6
 70
   128
 43
0.0
 10
1086.6809654893
 20
1271.3246258909
 10
1086.5227151575
 20
1271.3523420508
 10
1086.5007806482
 20
1271.3277253325
 10
1086.4969063463
 20
1271.2747964079
 10
1086.5162182512
 20
1271.1908730681
 10
1086.5617263975
 20
1271.0803660566
  0
ARC
  5
31D
330
1F
100
AcDbEntity
  8
0
  6
SLD-Solid
 62
     7
370
    15
100
AcDbCircle
 10
1086.8385016123
 20
1270.6195222634
 30
0.0
 40
0.3849589267819262
100
AcDbArc
 50
353.0426658058
 51
31.1686647421
  0
LINE
  5
31E
330
1F
100
AcDbEntity
  8
0
  6
SLD-Solid
 62
     7
370
    15
100
AcDbLine
 10
1086.6725612344
 20
1271.3197383101
 30
0.0
 11
1086.5142960014
 21
1271.3475140745
 31
0.0
  0
ARC
  5
31F
330
1F
100
AcDbEntity
  8
0
  6
SLD-Solid
 62
     7
370
    15
100
AcDbCircle
 10
1086.2938172195
 20
1270.4499025642
 30
0.0
 40
0.9487155809841857
100
AcDbArc
 50
22.8797271917
 51
66.4707202184
  0
LINE
  5
320
330
1F
100
AcDbEntity
  8
0
  6
SLD-Solid
 62
     7
370
    15
100
AcDbLine
 10
1085.3602159681
 20
1273.1371435339
 30
0.0
 11
1085.3520799341
 21
1273.1317195112
 31
0.0
  0
LINE
  5
321
330
1F
100
AcDbEntity
  8
0
  6
SLD-Solid
 62
     7
370
    15
100
AcDbLine
 10
1086.7027658882
 20
1271.8517097647
 30
0.0
 11
1085.3602159681
 21
1273.1371435339
 31
0.0
  0
LINE
  5
322
330
1F
100
AcDbEntity
  8
0
  6
SLD-Solid
 62
     7
370
    15
100
AcDbLine
 10
1086.7027658882
 20
1271.8517097647
 30
0.0
 11
1086.6944510402
 21
1271.8465837652
 31
0.0
  0
LINE
  5
323
330
1F
100
AcDbEntity
  8
0
  6
SLD-Solid
 62
     7
370
    15
100
AcDbLine
 10
1085.9766919078
 20
1273.2610019858
 30
0.0
 11
1086.7883134546
 21
1271.8205961401
 31
0.0
  0
LINE
  5
324
330
1F
100
AcDbEntity
  8
0
  6
SLD-Solid
 62
     7
370
    15
100
AcDbLine
 10
1086.7883134546
 20
1271.8205961401
 30
0.0
 11
1086.7027658882
 21
1271.8517097647
 31
0.0
  0
LINE
  5
325
330
1F
100
AcDbEntity
  8
0
  6
SLD-Solid
 62
     7
370
    15
100
AcDbLine
 10
1085.3602159681
 20
1273.1371435339
 30
0.0
 11
1085.2219033899
 21
1273.462644499
 31
0.0
  0
LINE
  5
326
330
1F
100
AcDbEntity
  8
0
  6
SLD-Solid
 62
     7
370
    15
100
AcDbLine
 10
1085.2219033899
 20
1273.462644499
 30
0.0
 11
1086.3500106992
 21
1272.4031123335
 31
0.0
  0
LINE
  5
327
330
1F
100
AcDbEntity
  8
0
  6
SLD-Solid
 62
     7
370
    15
100
AcDbLine
 10
1086.3500106992
 20
1272.4031123335
 30
0.0
 11
1085.8235228719
 21
1273.3168515379
 31
0.0
  0
LINE
  5
328
330
1F
100
AcDbEntity
  8
0
  6
SLD-Solid
 62
     7
370
    15
100
AcDbLine
 10
1085.8235228719
 20
1273.3168515379
 30
0.0
 11
1085.9766919078
 21
1273.2610019858
 31
0.0
  0
LWPOLYLINE
  5
329
330
1F
100
AcDbEntity
  8
0
  6
SLD-Solid
 62
     7
370
    15
100
AcDbPolyline
 90
       17
 70
   128
 43
0.0
 10
1090.610014266
 20
1259.9627288992
 10
1090.6956959428
 20
1259.7070845778
 10
1090.800451106
 20
1259.5223697836
 10
1090.9092891874
 20
1259.4368371184
 10
1091.0056847991
 20
1259.4635399992
 10
1091.0741258325
 20
1259.5982464964
 10
1091.1028999748
 20
1259.8202737982
 10
1091.0867173137
 20
1260.0955876524
 10
1091.027947134
 20
1260.3822263891
 10
1090.9363794984
 20
1260.6367382223
 10
1090.8271986904
 20
1260.8206185515
 10
1090.7180029811
 20
1260.9060916121
 10
1090.6255114736
 20
1260.8801039869
 10
1090.5629713001
 20
1260.746529978
 10
1090.5386079015
 20
1260.5253371412
 10
1090.5551630916
 20
1260.2500828917
 10
1090.610014266
 20
1259.9627288992
  0
LINE
  5
32A
330
1F
100
AcDbEntity
  8
0
  6
SLD-Solid
 62
     7
370
    15
100
AcDbLine
 10
1085.2219033899
 20
1273.462644499
 30
0.0
 11
1085.2138269605
 21
1273.4571608717
 31
0.0
  0
LINE
  5
32B
330
1F
100
AcDbEntity
  8
0
  6
SLD-Solid
 62
     7
370
    15
100
AcDbLine
 10
1083.9511323633
 20
1275.3552111799
 30
0.0
 11
1083.9434433641
 21
1275.3490719015
 31
0.0
  0
LINE
  5
32C
330
1F
100
AcDbEntity
  8
0
  6
SLD-Solid
 62
     7
370
    15
100
AcDbLine
 10
1084.9308390083
 20
1273.883810919
 30
0.0
 11
1083.9511323633
 21
1275.3552111799
 31
0.0
  0
LINE
  5
32D
330
1F
100
AcDbEntity
  8
0
  6
SLD-Solid
 62
     7
370
    15
100
AcDbLine
 10
1084.9308390083
 20
1273.883810919
 30
0.0
 11
1084.9228519859
 21
1273.8781484778
 31
0.0
  0
LINE
  5
32E
330
1F
100
AcDbEntity
  8
0
  6
SLD-Solid
 62
     7
370
    15
100
AcDbLine
 10
1084.8230142059
 20
1274.7343095953
 30
0.0
 11
1084.5533478918
 21
1275.1233491118
 31
0.0
  0
ARC
  5
32F
330
1F
100
AcDbEntity
  8
0
  6
SLD-Solid
 62
     7
370
    15
100
AcDbCircle
 10
1083.3460201661
 20
1273.1786451369
 30
0.0
 40
2.288998424450849
100
AcDbArc
 50
29.6426640195
 51
58.1668094241
  0
LWPOLYLINE
  5
330
330
1F
100
AcDbEntity
  8
0
  6
SLD-Solid
 62
     7
370
    15
100
AcDbPolyline
 90
        6
 70
   128
 43
0.0
 10
1085.3354502382
 20
1274.3107589895
 10
1085.4849386873
 20
1274.0635785277
 10
1085.5391193094
 20
1273.9530119116
 10
1085.5735707941
 20
1273.8614591772
 10
1085.58558113
 20
1273.7394484694
 10
1085.5241585435
 20
1273.7134608442
  0
ARC
  5
331
330
1F
100
AcDbEntity
  8
0
  6
SLD-Solid
 62
     7
370
    15
100
AcDbCircle
 10
1086.8373424787
 20
1275.853415619
 30
0.0
 40
2.510748590690516
100
AcDbArc
 50
217.2695851378
 51
238.4646271416
  0
LINE
  5
332
330
1F
100
AcDbEntity
  8
0
  6
SLD-Solid
 62
     7
370
    15
100
AcDbLine
 10
1084.8393011751
 20
1274.332991522
 30
0.0
 11
1084.5830906095
 21
1274.6028217489
 31
0.0
  0
LINE
  5
333
330
1F
100
AcDbEntity
  8
0
  6
SLD-Solid
 62
     7
370
    15
100
AcDbLine
 10
1084.5830906095
 20
1274.6028217489
 30
0.0
 11
1085.0767213764
 21
1273.8384517843
 31
0.0
  0
LINE
  5
334
330
1F
100
AcDbEntity
  8
0
  6
SLD-Solid
 62
     7
370
    15
100
AcDbLine
 10
1085.0767213764
 20
1273.8384517843
 30
0.0
 11
1084.9308390083
 21
1273.883810919
 31
0.0
  0
LINE
  5
335
330
1F
100
AcDbEntity
  8
0
  6
SLD-Solid
 62
     7
370
    15
100
AcDbLine
 10
1083.9511323633
 20
1275.3552111799
 30
0.0
 11
1084.0267706575
 21
1275.331548136
 31
0.0
  0
LINE
  5
336
330
1F
100
AcDbEntity
  8
0
  6
SLD-Solid
 62
     7
370
    15
100
AcDbLine
 10
1084.0267706575
 20
1275.331548136
 30
0.0
 11
1084.7358871164
 21
1274.6006163771
 31
0.0
  0
ARC
  5
337
330
1F
100
AcDbEntity
  8
0
  6
SLD-Solid
 62
     7
370
    15
100
AcDbCircle
 10
1086.4801272293
 20
1275.9734197733
 30
0.0
 40
2.219676268328612
100
AcDbArc
 50
218.2044986982
 51
236.419026874
  0
LWPOLYLINE
  5
338
330
1F
100
AcDbEntity
  8
0
  6
SLD-Solid
 62
     7
370
    15
100
AcDbPolyline
 90
        8
 70
   128
 43
0.0
 10
1085.2523911657
 20
1274.1241964514
 10
1085.2825809183
 20
1274.1311701948
 10
1085.2847564878
 20
1274.1519126112
 10
1085.2775890293
 20
1274.1835626776
 10
1085.2617341938
 20
1274.2242130453
 10
1085.2374303998
 20
1274.2730292494
 10
1085.2064955892
 20
1274.3265542204
 10
1085.1705241861
 20
1274.3828806097
  0
ARC
  5
339
330
1F
100
AcDbEntity
  8
0
  6
SLD-Solid
 62
     7
370
    15
100
AcDbCircle
 10
1084.3008699431
 20
1273.8704562593
 30
0.0
 40
1.009394480521393
100
AcDbArc
 50
30.5077691983
 51
58.8497137099
  0
LINE
  5
33A
330
1F
100
AcDbEntity
  8
0
  6
SLD-Solid
 62
     7
370
    15
100
AcDbLine
 10
1085.0767213764
 20
1273.8384517843
 30
0.0
 11
1085.068734354
 21
1273.8327893431
 31
0.0
  0
LINE
  5
33B
330
1F
100
AcDbEntity
  8
0
  6
SLD-Solid
 62
     7
370
    15
100
AcDbLine
 10
1087.1678907337
 20
1270.8187612707
 30
0.0
 11
1087.1763545932
 21
1270.8235296423
 31
0.0
  0
LWPOLYLINE
  5
33C
330
1F
100
AcDbEntity
  8
0
  6
SLD-Solid
 62
     7
370
    15
100
AcDbPolyline
 90
        3
 70
   128
 43
0.0
 10
1085.5241585435
 20
1273.7134608442
 10
1085.5201650323
 20
1273.7106594259
 10
1085.5161715211
 20
1273.707798403
  0
LWPOLYLINE
  5
33D
330
1F
100
AcDbEntity
  8
0
  6
SLD-Solid
 62
     7
370
    15
100
AcDbPolyline
 90
       17
 70
   128
 43
0.0
 10
1089.5371008577
 20
1266.1867651159
 10
1089.6625090303
 20
1265.9421476538
 10
1089.7904504003
 20
1265.763750952
 10
1089.9025071325
 20
1265.679171961
 10
1089.9818409147
 20
1265.7013448889
 10
1090.0157112541
 20
1265.8266338522
 10
1089.9977553548
 20
1266.0355481322
 10
1089.9297017517
 20
1266.2957820112
 10
1089.8216385307
 20
1266.5676387961
 10
1089.690672225
 20
1266.8100508864
 10
1089.557932681
 20
1266.9864806349
 10
1089.4446540536
 20
1267.0705827887
 10
1089.3683750095
 20
1267.0496615584
 10
1089.3400479021
 20
1266.9265779669
 10
1089.3628019752
 20
1266.7196306402
 10
1089.4320923748
 20
1266.4598735983
 10
1089.5371008577
 20
1266.1867651159
  0
LINE
  5
33E
330
1F
100
AcDbEntity
  8
0
  6
SLD-Solid
 62
     7
370
    15
100
AcDbLine
 10
1085.8235228719
 20
1273.3168515379
 30
0.0
 11
1085.8154613437
 21
1273.3113083059
 31
0.0
  0
LINE
  5
33F
330
1F
100
AcDbEntity
  8
0
  6
SLD-Solid
 62
     7
370
    15
100
AcDbLine
 10
1086.7883134546
 20
1271.8205961401
 30
0.0
 11
1086.7800135078
 21
1271.8154701407
 31
0.0
  0
LWPOLYLINE
  5
340
330
1F
100
AcDbEntity
  8
0
  6
SLD-Solid
 62
     7
370
    15
100
AcDbPolyline
 90
        3
 70
   128
 43
0.0
 10
1085.1705241861
 20
1274.3828806097
 10
1085.1666051807
 20
1274.3799599821
 10
1085.1626712741
 20
1274.3770393545
  0
LINE
  5
341
330
1F
100
AcDbEntity
  8
0
  6
SLD-Solid
 62
     7
370
    15
100
AcDbLine
 10
1084.8230142059
 20
1274.7343095953
 30
0.0
 11
1084.8152357997
 21
1274.7283491308
 31
0.0
  0
LINE
  5
342
330
1F
100
AcDbEntity
  8
0
  6
SLD-Solid
 62
     7
370
    15
100
AcDbLine
 10
1084.5533478918
 20
1275.1233491118
 30
0.0
 11
1084.5456439914
 21
1275.117269438
 31
0.0
  0
LWPOLYLINE
  5
343
330
1F
100
AcDbEntity
  8
0
  6
SLD-Solid
 62
     7
370
    15
100
AcDbPolyline
 90
       17
 70
   128
 43
0.0
 10
1087.0165545406
 20
1271.8892010863
 10
1087.3414743604
 20
1271.4392456228
 10
1087.6445490779
 20
1271.1023601706
 10
1087.8805834713
 20
1270.9394606764
 10
1088.0160201253
 20
1270.9739717657
 10
1088.0293864669
 20
1271.1981448347
 10
1087.9129487934
 20
1271.5768727476
 10
1087.6817721786
 20
1272.0487627203
 10
1087.3683113517
 20
1272.5415739233
 10
1087.0231706562
 20
1272.9806813414
 10
1086.7021847429
 20
1273.3023080046
 10
1086.4593107166
 20
1273.4593066389
 10
1086.3317865791
 20
1273.4306964094
 10
1086.3388497295
 20
1273.2179078276
 10
1086.4746887149
 20
1272.851041239
 10
1086.7157597007
 20
1272.3814758475
 10
1087.0165545406
 20
1271.8892010863
  0
LINE
  5
344
330
1F
100
AcDbEntity
  8
0
  6
SLD-Solid
 62
     7
370
    15
100
AcDbLine
 10
1076.5773076477
 20
1283.0974969084
 30
0.0
 11
1073.9576537075
 21
1284.5680030996
 31
0.0
  0
LINE
  5
345
330
1F
100
AcDbEntity
  8
0
  6
SLD-Solid
 62
     7
370
    15
100
AcDbLine
 10
1073.9576537075
 20
1284.5680030996
 30
0.0
 11
1073.3114723029
 21
1284.5097693617
 31
0.0
  0
LINE
  5
346
330
1F
100
AcDbEntity
  8
0
  6
SLD-Solid
 62
     7
370
    15
100
AcDbLine
 10
1073.3114723029
 20
1284.5097693617
 30
0.0
 11
1075.9312603535
 21
1283.039680403
 31
0.0
  0
LINE
  5
347
330
1F
100
AcDbEntity
  8
0
  6
SLD-Solid
 62
     7
370
    15
100
AcDbLine
 10
1075.9312603535
 20
1283.039680403
 30
0.0
 11
1076.1694107117
 21
1283.0608996565
 31
0.0
  0
LINE
  5
348
330
1F
100
AcDbEntity
  8
0
  6
SLD-Solid
 62
     7
370
    15
100
AcDbLine
 10
1076.1694107117
 20
1283.0608996565
 30
0.0
 11
1077.020922667
 21
1282.4798139746
 31
0.0
  0
LINE
  5
349
330
1F
100
AcDbEntity
  8
0
  6
SLD-Solid
 62
     7
370
    15
100
AcDbLine
 10
1077.020922667
 20
1282.4798139746
 30
0.0
 11
1076.898204154
 21
1282.4679526503
 31
0.0
  0
ARC
  5
34A
330
1F
100
AcDbEntity
  8
0
  6
SLD-Solid
 62
     7
370
    15
100
AcDbCircle
 10
1078.0362178433
 20
1286.2774568108
 30
0.0
 40
3.975851745980492
100
AcDbArc
 50
232.0636972724
 51
253.3675294836
  0
LINE
  5
34B
330
1F
100
AcDbEntity
  8
0
  6
SLD-Solid
 62
     7
370
    15
100
AcDbLine
 10
1075.5919236602
 20
1283.1417235548
 30
0.0
 11
1073.2882637443
 21
1284.4307336027
 31
0.0
  0
LWPOLYLINE
  5
34C
330
1F
100
AcDbEntity
  8
0
  6
SLD-Solid
 62
     7
370
    15
100
AcDbPolyline
 90
        7
 70
   128
 43
0.0
 10
1073.2882637443
 20
1284.4307336027
 10
1072.8529412212
 20
1284.6512707884
 10
1072.6531762542
 20
1284.7554001028
 10
1072.4915582599
 20
1284.8464163954
 10
1072.4032465281
 20
1284.9094185049
 10
1072.3784956994
 20
1284.9461349661
 10
1072.4324155511
 20
1284.9742087538
  0
LINE
  5
34D
330
1F
100
AcDbEntity
  8
0
  6
SLD-Solid
 62
     7
370
    15
100
AcDbLine
 10
1072.4324155511
 20
1284.9742087538
 30
0.0
 11
1072.9295629921
 21
1285.0214752371
 31
0.0
  0
ARC
  5
34E
330
1F
100
AcDbEntity
  8
0
  6
SLD-Solid
 62
     7
370
    15
100
AcDbCircle
 10
1072.0306044951
 20
1280.7369294538
 30
0.0
 40
4.377837245519721
100
AcDbArc
 50
59.6955810275
 51
78.1504178031
  0
LINE
  5
34F
330
1F
100
AcDbEntity
  8
0
  6
SLD-Solid
 62
     7
370
    15
100
AcDbLine
 10
1074.2396358313
 20
1284.5165642912
 30
0.0
 11
1076.5430200758
 21
1283.2268985922
 31
0.0
  0
LWPOLYLINE
  5
350
330
1F
100
AcDbEntity
  8
0
  6
SLD-Solid
 62
     7
370
    15
100
AcDbPolyline
 90
        7
 70
   128
 43
0.0
 10
1076.5430275263
 20
1283.2268985922
 10
1076.9677180709
 20
1282.9564723189
 10
1077.1625209512
 20
1282.8223618681
 10
1077.3237738671
 20
1282.6994570906
 10
1077.4175617756
 20
1282.6089176352
 10
1077.4471927347
 20
1282.5544985945
 10
1077.3954335513
 20
1282.5147422964
  0
LINE
  5
351
330
1F
100
AcDbEntity
  8
0
  6
SLD-Solid
 62
     7
370
    15
100
AcDbLine
 10
1077.3954335513
 20
1282.5147422964
 30
0.0
 11
1077.2991049947
 21
1282.5054439718
 31
0.0
  0
LINE
  5
352
330
1F
100
AcDbEntity
  8
0
  6
SLD-Solid
 62
     7
370
    15
100
AcDbLine
 10
1077.2991049947
 20
1282.5054439718
 30
0.0
 11
1076.3733554544
 21
1283.0791982824
 31
0.0
  0
LINE
  5
353
330
1F
100
AcDbEntity
  8
0
  6
SLD-Solid
 62
     7
370
    15
100
AcDbLine
 10
1076.3733554544
 20
1283.0791982824
 30
0.0
 11
1076.5773076477
 21
1283.0974969084
 31
0.0
  0
LINE
  5
354
330
1F
100
AcDbEntity
  8
0
  6
SLD-Solid
 62
     7
370
    15
100
AcDbLine
 10
1077.020922667
 20
1282.4798139746
 30
0.0
 11
1077.0155358972
 21
1282.4714693243
 31
0.0
  0
LINE
  5
355
330
1F
100
AcDbEntity
  8
0
  6
SLD-Solid
 62
     7
370
    15
100
AcDbLine
 10
1073.9576537075
 20
1284.5680030996
 30
0.0
 11
1073.9533323707
 21
1284.5590027983
 31
0.0
  0
LWPOLYLINE
  5
356
330
1F
100
AcDbEntity
  8
0
  6
SLD-Solid
 62
     7
370
    15
100
AcDbPolyline
 90
       17
 70
   128
 43
0.0
 10
1059.497939414
 20
1287.7228769476
 10
1060.4549664917
 20
1287.7212676222
 10
1061.2656343641
 20
1287.7231749708
 10
1061.8065986695
 20
1287.7436789686
 10
1061.9962904515
 20
1287.7942833121
 10
1061.8061441841
 20
1287.872484606
 10
1061.2646955909
 20
1287.9596862013
 10
1060.4537147941
 20
1288.0283507521
 10
1059.4965983095
 20
1288.0543979819
 10
1058.5397053422
 20
1288.0282315428
 10
1057.729335493
 20
1287.9594477827
 10
1057.1887958707
 20
1287.8722461874
 10
1056.9996926846
 20
1287.7941044981
 10
1057.1904498996
 20
1287.743619364
 10
1057.7320922079
 20
1287.7231749708
 10
1058.5439670743
 20
1287.7213272268
 10
1059.497939414
 20
1287.7228769476
  0
LINE
  5
357
330
1F
100
AcDbEntity
  8
0
  6
SLD-Solid
 62
     7
370
    15
100
AcDbLine
 10
1076.3733554544
 20
1283.0791982824
 30
0.0
 11
1076.3682518067
 21
1283.0706748182
 31
0.0
  0
LINE
  5
358
330
1F
100
AcDbEntity
  8
0
  6
SLD-Solid
 62
     7
370
    15
100
AcDbLine
 10
1077.2991049947
 20
1282.5054439718
 30
0.0
 11
1077.2937331261
 21
1282.4970993216
 31
0.0
  0
LWPOLYLINE
  5
359
330
1F
100
AcDbEntity
  8
0
  6
SLD-Solid
 62
     7
370
    15
100
AcDbPolyline
 90
       21
 70
   128
 43
0.0
 10
1071.3624227705
 20
1285.7264789755
 10
1071.6633815231
 20
1285.6177601034
 10
1071.9242338004
 20
1285.5328830893
 10
1072.0244739117
 20
1285.5053457434
 10
1072.097802526
 20
1285.4902657683
 10
1072.1584428014
 20
1285.4977759535
 10
1072.1010584297
 20
1285.5524930174
 10
1071.9284284772
 20
1285.6469663794
 10
1071.671413249
 20
1285.7636722738
 10
1071.5232286515
 20
1285.8241709883
 10
1071.3680703105
 20
1285.8832987959
 10
1071.0618216457
 20
1285.9886798079
 10
1070.8011779847
 20
1286.064496916
 10
1070.629263288
 20
1286.0993656332
 10
1070.5681014719
 20
1286.0912594015
 10
1070.5843586387
 20
1286.0708150084
 10
1070.6331375899
 20
1286.0395821745
 10
1070.811742908
 20
1285.9516057188
 10
1071.066932744
 20
1285.8422311957
 10
1071.2117124261
 20
1285.7843550856
 10
1071.3624227705
 20
1285.7264789755
  0
LWPOLYLINE
  5
35A
330
1F
100
AcDbEntity
  8
0
  6
SLD-Solid
 62
     7
370
    15
100
AcDbPolyline
 90
       17
 70
   128
 43
0.0
 10
1071.3652465405
 20
1285.7681426222
 10
1071.5068969788
 20
1285.7174190695
 10
1071.6272164049
 20
1285.6795105154
 10
1071.7079583468
 20
1285.6605562384
 10
1071.7370752158
 20
1285.6637152846
 10
1071.709962553
 20
1285.6886300261
 10
1071.6308075847
 20
1285.7311877424
 10
1071.5114641847
 20
1285.7845338995
 10
1071.3700298132
 20
1285.840323847
 10
1071.2279993953
 20
1285.8900341208
 10
1071.1070690217
 20
1285.9263333494
 10
1071.0258129897
 20
1285.9439763243
 10
1070.9966663184
 20
1285.9405788595
 10
1071.024136609
 20
1285.9167966063
 10
1071.1039174261
 20
1285.8758482153
 10
1071.2237302126
 20
1285.8238133604
 10
1071.3652465405
 20
1285.7681426222
  0
LWPOLYLINE
  5
35B
330
1F
100
AcDbEntity
  8
0
  6
SLD-Solid
 62
     7
370
    15
100
AcDbPolyline
 90
       17
 70
   128
 43
0.0
 10
1071.3617224159
 20
1285.7588442976
 10
1071.5033430519
 20
1285.7081207449
 10
1071.6236326756
 20
1285.6702121908
 10
1071.7043448152
 20
1285.6513175184
 10
1071.7334542336
 20
1285.6544765646
 10
1071.7063713731
 20
1285.6793317015
 10
1071.6272611084
 20
1285.7218298132
 10
1071.5079400601
 20
1285.7752355749
 10
1071.3665354909
 20
1285.8310255224
 10
1071.2245348753
 20
1285.8806761915
 10
1071.103634304
 20
1285.9169754202
 10
1071.0224080743
 20
1285.9346183951
 10
1070.993261403
 20
1285.9312209303
 10
1071.020709342
 20
1285.907438677
 10
1071.1004529061
 20
1285.8665498907
 10
1071.2202209892
 20
1285.8144554312
 10
1071.3617224159
 20
1285.7588442976
  0
LINE
  5
35C
330
1F
100
AcDbEntity
  8
0
  6
SLD-Solid
 62
     7
370
    15
100
AcDbLine
 10
1358.1979293289
 20
1297.9499611075
 30
0.0
 11
1358.1979293289
 21
1292.2850760634
 31
0.0
  0
LINE
  5
35D
330
1F
100
AcDbEntity
  8
0
  6
SLD-Solid
 62
     7
370
    15
100
AcDbLine
 10
1356.1979550781
 20
1298.0640443976
 30
0.0
 11
1357.9160887661
 21
1298.0640443976
 31
0.0
  0
LINE
  5
35E
330
1F
100
AcDbEntity
  8
0
  6
SLD-Solid
 62
     7
370
    15
100
AcDbLine
 10
1360.697956747
 20
1292.2850760634
 30
0.0
 11
1360.697956747
 21
1293.3194550688
 31
0.0
  0
LINE
  5
35F
330
1F
100
AcDbEntity
  8
0
  6
SLD-Solid
 62
     7
370
    15
100
AcDbLine
 10
1407.4979443016
 20
1347.3640593702
 30
0.0
 11
1405.0479549827
 21
1347.3640593702
 31
0.0
  0
LINE
  5
360
330
1F
100
AcDbEntity
  8
0
  6
SLD-Solid
 62
     7
370
    15
100
AcDbLine
 10
509.9479574623
 20
1347.3640593702
 30
0.0
 11
507.4979383411
 21
1347.3640593702
 31
0.0
  0
LINE
  5
361
330
1F
100
AcDbEntity
  8
0
  6
SLD-Solid
 62
     7
370
    15
100
AcDbLine
 10
1407.4979443016
 20
1347.3640593702
 30
0.0
 11
1407.4979443016
 21
1346.0583600218
 31
0.0
  0
LINE
  5
362
330
1F
100
AcDbEntity
  8
0
  6
SLD-Solid
 62
     7
370
    15
100
AcDbLine
 10
507.4979383411
 20
1347.3640593702
 30
0.0
 11
507.4979383411
 21
1346.0640224631
 31
0.0
  0
LINE
  5
363
330
1F
100
AcDbEntity
  8
0
  6
SLD-Solid
 62
     7
370
    15
100
AcDbLine
 10
1407.4979443016
 20
1348.6140283758
 30
0.0
 11
1407.4979443016
 21
1347.3640593702
 31
0.0
  0
LINE
  5
364
330
1F
100
AcDbEntity
  8
0
  6
SLD-Solid
 62
     7
370
    15
100
AcDbLine
 10
507.4979383411
 20
1348.6140283758
 30
0.0
 11
507.4979383411
 21
1347.3640593702
 31
0.0
  0
LINE
  5
365
330
1F
100
AcDbEntity
  8
0
  6
SLD-Solid
 62
     7
370
    15
100
AcDbLine
 10
1092.4637783231
 20
1388.4017380888
 30
0.0
 11
1091.9310618104
 21
1388.3943471129
 31
0.0
  0
LINE
  5
366
330
1F
100
AcDbEntity
  8
0
  6
SLD-Solid
 62
     7
370
    15
100
AcDbLine
 10
1113.1495702924
 20
1388.3943471129
 30
0.0
 11
1112.6168537797
 21
1388.4017380888
 31
0.0
  0
LINE
  5
367
330
1F
100
AcDbEntity
  8
0
  6
SLD-Solid
 62
     7
370
    15
100
AcDbLine
 10
1191.9310707511
 20
1388.3943471129
 30
0.0
 11
1113.1495702924
 21
1388.3943471129
 31
0.0
  0
LINE
  5
368
330
1F
100
AcDbEntity
  8
0
  6
SLD-Solid
 62
     7
370
    15
100
AcDbLine
 10
1192.4637723627
 20
1388.4017380888
 30
0.0
 11
1191.9310707511
 21
1388.3943471129
 31
0.0
  0
LINE
  5
369
330
1F
100
AcDbEntity
  8
0
  6
SLD-Solid
 62
     7
370
    15
100
AcDbLine
 10
1213.1495494308
 20
1388.3943471129
 30
0.0
 11
1212.6168627204
 21
1388.4017380888
 31
0.0
  0
LINE
  5
36A
330
1F
100
AcDbEntity
  8
0
  6
SLD-Solid
 62
     7
370
    15
100
AcDbLine
 10
1291.9310647907
 20
1388.3943471129
 30
0.0
 11
1213.1495494308
 21
1388.3943471129
 31
0.0
  0
LINE
  5
36B
330
1F
100
AcDbEntity
  8
0
  6
SLD-Solid
 62
     7
370
    15
100
AcDbLine
 10
1292.4637813034
 20
1388.4017380888
 30
0.0
 11
1291.9310647907
 21
1388.3943471129
 31
0.0
  0
LINE
  5
36C
330
1F
100
AcDbEntity
  8
0
  6
SLD-Solid
 62
     7
370
    15
100
AcDbLine
 10
1313.1495732727
 20
1388.3943471129
 30
0.0
 11
1312.61685676
 21
1388.4017380888
 31
0.0
  0
LINE
  5
36D
330
1F
100
AcDbEntity
  8
0
  6
SLD-Solid
 62
     7
370
    15
100
AcDbLine
 10
1382.4979383411
 20
1388.3943471129
 30
0.0
 11
1313.1495732727
 21
1388.3943471129
 31
0.0
  0
LINE
  5
36E
330
1F
100
AcDbEntity
  8
0
  6
SLD-Solid
 62
     7
370
    15
100
AcDbLine
 10
1383.0306548538
 20
1388.4017380888
 30
0.0
 11
1382.4979383411
 21
1388.3943471129
 31
0.0
  0
LINE
  5
36F
330
1F
100
AcDbEntity
  8
0
  6
SLD-Solid
 62
     7
370
    15
100
AcDbLine
 10
1407.4979443016
 20
1388.4017380888
 30
0.0
 11
1407.4979443016
 21
1363.4808572943
 31
0.0
  0
LINE
  5
370
330
1F
100
AcDbEntity
  8
0
  6
SLD-Solid
 62
     7
370
    15
100
AcDbLine
 10
507.4979383411
 20
1388.4017380888
 30
0.0
 11
507.4979383411
 21
1363.4808572943
 31
0.0
  0
LINE
  5
371
330
1F
100
AcDbEntity
  8
0
  6
SLD-Solid
 62
     7
370
    15
100
AcDbLine
 10
532.4979443016
 20
1388.3943471129
 30
0.0
 11
531.9652277889
 21
1388.4017380888
 31
0.0
  0
LINE
  5
372
330
1F
100
AcDbEntity
  8
0
  6
SLD-Solid
 62
     7
370
    15
100
AcDbLine
 10
591.9310767116
 20
1388.3943471129
 30
0.0
 11
532.4979443016
 21
1388.3943471129
 31
0.0
  0
LINE
  5
373
330
1F
100
AcDbEntity
  8
0
  6
SLD-Solid
 62
     7
370
    15
100
AcDbLine
 10
592.463763422
 20
1388.4017380888
 30
0.0
 11
591.9310767116
 21
1388.3943471129
 31
0.0
  0
LINE
  5
374
330
1F
100
AcDbEntity
  8
0
  6
SLD-Solid
 62
     7
370
    15
100
AcDbLine
 10
613.1495553913
 20
1388.3943471129
 30
0.0
 11
612.6168686809
 21
1388.4017380888
 31
0.0
  0
LINE
  5
375
330
1F
100
AcDbEntity
  8
0
  6
SLD-Solid
 62
     7
370
    15
100
AcDbLine
 10
691.9310707511
 20
1388.3943471129
 30
0.0
 11
613.1495553913
 21
1388.3943471129
 31
0.0
  0
LINE
  5
376
330
1F
100
AcDbEntity
  8
0
  6
SLD-Solid
 62
     7
370
    15
100
AcDbLine
 10
692.4637872638
 20
1388.4017380888
 30
0.0
 11
691.9310707511
 21
1388.3943471129
 31
0.0
  0
LINE
  5
377
330
1F
100
AcDbEntity
  8
0
  6
SLD-Solid
 62
     7
370
    15
100
AcDbLine
 10
713.149564332
 20
1388.3943471129
 30
0.0
 11
712.6168627204
 21
1388.4017380888
 31
0.0
  0
LINE
  5
378
330
1F
100
AcDbEntity
  8
0
  6
SLD-Solid
 62
     7
370
    15
100
AcDbLine
 10
791.9310647907
 20
1388.3943471129
 30
0.0
 11
713.149564332
 21
1388.3943471129
 31
0.0
  0
LINE
  5
379
330
1F
100
AcDbEntity
  8
0
  6
SLD-Solid
 62
     7
370
    15
100
AcDbLine
 10
792.4637664022
 20
1388.4017380888
 30
0.0
 11
791.9310647907
 21
1388.3943471129
 31
0.0
  0
LINE
  5
37A
330
1F
100
AcDbEntity
  8
0
  6
SLD-Solid
 62
     7
370
    15
100
AcDbLine
 10
813.1495583715
 20
1388.3943471129
 30
0.0
 11
812.61685676
 21
1388.4017380888
 31
0.0
  0
LINE
  5
37B
330
1F
100
AcDbEntity
  8
0
  6
SLD-Solid
 62
     7
370
    15
100
AcDbLine
 10
891.9310662808
 20
1388.3943471129
 30
0.0
 11
813.1495583715
 21
1388.3943471129
 31
0.0
  0
LINE
  5
37C
330
1F
100
AcDbEntity
  8
0
  6
SLD-Solid
 62
     7
370
    15
100
AcDbLine
 10
892.4637753429
 20
1388.4017380888
 30
0.0
 11
891.9310662808
 21
1388.3943471129
 31
0.0
  0
LINE
  5
37D
330
1F
100
AcDbEntity
  8
0
  6
SLD-Solid
 62
     7
370
    15
100
AcDbLine
 10
913.1495635869
 20
1388.3943471129
 30
0.0
 11
912.6168582501
 21
1388.4017380888
 31
0.0
  0
LINE
  5
37E
330
1F
100
AcDbEntity
  8
0
  6
SLD-Solid
 62
     7
370
    15
100
AcDbLine
 10
991.9310677709
 20
1388.3943471129
 30
0.0
 11
913.1495635869
 21
1388.3943471129
 31
0.0
  0
LINE
  5
37F
330
1F
100
AcDbEntity
  8
0
  6
SLD-Solid
 62
     7
370
    15
100
AcDbLine
 10
992.4637731077
 20
1388.4017380888
 30
0.0
 11
991.9310677709
 21
1388.3943471129
 31
0.0
  0
LINE
  5
380
330
1F
100
AcDbEntity
  8
0
  6
SLD-Solid
 62
     7
370
    15
100
AcDbLine
 10
1013.149565077
 20
1388.3943471129
 30
0.0
 11
1012.6168597402
 21
1388.4017380888
 31
0.0
  0
LINE
  5
381
330
1F
100
AcDbEntity
  8
0
  6
SLD-Solid
 62
     7
370
    15
100
AcDbLine
 10
1091.9310618104
 20
1388.3943471129
 30
0.0
 11
1013.149565077
 21
1388.3943471129
 31
0.0
  0
LINE
  5
382
330
1F
100
AcDbEntity
  8
0
  6
SLD-Solid
 62
     7
370
    15
100
AcDbLine
 10
1407.4979443016
 20
1363.4808572943
 30
0.0
 11
1407.4979443016
 21
1348.6140283758
 31
0.0
  0
LINE
  5
383
330
1F
100
AcDbEntity
  8
0
  6
SLD-Solid
 62
     7
370
    15
100
AcDbLine
 10
507.4979383411
 20
1363.4808572943
 30
0.0
 11
507.4979383411
 21
1348.6140283758
 31
0.0
  0
LWPOLYLINE
  5
384
330
1F
100
AcDbEntity
  8
0
  6
SLD-Solid
 62
     7
370
    15
100
AcDbPolyline
 90
        9
 70
   128
 43
0.0
 10
608.6926478805
 20
1390.2750524695
 10
608.2796472969
 20
1389.9817380125
 10
608.1500071945
 20
1389.6713766272
 10
608.3112675609
 20
1389.3620285208
 10
608.7540704669
 20
1389.0716942961
 10
609.4526071014
 20
1388.8171824629
 10
610.3662867012
 20
1388.6134537871
 10
611.4418823185
 20
1388.4721907789
 10
612.6168686809
 20
1388.4017380888
  0
LINE
  5
385
330
1F
100
AcDbEntity
  8
0
  6
SLD-Solid
 62
     7
370
    15
100
AcDbLine
 10
608.6926478805
 20
1389.5022782499
 30
0.0
 11
608.3776075305
 21
1389.3021258528
 31
0.0
  0
LWPOLYLINE
  5
386
330
1F
100
AcDbEntity
  8
0
  6
SLD-Solid
 62
     7
370
    15
100
AcDbPolyline
 90
        9
 70
   128
 43
0.0
 10
527.4979490699
 20
1389.6884831602
 10
527.5814253749
 20
1389.4529852087
 10
527.8291422786
 20
1389.2253550703
 10
528.2327551307
 20
1389.0131625349
 10
528.7788230838
 20
1388.8235601599
 10
529.4491071167
 20
1388.6628064329
 10
530.2212256851
 20
1388.5363253767
 10
531.0693699779
 20
1388.448348921
 10
531.9652277889
 20
1388.4017380888
  0
LWPOLYLINE
  5
387
330
1F
100
AcDbEntity
  8
0
  6
SLD-Solid
 62
     7
370
    15
100
AcDbPolyline
 90
        9
 70
   128
 43
0.0
 10
1383.0306548538
 20
1388.4017380888
 10
1383.9265126647
 20
1388.448348921
 10
1384.7746569576
 20
1388.5363253767
 10
1385.546775526
 20
1388.6628064329
 10
1386.2170595588
 20
1388.8235601599
 10
1386.7631275119
 20
1389.0131625349
 10
1387.166740364
 20
1389.2253550703
 10
1387.4144572677
 20
1389.4529852087
 10
1387.4979335727
 20
1389.6884831602
  0
LWPOLYLINE
  5
388
330
1F
100
AcDbEntity
  8
0
  6
SLD-Solid
 62
     7
370
    15
100
AcDbPolyline
 90
        9
 70
   128
 43
0.0
 10
1308.6926359596
 20
1390.2750524695
 10
1308.2796353759
 20
1389.9817380125
 10
1308.1499952735
 20
1389.6713766272
 10
1308.31125564
 20
1389.3620285208
 10
1308.754058546
 20
1389.0716942961
 10
1309.4526249828
 20
1388.8171824629
 10
1310.3662747802
 20
1388.6134537871
 10
1311.4418703975
 20
1388.4721907789
 10
1312.61685676
 20
1388.4017380888
  0
LINE
  5
389
330
1F
100
AcDbEntity
  8
0
  6
SLD-Solid
 62
     7
370
    15
100
AcDbLine
 10
1308.6926359596
 20
1389.5022782499
 30
0.0
 11
1308.3776254119
 21
1389.3021258528
 31
0.0
  0
LWPOLYLINE
  5
38A
330
1F
100
AcDbEntity
  8
0
  6
SLD-Solid
 62
     7
370
    15
100
AcDbPolyline
 90
        9
 70
   128
 43
0.0
 10
808.6926359596
 20
1390.2750524695
 10
808.2796353759
 20
1389.9817380125
 10
808.1499952735
 20
1389.6713766272
 10
808.3112705411
 20
1389.3620285208
 10
808.754058546
 20
1389.0716942961
 10
809.4526100816
 20
1388.8171824629
 10
810.3662747802
 20
1388.6134537871
 10
811.4418852987
 20
1388.4721907789
 10
812.61685676
 20
1388.4017380888
  0
LINE
  5
38B
330
1F
100
AcDbEntity
  8
0
  6
SLD-Solid
 62
     7
370
    15
100
AcDbLine
 10
808.6926359596
 20
1389.5022782499
 30
0.0
 11
808.3776105108
 21
1389.3021258528
 31
0.0
  0
LWPOLYLINE
  5
38C
330
1F
100
AcDbEntity
  8
0
  6
SLD-Solid
 62
     7
370
    15
100
AcDbPolyline
 90
        9
 70
   128
 43
0.0
 10
908.6926374497
 20
1390.2750524695
 10
908.279636866
 20
1389.9817380125
 10
908.150000489
 20
1389.6713766272
 10
908.311268306
 20
1389.3620285208
 10
908.7540600361
 20
1389.0716942961
 10
909.4526115717
 20
1388.8171824629
 10
910.3662725451
 20
1388.6134537871
 10
911.4418830635
 20
1388.4721907789
 10
912.6168582501
 20
1388.4017380888
  0
LINE
  5
38D
330
1F
100
AcDbEntity
  8
0
  6
SLD-Solid
 62
     7
370
    15
100
AcDbLine
 10
908.6926374497
 20
1389.5022782499
 30
0.0
 11
908.3776157262
 21
1389.3021258528
 31
0.0
  0
LWPOLYLINE
  5
38E
330
1F
100
AcDbEntity
  8
0
  6
SLD-Solid
 62
     7
370
    15
100
AcDbPolyline
 90
        9
 70
   128
 43
0.0
 10
1108.6926329793
 20
1390.2750524695
 10
1108.2796323957
 20
1389.9817380125
 10
1108.1500071945
 20
1389.6713766272
 10
1108.3112675609
 20
1389.3620285208
 10
1108.7540555658
 20
1389.0716942961
 10
1109.4526071014
 20
1388.8171824629
 10
1110.3662718
 20
1388.6134537871
 10
1111.4418823185
 20
1388.4721907789
 10
1112.6168537797
 20
1388.4017380888
  0
LINE
  5
38F
330
1F
100
AcDbEntity
  8
0
  6
SLD-Solid
 62
     7
370
    15
100
AcDbLine
 10
1108.6926329793
 20
1389.5022782499
 30
0.0
 11
1108.3776224317
 21
1389.3021258528
 31
0.0
  0
LWPOLYLINE
  5
390
330
1F
100
AcDbEntity
  8
0
  6
SLD-Solid
 62
     7
370
    15
100
AcDbPolyline
 90
        9
 70
   128
 43
0.0
 10
1008.6926389398
 20
1390.2750524695
 10
1008.2796383562
 20
1389.9817380125
 10
1008.1499982538
 20
1389.6713766272
 10
1008.3112697961
 20
1389.3620285208
 10
1008.7540615263
 20
1389.0716942961
 10
1009.4526093366
 20
1388.8171824629
 10
1010.3662740352
 20
1388.6134537871
 10
1011.4418845536
 20
1388.4721907789
 10
1012.6168597402
 20
1388.4017380888
  0
LINE
  5
391
330
1F
100
AcDbEntity
  8
0
  6
SLD-Solid
 62
     7
370
    15
100
AcDbLine
 10
1008.6926389398
 20
1389.5022782499
 30
0.0
 11
1008.3776172163
 21
1389.3021258528
 31
0.0
  0
LWPOLYLINE
  5
392
330
1F
100
AcDbEntity
  8
0
  6
SLD-Solid
 62
     7
370
    15
100
AcDbPolyline
 90
        9
 70
   128
 43
0.0
 10
708.69264192
 20
1390.2750524695
 10
708.2796413364
 20
1389.9817380125
 10
708.150001234
 20
1389.6713766272
 10
708.3112616004
 20
1389.3620285208
 10
708.7540645065
 20
1389.0716942961
 10
709.4526160421
 20
1388.8171824629
 10
710.3662658395
 20
1388.6134537871
 10
711.4418912591
 20
1388.4721907789
 10
712.6168627204
 20
1388.4017380888
  0
LINE
  5
393
330
1F
100
AcDbEntity
  8
0
  6
SLD-Solid
 62
     7
370
    15
100
AcDbLine
 10
708.69264192
 20
1389.5022782499
 30
0.0
 11
708.3776164712
 21
1389.3021258528
 31
0.0
  0
LWPOLYLINE
  5
394
330
1F
100
AcDbEntity
  8
0
  6
SLD-Solid
 62
     7
370
    15
100
AcDbPolyline
 90
        9
 70
   128
 43
0.0
 10
1208.69264192
 20
1390.2750524695
 10
1208.2796413364
 20
1389.9817380125
 10
1208.150001234
 20
1389.6713766272
 10
1208.3112616004
 20
1389.3620285208
 10
1208.7540645065
 20
1389.0716942961
 10
1209.4526011409
 20
1388.8171824629
 10
1210.3662807407
 20
1388.6134537871
 10
1211.441876358
 20
1388.4721907789
 10
1212.6168627204
 20
1388.4017380888
  0
LINE
  5
395
330
1F
100
AcDbEntity
  8
0
  6
SLD-Solid
 62
     7
370
    15
100
AcDbLine
 10
1208.69264192
 20
1389.5022782499
 30
0.0
 11
1208.3776015701
 21
1389.3021258528
 31
0.0
  0
LINE
  5
396
330
1F
100
AcDbEntity
  8
0
  6
SLD-Solid
 62
     7
370
    15
100
AcDbLine
 10
996.3879939081
 20
1389.101913851
 30
0.0
 11
1006.3032489182
 21
1394.1489371473
 31
0.0
  0
LWPOLYLINE
  5
397
330
1F
100
AcDbEntity
  8
0
  6
SLD-Solid
 62
     7
370
    15
100
AcDbPolyline
 90
        9
 70
   128
 43
0.0
 10
1006.3032489182
 20
1394.1489371473
 10
1006.7309345963
 20
1394.4590601141
 10
1006.8423431279
 20
1394.7870644743
 10
1006.6302660765
 20
1395.1117309744
 10
1006.1084311368
 20
1395.4120787794
 10
1005.3106304171
 20
1395.6686171705
 10
1004.2885187926
 20
1395.8646568472
 10
1003.1082760455
 20
1395.987680834
 10
1001.846322781
 20
1396.0295232947
  0
LINE
  5
398
330
1F
100
AcDbEntity
  8
0
  6
SLD-Solid
 62
     7
370
    15
100
AcDbLine
 10
1001.846322781
 20
1396.0295232947
 30
0.0
 11
923.064818597
 21
1396.0295232947
 31
0.0
  0
ARC
  5
399
330
1F
100
AcDbEntity
  8
0
  6
SLD-Solid
 62
     7
370
    15
100
AcDbCircle
 10
922.5640326527
 20
1384.7923044347
 30
0.0
 40
11.24837207189781
100
AcDbArc
 50
87.448305584
 51
110.5918074087
  0
LINE
  5
39A
330
1F
100
AcDbEntity
  8
0
  6
SLD-Solid
 62
     7
370
    15
100
AcDbLine
 10
918.6078924598
 20
1395.3220161612
 30
0.0
 11
908.6926374497
 21
1390.2750524695
 31
0.0
  0
LINE
  5
39B
330
1F
100
AcDbEntity
  8
0
  6
SLD-Solid
 62
     7
370
    15
100
AcDbLine
 10
896.387992418
 20
1389.101913851
 30
0.0
 11
906.3032474281
 21
1394.1489371473
 31
0.0
  0
LWPOLYLINE
  5
39C
330
1F
100
AcDbEntity
  8
0
  6
SLD-Solid
 62
     7
370
    15
100
AcDbPolyline
 90
        9
 70
   128
 43
0.0
 10
906.3032474281
 20
1394.1489371473
 10
906.7309331061
 20
1394.4590601141
 10
906.8423453631
 20
1394.7870644743
 10
906.6302645864
 20
1395.1117309744
 10
906.108433372
 20
1395.4120787794
 10
905.3106326522
 20
1395.6686171705
 10
904.2885173025
 20
1395.8646568472
 10
903.1082745554
 20
1395.987680834
 10
901.8463212909
 20
1396.0295232947
  0
LINE
  5
39D
330
1F
100
AcDbEntity
  8
0
  6
SLD-Solid
 62
     7
370
    15
100
AcDbLine
 10
901.8463212909
 20
1396.0295232947
 30
0.0
 11
823.0648208322
 21
1396.0295232947
 31
0.0
  0
ARC
  5
39E
330
1F
100
AcDbEntity
  8
0
  6
SLD-Solid
 62
     7
370
    15
100
AcDbCircle
 10
822.5640312274
 20
1384.7923483246
 30
0.0
 40
11.24832838847643
100
AcDbArc
 50
87.4482770037
 51
110.5918508198
  0
LINE
  5
39F
330
1F
100
AcDbEntity
  8
0
  6
SLD-Solid
 62
     7
370
    15
100
AcDbLine
 10
818.6078984203
 20
1395.3220161612
 30
0.0
 11
808.6926359596
 21
1390.2750524695
 31
0.0
  0
LINE
  5
3A0
330
1F
100
AcDbEntity
  8
0
  6
SLD-Solid
 62
     7
370
    15
100
AcDbLine
 10
796.3879872026
 20
1389.101913851
 30
0.0
 11
806.3032496633
 21
1394.1489371473
 31
0.0
  0
LWPOLYLINE
  5
3A1
330
1F
100
AcDbEntity
  8
0
  6
SLD-Solid
 62
     7
370
    15
100
AcDbPolyline
 90
        9
 70
   128
 43
0.0
 10
806.3032496633
 20
1394.1489371473
 10
806.7309278907
 20
1394.4590601141
 10
806.842343873
 20
1394.7870644743
 10
806.6302705469
 20
1395.1117309744
 10
806.1084318819
 20
1395.4120787794
 10
805.3106237115
 20
1395.6686171705
 10
804.2885232629
 20
1395.8646568472
 10
803.1082767906
 20
1395.987680834
 10
801.8463272514
 20
1396.0295232947
  0
LINE
  5
3A2
330
1F
100
AcDbEntity
  8
0
  6
SLD-Solid
 62
     7
370
    15
100
AcDbLine
 10
801.8463272514
 20
1396.0295232947
 30
0.0
 11
723.0648118915
 21
1396.0295232947
 31
0.0
  0
ARC
  5
3A3
330
1F
100
AcDbEntity
  8
0
  6
SLD-Solid
 62
     7
370
    15
100
AcDbCircle
 10
722.5640351849
 20
1384.7922670727
 30
0.0
 40
11.24840898566502
100
AcDbArc
 50
87.448361064
 51
110.5917667595
  0
LINE
  5
3A4
330
1F
100
AcDbEntity
  8
0
  6
SLD-Solid
 62
     7
370
    15
100
AcDbLine
 10
718.6078894796
 20
1395.3220161612
 30
0.0
 11
708.69264192
 21
1390.2750524695
 31
0.0
  0
LINE
  5
3A5
330
1F
100
AcDbEntity
  8
0
  6
SLD-Solid
 62
     7
370
    15
100
AcDbLine
 10
696.3880080642
 20
1389.101913851
 30
0.0
 11
706.3032407226
 21
1394.1489371473
 31
0.0
  0
LWPOLYLINE
  5
3A6
330
1F
100
AcDbEntity
  8
0
  6
SLD-Solid
 62
     7
370
    15
100
AcDbPolyline
 90
        9
 70
   128
 43
0.0
 10
706.3032407226
 20
1394.1489371473
 10
706.7309338512
 20
1394.4590601141
 10
706.8423349323
 20
1394.7870644743
 10
706.6302616062
 20
1395.1117309744
 10
706.1084229412
 20
1395.4120787794
 10
705.3106445732
 20
1395.6686171705
 10
704.2885143222
 20
1395.8646568472
 10
703.108282751
 20
1395.987680834
 10
701.8463332119
 20
1396.0295232947
  0
LINE
  5
3A7
330
1F
100
AcDbEntity
  8
0
  6
SLD-Solid
 62
     7
370
    15
100
AcDbLine
 10
701.8463332119
 20
1396.0295232947
 30
0.0
 11
623.064817852
 21
1396.0295232947
 31
0.0
  0
ARC
  5
3A8
330
1F
100
AcDbEntity
  8
0
  6
SLD-Solid
 62
     7
370
    15
100
AcDbCircle
 10
622.5640510364
 20
1384.7921214419
 30
0.0
 40
11.24855403171328
100
AcDbArc
 50
87.4484444191
 51
110.5916240813
  0
LINE
  5
3A9
330
1F
100
AcDbEntity
  8
0
  6
SLD-Solid
 62
     7
370
    15
100
AcDbLine
 10
618.6078805389
 20
1395.3220161612
 30
0.0
 11
608.6926478805
 21
1390.2750524695
 31
0.0
  0
LINE
  5
3AA
330
1F
100
AcDbEntity
  8
0
  6
SLD-Solid
 62
     7
370
    15
100
AcDbLine
 10
596.3879842224
 20
1389.101913851
 30
0.0
 11
606.3032466831
 21
1394.1489371473
 31
0.0
  0
LWPOLYLINE
  5
3AB
330
1F
100
AcDbEntity
  8
0
  6
SLD-Solid
 62
     7
370
    15
100
AcDbPolyline
 90
        9
 70
   128
 43
0.0
 10
606.3032466831
 20
1394.1489371473
 10
606.7309398117
 20
1394.4590601141
 10
606.8423408927
 20
1394.7870644743
 10
606.6302675666
 20
1395.1117309744
 10
606.1084289016
 20
1395.4120787794
 10
605.3106207313
 20
1395.6686171705
 10
604.2885202827
 20
1395.8646568472
 10
603.1082887115
 20
1395.987680834
 10
601.84630937
 20
1396.0295232947
  0
LINE
  5
3AC
330
1F
100
AcDbEntity
  8
0
  6
SLD-Solid
 62
     7
370
    15
100
AcDbLine
 10
601.84630937
 20
1396.0295232947
 30
0.0
 11
532.4979443016
 21
1396.0295232947
 31
0.0
  0
LWPOLYLINE
  5
3AD
330
1F
100
AcDbEntity
  8
0
  6
SLD-Solid
 62
     7
370
    15
100
AcDbPolyline
 90
        9
 70
   128
 43
0.0
 10
532.4979443016
 20
1396.0295232947
 10
531.5224844875
 20
1396.0046681578
 10
530.584515995
 20
1395.9310564215
 10
529.7200996341
 20
1395.8114298994
 10
528.9624053897
 20
1395.6504973585
 10
528.3406097354
 20
1395.4543980772
 10
527.8785545291
 20
1395.2307018454
 10
527.594001955
 20
1394.9879321272
 10
527.4979490699
 20
1394.7354468519
  0
LINE
  5
3AE
330
1F
100
AcDbEntity
  8
0
  6
SLD-Solid
 62
     7
370
    15
100
AcDbLine
 10
527.4979490699
 20
1394.7354468519
 30
0.0
 11
527.4979490699
 21
1389.6884831602
 31
0.0
  0
LINE
  5
3AF
330
1F
100
AcDbEntity
  8
0
  6
SLD-Solid
 62
     7
370
    15
100
AcDbLine
 10
507.4979383411
 20
1397.323659342
 30
0.0
 11
507.4979383411
 21
1388.4017380888
 31
0.0
  0
LINE
  5
3B0
330
1F
100
AcDbEntity
  8
0
  6
SLD-Solid
 62
     7
370
    15
100
AcDbLine
 10
1407.4979443016
 20
1397.323659342
 30
0.0
 11
1407.4979443016
 21
1388.4017380888
 31
0.0
  0
LINE
  5
3B1
330
1F
100
AcDbEntity
  8
0
  6
SLD-Solid
 62
     7
370
    15
100
AcDbLine
 10
1387.4979335727
 20
1389.6884831602
 30
0.0
 11
1387.4979335727
 21
1394.7354468519
 31
0.0
  0
LWPOLYLINE
  5
3B2
330
1F
100
AcDbEntity
  8
0
  6
SLD-Solid
 62
     7
370
    15
100
AcDbPolyline
 90
        9
 70
   128
 43
0.0
 10
1387.4979335727
 20
1394.7354468519
 10
1387.4018806877
 20
1394.9879321272
 10
1387.1173281135
 20
1395.2307018454
 10
1386.6553027095
 20
1395.4543980772
 10
1386.0334772529
 20
1395.6504973585
 10
1385.2757830085
 20
1395.8114298994
 10
1384.4113666477
 20
1395.9310564215
 10
1383.4733981552
 20
1396.0046681578
 10
1382.4979383411
 20
1396.0295232947
  0
LINE
  5
3B3
330
1F
100
AcDbEntity
  8
0
  6
SLD-Solid
 62
     7
370
    15
100
AcDbLine
 10
1382.4979383411
 20
1396.0295232947
 30
0.0
 11
1323.064805931
 21
1396.0295232947
 31
0.0
  0
ARC
  5
3B4
330
1F
100
AcDbEntity
  8
0
  6
SLD-Solid
 62
     7
370
    15
100
AcDbCircle
 10
1322.5640193337
 20
1384.7924127009
 30
0.0
 40
11.24826394216505
100
AcDbArc
 50
87.4482777087
 51
110.5919094382
  0
LINE
  5
3B5
330
1F
100
AcDbEntity
  8
0
  6
SLD-Solid
 62
     7
370
    15
100
AcDbLine
 10
1318.6078984203
 20
1395.3220161612
 30
0.0
 11
1308.6926359596
 21
1390.2750524695
 31
0.0
  0
LINE
  5
3B6
330
1F
100
AcDbEntity
  8
0
  6
SLD-Solid
 62
     7
370
    15
100
AcDbLine
 10
1296.3880021038
 20
1389.101913851
 30
0.0
 11
1306.3032347621
 21
1394.1489371473
 31
0.0
  0
LWPOLYLINE
  5
3B7
330
1F
100
AcDbEntity
  8
0
  6
SLD-Solid
 62
     7
370
    15
100
AcDbPolyline
 90
        9
 70
   128
 43
0.0
 10
1306.3032347621
 20
1394.1489371473
 10
1306.7309278907
 20
1394.4590601141
 10
1306.8423289718
 20
1394.7870644743
 10
1306.6302556457
 20
1395.1117309744
 10
1306.108446783
 20
1395.4120787794
 10
1305.3106386127
 20
1395.6686171705
 10
1304.2885083618
 20
1395.8646568472
 10
1303.1082767906
 20
1395.987680834
 10
1301.8463272514
 20
1396.0295232947
  0
LINE
  5
3B8
330
1F
100
AcDbEntity
  8
0
  6
SLD-Solid
 62
     7
370
    15
100
AcDbLine
 10
1301.8463272514
 20
1396.0295232947
 30
0.0
 11
1223.0648118915
 21
1396.0295232947
 31
0.0
  0
ARC
  5
3B9
330
1F
100
AcDbEntity
  8
0
  6
SLD-Solid
 62
     7
370
    15
100
AcDbCircle
 10
1222.5640144737
 20
1384.792480864
 30
0.0
 40
11.24819632837965
100
AcDbArc
 50
87.4482071882
 51
110.5919799588
  0
LINE
  5
3BA
330
1F
100
AcDbEntity
  8
0
  6
SLD-Solid
 62
     7
370
    15
100
AcDbLine
 10
1218.6079043808
 20
1395.3220161612
 30
0.0
 11
1208.69264192
 21
1390.2750524695
 31
0.0
  0
LINE
  5
3BB
330
1F
100
AcDbEntity
  8
0
  6
SLD-Solid
 62
     7
370
    15
100
AcDbLine
 10
1196.3879931631
 20
1389.101913851
 30
0.0
 11
1206.3032407226
 21
1394.1489371473
 31
0.0
  0
LWPOLYLINE
  5
3BC
330
1F
100
AcDbEntity
  8
0
  6
SLD-Solid
 62
     7
370
    15
100
AcDbPolyline
 90
        9
 70
   128
 43
0.0
 10
1206.3032407226
 20
1394.1489371473
 10
1206.7309338512
 20
1394.4590601141
 10
1206.8423498334
 20
1394.7870644743
 10
1206.6302616062
 20
1395.1117309744
 10
1206.1084378423
 20
1395.4120787794
 10
1205.310629672
 20
1395.6686171705
 10
1204.2885143222
 20
1395.8646568472
 10
1203.108282751
 20
1395.987680834
 10
1201.8463183107
 20
1396.0295232947
  0
LINE
  5
3BD
330
1F
100
AcDbEntity
  8
0
  6
SLD-Solid
 62
     7
370
    15
100
AcDbLine
 10
1201.8463183107
 20
1396.0295232947
 30
0.0
 11
1123.064817852
 21
1396.0295232947
 31
0.0
  0
ARC
  5
3BE
330
1F
100
AcDbEntity
  8
0
  6
SLD-Solid
 62
     7
370
    15
100
AcDbCircle
 10
1122.5640282471
 20
1384.7923483246
 30
0.0
 40
11.24832838847647
100
AcDbArc
 50
87.4482770037
 51
110.5918508198
  0
LINE
  5
3BF
330
1F
100
AcDbEntity
  8
0
  6
SLD-Solid
 62
     7
370
    15
100
AcDbLine
 10
1118.6078954401
 20
1395.3220161612
 30
0.0
 11
1108.6926329793
 21
1390.2750524695
 31
0.0
  0
LINE
  5
3C0
330
1F
100
AcDbEntity
  8
0
  6
SLD-Solid
 62
     7
370
    15
100
AcDbLine
 10
1096.3879991235
 20
1389.101913851
 30
0.0
 11
1106.3032466831
 21
1394.1489371473
 31
0.0
  0
LWPOLYLINE
  5
3C1
330
1F
100
AcDbEntity
  8
0
  6
SLD-Solid
 62
     7
370
    15
100
AcDbPolyline
 90
        9
 70
   128
 43
0.0
 10
1106.3032466831
 20
1394.1489371473
 10
1106.7309398117
 20
1394.4590601141
 10
1106.8423408927
 20
1394.7870644743
 10
1106.6302675666
 20
1395.1117309744
 10
1106.1084289016
 20
1395.4120787794
 10
1105.3106356325
 20
1395.6686171705
 10
1104.2885202827
 20
1395.8646568472
 10
1103.1082738103
 20
1395.987680834
 10
1101.8463242712
 20
1396.0295232947
  0
LINE
  5
3C2
330
1F
100
AcDbEntity
  8
0
  6
SLD-Solid
 62
     7
370
    15
100
AcDbLine
 10
1101.8463242712
 20
1396.0295232947
 30
0.0
 11
1023.0648163619
 21
1396.0295232947
 31
0.0
  0
ARC
  5
3C3
330
1F
100
AcDbEntity
  8
0
  6
SLD-Solid
 62
     7
370
    15
100
AcDbCircle
 10
1022.5640336421
 20
1384.7922841217
 30
0.0
 40
11.24839222120857
100
AcDbArc
 50
87.4483265991
 51
110.5917863936
  0
LINE
  5
3C4
330
1F
100
AcDbEntity
  8
0
  6
SLD-Solid
 62
     7
370
    15
100
AcDbLine
 10
1018.6078902246
 20
1395.3220161612
 30
0.0
 11
1008.6926389398
 21
1390.2750524695
 31
0.0
  0
ARC
  5
3C5
330
1F
100
AcDbEntity
  8
0
  6
SLD-Solid
 62
     7
370
    15
100
AcDbCircle
 10
1292.6333099806
 20
1398.7985697501
 30
0.0
 40
10.39821371996562
100
AcDbArc
 50
269.0658291571
 51
291.1671584322
  0
ARC
  5
3C6
330
1F
100
AcDbEntity
  8
0
  6
SLD-Solid
 62
     7
370
    15
100
AcDbCircle
 10
792.6333222859
 20
1398.7984172681
 30
0.0
 40
10.39806170177853
100
AcDbArc
 50
269.0656655644
 51
291.1673220249
  0
ARC
  5
3C7
330
1F
100
AcDbEntity
  8
0
  6
SLD-Solid
 62
     7
370
    15
100
AcDbCircle
 10
1192.6333182394
 20
1398.7984733532
 30
0.0
 40
10.39811761625771
100
AcDbArc
 50
269.0657257367
 51
291.1672618526
  0
ARC
  5
3C8
330
1F
100
AcDbEntity
  8
0
  6
SLD-Solid
 62
     7
370
    15
100
AcDbCircle
 10
1092.6332986465
 20
1398.7986165704
 30
0.0
 40
10.39826039781613
100
AcDbArc
 50
269.065879388
 51
291.1671082013
  0
ARC
  5
3C9
330
1F
100
AcDbEntity
  8
0
  6
SLD-Solid
 62
     7
370
    15
100
AcDbCircle
 10
992.6333107981
 20
1398.7985192348
 30
0.0
 40
10.39816335833217
100
AcDbArc
 50
269.0657749616
 51
291.1672126278
  0
ARC
  5
3CA
330
1F
100
AcDbEntity
  8
0
  6
SLD-Solid
 62
     7
370
    15
100
AcDbCircle
 10
892.6333138372
 20
1398.7984947524
 30
0.0
 40
10.3981388922158
100
AcDbArc
 50
269.0657683328
 51
291.1672380671
  0
ARC
  5
3CB
330
1F
100
AcDbEntity
  8
0
  6
SLD-Solid
 62
     7
370
    15
100
AcDbCircle
 10
592.6333264977
 20
1398.7983769593
 30
0.0
 40
10.39802151566745
100
AcDbArc
 50
269.0656223177
 51
291.1673652716
  0
ARC
  5
3CC
330
1F
100
AcDbEntity
  8
0
  6
SLD-Solid
 62
     7
370
    15
100
AcDbCircle
 10
692.6332992331
 20
1398.7986633919
 30
0.0
 40
10.39830707690506
100
AcDbArc
 50
269.0659296198
 51
291.1670579695
  0
LINE
  5
3CD
330
1F
100
AcDbEntity
  8
0
  6
SLD-Solid
 62
     7
370
    15
100
AcDbLine
 10
618.6078805389
 20
1394.5492419417
 30
0.0
 11
608.6926478805
 21
1389.5022782499
 31
0.0
  0
LINE
  5
3CE
330
1F
100
AcDbEntity
  8
0
  6
SLD-Solid
 62
     7
370
    15
100
AcDbLine
 10
1318.6078984203
 20
1394.5492419417
 30
0.0
 11
1308.6926359596
 21
1389.5022782499
 31
0.0
  0
LINE
  5
3CF
330
1F
100
AcDbEntity
  8
0
  6
SLD-Solid
 62
     7
370
    15
100
AcDbLine
 10
818.6078984203
 20
1394.5492419417
 30
0.0
 11
808.6926359596
 21
1389.5022782499
 31
0.0
  0
LINE
  5
3D0
330
1F
100
AcDbEntity
  8
0
  6
SLD-Solid
 62
     7
370
    15
100
AcDbLine
 10
918.6078924598
 20
1394.5492419417
 30
0.0
 11
908.6926374497
 21
1389.5022782499
 31
0.0
  0
LINE
  5
3D1
330
1F
100
AcDbEntity
  8
0
  6
SLD-Solid
 62
     7
370
    15
100
AcDbLine
 10
1118.6078954401
 20
1394.5492419417
 30
0.0
 11
1108.6926329793
 21
1389.5022782499
 31
0.0
  0
LINE
  5
3D2
330
1F
100
AcDbEntity
  8
0
  6
SLD-Solid
 62
     7
370
    15
100
AcDbLine
 10
718.6078894796
 20
1394.5492419417
 30
0.0
 11
708.69264192
 21
1389.5022782499
 31
0.0
  0
LINE
  5
3D3
330
1F
100
AcDbEntity
  8
0
  6
SLD-Solid
 62
     7
370
    15
100
AcDbLine
 10
1018.6078902246
 20
1394.5492419417
 30
0.0
 11
1008.6926389398
 21
1389.5022782499
 31
0.0
  0
LINE
  5
3D4
330
1F
100
AcDbEntity
  8
0
  6
SLD-Solid
 62
     7
370
    15
100
AcDbLine
 10
1218.6079043808
 20
1394.5492419417
 30
0.0
 11
1208.69264192
 21
1389.5022782499
 31
0.0
  0
ARC
  5
3D5
330
1F
100
AcDbEntity
  8
0
  6
SLD-Solid
 62
     7
370
    15
100
AcDbCircle
 10
602.5171336359
 20
1385.7862781464
 30
0.0
 40
9.494258990565672
100
AcDbArc
 50
64.4080994143
 51
94.0516538583
  0
ARC
  5
3D6
330
1F
100
AcDbEntity
  8
0
  6
SLD-Solid
 62
     7
370
    15
100
AcDbCircle
 10
702.517106113
 20
1385.7860081181
 30
0.0
 40
9.494524715061905
100
AcDbArc
 50
64.4085237407
 51
94.051229532
  0
ARC
  5
3D7
330
1F
100
AcDbEntity
  8
0
  6
SLD-Solid
 62
     7
370
    15
100
AcDbCircle
 10
902.5171236427
 20
1385.7861629425
 30
0.0
 40
9.494372358247075
100
AcDbArc
 50
64.4082804503
 51
94.0514728224
  0
ARC
  5
3D8
330
1F
100
AcDbEntity
  8
0
  6
SLD-Solid
 62
     7
370
    15
100
AcDbCircle
 10
1002.5171214258
 20
1385.7861434543
 30
0.0
 40
9.49439153583791
100
AcDbArc
 50
64.4083110744
 51
94.0514421982
  0
ARC
  5
3D9
330
1F
100
AcDbEntity
  8
0
  6
SLD-Solid
 62
     7
370
    15
100
AcDbCircle
 10
802.5171209737
 20
1385.7861175767
 30
0.0
 40
9.494417000953879
100
AcDbArc
 50
64.4083517387
 51
94.051401534
  0
ARC
  5
3DA
330
1F
100
AcDbEntity
  8
0
  6
SLD-Solid
 62
     7
370
    15
100
AcDbCircle
 10
1202.5171317226
 20
1385.7862210861
 30
0.0
 40
9.494315141351892
100
AcDbArc
 50
64.4081890816
 51
94.051564191
  0
ARC
  5
3DB
330
1F
100
AcDbEntity
  8
0
  6
SLD-Solid
 62
     7
370
    15
100
AcDbCircle
 10
1102.5171179935
 20
1385.7861175767
 30
0.0
 40
9.494417000953879
100
AcDbArc
 50
64.4083517387
 51
94.051401534
  0
ARC
  5
3DC
330
1F
100
AcDbEntity
  8
0
  6
SLD-Solid
 62
     7
370
    15
100
AcDbCircle
 10
1302.5171298091
 20
1385.7861640251
 30
0.0
 40
9.494371292856792
100
AcDbArc
 50
64.408278749
 51
94.0514745236
  0
LWPOLYLINE
  5
3DD
330
1F
100
AcDbEntity
  8
0
  6
SLD-Solid
 62
     7
370
    15
100
AcDbPolyline
 90
        9
 70
   128
 43
0.0
 10
532.4979443016
 20
1395.2568086798
 10
531.5224844875
 20
1395.2319535429
 10
530.584515995
 20
1395.158282202
 10
529.7200996341
 20
1395.0387152846
 10
528.9624053897
 20
1394.8777827437
 10
528.3406097354
 20
1394.6816834624
 10
527.8785545291
 20
1394.4579276259
 10
527.594001955
 20
1394.2151579077
 10
527.4979490699
 20
1393.9627322371
  0
LWPOLYLINE
  5
3DE
330
1F
100
AcDbEntity
  8
0
  6
SLD-Solid
 62
     7
370
    15
100
AcDbPolyline
 90
        9
 70
   128
 43
0.0
 10
1387.4979335727
 20
1393.9627322371
 10
1387.4018806877
 20
1394.2151579077
 10
1387.1173281135
 20
1394.4579276259
 10
1386.6553027095
 20
1394.6816834624
 10
1386.0334772529
 20
1394.8777827437
 10
1385.2757830085
 20
1395.0387152846
 10
1384.4113666477
 20
1395.158282202
 10
1383.4733981552
 20
1395.2319535429
 10
1382.4979383411
 20
1395.2568086798
  0
ARC
  5
3DF
330
1F
100
AcDbEntity
  8
0
  6
SLD-Solid
 62
     7
370
    15
100
AcDbCircle
 10
622.5640672578
 20
1384.020191673
 30
0.0
 40
11.24776924169469
100
AcDbArc
 50
87.4483489852
 51
110.5932143286
  0
ARC
  5
3E0
330
1F
100
AcDbEntity
  8
0
  6
SLD-Solid
 62
     7
370
    15
100
AcDbCircle
 10
1322.5640355508
 20
1384.0204829357
 30
0.0
 40
11.24747914870392
100
AcDbArc
 50
87.4481822377
 51
110.5934997322
  0
ARC
  5
3E1
330
1F
100
AcDbEntity
  8
0
  6
SLD-Solid
 62
     7
370
    15
100
AcDbCircle
 10
822.564047448
 20
1384.0204185424
 30
0.0
 40
11.247543611871
100
AcDbArc
 50
87.4481815548
 51
110.5934410868
  0
ARC
  5
3E2
330
1F
100
AcDbEntity
  8
0
  6
SLD-Solid
 62
     7
370
    15
100
AcDbCircle
 10
922.5640488727
 20
1384.0203746601
 30
0.0
 40
11.24758728774157
100
AcDbArc
 50
87.4482101326
 51
110.5933976771
  0
ARC
  5
3E3
330
1F
100
AcDbEntity
  8
0
  6
SLD-Solid
 62
     7
370
    15
100
AcDbCircle
 10
1122.5640444677
 20
1384.0204185424
 30
0.0
 40
11.247543611871
100
AcDbArc
 50
87.4481815548
 51
110.5934410868
  0
ARC
  5
3E4
330
1F
100
AcDbEntity
  8
0
  6
SLD-Solid
 62
     7
370
    15
100
AcDbCircle
 10
722.5640514042
 20
1384.0203373056
 30
0.0
 40
11.24762419392547
100
AcDbArc
 50
87.4482656115
 51
110.5933570302
  0
ARC
  5
3E5
330
1F
100
AcDbEntity
  8
0
  6
SLD-Solid
 62
     7
370
    15
100
AcDbCircle
 10
1022.5640498617
 20
1384.0203543509
 30
0.0
 40
11.24760743326863
100
AcDbArc
 50
87.4482311468
 51
110.5933766629
  0
ARC
  5
3E6
330
1F
100
AcDbEntity
  8
0
  6
SLD-Solid
 62
     7
370
    15
100
AcDbCircle
 10
1222.5640306915
 20
1384.0205510886
 30
0.0
 40
11.24741154517499
100
AcDbArc
 50
87.4481117176
 51
110.5935702523
  0
LINE
  5
3E7
330
1F
100
AcDbEntity
  8
0
  6
SLD-Solid
 62
     7
370
    15
100
AcDbLine
 10
601.84630937
 20
1395.2568086798
 30
0.0
 11
532.4979443016
 21
1395.2568086798
 31
0.0
  0
LINE
  5
3E8
330
1F
100
AcDbEntity
  8
0
  6
SLD-Solid
 62
     7
370
    15
100
AcDbLine
 10
701.8463332119
 20
1395.2568086798
 30
0.0
 11
623.064817852
 21
1395.2568086798
 31
0.0
  0
LINE
  5
3E9
330
1F
100
AcDbEntity
  8
0
  6
SLD-Solid
 62
     7
370
    15
100
AcDbLine
 10
1382.4979383411
 20
1395.2568086798
 30
0.0
 11
1323.064805931
 21
1395.2568086798
 31
0.0
  0
LINE
  5
3EA
330
1F
100
AcDbEntity
  8
0
  6
SLD-Solid
 62
     7
370
    15
100
AcDbLine
 10
901.8463212909
 20
1395.2568086798
 30
0.0
 11
823.0648208322
 21
1395.2568086798
 31
0.0
  0
LINE
  5
3EB
330
1F
100
AcDbEntity
  8
0
  6
SLD-Solid
 62
     7
370
    15
100
AcDbLine
 10
1001.846322781
 20
1395.2568086798
 30
0.0
 11
923.064818597
 21
1395.2568086798
 31
0.0
  0
LINE
  5
3EC
330
1F
100
AcDbEntity
  8
0
  6
SLD-Solid
 62
     7
370
    15
100
AcDbLine
 10
801.8463272514
 20
1395.2568086798
 30
0.0
 11
723.0648118915
 21
1395.2568086798
 31
0.0
  0
LINE
  5
3ED
330
1F
100
AcDbEntity
  8
0
  6
SLD-Solid
 62
     7
370
    15
100
AcDbLine
 10
1201.8463183107
 20
1395.2568086798
 30
0.0
 11
1123.064817852
 21
1395.2568086798
 31
0.0
  0
LINE
  5
3EE
330
1F
100
AcDbEntity
  8
0
  6
SLD-Solid
 62
     7
370
    15
100
AcDbLine
 10
1101.8463242712
 20
1395.2568086798
 30
0.0
 11
1023.0648163619
 21
1395.2568086798
 31
0.0
  0
LINE
  5
3EF
330
1F
100
AcDbEntity
  8
0
  6
SLD-Solid
 62
     7
370
    15
100
AcDbLine
 10
1301.8463272514
 20
1395.2568086798
 30
0.0
 11
1223.0648118915
 21
1395.2568086798
 31
0.0
  0
LINE
  5
3F0
330
1F
100
AcDbEntity
  8
0
  6
SLD-Solid
 62
     7
370
    15
100
AcDbLine
 10
1407.4979443016
 20
1397.3935159857
 30
0.0
 11
1407.4979443016
 21
1397.323659342
 31
0.0
  0
LINE
  5
3F1
330
1F
100
AcDbEntity
  8
0
  6
SLD-Solid
 62
     7
370
    15
100
AcDbLine
 10
507.4979383411
 20
1397.3935159857
 30
0.0
 11
507.4979383411
 21
1397.323659342
 31
0.0
  0
LWPOLYLINE
  5
3F2
330
1F
100
AcDbEntity
  8
0
  6
SLD-Solid
 62
     7
370
    15
100
AcDbPolyline
 90
        3
 70
   128
 43
0.0
 10
1362.099291748
 20
1292.8658637221
 10
1361.5410048427
 20
1292.4864801581
 10
1361.2611014308
 20
1292.2850760634
  0
LINE
  5
3F3
330
1F
100
AcDbEntity
  8
0
  6
SLD-Solid
 62
     7
370
    15
100
AcDbLine
 10
1358.0479342403
 20
457.364043873
 30
0.0
 11
1305.0479311409
 21
457.364043873
 31
0.0
  0
LINE
  5
3F4
330
1F
100
AcDbEntity
  8
0
  6
SLD-Solid
 62
     7
370
    15
100
AcDbLine
 10
1360.0479382934
 20
463.3640411312
 30
0.0
 11
1303.0479568901
 21
463.3640411312
 31
0.0
  0
LINE
  5
3F5
330
1F
100
AcDbEntity
  8
0
  6
SLD-Solid
 62
     7
370
    15
100
AcDbLine
 10
612.0479423465
 20
463.3640411312
 30
0.0
 11
555.0479311409
 21
463.3640411312
 31
0.0
  0
LINE
  5
3F6
330
1F
100
AcDbEntity
  8
0
  6
SLD-Solid
 62
     7
370
    15
100
AcDbLine
 10
610.0479382934
 20
457.364043873
 30
0.0
 11
557.047935194
 21
457.364043873
 31
0.0
  0
LINE
  5
3F7
330
1F
100
AcDbEntity
  8
0
  6
SLD-Solid
 62
     7
370
    15
100
AcDbLine
 10
628.5479385318
 20
625.3640416081
 30
0.0
 11
628.5479385318
 21
627.3640456612
 31
0.0
  0
LINE
  5
3F8
330
1F
100
AcDbEntity
  8
0
  6
SLD-Solid
 62
     7
370
    15
100
AcDbLine
 10
538.5479349556
 20
625.3640416081
 30
0.0
 11
628.5479385318
 21
625.3640416081
 31
0.0
  0
LINE
  5
3F9
330
1F
100
AcDbEntity
  8
0
  6
SLD-Solid
 62
     7
370
    15
100
AcDbLine
 10
538.5479349556
 20
625.3640416081
 30
0.0
 11
538.5479349556
 21
627.3640456612
 31
0.0
  0
LINE
  5
3FA
330
1F
100
AcDbEntity
  8
0
  6
SLD-Solid
 62
     7
370
    15
100
AcDbLine
 10
614.5075876178
 20
531.3640448267
 30
0.0
 11
552.5882858696
 21
531.3640448267
 31
0.0
  0
LINE
  5
3FB
330
1F
100
AcDbEntity
  8
0
  6
SLD-Solid
 62
     7
370
    15
100
AcDbLine
 10
1376.5479344787
 20
625.3640416081
 30
0.0
 11
1376.5479344787
 21
627.3640456612
 31
0.0
  0
LINE
  5
3FC
330
1F
100
AcDbEntity
  8
0
  6
SLD-Solid
 62
     7
370
    15
100
AcDbLine
 10
1286.5479309024
 20
625.3640416081
 30
0.0
 11
1376.5479344787
 21
625.3640416081
 31
0.0
  0
LINE
  5
3FD
330
1F
100
AcDbEntity
  8
0
  6
SLD-Solid
 62
     7
370
    15
100
AcDbLine
 10
1286.5479309024
 20
625.3640416081
 30
0.0
 11
1286.5479309024
 21
627.3640456612
 31
0.0
  0
LINE
  5
3FE
330
1F
100
AcDbEntity
  8
0
  6
SLD-Solid
 62
     7
370
    15
100
AcDbLine
 10
1362.5075835647
 20
531.3640448267
 30
0.0
 11
1300.5882818164
 21
531.3640448267
 31
0.0
  0
ARC
  5
3FF
330
1F
100
AcDbEntity
  8
0
  6
SLD-Solid
 62
     7
370
    15
100
AcDbCircle
 10
1406.6560455278
 20
634.8953221263
 30
0.0
 40
3.243987425374419
100
AcDbArc
 50
188.531868808
 51
231.2879904846
  0
LINE
  5
400
330
1F
100
AcDbEntity
  8
0
  6
SLD-Solid
 62
     7
370
    15
100
AcDbLine
 10
962.3686536128
 20
632.3640408928
 30
0.0
 11
1390.6049150886
 21
632.3640408928
 31
0.0
  0
LINE
  5
401
330
1F
100
AcDbEntity
  8
0
  6
SLD-Solid
 62
     7
370
    15
100
AcDbLine
 10
1392.3909682693
 20
632.3640408928
 30
0.0
 11
1404.6272355976
 21
632.3640408928
 31
0.0
  0
ARC
  5
402
330
1F
100
AcDbEntity
  8
0
  6
SLD-Solid
 62
     7
370
    15
100
AcDbCircle
 10
960.339698086
 20
634.8954233718
 30
0.0
 40
3.244157484518202
100
AcDbArc
 50
308.7128976869
 51
351.4667736386
  0
ARC
  5
403
330
1F
100
AcDbEntity
  8
0
  6
SLD-Solid
 62
     7
370
    15
100
AcDbCircle
 10
1415.8199429442
 20
653.54905102
 30
0.0
 40
22.78627753557198
100
AcDbArc
 50
237.1147886115
 51
243.0641862153
  0
LINE
  5
404
330
1F
100
AcDbEntity
  8
0
  6
SLD-Solid
 62
     7
370
    15
100
AcDbLine
 10
1405.4979402484
 20
633.2347529943
 30
0.0
 11
1404.6979565086
 21
633.2347529943
 31
0.0
  0
ARC
  5
405
330
1F
100
AcDbEntity
  8
0
  6
SLD-Solid
 62
     7
370
    15
100
AcDbCircle
 10
1413.2556908148
 20
643.5576956621
 30
0.0
 40
13.40887623108236
100
AcDbArc
 50
222.9930960654
 51
230.3412196355
  0
LWPOLYLINE
  5
406
330
1F
100
AcDbEntity
  8
0
  6
SLD-Solid
 62
     7
370
    15
100
AcDbPolyline
 90
        6
 70
   128
 43
0.0
 10
961.4979429083
 20
633.2347529943
 10
961.6008177312
 20
633.2956391389
 10
961.890941477
 20
633.4398600275
 10
962.3199682595
 20
633.6803349669
 10
962.9935659381
 20
634.082383197
 10
963.5479426855
 20
634.4140457923
  0
LWPOLYLINE
  5
407
330
1F
100
AcDbEntity
  8
0
  6
SLD-Solid
 62
     7
370
    15
100
AcDbPolyline
 90
        2
 70
   128
 43
0.0
 10
963.5479426855
 20
634.4140457923
 10
963.5479426855
 20
634.4140457923
  0
ARC
  5
408
330
1F
100
AcDbEntity
  8
0
  6
SLD-Solid
 62
     7
370
    15
100
AcDbCircle
 10
975.6455957187
 20
620.3389334961
 30
0.0
 40
18.55968736427485
100
AcDbArc
 50
130.679278983
 51
135.9863626996
  0
LINE
  5
409
330
1F
100
AcDbEntity
  8
0
  6
SLD-Solid
 62
     7
370
    15
100
AcDbLine
 10
961.4979429083
 20
633.2347529943
 30
0.0
 11
962.2979429463
 21
633.2347529943
 31
0.0
  0
LINE
  5
40A
330
1F
100
AcDbEntity
  8
0
  6
SLD-Solid
 62
     7
370
    15
100
AcDbLine
 10
961.4979429083
 20
1155.4933103735
 30
0.0
 11
961.4979429083
 21
633.2347529943
 31
0.0
  0
LWPOLYLINE
  5
40B
330
1F
100
AcDbEntity
  8
0
  6
SLD-Solid
 62
     7
370
    15
100
AcDbPolyline
 90
        6
 70
   128
 43
0.0
 10
963.5479426855
 20
1154.3140324766
 10
962.699832386
 20
1154.8251423056
 10
962.153754654
 20
1155.1446232016
 10
961.7136092769
 20
1155.3602132017
 10
961.5587899374
 20
1155.4371031935
 10
961.4979429083
 20
1155.4933103735
  0
ARC
  5
40C
330
1F
100
AcDbEntity
  8
0
  6
SLD-Solid
 62
     7
370
    15
100
AcDbCircle
 10
1413.2642641264
 20
1139.621401927
 30
0.0
 40
17.67012349449938
100
AcDbArc
 50
116.0730830993
 51
123.7473162285
  0
LINE
  5
40D
330
1F
100
AcDbEntity
  8
0
  6
SLD-Solid
 62
     7
370
    15
100
AcDbLine
 10
1405.4979402484
 20
633.2347529943
 30
0.0
 11
1405.4979402484
 21
1155.4933103735
 31
0.0
  0
ARC
  5
40E
330
1F
100
AcDbEntity
  8
0
  6
SLD-Solid
 62
     7
370
    15
100
AcDbCircle
 10
1405.4677321338
 20
635.1382694084
 30
0.0
 40
2.145690706210201
100
AcDbArc
 50
199.7261371017
 51
246.9388244478
  0
LINE
  5
40F
330
1F
100
AcDbEntity
  8
0
  6
SLD-Solid
 62
     7
370
    15
100
AcDbLine
 10
1404.6272355976
 20
633.1640469844
 30
0.0
 11
1404.6272355976
 21
632.3640408928
 31
0.0
  0
LINE
  5
410
330
1F
100
AcDbEntity
  8
0
  6
SLD-Solid
 62
     7
370
    15
100
AcDbLine
 10
962.3686536128
 20
633.1640469844
 30
0.0
 11
962.3686536128
 21
632.3640408928
 31
0.0
  0
ARC
  5
411
330
1F
100
AcDbEntity
  8
0
  6
SLD-Solid
 62
     7
370
    15
100
AcDbCircle
 10
961.5280744489
 20
635.1383654202
 30
0.0
 40
2.145811412161006
100
AcDbArc
 50
293.0622012919
 51
340.2722950956
  0
ARC
  5
412
330
1F
100
AcDbEntity
  8
0
  6
SLD-Solid
 62
     7
370
    15
100
AcDbCircle
 10
959.83031995
 20
1153.5395984266
 30
0.0
 40
3.797428985681945
100
AcDbArc
 50
11.7672448284
 51
48.0536238839
  0
LINE
  5
413
330
1F
100
AcDbEntity
  8
0
  6
SLD-Solid
 62
     7
370
    15
100
AcDbLine
 10
1404.6272355976
 20
1156.3640150244
 30
0.0
 11
1392.3909682693
 21
1156.3640150244
 31
0.0
  0
LINE
  5
414
330
1F
100
AcDbEntity
  8
0
  6
SLD-Solid
 62
     7
370
    15
100
AcDbLine
 10
1390.6049150886
 20
1156.3640150244
 30
0.0
 11
962.3686536128
 21
1156.3640150244
 31
0.0
  0
ARC
  5
415
330
1F
100
AcDbEntity
  8
0
  6
SLD-Solid
 62
     7
370
    15
100
AcDbCircle
 10
1406.4027258038
 20
1153.9784538577
 30
0.0
 40
2.973763197145934
100
AcDbArc
 50
126.6590277676
 51
173.5205729045
  0
LINE
  5
416
330
1F
100
AcDbEntity
  8
0
  6
SLD-Solid
 62
     7
370
    15
100
AcDbLine
 10
1404.6272355976
 20
1155.5640610869
 30
0.0
 11
1404.6272355976
 21
1156.3640150244
 31
0.0
  0
ARC
  5
417
330
1F
100
AcDbEntity
  8
0
  6
SLD-Solid
 62
     7
370
    15
100
AcDbCircle
 10
1405.4649037438
 20
1153.5925242342
 30
0.0
 40
2.142112388422031
100
AcDbArc
 50
113.0197067581
 51
160.316695401
  0
ARC
  5
418
330
1F
100
AcDbEntity
  8
0
  6
SLD-Solid
 62
     7
370
    15
100
AcDbCircle
 10
1413.518942964
 20
1144.8912128732
 30
0.0
 40
13.79181907697225
100
AcDbArc
 50
129.7605883198
 51
136.9043732296
  0
LINE
  5
419
330
1F
100
AcDbEntity
  8
0
  6
SLD-Solid
 62
     7
370
    15
100
AcDbLine
 10
1405.4979402484
 20
1155.4933103735
 30
0.0
 11
1404.6979565086
 21
1155.4933103735
 31
0.0
  0
LINE
  5
41A
330
1F
100
AcDbEntity
  8
0
  6
SLD-Solid
 62
     7
370
    15
100
AcDbLine
 10
961.4979429083
 20
1155.4933103735
 30
0.0
 11
962.2979429463
 21
1155.4933103735
 31
0.0
  0
ARC
  5
41B
330
1F
100
AcDbEntity
  8
0
  6
SLD-Solid
 62
     7
370
    15
100
AcDbCircle
 10
953.4869755151
 20
1144.9018247895
 30
0.0
 40
13.77725349804711
100
AcDbArc
 50
43.091865486
 51
50.243215581
  0
ARC
  5
41C
330
1F
100
AcDbEntity
  8
0
  6
SLD-Solid
 62
     7
370
    15
100
AcDbCircle
 10
961.5242821998
 20
1153.586182275
 30
0.0
 40
2.150573801961008
100
AcDbArc
 50
19.7821421591
 51
66.8819977441
  0
LINE
  5
41D
330
1F
100
AcDbEntity
  8
0
  6
SLD-Solid
 62
     7
370
    15
100
AcDbLine
 10
962.3686536128
 20
1155.5640610869
 30
0.0
 11
962.3686536128
 21
1156.3640150244
 31
0.0
  0
LINE
  5
41E
330
1F
100
AcDbEntity
  8
0
  6
SLD-Solid
 62
     7
370
    15
100
AcDbLine
 10
577.4996001186
 20
662.3640420849
 30
0.0
 11
541.5002722206
 21
662.3640420849
 31
0.0
  0
ARC
  5
41F
330
1F
100
AcDbEntity
  8
0
  6
SLD-Solid
 62
     7
370
    15
100
AcDbCircle
 10
577.4960215243
 20
664.3659557623
 30
0.0
 40
2.001916875937483
100
AcDbArc
 50
270.1024210641
 51
359.898219796
  0
LINE
  5
420
330
1F
100
AcDbEntity
  8
0
  6
SLD-Solid
 62
     7
370
    15
100
AcDbLine
 10
579.4979352417
 20
720.3652921135
 30
0.0
 11
579.4979352417
 21
664.3623995597
 31
0.0
  0
ARC
  5
421
330
1F
100
AcDbEntity
  8
0
  6
SLD-Solid
 62
     7
370
    15
100
AcDbCircle
 10
577.4956833574
 20
720.3617933589
 30
0.0
 40
2.002254941150427
100
AcDbArc
 50
0.1001191068
 51
89.8879193527
  0
LINE
  5
422
330
1F
100
AcDbEntity
  8
0
  6
SLD-Solid
 62
     7
370
    15
100
AcDbLine
 10
541.5002722206
 20
722.3640444691
 30
0.0
 11
577.4996001186
 21
722.3640444691
 31
0.0
  0
ARC
  5
423
330
1F
100
AcDbEntity
  8
0
  6
SLD-Solid
 62
     7
370
    15
100
AcDbCircle
 10
541.5000162729
 20
720.3619569297
 30
0.0
 40
2.00208755576251
100
AcDbArc
 50
89.9926752844
 51
179.779179236
  0
LINE
  5
424
330
1F
100
AcDbEntity
  8
0
  6
SLD-Solid
 62
     7
370
    15
100
AcDbLine
 10
539.4979435863
 20
664.3580260689
 30
0.0
 11
539.4979435863
 21
720.3696730549
 31
0.0
  0
ARC
  5
425
330
1F
100
AcDbEntity
  8
0
  6
SLD-Solid
 62
     7
370
    15
100
AcDbCircle
 10
541.4997467618
 20
664.3658605223
 30
0.0
 40
2.001818506313031
100
AcDbArc
 50
180.2242372406
 51
270.0150396092
  0
ARC
  5
426
330
1F
100
AcDbEntity
  8
0
  6
SLD-Solid
 62
     7
370
    15
100
AcDbCircle
 10
541.4972288559
 20
664.3633320791
 30
0.0
 40
1.999292310535373
100
AcDbArc
 50
180.1520599794
 51
270.0872168704
  0
ARC
  5
427
330
1F
100
AcDbEntity
  8
0
  6
SLD-Solid
 62
     7
370
    15
100
AcDbCircle
 10
577.498261684
 20
720.3643711473
 30
0.0
 40
1.999673769737699
100
AcDbArc
 50
0.0263880445
 51
89.961650415
  0
ARC
  5
428
330
1F
100
AcDbEntity
  8
0
  6
SLD-Solid
 62
     7
370
    15
100
AcDbCircle
 10
541.4974957115
 20
720.3644875477
 30
0.0
 40
1.999558849017578
100
AcDbArc
 50
89.9204412988
 51
179.8514132215
  0
ARC
  5
429
330
1F
100
AcDbEntity
  8
0
  6
SLD-Solid
 62
     7
370
    15
100
AcDbCircle
 10
577.4985239235
 20
664.3634533911
 30
0.0
 40
1.999411595855415
100
AcDbArc
 50
270.0308397924
 51
359.9698010678
  0
LINE
  5
42A
330
1F
100
AcDbEntity
  8
0
  6
SLD-Solid
 62
     7
370
    15
100
AcDbLine
 10
967.9979430424
 20
1159.3640360052
 30
0.0
 11
1024.9979440035
 21
1159.3640360052
 31
0.0
  0
LINE
  5
42B
330
1F
100
AcDbEntity
  8
0
  6
SLD-Solid
 62
     7
370
    15
100
AcDbLine
 10
966.9979428785
 20
1159.3640360052
 30
0.0
 11
967.9979430424
 21
1159.3640360052
 31
0.0
  0
ARC
  5
42C
330
1F
100
AcDbEntity
  8
0
  6
SLD-Solid
 62
     7
370
    15
100
AcDbCircle
 10
966.9979429146
 20
1157.3640439463
 30
0.0
 40
2.0
100
AcDbArc
 50
90.0
 51
180.0
  0
LINE
  5
42D
330
1F
100
AcDbEntity
  8
0
  6
SLD-Solid
 62
     7
370
    15
100
AcDbLine
 10
1027.9979426326
 20
1157.3640617544
 30
0.0
 11
1027.9979426326
 21
1156.3640150244
 31
0.0
  0
LINE
  5
42E
330
1F
100
AcDbEntity
  8
0
  6
SLD-Solid
 62
     7
370
    15
100
AcDbLine
 10
1024.9979440035
 20
1159.3640360052
 30
0.0
 11
1025.9979460301
 21
1159.3640360052
 31
0.0
  0
ARC
  5
42F
330
1F
100
AcDbEntity
  8
0
  6
SLD-Solid
 62
     7
370
    15
100
AcDbCircle
 10
1025.9979429146
 20
1157.3640439463
 30
0.0
 40
2.0
100
AcDbArc
 50
0.0
 51
90.0
  0
LINE
  5
430
330
1F
100
AcDbEntity
  8
0
  6
SLD-Solid
 62
     7
370
    15
100
AcDbLine
 10
964.9979425507
 20
1157.3640617544
 30
0.0
 11
964.9979425507
 21
1156.3640150244
 31
0.0
  0
LINE
  5
431
330
1F
100
AcDbEntity
  8
0
  6
SLD-Solid
 62
     7
370
    15
100
AcDbLine
 10
888.9979440631
 20
1159.3640360052
 30
0.0
 11
889.9979460897
 21
1159.3640360052
 31
0.0
  0
ARC
  5
432
330
1F
100
AcDbEntity
  8
0
  6
SLD-Solid
 62
     7
370
    15
100
AcDbCircle
 10
888.9979429113
 20
1157.3640439479
 30
0.0
 40
2.0
100
AcDbArc
 50
90.0
 51
180.0
  0
LINE
  5
433
330
1F
100
AcDbEntity
  8
0
  6
SLD-Solid
 62
     7
370
    15
100
AcDbLine
 10
886.99794001
 20
1157.3640617544
 30
0.0
 11
886.99794001
 21
1156.3640150244
 31
0.0
  0
LINE
  5
434
330
1F
100
AcDbEntity
  8
0
  6
SLD-Solid
 62
     7
370
    15
100
AcDbLine
 10
949.9979428859
 20
1157.3640617544
 30
0.0
 11
949.9979428859
 21
1156.3640150244
 31
0.0
  0
LINE
  5
435
330
1F
100
AcDbEntity
  8
0
  6
SLD-Solid
 62
     7
370
    15
100
AcDbLine
 10
889.9979460897
 20
1159.3640360052
 30
0.0
 11
946.9979433255
 21
1159.3640360052
 31
0.0
  0
LINE
  5
436
330
1F
100
AcDbEntity
  8
0
  6
SLD-Solid
 62
     7
370
    15
100
AcDbLine
 10
946.9979433255
 20
1159.3640360052
 30
0.0
 11
947.9979425581
 21
1159.3640360052
 31
0.0
  0
ARC
  5
437
330
1F
100
AcDbEntity
  8
0
  6
SLD-Solid
 62
     7
370
    15
100
AcDbCircle
 10
947.9979429113
 20
1157.3640439479
 30
0.0
 40
2.0
100
AcDbArc
 50
0.0
 51
90.0
  0
LINE
  5
438
330
1F
100
AcDbEntity
  8
0
  6
SLD-Solid
 62
     7
370
    15
100
AcDbLine
 10
1000.9979437949
 20
1159.2762383635
 30
0.0
 11
1000.9979437949
 21
1160.6640729124
 31
0.0
  0
ARC
  5
439
330
1F
100
AcDbEntity
  8
0
  6
SLD-Solid
 62
     7
370
    15
100
AcDbCircle
 10
947.3028537596
 20
1140.4645284212
 30
0.0
 40
59.69420988868419
100
AcDbArc
 50
18.5083655359
 51
19.7784277193
  0
LINE
  5
43A
330
1F
100
AcDbEntity
  8
0
  6
SLD-Solid
 62
     7
370
    15
100
AcDbLine
 10
991.9979441824
 20
1160.6640729124
 30
0.0
 11
991.9979441824
 21
1159.4140443022
 31
0.0
  0
ARC
  5
43B
330
1F
100
AcDbEntity
  8
0
  6
SLD-Solid
 62
     7
370
    15
100
AcDbCircle
 10
1049.2140226442
 20
1139.2453033568
 30
0.0
 40
63.42015785778353
100
AcDbArc
 50
160.2614819116
 51
161.4569061137
  0
ARC
  5
43C
330
1F
100
AcDbEntity
  8
0
  6
SLD-Solid
 62
     7
370
    15
100
AcDbCircle
 10
971.2519229435
 20
1139.2321484062
 30
0.0
 40
63.46027558892372
100
AcDbArc
 50
160.2618597814
 51
161.4565282439
  0
LINE
  5
43D
330
1F
100
AcDbEntity
  8
0
  6
SLD-Solid
 62
     7
370
    15
100
AcDbLine
 10
913.997942573
 20
1160.6640729124
 30
0.0
 11
913.997942573
 21
1159.4140443022
 31
0.0
  0
LINE
  5
43E
330
1F
100
AcDbEntity
  8
0
  6
SLD-Solid
 62
     7
370
    15
100
AcDbLine
 10
922.9979421856
 20
1159.4140443022
 30
0.0
 11
922.9979421856
 21
1160.6640729124
 31
0.0
  0
ARC
  5
43F
330
1F
100
AcDbEntity
  8
0
  6
SLD-Solid
 62
     7
370
    15
100
AcDbCircle
 10
869.3366932626
 20
1140.4761913716
 30
0.0
 40
59.65841857334394
100
AcDbArc
 50
18.5080604421
 51
19.7788852012
  0
LINE
  5
440
330
1F
100
AcDbEntity
  8
0
  6
SLD-Solid
 62
     7
370
    15
100
AcDbLine
 10
999.3479419412
 20
1159.3640360052
 30
0.0
 11
999.3479419412
 21
1160.6640729124
 31
0.0
  0
LINE
  5
441
330
1F
100
AcDbEntity
  8
0
  6
SLD-Solid
 62
     7
370
    15
100
AcDbLine
 10
997.3479416134
 20
1159.3640360052
 30
0.0
 11
997.3479416134
 21
1160.6640729124
 31
0.0
  0
LINE
  5
442
330
1F
100
AcDbEntity
  8
0
  6
SLD-Solid
 62
     7
370
    15
100
AcDbLine
 10
1000.8479412558
 20
1159.3640360052
 30
0.0
 11
1000.8479412558
 21
1160.6640729124
 31
0.0
  0
LINE
  5
443
330
1F
100
AcDbEntity
  8
0
  6
SLD-Solid
 62
     7
370
    15
100
AcDbLine
 10
993.6479423108
 20
1159.3640360052
 30
0.0
 11
993.6479423108
 21
1160.6640729124
 31
0.0
  0
LINE
  5
444
330
1F
100
AcDbEntity
  8
0
  6
SLD-Solid
 62
     7
370
    15
100
AcDbLine
 10
995.6479426386
 20
1159.3640360052
 30
0.0
 11
995.6479426386
 21
1160.6640729124
 31
0.0
  0
LINE
  5
445
330
1F
100
AcDbEntity
  8
0
  6
SLD-Solid
 62
     7
370
    15
100
AcDbLine
 10
992.1479429962
 20
1159.3640360052
 30
0.0
 11
992.1479429962
 21
1160.6640729124
 31
0.0
  0
LINE
  5
446
330
1F
100
AcDbEntity
  8
0
  6
SLD-Solid
 62
     7
370
    15
100
AcDbLine
 10
915.6479444267
 20
1159.3640360052
 30
0.0
 11
915.6479444267
 21
1160.6640729124
 31
0.0
  0
LINE
  5
447
330
1F
100
AcDbEntity
  8
0
  6
SLD-Solid
 62
     7
370
    15
100
AcDbLine
 10
914.1479413869
 20
1159.3640360052
 30
0.0
 11
914.1479413869
 21
1160.6640729124
 31
0.0
  0
LINE
  5
448
330
1F
100
AcDbEntity
  8
0
  6
SLD-Solid
 62
     7
370
    15
100
AcDbLine
 10
922.8479433717
 20
1159.3640360052
 30
0.0
 11
922.8479433717
 21
1160.6640729124
 31
0.0
  0
LINE
  5
449
330
1F
100
AcDbEntity
  8
0
  6
SLD-Solid
 62
     7
370
    15
100
AcDbLine
 10
921.3479440572
 20
1159.3640360052
 30
0.0
 11
921.3479440572
 21
1160.6640729124
 31
0.0
  0
LINE
  5
44A
330
1F
100
AcDbEntity
  8
0
  6
SLD-Solid
 62
     7
370
    15
100
AcDbLine
 10
917.6479447546
 20
1159.3640360052
 30
0.0
 11
917.6479447546
 21
1160.6640729124
 31
0.0
  0
LINE
  5
44B
330
1F
100
AcDbEntity
  8
0
  6
SLD-Solid
 62
     7
370
    15
100
AcDbLine
 10
919.3479437294
 20
1159.3640360052
 30
0.0
 11
919.3479437294
 21
1160.6640729124
 31
0.0
  0
LINE
  5
44C
330
1F
100
AcDbEntity
  8
0
  6
SLD-Solid
 62
     7
370
    15
100
AcDbLine
 10
744.6323651733
 20
1091.6654977019
 30
0.0
 11
744.553672141
 21
1091.708770674
 31
0.0
  0
LINE
  5
44D
330
1F
100
AcDbEntity
  8
0
  6
SLD-Solid
 62
     7
370
    15
100
AcDbLine
 10
744.5546258153
 20
1121.0198911841
 30
0.0
 11
744.6323651733
 21
1121.0625681097
 31
0.0
  0
LINE
  5
44E
330
1F
100
AcDbEntity
  8
0
  6
SLD-Solid
 62
     7
370
    15
100
AcDbLine
 10
914.216263211
 20
1120.9330472166
 30
0.0
 11
912.9140581848
 21
1121.1066159422
 31
0.0
  0
LINE
  5
44F
330
1F
100
AcDbEntity
  8
0
  6
SLD-Solid
 62
     7
370
    15
100
AcDbLine
 10
912.9140581848
 20
1091.621509474
 30
0.0
 11
914.2161663534
 21
1091.7950185949
 31
0.0
  0
ELLIPSE
  5
450
330
1F
100
AcDbEntity
  8
0
  6
SLD-Solid
 62
     7
370
    15
100
AcDbEllipse
 10
884.422791314
 20
1106.3640439479
 30
0.0
 11
47.30357136413068
 21
1.591615728102625E-12
 31
0.0
210
0.0
220
0.0
230
1.0
 40
0.9777274395
 41
6.088408441804453
 42
6.477962172554693
  0
ARC
  5
451
330
1F
100
AcDbEntity
  8
0
  6
SLD-Solid
 62
     7
370
    15
100
AcDbCircle
 10
923.9878039664
 20
1098.7532314238
 30
0.0
 40
6.974184148571025
100
AcDbArc
 50
268.5215023972
 51
348.9159948678
  0
ARC
  5
452
330
1F
100
AcDbEntity
  8
0
  6
SLD-Solid
 62
     7
370
    15
100
AcDbCircle
 10
924.0893220506
 20
1114.0128701474
 30
0.0
 40
6.86727053943654
100
AcDbArc
 50
10.9354138848
 51
92.4037230837
  0
LINE
  5
453
330
1F
100
AcDbEntity
  8
0
  6
SLD-Solid
 62
     7
370
    15
100
AcDbLine
 10
743.239508933
 20
1091.8373974974
 30
0.0
 11
744.6323651733
 21
1091.6654977019
 31
0.0
  0
LINE
  5
454
330
1F
100
AcDbEntity
  8
0
  6
SLD-Solid
 62
     7
370
    15
100
AcDbLine
 10
743.2394940319
 20
1120.8907279188
 30
0.0
 11
744.6323651733
 21
1121.0625681097
 31
0.0
  0
ELLIPSE
  5
455
330
1F
100
AcDbEntity
  8
0
  6
SLD-Solid
 62
     7
370
    15
100
AcDbEllipse
 10
776.0923301434
 20
1106.3640439479
 30
0.0
 11
-47.33641712005362
 21
-1.136868377216160E-12
 31
0.0
210
0.0
220
0.0
230
1.0
 40
0.9770490148
 41
6.0888914672156
 42
6.47747914714355
  0
ARC
  5
456
330
1F
100
AcDbEntity
  8
0
  6
SLD-Solid
 62
     7
370
    15
100
AcDbCircle
 10
736.4907198345
 20
1113.956103872
 30
0.0
 40
6.973628660445551
100
AcDbArc
 50
88.4039856405
 51
168.9414252464
  0
ARC
  5
457
330
1F
100
AcDbEntity
  8
0
  6
SLD-Solid
 62
     7
370
    15
100
AcDbCircle
 10
736.3998207574
 20
1098.7420897538
 30
0.0
 40
6.878686507393771
100
AcDbArc
 50
190.9591172939
 51
272.7582012725
  0
LINE
  5
458
330
1F
100
AcDbEntity
  8
0
  6
SLD-Solid
 62
     7
370
    15
100
AcDbLine
 10
1170.349987215
 20
1121.0625681097
 30
0.0
 11
1170.4286802473
 21
1121.0193547423
 31
0.0
  0
LINE
  5
459
330
1F
100
AcDbEntity
  8
0
  6
SLD-Solid
 62
     7
370
    15
100
AcDbLine
 10
1170.4277116718
 20
1091.7082342322
 30
0.0
 11
1170.349987215
 21
1091.6654977019
 31
0.0
  0
LINE
  5
45A
330
1F
100
AcDbEntity
  8
0
  6
SLD-Solid
 62
     7
370
    15
100
AcDbLine
 10
1000.7660780015
 20
1091.7950185949
 30
0.0
 11
1002.0682793023
 21
1091.621509474
 31
0.0
  0
LINE
  5
45B
330
1F
100
AcDbEntity
  8
0
  6
SLD-Solid
 62
     7
370
    15
100
AcDbLine
 10
1002.0682793023
 20
1121.1066159422
 30
0.0
 11
1000.7661711337
 21
1120.9330472166
 31
0.0
  0
ELLIPSE
  5
45C
330
1F
100
AcDbEntity
  8
0
  6
SLD-Solid
 62
     7
370
    15
100
AcDbEllipse
 10
1030.5595487654
 20
1106.3640439463
 30
0.0
 11
-47.30357136413068
 21
0.0
 31
0.0
210
0.0
220
0.0
230
1.0
 40
0.9777274395
 41
6.088408441804448
 42
6.477962172554691
  0
ARC
  5
45D
330
1F
100
AcDbEntity
  8
0
  6
SLD-Solid
 62
     7
370
    15
100
AcDbCircle
 10
990.994070135
 20
1113.9754170468
 30
0.0
 40
6.97361375249158
100
AcDbArc
 50
88.5175423351
 51
168.9199549299
  0
ARC
  5
45E
330
1F
100
AcDbEntity
  8
0
  6
SLD-Solid
 62
     7
370
    15
100
AcDbCircle
 10
990.8931314703
 20
1098.7153379091
 30
0.0
 40
6.867407793821072
100
AcDbArc
 50
190.9364013533
 51
272.402706075
  0
LINE
  5
45F
330
1F
100
AcDbEntity
  8
0
  6
SLD-Solid
 62
     7
370
    15
100
AcDbLine
 10
1171.7428285541
 20
1120.8907279188
 30
0.0
 11
1170.349987215
 21
1121.0625681097
 31
0.0
  0
LINE
  5
460
330
1F
100
AcDbEntity
  8
0
  6
SLD-Solid
 62
     7
370
    15
100
AcDbLine
 10
1171.7428434553
 20
1091.8373974974
 30
0.0
 11
1170.349987215
 21
1091.6654977019
 31
0.0
  0
ELLIPSE
  5
461
330
1F
100
AcDbEntity
  8
0
  6
SLD-Solid
 62
     7
370
    15
100
AcDbEllipse
 10
1138.8900099361
 20
1106.3640439463
 30
0.0
 11
47.33641712005374
 21
0.0
 31
0.0
210
0.0
220
0.0
230
1.0
 40
0.9770490148
 41
6.088891467215593
 42
6.47747914714355
  0
ARC
  5
462
330
1F
100
AcDbEntity
  8
0
  6
SLD-Solid
 62
     7
370
    15
100
AcDbCircle
 10
1178.4916878433
 20
1098.7719338463
 30
0.0
 40
6.973542951893924
100
AcDbArc
 50
268.4033890972
 51
348.9420217897
  0
ARC
  5
463
330
1F
100
AcDbEntity
  8
0
  6
SLD-Solid
 62
     7
370
    15
100
AcDbCircle
 10
1178.5823862643
 20
1113.9858695207
 30
0.0
 40
6.878846179861253
100
AcDbArc
 50
10.9602693087
 51
92.7570492576
  0
LINE
  5
464
330
1F
100
AcDbEntity
  8
0
  6
SLD-Solid
 62
     7
370
    15
100
AcDbLine
 10
1399.9979514541
 20
1156.8640383894
 30
0.0
 11
1382.9979319038
 21
1156.8640383894
 31
0.0
  0
LINE
  5
465
330
1F
100
AcDbEntity
  8
0
  6
SLD-Solid
 62
     7
370
    15
100
AcDbLine
 10
1399.9979514541
 20
1158.3640488798
 30
0.0
 11
1382.9979319038
 21
1158.3640488798
 31
0.0
  0
LINE
  5
466
330
1F
100
AcDbEntity
  8
0
  6
SLD-Solid
 62
     7
370
    15
100
AcDbLine
 10
1392.3909682693
 20
1156.3640150244
 30
0.0
 11
1390.6049150886
 21
1156.3640150244
 31
0.0
  0
LWPOLYLINE
  5
467
330
1F
100
AcDbEntity
  8
0
  6
SLD-Solid
 62
     7
370
    15
100
AcDbPolyline
 90
        3
 70
   128
 43
0.0
 10
1383.5004288616
 20
1156.3640150244
 10
1383.309485382
 20
1156.5549287016
 10
1383.3003956737
 20
1156.5640482123
  0
LINE
  5
468
330
1F
100
AcDbEntity
  8
0
  6
SLD-Solid
 62
     7
370
    15
100
AcDbLine
 10
1383.2979518833
 20
1156.5640482123
 30
0.0
 11
1383.3003956737
 21
1156.5640482123
 31
0.0
  0
LINE
  5
469
330
1F
100
AcDbEntity
  8
0
  6
SLD-Solid
 62
     7
370
    15
100
AcDbLine
 10
1399.4979280891
 20
1158.8640722449
 30
0.0
 11
1383.4979552688
 21
1158.8640722449
 31
0.0
  0
LINE
  5
46A
330
1F
100
AcDbEntity
  8
0
  6
SLD-Solid
 62
     7
370
    15
100
AcDbLine
 10
1386.8489283981
 20
630.3640442903
 30
0.0
 11
1399.9979514541
 21
630.3640442903
 31
0.0
  0
LINE
  5
46B
330
1F
100
AcDbEntity
  8
0
  6
SLD-Solid
 62
     7
370
    15
100
AcDbLine
 10
1382.9979319038
 20
630.3640442903
 30
0.0
 11
1386.8489283981
 21
630.3640442903
 31
0.0
  0
LINE
  5
46C
330
1F
100
AcDbEntity
  8
0
  6
SLD-Solid
 62
     7
370
    15
100
AcDbLine
 10
1386.3319475116
 20
629.864043277
 30
0.0
 11
1399.4979280891
 21
629.864043277
 31
0.0
  0
LINE
  5
46D
330
1F
100
AcDbEntity
  8
0
  6
SLD-Solid
 62
     7
370
    15
100
AcDbLine
 10
1386.8489283981
 20
631.8640473301
 30
0.0
 11
1399.9979514541
 21
631.8640473301
 31
0.0
  0
LINE
  5
46E
330
1F
100
AcDbEntity
  8
0
  6
SLD-Solid
 62
     7
370
    15
100
AcDbLine
 10
1382.9979319038
 20
631.8640473301
 30
0.0
 11
1386.8489283981
 21
631.8640473301
 31
0.0
  0
LINE
  5
46F
330
1F
100
AcDbEntity
  8
0
  6
SLD-Solid
 62
     7
370
    15
100
AcDbLine
 10
1390.6049150886
 20
632.3640408928
 30
0.0
 11
1392.3909682693
 21
632.3640408928
 31
0.0
  0
LINE
  5
470
330
1F
100
AcDbEntity
  8
0
  6
SLD-Solid
 62
     7
370
    15
100
AcDbLine
 10
518.8489276828
 20
630.3640442903
 30
0.0
 11
531.9979507389
 21
630.3640442903
 31
0.0
  0
LINE
  5
471
330
1F
100
AcDbEntity
  8
0
  6
SLD-Solid
 62
     7
370
    15
100
AcDbLine
 10
514.9979311885
 20
630.3640442903
 30
0.0
 11
518.8489276828
 21
630.3640442903
 31
0.0
  0
LINE
  5
472
330
1F
100
AcDbEntity
  8
0
  6
SLD-Solid
 62
     7
370
    15
100
AcDbLine
 10
519.1223937931
 20
629.864043277
 30
0.0
 11
528.663935131
 21
629.864043277
 31
0.0
  0
LINE
  5
473
330
1F
100
AcDbEntity
  8
0
  6
SLD-Solid
 62
     7
370
    15
100
AcDbLine
 10
515.4979545536
 20
629.864043277
 30
0.0
 11
519.1223937931
 21
629.864043277
 31
0.0
  0
LINE
  5
474
330
1F
100
AcDbEntity
  8
0
  6
SLD-Solid
 62
     7
370
    15
100
AcDbLine
 10
518.8489276828
 20
631.8640473301
 30
0.0
 11
531.9979507389
 21
631.8640473301
 31
0.0
  0
LINE
  5
475
330
1F
100
AcDbEntity
  8
0
  6
SLD-Solid
 62
     7
370
    15
100
AcDbLine
 10
514.9979311885
 20
631.8640473301
 30
0.0
 11
518.8489276828
 21
631.8640473301
 31
0.0
  0
LINE
  5
476
330
1F
100
AcDbEntity
  8
0
  6
SLD-Solid
 62
     7
370
    15
100
AcDbLine
 10
522.6049143734
 20
632.3640408928
 30
0.0
 11
524.390967554
 21
632.3640408928
 31
0.0
  0
LINE
  5
477
330
1F
100
AcDbEntity
  8
0
  6
SLD-Solid
 62
     7
370
    15
100
AcDbLine
 10
515.0989312591
 20
1158.3640488798
 30
0.0
 11
514.9979311885
 21
1158.3640488798
 31
0.0
  0
LINE
  5
478
330
1F
100
AcDbEntity
  8
0
  6
SLD-Solid
 62
     7
370
    15
100
AcDbLine
 10
531.9979507389
 20
1158.3640488798
 30
0.0
 11
515.0989312591
 21
1158.3640488798
 31
0.0
  0
LINE
  5
479
330
1F
100
AcDbEntity
  8
0
  6
SLD-Solid
 62
     7
370
    15
100
AcDbLine
 10
515.5929941597
 20
1158.8640722449
 30
0.0
 11
515.4979545536
 21
1158.8640722449
 31
0.0
  0
LINE
  5
47A
330
1F
100
AcDbEntity
  8
0
  6
SLD-Solid
 62
     7
370
    15
100
AcDbLine
 10
531.4979571762
 20
1158.8640722449
 30
0.0
 11
515.5929941597
 21
1158.8640722449
 31
0.0
  0
LINE
  5
47B
330
1F
100
AcDbEntity
  8
0
  6
SLD-Solid
 62
     7
370
    15
100
AcDbLine
 10
515.0989312591
 20
1156.8640383894
 30
0.0
 11
514.9979311885
 21
1156.8640383894
 31
0.0
  0
LINE
  5
47C
330
1F
100
AcDbEntity
  8
0
  6
SLD-Solid
 62
     7
370
    15
100
AcDbLine
 10
531.9979507389
 20
1156.8640383894
 30
0.0
 11
515.0989312591
 21
1156.8640383894
 31
0.0
  0
LINE
  5
47D
330
1F
100
AcDbEntity
  8
0
  6
SLD-Solid
 62
     7
370
    15
100
AcDbLine
 10
524.5294589462
 20
1156.3640150244
 30
0.0
 11
522.6049143734
 21
1156.3640150244
 31
0.0
  0
LWPOLYLINE
  5
47E
330
1F
100
AcDbEntity
  8
0
  6
SLD-Solid
 62
     7
370
    15
100
AcDbPolyline
 90
        3
 70
   128
 43
0.0
 10
524.924727148
 20
1156.3640150244
 10
524.9540526332
 20
1156.5549287016
 10
524.9554533424
 20
1156.5640482123
  0
LINE
  5
47F
330
1F
100
AcDbEntity
  8
0
  6
SLD-Solid
 62
     7
370
    15
100
AcDbLine
 10
524.5602149429
 20
1156.5640482123
 30
0.0
 11
524.9554533424
 21
1156.5640482123
 31
0.0
  0
LWPOLYLINE
  5
480
330
1F
100
AcDbEntity
  8
0
  6
SLD-Solid
 62
     7
370
    15
100
AcDbPolyline
 90
        3
 70
   128
 43
0.0
 10
524.5602149429
 20
1156.5640482123
 10
524.5588142337
 20
1156.5549287016
 10
524.5294589462
 20
1156.3640150244
  0
LINE
  5
481
330
1F
100
AcDbEntity
  8
0
  6
SLD-Solid
 62
     7
370
    15
100
AcDbLine
 10
524.924727148
 20
1156.5640482123
 30
0.0
 11
524.924727148
 21
1156.3640150244
 31
0.0
  0
ARC
  5
482
330
1F
100
AcDbEntity
  8
0
  6
SLD-Solid
 62
     7
370
    15
100
AcDbCircle
 10
501.7264347079
 20
649.1157350849
 30
0.0
 40
17.68055213733745
100
AcDbArc
 50
296.0752486394
 51
303.7450564842
  0
LINE
  5
483
330
1F
100
AcDbEntity
  8
0
  6
SLD-Solid
 62
     7
370
    15
100
AcDbLine
 10
509.4979423942
 20
1155.4933103735
 30
0.0
 11
509.4979423942
 21
633.2347529943
 31
0.0
  0
LWPOLYLINE
  5
484
330
1F
100
AcDbEntity
  8
0
  6
SLD-Solid
 62
     7
370
    15
100
AcDbPolyline
 90
        6
 70
   128
 43
0.0
 10
511.5479547443
 20
1154.3140324766
 10
510.6653291645
 20
1154.8422488386
 10
510.1633090438
 20
1155.138841551
 10
509.7358245315
 20
1155.337682646
 10
509.5675010147
 20
1155.4208907301
 10
509.4979423942
 20
1155.4933103735
  0
ARC
  5
485
330
1F
100
AcDbEntity
  8
0
  6
SLD-Solid
 62
     7
370
    15
100
AcDbCircle
 10
955.1660491099
 20
635.1887278335
 30
0.0
 40
3.797953022355079
100
AcDbArc
 50
191.7694194846
 51
228.0509287474
  0
LINE
  5
486
330
1F
100
AcDbEntity
  8
0
  6
SLD-Solid
 62
     7
370
    15
100
AcDbLine
 10
510.3686470451
 20
632.3640408928
 30
0.0
 11
522.6049143734
 21
632.3640408928
 31
0.0
  0
LINE
  5
487
330
1F
100
AcDbEntity
  8
0
  6
SLD-Solid
 62
     7
370
    15
100
AcDbLine
 10
524.390967554
 20
632.3640408928
 30
0.0
 11
952.6272322895
 21
632.3640408928
 31
0.0
  0
ARC
  5
488
330
1F
100
AcDbEntity
  8
0
  6
SLD-Solid
 62
     7
370
    15
100
AcDbCircle
 10
508.5926379008
 20
634.7499398863
 30
0.0
 40
2.97434404331509
100
AcDbArc
 50
306.6631615546
 51
353.5157274728
  0
LINE
  5
489
330
1F
100
AcDbEntity
  8
0
  6
SLD-Solid
 62
     7
370
    15
100
AcDbLine
 10
510.3686470451
 20
633.1640469844
 30
0.0
 11
510.3686470451
 21
632.3640408928
 31
0.0
  0
ARC
  5
48A
330
1F
100
AcDbEntity
  8
0
  6
SLD-Solid
 62
     7
370
    15
100
AcDbCircle
 10
509.530947668
 20
635.1356785923
 30
0.0
 40
2.142211811129434
100
AcDbArc
 50
293.0194845013
 51
340.3141084587
  0
ARC
  5
48B
330
1F
100
AcDbEntity
  8
0
  6
SLD-Solid
 62
     7
370
    15
100
AcDbCircle
 10
501.4419804385
 20
643.8738182864
 30
0.0
 40
13.84261580445132
100
AcDbArc
 50
309.7740527859
 51
316.8916315131
  0
LINE
  5
48C
330
1F
100
AcDbEntity
  8
0
  6
SLD-Solid
 62
     7
370
    15
100
AcDbLine
 10
509.4979423942
 20
633.2347529943
 30
0.0
 11
510.2979559364
 21
633.2347529943
 31
0.0
  0
ARC
  5
48D
330
1F
100
AcDbEntity
  8
0
  6
SLD-Solid
 62
     7
370
    15
100
AcDbCircle
 10
962.5910658226
 20
1137.3148108519
 30
0.0
 40
20.32591271346447
100
AcDbArc
 50
116.5748161867
 51
123.2451556125
  0
LINE
  5
48E
330
1F
100
AcDbEntity
  8
0
  6
SLD-Solid
 62
     7
370
    15
100
AcDbLine
 10
953.497942994
 20
1155.4933103735
 30
0.0
 11
953.497942994
 21
633.2347529943
 31
0.0
  0
LWPOLYLINE
  5
48F
330
1F
100
AcDbEntity
  8
0
  6
SLD-Solid
 62
     7
370
    15
100
AcDbPolyline
 90
        6
 70
   128
 43
0.0
 10
951.4479427511
 20
634.4140457923
 10
952.2960162634
 20
633.9029434139
 10
952.8421312483
 20
633.5834848697
 10
953.2822766254
 20
633.3678799684
 10
953.4370959649
 20
633.2910123284
 10
953.497942994
 20
633.2347529943
  0
ARC
  5
490
330
1F
100
AcDbEntity
  8
0
  6
SLD-Solid
 62
     7
370
    15
100
AcDbCircle
 10
953.4715392536
 20
635.1418831006
 30
0.0
 40
2.150509230886929
100
AcDbArc
 50
199.7823958612
 51
246.8831303371
  0
LINE
  5
491
330
1F
100
AcDbEntity
  8
0
  6
SLD-Solid
 62
     7
370
    15
100
AcDbLine
 10
952.6272322895
 20
633.1640469844
 30
0.0
 11
952.6272322895
 21
632.3640408928
 31
0.0
  0
LINE
  5
492
330
1F
100
AcDbEntity
  8
0
  6
SLD-Solid
 62
     7
370
    15
100
AcDbLine
 10
953.497942994
 20
633.2347529943
 30
0.0
 11
952.697942956
 21
633.2347529943
 31
0.0
  0
ARC
  5
493
330
1F
100
AcDbEntity
  8
0
  6
SLD-Solid
 62
     7
370
    15
100
AcDbCircle
 10
961.5105908266
 20
643.8279048159
 30
0.0
 40
13.77960913845678
100
AcDbArc
 50
223.0921048195
 51
230.2422748061
  0
ARC
  5
494
330
1F
100
AcDbEntity
  8
0
  6
SLD-Solid
 62
     7
370
    15
100
AcDbCircle
 10
508.358945158
 20
1153.843674321
 30
0.0
 40
3.223510343690872
100
AcDbArc
 50
8.390261996
 51
51.4313890186
  0
LINE
  5
495
330
1F
100
AcDbEntity
  8
0
  6
SLD-Solid
 62
     7
370
    15
100
AcDbLine
 10
952.6272322895
 20
1156.3640150244
 30
0.0
 11
524.390967554
 21
1156.3640150244
 31
0.0
  0
LINE
  5
496
330
1F
100
AcDbEntity
  8
0
  6
SLD-Solid
 62
     7
370
    15
100
AcDbLine
 10
522.6049143734
 20
1156.3640150244
 30
0.0
 11
510.3686470451
 21
1156.3640150244
 31
0.0
  0
ARC
  5
497
330
1F
100
AcDbEntity
  8
0
  6
SLD-Solid
 62
     7
370
    15
100
AcDbCircle
 10
954.6901708179
 20
1153.8130772316
 30
0.0
 40
3.280700991386327
100
AcDbArc
 50
128.962402031
 51
171.2167096991
  0
ARC
  5
498
330
1F
100
AcDbEntity
  8
0
  6
SLD-Solid
 62
     7
370
    15
100
AcDbCircle
 10
509.5558614361
 20
1153.6159509441
 30
0.0
 40
2.110865598382603
100
AcDbArc
 50
19.3117938757
 51
67.3532494539
  0
LINE
  5
499
330
1F
100
AcDbEntity
  8
0
  6
SLD-Solid
 62
     7
370
    15
100
AcDbLine
 10
510.3686470451
 20
1155.5640610869
 30
0.0
 11
510.3686470451
 21
1156.3640150244
 31
0.0
  0
LINE
  5
49A
330
1F
100
AcDbEntity
  8
0
  6
SLD-Solid
 62
     7
370
    15
100
AcDbLine
 10
509.4979423942
 20
1155.4933103735
 30
0.0
 11
510.2979559364
 21
1155.4933103735
 31
0.0
  0
ARC
  5
49B
330
1F
100
AcDbEntity
  8
0
  6
SLD-Solid
 62
     7
370
    15
100
AcDbCircle
 10
508.6497145333
 20
1152.494105108
 30
0.0
 40
3.422269999237857
100
AcDbArc
 50
32.1264463648
 51
61.2085920858
  0
LWPOLYLINE
  5
49C
330
1F
100
AcDbEntity
  8
0
  6
SLD-Solid
 62
     7
370
    15
100
AcDbPolyline
 90
        2
 70
   128
 43
0.0
 10
951.4479427511
 20
1154.3140324766
 10
951.4479427511
 20
1154.3140324766
  0
LINE
  5
49D
330
1F
100
AcDbEntity
  8
0
  6
SLD-Solid
 62
     7
370
    15
100
AcDbLine
 10
952.6272322895
 20
1155.5640610869
 30
0.0
 11
952.6272322895
 21
1156.3640150244
 31
0.0
  0
ARC
  5
49E
330
1F
100
AcDbEntity
  8
0
  6
SLD-Solid
 62
     7
370
    15
100
AcDbCircle
 10
953.5292941932
 20
1153.5317557331
 30
0.0
 40
2.223506404117706
100
AcDbArc
 50
113.9345873169
 51
159.4012501941
  0
ARC
  5
49F
330
1F
100
AcDbEntity
  8
0
  6
SLD-Solid
 62
     7
370
    15
100
AcDbCircle
 10
960.7312519499
 20
1145.7261160981
 30
0.0
 40
12.64642785157884
100
AcDbArc
 50
129.4365678936
 51
137.2283297312
  0
LINE
  5
4A0
330
1F
100
AcDbEntity
  8
0
  6
SLD-Solid
 62
     7
370
    15
100
AcDbLine
 10
953.497942994
 20
1155.4933103735
 30
0.0
 11
952.697942956
 21
1155.4933103735
 31
0.0
  0
LINE
  5
4A1
330
1F
100
AcDbEntity
  8
0
  6
SLD-Solid
 62
     7
370
    15
100
AcDbLine
 10
953.497942994
 20
707.8640374357
 30
0.0
 11
954.747942966
 21
707.8640374357
 31
0.0
  0
LINE
  5
4A2
330
1F
100
AcDbEntity
  8
0
  6
SLD-Solid
 62
     7
370
    15
100
AcDbLine
 10
954.747942966
 20
1154.3140324766
 30
0.0
 11
953.497942994
 21
1154.3140324766
 31
0.0
  0
LINE
  5
4A3
330
1F
100
AcDbEntity
  8
0
  6
SLD-Solid
 62
     7
370
    15
100
AcDbLine
 10
961.4979429083
 20
707.8640374357
 30
0.0
 11
954.747942966
 21
707.8640374357
 31
0.0
  0
LINE
  5
4A4
330
1F
100
AcDbEntity
  8
0
  6
SLD-Solid
 62
     7
370
    15
100
AcDbLine
 10
954.747942966
 20
1154.3140324766
 30
0.0
 11
961.4979429083
 21
1154.3140324766
 31
0.0
  0
LINE
  5
4A5
330
1F
100
AcDbEntity
  8
0
  6
SLD-Solid
 62
     7
370
    15
100
AcDbLine
 10
515.4979545536
 20
629.864043277
 30
0.0
 11
515.4979545536
 21
627.3640456612
 31
0.0
  0
LINE
  5
4A6
330
1F
100
AcDbEntity
  8
0
  6
SLD-Solid
 62
     7
370
    15
100
AcDbLine
 10
515.4979545536
 20
627.3640456612
 30
0.0
 11
528.663935131
 21
627.3640456612
 31
0.0
  0
LINE
  5
4A7
330
1F
100
AcDbEntity
  8
0
  6
SLD-Solid
 62
     7
370
    15
100
AcDbLine
 10
515.4979545536
 20
629.864043277
 30
0.0
 11
528.663935131
 21
629.864043277
 31
0.0
  0
LINE
  5
4A8
330
1F
100
AcDbEntity
  8
0
  6
SLD-Solid
 62
     7
370
    15
100
AcDbLine
 10
575.4979569377
 20
629.864043277
 30
0.0
 11
575.4979569377
 21
627.3640456612
 31
0.0
  0
LINE
  5
4A9
330
1F
100
AcDbEntity
  8
0
  6
SLD-Solid
 62
     7
370
    15
100
AcDbLine
 10
528.663935131
 20
627.3640456612
 30
0.0
 11
575.4979569377
 21
627.3640456612
 31
0.0
  0
LINE
  5
4AA
330
1F
100
AcDbEntity
  8
0
  6
SLD-Solid
 62
     7
370
    15
100
AcDbLine
 10
528.663935131
 20
629.864043277
 30
0.0
 11
575.4979569377
 21
629.864043277
 31
0.0
  0
LINE
  5
4AB
330
1F
100
AcDbEntity
  8
0
  6
SLD-Solid
 62
     7
370
    15
100
AcDbLine
 10
575.4979569377
 20
629.864043277
 30
0.0
 11
575.4979569377
 21
632.3640408928
 31
0.0
  0
LINE
  5
4AC
330
1F
100
AcDbEntity
  8
0
  6
SLD-Solid
 62
     7
370
    15
100
AcDbLine
 10
1399.4979280891
 20
629.864043277
 30
0.0
 11
1399.4979280891
 21
627.3640456612
 31
0.0
  0
LINE
  5
4AD
330
1F
100
AcDbEntity
  8
0
  6
SLD-Solid
 62
     7
370
    15
100
AcDbLine
 10
1386.3319475116
 20
627.3640456612
 30
0.0
 11
1399.4979280891
 21
627.3640456612
 31
0.0
  0
LINE
  5
4AE
330
1F
100
AcDbEntity
  8
0
  6
SLD-Solid
 62
     7
370
    15
100
AcDbLine
 10
1341.2691969337
 20
629.864043277
 30
0.0
 11
1386.3319475116
 21
629.864043277
 31
0.0
  0
LINE
  5
4AF
330
1F
100
AcDbEntity
  8
0
  6
SLD-Solid
 62
     7
370
    15
100
AcDbLine
 10
1341.2691969337
 20
627.3640456612
 30
0.0
 11
1386.3319475116
 21
627.3640456612
 31
0.0
  0
LINE
  5
4B0
330
1F
100
AcDbEntity
  8
0
  6
SLD-Solid
 62
     7
370
    15
100
AcDbLine
 10
1339.4979555072
 20
629.864043277
 30
0.0
 11
1339.4979555072
 21
627.3640456612
 31
0.0
  0
LINE
  5
4B1
330
1F
100
AcDbEntity
  8
0
  6
SLD-Solid
 62
     7
370
    15
100
AcDbLine
 10
1339.4979555072
 20
629.864043277
 30
0.0
 11
1341.2691969337
 21
629.864043277
 31
0.0
  0
LINE
  5
4B2
330
1F
100
AcDbEntity
  8
0
  6
SLD-Solid
 62
     7
370
    15
100
AcDbLine
 10
1339.4979555072
 20
627.3640456612
 30
0.0
 11
1341.2691969337
 21
627.3640456612
 31
0.0
  0
LINE
  5
4B3
330
1F
100
AcDbEntity
  8
0
  6
SLD-Solid
 62
     7
370
    15
100
AcDbLine
 10
1339.4979555072
 20
632.3640408928
 30
0.0
 11
1339.4979555072
 21
629.864043277
 31
0.0
  0
LINE
  5
4B4
330
1F
100
AcDbEntity
  8
0
  6
SLD-Solid
 62
     7
370
    15
100
AcDbLine
 10
515.4979545536
 20
1162.1640237982
 30
0.0
 11
515.4979545536
 21
1159.6640261824
 31
0.0
  0
LINE
  5
4B5
330
1F
100
AcDbEntity
  8
0
  6
SLD-Solid
 62
     7
370
    15
100
AcDbLine
 10
515.4979545536
 20
1162.1640237982
 30
0.0
 11
528.663935131
 21
1162.1640237982
 31
0.0
  0
LINE
  5
4B6
330
1F
100
AcDbEntity
  8
0
  6
SLD-Solid
 62
     7
370
    15
100
AcDbLine
 10
515.4979545536
 20
1159.6640261824
 30
0.0
 11
528.663935131
 21
1159.6640261824
 31
0.0
  0
LINE
  5
4B7
330
1F
100
AcDbEntity
  8
0
  6
SLD-Solid
 62
     7
370
    15
100
AcDbLine
 10
528.663935131
 20
1162.1640237982
 30
0.0
 11
573.726685709
 21
1162.1640237982
 31
0.0
  0
LINE
  5
4B8
330
1F
100
AcDbEntity
  8
0
  6
SLD-Solid
 62
     7
370
    15
100
AcDbLine
 10
528.663935131
 20
1159.6640261824
 30
0.0
 11
573.726685709
 21
1159.6640261824
 31
0.0
  0
LINE
  5
4B9
330
1F
100
AcDbEntity
  8
0
  6
SLD-Solid
 62
     7
370
    15
100
AcDbLine
 10
575.4979569377
 20
1162.1640237982
 30
0.0
 11
575.4979569377
 21
1159.6640261824
 31
0.0
  0
LINE
  5
4BA
330
1F
100
AcDbEntity
  8
0
  6
SLD-Solid
 62
     7
370
    15
100
AcDbLine
 10
573.726685709
 20
1162.1640237982
 30
0.0
 11
575.4979569377
 21
1162.1640237982
 31
0.0
  0
LINE
  5
4BB
330
1F
100
AcDbEntity
  8
0
  6
SLD-Solid
 62
     7
370
    15
100
AcDbLine
 10
573.726685709
 20
1159.6640261824
 30
0.0
 11
575.4979569377
 21
1159.6640261824
 31
0.0
  0
LINE
  5
4BC
330
1F
100
AcDbEntity
  8
0
  6
SLD-Solid
 62
     7
370
    15
100
AcDbLine
 10
575.4979569377
 20
1162.1640237982
 30
0.0
 11
575.4979569377
 21
1165.164044779
 31
0.0
  0
LINE
  5
4BD
330
1F
100
AcDbEntity
  8
0
  6
SLD-Solid
 62
     7
370
    15
100
AcDbLine
 10
515.4979545536
 20
1165.164044779
 30
0.0
 11
515.4979545536
 21
1162.1640237982
 31
0.0
  0
LINE
  5
4BE
330
1F
100
AcDbEntity
  8
0
  6
SLD-Solid
 62
     7
370
    15
100
AcDbLine
 10
522.6979572238
 20
1170.2140483076
 30
0.0
 11
522.6979572238
 21
1170.5501588995
 31
0.0
  0
ARC
  5
4BF
330
1F
100
AcDbEntity
  8
0
  6
SLD-Solid
 62
     7
370
    15
100
AcDbCircle
 10
525.4979429114
 20
1170.2140439474
 30
0.0
 40
2.800000000000182
100
AcDbArc
 50
180.0
 51
0.0
  0
LINE
  5
4C0
330
1F
100
AcDbEntity
  8
0
  6
SLD-Solid
 62
     7
370
    15
100
AcDbLine
 10
528.2979328098
 20
1170.5501588995
 30
0.0
 11
528.2979328098
 21
1170.2140483076
 31
0.0
  0
LINE
  5
4C1
330
1F
100
AcDbEntity
  8
0
  6
SLD-Solid
 62
     7
370
    15
100
AcDbLine
 10
562.6979488792
 20
1170.2140483076
 30
0.0
 11
562.6979488792
 21
1170.5501588995
 31
0.0
  0
ARC
  5
4C2
330
1F
100
AcDbEntity
  8
0
  6
SLD-Solid
 62
     7
370
    15
100
AcDbCircle
 10
565.4979429114
 20
1170.2140439474
 30
0.0
 40
2.800000000000068
100
AcDbArc
 50
180.0
 51
0.0
  0
LINE
  5
4C3
330
1F
100
AcDbEntity
  8
0
  6
SLD-Solid
 62
     7
370
    15
100
AcDbLine
 10
568.2979542675
 20
1170.5501588995
 30
0.0
 11
568.2979542675
 21
1170.2140483076
 31
0.0
  0
LINE
  5
4C4
330
1F
100
AcDbEntity
  8
0
  6
SLD-Solid
 62
     7
370
    15
100
AcDbLine
 10
542.6979381504
 20
1170.2140483076
 30
0.0
 11
542.6979381504
 21
1170.5501588995
 31
0.0
  0
ARC
  5
4C5
330
1F
100
AcDbEntity
  8
0
  6
SLD-Solid
 62
     7
370
    15
100
AcDbCircle
 10
545.4979429114
 20
1170.2140439474
 30
0.0
 40
2.800000000000182
100
AcDbArc
 50
180.0
 51
0.0
  0
LINE
  5
4C6
330
1F
100
AcDbEntity
  8
0
  6
SLD-Solid
 62
     7
370
    15
100
AcDbLine
 10
548.2979435386
 20
1170.5501588995
 30
0.0
 11
548.2979435386
 21
1170.2140483076
 31
0.0
  0
LINE
  5
4C7
330
1F
100
AcDbEntity
  8
0
  6
SLD-Solid
 62
     7
370
    15
100
AcDbLine
 10
575.4979569377
 20
1170.5501588995
 30
0.0
 11
575.4979569377
 21
1165.164044779
 31
0.0
  0
LINE
  5
4C8
330
1F
100
AcDbEntity
  8
0
  6
SLD-Solid
 62
     7
370
    15
100
AcDbLine
 10
515.4979545536
 20
1165.164044779
 30
0.0
 11
515.4979545536
 21
1170.5501588995
 31
0.0
  0
LINE
  5
4C9
330
1F
100
AcDbEntity
  8
0
  6
SLD-Solid
 62
     7
370
    15
100
AcDbLine
 10
1395.3979331913
 20
1162.6640471632
 30
0.0
 11
1387.5979501667
 21
1162.6640471632
 31
0.0
  0
LINE
  5
4CA
330
1F
100
AcDbEntity
  8
0
  6
SLD-Solid
 62
     7
370
    15
100
AcDbLine
 10
519.5979494514
 20
626.8640446479
 30
0.0
 11
527.397932476
 21
626.8640446479
 31
0.0
  0
LINE
  5
4CB
330
1F
100
AcDbEntity
  8
0
  6
SLD-Solid
 62
     7
370
    15
100
AcDbLine
 10
527.397932476
 20
1162.6640471632
 30
0.0
 11
519.5979494514
 21
1162.6640471632
 31
0.0
  0
LINE
  5
4CC
330
1F
100
AcDbEntity
  8
0
  6
SLD-Solid
 62
     7
370
    15
100
AcDbLine
 10
1387.5979501667
 20
626.8640446479
 30
0.0
 11
1395.3979331913
 21
626.8640446479
 31
0.0
  0
LINE
  5
4CD
330
1F
100
AcDbEntity
  8
0
  6
SLD-Solid
 62
     7
370
    15
100
AcDbLine
 10
1386.3319475116
 20
1162.1640237982
 30
0.0
 11
1399.4979280891
 21
1162.1640237982
 31
0.0
  0
LINE
  5
4CE
330
1F
100
AcDbEntity
  8
0
  6
SLD-Solid
 62
     7
370
    15
100
AcDbLine
 10
1399.4979280891
 20
1162.1640237982
 30
0.0
 11
1399.4979280891
 21
1159.6640261824
 31
0.0
  0
LINE
  5
4CF
330
1F
100
AcDbEntity
  8
0
  6
SLD-Solid
 62
     7
370
    15
100
AcDbLine
 10
1386.3319475116
 20
1159.6640261824
 30
0.0
 11
1399.4979280891
 21
1159.6640261824
 31
0.0
  0
LINE
  5
4D0
330
1F
100
AcDbEntity
  8
0
  6
SLD-Solid
 62
     7
370
    15
100
AcDbLine
 10
1341.2691969337
 20
1162.1640237982
 30
0.0
 11
1386.3319475116
 21
1162.1640237982
 31
0.0
  0
LINE
  5
4D1
330
1F
100
AcDbEntity
  8
0
  6
SLD-Solid
 62
     7
370
    15
100
AcDbLine
 10
1341.2691969337
 20
1159.6640261824
 30
0.0
 11
1386.3319475116
 21
1159.6640261824
 31
0.0
  0
LINE
  5
4D2
330
1F
100
AcDbEntity
  8
0
  6
SLD-Solid
 62
     7
370
    15
100
AcDbLine
 10
1339.4979555072
 20
1162.1640237982
 30
0.0
 11
1339.4979555072
 21
1159.6640261824
 31
0.0
  0
LINE
  5
4D3
330
1F
100
AcDbEntity
  8
0
  6
SLD-Solid
 62
     7
370
    15
100
AcDbLine
 10
1339.4979555072
 20
1162.1640237982
 30
0.0
 11
1341.2691969337
 21
1162.1640237982
 31
0.0
  0
LINE
  5
4D4
330
1F
100
AcDbEntity
  8
0
  6
SLD-Solid
 62
     7
370
    15
100
AcDbLine
 10
1339.4979555072
 20
1159.6640261824
 30
0.0
 11
1341.2691969337
 21
1159.6640261824
 31
0.0
  0
LINE
  5
4D5
330
1F
100
AcDbEntity
  8
0
  6
SLD-Solid
 62
     7
370
    15
100
AcDbLine
 10
1339.4979555072
 20
1165.164044779
 30
0.0
 11
1339.4979555072
 21
1162.1640237982
 31
0.0
  0
LINE
  5
4D6
330
1F
100
AcDbEntity
  8
0
  6
SLD-Solid
 62
     7
370
    15
100
AcDbLine
 10
1399.4979280891
 20
1162.1640237982
 30
0.0
 11
1399.4979280891
 21
1165.164044779
 31
0.0
  0
LINE
  5
4D7
330
1F
100
AcDbEntity
  8
0
  6
SLD-Solid
 62
     7
370
    15
100
AcDbLine
 10
1399.4979280891
 20
1170.5501588995
 30
0.0
 11
1399.4979280891
 21
1165.164044779
 31
0.0
  0
LINE
  5
4D8
330
1F
100
AcDbEntity
  8
0
  6
SLD-Solid
 62
     7
370
    15
100
AcDbLine
 10
1339.4979555072
 20
1165.164044779
 30
0.0
 11
1339.4979555072
 21
1170.5501588995
 31
0.0
  0
LINE
  5
4D9
330
1F
100
AcDbEntity
  8
0
  6
SLD-Solid
 62
     7
370
    15
100
AcDbLine
 10
1346.6979283752
 20
1170.2140483076
 30
0.0
 11
1346.6979283752
 21
1170.5501588995
 31
0.0
  0
ARC
  5
4DA
330
1F
100
AcDbEntity
  8
0
  6
SLD-Solid
 62
     7
370
    15
100
AcDbCircle
 10
1349.4979429145
 20
1170.214043948
 30
0.0
 40
2.799999999999955
100
AcDbArc
 50
180.0
 51
0.0
  0
LINE
  5
4DB
330
1F
100
AcDbEntity
  8
0
  6
SLD-Solid
 62
     7
370
    15
100
AcDbLine
 10
1352.2979337635
 20
1170.5501588995
 30
0.0
 11
1352.2979337635
 21
1170.2140483076
 31
0.0
  0
LINE
  5
4DC
330
1F
100
AcDbEntity
  8
0
  6
SLD-Solid
 62
     7
370
    15
100
AcDbLine
 10
1386.6979498329
 20
1170.2140483076
 30
0.0
 11
1386.6979498329
 21
1170.5501588995
 31
0.0
  0
ARC
  5
4DD
330
1F
100
AcDbEntity
  8
0
  6
SLD-Solid
 62
     7
370
    15
100
AcDbCircle
 10
1389.4979429145
 20
1170.214043948
 30
0.0
 40
2.800000000000182
100
AcDbArc
 50
180.0
 51
0.0
  0
LINE
  5
4DE
330
1F
100
AcDbEntity
  8
0
  6
SLD-Solid
 62
     7
370
    15
100
AcDbLine
 10
1366.697939104
 20
1170.2140483076
 30
0.0
 11
1366.697939104
 21
1170.5501588995
 31
0.0
  0
ARC
  5
4DF
330
1F
100
AcDbEntity
  8
0
  6
SLD-Solid
 62
     7
370
    15
100
AcDbCircle
 10
1369.4979429145
 20
1170.214043948
 30
0.0
 40
2.800000000000182
100
AcDbArc
 50
180.0
 51
0.0
  0
LINE
  5
4E0
330
1F
100
AcDbEntity
  8
0
  6
SLD-Solid
 62
     7
370
    15
100
AcDbLine
 10
1372.2979444923
 20
1170.5501588995
 30
0.0
 11
1372.2979444923
 21
1170.2140483076
 31
0.0
  0
LINE
  5
4E1
330
1F
100
AcDbEntity
  8
0
  6
SLD-Solid
 62
     7
370
    15
100
AcDbLine
 10
1392.2979552211
 20
1170.5501588995
 30
0.0
 11
1392.2979552211
 21
1170.2140483076
 31
0.0
  0
LINE
  5
4E2
330
1F
100
AcDbEntity
  8
0
  6
SLD-Solid
 62
     7
370
    15
100
AcDbLine
 10
507.4979383411
 20
628.6140444691
 30
0.0
 11
507.4979383411
 21
1170.5501588995
 31
0.0
  0
LINE
  5
4E3
330
1F
100
AcDbEntity
  8
0
  6
SLD-Solid
 62
     7
370
    15
100
AcDbLine
 10
507.4979383411
 20
1292.837849539
 30
0.0
 11
507.4979383411
 21
1293.6727317984
 31
0.0
  0
ARC
  5
4E4
330
1F
100
AcDbEntity
  8
0
  6
SLD-Solid
 62
     7
370
    15
100
AcDbCircle
 10
510.3226140293
 20
631.152836346
 30
0.0
 40
3.797927979530025
100
AcDbArc
 50
221.9489048616
 51
258.2307900147
  0
LINE
  5
4E5
330
1F
100
AcDbEntity
  8
0
  6
SLD-Solid
 62
     7
370
    15
100
AcDbLine
 10
576.2979406776
 20
1156.3640150244
 30
0.0
 11
576.2979406776
 21
1170.5501588995
 31
0.0
  0
LINE
  5
4E6
330
1F
100
AcDbEntity
  8
0
  6
SLD-Solid
 62
     7
370
    15
100
AcDbLine
 10
576.2979406776
 20
627.434751671
 30
0.0
 11
576.2979406776
 21
632.3640408928
 31
0.0
  0
LINE
  5
4E7
330
1F
100
AcDbEntity
  8
0
  6
SLD-Solid
 62
     7
370
    15
100
AcDbLine
 10
509.5479506912
 20
627.434751671
 30
0.0
 11
515.4979545536
 21
627.434751671
 31
0.0
  0
LINE
  5
4E8
330
1F
100
AcDbEntity
  8
0
  6
SLD-Solid
 62
     7
370
    15
100
AcDbLine
 10
575.4979569377
 20
627.434751671
 30
0.0
 11
576.2979406776
 21
627.434751671
 31
0.0
  0
LINE
  5
4E9
330
1F
100
AcDbEntity
  8
0
  6
SLD-Solid
 62
     7
370
    15
100
AcDbLine
 10
523.4979409637
 20
626.5640470202
 30
0.0
 11
523.4979409637
 21
626.8640446479
 31
0.0
  0
LINE
  5
4EA
330
1F
100
AcDbEntity
  8
0
  6
SLD-Solid
 62
     7
370
    15
100
AcDbLine
 10
509.5479506912
 20
626.5640470202
 30
0.0
 11
523.4979409637
 21
626.5640470202
 31
0.0
  0
LINE
  5
4EB
330
1F
100
AcDbEntity
  8
0
  6
SLD-Solid
 62
     7
370
    15
100
AcDbLine
 10
509.5479506912
 20
627.3640456612
 30
0.0
 11
509.5479506912
 21
626.5640470202
 31
0.0
  0
LINE
  5
4EC
330
1F
100
AcDbEntity
  8
0
  6
SLD-Solid
 62
     7
370
    15
100
AcDbLine
 10
509.5479506912
 20
627.3640456612
 30
0.0
 11
515.4979545536
 21
627.3640456612
 31
0.0
  0
ARC
  5
4ED
330
1F
100
AcDbEntity
  8
0
  6
SLD-Solid
 62
     7
370
    15
100
AcDbCircle
 10
509.5479276515
 20
628.6140363304
 30
0.0
 40
2.049989310406273
100
AcDbArc
 50
179.9997725305
 51
270.0006439434
  0
ARC
  5
4EE
330
1F
100
AcDbEntity
  8
0
  6
SLD-Solid
 62
     7
370
    15
100
AcDbCircle
 10
509.4696078851
 20
628.409710357
 30
0.0
 40
1.048595370606889
100
AcDbArc
 50
216.5614696078
 51
274.2846828423
  0
ARC
  5
4EF
330
1F
100
AcDbEntity
  8
0
  6
SLD-Solid
 62
     7
370
    15
100
AcDbCircle
 10
1404.9665865903
 20
630.6429498479
 30
0.0
 40
3.244106795209405
100
AcDbArc
 50
278.5327852965
 51
321.2875198271
  0
LINE
  5
4F0
330
1F
100
AcDbEntity
  8
0
  6
SLD-Solid
 62
     7
370
    15
100
AcDbLine
 10
1407.4979443016
 20
1293.6727317984
 30
0.0
 11
1407.4979443016
 21
1292.837849539
 31
0.0
  0
LINE
  5
4F1
330
1F
100
AcDbEntity
  8
0
  6
SLD-Solid
 62
     7
370
    15
100
AcDbLine
 10
1407.4979443016
 20
1170.5501588995
 30
0.0
 11
1407.4979443016
 21
628.6140444691
 31
0.0
  0
LINE
  5
4F2
330
1F
100
AcDbEntity
  8
0
  6
SLD-Solid
 62
     7
370
    15
100
AcDbLine
 10
1338.6979419651
 20
632.3640408928
 30
0.0
 11
1338.6979419651
 21
627.434751671
 31
0.0
  0
LINE
  5
4F3
330
1F
100
AcDbEntity
  8
0
  6
SLD-Solid
 62
     7
370
    15
100
AcDbLine
 10
1338.6979419651
 20
1170.5501588995
 30
0.0
 11
1338.6979419651
 21
1156.3640150244
 31
0.0
  0
LINE
  5
4F4
330
1F
100
AcDbEntity
  8
0
  6
SLD-Solid
 62
     7
370
    15
100
AcDbLine
 10
1405.4479319515
 20
627.434751671
 30
0.0
 11
1399.4979280891
 21
627.434751671
 31
0.0
  0
LINE
  5
4F5
330
1F
100
AcDbEntity
  8
0
  6
SLD-Solid
 62
     7
370
    15
100
AcDbLine
 10
1339.4979555072
 20
627.434751671
 30
0.0
 11
1338.6979419651
 21
627.434751671
 31
0.0
  0
ARC
  5
4F6
330
1F
100
AcDbEntity
  8
0
  6
SLD-Solid
 62
     7
370
    15
100
AcDbCircle
 10
1405.5258982068
 20
628.4104247975
 30
0.0
 40
1.049279769130165
100
AcDbArc
 50
265.7387358574
 51
323.9005234867
  0
LINE
  5
4F7
330
1F
100
AcDbEntity
  8
0
  6
SLD-Solid
 62
     7
370
    15
100
AcDbLine
 10
1405.4479319515
 20
626.5640470202
 30
0.0
 11
1405.4479319515
 21
627.3640456612
 31
0.0
  0
ARC
  5
4F8
330
1F
100
AcDbEntity
  8
0
  6
SLD-Solid
 62
     7
370
    15
100
AcDbCircle
 10
1405.4479414223
 20
628.6140498994
 30
0.0
 40
2.05000287928752
100
AcDbArc
 50
269.9997352994
 51
359.9998482266
  0
LINE
  5
4F9
330
1F
100
AcDbEntity
  8
0
  6
SLD-Solid
 62
     7
370
    15
100
AcDbLine
 10
1405.4479319515
 20
626.5640470202
 30
0.0
 11
1391.497941679
 21
626.5640470202
 31
0.0
  0
LINE
  5
4FA
330
1F
100
AcDbEntity
  8
0
  6
SLD-Solid
 62
     7
370
    15
100
AcDbLine
 10
1391.497941679
 20
626.5640470202
 30
0.0
 11
1391.497941679
 21
626.8640446479
 31
0.0
  0
LINE
  5
4FB
330
1F
100
AcDbEntity
  8
0
  6
SLD-Solid
 62
     7
370
    15
100
AcDbLine
 10
1405.4479319515
 20
627.3640456612
 30
0.0
 11
1399.4979280891
 21
627.3640456612
 31
0.0
  0
LINE
  5
4FC
330
1F
100
AcDbEntity
  8
0
  6
SLD-Solid
 62
     7
370
    15
100
AcDbLine
 10
1354.9979347648
 20
1295.5640467817
 30
0.0
 11
1356.1979550781
 21
1295.5640467817
 31
0.0
  0
LINE
  5
4FD
330
1F
100
AcDbEntity
  8
0
  6
SLD-Solid
 62
     7
370
    15
100
AcDbLine
 10
1354.9979347648
 20
1295.5640467817
 30
0.0
 11
1354.9979347648
 21
1298.5926779921
 31
0.0
  0
LINE
  5
4FE
330
1F
100
AcDbEntity
  8
0
  6
SLD-Solid
 62
     7
370
    15
100
AcDbLine
 10
1356.1979550781
 20
1295.5640467817
 30
0.0
 11
1356.1979550781
 21
1298.4838995154
 31
0.0
  0
LINE
  5
4FF
330
1F
100
AcDbEntity
  8
0
  6
SLD-Solid
 62
     7
370
    15
100
AcDbLine
 10
1354.9979347648
 20
1293.564072531
 30
0.0
 11
1354.9979347648
 21
1295.5640467817
 31
0.0
  0
LINE
  5
500
330
1F
100
AcDbEntity
  8
0
  6
SLD-Solid
 62
     7
370
    15
100
AcDbLine
 10
1356.1979550781
 20
1295.5640467817
 30
0.0
 11
1356.1979550781
 21
1293.564072531
 31
0.0
  0
LINE
  5
501
330
1F
100
AcDbEntity
  8
0
  6
SLD-Solid
 62
     7
370
    15
100
AcDbLine
 10
1354.9979347648
 20
1292.837849539
 30
0.0
 11
1354.9979347648
 21
1293.564072531
 31
0.0
  0
LINE
  5
502
330
1F
100
AcDbEntity
  8
0
  6
SLD-Solid
 62
     7
370
    15
100
AcDbLine
 10
1356.1979550781
 20
1292.837849539
 30
0.0
 11
1356.1979550781
 21
1293.564072531
 31
0.0
  0
LINE
  5
503
330
1F
100
AcDbEntity
  8
0
  6
SLD-Solid
 62
     7
370
    15
100
AcDbLine
 10
561.1979383888
 20
1292.837849539
 30
0.0
 11
561.1979383888
 21
1298.6026915724
 31
0.0
  0
LINE
  5
504
330
1F
100
AcDbEntity
  8
0
  6
SLD-Solid
 62
     7
370
    15
100
AcDbLine
 10
1353.7979442539
 20
1298.6026915724
 30
0.0
 11
1353.7979442539
 21
1292.837849539
 31
0.0
  0
LINE
  5
505
330
1F
100
AcDbEntity
  8
0
  6
SLD-Solid
 62
     7
370
    15
100
AcDbLine
 10
558.7979573669
 20
1292.837849539
 30
0.0
 11
558.7979573669
 21
1298.4838995154
 31
0.0
  0
LINE
  5
506
330
1F
100
AcDbEntity
  8
0
  6
SLD-Solid
 62
     7
370
    15
100
AcDbLine
 10
559.9979478778
 20
1292.837849539
 30
0.0
 11
559.9979478778
 21
1298.5926779921
 31
0.0
  0
LINE
  5
507
330
1F
100
AcDbEntity
  8
0
  6
SLD-Solid
 62
     7
370
    15
100
AcDbLine
 10
953.497942994
 20
686.8423732931
 30
0.0
 11
961.4979429083
 21
686.8423732931
 31
0.0
  0
ARC
  5
508
330
1F
100
AcDbEntity
  8
0
  6
SLD-Solid
 62
     7
370
    15
100
AcDbCircle
 10
1282.4979429018
 20
1172.1640439478
 30
0.0
 40
4.000000000000017
100
AcDbArc
 50
203.795344752
 51
336.204655248
  0
ARC
  5
509
330
1F
100
AcDbEntity
  8
0
  6
SLD-Solid
 62
     7
370
    15
100
AcDbCircle
 10
632.4979429018
 20
1172.1640439478
 30
0.0
 40
4.000000000000055
100
AcDbArc
 50
203.7953447519
 51
336.2046552481
  0
ARC
  5
50A
330
1F
100
AcDbEntity
  8
0
  6
SLD-Solid
 62
     7
370
    15
100
AcDbCircle
 10
957.4979429018
 20
1172.1640439478
 30
0.0
 40
4.000000000000036
100
AcDbArc
 50
203.7953447519
 51
336.2046552481
  0
LINE
  5
50B
330
1F
100
AcDbEntity
  8
0
  6
SLD-Solid
 62
     7
370
    15
100
AcDbLine
 10
523.4274882736
 20
1170.5501588995
 30
0.0
 11
523.8524991931
 21
1169.8140415365
 31
0.0
  0
ARC
  5
50C
330
1F
100
AcDbEntity
  8
0
  6
SLD-Solid
 62
     7
370
    15
100
AcDbCircle
 10
525.4979429018
 20
1172.6640439478
 30
0.0
 40
4.249999999999845
100
AcDbArc
 50
270.0
 51
308.8206853737
  0
ARC
  5
50D
330
1F
100
AcDbEntity
  8
0
  6
SLD-Solid
 62
     7
370
    15
100
AcDbCircle
 10
525.4979429018
 20
1172.6640439478
 30
0.0
 40
4.249999999999813
100
AcDbArc
 50
231.1793151894
 51
270.0
  0
LINE
  5
50E
330
1F
100
AcDbEntity
  8
0
  6
SLD-Solid
 62
     7
370
    15
100
AcDbLine
 10
527.1433908405
 20
1169.8140415365
 30
0.0
 11
527.5684017601
 21
1170.5501588995
 31
0.0
  0
LINE
  5
50F
330
1F
100
AcDbEntity
  8
0
  6
SLD-Solid
 62
     7
370
    15
100
AcDbLine
 10
523.8524991931
 20
1169.8140415365
 30
0.0
 11
527.1433908405
 21
1169.8140415365
 31
0.0
  0
LWPOLYLINE
  5
510
330
1F
100
AcDbEntity
  8
0
  6
SLD-Solid
 62
     7
370
    15
100
AcDbPolyline
 90
        3
 70
   128
 43
0.0
 10
525.4979450168
 20
1170.1390656645
 10
526.4642257156
 20
1170.3312310393
 10
526.8789250316
 20
1170.5501588995
  0
LWPOLYLINE
  5
511
330
1F
100
AcDbEntity
  8
0
  6
SLD-Solid
 62
     7
370
    15
100
AcDbPolyline
 90
        3
 70
   128
 43
0.0
 10
524.116965002
 20
1170.5501588995
 10
524.531664318
 20
1170.3312310393
 10
525.4979450168
 20
1170.1390656645
  0
LINE
  5
512
330
1F
100
AcDbEntity
  8
0
  6
SLD-Solid
 62
     7
370
    15
100
AcDbLine
 10
563.4275097312
 20
1170.5501588995
 30
0.0
 11
563.8524908485
 21
1169.8140415365
 31
0.0
  0
LINE
  5
513
330
1F
100
AcDbEntity
  8
0
  6
SLD-Solid
 62
     7
370
    15
100
AcDbLine
 10
563.8524908485
 20
1169.8140415365
 30
0.0
 11
567.1433824958
 21
1169.8140415365
 31
0.0
  0
ARC
  5
514
330
1F
100
AcDbEntity
  8
0
  6
SLD-Solid
 62
     7
370
    15
100
AcDbCircle
 10
565.4979429018
 20
1172.6640439478
 30
0.0
 40
4.25000000000006
100
AcDbArc
 50
270.0
 51
308.820692779
  0
ARC
  5
515
330
1F
100
AcDbEntity
  8
0
  6
SLD-Solid
 62
     7
370
    15
100
AcDbCircle
 10
565.4979429018
 20
1172.6640439478
 30
0.0
 40
4.250000000000028
100
AcDbArc
 50
231.1793075918
 51
270.0
  0
LINE
  5
516
330
1F
100
AcDbEntity
  8
0
  6
SLD-Solid
 62
     7
370
    15
100
AcDbLine
 10
567.1433824958
 20
1169.8140415365
 30
0.0
 11
567.5683934154
 21
1170.5501588995
 31
0.0
  0
LWPOLYLINE
  5
517
330
1F
100
AcDbEntity
  8
0
  6
SLD-Solid
 62
     7
370
    15
100
AcDbPolyline
 90
        3
 70
   128
 43
0.0
 10
565.4979366722
 20
1170.1390656645
 10
566.4642173709
 20
1170.3312310393
 10
566.878916687
 20
1170.5501588995
  0
LWPOLYLINE
  5
518
330
1F
100
AcDbEntity
  8
0
  6
SLD-Solid
 62
     7
370
    15
100
AcDbPolyline
 90
        3
 70
   128
 43
0.0
 10
564.1169566574
 20
1170.5501588995
 10
564.5316559734
 20
1170.3312310393
 10
565.4979366722
 20
1170.1390656645
  0
LINE
  5
519
330
1F
100
AcDbEntity
  8
0
  6
SLD-Solid
 62
     7
370
    15
100
AcDbLine
 10
1391.1433834495
 20
1169.8140415365
 30
0.0
 11
1391.5683943691
 21
1170.5501588995
 31
0.0
  0
ARC
  5
51A
330
1F
100
AcDbEntity
  8
0
  6
SLD-Solid
 62
     7
370
    15
100
AcDbCircle
 10
1389.4979429018
 20
1172.6640439478
 30
0.0
 40
4.250000000000118
100
AcDbArc
 50
270.0
 51
308.8206837609
  0
ARC
  5
51B
330
1F
100
AcDbEntity
  8
0
  6
SLD-Solid
 62
     7
370
    15
100
AcDbCircle
 10
1389.4979429018
 20
1172.6640439478
 30
0.0
 40
4.25
100
AcDbArc
 50
231.1793166798
 51
270.0
  0
LINE
  5
51C
330
1F
100
AcDbEntity
  8
0
  6
SLD-Solid
 62
     7
370
    15
100
AcDbLine
 10
1387.4275106849
 20
1170.5501588995
 30
0.0
 11
1387.8524918022
 21
1169.8140415365
 31
0.0
  0
LINE
  5
51D
330
1F
100
AcDbEntity
  8
0
  6
SLD-Solid
 62
     7
370
    15
100
AcDbLine
 10
1387.8524918022
 20
1169.8140415365
 30
0.0
 11
1391.1433834495
 21
1169.8140415365
 31
0.0
  0
LWPOLYLINE
  5
51E
330
1F
100
AcDbEntity
  8
0
  6
SLD-Solid
 62
     7
370
    15
100
AcDbPolyline
 90
        3
 70
   128
 43
0.0
 10
1389.4979376258
 20
1170.1390656645
 10
1390.4642183246
 20
1170.3312310393
 10
1390.8789176406
 20
1170.5501588995
  0
LWPOLYLINE
  5
51F
330
1F
100
AcDbEntity
  8
0
  6
SLD-Solid
 62
     7
370
    15
100
AcDbPolyline
 90
        3
 70
   128
 43
0.0
 10
1388.116957611
 20
1170.5501588995
 10
1388.5316569271
 20
1170.3312310393
 10
1389.4979376258
 20
1170.1390656645
  0
LINE
  5
520
330
1F
100
AcDbEntity
  8
0
  6
SLD-Solid
 62
     7
370
    15
100
AcDbLine
 10
1351.1433917942
 20
1169.8140415365
 30
0.0
 11
1351.5684027137
 21
1170.5501588995
 31
0.0
  0
LINE
  5
521
330
1F
100
AcDbEntity
  8
0
  6
SLD-Solid
 62
     7
370
    15
100
AcDbLine
 10
1347.4274892272
 20
1170.5501588995
 30
0.0
 11
1347.8525001468
 21
1169.8140415365
 31
0.0
  0
LINE
  5
522
330
1F
100
AcDbEntity
  8
0
  6
SLD-Solid
 62
     7
370
    15
100
AcDbLine
 10
1347.8525001468
 20
1169.8140415365
 30
0.0
 11
1351.1433917942
 21
1169.8140415365
 31
0.0
  0
ARC
  5
523
330
1F
100
AcDbEntity
  8
0
  6
SLD-Solid
 62
     7
370
    15
100
AcDbCircle
 10
1349.4979429018
 20
1172.6640439478
 30
0.0
 40
4.250000000000039
100
AcDbArc
 50
270.0
 51
308.8206945869
  0
ARC
  5
524
330
1F
100
AcDbEntity
  8
0
  6
SLD-Solid
 62
     7
370
    15
100
AcDbCircle
 10
1349.4979429018
 20
1172.6640439478
 30
0.0
 40
4.250000000000044
100
AcDbArc
 50
231.1793061285
 51
270.0
  0
LWPOLYLINE
  5
525
330
1F
100
AcDbEntity
  8
0
  6
SLD-Solid
 62
     7
370
    15
100
AcDbPolyline
 90
        3
 70
   128
 43
0.0
 10
1349.4979459705
 20
1170.1390656645
 10
1350.4642266693
 20
1170.3312310393
 10
1350.8789259853
 20
1170.5501588995
  0
LWPOLYLINE
  5
526
330
1F
100
AcDbEntity
  8
0
  6
SLD-Solid
 62
     7
370
    15
100
AcDbPolyline
 90
        3
 70
   128
 43
0.0
 10
1348.1169659557
 20
1170.5501588995
 10
1348.5316652717
 20
1170.3312310393
 10
1349.4979459705
 20
1170.1390656645
  0
LINE
  5
527
330
1F
100
AcDbEntity
  8
0
  6
SLD-Solid
 62
     7
370
    15
100
AcDbLine
 10
1339.4979555072
 20
627.3640456612
 30
0.0
 11
575.4979569377
 21
627.3640456612
 31
0.0
  0
LINE
  5
528
330
1F
100
AcDbEntity
  8
0
  6
SLD-Center
 62
     7
370
     0
100
AcDbLine
 10
583.5479429018
 20
625.5520536786
 30
0.0
 11
583.5479429018
 21
457.3144160636
 31
0.0
  0
LINE
  5
529
330
1F
100
AcDbEntity
  8
0
  6
SLD-Center
 62
     7
370
     0
100
AcDbLine
 10
1331.5479429018
 20
621.5179292526
 30
0.0
 11
1331.5479429018
 21
458.0798316729
 31
0.0
  0
ENDSEC
  0
SECTION
  2
OBJECTS
  0
DICTIONARY
  5
C
330
0
100
AcDbDictionary
281
     1
  3
ACAD_GROUP
350
D
  3
ACAD_LAYOUT
350
1A
  3
ACAD_MLINESTYLE
350
17
  3
ACAD_PLOTSETTINGS
350
19
  3
ACAD_PLOTSTYLENAME
350
E
  0
DICTIONARY
  5
D
102
{ACAD_REACTORS
330
C
102
}
330
C
100
AcDbDictionary
281
     1
  0
DICTIONARY
  5
1A
102
{ACAD_REACTORS
330
C
102
}
330
C
100
AcDbDictionary
281
     1
  3
Layout1
350
1E
  3
Layout2
350
26
  3
Model
350
22
  0
DICTIONARY
  5
17
102
{ACAD_REACTORS
330
C
102
}
330
C
100
AcDbDictionary
281
     1
  3
Standard
350
18
  0
DICTIONARY
  5
19
102
{ACAD_REACTORS
330
C
102
}
330
C
100
AcDbDictionary
281
     1
  0
ACDBDICTIONARYWDFLT
  5
E
102
{ACAD_REACTORS
330
C
102
}
330
C
100
AcDbDictionary
281
     1
  3
Normal
350
F
100
AcDbDictionaryWithDefault
340
F
  0
LAYOUT
  5
1E
102
{ACAD_REACTORS
330
1A
102
}
330
1A
100
AcDbPlotSettings
  1

  2
none_device
  4

  6

 40
0.0
 41
0.0
 42
0.0
 43
0.0
 44
0.0
 45
0.0
 46
0.0
 47
0.0
 48
0.0
 49
0.0
140
0.0
141
0.0
142
1.0
143
1.0
 70
   688
 72
     0
 73
     0
 74
     5
  7

 75
    16
147
1.0
148
0.0
149
0.0
100
AcDbLayout
  1
Layout1
 70
     1
 71
     1
 10
0.0
 20
0.0
 11
420.0
 21
297.0
 12
0.0
 22
0.0
 32
0.0
 14
1.0000000000E+20
 24
1.0000000000E+20
 34
1.0000000000E+20
 15
-1.0000000000E+20
 25
-1.0000000000E+20
 35
-1.0000000000E+20
146
0.0
 13
0.0
 23
0.0
 33
0.0
 16
1.0
 26
0.0
 36
0.0
 17
0.0
 27
1.0
 37
0.0
 76
     0
330
1B
  0
LAYOUT
  5
26
102
{ACAD_REACTORS
330
1A
102
}
330
1A
100
AcDbPlotSettings
  1

  2
none_device
  4

  6

 40
0.0
 41
0.0
 42
0.0
 43
0.0
 44
0.0
 45
0.0
 46
0.0
 47
0.0
 48
0.0
 49
0.0
140
0.0
141
0.0
142
1.0
143
1.0
 70
   688
 72
     0
 73
     0
 74
     5
  7

 75
    16
147
1.0
148
0.0
149
0.0
100
AcDbLayout
  1
Layout2
 70
     1
 71
     2
 10
0.0
 20
0.0
 11
0.0
 21
0.0
 12
0.0
 22
0.0
 32
0.0
 14
0.0
 24
0.0
 34
0.0
 15
0.0
 25
0.0
 35
0.0
146
0.0
 13
0.0
 23
0.0
 33
0.0
 16
1.0
 26
0.0
 36
0.0
 17
0.0
 27
1.0
 37
0.0
 76
     0
330
23
  0
LAYOUT
  5
22
102
{ACAD_REACTORS
330
1A
102
}
330
1A
100
AcDbPlotSettings
  1

  2
none_device
  4

  6

 40
0.0
 41
0.0
 42
0.0
 43
0.0
 44
0.0
 45
0.0
 46
0.0
 47
0.0
 48
0.0
 49
0.0
140
0.0
141
0.0
142
1.0
143
1.0
 70
  1712
 72
     0
 73
     0
 74
     0
  7

 75
     0
147
1.0
148
0.0
149
0.0
100
AcDbLayout
  1
Model
 70
     1
 71
     0
 10
0.0
 20
0.0
 11
2000.0
 21
2000.0
 12
0.0
 22
0.0
 32
0.0
 14
0.0
 24
0.0
 34
0.0
 15
2000.0
 25
2000.0
 35
0.0
146
0.0
 13
0.0
 23
0.0
 33
0.0
 16
1.0
 26
0.0
 36
0.0
 17
0.0
 27
1.0
 37
0.0
 76
     0
330
1F
331
29
  0
MLINESTYLE
  5
18
102
{ACAD_REACTORS
330
17
102
}
330
17
100
AcDbMlineStyle
  2
Standard
 70
     0
  3

 62
   256
 51
90.0
 52
90.0
 71
     2
 49
0.5
 62
   256
  6
BYLAYER
 49
-0.5
 62
   256
  6
BYLAYER
  0
ACDBPLACEHOLDER
  5
F
102
{ACAD_REACTORS
330
E
102
}
330
E
  0
ENDSEC
  0
EOF
