  0
SECTION
  2
HEADER
  9
$ACADVER
  1
AC1015
  9
$ACADMAINTVER
 70
     6
  9
$DWGCODEPAGE
  3
ANSI_1252
  9
$INSBASE
 10
0.0
 20
0.0
 30
0.0
  9
$EXTMIN
 10
0.0
 20
0.0
 30
0.0
  9
$EXTMAX
 10
2000.0
 20
2000.0
 30
0.0
  9
$LIMMIN
 10
0.0
 20
0.0
  9
$LIMMAX
 10
2000.0
 20
2000.0
  9
$ORTHOMODE
 70
     0
  9
$REGENMODE
 70
     1
  9
$FILLMODE
 70
     1
  9
$QTEXTMODE
 70
     0
  9
$MIRRTEXT
 70
     1
  9
$LTSCALE
 40
1.0
  9
$ATTMODE
 70
     1
  9
$TEXTSIZE
 40
3.5
  9
$TRACEWID
 40
1.0
  9
$TEXTSTYLE
  7
Standard
  9
$CLAYER
  8
0
  9
$CELTYPE
  6
ByLayer
  9
$CECOLOR
 62
   256
  9
$CELTSCALE
 40
1.0
  9
$DISPSILH
 70
     0
  9
$DIMSCALE
 40
1.0
  9
$DIMASZ
 40
3.302
  9
$DIMEXO
 40
1.0
  9
$DIMDLI
 40
3.75
  9
$DIMRND
 40
0.0
  9
$DIMDLE
 40
0.0
  9
$DIMEXE
 40
1.0
  9
$DIMTP
 40
0.0
  9
$DIMTM
 40
0.0
  9
$DIMTXT
 40
3.5
  9
$DIMCEN
 40
2.5
  9
$DIMTSZ
 40
0.0
  9
$DIMTOL
 70
     0
  9
$DIMLIM
 70
     0
  9
$DIMTIH
 70
     1
  9
$DIMTOH
 70
     1
  9
$DIMSE1
 70
     0
  9
$DIMSE2
 70
     0
  9
$DIMTAD
 70
     1
  9
$DIMZIN
 70
     0
  9
$DIMBLK
  1

  9
$DIMASO
 70
     1
  9
$DIMSHO
 70
     1
  9
$DIMPOST
  1

  9
$DIMAPOST
  1

  9
$DIMALT
 70
     0
  9
$DIMALTD
 70
     3
  9
$DIMALTF
 40
0.0393700787
  9
$DIMLFAC
 40
1.0
  9
$DIMTOFL
 70
     1
  9
$DIMTVP
 40
0.0
  9
$DIMTIX
 70
     0
  9
$DIMSOXD
 70
     0
  9
$DIMSAH
 70
     0
  9
$DIMBLK1
  1

  9
$DIMBLK2
  1

  9
$DIMSTYLE
  2
ISO-25
  9
$DIMCLRD
 70
     0
  9
$DIMCLRE
 70
     0
  9
$DIMCLRT
 70
     0
  9
$DIMTFAC
 40
1.0
  9
$DIMGAP
 40
1.524
  9
$DIMJUST
 70
     0
  9
$DIMSD1
 70
     0
  9
$DIMSD2
 70
     0
  9
$DIMTOLJ
 70
     0
  9
$DIMTZIN
 70
     0
  9
$DIMALTZ
 70
     0
  9
$DIMALTTZ
 70
     0
  9
$DIMUPT
 70
     0
  9
$DIMDEC
 70
     1
  9
$DIMTDEC
 70
     1
  9
$DIMALTU
 70
     2
  9
$DIMALTTD
 70
     3
  9
$DIMTXSTY
  7
Standard
  9
$DIMAUNIT
 70
     0
  9
$DIMADEC
 70
     1
  9
$DIMALTRND
 40
0.0
  9
$DIMAZIN
 70
     0
  9
$DIMDSEP
 70
    44
  9
$DIMATFIT
 70
     3
  9
$DIMFRAC
 70
     0
  9
$DIMLDRBLK
  1

  9
$DIMLUNIT
 70
     2
  9
$DIMLWD
 70
    -2
  9
$DIMLWE
 70
    -2
  9
$DIMTMOVE
 70
     0
  9
$LUNITS
 70
     2
  9
$LUPREC
 70
     1
  9
$SKETCHINC
 40
1.0
  9
$FILLETRAD
 40
10.0
  9
$AUNITS
 70
     0
  9
$AUPREC
 70
     1
  9
$MENU
  1
.
  9
$ELEVATION
 40
0.0
  9
$PELEVATION
 40
0.0
  9
$THICKNESS
 40
0.0
  9
$LIMCHECK
 70
     0
  9
$CHAMFERA
 40
10.0
  9
$CHAMFERB
 40
10.0
  9
$CHAMFERC
 40
20.0
  9
$CHAMFERD
 40
0.0
  9
$SKPOLY
 70
     0
  9
$TDCREATE
 40
2456049.305114329
  9
$TDUCREATE
 40
2456049.263447662
  9
$TDUPDATE
 40
2456049.305114502
  9
$TDUUPDATE
 40
2456049.263447836
  9
$TDINDWG
 40
0.0000000116
  9
$TDUSRTIMER
 40
0.0000000116
  9
$USRTIMER
 70
     1
  9
$ANGBASE
 50
0.0
  9
$ANGDIR
 70
     0
  9
$PDMODE
 70
     0
  9
$PDSIZE
 40
-1.0
  9
$PLINEWID
 40
0.0
  9
$SPLFRAME
 70
     0
  9
$SPLINETYPE
 70
     6
  9
$SPLINESEGS
 70
     8
  9
$HANDSEED
  5
272
  9
$SURFTAB1
 70
     6
  9
$SURFTAB2
 70
     6
  9
$SURFTYPE
 70
     6
  9
$SURFU
 70
     6
  9
$SURFV
 70
     6
  9
$UCSBASE
  2

  9
$UCSNAME
  2

  9
$UCSORG
 10
0.0
 20
0.0
 30
0.0
  9
$UCSXDIR
 10
1.0
 20
0.0
 30
0.0
  9
$UCSYDIR
 10
0.0
 20
1.0
 30
0.0
  9
$UCSORTHOREF
  2

  9
$UCSORTHOVIEW
 70
     0
  9
$UCSORGTOP
 10
0.0
 20
0.0
 30
0.0
  9
$UCSORGBOTTOM
 10
0.0
 20
0.0
 30
0.0
  9
$UCSORGLEFT
 10
0.0
 20
0.0
 30
0.0
  9
$UCSORGRIGHT
 10
0.0
 20
0.0
 30
0.0
  9
$UCSORGFRONT
 10
0.0
 20
0.0
 30
0.0
  9
$UCSORGBACK
 10
0.0
 20
0.0
 30
0.0
  9
$PUCSBASE
  2

  9
$PUCSNAME
  2

  9
$PUCSORG
 10
0.0
 20
0.0
 30
0.0
  9
$PUCSXDIR
 10
1.0
 20
0.0
 30
0.0
  9
$PUCSYDIR
 10
0.0
 20
1.0
 30
0.0
  9
$PUCSORTHOREF
  2

  9
$PUCSORTHOVIEW
 70
     0
  9
$PUCSORGTOP
 10
0.0
 20
0.0
 30
0.0
  9
$PUCSORGBOTTOM
 10
0.0
 20
0.0
 30
0.0
  9
$PUCSORGLEFT
 10
0.0
 20
0.0
 30
0.0
  9
$PUCSORGRIGHT
 10
0.0
 20
0.0
 30
0.0
  9
$PUCSORGFRONT
 10
0.0
 20
0.0
 30
0.0
  9
$PUCSORGBACK
 10
0.0
 20
0.0
 30
0.0
  9
$USERI1
 70
     0
  9
$USERI2
 70
     0
  9
$USERI3
 70
     0
  9
$USERI4
 70
     0
  9
$USERI5
 70
     0
  9
$USERR1
 40
0.0
  9
$USERR2
 40
0.0
  9
$USERR3
 40
0.0
  9
$USERR4
 40
0.0
  9
$USERR5
 40
0.0
  9
$WORLDVIEW
 70
     1
  9
$SHADEDGE
 70
     3
  9
$SHADEDIF
 70
    70
  9
$TILEMODE
 70
     1
  9
$MAXACTVP
 70
    64
  9
$PINSBASE
 10
0.0
 20
0.0
 30
0.0
  9
$PLIMCHECK
 70
     0
  9
$PEXTMIN
 10
1.0000000000E+20
 20
1.0000000000E+20
 30
1.0000000000E+20
  9
$PEXTMAX
 10
-1.0000000000E+20
 20
-1.0000000000E+20
 30
-1.0000000000E+20
  9
$PLIMMIN
 10
0.0
 20
0.0
  9
$PLIMMAX
 10
420.0
 20
297.0
  9
$UNITMODE
 70
     0
  9
$VISRETAIN
 70
     1
  9
$PLINEGEN
 70
     0
  9
$PSLTSCALE
 70
     1
  9
$TREEDEPTH
 70
  3020
  9
$CMLSTYLE
  2
Standard
  9
$CMLJUST
 70
     0
  9
$CMLSCALE
 40
20.0
  9
$PROXYGRAPHICS
 70
     1
  9
$MEASUREMENT
 70
     1
  9
$CELWEIGHT
370
    -1
  9
$ENDCAPS
280
     0
  9
$JOINSTYLE
280
     0
  9
$LWDISPLAY
290
     1
  9
$INSUNITS
 70
     4
  9
$HYPERLINKBASE
  1

  9
$STYLESHEET
  1

  9
$XEDIT
290
     1
  9
$CEPSNTYPE
380
     0
  9
$PSTYLEMODE
290
     1
  9
$FINGERPRINTGUID
  2
{D2F3BFC5-8E24-4CDA-B876-AB62DB790D2C}
  9
$VERSIONGUID
  2
{FAEB1C32-E019-11D5-929B-00C0DF256EC4}
  9
$EXTNAMES
290
     1
  9
$PSVPSCALE
 40
0.0
  9
$OLESTARTUP
290
     0
  0
ENDSEC
  0
SECTION
  2
CLASSES
  0
CLASS
  1
ACDBDICTIONARYWDFLT
  2
AcDbDictionaryWithDefault
  3
ObjectDBX Classes
 90
        0
280
     0
281
     0
  0
CLASS
  1
VISUALSTYLE
  2
AcDbVisualStyle
  3
ObjectDBX Classes
 90
     4095
280
     0
281
     0
  0
CLASS
  1
MATERIAL
  2
AcDbMaterial
  3
ObjectDBX Classes
 90
     1153
280
     0
281
     0
  0
CLASS
  1
ACDBPLACEHOLDER
  2
AcDbPlaceHolder
  3
ObjectDBX Classes
 90
        0
280
     0
281
     0
  0
CLASS
  1
LAYOUT
  2
AcDbLayout
  3
ObjectDBX Classes
 90
        0
280
     0
281
     0
  0
ENDSEC
  0
SECTION
  2
TABLES
  0
TABLE
  2
VPORT
  5
8
330
0
100
AcDbSymbolTable
 70
     1
  0
VPORT
  5
29
330
8
100
AcDbSymbolTableRecord
100
AcDbViewportTableRecord
  2
*Active
 70
     0
 10
0.0
 20
0.0
 11
1.0
 21
1.0
 12
1000.0
 22
1000.0
 13
0.0
 23
0.0
 14
10.0
 24
10.0
 15
10.0
 25
10.0
 16
0.0
 26
0.0
 36
1.0
 17
0.0
 27
0.0
 37
0.0
 40
2000.0
 41
1.0
 42
50.0
 43
0.0
 44
0.0
 50
0.0
 51
0.0
 71
     0
 72
  2000
 73
     1
 74
     3
 75
     0
 76
     0
 77
     0
 78
     0
281
     0
 65
     1
110
0.0
120
0.0
130
0.0
111
1.0
121
0.0
131
0.0
112
0.0
122
1.0
132
0.0
 79
     0
146
0.0
  0
ENDTAB
  0
TABLE
  2
LTYPE
  5
5
330
0
100
AcDbSymbolTable
 70
     6
  0
LTYPE
  5
14
330
5
100
AcDbSymbolTableRecord
100
AcDbLinetypeTableRecord
  2
ByBlock
 70
     0
  3

 72
    65
 73
     0
 40
0.0
  0
LTYPE
  5
15
330
5
100
AcDbSymbolTableRecord
100
AcDbLinetypeTableRecord
  2
ByLayer
 70
     0
  3

 72
    65
 73
     0
 40
0.0
  0
LTYPE
  5
16
330
5
100
AcDbSymbolTableRecord
100
AcDbLinetypeTableRecord
  2
Continuous
 70
     0
  3
Solid line
 72
    65
 73
     0
 40
0.0
  0
LTYPE
  5
3F
330
5
100
AcDbSymbolTableRecord
100
AcDbLinetypeTableRecord
  2
HIDDEN
 70
     0
  3
Hidden __ __ __ __ __ __ __ __ __ __ __ __ __ __
 72
    65
 73
     2
 40
1.905
 49
1.27
 74
     0
 49
-0.635
 74
     0
  0
LTYPE
  5
40
330
5
100
AcDbSymbolTableRecord
100
AcDbLinetypeTableRecord
  2
PHANTOM
 70
     0
  3
Phantom ______  __  __  ______  __  __  ______
 72
    65
 73
     6
 40
12.7
 49
6.35
 74
     0
 49
-1.27
 74
     0
 49
1.27
 74
     0
 49
-1.27
 74
     0
 49
1.27
 74
     0
 49
-1.27
 74
     0
  0
LTYPE
  5
41
330
5
100
AcDbSymbolTableRecord
100
AcDbLinetypeTableRecord
  2
CENTER
 70
     0
  3
Center ____ _ ____ _ ____ _ ____ _ ____ _ ____
 72
    65
 73
     4
 40
10.16
 49
6.35
 74
     0
 49
-1.27
 74
     0
 49
1.27
 74
     0
 49
-1.27
 74
     0
  0
LTYPE
  5
42
330
5
100
AcDbSymbolTableRecord
100
AcDbLinetypeTableRecord
  2
CENTERX2
 70
     0
  3
Center (2x) ________  __  ________  __  _____
 72
    65
 73
     4
 40
20.32
 49
12.7
 74
     0
 49
-2.54
 74
     0
 49
2.54
 74
     0
 49
-2.54
 74
     0
  0
LTYPE
  5
43
330
5
100
AcDbSymbolTableRecord
100
AcDbLinetypeTableRecord
  2
DOT2
 70
     0
  3
Dot (.5x) ........................................
 72
    65
 73
     2
 40
0.635
 49
0.0
 74
     0
 49
-0.635
 74
     0
  0
ENDTAB
  0
TABLE
  2
LAYER
  5
2
330
0
100
AcDbSymbolTable
 70
     4
  0
LAYER
  5
10
330
2
100
AcDbSymbolTableRecord
100
AcDbLayerTableRecord
  2
0
 70
     0
 62
     7
  6
Continuous
370
    -3
390
F
  0
LAYER
  5
44
330
2
100
AcDbSymbolTableRecord
100
AcDbLayerTableRecord
  2
FORMAT
 70
     0
 62
     7
  6
Continuous
370
    -3
390
F
  0
LAYER
  5
45
330
2
100
AcDbSymbolTableRecord
100
AcDbLayerTableRecord
  2
SLD-0
 70
     0
 62
     1
  6
Continuous
370
    -3
390
F
  0
LAYER
  5
46
330
2
100
AcDbSymbolTableRecord
100
AcDbLayerTableRecord
  2
WATERMARK
 70
     0
 62
    20
  6
Continuous
370
    -3
390
F
  0
ENDTAB
  0
TABLE
  2
STYLE
  5
3
330
0
100
AcDbSymbolTable
 70
     1
  0
STYLE
  5
11
330
3
100
AcDbSymbolTableRecord
100
AcDbTextStyleTableRecord
  2
Standard
 70
     0
 40
0.0
 41
1.0
 50
0.0
 71
     0
 42
3.5
  3
txt
  4

  0
ENDTAB
  0
TABLE
  2
VIEW
  5
6
330
0
100
AcDbSymbolTable
 70
     0
  0
ENDTAB
  0
TABLE
  2
UCS
  5
7
330
0
100
AcDbSymbolTable
 70
     0
  0
ENDTAB
  0
TABLE
  2
APPID
  5
9
330
0
100
AcDbSymbolTable
 70
     1
  0
APPID
  5
12
330
9
100
AcDbSymbolTableRecord
100
AcDbRegAppTableRecord
  2
ACAD
 70
     0
  0
ENDTAB
  0
TABLE
  2
DIMSTYLE
  5
A
330
0
100
AcDbSymbolTable
 70
     1
100
AcDbDimStyleTable
  0
DIMSTYLE
105
27
330
A
100
AcDbSymbolTableRecord
100
AcDbDimStyleTableRecord
  2
ISO-25
 70
     0
 41
2.5
 42
0.625
 43
3.75
 44
1.25
 73
     0
 74
     0
 77
     1
 78
     8
140
2.5
141
2.5
143
0.0393700787
147
0.625
171
     3
172
     1
178
     0
271
     2
272
     2
274
     3
278
    44
283
     0
284
     8
340
11
  0
ENDTAB
  0
TABLE
  2
BLOCK_RECORD
  5
1
330
0
100
AcDbSymbolTable
 70
     1
  0
BLOCK_RECORD
  5
1F
330
1
100
AcDbSymbolTableRecord
100
AcDbBlockTableRecord
  2
*Model_Space
340
22
  0
BLOCK_RECORD
  5
1B
330
1
100
AcDbSymbolTableRecord
100
AcDbBlockTableRecord
  2
*Paper_Space
340
1E
  0
BLOCK_RECORD
  5
23
330
1
100
AcDbSymbolTableRecord
100
AcDbBlockTableRecord
  2
*Paper_Space0
340
26
  0
ENDTAB
  0
ENDSEC
  0
SECTION
  2
BLOCKS
  0
BLOCK
  5
20
330
1F
100
AcDbEntity
  8
0
100
AcDbBlockBegin
  2
*Model_Space
 70
     0
 10
0.0
 20
0.0
 30
0.0
  3
*Model_Space
  1

  0
ENDBLK
  5
21
330
1F
100
AcDbEntity
  8
0
100
AcDbBlockEnd
  0
BLOCK
  5
1C
330
1B
100
AcDbEntity
 67
     1
  8
0
100
AcDbBlockBegin
  2
*Paper_Space
 70
     0
 10
0.0
 20
0.0
 30
0.0
  3
*Paper_Space
  1

  0
ENDBLK
  5
1D
330
1B
100
AcDbEntity
 67
     1
  8
0
100
AcDbBlockEnd
  0
BLOCK
  5
24
330
23
100
AcDbEntity
  8
0
100
AcDbBlockBegin
  2
*Paper_Space0
 70
     0
 10
0.0
 20
0.0
 30
0.0
  3
*Paper_Space0
  1

  0
ENDBLK
  5
25
330
23
100
AcDbEntity
  8
0
100
AcDbBlockEnd
  0
ENDSEC
  0
SECTION
  2
ENTITIES
  0
LINE
  5
47
330
1F
100
AcDbEntity
  8
0
  6
Continuous
 62
     7
370
    15
100
AcDbLine
 10
1055.5861432527
 20
586.7518902162
 30
0.0
 11
1055.5861432527
 21
586.7484629491
 31
0.0
  0
LINE
  5
48
330
1F
100
AcDbEntity
  8
0
  6
Continuous
 62
     7
370
    15
100
AcDbLine
 10
1061.5861405109
 20
586.7484629491
 30
0.0
 11
1061.5861405109
 21
586.7518902162
 31
0.0
  0
LINE
  5
49
330
1F
100
AcDbEntity
  8
0
  6
Continuous
 62
     7
370
    15
100
AcDbLine
 10
1056.5861378287
 20
586.7518902162
 30
0.0
 11
1056.5861378287
 21
586.7484629491
 31
0.0
  0
LINE
  5
4A
330
1F
100
AcDbEntity
  8
0
  6
Continuous
 62
     7
370
    15
100
AcDbLine
 10
482.0861358617
 20
573.6752271989
 30
0.0
 11
1382.0861418222
 21
573.6752271989
 31
0.0
  0
LINE
  5
4B
330
1F
100
AcDbEntity
  8
0
  6
Continuous
 62
     7
370
    15
100
AcDbLine
 10
1332.7861268495
 20
1352.7248919347
 30
0.0
 11
1332.7861268495
 21
1324.4646311143
 31
0.0
  0
ARC
  5
4C
330
1F
100
AcDbEntity
  8
0
  6
Continuous
 62
     7
370
    15
100
AcDbCircle
 10
932.0361404224
 20
1454.3352254039
 30
0.0
 40
903.8000000000002
100
AcDbArc
 50
257.0068597461
 51
282.9931402539
  0
ARC
  5
4D
330
1F
100
AcDbEntity
  8
0
  6
Continuous
 62
     7
370
    15
100
AcDbCircle
 10
932.0361404224
 20
1454.3352254039
 30
0.0
 40
923.8000000000002
100
AcDbArc
 50
252.4210288232
 51
287.5789711768
  0
LINE
  5
4E
330
1F
100
AcDbEntity
  8
0
  6
Continuous
 62
     7
370
    15
100
AcDbLine
 10
483.2861263727
 20
593.568307195
 30
0.0
 11
1380.8861513112
 21
593.568307195
 31
0.0
  0
LINE
  5
4F
330
1F
100
AcDbEntity
  8
0
  6
Continuous
 62
     7
370
    15
100
AcDbLine
 10
1380.8861513112
 20
594.8683142999
 30
0.0
 11
1382.0861418222
 21
594.8683142999
 31
0.0
  0
LINE
  5
50
330
1F
100
AcDbEntity
  8
0
  6
Continuous
 62
     7
370
    15
100
AcDbLine
 10
482.0861358617
 20
594.8683142999
 30
0.0
 11
483.2861263727
 21
594.8683142999
 31
0.0
  0
ARC
  5
51
330
1F
100
AcDbEntity
  8
0
  6
Continuous
 62
     7
370
    15
100
AcDbCircle
 10
1044.7209436828
 20
585.6088828791
 30
0.0
 40
1.00000000000004
100
AcDbArc
 50
320.2453421196
 51
352.9728344126
  0
ARC
  5
52
330
1F
100
AcDbEntity
  8
0
  6
Continuous
 62
     7
370
    15
100
AcDbCircle
 10
1023.451337162
 20
585.6088828791
 30
0.0
 40
1.000000000000153
100
AcDbArc
 50
187.0271655874
 51
219.7546578804
  0
ARC
  5
53
330
1F
100
AcDbEntity
  8
0
  6
Continuous
 62
     7
370
    15
100
AcDbCircle
 10
1043.8801386176
 20
624.9209827595
 30
0.0
 40
33.70905509285947
100
AcDbArc
 50
283.1128448697
 51
291.5501309393
  0
ARC
  5
54
330
1F
100
AcDbEntity
  8
0
  6
Continuous
 62
     7
370
    15
100
AcDbCircle
 10
1023.9360802786
 20
623.9733536997
 30
0.0
 40
32.70562110829845
100
AcDbArc
 50
248.3815860186
 51
257.1180335947
  0
ARC
  5
55
330
1F
100
AcDbEntity
  8
0
  6
Continuous
 62
     7
370
    15
100
AcDbCircle
 10
1018.4615019826
 20
580.770300976
 30
0.0
 40
5.953949185988174
100
AcDbArc
 50
359.4521692725
 51
44.8505574037
  0
ARC
  5
56
330
1F
100
AcDbEntity
  8
0
  6
Continuous
 62
     7
370
    15
100
AcDbCircle
 10
1050.45133742
 20
580.472987922
 30
0.0
 40
6.695899760411167
100
AcDbArc
 50
137.8159165781
 51
174.9341823261
  0
ARC
  5
57
330
1F
100
AcDbEntity
  8
0
  6
Continuous
 62
     7
370
    15
100
AcDbCircle
 10
1044.7209436828
 20
575.9875367792
 30
0.0
 40
1.000000000000072
100
AcDbArc
 50
281.9201320981
 51
350.5845175717
  0
ARC
  5
58
330
1F
100
AcDbEntity
  8
0
  6
Continuous
 62
     7
370
    15
100
AcDbCircle
 10
1023.451337162
 20
575.9875367792
 30
0.0
 40
1.000000000000184
100
AcDbArc
 50
189.4154824284
 51
258.0798679019
  0
LINE
  5
59
330
1F
100
AcDbEntity
  8
0
  6
Continuous
 62
     7
370
    15
100
AcDbLine
 10
1022.343895254
 20
576.3780594209
 30
0.0
 11
1022.4332724188
 21
575.8374154905
 31
0.0
  0
ARC
  5
5A
330
1F
100
AcDbEntity
  8
0
  6
Continuous
 62
     7
370
    15
100
AcDbCircle
 10
832.6095822139
 20
546.4499827642
 30
0.0
 40
192.0801898092218
100
AcDbArc
 50
8.9637954156
 51
12.7710223737
  0
LWPOLYLINE
  5
5B
330
1F
100
AcDbEntity
  8
0
  6
Continuous
 62
     7
370
    15
100
AcDbPolyline
 90
        3
 70
   128
 43
0.0
 10
1045.7086030815
 20
575.8243322709
 10
1046.9256256197
 20
582.6036751607
 10
1048.2409958218
 20
588.9124691823
  0
ARC
  5
5C
330
1F
100
AcDbEntity
  8
0
  6
Continuous
 62
     7
370
    15
100
AcDbCircle
 10
1035.6414910644
 20
619.32716604
 30
0.0
 40
45.28047806568965
100
AcDbArc
 50
273.0863855948
 51
281.8340272737
  0
ARC
  5
5D
330
1F
100
AcDbEntity
  8
0
  6
Continuous
 62
     7
370
    15
100
AcDbCircle
 10
1034.0103365208
 20
628.9261267436
 30
0.0
 40
54.96458828719837
100
AcDbArc
 50
263.6508893248
 51
274.2455917209
  0
ARC
  5
5E
330
1F
100
AcDbEntity
  8
0
  6
Continuous
 62
     7
370
    15
100
AcDbCircle
 10
1031.6896052529
 20
614.9080634441
 30
0.0
 40
40.78287646699656
100
AcDbArc
 50
258.0494341094
 51
264.7134636817
  0
ARC
  5
5F
330
1F
100
AcDbEntity
  8
0
  6
Continuous
 62
     7
370
    15
100
AcDbCircle
 10
1052.1146319786
 20
587.9132477587
 30
0.0
 40
4.00900530303326
100
AcDbArc
 50
121.4051147709
 51
165.5746827201
  0
ARC
  5
60
330
1F
100
AcDbEntity
  8
0
  6
Continuous
 62
     7
370
    15
100
AcDbCircle
 10
1015.8473046814
 20
587.7858863992
 30
0.0
 40
4.239542141249022
100
AcDbArc
 50
15.4225798879
 51
57.0846998099
  0
ARC
  5
61
330
1F
100
AcDbEntity
  8
0
  6
Continuous
 62
     7
370
    15
100
AcDbCircle
 10
1052.5284384316
 20
588.1575384998
 30
0.0
 40
4.056578508637648
100
AcDbArc
 50
104.3041865032
 51
128.1867754345
  0
ARC
  5
62
330
1F
100
AcDbEntity
  8
0
  6
Continuous
 62
     7
370
    15
100
AcDbCircle
 10
1015.7609373349
 20
588.4047389952
 30
0.0
 40
3.785492618561752
100
AcDbArc
 50
50.8686413959
 51
76.4327625298
  0
ARC
  5
63
330
1F
100
AcDbEntity
  8
0
  6
Continuous
 62
     7
370
    15
100
AcDbCircle
 10
1308.5361404224
 20
1370.9851083199
 30
0.0
 40
0.2500000000001038
100
AcDbArc
 50
0.0
 51
29.4734267882
  0
LINE
  5
64
330
1F
100
AcDbEntity
  8
0
  6
Continuous
 62
     7
370
    15
100
AcDbLine
 10
1308.7861378167
 20
1370.2851057389
 30
0.0
 11
1308.7861378167
 21
1370.9851026872
 31
0.0
  0
LWPOLYLINE
  5
65
330
1F
100
AcDbEntity
  8
0
  6
Continuous
 62
     7
370
    15
100
AcDbPolyline
 90
        7
 70
   128
 43
0.0
 10
1296.1318631147
 20
1369.7852015832
 10
1296.1310286496
 20
1369.8138714173
 10
1296.1448867296
 20
1369.8930561879
 10
1296.1716194127
 20
1369.9584126809
 10
1296.2046999906
 20
1370.0040102342
 10
1296.2373633359
 20
1370.0288653711
 10
1296.2611753915
 20
1370.0346172193
  0
ARC
  5
66
330
1F
100
AcDbEntity
  8
0
  6
Continuous
 62
     7
370
    15
100
AcDbCircle
 10
1295.8799906728
 20
1364.6851083199
 30
0.0
 40
0.25
100
AcDbArc
 50
270.0
 51
0.0
  0
LINE
  5
67
330
1F
100
AcDbEntity
  8
0
  6
Continuous
 62
     7
370
    15
100
AcDbLine
 10
1296.1299855684
 20
1364.6851003507
 30
0.0
 11
1296.1299855684
 21
1369.7851121762
 31
0.0
  0
ARC
  5
68
330
1F
100
AcDbEntity
  8
0
  6
Continuous
 62
     7
370
    15
100
AcDbCircle
 10
1291.1800202735
 20
1364.6851083199
 30
0.0
 40
0.2500000000002274
100
AcDbArc
 50
180.0
 51
270.0
  0
LINE
  5
69
330
1F
100
AcDbEntity
  8
0
  6
Continuous
 62
     7
370
    15
100
AcDbLine
 10
1290.9300167535
 20
1369.7851121762
 30
0.0
 11
1290.9300167535
 21
1364.6851003507
 31
0.0
  0
ARC
  5
6A
330
1F
100
AcDbEntity
  8
0
  6
Continuous
 62
     7
370
    15
100
AcDbCircle
 10
1291.6361404224
 20
1370.9851083199
 30
0.0
 40
0.2500000000002274
100
AcDbArc
 50
90.0
 51
180.0
  0
ARC
  5
6B
330
1F
100
AcDbEntity
  8
0
  6
Continuous
 62
     7
370
    15
100
AcDbCircle
 10
1308.9922605713
 20
1364.6851083199
 30
0.0
 40
0.25
100
AcDbArc
 50
270.0
 51
0.0
  0
LINE
  5
6C
330
1F
100
AcDbEntity
  8
0
  6
Continuous
 62
     7
370
    15
100
AcDbLine
 10
1309.2422623609
 20
1364.6851003507
 30
0.0
 11
1309.2422623609
 21
1369.7851121762
 31
0.0
  0
ARC
  5
6D
330
1F
100
AcDbEntity
  8
0
  6
Continuous
 62
     7
370
    15
100
AcDbCircle
 10
1302.9254135277
 20
1370.242299293
 30
0.0
 40
0.2732528851624372
100
AcDbArc
 50
310.9252813261
 51
8.9874892437
  0
LINE
  5
6E
330
1F
100
AcDbEntity
  8
0
  6
Continuous
 62
     7
370
    15
100
AcDbLine
 10
1303.1970996831
 20
1375.3851175645
 30
0.0
 11
1303.1970996831
 21
1370.2851057389
 31
0.0
  0
ARC
  5
6F
330
1F
100
AcDbEntity
  8
0
  6
Continuous
 62
     7
370
    15
100
AcDbCircle
 10
1303.447092246
 20
1375.3851083199
 30
0.0
 40
0.25
100
AcDbArc
 50
90.0
 51
180.0
  0
ARC
  5
70
330
1F
100
AcDbEntity
  8
0
  6
Continuous
 62
     7
370
    15
100
AcDbCircle
 10
1308.5037864183
 20
1375.3851083199
 30
0.0
 40
0.25
100
AcDbArc
 50
0.0
 51
90.0
  0
LINE
  5
71
330
1F
100
AcDbEntity
  8
0
  6
Continuous
 62
     7
370
    15
100
AcDbLine
 10
1308.7537724946
 20
1370.2851057389
 30
0.0
 11
1308.7537724946
 21
1375.3851175645
 31
0.0
  0
ARC
  5
72
330
1F
100
AcDbEntity
  8
0
  6
Continuous
 62
     7
370
    15
100
AcDbCircle
 10
1308.5361404224
 20
1369.7851083199
 30
0.0
 40
0.2500000000000924
100
AcDbArc
 50
0.0
 51
52.7089330724
  0
ARC
  5
73
330
1F
100
AcDbEntity
  8
0
  6
Continuous
 62
     7
370
    15
100
AcDbCircle
 10
1308.5361404224
 20
1369.0851083199
 30
0.0
 40
0.2500000000002274
100
AcDbArc
 50
270.0
 51
0.0
  0
LINE
  5
74
330
1F
100
AcDbEntity
  8
0
  6
Continuous
 62
     7
370
    15
100
AcDbLine
 10
1308.7861378167
 20
1369.085115228
 30
0.0
 11
1308.7861378167
 21
1369.7851121762
 31
0.0
  0
LINE
  5
75
330
1F
100
AcDbEntity
  8
0
  6
Continuous
 62
     7
370
    15
100
AcDbLine
 10
1291.4185066198
 20
1375.3851175645
 30
0.0
 11
1291.4185066198
 21
1371.108126674
 31
0.0
  0
ARC
  5
76
330
1F
100
AcDbEntity
  8
0
  6
Continuous
 62
     7
370
    15
100
AcDbCircle
 10
1291.6684944265
 20
1375.3851083199
 30
0.0
 40
0.2500000000002274
100
AcDbArc
 50
90.0
 51
180.0
  0
LINE
  5
77
330
1F
100
AcDbEntity
  8
0
  6
Continuous
 62
     7
370
    15
100
AcDbLine
 10
1305.5478174661
 20
1376.1685610154
 30
0.0
 11
1305.08614969
 21
1376.4351129869
 31
0.0
  0
LINE
  5
78
330
1F
100
AcDbEntity
  8
0
  6
Continuous
 62
     7
370
    15
100
AcDbLine
 10
1295.0861294244
 20
1376.4351129869
 30
0.0
 11
1294.6244616483
 21
1376.1685610154
 31
0.0
  0
LINE
  5
79
330
1F
100
AcDbEntity
  8
0
  6
Continuous
 62
     7
370
    15
100
AcDbLine
 10
1294.6244616483
 20
1371.5016663411
 30
0.0
 11
1295.0861294244
 21
1371.2351143697
 31
0.0
  0
LINE
  5
7A
330
1F
100
AcDbEntity
  8
0
  6
Continuous
 62
     7
370
    15
100
AcDbLine
 10
1305.1753778432
 20
1363.3335650304
 30
0.0
 11
1305.08614969
 21
1363.3851230481
 31
0.0
  0
LINE
  5
7B
330
1F
100
AcDbEntity
  8
0
  6
Continuous
 62
     7
370
    15
100
AcDbLine
 10
1295.0861294244
 20
1363.3851230481
 30
0.0
 11
1294.9969012712
 21
1363.3335650304
 31
0.0
  0
LINE
  5
7C
330
1F
100
AcDbEntity
  8
0
  6
Continuous
 62
     7
370
    15
100
AcDbLine
 10
1294.8387701486
 20
1363.7779474595
 30
0.0
 11
1295.0861294244
 21
1363.6351049283
 31
0.0
  0
LINE
  5
7D
330
1F
100
AcDbEntity
  8
0
  6
Continuous
 62
     7
370
    15
100
AcDbLine
 10
1305.3335089658
 20
1368.6922908166
 30
0.0
 11
1305.08614969
 21
1368.8351035455
 31
0.0
  0
LINE
  5
7E
330
1F
100
AcDbEntity
  8
0
  6
Continuous
 62
     7
370
    15
100
AcDbLine
 10
1305.08614969
 20
1363.6351049283
 30
0.0
 11
1305.3335089658
 21
1363.7779474595
 31
0.0
  0
LINE
  5
7F
330
1F
100
AcDbEntity
  8
0
  6
Continuous
 62
     7
370
    15
100
AcDbLine
 10
1303.0861456369
 20
1363.3851230481
 30
0.0
 11
1303.0861456369
 21
1363.6351049283
 31
0.0
  0
LINE
  5
80
330
1F
100
AcDbEntity
  8
0
  6
Continuous
 62
     7
370
    15
100
AcDbLine
 10
1297.0861334775
 20
1363.6351049283
 30
0.0
 11
1297.0861334775
 21
1363.3851230481
 31
0.0
  0
LWPOLYLINE
  5
81
330
1F
100
AcDbEntity
  8
0
  6
Continuous
 62
     7
370
    15
100
AcDbPolyline
 90
        6
 70
   128
 43
0.0
 10
483.0861527894
 20
1278.3280432561
 10
483.2187731241
 20
1278.0418515542
 10
483.5996468042
 20
1277.7555704454
 10
484.1794509862
 20
1277.4692893365
 10
484.8831434224
 20
1277.1830082276
 10
485.1361353372
 20
1277.0851075986
  0
LINE
  5
82
330
1F
100
AcDbEntity
  8
0
  6
Continuous
 62
     7
370
    15
100
AcDbLine
 10
483.0861527894
 20
1278.3280432561
 30
0.0
 11
483.8861365293
 21
1278.3280432561
 31
0.0
  0
ARC
  5
83
330
1F
100
AcDbEntity
  8
0
  6
Continuous
 62
     7
370
    15
100
AcDbCircle
 10
485.9577240996
 20
1279.1613840271
 30
0.0
 40
2.232920039377563
100
AcDbArc
 50
201.9135206704
 51
248.4111470103
  0
LWPOLYLINE
  5
84
330
1F
100
AcDbEntity
  8
0
  6
Continuous
 62
     7
370
    15
100
AcDbPolyline
 90
        6
 70
   128
 43
0.0
 10
1379.0361423467
 20
1277.0851075986
 10
1379.7615010713
 20
1277.3712993005
 10
1380.3932208989
 20
1277.6575804094
 10
1380.8492262338
 20
1277.9438615182
 10
1381.0704786752
 20
1278.2301426271
 10
1381.0861546968
 20
1278.3280432561
  0
ARC
  5
85
330
1F
100
AcDbEntity
  8
0
  6
Continuous
 62
     7
370
    15
100
AcDbCircle
 10
1378.2528256997
 20
1279.1228944252
 30
0.0
 40
2.183153709656682
100
AcDbArc
 50
291.0265490089
 51
338.6487833104
  0
LINE
  5
86
330
1F
100
AcDbEntity
  8
0
  6
Continuous
 62
     7
370
    15
100
AcDbLine
 10
1381.0861546968
 20
1278.3280432561
 30
0.0
 11
1380.2861411546
 21
1278.3280432561
 31
0.0
  0
LWPOLYLINE
  5
87
330
1F
100
AcDbEntity
  8
0
  6
Continuous
 62
     7
370
    15
100
AcDbPolyline
 90
        6
 70
   128
 43
0.0
 10
485.1361353372
 20
714.1851157287
 10
484.4107766126
 20
713.8989240268
 10
483.7790567849
 20
713.6126429179
 10
483.3230514501
 20
713.3263618091
 10
483.1017990087
 20
713.0400807002
 10
483.0861527894
 20
712.9421800712
  0
LINE
  5
88
330
1F
100
AcDbEntity
  8
0
  6
Continuous
 62
     7
370
    15
100
AcDbLine
 10
483.0861527894
 20
712.9421800712
 30
0.0
 11
483.0861527894
 21
1278.3280432561
 31
0.0
  0
LINE
  5
89
330
1F
100
AcDbEntity
  8
0
  6
Continuous
 62
     7
370
    15
100
AcDbLine
 10
1381.0861546968
 20
1278.3280432561
 30
0.0
 11
1381.0861546968
 21
712.9421800712
 31
0.0
  0
LWPOLYLINE
  5
8A
330
1F
100
AcDbEntity
  8
0
  6
Continuous
 62
     7
370
    15
100
AcDbPolyline
 90
        6
 70
   128
 43
0.0
 10
1381.0861546968
 20
712.9421800712
 10
1380.9535343622
 20
713.2283568719
 10
1380.5726308797
 20
713.5146379808
 10
1379.9928266977
 20
713.8009190896
 10
1379.2891342614
 20
714.0872001985
 10
1379.0361423467
 20
714.1851157287
  0
LWPOLYLINE
  5
8B
330
1F
100
AcDbEntity
  8
0
  6
Continuous
 62
     7
370
    15
100
AcDbPolyline
 90
        6
 70
   128
 43
0.0
 10
485.1361353372
 20
1277.0851075986
 10
484.8499734376
 20
1277.8104663232
 10
484.5636923288
 20
1278.4421861509
 10
484.2774112199
 20
1278.8981914857
 10
483.9911003087
 20
1279.1194439271
 10
483.8931996797
 20
1279.1351199487
  0
ARC
  5
8C
330
1F
100
AcDbEntity
  8
0
  6
Continuous
 62
     7
370
    15
100
AcDbCircle
 10
483.0983485106
 20
1276.3017909516
 30
0.0
 40
2.183153709656388
100
AcDbArc
 50
21.0265490089
 51
68.6487833104
  0
LINE
  5
8D
330
1F
100
AcDbEntity
  8
0
  6
Continuous
 62
     7
370
    15
100
AcDbLine
 10
483.8931996797
 20
1279.1351199487
 30
0.0
 11
483.8931996797
 21
1278.3351064065
 31
0.0
  0
LWPOLYLINE
  5
8E
330
1F
100
AcDbEntity
  8
0
  6
Continuous
 62
     7
370
    15
100
AcDbPolyline
 90
        6
 70
   128
 43
0.0
 10
1380.2790780042
 20
1279.1351199487
 10
1379.9928863023
 20
1279.0024996141
 10
1379.7066051935
 20
1278.6216259339
 10
1379.4203240846
 20
1278.0417919496
 10
1379.1340429757
 20
1277.3380995134
 10
1379.0361423467
 20
1277.0851075986
  0
LINE
  5
8F
330
1F
100
AcDbEntity
  8
0
  6
Continuous
 62
     7
370
    15
100
AcDbLine
 10
1380.2790780042
 20
1279.1351199487
 30
0.0
 11
1380.2790780042
 21
1278.3351064065
 31
0.0
  0
ARC
  5
90
330
1F
100
AcDbEntity
  8
0
  6
Continuous
 62
     7
370
    15
100
AcDbCircle
 10
1381.1123641394
 20
1276.2635731633
 30
0.0
 40
2.232849247260404
100
AcDbArc
 50
111.9127402598
 51
158.4119274208
  0
LINE
  5
91
330
1F
100
AcDbEntity
  8
0
  6
Continuous
 62
     7
370
    15
100
AcDbLine
 10
483.8931996797
 20
1279.1351199487
 30
0.0
 11
1380.2790780042
 21
1279.1351199487
 31
0.0
  0
LWPOLYLINE
  5
92
330
1F
100
AcDbEntity
  8
0
  6
Continuous
 62
     7
370
    15
100
AcDbPolyline
 90
        6
 70
   128
 43
0.0
 10
1379.0361423467
 20
714.1851157287
 10
1379.3223042463
 20
713.4597421029
 10
1379.6085853551
 20
712.8280371764
 10
1379.8948962663
 20
712.3720318416
 10
1380.1811773752
 20
712.1507794002
 10
1380.2790780042
 20
712.1351033786
  0
LINE
  5
93
330
1F
100
AcDbEntity
  8
0
  6
Continuous
 62
     7
370
    15
100
AcDbLine
 10
1380.2790780042
 20
712.1351033786
 30
0.0
 11
483.8931996797
 21
712.1351033786
 31
0.0
  0
LWPOLYLINE
  5
94
330
1F
100
AcDbEntity
  8
0
  6
Continuous
 62
     7
370
    15
100
AcDbPolyline
 90
        6
 70
   128
 43
0.0
 10
483.8931996797
 20
712.1351033786
 10
484.1793913816
 20
712.2677237132
 10
484.4656724904
 20
712.6485973933
 10
484.7519535993
 20
713.2284313777
 10
485.0382347081
 20
713.9321089128
 10
485.1361353372
 20
714.1851157287
  0
LINE
  5
95
330
1F
100
AcDbEntity
  8
0
  6
Continuous
 62
     7
370
    15
100
AcDbLine
 10
483.8931996797
 20
712.1351033786
 30
0.0
 11
483.8931996797
 21
712.9351020196
 31
0.0
  0
ARC
  5
96
330
1F
100
AcDbEntity
  8
0
  6
Continuous
 62
     7
370
    15
100
AcDbCircle
 10
483.0598819312
 20
715.0066569038
 30
0.0
 40
2.232881122723854
100
AcDbArc
 50
291.9132856124
 51
338.4120650728
  0
ARC
  5
97
330
1F
100
AcDbEntity
  8
0
  6
Continuous
 62
     7
370
    15
100
AcDbCircle
 10
1381.0740201143
 20
714.9684985628
 30
0.0
 40
2.183262343467462
100
AcDbArc
 50
201.0273140089
 51
248.6473353059
  0
LINE
  5
98
330
1F
100
AcDbEntity
  8
0
  6
Continuous
 62
     7
370
    15
100
AcDbLine
 10
1380.2790780042
 20
712.1351033786
 30
0.0
 11
1380.2790780042
 21
712.9351020196
 31
0.0
  0
ARC
  5
99
330
1F
100
AcDbEntity
  8
0
  6
Continuous
 62
     7
370
    15
100
AcDbCircle
 10
485.9195589582
 20
712.1472213202
 30
0.0
 40
2.183292511361086
100
AcDbArc
 50
111.0281563992
 51
158.6471759201
  0
LINE
  5
9A
330
1F
100
AcDbEntity
  8
0
  6
Continuous
 62
     7
370
    15
100
AcDbLine
 10
483.0861527894
 20
712.9421800712
 30
0.0
 11
483.8861365293
 21
712.9421800712
 31
0.0
  0
LINE
  5
9B
330
1F
100
AcDbEntity
  8
0
  6
Continuous
 62
     7
370
    15
100
AcDbLine
 10
1381.0861546968
 20
712.9421800712
 30
0.0
 11
1380.2861411546
 21
712.9421800712
 31
0.0
  0
ARC
  5
9C
330
1F
100
AcDbEntity
  8
0
  6
Continuous
 62
     7
370
    15
100
AcDbCircle
 10
1378.2145394278
 20
712.1088250632
 30
0.0
 40
2.23293848635517
100
AcDbArc
 50
21.9137240206
 51
68.4109436601
  0
LWPOLYLINE
  5
9D
330
1F
100
AcDbEntity
  8
0
  6
Continuous
 62
     7
370
    15
100
AcDbPolyline
 90
       17
 70
   128
 43
0.0
 10
1060.5861384843
 20
589.7200227121
 10
1061.5482319568
 20
589.0860379079
 10
1062.232791302
 20
588.1885409692
 10
1062.5626732086
 20
587.1287107804
 10
1062.5006694768
 20
586.0260546544
 10
1062.0537836526
 20
585.0047886708
 10
1061.2723816608
 20
584.1800988057
 10
1060.2445442651
 20
583.6449087003
 10
1059.0861428951
 20
583.459538255
 10
1057.9277266239
 20
583.6449087003
 10
1056.8999041293
 20
584.1800988057
 10
1056.1185021375
 20
585.0047886708
 10
1055.6716163133
 20
586.0260546544
 10
1055.6096125816
 20
587.1287107804
 10
1055.9394870375
 20
588.1885409692
 10
1056.6240538333
 20
589.0860379079
 10
1057.5861473058
 20
589.7200227121
  0
LINE
  5
9E
330
1F
100
AcDbEntity
  8
0
  6
Continuous
 62
     7
370
    15
100
AcDbLine
 10
1060.5861384843
 20
589.7200227121
 30
0.0
 11
1060.5861384843
 21
593.568307195
 31
0.0
  0
LINE
  5
9F
330
1F
100
AcDbEntity
  8
0
  6
Continuous
 62
     7
370
    15
100
AcDbLine
 10
1057.5861473058
 20
589.7200227121
 30
0.0
 11
1057.5861473058
 21
593.568307195
 31
0.0
  0
LINE
  5
A0
330
1F
100
AcDbEntity
  8
0
  6
Continuous
 62
     7
370
    15
100
AcDbLine
 10
1382.0861418222
 20
580.7814121583
 30
0.0
 11
1382.0861418222
 21
594.8683142999
 31
0.0
  0
LINE
  5
A1
330
1F
100
AcDbEntity
  8
0
  6
Continuous
 62
     7
370
    15
100
AcDbLine
 10
482.0861358617
 20
580.7814121583
 30
0.0
 11
482.0861358617
 21
594.8683142999
 31
0.0
  0
LINE
  5
A2
330
1F
100
AcDbEntity
  8
0
  6
Continuous
 62
     7
370
    15
100
AcDbLine
 10
1355.0276298497
 20
587.3576224187
 30
0.0
 11
1352.7138073419
 21
590.5065954068
 31
0.0
  0
LINE
  5
A3
330
1F
100
AcDbEntity
  8
0
  6
Continuous
 62
     7
370
    15
100
AcDbLine
 10
1354.9268980001
 20
593.568307195
 30
0.0
 11
1352.7138073419
 21
590.5065954068
 31
0.0
  0
LINE
  5
A4
330
1F
100
AcDbEntity
  8
0
  6
Continuous
 62
     7
370
    15
100
AcDbLine
 10
1351.118071792
 20
593.1307494977
 30
0.0
 11
1352.5667030786
 21
593.568307195
 31
0.0
  0
LINE
  5
A5
330
1F
100
AcDbEntity
  8
0
  6
Continuous
 62
     7
370
    15
100
AcDbLine
 10
1351.118071792
 20
593.1307494977
 30
0.0
 11
1350.8531291459
 21
593.568307195
 31
0.0
  0
LINE
  5
A6
330
1F
100
AcDbEntity
  8
0
  6
Continuous
 62
     7
370
    15
100
AcDbLine
 10
1346.8893308614
 20
592.6808834413
 30
0.0
 11
1347.18446326
 21
593.568307195
 31
0.0
  0
LINE
  5
A7
330
1F
100
AcDbEntity
  8
0
  6
Continuous
 62
     7
370
    15
100
AcDbLine
 10
1346.8893308614
 20
592.6808834413
 30
0.0
 11
1343.0595536207
 21
593.1307494977
 31
0.0
  0
LINE
  5
A8
330
1F
100
AcDbEntity
  8
0
  6
Continuous
 62
     7
370
    15
100
AcDbLine
 10
1345.772310016
 20
590.5065954068
 30
0.0
 11
1343.0595536207
 21
593.1307494977
 31
0.0
  0
LINE
  5
A9
330
1F
100
AcDbEntity
  8
0
  6
Continuous
 62
     7
370
    15
100
AcDbLine
 10
1338.9904041265
 20
584.43359736
 30
0.0
 11
1345.772310016
 21
590.5065954068
 31
0.0
  0
LINE
  5
AA
330
1F
100
AcDbEntity
  8
0
  6
Continuous
 62
     7
370
    15
100
AcDbLine
 10
1338.9904041265
 20
584.43359736
 30
0.0
 11
1347.7670092557
 21
588.2573545316
 31
0.0
  0
LINE
  5
AB
330
1F
100
AcDbEntity
  8
0
  6
Continuous
 62
     7
370
    15
100
AcDbLine
 10
1347.7670092557
 20
588.2573545316
 30
0.0
 11
1350.0010509466
 21
583.3839297631
 31
0.0
  0
LINE
  5
AC
330
1F
100
AcDbEntity
  8
0
  6
Continuous
 62
     7
370
    15
100
AcDbLine
 10
1350.3201742147
 20
588.2573545316
 30
0.0
 11
1350.0010509466
 21
583.3839297631
 31
0.0
  0
LINE
  5
AD
330
1F
100
AcDbEntity
  8
0
  6
Continuous
 62
     7
370
    15
100
AcDbLine
 10
1350.3201742147
 20
588.2573545316
 30
0.0
 11
1355.0276298497
 21
587.3576224187
 31
0.0
  0
ARC
  5
AE
330
1F
100
AcDbEntity
  8
0
  6
Continuous
 62
     7
370
    15
100
AcDbCircle
 10
1059.0861428951
 20
586.9014903916
 30
0.0
 40
3.503195356971537
100
AcDbArc
 50
182.4474986757
 51
357.5525013243
  0
ARC
  5
AF
330
1F
100
AcDbEntity
  8
0
  6
Continuous
 62
     7
370
    15
100
AcDbCircle
 10
1059.2057468633
 20
586.7033374751
 30
0.0
 40
2.380888759688713
100
AcDbArc
 50
1.168496421
 51
80.8065754997
  0
ARC
  5
B0
330
1F
100
AcDbEntity
  8
0
  6
Continuous
 62
     7
370
    15
100
AcDbCircle
 10
1058.9665630901
 20
586.7033112371
 30
0.0
 40
2.380920902139493
100
AcDbArc
 50
99.1942516135
 51
178.8308878188
  0
LINE
  5
B1
330
1F
100
AcDbEntity
  8
0
  6
Continuous
 62
     7
370
    15
100
AcDbLine
 10
1347.7670092557
 20
588.2607519963
 30
0.0
 11
1350.0010509466
 21
583.3873570302
 31
0.0
  0
LINE
  5
B2
330
1F
100
AcDbEntity
  8
0
  6
Continuous
 62
     7
370
    15
100
AcDbLine
 10
1338.9978547071
 20
584.4402432779
 30
0.0
 11
1347.7670092557
 21
588.2607519963
 31
0.0
  0
LINE
  5
B3
330
1F
100
AcDbEntity
  8
0
  6
Continuous
 62
     7
370
    15
100
AcDbLine
 10
1345.772310016
 20
590.5100226739
 30
0.0
 11
1343.0635769342
 21
593.1302726606
 31
0.0
  0
LINE
  5
B4
330
1F
100
AcDbEntity
  8
0
  6
Continuous
 62
     7
370
    15
100
AcDbLine
 10
1354.9244244073
 20
593.568307195
 30
0.0
 11
1352.7138073419
 21
590.5100226739
 31
0.0
  0
LINE
  5
B5
330
1F
100
AcDbEntity
  8
0
  6
Continuous
 62
     7
370
    15
100
AcDbLine
 10
1350.3201742147
 20
588.2607519963
 30
0.0
 11
1355.0247092222
 21
587.3616159299
 31
0.0
  0
LINE
  5
B6
330
1F
100
AcDbEntity
  8
0
  6
Continuous
 62
     7
370
    15
100
AcDbLine
 10
1350.3201742147
 20
588.2607519963
 30
0.0
 11
1350.0010509466
 21
583.3873570302
 31
0.0
  0
LINE
  5
B7
330
1F
100
AcDbEntity
  8
0
  6
Continuous
 62
     7
370
    15
100
AcDbLine
 10
1352.7941246007
 20
588.7468576768
 30
0.0
 11
1351.5030283902
 21
590.5039728025
 31
0.0
  0
LINE
  5
B8
330
1F
100
AcDbEntity
  8
0
  6
Continuous
 62
     7
370
    15
100
AcDbLine
 10
1350.6506521676
 20
592.0059502462
 30
0.0
 11
1353.1268675302
 21
592.7538693288
 31
0.0
  0
LINE
  5
B9
330
1F
100
AcDbEntity
  8
0
  6
Continuous
 62
     7
370
    15
100
AcDbLine
 10
1350.6506521676
 20
592.0059502462
 30
0.0
 11
1349.7046668504
 21
593.568307195
 31
0.0
  0
LINE
  5
BA
330
1F
100
AcDbEntity
  8
0
  6
Continuous
 62
     7
370
    15
100
AcDbLine
 10
1347.5945432161
 20
591.6544616559
 30
0.0
 11
1348.231001613
 21
593.568307195
 31
0.0
  0
LINE
  5
BB
330
1F
100
AcDbEntity
  8
0
  6
Continuous
 62
     7
370
    15
100
AcDbLine
 10
1347.5945432161
 20
591.6544616559
 30
0.0
 11
1345.7606871103
 21
591.8698728421
 31
0.0
  0
LINE
  5
BC
330
1F
100
AcDbEntity
  8
0
  6
Continuous
 62
     7
370
    15
100
AcDbLine
 10
1344.0661568616
 20
587.6841664651
 30
0.0
 11
1347.1912581895
 21
590.4826343396
 31
0.0
  0
LINE
  5
BD
330
1F
100
AcDbEntity
  8
0
  6
Continuous
 62
     7
370
    15
100
AcDbLine
 10
1059.9861432288
 20
592.0082152227
 30
0.0
 11
1059.9861432288
 21
593.568307195
 31
0.0
  0
LINE
  5
BE
330
1F
100
AcDbEntity
  8
0
  6
Continuous
 62
     7
370
    15
100
AcDbLine
 10
1059.5861364578
 20
592.0082152227
 30
0.0
 11
1059.9861432288
 21
592.0082152227
 31
0.0
  0
LINE
  5
BF
330
1F
100
AcDbEntity
  8
0
  6
Continuous
 62
     7
370
    15
100
AcDbLine
 10
1059.5861364578
 20
589.0502155164
 30
0.0
 11
1059.5861364578
 21
592.0082152227
 31
0.0
  0
LWPOLYLINE
  5
C0
330
1F
100
AcDbEntity
  8
0
  6
Continuous
 62
     7
370
    15
100
AcDbPolyline
 90
       16
 70
   128
 43
0.0
 10
1059.5861364578
 20
589.0502155164
 10
1060.4840804313
 20
588.6960745195
 10
1061.1699063752
 20
588.0464434961
 10
1061.539559481
 20
587.199848924
 10
1061.5369517778
 20
586.2847686151
 10
1061.1625004981
 20
585.440021787
 10
1060.4729790662
 20
584.793847833
 10
1059.5730532382
 20
584.4442069867
 10
1058.5992325519
 20
584.4442069867
 10
1057.6992918227
 20
584.793847833
 10
1057.009785292
 20
585.440021787
 10
1056.6353265618
 20
586.2847686151
 10
1056.6327263091
 20
587.199848924
 10
1057.0023794149
 20
588.0464434961
 10
1057.6882053588
 20
588.6960745195
 10
1058.5861344312
 20
589.0502155164
  0
LINE
  5
C1
330
1F
100
AcDbEntity
  8
0
  6
Continuous
 62
     7
370
    15
100
AcDbLine
 10
1058.5861344312
 20
589.0502155164
 30
0.0
 11
1058.5861344312
 21
592.0082152227
 31
0.0
  0
LINE
  5
C2
330
1F
100
AcDbEntity
  8
0
  6
Continuous
 62
     7
370
    15
100
AcDbLine
 10
1058.1861425613
 20
592.0082152227
 30
0.0
 11
1058.5861344312
 21
592.0082152227
 31
0.0
  0
LINE
  5
C3
330
1F
100
AcDbEntity
  8
0
  6
Continuous
 62
     7
370
    15
100
AcDbLine
 10
1058.1861425613
 20
592.0082152227
 30
0.0
 11
1058.1861425613
 21
593.568307195
 31
0.0
  0
LINE
  5
C4
330
1F
100
AcDbEntity
  8
0
  6
Continuous
 62
     7
370
    15
100
AcDbLine
 10
1347.5945432161
 20
591.6544616559
 30
0.0
 11
1347.5945432161
 21
591.6510641912
 31
0.0
  0
LINE
  5
C5
330
1F
100
AcDbEntity
  8
0
  6
Continuous
 62
     7
370
    15
100
AcDbLine
 10
1347.5945432161
 20
591.6510641912
 30
0.0
 11
1348.2321341012
 21
593.568307195
 31
0.0
  0
LINE
  5
C6
330
1F
100
AcDbEntity
  8
0
  6
Continuous
 62
     7
370
    15
100
AcDbLine
 10
1348.2788045381
 20
589.51608542
 30
0.0
 11
1349.2604930375
 21
587.3746097425
 31
0.0
  0
LINE
  5
C7
330
1F
100
AcDbEntity
  8
0
  6
Continuous
 62
     7
370
    15
100
AcDbLine
 10
1344.0661568616
 20
587.680739198
 30
0.0
 11
1348.2788045381
 21
589.51608542
 31
0.0
  0
LINE
  5
C8
330
1F
100
AcDbEntity
  8
0
  6
Continuous
 62
     7
370
    15
100
AcDbLine
 10
1344.0661568616
 20
587.680739198
 30
0.0
 11
1347.1931059335
 21
590.4808462003
 31
0.0
  0
LINE
  5
C9
330
1F
100
AcDbEntity
  8
0
  6
Continuous
 62
     7
370
    15
100
AcDbLine
 10
1347.1931059335
 20
590.4808462003
 30
0.0
 11
1345.7606871103
 21
591.8664455751
 31
0.0
  0
LINE
  5
CA
330
1F
100
AcDbEntity
  8
0
  6
Continuous
 62
     7
370
    15
100
AcDbLine
 10
1347.5945432161
 20
591.6510641912
 30
0.0
 11
1345.7606871103
 21
591.8664455751
 31
0.0
  0
LINE
  5
CB
330
1F
100
AcDbEntity
  8
0
  6
Continuous
 62
     7
370
    15
100
AcDbLine
 10
1350.6506521676
 20
592.0025229791
 30
0.0
 11
1349.7025806878
 21
593.568307195
 31
0.0
  0
LINE
  5
CC
330
1F
100
AcDbEntity
  8
0
  6
Continuous
 62
     7
370
    15
100
AcDbLine
 10
1350.6506521676
 20
592.0025229791
 30
0.0
 11
1353.1268675302
 21
592.7504420617
 31
0.0
  0
LINE
  5
CD
330
1F
100
AcDbEntity
  8
0
  6
Continuous
 62
     7
370
    15
100
AcDbLine
 10
1353.1268675302
 20
592.7504420617
 30
0.0
 11
1351.5017766927
 21
590.5022442678
 31
0.0
  0
LINE
  5
CE
330
1F
100
AcDbEntity
  8
0
  6
Continuous
 62
     7
370
    15
100
AcDbLine
 10
1352.7941246007
 20
588.7434304097
 30
0.0
 11
1351.5017766927
 21
590.5022442678
 31
0.0
  0
LINE
  5
CF
330
1F
100
AcDbEntity
  8
0
  6
Continuous
 62
     7
370
    15
100
AcDbLine
 10
1349.3926961397
 20
589.3935382703
 30
0.0
 11
1352.7941246007
 21
588.7434304097
 31
0.0
  0
LINE
  5
D0
330
1F
100
AcDbEntity
  8
0
  6
Continuous
 62
     7
370
    15
100
AcDbLine
 10
1349.3926961397
 20
589.3935382703
 30
0.0
 11
1349.2604930375
 21
587.3746097425
 31
0.0
  0
LINE
  5
D1
330
1F
100
AcDbEntity
  8
0
  6
Continuous
 62
     7
370
    15
100
AcDbLine
 10
1350.6506521676
 20
592.0059502462
 30
0.0
 11
1350.6506521676
 21
592.0025229791
 31
0.0
  0
LINE
  5
D2
330
1F
100
AcDbEntity
  8
0
  6
Continuous
 62
     7
370
    15
100
AcDbLine
 10
1352.7138073419
 20
590.5100226739
 30
0.0
 11
1352.7138073419
 21
590.5065954068
 31
0.0
  0
LINE
  5
D3
330
1F
100
AcDbEntity
  8
0
  6
Continuous
 62
     7
370
    15
100
AcDbLine
 10
1345.772310016
 20
590.5100226739
 30
0.0
 11
1345.772310016
 21
590.5065954068
 31
0.0
  0
LINE
  5
D4
330
1F
100
AcDbEntity
  8
0
  6
Continuous
 62
     7
370
    15
100
AcDbLine
 10
1353.1268675302
 20
592.7538693288
 30
0.0
 11
1353.1268675302
 21
592.7504420617
 31
0.0
  0
LINE
  5
D5
330
1F
100
AcDbEntity
  8
0
  6
Continuous
 62
     7
370
    15
100
AcDbLine
 10
1345.7606871103
 20
591.8698728421
 30
0.0
 11
1345.7606871103
 21
591.8664455751
 31
0.0
  0
LINE
  5
D6
330
1F
100
AcDbEntity
  8
0
  6
Continuous
 62
     7
370
    15
100
AcDbLine
 10
1352.7941246007
 20
588.7468576768
 30
0.0
 11
1352.7941246007
 21
588.7434304097
 31
0.0
  0
LINE
  5
D7
330
1F
100
AcDbEntity
  8
0
  6
Continuous
 62
     7
370
    15
100
AcDbLine
 10
1344.0661568616
 20
587.6841664651
 30
0.0
 11
1344.0661568616
 21
587.680739198
 31
0.0
  0
LINE
  5
D8
330
1F
100
AcDbEntity
  8
0
  6
Continuous
 62
     7
370
    15
100
AcDbLine
 10
1347.7670092557
 20
588.2607519963
 30
0.0
 11
1347.7670092557
 21
588.2573545316
 31
0.0
  0
LINE
  5
D9
330
1F
100
AcDbEntity
  8
0
  6
Continuous
 62
     7
370
    15
100
AcDbLine
 10
1350.0010509466
 20
583.3873570302
 30
0.0
 11
1350.0010509466
 21
583.3839297631
 31
0.0
  0
LINE
  5
DA
330
1F
100
AcDbEntity
  8
0
  6
Continuous
 62
     7
370
    15
100
AcDbLine
 10
1350.3201742147
 20
588.2607519963
 30
0.0
 11
1350.3201742147
 21
588.2573545316
 31
0.0
  0
LINE
  5
DB
330
1F
100
AcDbEntity
  8
0
  6
Continuous
 62
     7
370
    15
100
AcDbLine
 10
482.0861358617
 20
573.6752271989
 30
0.0
 11
482.0861358617
 21
580.7814121583
 31
0.0
  0
LINE
  5
DC
330
1F
100
AcDbEntity
  8
0
  6
Continuous
 62
     7
370
    15
100
AcDbLine
 10
1382.0861418222
 20
573.6752271989
 30
0.0
 11
1382.0861418222
 21
580.7814121583
 31
0.0
  0
LINE
  5
DD
330
1F
100
AcDbEntity
  8
0
  6
Continuous
 62
     7
370
    15
100
AcDbLine
 10
482.8861494039
 20
743.1351065972
 30
0.0
 11
482.8861494039
 21
1248.1351018289
 31
0.0
  0
LINE
  5
DE
330
1F
100
AcDbEntity
  8
0
  6
Continuous
 62
     7
370
    15
100
AcDbLine
 10
482.0861358617
 20
743.1351065972
 30
0.0
 11
482.0861358617
 21
1248.1351018289
 31
0.0
  0
LINE
  5
DF
330
1F
100
AcDbEntity
  8
0
  6
Continuous
 62
     7
370
    15
100
AcDbLine
 10
482.0861358617
 20
738.1351113656
 30
0.0
 11
482.8861494039
 21
738.1351113656
 31
0.0
  0
LINE
  5
E0
330
1F
100
AcDbEntity
  8
0
  6
Continuous
 62
     7
370
    15
100
AcDbLine
 10
482.8861494039
 20
738.1351113656
 30
0.0
 11
482.8861494039
 21
743.1351065972
 31
0.0
  0
LINE
  5
E1
330
1F
100
AcDbEntity
  8
0
  6
Continuous
 62
     7
370
    15
100
AcDbLine
 10
482.0861358617
 20
738.1351113656
 30
0.0
 11
482.0861358617
 21
743.1351065972
 31
0.0
  0
LINE
  5
E2
330
1F
100
AcDbEntity
  8
0
  6
Continuous
 62
     7
370
    15
100
AcDbLine
 10
482.0861358617
 20
1253.1350970605
 30
0.0
 11
482.8861494039
 21
1253.1350970605
 31
0.0
  0
LINE
  5
E3
330
1F
100
AcDbEntity
  8
0
  6
Continuous
 62
     7
370
    15
100
AcDbLine
 10
482.8861494039
 20
1248.1351018289
 30
0.0
 11
482.8861494039
 21
1253.1350970605
 31
0.0
  0
LINE
  5
E4
330
1F
100
AcDbEntity
  8
0
  6
Continuous
 62
     7
370
    15
100
AcDbLine
 10
482.0861358617
 20
1248.1351018289
 30
0.0
 11
482.0861358617
 21
1253.1350970605
 31
0.0
  0
LINE
  5
E5
330
1F
100
AcDbEntity
  8
0
  6
Continuous
 62
     7
370
    15
100
AcDbLine
 10
483.0861527894
 20
1253.1350970605
 30
0.0
 11
482.8861494039
 21
1253.1350970605
 31
0.0
  0
LINE
  5
E6
330
1F
100
AcDbEntity
  8
0
  6
Continuous
 62
     7
370
    15
100
AcDbLine
 10
482.8861494039
 20
738.1351113656
 30
0.0
 11
483.0861527894
 21
738.1351113656
 31
0.0
  0
LINE
  5
E7
330
1F
100
AcDbEntity
  8
0
  6
Continuous
 62
     7
370
    15
100
AcDbLine
 10
1382.0861418222
 20
1248.1351018289
 30
0.0
 11
1382.0861418222
 21
743.1351065972
 31
0.0
  0
LINE
  5
E8
330
1F
100
AcDbEntity
  8
0
  6
Continuous
 62
     7
370
    15
100
AcDbLine
 10
1381.28612828
 20
1248.1351018289
 30
0.0
 11
1381.28612828
 21
743.1351065972
 31
0.0
  0
LINE
  5
E9
330
1F
100
AcDbEntity
  8
0
  6
Continuous
 62
     7
370
    15
100
AcDbLine
 10
1382.0861418222
 20
1253.1350970605
 30
0.0
 11
1381.28612828
 21
1253.1350970605
 31
0.0
  0
LINE
  5
EA
330
1F
100
AcDbEntity
  8
0
  6
Continuous
 62
     7
370
    15
100
AcDbLine
 10
1381.28612828
 20
1253.1350970605
 30
0.0
 11
1381.28612828
 21
1248.1351018289
 31
0.0
  0
LINE
  5
EB
330
1F
100
AcDbEntity
  8
0
  6
Continuous
 62
     7
370
    15
100
AcDbLine
 10
1382.0861418222
 20
1253.1350970605
 30
0.0
 11
1382.0861418222
 21
1248.1351018289
 31
0.0
  0
LINE
  5
EC
330
1F
100
AcDbEntity
  8
0
  6
Continuous
 62
     7
370
    15
100
AcDbLine
 10
1382.0861418222
 20
738.1351113656
 30
0.0
 11
1381.28612828
 21
738.1351113656
 31
0.0
  0
LINE
  5
ED
330
1F
100
AcDbEntity
  8
0
  6
Continuous
 62
     7
370
    15
100
AcDbLine
 10
1381.28612828
 20
743.1351065972
 30
0.0
 11
1381.28612828
 21
738.1351113656
 31
0.0
  0
LINE
  5
EE
330
1F
100
AcDbEntity
  8
0
  6
Continuous
 62
     7
370
    15
100
AcDbLine
 10
1382.0861418222
 20
743.1351065972
 30
0.0
 11
1382.0861418222
 21
738.1351113656
 31
0.0
  0
LINE
  5
EF
330
1F
100
AcDbEntity
  8
0
  6
Continuous
 62
     7
370
    15
100
AcDbLine
 10
1381.0861546968
 20
738.1351113656
 30
0.0
 11
1381.28612828
 21
738.1351113656
 31
0.0
  0
LINE
  5
F0
330
1F
100
AcDbEntity
  8
0
  6
Continuous
 62
     7
370
    15
100
AcDbLine
 10
1381.28612828
 20
1253.1350970605
 30
0.0
 11
1381.0861546968
 21
1253.1350970605
 31
0.0
  0
LINE
  5
F1
330
1F
100
AcDbEntity
  8
0
  6
Continuous
 62
     7
370
    15
100
AcDbLine
 10
535.8361442064
 20
1351.6351104119
 30
0.0
 11
560.3361268018
 21
1351.6351104119
 31
0.0
  0
ARC
  5
F2
330
1F
100
AcDbEntity
  8
0
  6
Continuous
 62
     7
370
    15
100
AcDbCircle
 10
535.8361404224
 20
1350.3851083199
 30
0.0
 40
2.450000000000042
100
AcDbArc
 50
107.2505550123
 51
180.0
  0
ARC
  5
F3
330
1F
100
AcDbEntity
  8
0
  6
Continuous
 62
     7
370
    15
100
AcDbCircle
 10
535.8361404224
 20
1350.3851083199
 30
0.0
 40
1.250000000000227
100
AcDbArc
 50
90.0
 51
180.0
  0
LINE
  5
F4
330
1F
100
AcDbEntity
  8
0
  6
Continuous
 62
     7
370
    15
100
AcDbLine
 10
534.5861453985
 20
1324.4646311143
 30
0.0
 11
534.5861453985
 21
1350.385111604
 31
0.0
  0
LINE
  5
F5
330
1F
100
AcDbEntity
  8
0
  6
Continuous
 62
     7
370
    15
100
AcDbLine
 10
533.3861548875
 20
1324.4646311143
 30
0.0
 11
533.3861548875
 21
1350.385111604
 31
0.0
  0
ARC
  5
F6
330
1F
100
AcDbEntity
  8
0
  6
Continuous
 62
     7
370
    15
100
AcDbCircle
 10
560.3361404224
 20
1350.3851083199
 30
0.0
 40
1.25
100
AcDbArc
 50
0.0
 51
90.0
  0
ARC
  5
F7
330
1F
100
AcDbEntity
  8
0
  6
Continuous
 62
     7
370
    15
100
AcDbCircle
 10
560.3361404224
 20
1350.3851083199
 30
0.0
 40
2.449999999999975
100
AcDbArc
 50
0.0
 51
72.7494449877
  0
LINE
  5
F8
330
1F
100
AcDbEntity
  8
0
  6
Continuous
 62
     7
370
    15
100
AcDbLine
 10
561.5861256097
 20
1350.385111604
 30
0.0
 11
561.5861256097
 21
1324.4646311143
 31
0.0
  0
LINE
  5
F9
330
1F
100
AcDbEntity
  8
0
  6
Continuous
 62
     7
370
    15
100
AcDbLine
 10
562.786145923
 20
1350.385111604
 30
0.0
 11
562.786145923
 21
1324.4646311143
 31
0.0
  0
LINE
  5
FA
330
1F
100
AcDbEntity
  8
0
  6
Continuous
 62
     7
370
    15
100
AcDbLine
 10
1329.5861322854
 20
1324.4646311143
 30
0.0
 11
1329.5861322854
 21
1350.385111604
 31
0.0
  0
LINE
  5
FB
330
1F
100
AcDbEntity
  8
0
  6
Continuous
 62
     7
370
    15
100
AcDbLine
 10
1330.7861525987
 20
1324.4646311143
 30
0.0
 11
1330.7861525987
 21
1350.385111604
 31
0.0
  0
ARC
  5
FC
330
1F
100
AcDbEntity
  8
0
  6
Continuous
 62
     7
370
    15
100
AcDbCircle
 10
1328.3361404225
 20
1350.3851083198
 30
0.0
 40
1.250000000000227
100
AcDbArc
 50
0.0
 51
90.0
  0
ARC
  5
FD
330
1F
100
AcDbEntity
  8
0
  6
Continuous
 62
     7
370
    15
100
AcDbCircle
 10
1328.3361404225
 20
1350.3851083198
 30
0.0
 40
2.450000000000045
100
AcDbArc
 50
0.0
 51
72.7494449909
  0
LINE
  5
FE
330
1F
100
AcDbEntity
  8
0
  6
Continuous
 62
     7
370
    15
100
AcDbLine
 10
1301.3861317609
 20
1324.4646311143
 30
0.0
 11
1301.3861317609
 21
1350.385111604
 31
0.0
  0
LINE
  5
FF
330
1F
100
AcDbEntity
  8
0
  6
Continuous
 62
     7
370
    15
100
AcDbLine
 10
1302.5861520742
 20
1324.4646311143
 30
0.0
 11
1302.5861520742
 21
1350.385111604
 31
0.0
  0
LINE
  5
100
330
1F
100
AcDbEntity
  8
0
  6
Continuous
 62
     7
370
    15
100
AcDbLine
 10
1328.3361334775
 20
1351.6351104119
 30
0.0
 11
1303.8361508821
 21
1351.6351104119
 31
0.0
  0
ARC
  5
101
330
1F
100
AcDbEntity
  8
0
  6
Continuous
 62
     7
370
    15
100
AcDbCircle
 10
1303.8361404225
 20
1350.3851083198
 30
0.0
 40
2.450000000000206
100
AcDbArc
 50
107.2505550094
 51
180.0
  0
ARC
  5
102
330
1F
100
AcDbEntity
  8
0
  6
Continuous
 62
     7
370
    15
100
AcDbCircle
 10
1303.8361404225
 20
1350.3851083198
 30
0.0
 40
1.25
100
AcDbArc
 50
90.0
 51
180.0
  0
LINE
  5
103
330
1F
100
AcDbEntity
  8
0
  6
Continuous
 62
     7
370
    15
100
AcDbLine
 10
1382.0861418222
 20
1360.1351201871
 30
0.0
 11
482.0861358617
 21
1360.1351201871
 31
0.0
  0
LINE
  5
104
330
1F
100
AcDbEntity
  8
0
  6
Continuous
 62
     7
370
    15
100
AcDbLine
 10
482.0861358617
 20
1360.1351201871
 30
0.0
 11
482.0861358617
 21
1357.5545370916
 31
0.0
  0
LINE
  5
105
330
1F
100
AcDbEntity
  8
0
  6
Continuous
 62
     7
370
    15
100
AcDbLine
 10
1382.0861418222
 20
1360.1351201871
 30
0.0
 11
1382.0861418222
 21
1357.5545370916
 31
0.0
  0
ARC
  5
106
330
1F
100
AcDbEntity
  8
0
  6
Continuous
 62
     7
370
    15
100
AcDbCircle
 10
966.569604885
 20
1329.2350799995
 30
0.0
 40
5.000833578336837
100
AcDbArc
 50
275.5351888234
 51
331.7838724164
  0
LINE
  5
107
330
1F
100
AcDbEntity
  8
0
  6
Continuous
 62
     7
370
    15
100
AcDbLine
 10
970.9761914287
 20
1326.87069181
 30
0.0
 11
980.8914464389
 21
1345.7062661985
 31
0.0
  0
ARC
  5
108
330
1F
100
AcDbEntity
  8
0
  6
Continuous
 62
     7
370
    15
100
AcDbCircle
 10
976.5683752501
 20
1347.8854734264
 30
0.0
 40
4.841269321723176
100
AcDbArc
 50
333.2478867028
 51
91.584357444
  0
LINE
  5
109
330
1F
100
AcDbEntity
  8
0
  6
Continuous
 62
     7
370
    15
100
AcDbLine
 10
976.4345203017
 20
1352.7248919347
 30
0.0
 11
897.6530161176
 21
1352.7248919347
 31
0.0
  0
ARC
  5
10A
330
1F
100
AcDbEntity
  8
0
  6
Continuous
 62
     7
370
    15
100
AcDbCircle
 10
897.6170391173
 20
1347.7040175855
 30
0.0
 40
5.02100324390167
100
AcDbArc
 50
89.5894549723
 51
151.7016726277
  0
LINE
  5
10B
330
1F
100
AcDbEntity
  8
0
  6
Continuous
 62
     7
370
    15
100
AcDbLine
 10
893.1960899804
 20
1350.0842869619
 30
0.0
 11
883.2808349703
 21
1331.2487423757
 31
0.0
  0
ARC
  5
10C
330
1F
100
AcDbEntity
  8
0
  6
Continuous
 62
     7
370
    15
100
AcDbCircle
 10
887.5800305515
 20
1329.0649836929
 30
0.0
 40
4.822020803501773
100
AcDbArc
 50
153.0718952987
 51
265.5400058527
  0
ARC
  5
10D
330
1F
100
AcDbEntity
  8
0
  6
Continuous
 62
     7
370
    15
100
AcDbCircle
 10
866.5696077991
 20
1329.235072698
 30
0.0
 40
5.000826245361367
100
AcDbArc
 50
275.5351891508
 51
331.783922274
  0
LINE
  5
10E
330
1F
100
AcDbEntity
  8
0
  6
Continuous
 62
     7
370
    15
100
AcDbLine
 10
870.9761899386
 20
1326.87069181
 30
0.0
 11
880.8914449488
 21
1345.7062661985
 31
0.0
  0
ARC
  5
10F
330
1F
100
AcDbEntity
  8
0
  6
Continuous
 62
     7
370
    15
100
AcDbCircle
 10
876.5683784963
 20
1347.8854764341
 30
0.0
 40
4.841266446184386
100
AcDbArc
 50
333.2478296861
 51
91.5844144607
  0
LINE
  5
110
330
1F
100
AcDbEntity
  8
0
  6
Continuous
 62
     7
370
    15
100
AcDbLine
 10
876.4345188115
 20
1352.7248919347
 30
0.0
 11
797.6530183528
 21
1352.7248919347
 31
0.0
  0
ARC
  5
111
330
1F
100
AcDbEntity
  8
0
  6
Continuous
 62
     7
370
    15
100
AcDbCircle
 10
797.6170373003
 20
1347.7040306619
 30
0.0
 40
5.020990196794876
100
AcDbArc
 50
89.5894076632
 51
151.70176194
  0
LINE
  5
112
330
1F
100
AcDbEntity
  8
0
  6
Continuous
 62
     7
370
    15
100
AcDbLine
 10
793.1960959409
 20
1350.0842869619
 30
0.0
 11
783.2808334802
 21
1331.2487423757
 31
0.0
  0
ARC
  5
113
330
1F
100
AcDbEntity
  8
0
  6
Continuous
 62
     7
370
    15
100
AcDbCircle
 10
787.5800276173
 20
1329.0649828824
 30
0.0
 40
4.822019883111595
100
AcDbArc
 50
153.0718789414
 51
265.54002221
  0
ARC
  5
114
330
1F
100
AcDbEntity
  8
0
  6
Continuous
 62
     7
370
    15
100
AcDbCircle
 10
766.5696221388
 20
1329.235044019
 30
0.0
 40
5.000795454633495
100
AcDbArc
 50
275.5349553573
 51
331.7841058825
  0
LINE
  5
115
330
1F
100
AcDbEntity
  8
0
  6
Continuous
 62
     7
370
    15
100
AcDbLine
 10
770.9761847232
 20
1326.87069181
 30
0.0
 11
780.8914471839
 21
1345.7062661985
 31
0.0
  0
ARC
  5
116
330
1F
100
AcDbEntity
  8
0
  6
Continuous
 62
     7
370
    15
100
AcDbCircle
 10
776.568377551
 20
1347.8854743433
 30
0.0
 40
4.841268345163356
100
AcDbArc
 50
333.2478687244
 51
91.5843320786
  0
LINE
  5
117
330
1F
100
AcDbEntity
  8
0
  6
Continuous
 62
     7
370
    15
100
AcDbLine
 10
776.434524772
 20
1352.7248919347
 30
0.0
 11
697.6530094121
 21
1352.7248919347
 31
0.0
  0
ARC
  5
118
330
1F
100
AcDbEntity
  8
0
  6
Continuous
 62
     7
370
    15
100
AcDbCircle
 10
697.6170437801
 20
1347.7040046346
 30
0.0
 40
5.021016112986332
100
AcDbArc
 50
89.5895857532
 51
151.70158385
  0
LINE
  5
119
330
1F
100
AcDbEntity
  8
0
  6
Continuous
 62
     7
370
    15
100
AcDbLine
 10
693.1960870002
 20
1350.0842869619
 30
0.0
 11
683.2808394407
 21
1331.2487423757
 31
0.0
  0
ARC
  5
11A
330
1F
100
AcDbEntity
  8
0
  6
Continuous
 62
     7
370
    15
100
AcDbCircle
 10
687.5800261953
 20
1329.0649787385
 30
0.0
 40
4.822015177700735
100
AcDbArc
 50
153.071795316
 51
265.5401058354
  0
ARC
  5
11B
330
1F
100
AcDbEntity
  8
0
  6
Continuous
 62
     7
370
    15
100
AcDbCircle
 10
666.5695855501
 20
1329.2351302942
 30
0.0
 40
5.000886869015629
100
AcDbArc
 50
275.5355151639
 51
331.7835460759
  0
LINE
  5
11C
330
1F
100
AcDbEntity
  8
0
  6
Continuous
 62
     7
370
    15
100
AcDbLine
 10
670.9762055848
 20
1326.87069181
 30
0.0
 11
680.8914382432
 21
1345.7062661985
 31
0.0
  0
ARC
  5
11D
330
1F
100
AcDbEntity
  8
0
  6
Continuous
 62
     7
370
    15
100
AcDbCircle
 10
676.5683690875
 20
1347.8854743622
 30
0.0
 40
4.841267927545046
100
AcDbArc
 50
333.2478659831
 51
91.584161444
  0
LINE
  5
11E
330
1F
100
AcDbEntity
  8
0
  6
Continuous
 62
     7
370
    15
100
AcDbLine
 10
676.4345307325
 20
1352.7248919347
 30
0.0
 11
597.6530153726
 21
1352.7248919347
 31
0.0
  0
ARC
  5
11F
330
1F
100
AcDbEntity
  8
0
  6
Continuous
 62
     7
370
    15
100
AcDbCircle
 10
597.617061265
 20
1347.7039602352
 30
0.0
 40
5.021060428746375
100
AcDbArc
 50
89.5897208858
 51
151.7012807048
  0
LINE
  5
120
330
1F
100
AcDbEntity
  8
0
  6
Continuous
 62
     7
370
    15
100
AcDbLine
 10
593.1960780595
 20
1350.0842869619
 30
0.0
 11
583.2808454011
 21
1331.2487423757
 31
0.0
  0
ARC
  5
121
330
1F
100
AcDbEntity
  8
0
  6
Continuous
 62
     7
370
    15
100
AcDbCircle
 10
587.5800395382
 20
1329.0649828824
 30
0.0
 40
4.822019883111595
100
AcDbArc
 50
153.0718789414
 51
265.54002221
  0
ARC
  5
122
330
1F
100
AcDbEntity
  8
0
  6
Continuous
 62
     7
370
    15
100
AcDbCircle
 10
566.5696292223
 20
1329.235028906
 30
0.0
 40
5.000779441422342
100
AcDbArc
 50
275.5348572926
 51
331.7842039472
  0
LINE
  5
123
330
1F
100
AcDbEntity
  8
0
  6
Continuous
 62
     7
370
    15
100
AcDbLine
 10
570.976181743
 20
1326.87069181
 30
0.0
 11
580.8914442037
 21
1345.7062661985
 31
0.0
  0
ARC
  5
124
330
1F
100
AcDbEntity
  8
0
  6
Continuous
 62
     7
370
    15
100
AcDbCircle
 10
576.5683740935
 20
1347.8854743245
 30
0.0
 40
4.841268762830724
100
AcDbArc
 50
333.247871466
 51
91.5845027124
  0
LINE
  5
125
330
1F
100
AcDbEntity
  8
0
  6
Continuous
 62
     7
370
    15
100
AcDbLine
 10
576.4345068906
 20
1352.7248919347
 30
0.0
 11
507.0861418222
 21
1352.7248919347
 31
0.0
  0
ARC
  5
126
330
1F
100
AcDbEntity
  8
0
  6
Continuous
 62
     7
370
    15
100
AcDbCircle
 10
507.0023761815
 20
1347.8086120972
 30
0.0
 40
4.916993402795714
100
AcDbArc
 50
89.0238648969
 51
178.9900807602
  0
LINE
  5
127
330
1F
100
AcDbEntity
  8
0
  6
Continuous
 62
     7
370
    15
100
AcDbLine
 10
502.0861465905
 20
1347.8952765802
 30
0.0
 11
502.0861465905
 21
1329.059731994
 31
0.0
  0
ARC
  5
128
330
1F
100
AcDbEntity
  8
0
  6
Continuous
 62
     7
370
    15
100
AcDbCircle
 10
506.9808261336
 20
1329.1341155395
 30
0.0
 40
4.895244706984186
100
AcDbArc
 50
180.8706464131
 51
264.9911630343
  0
LINE
  5
129
330
1F
100
AcDbEntity
  8
0
  6
Continuous
 62
     7
370
    15
100
AcDbLine
 10
482.0861358617
 20
1357.5545370916
 30
0.0
 11
482.0861358617
 21
1324.2575645784
 31
0.0
  0
LINE
  5
12A
330
1F
100
AcDbEntity
  8
0
  6
Continuous
 62
     7
370
    15
100
AcDbLine
 10
1382.0861418222
 20
1357.5545370916
 30
0.0
 11
1382.0861418222
 21
1324.2575645784
 31
0.0
  0
ARC
  5
12B
330
1F
100
AcDbEntity
  8
0
  6
Continuous
 62
     7
370
    15
100
AcDbCircle
 10
1357.1914515503
 20
1329.1341155395
 30
0.0
 40
4.895244706984244
100
AcDbArc
 50
275.0088369657
 51
359.1293535869
  0
LINE
  5
12C
330
1F
100
AcDbEntity
  8
0
  6
Continuous
 62
     7
370
    15
100
AcDbLine
 10
1362.0861310933
 20
1329.059731994
 30
0.0
 11
1362.0861310933
 21
1347.8952765802
 31
0.0
  0
ARC
  5
12D
330
1F
100
AcDbEntity
  8
0
  6
Continuous
 62
     7
370
    15
100
AcDbCircle
 10
1357.1699015024
 20
1347.8086120972
 30
0.0
 40
4.916993402795717
100
AcDbArc
 50
1.0099192398
 51
90.9761351031
  0
LINE
  5
12E
330
1F
100
AcDbEntity
  8
0
  6
Continuous
 62
     7
370
    15
100
AcDbLine
 10
1357.0861358617
 20
1352.7248919347
 30
0.0
 11
1297.6530034517
 21
1352.7248919347
 31
0.0
  0
ARC
  5
12F
330
1F
100
AcDbEntity
  8
0
  6
Continuous
 62
     7
370
    15
100
AcDbCircle
 10
1297.6170262955
 20
1347.7040490332
 30
0.0
 40
5.020971798051594
100
AcDbArc
 50
89.5894506222
 51
151.7018869944
  0
LINE
  5
130
330
1F
100
AcDbEntity
  8
0
  6
Continuous
 62
     7
370
    15
100
AcDbLine
 10
1293.1960959409
 20
1350.0842869619
 30
0.0
 11
1283.2808334802
 21
1331.2487423757
 31
0.0
  0
ARC
  5
131
330
1F
100
AcDbEntity
  8
0
  6
Continuous
 62
     7
370
    15
100
AcDbCircle
 10
1287.5800276173
 20
1329.0649828824
 30
0.0
 40
4.822019883111495
100
AcDbArc
 50
153.0718789414
 51
265.54002221
  0
ARC
  5
132
330
1F
100
AcDbEntity
  8
0
  6
Continuous
 62
     7
370
    15
100
AcDbCircle
 10
1266.5696009675
 20
1329.2350981903
 30
0.0
 40
5.00085285273662
100
AcDbArc
 50
275.5353068565
 51
331.7837543833
  0
LINE
  5
133
330
1F
100
AcDbEntity
  8
0
  6
Continuous
 62
     7
370
    15
100
AcDbLine
 10
1270.9761996244
 20
1326.87069181
 30
0.0
 11
1280.8914322828
 21
1345.7062661985
 31
0.0
  0
ARC
  5
134
330
1F
100
AcDbEntity
  8
0
  6
Continuous
 62
     7
370
    15
100
AcDbCircle
 10
1276.5683777606
 20
1347.8854836547
 30
0.0
 40
4.84125904318158
100
AcDbArc
 50
333.2476898222
 51
91.5843376049
  0
LINE
  5
135
330
1F
100
AcDbEntity
  8
0
  6
Continuous
 62
     7
370
    15
100
AcDbLine
 10
1276.434524772
 20
1352.7248919347
 30
0.0
 11
1197.6530094121
 21
1352.7248919347
 31
0.0
  0
ARC
  5
136
330
1F
100
AcDbEntity
  8
0
  6
Continuous
 62
     7
370
    15
100
AcDbCircle
 10
1197.6170195714
 20
1347.7040704426
 30
0.0
 40
5.020950480123903
100
AcDbArc
 50
89.589304128
 51
151.7020334886
  0
LINE
  5
137
330
1F
100
AcDbEntity
  8
0
  6
Continuous
 62
     7
370
    15
100
AcDbLine
 10
1193.1961019014
 20
1350.0842869619
 30
0.0
 11
1183.2808394407
 21
1331.2487423757
 31
0.0
  0
ARC
  5
138
330
1F
100
AcDbEntity
  8
0
  6
Continuous
 62
     7
370
    15
100
AcDbCircle
 10
1187.5800335778
 20
1329.0649828824
 30
0.0
 40
4.822019883111495
100
AcDbArc
 50
153.0718789414
 51
265.54002221
  0
ARC
  5
139
330
1F
100
AcDbEntity
  8
0
  6
Continuous
 62
     7
370
    15
100
AcDbCircle
 10
1166.5696150952
 20
1329.2350635476
 30
0.0
 40
5.000816146426657
100
AcDbArc
 50
275.5350820725
 51
331.7839791673
  0
LINE
  5
13A
330
1F
100
AcDbEntity
  8
0
  6
Continuous
 62
     7
370
    15
100
AcDbLine
 10
1170.9761906837
 20
1326.87069181
 30
0.0
 11
1180.8914382432
 21
1345.7062661985
 31
0.0
  0
ARC
  5
13B
330
1F
100
AcDbEntity
  8
0
  6
Continuous
 62
     7
370
    15
100
AcDbCircle
 10
1176.5683875556
 20
1347.8854863739
 30
0.0
 40
4.84125684307236
100
AcDbArc
 50
333.2476406576
 51
91.5845601453
  0
LINE
  5
13C
330
1F
100
AcDbEntity
  8
0
  6
Continuous
 62
     7
370
    15
100
AcDbLine
 10
1176.4345158313
 20
1352.7248919347
 30
0.0
 11
1097.6530153726
 21
1352.7248919347
 31
0.0
  0
ARC
  5
13D
330
1F
100
AcDbEntity
  8
0
  6
Continuous
 62
     7
370
    15
100
AcDbCircle
 10
1097.6170343201
 20
1347.7040306619
 30
0.0
 40
5.020990196794848
100
AcDbArc
 50
89.5894076632
 51
151.70176194
  0
LINE
  5
13E
330
1F
100
AcDbEntity
  8
0
  6
Continuous
 62
     7
370
    15
100
AcDbLine
 10
1093.1960929607
 20
1350.0842869619
 30
0.0
 11
1083.2808305
 21
1331.2487423757
 31
0.0
  0
ARC
  5
13F
330
1F
100
AcDbEntity
  8
0
  6
Continuous
 62
     7
370
    15
100
AcDbCircle
 10
1087.5800377958
 20
1329.0649902685
 30
0.0
 40
4.822028270165118
100
AcDbArc
 50
153.0720279967
 51
265.5398731546
  0
ARC
  5
140
330
1F
100
AcDbEntity
  8
0
  6
Continuous
 62
     7
370
    15
100
AcDbCircle
 10
1066.5695872984
 20
1329.235114242
 30
0.0
 40
5.000869860622901
100
AcDbArc
 50
275.5354110091
 51
331.7836502307
  0
LINE
  5
141
330
1F
100
AcDbEntity
  8
0
  6
Continuous
 62
     7
370
    15
100
AcDbLine
 10
1070.9761966441
 20
1326.87069181
 30
0.0
 11
1080.8914442037
 21
1345.7062661985
 31
0.0
  0
ARC
  5
142
330
1F
100
AcDbEntity
  8
0
  6
Continuous
 62
     7
370
    15
100
AcDbCircle
 10
1076.5683745708
 20
1347.8854743433
 30
0.0
 40
4.841268345163353
100
AcDbArc
 50
333.2478687244
 51
91.5843320786
  0
LINE
  5
143
330
1F
100
AcDbEntity
  8
0
  6
Continuous
 62
     7
370
    15
100
AcDbLine
 10
1076.4345217918
 20
1352.7248919347
 30
0.0
 11
997.6530138825
 21
1352.7248919347
 31
0.0
  0
ARC
  5
144
330
1F
100
AcDbEntity
  8
0
  6
Continuous
 62
     7
370
    15
100
AcDbCircle
 10
997.6170407373
 20
1347.7040110786
 30
0.0
 40
5.02100972295078
100
AcDbArc
 50
89.5894994948
 51
151.7016281052
  0
LINE
  5
145
330
1F
100
AcDbEntity
  8
0
  6
Continuous
 62
     7
370
    15
100
AcDbLine
 10
993.1960877453
 20
1350.0842869619
 30
0.0
 11
983.2808364604
 21
1331.2487423757
 31
0.0
  0
ARC
  5
146
330
1F
100
AcDbEntity
  8
0
  6
Continuous
 62
     7
370
    15
100
AcDbCircle
 10
987.5800287519
 20
1329.0649818464
 30
0.0
 40
4.822018706753132
100
AcDbArc
 50
153.071858035
 51
265.5400431164
  0
LWPOLYLINE
  5
147
330
1F
100
AcDbEntity
  8
0
  6
Continuous
 62
     7
370
    15
100
AcDbPolyline
 90
        3
 70
   128
 43
0.0
 10
1280.8914322828
 20
1345.9133029321
 10
1281.3191254113
 20
1347.0707357267
 10
1281.4333577131
 20
1347.9988098481
  0
LWPOLYLINE
  5
148
330
1F
100
AcDbEntity
  8
0
  6
Continuous
 62
     7
370
    15
100
AcDbPolyline
 90
        3
 70
   128
 43
0.0
 10
1080.8914442037
 20
1345.9133029321
 10
1081.3191373323
 20
1347.0707357267
 10
1081.433369634
 20
1347.9988098481
  0
LWPOLYLINE
  5
149
330
1F
100
AcDbEntity
  8
0
  6
Continuous
 62
     7
370
    15
100
AcDbPolyline
 90
        3
 70
   128
 43
0.0
 10
1180.8914382432
 20
1345.9133029321
 10
1181.3191313718
 20
1347.0707357267
 10
1181.4333636735
 20
1347.9988098481
  0
LWPOLYLINE
  5
14A
330
1F
100
AcDbEntity
  8
0
  6
Continuous
 62
     7
370
    15
100
AcDbPolyline
 90
        3
 70
   128
 43
0.0
 10
980.8914464389
 20
1345.9133029321
 10
981.3191321169
 20
1347.0707357267
 10
981.4333718692
 20
1347.9988098481
  0
LWPOLYLINE
  5
14B
330
1F
100
AcDbEntity
  8
0
  6
Continuous
 62
     7
370
    15
100
AcDbPolyline
 90
        3
 70
   128
 43
0.0
 10
780.8914471839
 20
1345.9133029321
 10
781.3191254113
 20
1347.0707357267
 10
781.4333726142
 20
1347.9988098481
  0
LWPOLYLINE
  5
14C
330
1F
100
AcDbEntity
  8
0
  6
Continuous
 62
     7
370
    15
100
AcDbPolyline
 90
        3
 70
   128
 43
0.0
 10
880.8914449488
 20
1345.9133029321
 10
881.3191306268
 20
1347.0707357267
 10
881.433370379
 20
1347.9988098481
  0
LWPOLYLINE
  5
14D
330
1F
100
AcDbEntity
  8
0
  6
Continuous
 62
     7
370
    15
100
AcDbPolyline
 90
        3
 70
   128
 43
0.0
 10
580.8914442037
 20
1345.9133029321
 10
581.3191373323
 20
1347.0707357267
 10
581.433369634
 20
1347.9988098481
  0
LWPOLYLINE
  5
14E
330
1F
100
AcDbEntity
  8
0
  6
Continuous
 62
     7
370
    15
100
AcDbPolyline
 90
        3
 70
   128
 43
0.0
 10
680.8914382432
 20
1345.9133029321
 10
681.3191313718
 20
1347.0707357267
 10
681.4333636735
 20
1347.9988098481
  0
LINE
  5
14F
330
1F
100
AcDbEntity
  8
0
  6
Continuous
 62
     7
370
    15
100
AcDbLine
 10
1270.9761996244
 20
1327.0777583459
 30
0.0
 11
1280.8914322828
 21
1345.9133029321
 31
0.0
  0
LINE
  5
150
330
1F
100
AcDbEntity
  8
0
  6
Continuous
 62
     7
370
    15
100
AcDbLine
 10
770.9761847232
 20
1327.0777583459
 30
0.0
 11
780.8914471839
 21
1345.9133029321
 31
0.0
  0
LINE
  5
151
330
1F
100
AcDbEntity
  8
0
  6
Continuous
 62
     7
370
    15
100
AcDbLine
 10
1070.9761966441
 20
1327.0777583459
 30
0.0
 11
1080.8914442037
 21
1345.9133029321
 31
0.0
  0
LINE
  5
152
330
1F
100
AcDbEntity
  8
0
  6
Continuous
 62
     7
370
    15
100
AcDbLine
 10
970.9761914287
 20
1327.0777583459
 30
0.0
 11
980.8914464389
 21
1345.9133029321
 31
0.0
  0
LINE
  5
153
330
1F
100
AcDbEntity
  8
0
  6
Continuous
 62
     7
370
    15
100
AcDbLine
 10
870.9761899386
 20
1327.0777583459
 30
0.0
 11
880.8914449488
 21
1345.9133029321
 31
0.0
  0
LINE
  5
154
330
1F
100
AcDbEntity
  8
0
  6
Continuous
 62
     7
370
    15
100
AcDbLine
 10
1170.9761906837
 20
1327.0777583459
 30
0.0
 11
1180.8914382432
 21
1345.9133029321
 31
0.0
  0
LINE
  5
155
330
1F
100
AcDbEntity
  8
0
  6
Continuous
 62
     7
370
    15
100
AcDbLine
 10
570.976181743
 20
1327.0777583459
 30
0.0
 11
580.8914442037
 21
1345.9133029321
 31
0.0
  0
LINE
  5
156
330
1F
100
AcDbEntity
  8
0
  6
Continuous
 62
     7
370
    15
100
AcDbLine
 10
670.9762055848
 20
1327.0777583459
 30
0.0
 11
680.8914382432
 21
1345.9133029321
 31
0.0
  0
LINE
  5
157
330
1F
100
AcDbEntity
  8
0
  6
Continuous
 62
     7
370
    15
100
AcDbLine
 10
1187.7377469514
 20
1324.2300868371
 30
0.0
 11
1187.2050602411
 21
1324.2575645784
 31
0.0
  0
ARC
  5
158
330
1F
100
AcDbEntity
  8
0
  6
Continuous
 62
     7
370
    15
100
AcDbCircle
 10
1187.7371742461
 20
1329.6031531939
 30
0.0
 40
5.165999852606973
100
AcDbArc
 50
264.0878711733
 51
270.0063518384
  0
ARC
  5
159
330
1F
100
AcDbEntity
  8
0
  6
Continuous
 62
     7
370
    15
100
AcDbCircle
 10
1187.6349143466
 20
1329.3451152074
 30
0.0
 40
4.899377464000094
100
AcDbArc
 50
182.1274819174
 51
264.9665985736
  0
LINE
  5
15A
330
1F
100
AcDbEntity
  8
0
  6
Continuous
 62
     7
370
    15
100
AcDbLine
 10
687.7377618526
 20
1324.2300868371
 30
0.0
 11
687.2050602411
 21
1324.2575645784
 31
0.0
  0
ARC
  5
15B
330
1F
100
AcDbEntity
  8
0
  6
Continuous
 62
     7
370
    15
100
AcDbCircle
 10
687.7372040509
 20
1329.6037306941
 30
0.0
 40
5.166577351136102
100
AcDbArc
 50
264.0882020685
 51
270.006185852
  0
ARC
  5
15C
330
1F
100
AcDbEntity
  8
0
  6
Continuous
 62
     7
370
    15
100
AcDbCircle
 10
687.6349338304
 20
1329.3451337273
 30
0.0
 40
4.899397621999657
100
AcDbArc
 50
182.1276898901
 51
264.966390601
  0
LINE
  5
15D
330
1F
100
AcDbEntity
  8
0
  6
Continuous
 62
     7
370
    15
100
AcDbLine
 10
1087.737767813
 20
1324.2300868371
 30
0.0
 11
1087.2050513004
 21
1324.2575645784
 31
0.0
  0
ARC
  5
15E
330
1F
100
AcDbEntity
  8
0
  6
Continuous
 62
     7
370
    15
100
AcDbCircle
 10
1087.7371951781
 20
1329.6037317037
 30
0.0
 40
5.166578362417097
100
AcDbArc
 50
264.0882024729
 51
270.0063503472
  0
ARC
  5
15F
330
1F
100
AcDbEntity
  8
0
  6
Continuous
 62
     7
370
    15
100
AcDbCircle
 10
1087.6349507381
 20
1329.3451582968
 30
0.0
 40
4.899424364749253
100
AcDbArc
 50
182.1279657948
 51
264.9661146963
  0
LINE
  5
160
330
1F
100
AcDbEntity
  8
0
  6
Continuous
 62
     7
370
    15
100
AcDbLine
 10
887.7377611075
 20
1324.2300868371
 30
0.0
 11
887.2050557707
 21
1324.2575645784
 31
0.0
  0
ARC
  5
161
330
1F
100
AcDbEntity
  8
0
  6
Continuous
 62
     7
370
    15
100
AcDbCircle
 10
887.7372020646
 20
1329.6037787755
 30
0.0
 40
5.16662543270943
100
AcDbArc
 50
264.0882295867
 51
270.0061995595
  0
ARC
  5
162
330
1F
100
AcDbEntity
  8
0
  6
Continuous
 62
     7
370
    15
100
AcDbCircle
 10
887.6349465148
 20
1329.3451500333
 30
0.0
 40
4.899415370246647
100
AcDbArc
 50
182.127872999
 51
264.966207492
  0
LINE
  5
163
330
1F
100
AcDbEntity
  8
0
  6
Continuous
 62
     7
370
    15
100
AcDbLine
 10
987.7377625976
 20
1324.2300868371
 30
0.0
 11
987.2050572608
 21
1324.2575645784
 31
0.0
  0
ARC
  5
164
330
1F
100
AcDbEntity
  8
0
  6
Continuous
 62
     7
370
    15
100
AcDbCircle
 10
987.7372010875
 20
1329.6037309447
 30
0.0
 40
5.166577602135664
100
AcDbArc
 50
264.088202169
 51
270.0062269772
  0
ARC
  5
165
330
1F
100
AcDbEntity
  8
0
  6
Continuous
 62
     7
370
    15
100
AcDbCircle
 10
987.6349453654
 20
1329.3451475244
 30
0.0
 40
4.899412639420247
100
AcDbArc
 50
182.1278448252
 51
264.9662356659
  0
LINE
  5
166
330
1F
100
AcDbEntity
  8
0
  6
Continuous
 62
     7
370
    15
100
AcDbLine
 10
787.7377558921
 20
1324.2300868371
 30
0.0
 11
787.2050542806
 21
1324.2575645784
 31
0.0
  0
ARC
  5
167
330
1F
100
AcDbEntity
  8
0
  6
Continuous
 62
     7
370
    15
100
AcDbCircle
 10
787.7371980904
 20
1329.6037306941
 30
0.0
 40
5.166577351136102
100
AcDbArc
 50
264.0882020685
 51
270.006185852
  0
ARC
  5
168
330
1F
100
AcDbEntity
  8
0
  6
Continuous
 62
     7
370
    15
100
AcDbCircle
 10
787.6349537183
 20
1329.3451582968
 30
0.0
 40
4.899424364749263
100
AcDbArc
 50
182.1279657948
 51
264.9661146963
  0
LINE
  5
169
330
1F
100
AcDbEntity
  8
0
  6
Continuous
 62
     7
370
    15
100
AcDbLine
 10
1287.7377707933
 20
1324.2300868371
 30
0.0
 11
1287.2050542806
 21
1324.2575645784
 31
0.0
  0
ARC
  5
16A
330
1F
100
AcDbEntity
  8
0
  6
Continuous
 62
     7
370
    15
100
AcDbCircle
 10
1287.7372278992
 20
1329.6043082962
 30
0.0
 40
5.167154951605666
100
AcDbArc
 50
264.0885329619
 51
270.0060198581
  0
ARC
  5
16B
330
1F
100
AcDbEntity
  8
0
  6
Continuous
 62
     7
370
    15
100
AcDbCircle
 10
1287.6349295021
 20
1329.3451352787
 30
0.0
 40
4.899399310559159
100
AcDbArc
 50
182.127707311
 51
264.96637318
  0
LINE
  5
16C
330
1F
100
AcDbEntity
  8
0
  6
Continuous
 62
     7
370
    15
100
AcDbLine
 10
587.7377529119
 20
1324.2300868371
 30
0.0
 11
587.2050662015
 21
1324.2575645784
 31
0.0
  0
ARC
  5
16D
330
1F
100
AcDbEntity
  8
0
  6
Continuous
 62
     7
370
    15
100
AcDbCircle
 10
587.7371802066
 20
1329.6031531939
 30
0.0
 40
5.165999852606966
100
AcDbArc
 50
264.0878711733
 51
270.0063518384
  0
ARC
  5
16E
330
1F
100
AcDbEntity
  8
0
  6
Continuous
 62
     7
370
    15
100
AcDbCircle
 10
587.634920307
 20
1329.3451152074
 30
0.0
 40
4.899377464000155
100
AcDbArc
 50
182.1274819174
 51
264.9665985736
  0
LINE
  5
16F
330
1F
100
AcDbEntity
  8
0
  6
Continuous
 62
     7
370
    15
100
AcDbLine
 10
1357.6188523744
 20
1324.2575645784
 30
0.0
 11
1357.0861358617
 21
1324.2300868371
 31
0.0
  0
ARC
  5
170
330
1F
100
AcDbEntity
  8
0
  6
Continuous
 62
     7
370
    15
100
AcDbCircle
 10
1357.0866787558
 20
1329.6043082962
 30
0.0
 40
5.167154951605682
100
AcDbArc
 50
269.9939801419
 51
275.9114670381
  0
ARC
  5
171
330
1F
100
AcDbEntity
  8
0
  6
Continuous
 62
     7
370
    15
100
AcDbCircle
 10
1357.1914992163
 20
1329.341138195
 30
0.0
 40
4.895196832583433
100
AcDbArc
 50
275.0083260319
 51
359.1295098681
  0
ARC
  5
172
330
1F
100
AcDbEntity
  8
0
  6
Continuous
 62
     7
370
    15
100
AcDbCircle
 10
507.0867939961
 20
1329.4204107854
 30
0.0
 40
5.190323989221065
100
AcDbArc
 50
264.1017521424
 51
269.9928006777
  0
ARC
  5
173
330
1F
100
AcDbEntity
  8
0
  6
Continuous
 62
     7
370
    15
100
AcDbCircle
 10
507.0855989281
 20
1329.6043082962
 30
0.0
 40
5.167154951605671
100
AcDbArc
 50
264.0885329619
 51
270.0060198581
  0
ARC
  5
174
330
1F
100
AcDbEntity
  8
0
  6
Continuous
 62
     7
370
    15
100
AcDbCircle
 10
506.9807784676
 20
1329.341138195
 30
0.0
 40
4.895196832583443
100
AcDbArc
 50
180.8704901319
 51
264.9916739681
  0
LINE
  5
175
330
1F
100
AcDbEntity
  8
0
  6
Continuous
 62
     7
370
    15
100
AcDbLine
 10
1267.051978824
 20
1324.2575645784
 30
0.0
 11
1266.5192623113
 21
1324.2300868371
 31
0.0
  0
ARC
  5
176
330
1F
100
AcDbEntity
  8
0
  6
Continuous
 62
     7
370
    15
100
AcDbCircle
 10
1266.5198052054
 20
1329.6043082962
 30
0.0
 40
5.167154951605682
100
AcDbArc
 50
269.9939801419
 51
275.9114670381
  0
ARC
  5
177
330
1F
100
AcDbEntity
  8
0
  6
Continuous
 62
     7
370
    15
100
AcDbCircle
 10
1266.5696989074
 20
1329.4420176465
 30
0.0
 40
5.000697012294371
100
AcDbArc
 50
275.5343524865
 51
331.7847087533
  0
LINE
  5
178
330
1F
100
AcDbEntity
  8
0
  6
Continuous
 62
     7
370
    15
100
AcDbLine
 10
1167.0519698833
 20
1324.2575645784
 30
0.0
 11
1166.5192682718
 21
1324.2300868371
 31
0.0
  0
ARC
  5
179
330
1F
100
AcDbEntity
  8
0
  6
Continuous
 62
     7
370
    15
100
AcDbCircle
 10
1166.5198260734
 20
1329.6037306941
 30
0.0
 40
5.166577351136102
100
AcDbArc
 50
269.993814148
 51
275.9117979315
  0
ARC
  5
17A
330
1F
100
AcDbEntity
  8
0
  6
Continuous
 62
     7
370
    15
100
AcDbCircle
 10
1166.5697130352
 20
1329.4419830038
 30
0.0
 40
5.000660306311322
100
AcDbArc
 50
275.5341276884
 51
331.7849335514
  0
LINE
  5
17B
330
1F
100
AcDbEntity
  8
0
  6
Continuous
 62
     7
370
    15
100
AcDbLine
 10
1067.0519758437
 20
1324.2575645784
 30
0.0
 11
1066.5192593311
 21
1324.2300868371
 31
0.0
  0
ARC
  5
17C
330
1F
100
AcDbEntity
  8
0
  6
Continuous
 62
     7
370
    15
100
AcDbCircle
 10
1066.519831966
 20
1329.6037317037
 30
0.0
 40
5.166578362417097
100
AcDbArc
 50
269.9936496528
 51
275.9117975271
  0
ARC
  5
17D
330
1F
100
AcDbEntity
  8
0
  6
Continuous
 62
     7
370
    15
100
AcDbCircle
 10
1066.5696852401
 20
1329.4420336956
 30
0.0
 40
5.000714017304964
100
AcDbArc
 50
275.5344566288
 51
331.784604611
  0
LINE
  5
17E
330
1F
100
AcDbEntity
  8
0
  6
Continuous
 62
     7
370
    15
100
AcDbLine
 10
767.0519639228
 20
1324.2575645784
 30
0.0
 11
766.5192623113
 21
1324.2300868371
 31
0.0
  0
ARC
  5
17F
330
1F
100
AcDbEntity
  8
0
  6
Continuous
 62
     7
370
    15
100
AcDbCircle
 10
766.519820113
 20
1329.6037306941
 30
0.0
 40
5.166577351136102
100
AcDbArc
 50
269.993814148
 51
275.9117979315
  0
ARC
  5
180
330
1F
100
AcDbEntity
  8
0
  6
Continuous
 62
     7
370
    15
100
AcDbCircle
 10
766.5697200777
 20
1329.4419634769
 30
0.0
 40
5.000639616434725
100
AcDbArc
 50
275.5340009759
 51
331.7850602639
  0
LINE
  5
181
330
1F
100
AcDbEntity
  8
0
  6
Continuous
 62
     7
370
    15
100
AcDbLine
 10
867.0519728635
 20
1324.2575645784
 30
0.0
 11
866.5192638014
 21
1324.2300868371
 31
0.0
  0
ARC
  5
182
330
1F
100
AcDbEntity
  8
0
  6
Continuous
 62
     7
370
    15
100
AcDbCircle
 10
866.5198240855
 20
1329.6038268588
 30
0.0
 40
5.166673516163409
100
AcDbArc
 50
269.9937867342
 51
275.9117428944
  0
ARC
  5
183
330
1F
100
AcDbEntity
  8
0
  6
Continuous
 62
     7
370
    15
100
AcDbCircle
 10
866.5697057396
 20
1329.4419921535
 30
0.0
 40
5.00067040437408
100
AcDbArc
 50
275.5342347666
 51
331.7848766582
  0
LINE
  5
184
330
1F
100
AcDbEntity
  8
0
  6
Continuous
 62
     7
370
    15
100
AcDbLine
 10
967.0519706283
 20
1324.2575645784
 30
0.0
 11
966.5192652915
 21
1324.2300868371
 31
0.0
  0
ARC
  5
185
330
1F
100
AcDbEntity
  8
0
  6
Continuous
 62
     7
370
    15
100
AcDbCircle
 10
966.5198243345
 20
1329.6037787755
 30
0.0
 40
5.166625432709418
100
AcDbArc
 50
269.9938004405
 51
275.9117704133
  0
ARC
  5
186
330
1F
100
AcDbEntity
  8
0
  6
Continuous
 62
     7
370
    15
100
AcDbCircle
 10
966.5697028252
 20
1329.4419994555
 30
0.0
 40
5.000677737818403
100
AcDbArc
 50
275.5342344445
 51
331.7848267953
  0
LINE
  5
187
330
1F
100
AcDbEntity
  8
0
  6
Continuous
 62
     7
370
    15
100
AcDbLine
 10
567.0519609426
 20
1324.2575645784
 30
0.0
 11
566.5192742322
 21
1324.2300868371
 31
0.0
  0
ARC
  5
188
330
1F
100
AcDbEntity
  8
0
  6
Continuous
 62
     7
370
    15
100
AcDbCircle
 10
566.5198469375
 20
1329.6031531939
 30
0.0
 40
5.165999852606966
100
AcDbArc
 50
269.9936481616
 51
275.9121288267
  0
ARC
  5
189
330
1F
100
AcDbEntity
  8
0
  6
Continuous
 62
     7
370
    15
100
AcDbCircle
 10
566.5697271623
 20
1329.4419483622
 30
0.0
 40
5.000623601633875
100
AcDbArc
 50
275.5339028946
 51
331.7851583452
  0
LINE
  5
18A
330
1F
100
AcDbEntity
  8
0
  6
Continuous
 62
     7
370
    15
100
AcDbLine
 10
667.0519847844
 20
1324.2575645784
 30
0.0
 11
666.5192682718
 21
1324.2300868371
 31
0.0
  0
ARC
  5
18B
330
1F
100
AcDbEntity
  8
0
  6
Continuous
 62
     7
370
    15
100
AcDbCircle
 10
666.5198111658
 20
1329.6043082962
 30
0.0
 40
5.167154951605666
100
AcDbArc
 50
269.9939801419
 51
275.9114670381
  0
ARC
  5
18C
330
1F
100
AcDbEntity
  8
0
  6
Continuous
 62
     7
370
    15
100
AcDbCircle
 10
666.5696834935
 20
1329.4420497452
 30
0.0
 40
5.000731022821608
100
AcDbArc
 50
275.5345607734
 51
331.7845004663
  0
LINE
  5
18D
330
1F
100
AcDbEntity
  8
0
  6
Continuous
 62
     7
370
    15
100
AcDbLine
 10
1166.5192682718
 20
1324.2300868371
 30
0.0
 11
1087.737767813
 21
1324.2300868371
 31
0.0
  0
LINE
  5
18E
330
1F
100
AcDbEntity
  8
0
  6
Continuous
 62
     7
370
    15
100
AcDbLine
 10
1266.5192623113
 20
1324.2300868371
 30
0.0
 11
1187.7377469514
 21
1324.2300868371
 31
0.0
  0
LINE
  5
18F
330
1F
100
AcDbEntity
  8
0
  6
Continuous
 62
     7
370
    15
100
AcDbLine
 10
1357.0861358617
 20
1324.2300868371
 30
0.0
 11
1287.7377707933
 21
1324.2300868371
 31
0.0
  0
LINE
  5
190
330
1F
100
AcDbEntity
  8
0
  6
Continuous
 62
     7
370
    15
100
AcDbLine
 10
1382.0861418222
 20
1324.2575645784
 30
0.0
 11
1382.0861418222
 21
1305.1351130345
 31
0.0
  0
LINE
  5
191
330
1F
100
AcDbEntity
  8
0
  6
Continuous
 62
     7
370
    15
100
AcDbLine
 10
1382.0861418222
 20
1305.1351130345
 30
0.0
 11
482.0861358617
 21
1305.1351130345
 31
0.0
  0
LINE
  5
192
330
1F
100
AcDbEntity
  8
0
  6
Continuous
 62
     7
370
    15
100
AcDbLine
 10
482.0861358617
 20
1324.2575645784
 30
0.0
 11
482.0861358617
 21
1305.1351130345
 31
0.0
  0
LINE
  5
193
330
1F
100
AcDbEntity
  8
0
  6
Continuous
 62
     7
370
    15
100
AcDbLine
 10
566.5192742322
 20
1324.2300868371
 30
0.0
 11
507.0861418222
 21
1324.2300868371
 31
0.0
  0
LINE
  5
194
330
1F
100
AcDbEntity
  8
0
  6
Continuous
 62
     7
370
    15
100
AcDbLine
 10
666.5192682718
 20
1324.2300868371
 30
0.0
 11
587.7377529119
 21
1324.2300868371
 31
0.0
  0
LINE
  5
195
330
1F
100
AcDbEntity
  8
0
  6
Continuous
 62
     7
370
    15
100
AcDbLine
 10
766.5192623113
 20
1324.2300868371
 30
0.0
 11
687.7377618526
 21
1324.2300868371
 31
0.0
  0
LINE
  5
196
330
1F
100
AcDbEntity
  8
0
  6
Continuous
 62
     7
370
    15
100
AcDbLine
 10
866.5192638014
 20
1324.2300868371
 30
0.0
 11
787.7377558921
 21
1324.2300868371
 31
0.0
  0
LINE
  5
197
330
1F
100
AcDbEntity
  8
0
  6
Continuous
 62
     7
370
    15
100
AcDbLine
 10
966.5192652915
 20
1324.2300868371
 30
0.0
 11
887.7377611075
 21
1324.2300868371
 31
0.0
  0
LINE
  5
198
330
1F
100
AcDbEntity
  8
0
  6
Continuous
 62
     7
370
    15
100
AcDbLine
 10
1066.5192593311
 20
1324.2300868371
 30
0.0
 11
987.7377625976
 21
1324.2300868371
 31
0.0
  0
LINE
  5
199
330
1F
100
AcDbEntity
  8
0
  6
Continuous
 62
     7
370
    15
100
AcDbLine
 10
1187.7377469514
 20
1324.4371533731
 30
0.0
 11
1266.5192623113
 21
1324.4371533731
 31
0.0
  0
LINE
  5
19A
330
1F
100
AcDbEntity
  8
0
  6
Continuous
 62
     7
370
    15
100
AcDbLine
 10
687.7377618526
 20
1324.4371533731
 30
0.0
 11
766.5192623113
 21
1324.4371533731
 31
0.0
  0
LINE
  5
19B
330
1F
100
AcDbEntity
  8
0
  6
Continuous
 62
     7
370
    15
100
AcDbLine
 10
1087.737767813
 20
1324.4371533731
 30
0.0
 11
1166.5192682718
 21
1324.4371533731
 31
0.0
  0
LINE
  5
19C
330
1F
100
AcDbEntity
  8
0
  6
Continuous
 62
     7
370
    15
100
AcDbLine
 10
987.7377625976
 20
1324.4371533731
 30
0.0
 11
1066.5192593311
 21
1324.4371533731
 31
0.0
  0
LINE
  5
19D
330
1F
100
AcDbEntity
  8
0
  6
Continuous
 62
     7
370
    15
100
AcDbLine
 10
787.7377558921
 20
1324.4371533731
 30
0.0
 11
866.5192638014
 21
1324.4371533731
 31
0.0
  0
LINE
  5
19E
330
1F
100
AcDbEntity
  8
0
  6
Continuous
 62
     7
370
    15
100
AcDbLine
 10
887.7377611075
 20
1324.4371533731
 30
0.0
 11
966.5192652915
 21
1324.4371533731
 31
0.0
  0
LINE
  5
19F
330
1F
100
AcDbEntity
  8
0
  6
Continuous
 62
     7
370
    15
100
AcDbLine
 10
1287.7377707933
 20
1324.4371533731
 30
0.0
 11
1357.0861358617
 21
1324.4371533731
 31
0.0
  0
LINE
  5
1A0
330
1F
100
AcDbEntity
  8
0
  6
Continuous
 62
     7
370
    15
100
AcDbLine
 10
507.0861418222
 20
1324.4371533731
 30
0.0
 11
566.5192742322
 21
1324.4371533731
 31
0.0
  0
LINE
  5
1A1
330
1F
100
AcDbEntity
  8
0
  6
Continuous
 62
     7
370
    15
100
AcDbLine
 10
587.7377529119
 20
1324.4371533731
 30
0.0
 11
666.5192682718
 21
1324.4371533731
 31
0.0
  0
LINE
  5
1A2
330
1F
100
AcDbEntity
  8
0
  6
Continuous
 62
     7
370
    15
100
AcDbLine
 10
567.0519609426
 20
1324.4646311143
 30
0.0
 11
506.5534253095
 21
1324.4646311143
 31
0.0
  0
LINE
  5
1A3
330
1F
100
AcDbEntity
  8
0
  6
Continuous
 62
     7
370
    15
100
AcDbLine
 10
1357.6188523744
 20
1324.4646311143
 30
0.0
 11
1287.2050542806
 21
1324.4646311143
 31
0.0
  0
LINE
  5
1A4
330
1F
100
AcDbEntity
  8
0
  6
Continuous
 62
     7
370
    15
100
AcDbLine
 10
867.0519728635
 20
1324.4646311143
 30
0.0
 11
787.2050542806
 21
1324.4646311143
 31
0.0
  0
LINE
  5
1A5
330
1F
100
AcDbEntity
  8
0
  6
Continuous
 62
     7
370
    15
100
AcDbLine
 10
767.0519639228
 20
1324.4646311143
 30
0.0
 11
687.2050602411
 21
1324.4646311143
 31
0.0
  0
LINE
  5
1A6
330
1F
100
AcDbEntity
  8
0
  6
Continuous
 62
     7
370
    15
100
AcDbLine
 10
1267.051978824
 20
1324.4646311143
 30
0.0
 11
1187.2050602411
 21
1324.4646311143
 31
0.0
  0
LINE
  5
1A7
330
1F
100
AcDbEntity
  8
0
  6
Continuous
 62
     7
370
    15
100
AcDbLine
 10
1167.0519698833
 20
1324.4646311143
 30
0.0
 11
1087.2050513004
 21
1324.4646311143
 31
0.0
  0
LINE
  5
1A8
330
1F
100
AcDbEntity
  8
0
  6
Continuous
 62
     7
370
    15
100
AcDbLine
 10
1067.0519758437
 20
1324.4646311143
 30
0.0
 11
987.2050572608
 21
1324.4646311143
 31
0.0
  0
LINE
  5
1A9
330
1F
100
AcDbEntity
  8
0
  6
Continuous
 62
     7
370
    15
100
AcDbLine
 10
967.0519706283
 20
1324.4646311143
 30
0.0
 11
887.2050557707
 21
1324.4646311143
 31
0.0
  0
LINE
  5
1AA
330
1F
100
AcDbEntity
  8
0
  6
Continuous
 62
     7
370
    15
100
AcDbLine
 10
667.0519847844
 20
1324.4646311143
 30
0.0
 11
587.2050662015
 21
1324.4646311143
 31
0.0
  0
LINE
  5
1AB
330
1F
100
AcDbEntity
  8
0
  6
Continuous
 62
     7
370
    15
100
AcDbLine
 10
482.0861358617
 20
1305.1351130345
 30
0.0
 11
482.0861358617
 21
1303.8851142266
 31
0.0
  0
LINE
  5
1AC
330
1F
100
AcDbEntity
  8
0
  6
Continuous
 62
     7
370
    15
100
AcDbLine
 10
1382.0861418222
 20
1305.1351130345
 30
0.0
 11
1382.0861418222
 21
1303.8851142266
 31
0.0
  0
LINE
  5
1AD
330
1F
100
AcDbEntity
  8
0
  6
Continuous
 62
     7
370
    15
100
AcDbLine
 10
482.0861358617
 20
1303.8851142266
 30
0.0
 11
482.0861358617
 21
1282.6851129869
 31
0.0
  0
LINE
  5
1AE
330
1F
100
AcDbEntity
  8
0
  6
Continuous
 62
     7
370
    15
100
AcDbLine
 10
1382.0861418222
 20
1303.8851142266
 30
0.0
 11
1382.0861418222
 21
1282.6851129869
 31
0.0
  0
LINE
  5
1AF
330
1F
100
AcDbEntity
  8
0
  6
Continuous
 62
     7
370
    15
100
AcDbLine
 10
1382.0861418222
 20
1282.6851129869
 30
0.0
 11
1382.0861418222
 21
1280.6351006368
 31
0.0
  0
LINE
  5
1B0
330
1F
100
AcDbEntity
  8
0
  6
Continuous
 62
     7
370
    15
100
AcDbLine
 10
1382.0861418222
 20
1280.6351006368
 30
0.0
 11
482.0861358617
 21
1280.6351006368
 31
0.0
  0
LINE
  5
1B1
330
1F
100
AcDbEntity
  8
0
  6
Continuous
 62
     7
370
    15
100
AcDbLine
 10
482.0861358617
 20
1282.6851129869
 30
0.0
 11
482.0861358617
 21
1280.6351006368
 31
0.0
  0
LINE
  5
1B2
330
1F
100
AcDbEntity
  8
0
  6
Continuous
 62
     7
370
    15
100
AcDbLine
 10
482.0861358617
 20
1280.6351006368
 30
0.0
 11
482.0861358617
 21
1279.3851018289
 31
0.0
  0
LINE
  5
1B3
330
1F
100
AcDbEntity
  8
0
  6
Continuous
 62
     7
370
    15
100
AcDbLine
 10
1382.0861418222
 20
1280.6351006368
 30
0.0
 11
1382.0861418222
 21
1279.3851018289
 31
0.0
  0
LINE
  5
1B4
330
1F
100
AcDbEntity
  8
0
  6
Continuous
 62
     7
370
    15
100
AcDbLine
 10
1382.0861418222
 20
1279.3851018289
 30
0.0
 11
1382.0861418222
 21
1257.1851134637
 31
0.0
  0
LINE
  5
1B5
330
1F
100
AcDbEntity
  8
0
  6
Continuous
 62
     7
370
    15
100
AcDbLine
 10
482.0861358617
 20
1279.3851018289
 30
0.0
 11
482.0861358617
 21
1257.1851134637
 31
0.0
  0
LINE
  5
1B6
330
1F
100
AcDbEntity
  8
0
  6
Continuous
 62
     7
370
    15
100
AcDbLine
 10
1382.0861418222
 20
1255.1351011136
 30
0.0
 11
1381.0861546968
 21
1255.1351011136
 31
0.0
  0
LINE
  5
1B7
330
1F
100
AcDbEntity
  8
0
  6
Continuous
 62
     7
370
    15
100
AcDbLine
 10
483.0861527894
 20
1255.1351011136
 30
0.0
 11
482.0861358617
 21
1255.1351011136
 31
0.0
  0
LINE
  5
1B8
330
1F
100
AcDbEntity
  8
0
  6
Continuous
 62
     7
370
    15
100
AcDbLine
 10
482.0861358617
 20
1257.1851134637
 30
0.0
 11
482.0861358617
 21
1255.1351011136
 31
0.0
  0
LINE
  5
1B9
330
1F
100
AcDbEntity
  8
0
  6
Continuous
 62
     7
370
    15
100
AcDbLine
 10
1382.0861418222
 20
1257.1851134637
 30
0.0
 11
1382.0861418222
 21
1255.1351011136
 31
0.0
  0
LINE
  5
1BA
330
1F
100
AcDbEntity
  8
0
  6
Continuous
 62
     7
370
    15
100
AcDbLine
 10
1379.6361525033
 20
708.1851035693
 30
0.0
 11
1382.0861418222
 21
708.1851035693
 31
0.0
  0
LINE
  5
1BB
330
1F
100
AcDbEntity
  8
0
  6
Continuous
 62
     7
370
    15
100
AcDbLine
 10
1382.0861418222
 20
616.8682992795
 30
0.0
 11
1382.0861418222
 21
708.1851035693
 31
0.0
  0
LINE
  5
1BC
330
1F
100
AcDbEntity
  8
0
  6
Continuous
 62
     7
370
    15
100
AcDbLine
 10
1382.0861418222
 20
616.8682992795
 30
0.0
 11
1379.6361525033
 21
616.8682992795
 31
0.0
  0
LINE
  5
1BD
330
1F
100
AcDbEntity
  8
0
  6
Continuous
 62
     7
370
    15
100
AcDbLine
 10
484.5361549829
 20
616.8682992795
 30
0.0
 11
482.0861358617
 21
616.8682992795
 31
0.0
  0
LINE
  5
1BE
330
1F
100
AcDbEntity
  8
0
  6
Continuous
 62
     7
370
    15
100
AcDbLine
 10
482.0861358617
 20
708.1851035693
 30
0.0
 11
482.0861358617
 21
616.8682992795
 31
0.0
  0
LINE
  5
1BF
330
1F
100
AcDbEntity
  8
0
  6
Continuous
 62
     7
370
    15
100
AcDbLine
 10
482.0861358617
 20
708.1851035693
 30
0.0
 11
484.5361549829
 21
708.1851035693
 31
0.0
  0
LINE
  5
1C0
330
1F
100
AcDbEntity
  8
0
  6
Continuous
 62
     7
370
    15
100
AcDbLine
 10
1379.6361525033
 20
710.6351077893
 30
0.0
 11
484.5361549829
 21
710.6351077893
 31
0.0
  0
LINE
  5
1C1
330
1F
100
AcDbEntity
  8
0
  6
Continuous
 62
     7
370
    15
100
AcDbLine
 10
1379.6361525033
 20
710.6351077893
 30
0.0
 11
1379.6361525033
 21
708.1851035693
 31
0.0
  0
LINE
  5
1C2
330
1F
100
AcDbEntity
  8
0
  6
Continuous
 62
     7
370
    15
100
AcDbLine
 10
484.5361549829
 20
708.1851035693
 30
0.0
 11
484.5361549829
 21
710.6351077893
 31
0.0
  0
LINE
  5
1C3
330
1F
100
AcDbEntity
  8
0
  6
Continuous
 62
     7
370
    15
100
AcDbLine
 10
1380.8861513112
 20
593.568307195
 30
0.0
 11
1380.8861513112
 21
616.3683057168
 31
0.0
  0
LINE
  5
1C4
330
1F
100
AcDbEntity
  8
0
  6
Continuous
 62
     7
370
    15
100
AcDbLine
 10
483.2861263727
 20
593.568307195
 30
0.0
 11
483.2861263727
 21
616.3683057168
 31
0.0
  0
LINE
  5
1C5
330
1F
100
AcDbEntity
  8
0
  6
Continuous
 62
     7
370
    15
100
AcDbLine
 10
483.2861263727
 20
616.3683057168
 30
0.0
 11
484.5361549829
 21
616.3683057168
 31
0.0
  0
LINE
  5
1C6
330
1F
100
AcDbEntity
  8
0
  6
Continuous
 62
     7
370
    15
100
AcDbLine
 10
1379.6361525033
 20
616.8682992795
 30
0.0
 11
1379.6361525033
 21
616.3683057168
 31
0.0
  0
LINE
  5
1C7
330
1F
100
AcDbEntity
  8
0
  6
Continuous
 62
     7
370
    15
100
AcDbLine
 10
1379.6361525033
 20
616.3683057168
 30
0.0
 11
1380.8861513112
 21
616.3683057168
 31
0.0
  0
LINE
  5
1C8
330
1F
100
AcDbEntity
  8
0
  6
Continuous
 62
     7
370
    15
100
AcDbLine
 10
484.5361549829
 20
616.3683057168
 30
0.0
 11
484.5361549829
 21
616.8682992795
 31
0.0
  0
LINE
  5
1C9
330
1F
100
AcDbEntity
  8
0
  6
Continuous
 62
     7
370
    15
100
AcDbLine
 10
1382.0861418222
 20
616.3683057168
 30
0.0
 11
1380.8861513112
 21
616.3683057168
 31
0.0
  0
LINE
  5
1CA
330
1F
100
AcDbEntity
  8
0
  6
Continuous
 62
     7
370
    15
100
AcDbLine
 10
1382.0861418222
 20
616.3683057168
 30
0.0
 11
1382.0861418222
 21
594.8683142999
 31
0.0
  0
LINE
  5
1CB
330
1F
100
AcDbEntity
  8
0
  6
Continuous
 62
     7
370
    15
100
AcDbLine
 10
482.0861358617
 20
616.3683057168
 30
0.0
 11
483.2861263727
 21
616.3683057168
 31
0.0
  0
LINE
  5
1CC
330
1F
100
AcDbEntity
  8
0
  6
Continuous
 62
     7
370
    15
100
AcDbLine
 10
482.0861358617
 20
616.3683057168
 30
0.0
 11
482.0861358617
 21
594.8683142999
 31
0.0
  0
LINE
  5
1CD
330
1F
100
AcDbEntity
  8
0
  6
Continuous
 62
     7
370
    15
100
AcDbLine
 10
1380.8861513112
 20
710.6351077893
 30
0.0
 11
1380.8861513112
 21
709.4351023772
 31
0.0
  0
LINE
  5
1CE
330
1F
100
AcDbEntity
  8
0
  6
Continuous
 62
     7
370
    15
100
AcDbLine
 10
1380.8861513112
 20
709.4351023772
 30
0.0
 11
1379.6361525033
 21
709.4351023772
 31
0.0
  0
LINE
  5
1CF
330
1F
100
AcDbEntity
  8
0
  6
Continuous
 62
     7
370
    15
100
AcDbLine
 10
1380.8861513112
 20
710.6351077893
 30
0.0
 11
1379.6361525033
 21
710.6351077893
 31
0.0
  0
LINE
  5
1D0
330
1F
100
AcDbEntity
  8
0
  6
Continuous
 62
     7
370
    15
100
AcDbLine
 10
484.5361549829
 20
709.4351023772
 30
0.0
 11
483.2861263727
 21
709.4351023772
 31
0.0
  0
LINE
  5
1D1
330
1F
100
AcDbEntity
  8
0
  6
Continuous
 62
     7
370
    15
100
AcDbLine
 10
483.2861263727
 20
709.4351023772
 30
0.0
 11
483.2861263727
 21
710.6351077893
 31
0.0
  0
LINE
  5
1D2
330
1F
100
AcDbEntity
  8
0
  6
Continuous
 62
     7
370
    15
100
AcDbLine
 10
484.5361549829
 20
710.6351077893
 30
0.0
 11
483.2861263727
 21
710.6351077893
 31
0.0
  0
LINE
  5
1D3
330
1F
100
AcDbEntity
  8
0
  6
Continuous
 62
     7
370
    15
100
AcDbLine
 10
1382.0861418222
 20
709.4251036981
 30
0.0
 11
1380.8861513112
 21
709.4251036981
 31
0.0
  0
LINE
  5
1D4
330
1F
100
AcDbEntity
  8
0
  6
Continuous
 62
     7
370
    15
100
AcDbLine
 10
1382.0861418222
 20
708.1851035693
 30
0.0
 11
1382.0861418222
 21
709.4251036981
 31
0.0
  0
LINE
  5
1D5
330
1F
100
AcDbEntity
  8
0
  6
Continuous
 62
     7
370
    15
100
AcDbLine
 10
1380.8861513112
 20
708.1851035693
 30
0.0
 11
1380.8861513112
 21
709.4251036981
 31
0.0
  0
LINE
  5
1D6
330
1F
100
AcDbEntity
  8
0
  6
Continuous
 62
     7
370
    15
100
AcDbLine
 10
482.0861358617
 20
709.4251036981
 30
0.0
 11
483.2861263727
 21
709.4251036981
 31
0.0
  0
LINE
  5
1D7
330
1F
100
AcDbEntity
  8
0
  6
Continuous
 62
     7
370
    15
100
AcDbLine
 10
482.0861358617
 20
708.1851035693
 30
0.0
 11
482.0861358617
 21
709.4251036981
 31
0.0
  0
LINE
  5
1D8
330
1F
100
AcDbEntity
  8
0
  6
Continuous
 62
     7
370
    15
100
AcDbLine
 10
483.2861263727
 20
708.1851035693
 30
0.0
 11
483.2861263727
 21
709.4251036981
 31
0.0
  0
LINE
  5
1D9
330
1F
100
AcDbEntity
  8
0
  6
Continuous
 62
     7
370
    15
100
AcDbLine
 10
482.0861358617
 20
616.3683057168
 30
0.0
 11
482.0861358617
 21
616.8682992795
 31
0.0
  0
LINE
  5
1DA
330
1F
100
AcDbEntity
  8
0
  6
Continuous
 62
     7
370
    15
100
AcDbLine
 10
483.2861263727
 20
616.3683057168
 30
0.0
 11
483.2861263727
 21
616.8682992795
 31
0.0
  0
LINE
  5
1DB
330
1F
100
AcDbEntity
  8
0
  6
Continuous
 62
     7
370
    15
100
AcDbLine
 10
1382.0861418222
 20
616.3683057168
 30
0.0
 11
1382.0861418222
 21
616.8682992795
 31
0.0
  0
LINE
  5
1DC
330
1F
100
AcDbEntity
  8
0
  6
Continuous
 62
     7
370
    15
100
AcDbLine
 10
1380.8861513112
 20
616.3683057168
 30
0.0
 11
1380.8861513112
 21
616.8682992795
 31
0.0
  0
LINE
  5
1DD
330
1F
100
AcDbEntity
  8
0
  6
Continuous
 62
     7
370
    15
100
AcDbLine
 10
482.0861358617
 20
709.4251036981
 30
0.0
 11
482.0861358617
 21
711.8851065972
 31
0.0
  0
LINE
  5
1DE
330
1F
100
AcDbEntity
  8
0
  6
Continuous
 62
     7
370
    15
100
AcDbLine
 10
483.2861263727
 20
709.4251036981
 30
0.0
 11
483.2861263727
 21
709.4351023772
 31
0.0
  0
LINE
  5
1DF
330
1F
100
AcDbEntity
  8
0
  6
Continuous
 62
     7
370
    15
100
AcDbLine
 10
1382.0861418222
 20
709.4251036981
 30
0.0
 11
1382.0861418222
 21
711.8851065972
 31
0.0
  0
LINE
  5
1E0
330
1F
100
AcDbEntity
  8
0
  6
Continuous
 62
     7
370
    15
100
AcDbLine
 10
1380.8861513112
 20
709.4251036981
 30
0.0
 11
1380.8861513112
 21
709.4351023772
 31
0.0
  0
LINE
  5
1E1
330
1F
100
AcDbEntity
  8
0
  6
Continuous
 62
     7
370
    15
100
AcDbLine
 10
1380.8861513112
 20
710.6351077893
 30
0.0
 11
1380.8861513112
 21
711.8851065972
 31
0.0
  0
LINE
  5
1E2
330
1F
100
AcDbEntity
  8
0
  6
Continuous
 62
     7
370
    15
100
AcDbLine
 10
483.2861263727
 20
710.6351077893
 30
0.0
 11
483.2861263727
 21
711.8851065972
 31
0.0
  0
LINE
  5
1E3
330
1F
100
AcDbEntity
  8
0
  6
Continuous
 62
     7
370
    15
100
AcDbLine
 10
1380.8861513112
 20
711.8851065972
 30
0.0
 11
1380.8861513112
 21
712.9421800712
 31
0.0
  0
LINE
  5
1E4
330
1F
100
AcDbEntity
  8
0
  6
Continuous
 62
     7
370
    15
100
AcDbLine
 10
483.2861263727
 20
711.8851065972
 30
0.0
 11
483.2861263727
 21
712.9421800712
 31
0.0
  0
LINE
  5
1E5
330
1F
100
AcDbEntity
  8
0
  6
Continuous
 62
     7
370
    15
100
AcDbLine
 10
482.0861358617
 20
711.8851065972
 30
0.0
 11
482.0861358617
 21
733.6851030925
 31
0.0
  0
LINE
  5
1E6
330
1F
100
AcDbEntity
  8
0
  6
Continuous
 62
     7
370
    15
100
AcDbLine
 10
1382.0861418222
 20
711.8851065972
 30
0.0
 11
1382.0861418222
 21
733.6851030925
 31
0.0
  0
LINE
  5
1E7
330
1F
100
AcDbEntity
  8
0
  6
Continuous
 62
     7
370
    15
100
AcDbLine
 10
482.0861358617
 20
734.9251032212
 30
0.0
 11
483.0861527894
 21
734.9251032212
 31
0.0
  0
LINE
  5
1E8
330
1F
100
AcDbEntity
  8
0
  6
Continuous
 62
     7
370
    15
100
AcDbLine
 10
482.0861358617
 20
733.6851030925
 30
0.0
 11
482.0861358617
 21
734.9251032212
 31
0.0
  0
LINE
  5
1E9
330
1F
100
AcDbEntity
  8
0
  6
Continuous
 62
     7
370
    15
100
AcDbLine
 10
1382.0861418222
 20
734.9251032212
 30
0.0
 11
1381.0861546968
 21
734.9251032212
 31
0.0
  0
LINE
  5
1EA
330
1F
100
AcDbEntity
  8
0
  6
Continuous
 62
     7
370
    15
100
AcDbLine
 10
1382.0861418222
 20
733.6851030925
 30
0.0
 11
1382.0861418222
 21
734.9251032212
 31
0.0
  0
LINE
  5
1EB
330
1F
100
AcDbEntity
  8
0
  6
Continuous
 62
     7
370
    15
100
AcDbLine
 10
1035.5861399744
 20
586.4981532434
 30
0.0
 11
1035.5861399744
 21
587.9680037835
 31
0.0
  0
LINE
  5
1EC
330
1F
100
AcDbEntity
  8
0
  6
Continuous
 62
     7
370
    15
100
AcDbLine
 10
1035.2217320774
 20
593.568307195
 30
0.0
 11
1035.5861399744
 21
587.9680037835
 31
0.0
  0
LINE
  5
1ED
330
1F
100
AcDbEntity
  8
0
  6
Continuous
 62
     7
370
    15
100
AcDbLine
 10
1032.9505492423
 20
593.568307195
 30
0.0
 11
1032.5861413453
 21
587.9680037835
 31
0.0
  0
LINE
  5
1EE
330
1F
100
AcDbEntity
  8
0
  6
Continuous
 62
     7
370
    15
100
AcDbLine
 10
1032.5861413453
 20
587.9680037835
 30
0.0
 11
1032.5861413453
 21
586.4981532434
 31
0.0
  0
ARC
  5
1EF
330
1F
100
AcDbEntity
  8
0
  6
Continuous
 62
     7
370
    15
100
AcDbCircle
 10
1034.7830677562
 20
592.6077333247
 30
0.0
 40
5.120432722174244
100
AcDbArc
 50
244.5926552854
 51
256.1063497255
  0
LWPOLYLINE
  5
1F0
330
1F
100
AcDbEntity
  8
0
  6
Continuous
 62
     7
370
    15
100
AcDbPolyline
 90
        9
 70
   128
 43
0.0
 10
1035.5861399744
 20
587.9825473169
 10
1035.5795909141
 20
587.9179656842
 10
1035.5273399924
 20
587.8512382844
 10
1035.3676442478
 20
587.8023028711
 10
1035.1217825387
 20
587.7642453054
 10
1034.8109443162
 20
587.7114951947
 10
1034.6919510935
 20
587.6777291635
 10
1034.6313555215
 20
587.6475990155
 10
1034.618734238
 20
587.6371085981
  0
LWPOLYLINE
  5
1F1
330
1F
100
AcDbEntity
  8
0
  6
Continuous
 62
     7
370
    15
100
AcDbPolyline
 90
        3
 70
   128
 43
0.0
 10
1034.5861379479
 20
587.6049220899
 10
1034.5906157468
 20
587.6093328336
 10
1034.618734238
 20
587.6371085981
  0
LWPOLYLINE
  5
1F2
330
1F
100
AcDbEntity
  8
0
  6
Continuous
 62
     7
370
    15
100
AcDbPolyline
 90
        3
 70
   128
 43
0.0
 10
1033.5535470818
 20
587.6371085981
 10
1033.581665573
 20
587.6093328336
 10
1033.5861433719
 20
587.6049220899
  0
LINE
  5
1F3
330
1F
100
AcDbEntity
  8
0
  6
Continuous
 62
     7
370
    15
100
AcDbLine
 10
1022.4829677914
 20
585.515362058
 30
0.0
 11
1021.3295732115
 21
593.568307195
 31
0.0
  0
LWPOLYLINE
  5
1F4
330
1F
100
AcDbEntity
  8
0
  6
Continuous
 62
     7
370
    15
100
AcDbPolyline
 90
        3
 70
   128
 43
0.0
 10
1022.458850262
 20
585.4865432122
 10
1022.4608768199
 20
585.4955435136
 10
1022.4829677914
 20
585.515362058
  0
LINE
  5
1F5
330
1F
100
AcDbEntity
  8
0
  6
Continuous
 62
     7
370
    15
100
AcDbLine
 10
1046.8427081083
 20
593.568307195
 30
0.0
 11
1045.6893135284
 21
585.515362058
 31
0.0
  0
LWPOLYLINE
  5
1F6
330
1F
100
AcDbEntity
  8
0
  6
Continuous
 62
     7
370
    15
100
AcDbPolyline
 90
        3
 70
   128
 43
0.0
 10
1045.6893135284
 20
585.515362058
 10
1045.7113970493
 20
585.4955435136
 10
1045.7134310578
 20
585.4865432122
  0
LWPOLYLINE
  5
1F7
330
1F
100
AcDbEntity
  8
0
  6
Continuous
 62
     7
370
    15
100
AcDbPolyline
 90
        3
 70
   128
 43
0.0
 10
1024.4194705461
 20
580.6818724015
 10
1024.4203124617
 20
580.7816207746
 10
1024.4193289851
 20
580.889445577
  0
LINE
  5
1F8
330
1F
100
AcDbEntity
  8
0
  6
Continuous
 62
     7
370
    15
100
AcDbLine
 10
1043.7603060578
 20
581.0946345666
 30
0.0
 11
1043.7529523347
 21
580.889445577
 31
0.0
  0
LINE
  5
1F9
330
1F
100
AcDbEntity
  8
0
  6
Continuous
 62
     7
370
    15
100
AcDbLine
 10
1035.5861399744
 20
585.6547177175
 30
0.0
 11
1035.5861399744
 21
586.4981532434
 31
0.0
  0
LINE
  5
1FA
330
1F
100
AcDbEntity
  8
0
  6
Continuous
 62
     7
370
    15
100
AcDbLine
 10
1032.5861413453
 20
586.4981532434
 30
0.0
 11
1032.5861413453
 21
585.6547177175
 31
0.0
  0
LWPOLYLINE
  5
1FB
330
1F
100
AcDbEntity
  8
0
  6
Continuous
 62
     7
370
    15
100
AcDbPolyline
 90
        9
 70
   128
 43
0.0
 10
1032.5861413453
 20
574.5938539842
 10
1032.700321493
 20
574.4164705613
 10
1033.0254797314
 20
574.2660880426
 10
1033.5121144031
 20
574.1656244138
 10
1034.0861369346
 20
574.1303384641
 10
1034.6601669167
 20
574.1656244138
 10
1035.1468015884
 20
574.2660880426
 10
1035.4719598268
 20
574.4164705613
 10
1035.5861399744
 20
574.5938539842
  0
LINE
  5
1FC
330
1F
100
AcDbEntity
  8
0
  6
Continuous
 62
     7
370
    15
100
AcDbLine
 10
1032.5861413453
 20
585.6547177175
 30
0.0
 11
1032.5861413453
 21
574.5938539842
 31
0.0
  0
LINE
  5
1FD
330
1F
100
AcDbEntity
  8
0
  6
Continuous
 62
     7
370
    15
100
AcDbLine
 10
1035.5861399744
 20
574.5938539842
 30
0.0
 11
1035.5861399744
 21
585.6547177175
 31
0.0
  0
LWPOLYLINE
  5
1FE
330
1F
100
AcDbEntity
  8
0
  6
Continuous
 62
     7
370
    15
100
AcDbPolyline
 90
        3
 70
   128
 43
0.0
 10
1022.4648107265
 20
575.8239448407
 10
1022.4628214215
 20
575.8371472695
 10
1022.4624116395
 20
575.8402467111
  0
LWPOLYLINE
  5
1FF
330
1F
100
AcDbEntity
  8
0
  6
Continuous
 62
     7
370
    15
100
AcDbPolyline
 90
        5
 70
   128
 43
0.0
 10
1050.0150237654
 20
591.3491070607
 10
1050.0150386666
 20
591.3486302236
 10
1049.9503452752
 20
591.3864493707
 10
1049.9309439634
 20
591.4038837293
 10
1049.9199767087
 20
591.4142549375
  0
LWPOLYLINE
  5
200
330
1F
100
AcDbEntity
  8
0
  6
Continuous
 62
     7
370
    15
100
AcDbPolyline
 90
        5
 70
   128
 43
0.0
 10
1018.252304611
 20
591.4142549375
 10
1018.2413373564
 20
591.4038837293
 10
1018.2219360445
 20
591.3864493707
 10
1018.1572426532
 20
591.3486302236
 10
1018.1573395108
 20
591.3525641301
  0
LWPOLYLINE
  5
201
330
1F
100
AcDbEntity
  8
0
  6
Continuous
 62
     7
370
    15
100
AcDbPolyline
 90
        3
 70
   128
 43
0.0
 10
1382.0861418222
 20
593.2722807267
 10
1382.1168382142
 20
593.4043944219
 10
1382.1361501191
 20
593.6851024964
  0
LINE
  5
202
330
1F
100
AcDbEntity
  8
0
  6
Continuous
 62
     7
370
    15
100
AcDbLine
 10
1382.1361501191
 20
593.6851024964
 30
0.0
 11
1382.0861418222
 21
593.6851024964
 31
0.0
  0
LWPOLYLINE
  5
203
330
1F
100
AcDbEntity
  8
0
  6
Continuous
 62
     7
370
    15
100
AcDbPolyline
 90
        3
 70
   128
 43
0.0
 10
1382.1361501191
 20
648.5851228574
 10
1382.0967514489
 20
648.9850402215
 10
1382.0861418222
 20
649.0351081231
  0
LINE
  5
204
330
1F
100
AcDbEntity
  8
0
  6
Continuous
 62
     7
370
    15
100
AcDbLine
 10
1382.1361501191
 20
648.5851228574
 30
0.0
 11
1382.1361501191
 21
593.6851024964
 31
0.0
  0
LINE
  5
205
330
1F
100
AcDbEntity
  8
0
  6
Continuous
 62
     7
370
    15
100
AcDbLine
 10
482.0861358617
 20
734.9251032212
 30
0.0
 11
482.0861358617
 21
738.1351113656
 31
0.0
  0
LINE
  5
206
330
1F
100
AcDbEntity
  8
0
  6
Continuous
 62
     7
370
    15
100
AcDbLine
 10
482.0861358617
 20
1253.1350970605
 30
0.0
 11
482.0861358617
 21
1255.1351011136
 31
0.0
  0
LINE
  5
207
330
1F
100
AcDbEntity
  8
0
  6
Continuous
 62
     7
370
    15
100
AcDbLine
 10
1382.0861418222
 20
1255.1351011136
 30
0.0
 11
1382.0861418222
 21
1253.1350970605
 31
0.0
  0
LINE
  5
208
330
1F
100
AcDbEntity
  8
0
  6
Continuous
 62
     7
370
    15
100
AcDbLine
 10
1382.0861418222
 20
738.1351113656
 30
0.0
 11
1382.0861418222
 21
734.9251032212
 31
0.0
  0
LINE
  5
209
330
1F
100
AcDbEntity
  8
0
  6
Continuous
 62
     7
370
    15
100
AcDbLine
 10
980.5520836685
 20
1350.6350934842
 30
0.0
 11
893.5354527508
 21
1350.6350934842
 31
0.0
  0
LINE
  5
20A
330
1F
100
AcDbEntity
  8
0
  6
Continuous
 62
     7
370
    15
100
AcDbLine
 10
832.0861373518
 20
1324.4646311143
 30
0.0
 11
832.0861373518
 21
1350.6350934842
 31
0.0
  0
LINE
  5
20B
330
1F
100
AcDbEntity
  8
0
  6
Continuous
 62
     7
370
    15
100
AcDbLine
 10
832.0861373518
 20
1350.6350934842
 30
0.0
 11
793.5354549859
 21
1350.6350934842
 31
0.0
  0
LINE
  5
20C
330
1F
100
AcDbEntity
  8
0
  6
Continuous
 62
     7
370
    15
100
AcDbLine
 10
780.5520881389
 20
1350.6350934842
 30
0.0
 11
747.0861364578
 21
1350.6350934842
 31
0.0
  0
LINE
  5
20D
330
1F
100
AcDbEntity
  8
0
  6
Continuous
 62
     7
370
    15
100
AcDbLine
 10
747.0861364578
 20
1350.6350934842
 30
0.0
 11
747.0861364578
 21
1324.4646311143
 31
0.0
  0
ARC
  5
20E
330
1F
100
AcDbEntity
  8
0
  6
Continuous
 62
     7
370
    15
100
AcDbCircle
 10
1269.0861404224
 20
1334.6351083199
 30
0.0
 40
9.500000000000108
100
AcDbArc
 50
29.1024812908
 51
270.0
  0
LINE
  5
20F
330
1F
100
AcDbEntity
  8
0
  6
Continuous
 62
     7
370
    15
100
AcDbLine
 10
1032.0861403321
 20
1350.6350934842
 30
0.0
 11
1032.0861403321
 21
1324.4646311143
 31
0.0
  0
LINE
  5
210
330
1F
100
AcDbEntity
  8
0
  6
Continuous
 62
     7
370
    15
100
AcDbLine
 10
1117.0861412261
 20
1324.4646311143
 30
0.0
 11
1117.0861412261
 21
1350.6350934842
 31
0.0
  0
LINE
  5
211
330
1F
100
AcDbEntity
  8
0
  6
Continuous
 62
     7
370
    15
100
AcDbLine
 10
1117.0861412261
 20
1350.6350934842
 30
0.0
 11
1093.5354520057
 21
1350.6350934842
 31
0.0
  0
LINE
  5
212
330
1F
100
AcDbEntity
  8
0
  6
Continuous
 62
     7
370
    15
100
AcDbLine
 10
1080.5520851587
 20
1350.6350934842
 30
0.0
 11
1032.0861403321
 21
1350.6350934842
 31
0.0
  0
LWPOLYLINE
  5
213
330
1F
100
AcDbEntity
  8
0
  6
Continuous
 62
     7
370
    15
100
AcDbPolyline
 90
        7
 70
   128
 43
0.0
 10
1296.4914877389
 20
1370.0350940564
 10
1296.4920241807
 20
1370.0351238588
 10
1296.5107698415
 20
1370.0542569497
 10
1296.5244193052
 20
1370.09532455
 10
1296.5341050599
 20
1370.148849521
 10
1296.540303943
 20
1370.2127755025
 10
1296.5425391172
 20
1370.2851057389
  0
LINE
  5
214
330
1F
100
AcDbEntity
  8
0
  6
Continuous
 62
     7
370
    15
100
AcDbLine
 10
1302.9093880628
 20
1370.0350940564
 30
0.0
 11
1296.4914877389
 21
1370.0350940564
 31
0.0
  0
LWPOLYLINE
  5
215
330
1F
100
AcDbEntity
  8
0
  6
Continuous
 62
     7
370
    15
100
AcDbPolyline
 90
        7
 70
   128
 43
0.0
 10
1296.5425391172
 20
1370.9851026872
 10
1296.540303943
 20
1371.0574329236
 10
1296.5341050599
 20
1371.1213589051
 10
1296.5244193052
 20
1371.1748838761
 10
1296.5107698415
 20
1371.2159514764
 10
1296.4920241807
 20
1371.2350845674
 10
1296.4914877389
 20
1371.2351143697
  0
LINE
  5
216
330
1F
100
AcDbEntity
  8
0
  6
Continuous
 62
     7
370
    15
100
AcDbLine
 10
1296.4914877389
 20
1371.2351143697
 30
0.0
 11
1303.1970996831
 21
1371.2351143697
 31
0.0
  0
LINE
  5
217
330
1F
100
AcDbEntity
  8
0
  6
Continuous
 62
     7
370
    15
100
AcDbLine
 10
1296.5425391172
 20
1370.2851057389
 30
0.0
 11
1296.5425391172
 21
1370.9851026872
 31
0.0
  0
ARC
  5
218
330
1F
100
AcDbEntity
  8
0
  6
Continuous
 62
     7
370
    15
100
AcDbCircle
 10
1292.3044962836
 20
1369.8989782876
 30
0.0
 40
1.353053197328244
100
AcDbArc
 50
99.0697827532
 51
184.8274324157
  0
LINE
  5
219
330
1F
100
AcDbEntity
  8
0
  6
Continuous
 62
     7
370
    15
100
AcDbLine
 10
1292.0912046407
 20
1371.2351143697
 30
0.0
 11
1296.2613244031
 21
1371.2351143697
 31
0.0
  0
LINE
  5
21A
330
1F
100
AcDbEntity
  8
0
  6
Continuous
 62
     7
370
    15
100
AcDbLine
 10
1295.3501183961
 20
1364.4351184705
 30
0.0
 11
1291.180028436
 21
1364.4351184705
 31
0.0
  0
LINE
  5
21B
330
1F
100
AcDbEntity
  8
0
  6
Continuous
 62
     7
370
    15
100
AcDbLine
 10
1295.8800036882
 20
1364.4351184705
 30
0.0
 11
1295.3501183961
 21
1364.4351184705
 31
0.0
  0
LINE
  5
21C
330
1F
100
AcDbEntity
  8
0
  6
Continuous
 62
     7
370
    15
100
AcDbLine
 10
1296.2613244031
 20
1371.2351143697
 30
0.0
 11
1296.4914877389
 21
1371.2351143697
 31
0.0
  0
LINE
  5
21D
330
1F
100
AcDbEntity
  8
0
  6
Continuous
 62
     7
370
    15
100
AcDbLine
 10
1296.4914877389
 20
1370.0350940564
 30
0.0
 11
1296.2613244031
 21
1370.0350940564
 31
0.0
  0
LINE
  5
21E
330
1F
100
AcDbEntity
  8
0
  6
Continuous
 62
     7
370
    15
100
AcDbLine
 10
1290.9562427972
 20
1369.7851121762
 30
0.0
 11
1290.9300167535
 21
1369.7851121762
 31
0.0
  0
LINE
  5
21F
330
1F
100
AcDbEntity
  8
0
  6
Continuous
 62
     7
370
    15
100
AcDbLine
 10
1291.6361529802
 20
1371.2351143697
 30
0.0
 11
1292.0912046407
 21
1371.2351143697
 31
0.0
  0
ARC
  5
220
330
1F
100
AcDbEntity
  8
0
  6
Continuous
 62
     7
370
    15
100
AcDbCircle
 10
1307.803214482
 20
1369.8864807069
 30
0.0
 40
1.416453711515567
100
AcDbArc
 50
355.896118562
 51
47.8492932624
  0
ARC
  5
221
330
1F
100
AcDbEntity
  8
0
  6
Continuous
 62
     7
370
    15
100
AcDbCircle
 10
1308.4747763417
 20
1364.6738233539
 30
0.0
 40
0.2390257607986407
100
AcDbArc
 50
177.2958385126
 51
267.0308412852
  0
LINE
  5
222
330
1F
100
AcDbEntity
  8
0
  6
Continuous
 62
     7
370
    15
100
AcDbLine
 10
1308.9922506784
 20
1364.4351184705
 30
0.0
 11
1308.4623951886
 21
1364.4351184705
 31
0.0
  0
LINE
  5
223
330
1F
100
AcDbEntity
  8
0
  6
Continuous
 62
     7
370
    15
100
AcDbLine
 10
1308.4623951886
 20
1364.4351184705
 30
0.0
 11
1305.7263333772
 21
1364.4351184705
 31
0.0
  0
LWPOLYLINE
  5
224
330
1F
100
AcDbEntity
  8
0
  6
Continuous
 62
     7
370
    15
100
AcDbPolyline
 90
        7
 70
   128
 43
0.0
 10
1302.817149875
 20
1369.7851121762
 10
1302.8206367467
 20
1369.8574424127
 10
1302.8303225015
 20
1369.9213683942
 10
1302.8455812906
 20
1369.9748933652
 10
1302.8671283696
 20
1370.0159609655
 10
1302.896930692
 20
1370.0350940564
 10
1302.8977949594
 20
1370.0350940564
  0
LINE
  5
225
330
1F
100
AcDbEntity
  8
0
  6
Continuous
 62
     7
370
    15
100
AcDbLine
 10
1296.4914877389
 20
1370.0350940564
 30
0.0
 11
1302.8977949594
 21
1370.0350940564
 31
0.0
  0
LWPOLYLINE
  5
226
330
1F
100
AcDbEntity
  8
0
  6
Continuous
 62
     7
370
    15
100
AcDbPolyline
 90
        7
 70
   128
 43
0.0
 10
1302.8977949594
 20
1368.8351035455
 10
1302.896930692
 20
1368.8351333478
 10
1302.8671283696
 20
1368.8542366365
 10
1302.8455812906
 20
1368.895334039
 10
1302.8303225015
 20
1368.94885901
 10
1302.8206367467
 20
1369.0127551892
 10
1302.817149875
 20
1369.085115228
  0
LINE
  5
227
330
1F
100
AcDbEntity
  8
0
  6
Continuous
 62
     7
370
    15
100
AcDbLine
 10
1302.8977949594
 20
1368.8351035455
 30
0.0
 11
1296.1299855684
 21
1368.8351035455
 31
0.0
  0
LINE
  5
228
330
1F
100
AcDbEntity
  8
0
  6
Continuous
 62
     7
370
    15
100
AcDbLine
 10
1302.817149875
 20
1369.7851121762
 30
0.0
 11
1302.817149875
 21
1369.085115228
 31
0.0
  0
LWPOLYLINE
  5
229
330
1F
100
AcDbEntity
  8
0
  6
Continuous
 62
     7
370
    15
100
AcDbPolyline
 90
        6
 70
   128
 43
0.0
 10
1307.6852698301
 20
1368.8351035455
 10
1308.0434639428
 20
1368.9242422918
 10
1308.3603818391
 20
1369.186890159
 10
1308.5869986986
 20
1369.5812642911
 10
1308.7009031747
 20
1370.0425148347
 10
1308.7152976964
 20
1370.2851057389
  0
LINE
  5
22A
330
1F
100
AcDbEntity
  8
0
  6
Continuous
 62
     7
370
    15
100
AcDbLine
 10
1307.6852698301
 20
1368.8351035455
 30
0.0
 11
1303.1045634721
 21
1368.8351035455
 31
0.0
  0
LINE
  5
22B
330
1F
100
AcDbEntity
  8
0
  6
Continuous
 62
     7
370
    15
100
AcDbLine
 10
1303.9230842565
 20
1375.6350994447
 30
0.0
 11
1308.5037906144
 21
1375.6350994447
 31
0.0
  0
LINE
  5
22C
330
1F
100
AcDbEntity
  8
0
  6
Continuous
 62
     7
370
    15
100
AcDbLine
 10
1303.4470815633
 20
1375.6350994447
 30
0.0
 11
1303.9230842565
 21
1375.6350994447
 31
0.0
  0
LINE
  5
22D
330
1F
100
AcDbEntity
  8
0
  6
Continuous
 62
     7
370
    15
100
AcDbLine
 10
1302.8977949594
 20
1370.0350940564
 30
0.0
 11
1303.1045634721
 21
1370.0350940564
 31
0.0
  0
LINE
  5
22E
330
1F
100
AcDbEntity
  8
0
  6
Continuous
 62
     7
370
    15
100
AcDbLine
 10
1303.1045634721
 20
1368.8351035455
 30
0.0
 11
1302.8977949594
 21
1368.8351035455
 31
0.0
  0
LINE
  5
22F
330
1F
100
AcDbEntity
  8
0
  6
Continuous
 62
     7
370
    15
100
AcDbLine
 10
1308.7152976964
 20
1370.2851057389
 30
0.0
 11
1308.7537724946
 21
1370.2851057389
 31
0.0
  0
LINE
  5
230
330
1F
100
AcDbEntity
  8
0
  6
Continuous
 62
     7
370
    15
100
AcDbLine
 10
1308.5361261342
 20
1368.8351035455
 30
0.0
 11
1307.6852698301
 21
1368.8351035455
 31
0.0
  0
ARC
  5
231
330
1F
100
AcDbEntity
  8
0
  6
Continuous
 62
     7
370
    15
100
AcDbCircle
 10
1292.1253409099
 20
1375.4015194626
 30
0.0
 40
0.2343612613462008
100
AcDbArc
 50
355.9868436413
 51
85.3202938076
  0
LINE
  5
232
330
1F
100
AcDbEntity
  8
0
  6
Continuous
 62
     7
370
    15
100
AcDbLine
 10
1292.1444613908
 20
1375.6350994447
 30
0.0
 11
1294.3563599561
 21
1375.6350994447
 31
0.0
  0
LINE
  5
233
330
1F
100
AcDbEntity
  8
0
  6
Continuous
 62
     7
370
    15
100
AcDbLine
 10
1291.6684885
 20
1375.6350994447
 30
0.0
 11
1292.1444613908
 21
1375.6350994447
 31
0.0
  0
LINE
  5
234
330
1F
100
AcDbEntity
  8
0
  6
Continuous
 62
     7
370
    15
100
AcDbLine
 10
1302.336915252
 20
1371.6817021707
 30
0.0
 11
1299.4720180009
 21
1371.2351143697
 31
0.0
  0
LWPOLYLINE
  5
235
330
1F
100
AcDbEntity
  8
0
  6
Continuous
 62
     7
370
    15
100
AcDbPolyline
 90
        3
 70
   128
 43
0.0
 10
1299.4720180009
 20
1371.2351143697
 10
1299.268378732
 20
1371.2375283578
 10
1296.6071207498
 20
1371.6817021707
  0
LINE
  5
236
330
1F
100
AcDbEntity
  8
0
  6
Continuous
 62
     7
370
    15
100
AcDbLine
 10
1296.6071207498
 20
1371.6817021707
 30
0.0
 11
1296.6071207498
 21
1375.9885251859
 31
0.0
  0
LWPOLYLINE
  5
237
330
1F
100
AcDbEntity
  8
0
  6
Continuous
 62
     7
370
    15
100
AcDbPolyline
 90
        3
 70
   128
 43
0.0
 10
1299.4720180009
 20
1376.4351129869
 10
1299.268378732
 20
1376.4326691964
 10
1296.6071207498
 20
1375.9885251859
  0
LINE
  5
238
330
1F
100
AcDbEntity
  8
0
  6
Continuous
 62
     7
370
    15
100
AcDbLine
 10
1302.336915252
 20
1375.9885251859
 30
0.0
 11
1299.4720180009
 21
1376.4351129869
 31
0.0
  0
LINE
  5
239
330
1F
100
AcDbEntity
  8
0
  6
Continuous
 62
     7
370
    15
100
AcDbLine
 10
1302.336915252
 20
1371.6817021707
 30
0.0
 11
1302.336915252
 21
1375.9885251859
 31
0.0
  0
LWPOLYLINE
  5
23A
330
1F
100
AcDbEntity
  8
0
  6
Continuous
 62
     7
370
    15
100
AcDbPolyline
 90
        3
 70
   128
 43
0.0
 10
1304.0764172052
 20
1376.4351129869
 10
1303.6030371164
 20
1376.3997078279
 10
1302.336915252
 20
1375.9885251859
  0
LINE
  5
23B
330
1F
100
AcDbEntity
  8
0
  6
Continuous
 62
     7
370
    15
100
AcDbLine
 10
1299.4720180009
 20
1376.4351129869
 30
0.0
 11
1304.0764172052
 21
1376.4351129869
 31
0.0
  0
LINE
  5
23C
330
1F
100
AcDbEntity
  8
0
  6
Continuous
 62
     7
370
    15
100
AcDbLine
 10
1303.1970996831
 20
1371.4023352006
 30
0.0
 11
1302.336915252
 21
1371.6817021707
 31
0.0
  0
LINE
  5
23D
330
1F
100
AcDbEntity
  8
0
  6
Continuous
 62
     7
370
    15
100
AcDbLine
 10
1296.6071207498
 20
1375.9885251859
 30
0.0
 11
1295.4817254518
 21
1376.4351129869
 31
0.0
  0
LINE
  5
23E
330
1F
100
AcDbEntity
  8
0
  6
Continuous
 62
     7
370
    15
100
AcDbLine
 10
1295.4817254518
 20
1376.4351129869
 30
0.0
 11
1299.4720180009
 21
1376.4351129869
 31
0.0
  0
LINE
  5
23F
330
1F
100
AcDbEntity
  8
0
  6
Continuous
 62
     7
370
    15
100
AcDbLine
 10
1296.6071207498
 20
1371.6817021707
 30
0.0
 11
1295.4817254518
 21
1371.2351143697
 31
0.0
  0
LWPOLYLINE
  5
240
330
1F
100
AcDbEntity
  8
0
  6
Continuous
 62
     7
370
    15
100
AcDbPolyline
 90
        3
 70
   128
 43
0.0
 10
1305.8159191583
 20
1375.9885251859
 10
1305.3763647054
 20
1376.1778891423
 10
1304.0764172052
 20
1376.4351129869
  0
LINE
  5
241
330
1F
100
AcDbEntity
  8
0
  6
Continuous
 62
     7
370
    15
100
AcDbLine
 10
1305.8159191583
 20
1375.6350994447
 30
0.0
 11
1305.8159191583
 21
1375.9885251859
 31
0.0
  0
LINE
  5
242
330
1F
100
AcDbEntity
  8
0
  6
Continuous
 62
     7
370
    15
100
AcDbLine
 10
1294.3563599561
 20
1371.6817021707
 30
0.0
 11
1294.3563599561
 21
1375.9885251859
 31
0.0
  0
LWPOLYLINE
  5
243
330
1F
100
AcDbEntity
  8
0
  6
Continuous
 62
     7
370
    15
100
AcDbPolyline
 90
        3
 70
   128
 43
0.0
 10
1295.4817254518
 20
1376.4351129869
 10
1295.4017360185
 20
1376.4326691964
 10
1294.3563599561
 20
1375.9885251859
  0
LINE
  5
244
330
1F
100
AcDbEntity
  8
0
  6
Continuous
 62
     7
370
    15
100
AcDbLine
 10
1305.5171806787
 20
1376.1154532769
 30
0.0
 11
1305.8159191583
 21
1375.9885251859
 31
0.0
  0
LINE
  5
245
330
1F
100
AcDbEntity
  8
0
  6
Continuous
 62
     7
370
    15
100
AcDbLine
 10
1304.0764172052
 20
1376.4351129869
 30
0.0
 11
1305.08614969
 21
1376.4351129869
 31
0.0
  0
LINE
  5
246
330
1F
100
AcDbEntity
  8
0
  6
Continuous
 62
     7
370
    15
100
AcDbLine
 10
1295.0861294244
 20
1376.4351129869
 30
0.0
 11
1295.4817254518
 21
1376.4351129869
 31
0.0
  0
LINE
  5
247
330
1F
100
AcDbEntity
  8
0
  6
Continuous
 62
     7
370
    15
100
AcDbLine
 10
1295.7120974038
 20
1360.1351201871
 30
0.0
 11
1295.7120974038
 21
1362.9385352471
 31
0.0
  0
LWPOLYLINE
  5
248
330
1F
100
AcDbEntity
  8
0
  6
Continuous
 62
     7
370
    15
100
AcDbPolyline
 90
        3
 70
   128
 43
0.0
 10
1298.4373707746
 20
1363.3851230481
 10
1298.2436556791
 20
1363.3826792577
 10
1295.7120974038
 20
1362.9385352471
  0
LINE
  5
249
330
1F
100
AcDbEntity
  8
0
  6
Continuous
 62
     7
370
    15
100
AcDbLine
 10
1301.1626739476
 20
1362.9385352471
 30
0.0
 11
1298.4373707746
 21
1363.3851230481
 31
0.0
  0
LINE
  5
24A
330
1F
100
AcDbEntity
  8
0
  6
Continuous
 62
     7
370
    15
100
AcDbLine
 10
1301.1626739476
 20
1360.1351201871
 30
0.0
 11
1301.1626739476
 21
1362.9385352471
 31
0.0
  0
LWPOLYLINE
  5
24B
330
1F
100
AcDbEntity
  8
0
  6
Continuous
 62
     7
370
    15
100
AcDbPolyline
 90
        3
 70
   128
 43
0.0
 10
1303.3496875737
 20
1363.3851230481
 10
1303.1942088579
 20
1363.3826792577
 10
1301.1626739476
 20
1362.9385352471
  0
LINE
  5
24C
330
1F
100
AcDbEntity
  8
0
  6
Continuous
 62
     7
370
    15
100
AcDbLine
 10
1298.4373707746
 20
1363.3851230481
 30
0.0
 11
1303.3496875737
 21
1363.3851230481
 31
0.0
  0
LINE
  5
24D
330
1F
100
AcDbEntity
  8
0
  6
Continuous
 62
     7
370
    15
100
AcDbLine
 10
1305.5367011998
 20
1362.9385352471
 30
0.0
 11
1303.3496875737
 21
1363.3851230481
 31
0.0
  0
LINE
  5
24E
330
1F
100
AcDbEntity
  8
0
  6
Continuous
 62
     7
370
    15
100
AcDbLine
 10
1305.5367011998
 20
1360.1351201871
 30
0.0
 11
1305.5367011998
 21
1362.9385352471
 31
0.0
  0
LWPOLYLINE
  5
24F
330
1F
100
AcDbEntity
  8
0
  6
Continuous
 62
     7
370
    15
100
AcDbPolyline
 90
        3
 70
   128
 43
0.0
 10
1295.1738376592
 20
1363.3851230481
 10
1295.3203160737
 20
1363.3496880868
 10
1295.7120974038
 20
1362.9385352471
  0
LINE
  5
250
330
1F
100
AcDbEntity
  8
0
  6
Continuous
 62
     7
370
    15
100
AcDbLine
 10
1295.1738376592
 20
1363.3851230481
 30
0.0
 11
1298.4373707746
 21
1363.3851230481
 31
0.0
  0
LWPOLYLINE
  5
251
330
1F
100
AcDbEntity
  8
0
  6
Continuous
 62
     7
370
    15
100
AcDbPolyline
 90
        3
 70
   128
 43
0.0
 10
1304.9984414552
 20
1363.3851230481
 10
1305.1449496721
 20
1363.3496880868
 10
1305.5367011998
 20
1362.9385352471
  0
LINE
  5
252
330
1F
100
AcDbEntity
  8
0
  6
Continuous
 62
     7
370
    15
100
AcDbLine
 10
1303.3496875737
 20
1363.3851230481
 30
0.0
 11
1305.0781030629
 21
1363.3851230481
 31
0.0
  0
LINE
  5
253
330
1F
100
AcDbEntity
  8
0
  6
Continuous
 62
     7
370
    15
100
AcDbLine
 10
1294.6355779146
 20
1360.1351201871
 30
0.0
 11
1294.6355779146
 21
1362.9385352471
 31
0.0
  0
LINE
  5
254
330
1F
100
AcDbEntity
  8
0
  6
Continuous
 62
     7
370
    15
100
AcDbLine
 10
1294.6355779146
 20
1362.9385352471
 30
0.0
 11
1294.7715957139
 21
1363.1278694013
 31
0.0
  0
LINE
  5
255
330
1F
100
AcDbEntity
  8
0
  6
Continuous
 62
     7
370
    15
100
AcDbLine
 10
1295.0024147008
 20
1363.2755101064
 30
0.0
 11
1295.1738376592
 21
1363.3851230481
 31
0.0
  0
LINE
  5
256
330
1F
100
AcDbEntity
  8
0
  6
Continuous
 62
     7
370
    15
100
AcDbLine
 10
1295.0861294244
 20
1363.3851230481
 30
0.0
 11
1295.1738376592
 21
1363.3851230481
 31
0.0
  0
LINE
  5
257
330
1F
100
AcDbEntity
  8
0
  6
Continuous
 62
     7
370
    15
100
AcDbLine
 10
1303.9745230649
 20
1364.0816927293
 30
0.0
 11
1301.1544187043
 21
1363.6351049283
 31
0.0
  0
LWPOLYLINE
  5
258
330
1F
100
AcDbEntity
  8
0
  6
Continuous
 62
     7
370
    15
100
AcDbPolyline
 90
        3
 70
   128
 43
0.0
 10
1301.1544187043
 20
1363.6351049283
 10
1300.953968284
 20
1363.6375487188
 10
1298.3343441461
 20
1364.0816927293
  0
LINE
  5
259
330
1F
100
AcDbEntity
  8
0
  6
Continuous
 62
     7
370
    15
100
AcDbLine
 10
1298.3343441461
 20
1364.0816927293
 30
0.0
 11
1298.3343441461
 21
1368.3885157445
 31
0.0
  0
LWPOLYLINE
  5
25A
330
1F
100
AcDbEntity
  8
0
  6
Continuous
 62
     7
370
    15
100
AcDbPolyline
 90
        3
 70
   128
 43
0.0
 10
1301.1544187043
 20
1368.8351035455
 10
1300.953968284
 20
1368.8326895574
 10
1298.3343441461
 20
1368.3885157445
  0
LINE
  5
25B
330
1F
100
AcDbEntity
  8
0
  6
Continuous
 62
     7
370
    15
100
AcDbLine
 10
1303.9745230649
 20
1368.3885157445
 30
0.0
 11
1301.1544187043
 21
1368.8351035455
 31
0.0
  0
LINE
  5
25C
330
1F
100
AcDbEntity
  8
0
  6
Continuous
 62
     7
370
    15
100
AcDbLine
 10
1303.9745230649
 20
1364.0816927293
 30
0.0
 11
1303.9745230649
 21
1368.3885157445
 31
0.0
  0
LINE
  5
25D
330
1F
100
AcDbEntity
  8
0
  6
Continuous
 62
     7
370
    15
100
AcDbLine
 10
1298.3343441461
 20
1368.3885157445
 30
0.0
 11
1296.3901300405
 21
1368.8351035455
 31
0.0
  0
LINE
  5
25E
330
1F
100
AcDbEntity
  8
0
  6
Continuous
 62
     7
370
    15
100
AcDbLine
 10
1298.3343441461
 20
1364.0816927293
 30
0.0
 11
1296.3901300405
 21
1363.6351049283
 31
0.0
  0
LINE
  5
25F
330
1F
100
AcDbEntity
  8
0
  6
Continuous
 62
     7
370
    15
100
AcDbLine
 10
1301.1544187043
 20
1363.6351049283
 30
0.0
 11
1296.3901300405
 21
1363.6351049283
 31
0.0
  0
LWPOLYLINE
  5
260
330
1F
100
AcDbEntity
  8
0
  6
Continuous
 62
     7
370
    15
100
AcDbPolyline
 90
        3
 70
   128
 43
0.0
 10
1304.8504133199
 20
1368.8351035455
 10
1304.6120543454
 20
1368.7996983865
 10
1303.9745230649
 20
1368.3885157445
  0
LWPOLYLINE
  5
261
330
1F
100
AcDbEntity
  8
0
  6
Continuous
 62
     7
370
    15
100
AcDbPolyline
 90
        3
 70
   128
 43
0.0
 10
1304.8504133199
 20
1363.6351049283
 10
1304.6120543454
 20
1363.6705100873
 10
1303.9745230649
 20
1364.0816927293
  0
LINE
  5
262
330
1F
100
AcDbEntity
  8
0
  6
Continuous
 62
     7
370
    15
100
AcDbLine
 10
1304.8504133199
 20
1363.6351049283
 30
0.0
 11
1301.1544187043
 21
1363.6351049283
 31
0.0
  0
LWPOLYLINE
  5
263
330
1F
100
AcDbEntity
  8
0
  6
Continuous
 62
     7
370
    15
100
AcDbPolyline
 90
        3
 70
   128
 43
0.0
 10
1296.3901300405
 20
1363.6351049283
 10
1296.2519366716
 20
1363.6375487188
 10
1294.4459457372
 20
1364.0816927293
  0
LINE
  5
264
330
1F
100
AcDbEntity
  8
0
  6
Continuous
 62
     7
370
    15
100
AcDbLine
 10
1294.4459457372
 20
1364.0816927293
 30
0.0
 11
1294.4459457372
 21
1364.4351184705
 31
0.0
  0
LWPOLYLINE
  5
265
330
1F
100
AcDbEntity
  8
0
  6
Continuous
 62
     7
370
    15
100
AcDbPolyline
 90
        3
 70
   128
 43
0.0
 10
1296.3901300405
 20
1368.8351035455
 10
1296.2519366716
 20
1368.8326895574
 10
1296.1299855684
 20
1368.8026786187
  0
LWPOLYLINE
  5
266
330
1F
100
AcDbEntity
  8
0
  6
Continuous
 62
     7
370
    15
100
AcDbPolyline
 90
        3
 70
   128
 43
0.0
 10
1305.7263333772
 20
1364.0816927293
 10
1305.5049915288
 20
1363.8923287728
 10
1304.8504133199
 20
1363.6351049283
  0
LWPOLYLINE
  5
267
330
1F
100
AcDbEntity
  8
0
  6
Continuous
 62
     7
370
    15
100
AcDbPolyline
 90
        3
 70
   128
 43
0.0
 10
1305.7263333772
 20
1368.3885157445
 10
1305.5049915288
 20
1368.577879701
 10
1305.3243596528
 20
1368.6488688329
  0
LINE
  5
268
330
1F
100
AcDbEntity
  8
0
  6
Continuous
 62
     7
370
    15
100
AcDbLine
 10
1305.7263333772
 20
1364.0816927293
 30
0.0
 11
1305.7263333772
 21
1368.3885157445
 31
0.0
  0
LINE
  5
269
330
1F
100
AcDbEntity
  8
0
  6
Continuous
 62
     7
370
    15
100
AcDbLine
 10
1294.8498864148
 20
1363.8211906293
 30
0.0
 11
1294.4459457372
 21
1364.0816927293
 31
0.0
  0
LINE
  5
26A
330
1F
100
AcDbEntity
  8
0
  6
Continuous
 62
     7
370
    15
100
AcDbLine
 10
1295.0861294244
 20
1363.6351049283
 30
0.0
 11
1296.3901300405
 21
1363.6351049283
 31
0.0
  0
LINE
  5
26B
330
1F
100
AcDbEntity
  8
0
  6
Continuous
 62
     7
370
    15
100
AcDbLine
 10
1305.08614969
 20
1363.6351049283
 30
0.0
 11
1304.8504133199
 21
1363.6351049283
 31
0.0
  0
LINE
  5
26C
330
1F
100
AcDbEntity
  8
0
  6
Continuous
 62
     7
370
    15
100
AcDbLine
 10
1261.7206711744
 20
1328.6351085046
 30
0.0
 11
1271.7960019086
 21
1328.6351085046
 31
0.0
  0
LINE
  5
26D
330
1F
100
AcDbEntity
  8
0
  6
Continuous
 62
     7
370
    15
100
AcDbLine
 10
1117.0861412261
 20
1345.4350948671
 30
0.0
 11
1090.748711345
 21
1345.4350948671
 31
0.0
  0
LINE
  5
26E
330
1F
100
AcDbEntity
  8
0
  6
Continuous
 62
     7
370
    15
100
AcDbLine
 10
1080.6397188876
 20
1345.4350948671
 30
0.0
 11
1032.0861403321
 21
1345.4350948671
 31
0.0
  0
LINE
  5
26F
330
1F
100
AcDbEntity
  8
0
  6
Continuous
 62
     7
370
    15
100
AcDbLine
 10
980.6397136722
 20
1345.4350948671
 30
0.0
 11
890.7487083648
 21
1345.4350948671
 31
0.0
  0
LINE
  5
270
330
1F
100
AcDbEntity
  8
0
  6
Continuous
 62
     7
370
    15
100
AcDbLine
 10
832.0861373518
 20
1345.4350948671
 30
0.0
 11
790.7487143253
 21
1345.4350948671
 31
0.0
  0
LINE
  5
271
330
1F
100
AcDbEntity
  8
0
  6
Continuous
 62
     7
370
    15
100
AcDbLine
 10
780.6397069667
 20
1345.4350948671
 30
0.0
 11
747.0861364578
 21
1345.4350948671
 31
0.0
  0
ENDSEC
  0
SECTION
  2
OBJECTS
  0
DICTIONARY
  5
C
330
0
100
AcDbDictionary
281
     1
  3
ACAD_GROUP
350
D
  3
ACAD_LAYOUT
350
1A
  3
ACAD_MLINESTYLE
350
17
  3
ACAD_PLOTSETTINGS
350
19
  3
ACAD_PLOTSTYLENAME
350
E
  0
DICTIONARY
  5
D
102
{ACAD_REACTORS
330
C
102
}
330
C
100
AcDbDictionary
281
     1
  0
DICTIONARY
  5
1A
102
{ACAD_REACTORS
330
C
102
}
330
C
100
AcDbDictionary
281
     1
  3
Layout1
350
1E
  3
Layout2
350
26
  3
Model
350
22
  0
DICTIONARY
  5
17
102
{ACAD_REACTORS
330
C
102
}
330
C
100
AcDbDictionary
281
     1
  3
Standard
350
18
  0
DICTIONARY
  5
19
102
{ACAD_REACTORS
330
C
102
}
330
C
100
AcDbDictionary
281
     1
  0
ACDBDICTIONARYWDFLT
  5
E
102
{ACAD_REACTORS
330
C
102
}
330
C
100
AcDbDictionary
281
     1
  3
Normal
350
F
100
AcDbDictionaryWithDefault
340
F
  0
LAYOUT
  5
1E
102
{ACAD_REACTORS
330
1A
102
}
330
1A
100
AcDbPlotSettings
  1

  2
none_device
  4

  6

 40
0.0
 41
0.0
 42
0.0
 43
0.0
 44
0.0
 45
0.0
 46
0.0
 47
0.0
 48
0.0
 49
0.0
140
0.0
141
0.0
142
1.0
143
1.0
 70
   688
 72
     0
 73
     0
 74
     5
  7

 75
    16
147
1.0
148
0.0
149
0.0
100
AcDbLayout
  1
Layout1
 70
     1
 71
     1
 10
0.0
 20
0.0
 11
420.0
 21
297.0
 12
0.0
 22
0.0
 32
0.0
 14
1.0000000000E+20
 24
1.0000000000E+20
 34
1.0000000000E+20
 15
-1.0000000000E+20
 25
-1.0000000000E+20
 35
-1.0000000000E+20
146
0.0
 13
0.0
 23
0.0
 33
0.0
 16
1.0
 26
0.0
 36
0.0
 17
0.0
 27
1.0
 37
0.0
 76
     0
330
1B
  0
LAYOUT
  5
26
102
{ACAD_REACTORS
330
1A
102
}
330
1A
100
AcDbPlotSettings
  1

  2
none_device
  4

  6

 40
0.0
 41
0.0
 42
0.0
 43
0.0
 44
0.0
 45
0.0
 46
0.0
 47
0.0
 48
0.0
 49
0.0
140
0.0
141
0.0
142
1.0
143
1.0
 70
   688
 72
     0
 73
     0
 74
     5
  7

 75
    16
147
1.0
148
0.0
149
0.0
100
AcDbLayout
  1
Layout2
 70
     1
 71
     2
 10
0.0
 20
0.0
 11
0.0
 21
0.0
 12
0.0
 22
0.0
 32
0.0
 14
0.0
 24
0.0
 34
0.0
 15
0.0
 25
0.0
 35
0.0
146
0.0
 13
0.0
 23
0.0
 33
0.0
 16
1.0
 26
0.0
 36
0.0
 17
0.0
 27
1.0
 37
0.0
 76
     0
330
23
  0
LAYOUT
  5
22
102
{ACAD_REACTORS
330
1A
102
}
330
1A
100
AcDbPlotSettings
  1

  2
none_device
  4

  6

 40
0.0
 41
0.0
 42
0.0
 43
0.0
 44
0.0
 45
0.0
 46
0.0
 47
0.0
 48
0.0
 49
0.0
140
0.0
141
0.0
142
1.0
143
1.0
 70
  1712
 72
     0
 73
     0
 74
     0
  7

 75
     0
147
1.0
148
0.0
149
0.0
100
AcDbLayout
  1
Model
 70
     1
 71
     0
 10
0.0
 20
0.0
 11
2000.0
 21
2000.0
 12
0.0
 22
0.0
 32
0.0
 14
0.0
 24
0.0
 34
0.0
 15
2000.0
 25
2000.0
 35
0.0
146
0.0
 13
0.0
 23
0.0
 33
0.0
 16
1.0
 26
0.0
 36
0.0
 17
0.0
 27
1.0
 37
0.0
 76
     0
330
1F
331
29
  0
MLINESTYLE
  5
18
102
{ACAD_REACTORS
330
17
102
}
330
17
100
AcDbMlineStyle
  2
Standard
 70
     0
  3

 62
   256
 51
90.0
 52
90.0
 71
     2
 49
0.5
 62
   256
  6
BYLAYER
 49
-0.5
 62
   256
  6
BYLAYER
  0
ACDBPLACEHOLDER
  5
F
102
{ACAD_REACTORS
330
E
102
}
330
E
  0
ENDSEC
  0
EOF
