  0
SECTION
  2
HEADER
  9
$ACADVER
  1
AC1015
  9
$ACADMAINTVER
 70
     6
  9
$DWGCODEPAGE
  3
ANSI_1252
  9
$INSBASE
 10
0.0
 20
0.0
 30
0.0
  9
$EXTMIN
 10
0.0
 20
0.0
 30
0.0
  9
$EXTMAX
 10
1500.0
 20
1500.0
 30
0.0
  9
$LIMMIN
 10
0.0
 20
0.0
  9
$LIMMAX
 10
1500.0
 20
1500.0
  9
$ORTHOMODE
 70
     0
  9
$REGENMODE
 70
     1
  9
$FILLMODE
 70
     1
  9
$QTEXTMODE
 70
     0
  9
$MIRRTEXT
 70
     1
  9
$LTSCALE
 40
1.0
  9
$ATTMODE
 70
     1
  9
$TEXTSIZE
 40
3.5
  9
$TRACEWID
 40
1.0
  9
$TEXTSTYLE
  7
Standard
  9
$CLAYER
  8
0
  9
$CELTYPE
  6
ByLayer
  9
$CECOLOR
 62
   256
  9
$CELTSCALE
 40
1.0
  9
$DISPSILH
 70
     0
  9
$DIMSCALE
 40
1.0
  9
$DIMASZ
 40
3.302
  9
$DIMEXO
 40
1.0
  9
$DIMDLI
 40
3.75
  9
$DIMRND
 40
0.0
  9
$DIMDLE
 40
0.0
  9
$DIMEXE
 40
1.0
  9
$DIMTP
 40
0.0
  9
$DIMTM
 40
0.0
  9
$DIMTXT
 40
3.5
  9
$DIMCEN
 40
2.5
  9
$DIMTSZ
 40
0.0
  9
$DIMTOL
 70
     0
  9
$DIMLIM
 70
     0
  9
$DIMTIH
 70
     1
  9
$DIMTOH
 70
     1
  9
$DIMSE1
 70
     0
  9
$DIMSE2
 70
     0
  9
$DIMTAD
 70
     1
  9
$DIMZIN
 70
     0
  9
$DIMBLK
  1

  9
$DIMASO
 70
     1
  9
$DIMSHO
 70
     1
  9
$DIMPOST
  1

  9
$DIMAPOST
  1

  9
$DIMALT
 70
     0
  9
$DIMALTD
 70
     3
  9
$DIMALTF
 40
0.0393700787
  9
$DIMLFAC
 40
1.0
  9
$DIMTOFL
 70
     1
  9
$DIMTVP
 40
0.0
  9
$DIMTIX
 70
     0
  9
$DIMSOXD
 70
     0
  9
$DIMSAH
 70
     0
  9
$DIMBLK1
  1

  9
$DIMBLK2
  1

  9
$DIMSTYLE
  2
ISO-25
  9
$DIMCLRD
 70
     0
  9
$DIMCLRE
 70
     0
  9
$DIMCLRT
 70
     0
  9
$DIMTFAC
 40
1.0
  9
$DIMGAP
 40
1.524
  9
$DIMJUST
 70
     0
  9
$DIMSD1
 70
     0
  9
$DIMSD2
 70
     0
  9
$DIMTOLJ
 70
     0
  9
$DIMTZIN
 70
     0
  9
$DIMALTZ
 70
     0
  9
$DIMALTTZ
 70
     0
  9
$DIMUPT
 70
     0
  9
$DIMDEC
 70
     1
  9
$DIMTDEC
 70
     1
  9
$DIMALTU
 70
     2
  9
$DIMALTTD
 70
     3
  9
$DIMTXSTY
  7
Standard
  9
$DIMAUNIT
 70
     0
  9
$DIMADEC
 70
     1
  9
$DIMALTRND
 40
0.0
  9
$DIMAZIN
 70
     0
  9
$DIMDSEP
 70
    44
  9
$DIMATFIT
 70
     3
  9
$DIMFRAC
 70
     0
  9
$DIMLDRBLK
  1

  9
$DIMLUNIT
 70
     2
  9
$DIMLWD
 70
    -2
  9
$DIMLWE
 70
    -2
  9
$DIMTMOVE
 70
     0
  9
$LUNITS
 70
     2
  9
$LUPREC
 70
     1
  9
$SKETCHINC
 40
1.0
  9
$FILLETRAD
 40
10.0
  9
$AUNITS
 70
     0
  9
$AUPREC
 70
     1
  9
$MENU
  1
.
  9
$ELEVATION
 40
0.0
  9
$PELEVATION
 40
0.0
  9
$THICKNESS
 40
0.0
  9
$LIMCHECK
 70
     0
  9
$CHAMFERA
 40
10.0
  9
$CHAMFERB
 40
10.0
  9
$CHAMFERC
 40
20.0
  9
$CHAMFERD
 40
0.0
  9
$SKPOLY
 70
     0
  9
$TDCREATE
 40
2456049.314972974
  9
$TDUCREATE
 40
2456049.273306308
  9
$TDUPDATE
 40
2456049.314973333
  9
$TDUUPDATE
 40
2456049.273306667
  9
$TDINDWG
 40
0.0000000116
  9
$TDUSRTIMER
 40
0.0000000116
  9
$USRTIMER
 70
     1
  9
$ANGBASE
 50
0.0
  9
$ANGDIR
 70
     0
  9
$PDMODE
 70
     0
  9
$PDSIZE
 40
-1.0
  9
$PLINEWID
 40
0.0
  9
$SPLFRAME
 70
     0
  9
$SPLINETYPE
 70
     6
  9
$SPLINESEGS
 70
     8
  9
$HANDSEED
  5
324
  9
$SURFTAB1
 70
     6
  9
$SURFTAB2
 70
     6
  9
$SURFTYPE
 70
     6
  9
$SURFU
 70
     6
  9
$SURFV
 70
     6
  9
$UCSBASE
  2

  9
$UCSNAME
  2

  9
$UCSORG
 10
0.0
 20
0.0
 30
0.0
  9
$UCSXDIR
 10
1.0
 20
0.0
 30
0.0
  9
$UCSYDIR
 10
0.0
 20
1.0
 30
0.0
  9
$UCSORTHOREF
  2

  9
$UCSORTHOVIEW
 70
     0
  9
$UCSORGTOP
 10
0.0
 20
0.0
 30
0.0
  9
$UCSORGBOTTOM
 10
0.0
 20
0.0
 30
0.0
  9
$UCSORGLEFT
 10
0.0
 20
0.0
 30
0.0
  9
$UCSORGRIGHT
 10
0.0
 20
0.0
 30
0.0
  9
$UCSORGFRONT
 10
0.0
 20
0.0
 30
0.0
  9
$UCSORGBACK
 10
0.0
 20
0.0
 30
0.0
  9
$PUCSBASE
  2

  9
$PUCSNAME
  2

  9
$PUCSORG
 10
0.0
 20
0.0
 30
0.0
  9
$PUCSXDIR
 10
1.0
 20
0.0
 30
0.0
  9
$PUCSYDIR
 10
0.0
 20
1.0
 30
0.0
  9
$PUCSORTHOREF
  2

  9
$PUCSORTHOVIEW
 70
     0
  9
$PUCSORGTOP
 10
0.0
 20
0.0
 30
0.0
  9
$PUCSORGBOTTOM
 10
0.0
 20
0.0
 30
0.0
  9
$PUCSORGLEFT
 10
0.0
 20
0.0
 30
0.0
  9
$PUCSORGRIGHT
 10
0.0
 20
0.0
 30
0.0
  9
$PUCSORGFRONT
 10
0.0
 20
0.0
 30
0.0
  9
$PUCSORGBACK
 10
0.0
 20
0.0
 30
0.0
  9
$USERI1
 70
     0
  9
$USERI2
 70
     0
  9
$USERI3
 70
     0
  9
$USERI4
 70
     0
  9
$USERI5
 70
     0
  9
$USERR1
 40
0.0
  9
$USERR2
 40
0.0
  9
$USERR3
 40
0.0
  9
$USERR4
 40
0.0
  9
$USERR5
 40
0.0
  9
$WORLDVIEW
 70
     1
  9
$SHADEDGE
 70
     3
  9
$SHADEDIF
 70
    70
  9
$TILEMODE
 70
     1
  9
$MAXACTVP
 70
    64
  9
$PINSBASE
 10
0.0
 20
0.0
 30
0.0
  9
$PLIMCHECK
 70
     0
  9
$PEXTMIN
 10
1.0000000000E+20
 20
1.0000000000E+20
 30
1.0000000000E+20
  9
$PEXTMAX
 10
-1.0000000000E+20
 20
-1.0000000000E+20
 30
-1.0000000000E+20
  9
$PLIMMIN
 10
0.0
 20
0.0
  9
$PLIMMAX
 10
420.0
 20
297.0
  9
$UNITMODE
 70
     0
  9
$VISRETAIN
 70
     1
  9
$PLINEGEN
 70
     0
  9
$PSLTSCALE
 70
     1
  9
$TREEDEPTH
 70
  3020
  9
$CMLSTYLE
  2
Standard
  9
$CMLJUST
 70
     0
  9
$CMLSCALE
 40
20.0
  9
$PROXYGRAPHICS
 70
     1
  9
$MEASUREMENT
 70
     1
  9
$CELWEIGHT
370
    -1
  9
$ENDCAPS
280
     0
  9
$JOINSTYLE
280
     0
  9
$LWDISPLAY
290
     1
  9
$INSUNITS
 70
     4
  9
$HYPERLINKBASE
  1

  9
$STYLESHEET
  1

  9
$XEDIT
290
     1
  9
$CEPSNTYPE
380
     0
  9
$PSTYLEMODE
290
     1
  9
$FINGERPRINTGUID
  2
{623E138F-B50B-4671-8C7D-1F6A50844943}
  9
$VERSIONGUID
  2
{FAEB1C32-E019-11D5-929B-00C0DF256EC4}
  9
$EXTNAMES
290
     1
  9
$PSVPSCALE
 40
0.0
  9
$OLESTARTUP
290
     0
  0
ENDSEC
  0
SECTION
  2
CLASSES
  0
CLASS
  1
ACDBDICTIONARYWDFLT
  2
AcDbDictionaryWithDefault
  3
ObjectDBX Classes
 90
        0
280
     0
281
     0
  0
CLASS
  1
VISUALSTYLE
  2
AcDbVisualStyle
  3
ObjectDBX Classes
 90
     4095
280
     0
281
     0
  0
CLASS
  1
MATERIAL
  2
AcDbMaterial
  3
ObjectDBX Classes
 90
     1153
280
     0
281
     0
  0
CLASS
  1
ACDBPLACEHOLDER
  2
AcDbPlaceHolder
  3
ObjectDBX Classes
 90
        0
280
     0
281
     0
  0
CLASS
  1
LAYOUT
  2
AcDbLayout
  3
ObjectDBX Classes
 90
        0
280
     0
281
     0
  0
ENDSEC
  0
SECTION
  2
TABLES
  0
TABLE
  2
VPORT
  5
8
330
0
100
AcDbSymbolTable
 70
     1
  0
VPORT
  5
29
330
8
100
AcDbSymbolTableRecord
100
AcDbViewportTableRecord
  2
*Active
 70
     0
 10
0.0
 20
0.0
 11
1.0
 21
1.0
 12
750.0
 22
750.0
 13
0.0
 23
0.0
 14
10.0
 24
10.0
 15
10.0
 25
10.0
 16
0.0
 26
0.0
 36
1.0
 17
0.0
 27
0.0
 37
0.0
 40
1500.0
 41
1.0
 42
50.0
 43
0.0
 44
0.0
 50
0.0
 51
0.0
 71
     0
 72
  2000
 73
     1
 74
     3
 75
     0
 76
     0
 77
     0
 78
     0
281
     0
 65
     1
110
0.0
120
0.0
130
0.0
111
1.0
121
0.0
131
0.0
112
0.0
122
1.0
132
0.0
 79
     0
146
0.0
  0
ENDTAB
  0
TABLE
  2
LTYPE
  5
5
330
0
100
AcDbSymbolTable
 70
     6
  0
LTYPE
  5
14
330
5
100
AcDbSymbolTableRecord
100
AcDbLinetypeTableRecord
  2
ByBlock
 70
     0
  3

 72
    65
 73
     0
 40
0.0
  0
LTYPE
  5
15
330
5
100
AcDbSymbolTableRecord
100
AcDbLinetypeTableRecord
  2
ByLayer
 70
     0
  3

 72
    65
 73
     0
 40
0.0
  0
LTYPE
  5
16
330
5
100
AcDbSymbolTableRecord
100
AcDbLinetypeTableRecord
  2
Continuous
 70
     0
  3
Solid line
 72
    65
 73
     0
 40
0.0
  0
LTYPE
  5
3F
330
5
100
AcDbSymbolTableRecord
100
AcDbLinetypeTableRecord
  2
HIDDEN
 70
     0
  3
Hidden __ __ __ __ __ __ __ __ __ __ __ __ __ __
 72
    65
 73
     2
 40
1.905
 49
1.27
 74
     0
 49
-0.635
 74
     0
  0
LTYPE
  5
40
330
5
100
AcDbSymbolTableRecord
100
AcDbLinetypeTableRecord
  2
PHANTOM
 70
     0
  3
Phantom ______  __  __  ______  __  __  ______
 72
    65
 73
     6
 40
12.7
 49
6.35
 74
     0
 49
-1.27
 74
     0
 49
1.27
 74
     0
 49
-1.27
 74
     0
 49
1.27
 74
     0
 49
-1.27
 74
     0
  0
LTYPE
  5
41
330
5
100
AcDbSymbolTableRecord
100
AcDbLinetypeTableRecord
  2
CENTER
 70
     0
  3
Center ____ _ ____ _ ____ _ ____ _ ____ _ ____
 72
    65
 73
     4
 40
10.16
 49
6.35
 74
     0
 49
-1.27
 74
     0
 49
1.27
 74
     0
 49
-1.27
 74
     0
  0
LTYPE
  5
42
330
5
100
AcDbSymbolTableRecord
100
AcDbLinetypeTableRecord
  2
CENTERX2
 70
     0
  3
Center (2x) ________  __  ________  __  _____
 72
    65
 73
     4
 40
20.32
 49
12.7
 74
     0
 49
-2.54
 74
     0
 49
2.54
 74
     0
 49
-2.54
 74
     0
  0
LTYPE
  5
43
330
5
100
AcDbSymbolTableRecord
100
AcDbLinetypeTableRecord
  2
DOT2
 70
     0
  3
Dot (.5x) ........................................
 72
    65
 73
     2
 40
0.635
 49
0.0
 74
     0
 49
-0.635
 74
     0
  0
ENDTAB
  0
TABLE
  2
LAYER
  5
2
330
0
100
AcDbSymbolTable
 70
     4
  0
LAYER
  5
10
330
2
100
AcDbSymbolTableRecord
100
AcDbLayerTableRecord
  2
0
 70
     0
 62
     7
  6
Continuous
370
    -3
390
F
  0
LAYER
  5
44
330
2
100
AcDbSymbolTableRecord
100
AcDbLayerTableRecord
  2
FORMAT
 70
     0
 62
     7
  6
Continuous
370
    -3
390
F
  0
LAYER
  5
45
330
2
100
AcDbSymbolTableRecord
100
AcDbLayerTableRecord
  2
SLD-0
 70
     0
 62
     1
  6
Continuous
370
    -3
390
F
  0
LAYER
  5
46
330
2
100
AcDbSymbolTableRecord
100
AcDbLayerTableRecord
  2
WATERMARK
 70
     0
 62
    20
  6
Continuous
370
    -3
390
F
  0
ENDTAB
  0
TABLE
  2
STYLE
  5
3
330
0
100
AcDbSymbolTable
 70
     1
  0
STYLE
  5
11
330
3
100
AcDbSymbolTableRecord
100
AcDbTextStyleTableRecord
  2
Standard
 70
     0
 40
0.0
 41
1.0
 50
0.0
 71
     0
 42
3.5
  3
txt
  4

  0
ENDTAB
  0
TABLE
  2
VIEW
  5
6
330
0
100
AcDbSymbolTable
 70
     0
  0
ENDTAB
  0
TABLE
  2
UCS
  5
7
330
0
100
AcDbSymbolTable
 70
     0
  0
ENDTAB
  0
TABLE
  2
APPID
  5
9
330
0
100
AcDbSymbolTable
 70
     1
  0
APPID
  5
12
330
9
100
AcDbSymbolTableRecord
100
AcDbRegAppTableRecord
  2
ACAD
 70
     0
  0
ENDTAB
  0
TABLE
  2
DIMSTYLE
  5
A
330
0
100
AcDbSymbolTable
 70
     1
100
AcDbDimStyleTable
  0
DIMSTYLE
105
27
330
A
100
AcDbSymbolTableRecord
100
AcDbDimStyleTableRecord
  2
ISO-25
 70
     0
 41
2.5
 42
0.625
 43
3.75
 44
1.25
 73
     0
 74
     0
 77
     1
 78
     8
140
2.5
141
2.5
143
0.0393700787
147
0.625
171
     3
172
     1
178
     0
271
     2
272
     2
274
     3
278
    44
283
     0
284
     8
340
11
  0
ENDTAB
  0
TABLE
  2
BLOCK_RECORD
  5
1
330
0
100
AcDbSymbolTable
 70
     1
  0
BLOCK_RECORD
  5
1F
330
1
100
AcDbSymbolTableRecord
100
AcDbBlockTableRecord
  2
*Model_Space
340
22
  0
BLOCK_RECORD
  5
1B
330
1
100
AcDbSymbolTableRecord
100
AcDbBlockTableRecord
  2
*Paper_Space
340
1E
  0
BLOCK_RECORD
  5
23
330
1
100
AcDbSymbolTableRecord
100
AcDbBlockTableRecord
  2
*Paper_Space0
340
26
  0
ENDTAB
  0
ENDSEC
  0
SECTION
  2
BLOCKS
  0
BLOCK
  5
20
330
1F
100
AcDbEntity
  8
0
100
AcDbBlockBegin
  2
*Model_Space
 70
     0
 10
0.0
 20
0.0
 30
0.0
  3
*Model_Space
  1

  0
ENDBLK
  5
21
330
1F
100
AcDbEntity
  8
0
100
AcDbBlockEnd
  0
BLOCK
  5
1C
330
1B
100
AcDbEntity
 67
     1
  8
0
100
AcDbBlockBegin
  2
*Paper_Space
 70
     0
 10
0.0
 20
0.0
 30
0.0
  3
*Paper_Space
  1

  0
ENDBLK
  5
1D
330
1B
100
AcDbEntity
 67
     1
  8
0
100
AcDbBlockEnd
  0
BLOCK
  5
24
330
23
100
AcDbEntity
  8
0
100
AcDbBlockBegin
  2
*Paper_Space0
 70
     0
 10
0.0
 20
0.0
 30
0.0
  3
*Paper_Space0
  1

  0
ENDBLK
  5
25
330
23
100
AcDbEntity
  8
0
100
AcDbBlockEnd
  0
ENDSEC
  0
SECTION
  2
ENTITIES
  0
LINE
  5
47
330
1F
100
AcDbEntity
  8
0
  6
Continuous
 62
     7
370
    15
100
AcDbLine
 10
1112.9816839907
 20
1307.354139315
 30
0.0
 11
1121.3321159098
 21
1310.0673427451
 31
0.0
  0
LINE
  5
48
330
1F
100
AcDbEntity
  8
0
  6
Continuous
 62
     7
370
    15
100
AcDbLine
 10
1118.5509631846
 20
1318.6268677581
 30
0.0
 11
1110.2005312655
 21
1315.9136643279
 31
0.0
  0
LINE
  5
49
330
1F
100
AcDbEntity
  8
0
  6
Continuous
 62
     7
370
    15
100
AcDbLine
 10
1114.0427062723
 20
1304.0886392463
 30
0.0
 11
1116.4853344176
 21
1304.8822750915
 31
0.0
  0
LINE
  5
4A
330
1F
100
AcDbEntity
  8
0
  6
Continuous
 62
     7
370
    15
100
AcDbLine
 10
1108.3890865061
 20
1329.7999968398
 30
0.0
 11
1105.9464583609
 21
1329.00630139
 31
0.0
  0
LINE
  5
4B
330
1F
100
AcDbEntity
  8
0
  6
Continuous
 62
     7
370
    15
100
AcDbLine
 10
1116.4853344176
 20
1304.8822750915
 30
0.0
 11
1116.6648636076
 21
1306.6974749435
 31
0.0
  0
LINE
  5
4C
330
1F
100
AcDbEntity
  8
0
  6
Continuous
 62
     7
370
    15
100
AcDbLine
 10
1109.6012661669
 20
1328.4369578231
 30
0.0
 11
1108.3890865061
 21
1329.7999968398
 31
0.0
  0
LINE
  5
4D
330
1F
100
AcDbEntity
  8
0
  6
Continuous
 62
     7
370
    15
100
AcDbLine
 10
1118.5784409258
 20
1325.0144591201
 30
0.0
 11
1111.4643881533
 21
1322.7029313911
 31
0.0
  0
LINE
  5
4E
330
1F
100
AcDbEntity
  8
0
  6
Continuous
 62
     7
370
    15
100
AcDbLine
 10
371.7874059889
 20
1341.7283763755
 30
0.0
 11
370.8874056551
 21
1341.7283763755
 31
0.0
  0
LINE
  5
4F
330
1F
100
AcDbEntity
  8
0
  6
Continuous
 62
     7
370
    15
100
AcDbLine
 10
370.8874056551
 20
1309.7283711303
 30
0.0
 11
371.7874059889
 21
1309.7283711303
 31
0.0
  0
LWPOLYLINE
  5
50
330
1F
100
AcDbEntity
  8
0
  6
Continuous
 62
     7
370
    15
100
AcDbPolyline
 90
        5
 70
   128
 43
0.0
 10
1142.1115169737
 20
862.6573254932
 10
1142.1115169737
 20
862.6573552955
 10
1142.1114871714
 20
862.6573850978
 10
1142.1114573691
 20
862.6574447024
 10
1142.1114573691
 20
862.6574447024
  0
ELLIPSE
  5
51
330
1F
100
AcDbEntity
  8
0
  6
Continuous
 62
     7
370
    15
100
AcDbEllipse
 10
1189.6872868962
 20
1163.4282838763
 30
0.0
 11
0.0
 21
-20.0
 31
0.0
210
-3.613775945154802E-15
220
0.0
230
1.0
 40
0.5
 41
0.0
 42
3.141592653589793
  0
LINE
  5
52
330
1F
100
AcDbEntity
  8
0
  6
Continuous
 62
     7
370
    15
100
AcDbLine
 10
1139.7959957335
 20
1143.4283127654
 30
0.0
 11
1189.6872887823
 21
1143.4283127654
 31
0.0
  0
LINE
  5
53
330
1F
100
AcDbEntity
  8
0
  6
Continuous
 62
     7
370
    15
100
AcDbLine
 10
1189.6872887823
 20
1183.4282746184
 30
0.0
 11
1139.8610840056
 21
1183.4282746184
 31
0.0
  0
LINE
  5
54
330
1F
100
AcDbEntity
  8
0
  6
Continuous
 62
     7
370
    15
100
AcDbLine
 10
1131.8867275927
 20
1284.0558161605
 30
0.0
 11
1140.1612231943
 21
1290.950225817
 31
0.0
  0
LINE
  5
55
330
1F
100
AcDbEntity
  8
0
  6
Continuous
 62
     7
370
    15
100
AcDbLine
 10
1114.2952809546
 20
1345.708714949
 30
0.0
 11
1111.8006179545
 21
1345.8744754661
 31
0.0
  0
LINE
  5
56
330
1F
100
AcDbEntity
  8
0
  6
Continuous
 62
     7
370
    15
100
AcDbLine
 10
1122.5472460005
 20
1345.1604118217
 30
0.0
 11
1119.2841003153
 21
1345.3772535194
 31
0.0
  0
LINE
  5
57
330
1F
100
AcDbEntity
  8
0
  6
Continuous
 62
     7
370
    15
100
AcDbLine
 10
1140.1612231943
 20
1290.950225817
 30
0.0
 11
1155.9224198076
 21
1305.2555193771
 31
0.0
  0
LINE
  5
58
330
1F
100
AcDbEntity
  8
0
  6
Continuous
 62
     7
370
    15
100
AcDbLine
 10
1123.0442891333
 20
1345.1061715949
 30
0.0
 11
1122.5472460005
 21
1345.1604118217
 31
0.0
  0
ARC
  5
59
330
1F
100
AcDbEntity
  8
0
  6
Continuous
 62
     7
370
    15
100
AcDbCircle
 10
1155.2503279195
 20
1305.9959864098
 30
0.0
 40
0.9999999999999645
100
AcDbArc
 50
312.2277453179
 51
18.0
  0
LINE
  5
5A
330
1F
100
AcDbEntity
  8
0
  6
Continuous
 62
     7
370
    15
100
AcDbLine
 10
1122.1392224047
 20
1307.5833787788
 30
0.0
 11
1124.0521142695
 21
1308.1682195533
 31
0.0
  0
LINE
  5
5B
330
1F
100
AcDbEntity
  8
0
  6
Continuous
 62
     7
370
    15
100
AcDbLine
 10
1119.287587187
 20
1345.3870286811
 30
0.0
 11
1114.2931649897
 21
1345.7189073432
 31
0.0
  0
LWPOLYLINE
  5
5C
330
1F
100
AcDbEntity
  8
0
  6
Continuous
 62
     7
370
    15
100
AcDbPolyline
 90
        7
 70
   128
 43
0.0
 10
360.1850042555
 20
731.2904318441
 10
360.1842591975
 20
731.2683781255
 10
360.1479301665
 20
731.2110533584
 10
360.0955376837
 20
731.1733534206
 10
360.0290189001
 20
731.147514807
 10
359.9468538973
 20
731.1359217036
 10
359.9377045843
 20
731.1363985408
  0
LINE
  5
5D
330
1F
100
AcDbEntity
  8
0
  6
Continuous
 62
     7
370
    15
100
AcDbLine
 10
359.9374065611
 20
731.1357577909
 30
0.0
 11
354.8373947356
 21
731.1357577909
 31
0.0
  0
ARC
  5
5E
330
1F
100
AcDbEntity
  8
0
  6
Continuous
 62
     7
370
    15
100
AcDbCircle
 10
354.8374039802
 20
730.8857565999
 30
0.0
 40
0.25
100
AcDbArc
 50
90.0
 51
180.0
  0
ARC
  5
5F
330
1F
100
AcDbEntity
  8
0
  6
Continuous
 62
     7
370
    15
100
AcDbCircle
 10
354.8374039802
 20
726.4479353852
 30
0.0
 40
0.2500000000001137
100
AcDbArc
 50
180.0
 51
270.0
  0
LINE
  5
60
330
1F
100
AcDbEntity
  8
0
  6
Continuous
 62
     7
370
    15
100
AcDbLine
 10
354.8373947356
 20
726.1979376543
 30
0.0
 11
359.9374065611
 21
726.1979376543
 31
0.0
  0
ARC
  5
61
330
1F
100
AcDbEntity
  8
0
  6
Continuous
 62
     7
370
    15
100
AcDbCircle
 10
361.1374039802
 20
727.1783744953
 30
0.0
 40
0.2499999999999589
100
AcDbArc
 50
301.0756875733
 51
0.0
  0
LINE
  5
62
330
1F
100
AcDbEntity
  8
0
  6
Continuous
 62
     7
370
    15
100
AcDbLine
 10
359.9374065611
 20
745.0588067639
 30
0.0
 11
354.8373947356
 21
745.0588067639
 31
0.0
  0
ARC
  5
63
330
1F
100
AcDbEntity
  8
0
  6
Continuous
 62
     7
370
    15
100
AcDbCircle
 10
354.8374039802
 20
744.8088136053
 30
0.0
 40
0.25
100
AcDbArc
 50
90.0
 51
180.0
  0
LWPOLYLINE
  5
64
330
1F
100
AcDbEntity
  8
0
  6
Continuous
 62
     7
370
    15
100
AcDbPolyline
 90
        7
 70
   128
 43
0.0
 10
360.1884613249
 20
739.1844262946
 10
360.1888189528
 20
739.1925325263
 10
360.2075646136
 20
739.2220517266
 10
360.2511058066
 20
739.2562647927
 10
360.313362858
 20
739.2838915456
 10
360.3972265932
 20
739.3008937705
 10
360.4374001238
 20
739.3008937705
  0
ARC
  5
65
330
1F
100
AcDbEntity
  8
0
  6
Continuous
 62
     7
370
    15
100
AcDbCircle
 10
365.5374039802
 20
739.5527838312
 30
0.0
 40
0.2500000000001137
100
AcDbArc
 50
270.0
 51
0.0
  0
LINE
  5
66
330
1F
100
AcDbEntity
  8
0
  6
Continuous
 62
     7
370
    15
100
AcDbLine
 10
360.4374001238
 20
739.302786218
 30
0.0
 11
365.5374119494
 21
739.302786218
 31
0.0
  0
ARC
  5
67
330
1F
100
AcDbEntity
  8
0
  6
Continuous
 62
     7
370
    15
100
AcDbCircle
 10
365.5374039802
 20
744.3789508033
 30
0.0
 40
0.2500000000000568
100
AcDbArc
 50
0.0
 51
90.0
  0
LINE
  5
68
330
1F
100
AcDbEntity
  8
0
  6
Continuous
 62
     7
370
    15
100
AcDbLine
 10
365.5374119494
 20
744.628952967
 30
0.0
 11
360.4374001238
 21
744.628952967
 31
0.0
  0
ARC
  5
69
330
1F
100
AcDbEntity
  8
0
  6
Continuous
 62
     7
370
    15
100
AcDbCircle
 10
359.2374039802
 20
744.0783744953
 30
0.0
 40
0.25
100
AcDbArc
 50
90.0
 51
180.0
  0
LINE
  5
6A
330
1F
100
AcDbEntity
  8
0
  6
Continuous
 62
     7
370
    15
100
AcDbLine
 10
359.5006237242
 20
744.3283816445
 30
0.0
 11
359.2374096129
 21
744.3283816445
 31
0.0
  0
LINE
  5
6B
330
1F
100
AcDbEntity
  8
0
  6
Continuous
 62
     7
370
    15
100
AcDbLine
 10
361.0089192602
 20
726.6277989019
 30
0.0
 11
365.5374119494
 21
726.6277989019
 31
0.0
  0
ARC
  5
6C
330
1F
100
AcDbEntity
  8
0
  6
Continuous
 62
     7
370
    15
100
AcDbCircle
 10
365.5374039802
 20
726.8777981872
 30
0.0
 40
0.2500000000000568
100
AcDbArc
 50
270.0
 51
0.0
  0
LINE
  5
6D
330
1F
100
AcDbEntity
  8
0
  6
Continuous
 62
     7
370
    15
100
AcDbLine
 10
366.8373892519
 20
730.6283732522
 30
0.0
 11
367.0337567541
 21
730.2882765997
 31
0.0
  0
LINE
  5
6E
330
1F
100
AcDbEntity
  8
0
  6
Continuous
 62
     7
370
    15
100
AcDbLine
 10
367.0337567541
 20
740.9684678186
 30
0.0
 11
366.8373892519
 21
740.6283786166
 31
0.0
  0
LINE
  5
6F
330
1F
100
AcDbEntity
  8
0
  6
Continuous
 62
     7
370
    15
100
AcDbLine
 10
366.5874073717
 20
740.6283786166
 30
0.0
 11
366.4991924975
 21
740.7811453212
 31
0.0
  0
LINE
  5
70
330
1F
100
AcDbEntity
  8
0
  6
Continuous
 62
     7
370
    15
100
AcDbLine
 10
361.3874087546
 20
730.6283732522
 30
0.0
 11
361.4756236288
 21
730.4755990971
 31
0.0
  0
LINE
  5
71
330
1F
100
AcDbEntity
  8
0
  6
Continuous
 62
     7
370
    15
100
AcDbLine
 10
366.4991924975
 20
730.4755990971
 30
0.0
 11
366.5874073717
 21
730.6283732522
 31
0.0
  0
LINE
  5
72
330
1F
100
AcDbEntity
  8
0
  6
Continuous
 62
     7
370
    15
100
AcDbLine
 10
366.8373892519
 20
738.6283745635
 30
0.0
 11
366.5874073717
 21
738.6283745635
 31
0.0
  0
LINE
  5
73
330
1F
100
AcDbEntity
  8
0
  6
Continuous
 62
     7
370
    15
100
AcDbLine
 10
366.5874073717
 20
732.6283773053
 30
0.0
 11
366.8373892519
 21
732.6283773053
 31
0.0
  0
ARC
  5
74
330
1F
100
AcDbEntity
  8
0
  6
Continuous
 62
     7
370
    15
100
AcDbCircle
 10
1059.465431613
 20
100.7283744953
 30
0.0
 40
2.000000000000227
100
AcDbArc
 50
270.0
 51
0.0
  0
ARC
  5
75
330
1F
100
AcDbEntity
  8
0
  6
Continuous
 62
     7
370
    15
100
AcDbCircle
 10
1006.465431613
 20
100.7283744953
 30
0.0
 40
2.0
100
AcDbArc
 50
180.0
 51
270.0
  0
LINE
  5
76
330
1F
100
AcDbEntity
  8
0
  6
Continuous
 62
     7
370
    15
100
AcDbLine
 10
1061.4654193136
 20
100.7283797134
 30
0.0
 11
1061.4654193136
 21
104.7283878196
 31
0.0
  0
LINE
  5
77
330
1F
100
AcDbEntity
  8
0
  6
Continuous
 62
     7
370
    15
100
AcDbLine
 10
1004.4654379103
 20
104.7283878196
 30
0.0
 11
1004.4654379103
 21
100.7283797134
 31
0.0
  0
LINE
  5
78
330
1F
100
AcDbEntity
  8
0
  6
Continuous
 62
     7
370
    15
100
AcDbLine
 10
472.4654326651
 20
100.7283797134
 30
0.0
 11
472.4654326651
 21
104.7283878196
 31
0.0
  0
LINE
  5
79
330
1F
100
AcDbEntity
  8
0
  6
Continuous
 62
     7
370
    15
100
AcDbLine
 10
415.4654214594
 20
104.7283878196
 30
0.0
 11
415.4654214594
 21
100.7283797134
 31
0.0
  0
ARC
  5
7A
330
1F
100
AcDbEntity
  8
0
  6
Continuous
 62
     7
370
    15
100
AcDbCircle
 10
470.465431613
 20
100.7283744953
 30
0.0
 40
2.000000000000014
100
AcDbArc
 50
270.0
 51
0.0
  0
ARC
  5
7B
330
1F
100
AcDbEntity
  8
0
  6
Continuous
 62
     7
370
    15
100
AcDbCircle
 10
417.465431613
 20
100.7283744953
 30
0.0
 40
2.000000000000014
100
AcDbArc
 50
180.0
 51
270.0
  0
LINE
  5
7C
330
1F
100
AcDbEntity
  8
0
  6
Continuous
 62
     7
370
    15
100
AcDbLine
 10
1061.2654457304
 20
104.7283878196
 30
0.0
 11
1061.2654457304
 21
172.7283766139
 31
0.0
  0
LINE
  5
7D
330
1F
100
AcDbEntity
  8
0
  6
Continuous
 62
     7
370
    15
100
AcDbLine
 10
1004.6654263947
 20
172.7283766139
 30
0.0
 11
1004.6654263947
 21
104.7283878196
 31
0.0
  0
LINE
  5
7E
330
1F
100
AcDbEntity
  8
0
  6
Continuous
 62
     7
370
    15
100
AcDbLine
 10
472.2654292795
 20
104.7283878196
 30
0.0
 11
472.2654292795
 21
172.7283766139
 31
0.0
  0
LINE
  5
7F
330
1F
100
AcDbEntity
  8
0
  6
Continuous
 62
     7
370
    15
100
AcDbLine
 10
415.665424845
 20
172.7283766139
 30
0.0
 11
415.665424845
 21
104.7283878196
 31
0.0
  0
ARC
  5
80
330
1F
100
AcDbEntity
  8
0
  6
Continuous
 62
     7
370
    15
100
AcDbCircle
 10
1066.365431613
 20
265.2283744953
 30
0.0
 40
1.5
100
AcDbArc
 50
90.0
 51
180.0
  0
ARC
  5
81
330
1F
100
AcDbEntity
  8
0
  6
Continuous
 62
     7
370
    15
100
AcDbCircle
 10
999.565431613
 20
265.2283744953
 30
0.0
 40
1.500000000000114
100
AcDbArc
 50
0.0
 51
90.0
  0
LINE
  5
82
330
1F
100
AcDbEntity
  8
0
  6
Continuous
 62
     7
370
    15
100
AcDbLine
 10
1064.8654172632
 20
178.7609329093
 30
0.0
 11
1064.8654172632
 21
265.228377806
 31
0.0
  0
LINE
  5
83
330
1F
100
AcDbEntity
  8
0
  6
Continuous
 62
     7
370
    15
100
AcDbLine
 10
1001.0654250595
 20
265.228377806
 30
0.0
 11
1001.0654250595
 21
178.7609329093
 31
0.0
  0
ARC
  5
84
330
1F
100
AcDbEntity
  8
0
  6
Continuous
 62
     7
370
    15
100
AcDbCircle
 10
1060.165431613
 20
178.7609404409
 30
0.0
 40
4.700000000000045
100
AcDbArc
 50
350.5402980318
 51
0.0
  0
ARC
  5
85
330
1F
100
AcDbEntity
  8
0
  6
Continuous
 62
     7
370
    15
100
AcDbCircle
 10
1005.765431613
 20
178.7609404409
 30
0.0
 40
4.70000000000023
100
AcDbArc
 50
180.0
 51
189.4597019682
  0
LINE
  5
86
330
1F
100
AcDbEntity
  8
0
  6
Continuous
 62
     7
370
    15
100
AcDbLine
 10
1001.1293510411
 20
177.9884865153
 30
0.0
 11
1002.0057777378
 21
172.7283766139
 31
0.0
  0
LINE
  5
87
330
1F
100
AcDbEntity
  8
0
  6
Continuous
 62
     7
370
    15
100
AcDbLine
 10
1063.9250943873
 20
172.7283766139
 30
0.0
 11
1064.801521084
 21
177.9884865153
 31
0.0
  0
ARC
  5
88
330
1F
100
AcDbEntity
  8
0
  6
Continuous
 62
     7
370
    15
100
AcDbCircle
 10
477.365431613
 20
265.2283744953
 30
0.0
 40
1.500000000000057
100
AcDbArc
 50
90.0
 51
180.0
  0
ARC
  5
89
330
1F
100
AcDbEntity
  8
0
  6
Continuous
 62
     7
370
    15
100
AcDbCircle
 10
410.565431613
 20
265.2283744953
 30
0.0
 40
1.500000000000057
100
AcDbArc
 50
0.0
 51
90.0
  0
LINE
  5
8A
330
1F
100
AcDbEntity
  8
0
  6
Continuous
 62
     7
370
    15
100
AcDbLine
 10
475.8654306147
 20
178.7609329093
 30
0.0
 11
475.8654306147
 21
265.228377806
 31
0.0
  0
LINE
  5
8B
330
1F
100
AcDbEntity
  8
0
  6
Continuous
 62
     7
370
    15
100
AcDbLine
 10
412.0654235098
 20
265.228377806
 30
0.0
 11
412.0654235098
 21
178.7609329093
 31
0.0
  0
ARC
  5
8C
330
1F
100
AcDbEntity
  8
0
  6
Continuous
 62
     7
370
    15
100
AcDbCircle
 10
471.165431613
 20
178.7609404409
 30
0.0
 40
4.700000000000024
100
AcDbArc
 50
350.5402980318
 51
0.0
  0
ARC
  5
8D
330
1F
100
AcDbEntity
  8
0
  6
Continuous
 62
     7
370
    15
100
AcDbCircle
 10
416.765431613
 20
178.7609404409
 30
0.0
 40
4.700000000000024
100
AcDbArc
 50
180.0
 51
189.4597019682
  0
LINE
  5
8E
330
1F
100
AcDbEntity
  8
0
  6
Continuous
 62
     7
370
    15
100
AcDbLine
 10
412.1293494913
 20
177.9884865153
 30
0.0
 11
413.0057761881
 21
172.7283766139
 31
0.0
  0
LINE
  5
8F
330
1F
100
AcDbEntity
  8
0
  6
Continuous
 62
     7
370
    15
100
AcDbLine
 10
474.9250779364
 20
172.7283766139
 30
0.0
 11
475.8015046332
 21
177.9884865153
 31
0.0
  0
LINE
  5
90
330
1F
100
AcDbEntity
  8
0
  6
Continuous
 62
     7
370
    15
100
AcDbLine
 10
425.465441725
 20
682.5283711422
 30
0.0
 11
462.4654422018
 21
682.5283711422
 31
0.0
  0
LINE
  5
91
330
1F
100
AcDbEntity
  8
0
  6
Continuous
 62
     7
370
    15
100
AcDbLine
 10
423.9654312346
 20
682.5283711422
 30
0.0
 11
423.9654312346
 21
309.5283677447
 31
0.0
  0
LINE
  5
92
330
1F
100
AcDbEntity
  8
0
  6
Continuous
 62
     7
370
    15
100
AcDbLine
 10
424.0512321207
 20
682.5283711422
 30
0.0
 11
425.465441725
 21
682.5283711422
 31
0.0
  0
LINE
  5
93
330
1F
100
AcDbEntity
  8
0
  6
Continuous
 62
     7
370
    15
100
AcDbLine
 10
463.9654228899
 20
682.5283711422
 30
0.0
 11
463.9654228899
 21
309.5283677447
 31
0.0
  0
LINE
  5
94
330
1F
100
AcDbEntity
  8
0
  6
Continuous
 62
     7
370
    15
100
AcDbLine
 10
462.4654422018
 20
682.5283711422
 30
0.0
 11
463.8796518061
 21
682.5283711422
 31
0.0
  0
LINE
  5
95
330
1F
100
AcDbEntity
  8
0
  6
Continuous
 62
     7
370
    15
100
AcDbLine
 10
1012.9654327843
 20
682.5283711422
 30
0.0
 11
1012.9654327843
 21
309.5283677447
 31
0.0
  0
LINE
  5
96
330
1F
100
AcDbEntity
  8
0
  6
Continuous
 62
     7
370
    15
100
AcDbLine
 10
1013.0512187693
 20
682.5283711422
 30
0.0
 11
1014.4654283736
 21
682.5283711422
 31
0.0
  0
LINE
  5
97
330
1F
100
AcDbEntity
  8
0
  6
Continuous
 62
     7
370
    15
100
AcDbLine
 10
1014.4654283736
 20
682.5283711422
 30
0.0
 11
1051.4654288504
 21
682.5283711422
 31
0.0
  0
LINE
  5
98
330
1F
100
AcDbEntity
  8
0
  6
Continuous
 62
     7
370
    15
100
AcDbLine
 10
1052.9654244396
 20
682.5283711422
 30
0.0
 11
1052.9654244396
 21
309.5283677447
 31
0.0
  0
LINE
  5
99
330
1F
100
AcDbEntity
  8
0
  6
Continuous
 62
     7
370
    15
100
AcDbLine
 10
1051.4654288504
 20
682.5283711422
 30
0.0
 11
1052.8796384547
 21
682.5283711422
 31
0.0
  0
LINE
  5
9A
330
1F
100
AcDbEntity
  8
0
  6
Continuous
 62
     7
370
    15
100
AcDbLine
 10
383.9654395792
 20
682.5283711422
 30
0.0
 11
383.9654395792
 21
684.2283775676
 31
0.0
  0
LINE
  5
9B
330
1F
100
AcDbEntity
  8
0
  6
Continuous
 62
     7
370
    15
100
AcDbLine
 10
383.9654395792
 20
682.5283711422
 30
0.0
 11
386.465437195
 21
682.5283711422
 31
0.0
  0
LINE
  5
9C
330
1F
100
AcDbEntity
  8
0
  6
Continuous
 62
     7
370
    15
100
AcDbLine
 10
386.465437195
 20
682.5283711422
 30
0.0
 11
402.1654198382
 21
682.5283711422
 31
0.0
  0
LINE
  5
9D
330
1F
100
AcDbEntity
  8
0
  6
Continuous
 62
     7
370
    15
100
AcDbLine
 10
404.665417454
 20
682.5283711422
 30
0.0
 11
404.665417454
 21
684.2283775676
 31
0.0
  0
LINE
  5
9E
330
1F
100
AcDbEntity
  8
0
  6
Continuous
 62
     7
370
    15
100
AcDbLine
 10
402.1654198382
 20
682.5283711422
 30
0.0
 11
404.665417454
 21
682.5283711422
 31
0.0
  0
LINE
  5
9F
330
1F
100
AcDbEntity
  8
0
  6
Continuous
 62
     7
370
    15
100
AcDbLine
 10
408.1654319975
 20
682.5283711422
 30
0.0
 11
424.0512321207
 21
682.5283711422
 31
0.0
  0
LINE
  5
A0
330
1F
100
AcDbEntity
  8
0
  6
Continuous
 62
     7
370
    15
100
AcDbLine
 10
463.8796518061
 20
682.5283711422
 30
0.0
 11
479.765422127
 21
682.5283711422
 31
0.0
  0
LINE
  5
A1
330
1F
100
AcDbEntity
  8
0
  6
Continuous
 62
     7
370
    15
100
AcDbLine
 10
405.6654343817
 20
682.5283711422
 30
0.0
 11
405.6654343817
 21
684.2283775676
 31
0.0
  0
LINE
  5
A2
330
1F
100
AcDbEntity
  8
0
  6
Continuous
 62
     7
370
    15
100
AcDbLine
 10
405.6654343817
 20
682.5283711422
 30
0.0
 11
408.1654319975
 21
682.5283711422
 31
0.0
  0
LINE
  5
A3
330
1F
100
AcDbEntity
  8
0
  6
Continuous
 62
     7
370
    15
100
AcDbLine
 10
482.2654197428
 20
682.5283711422
 30
0.0
 11
482.2654197428
 21
684.2283775676
 31
0.0
  0
LINE
  5
A4
330
1F
100
AcDbEntity
  8
0
  6
Continuous
 62
     7
370
    15
100
AcDbLine
 10
479.765422127
 20
682.5283711422
 30
0.0
 11
482.2654197428
 21
682.5283711422
 31
0.0
  0
LINE
  5
A5
330
1F
100
AcDbEntity
  8
0
  6
Continuous
 62
     7
370
    15
100
AcDbLine
 10
483.2654366705
 20
682.5283711422
 30
0.0
 11
483.2654366705
 21
684.2283775676
 31
0.0
  0
LINE
  5
A6
330
1F
100
AcDbEntity
  8
0
  6
Continuous
 62
     7
370
    15
100
AcDbLine
 10
483.2654366705
 20
682.5283711422
 30
0.0
 11
485.7654342863
 21
682.5283711422
 31
0.0
  0
LINE
  5
A7
330
1F
100
AcDbEntity
  8
0
  6
Continuous
 62
     7
370
    15
100
AcDbLine
 10
485.7654342863
 20
682.5283711422
 30
0.0
 11
501.4654169295
 21
682.5283711422
 31
0.0
  0
LINE
  5
A8
330
1F
100
AcDbEntity
  8
0
  6
Continuous
 62
     7
370
    15
100
AcDbLine
 10
503.9654443476
 20
682.5283711422
 30
0.0
 11
503.9654443476
 21
684.2283775676
 31
0.0
  0
LINE
  5
A9
330
1F
100
AcDbEntity
  8
0
  6
Continuous
 62
     7
370
    15
100
AcDbLine
 10
501.4654169295
 20
682.5283711422
 30
0.0
 11
503.9654443476
 21
682.5283711422
 31
0.0
  0
LINE
  5
AA
330
1F
100
AcDbEntity
  8
0
  6
Continuous
 62
     7
370
    15
100
AcDbLine
 10
404.665417454
 20
682.5283711422
 30
0.0
 11
405.6654343817
 21
682.5283711422
 31
0.0
  0
LINE
  5
AB
330
1F
100
AcDbEntity
  8
0
  6
Continuous
 62
     7
370
    15
100
AcDbLine
 10
482.2654197428
 20
682.5283711422
 30
0.0
 11
483.2654366705
 21
682.5283711422
 31
0.0
  0
LINE
  5
AC
330
1F
100
AcDbEntity
  8
0
  6
Continuous
 62
     7
370
    15
100
AcDbLine
 10
972.9654262278
 20
682.5283711422
 30
0.0
 11
975.4654387448
 21
682.5283711422
 31
0.0
  0
LINE
  5
AD
330
1F
100
AcDbEntity
  8
0
  6
Continuous
 62
     7
370
    15
100
AcDbLine
 10
972.9654262278
 20
682.5283711422
 30
0.0
 11
972.9654262278
 21
684.2283775676
 31
0.0
  0
LINE
  5
AE
330
1F
100
AcDbEntity
  8
0
  6
Continuous
 62
     7
370
    15
100
AcDbLine
 10
975.4654387448
 20
682.5283711422
 30
0.0
 11
991.165436289
 21
682.5283711422
 31
0.0
  0
LINE
  5
AF
330
1F
100
AcDbEntity
  8
0
  6
Continuous
 62
     7
370
    15
100
AcDbLine
 10
993.6654339049
 20
682.5283711422
 30
0.0
 11
993.6654339049
 21
684.2283775676
 31
0.0
  0
LINE
  5
B0
330
1F
100
AcDbEntity
  8
0
  6
Continuous
 62
     7
370
    15
100
AcDbLine
 10
991.165436289
 20
682.5283711422
 30
0.0
 11
993.6654339049
 21
682.5283711422
 31
0.0
  0
LINE
  5
B1
330
1F
100
AcDbEntity
  8
0
  6
Continuous
 62
     7
370
    15
100
AcDbLine
 10
997.1654335472
 20
682.5283711422
 30
0.0
 11
1013.0512187693
 21
682.5283711422
 31
0.0
  0
LINE
  5
B2
330
1F
100
AcDbEntity
  8
0
  6
Continuous
 62
     7
370
    15
100
AcDbLine
 10
1052.8796384547
 20
682.5283711422
 30
0.0
 11
1068.7654385779
 21
682.5283711422
 31
0.0
  0
LINE
  5
B3
330
1F
100
AcDbEntity
  8
0
  6
Continuous
 62
     7
370
    15
100
AcDbLine
 10
994.6654359314
 20
682.5283711422
 30
0.0
 11
994.6654359314
 21
684.2283775676
 31
0.0
  0
LINE
  5
B4
330
1F
100
AcDbEntity
  8
0
  6
Continuous
 62
     7
370
    15
100
AcDbLine
 10
994.6654359314
 20
682.5283711422
 30
0.0
 11
997.1654335472
 21
682.5283711422
 31
0.0
  0
LINE
  5
B5
330
1F
100
AcDbEntity
  8
0
  6
Continuous
 62
     7
370
    15
100
AcDbLine
 10
1071.2654361937
 20
682.5283711422
 30
0.0
 11
1071.2654361937
 21
684.2283775676
 31
0.0
  0
LINE
  5
B6
330
1F
100
AcDbEntity
  8
0
  6
Continuous
 62
     7
370
    15
100
AcDbLine
 10
1068.7654385779
 20
682.5283711422
 30
0.0
 11
1071.2654361937
 21
682.5283711422
 31
0.0
  0
LINE
  5
B7
330
1F
100
AcDbEntity
  8
0
  6
Continuous
 62
     7
370
    15
100
AcDbLine
 10
1072.2654233191
 20
682.5283711422
 30
0.0
 11
1072.2654233191
 21
684.2283775676
 31
0.0
  0
LINE
  5
B8
330
1F
100
AcDbEntity
  8
0
  6
Continuous
 62
     7
370
    15
100
AcDbLine
 10
1072.2654233191
 20
682.5283711422
 30
0.0
 11
1074.7654209349
 21
682.5283711422
 31
0.0
  0
LINE
  5
B9
330
1F
100
AcDbEntity
  8
0
  6
Continuous
 62
     7
370
    15
100
AcDbLine
 10
1074.7654209349
 20
682.5283711422
 30
0.0
 11
1090.4654333803
 21
682.5283711422
 31
0.0
  0
LINE
  5
BA
330
1F
100
AcDbEntity
  8
0
  6
Continuous
 62
     7
370
    15
100
AcDbLine
 10
1092.9654309962
 20
682.5283711422
 30
0.0
 11
1092.9654309962
 21
684.2283775676
 31
0.0
  0
LINE
  5
BB
330
1F
100
AcDbEntity
  8
0
  6
Continuous
 62
     7
370
    15
100
AcDbLine
 10
1090.4654333803
 20
682.5283711422
 30
0.0
 11
1092.9654309962
 21
682.5283711422
 31
0.0
  0
LINE
  5
BC
330
1F
100
AcDbEntity
  8
0
  6
Continuous
 62
     7
370
    15
100
AcDbLine
 10
993.6654339049
 20
682.5283711422
 30
0.0
 11
994.6654359314
 21
682.5283711422
 31
0.0
  0
LINE
  5
BD
330
1F
100
AcDbEntity
  8
0
  6
Continuous
 62
     7
370
    15
100
AcDbLine
 10
1071.2654361937
 20
682.5283711422
 30
0.0
 11
1072.2654233191
 21
682.5283711422
 31
0.0
  0
LINE
  5
BE
330
1F
100
AcDbEntity
  8
0
  6
Continuous
 62
     7
370
    15
100
AcDbLine
 10
1132.1583459589
 20
307.478385197
 30
0.0
 11
1132.1583459589
 21
273.5283841956
 31
0.0
  0
LINE
  5
BF
330
1F
100
AcDbEntity
  8
0
  6
Continuous
 62
     7
370
    15
100
AcDbLine
 10
373.7725088808
 20
273.5283841956
 30
0.0
 11
1132.1583459589
 21
273.5283841956
 31
0.0
  0
LINE
  5
C0
330
1F
100
AcDbEntity
  8
0
  6
Continuous
 62
     7
370
    15
100
AcDbLine
 10
373.7725088808
 20
307.478385197
 30
0.0
 11
373.7725088808
 21
273.5283841956
 31
0.0
  0
LWPOLYLINE
  5
C1
330
1F
100
AcDbEntity
  8
0
  6
Continuous
 62
     7
370
    15
100
AcDbPolyline
 90
        6
 70
   128
 43
0.0
 10
1130.9154401037
 20
309.5283677447
 10
1131.2016020033
 20
309.3957474101
 10
1131.4878831122
 20
309.01487373
 10
1131.774164221
 20
308.435069548
 10
1132.0604453299
 20
307.7313771117
 10
1132.1583459589
 20
307.478385197
  0
LINE
  5
C2
330
1F
100
AcDbEntity
  8
0
  6
Continuous
 62
     7
370
    15
100
AcDbLine
 10
375.0154445383
 20
309.5283677447
 30
0.0
 11
1130.9154401037
 21
309.5283677447
 31
0.0
  0
LWPOLYLINE
  5
C3
330
1F
100
AcDbEntity
  8
0
  6
Continuous
 62
     7
370
    15
100
AcDbPolyline
 90
        6
 70
   128
 43
0.0
 10
373.7725088808
 20
307.478385197
 10
374.0586707804
 20
308.2037439216
 10
374.3449518893
 20
308.8354637492
 10
374.6312329981
 20
309.2914690841
 10
374.917514107
 20
309.5126917232
 10
375.0154445383
 20
309.5283677447
  0
ARC
  5
C4
330
1F
100
AcDbEntity
  8
0
  6
Continuous
 62
     7
370
    15
100
AcDbCircle
 10
374.8064155791
 20
307.5619476863
 30
0.0
 40
1.044318397555254
100
AcDbArc
 50
130.5570308634
 51
184.589502393
  0
LINE
  5
C5
330
1F
100
AcDbEntity
  8
0
  6
Continuous
 62
     7
370
    15
100
AcDbLine
 10
372.9654321882
 20
307.478385197
 30
0.0
 11
373.7654457304
 21
307.478385197
 31
0.0
  0
ARC
  5
C6
330
1F
100
AcDbEntity
  8
0
  6
Continuous
 62
     7
370
    15
100
AcDbCircle
 10
375.0154348797
 20
307.4783650532
 30
0.0
 40
2.050002691585705
100
AcDbArc
 50
89.9997300507
 51
179.9994369984
  0
LINE
  5
C7
330
1F
100
AcDbEntity
  8
0
  6
Continuous
 62
     7
370
    15
100
AcDbLine
 10
1132.9654226515
 20
307.478385197
 30
0.0
 11
1132.1654389117
 21
307.478385197
 31
0.0
  0
LWPOLYLINE
  5
C8
330
1F
100
AcDbEntity
  8
0
  6
Continuous
 62
     7
370
    15
100
AcDbPolyline
 90
        3
 70
   128
 43
0.0
 10
1132.1654389117
 20
307.478385197
 10
1132.0670018408
 20
307.9645802844
 10
1131.8163345072
 20
308.331446873
  0
ARC
  5
C9
330
1F
100
AcDbEntity
  8
0
  6
Continuous
 62
     7
370
    15
100
AcDbCircle
 10
1130.9154449833
 20
307.4783900765
 30
0.0
 40
2.049977668251027
100
AcDbArc
 50
359.9998636202
 51
90.0001363798
  0
LINE
  5
CA
330
1F
100
AcDbEntity
  8
0
  6
Continuous
 62
     7
370
    15
100
AcDbLine
 10
373.7654457304
 20
307.478385197
 30
0.0
 11
373.7654457304
 21
273.5283841956
 31
0.0
  0
LINE
  5
CB
330
1F
100
AcDbEntity
  8
0
  6
Continuous
 62
     7
370
    15
100
AcDbLine
 10
372.9654321882
 20
307.478385197
 30
0.0
 11
372.9654321882
 21
273.5283841956
 31
0.0
  0
LINE
  5
CC
330
1F
100
AcDbEntity
  8
0
  6
Continuous
 62
     7
370
    15
100
AcDbLine
 10
372.9654321882
 20
273.5283841956
 30
0.0
 11
373.7654457304
 21
273.5283841956
 31
0.0
  0
LINE
  5
CD
330
1F
100
AcDbEntity
  8
0
  6
Continuous
 62
     7
370
    15
100
AcDbLine
 10
1132.1654389117
 20
307.478385197
 30
0.0
 11
1132.1654389117
 21
273.5283841956
 31
0.0
  0
LINE
  5
CE
330
1F
100
AcDbEntity
  8
0
  6
Continuous
 62
     7
370
    15
100
AcDbLine
 10
1132.9654226515
 20
307.478385197
 30
0.0
 11
1132.9654226515
 21
273.5283841956
 31
0.0
  0
LINE
  5
CF
330
1F
100
AcDbEntity
  8
0
  6
Continuous
 62
     7
370
    15
100
AcDbLine
 10
1132.9654226515
 20
273.5283841956
 30
0.0
 11
1132.1654389117
 21
273.5283841956
 31
0.0
  0
LINE
  5
D0
330
1F
100
AcDbEntity
  8
0
  6
Continuous
 62
     7
370
    15
100
AcDbLine
 10
1081.4583668921
 20
271.4783718455
 30
0.0
 11
1081.4583668921
 21
268.7283625472
 31
0.0
  0
LINE
  5
D1
330
1F
100
AcDbEntity
  8
0
  6
Continuous
 62
     7
370
    15
100
AcDbLine
 10
395.4725036833
 20
268.7283625472
 30
0.0
 11
1081.4583668921
 21
268.7283625472
 31
0.0
  0
LINE
  5
D2
330
1F
100
AcDbEntity
  8
0
  6
Continuous
 62
     7
370
    15
100
AcDbLine
 10
395.4725036833
 20
268.7283625472
 30
0.0
 11
395.4725036833
 21
271.4783718455
 31
0.0
  0
LINE
  5
D3
330
1F
100
AcDbEntity
  8
0
  6
Continuous
 62
     7
370
    15
100
AcDbLine
 10
1081.4583668921
 20
273.5283841956
 30
0.0
 11
1081.4583668921
 21
271.4783718455
 31
0.0
  0
LINE
  5
D4
330
1F
100
AcDbEntity
  8
0
  6
Continuous
 62
     7
370
    15
100
AcDbLine
 10
395.4725036833
 20
273.5283841956
 30
0.0
 11
395.4725036833
 21
271.4783718455
 31
0.0
  0
LINE
  5
D5
330
1F
100
AcDbEntity
  8
0
  6
Continuous
 62
     7
370
    15
100
AcDbLine
 10
395.4654405329
 20
270.2283730376
 30
0.0
 11
393.9654300425
 21
270.2283730376
 31
0.0
  0
LINE
  5
D6
330
1F
100
AcDbEntity
  8
0
  6
Continuous
 62
     7
370
    15
100
AcDbLine
 10
393.9654300425
 20
273.5283841956
 30
0.0
 11
393.9654300425
 21
270.2283730376
 31
0.0
  0
LINE
  5
D7
330
1F
100
AcDbEntity
  8
0
  6
Continuous
 62
     7
370
    15
100
AcDbLine
 10
395.4654405329
 20
273.5283841956
 30
0.0
 11
395.4654405329
 21
270.2283730376
 31
0.0
  0
LINE
  5
D8
330
1F
100
AcDbEntity
  8
0
  6
Continuous
 62
     7
370
    15
100
AcDbLine
 10
1081.4654300425
 20
270.2283730376
 30
0.0
 11
1082.9654405329
 21
270.2283730376
 31
0.0
  0
LINE
  5
D9
330
1F
100
AcDbEntity
  8
0
  6
Continuous
 62
     7
370
    15
100
AcDbLine
 10
1082.9654405329
 20
270.2283730376
 30
0.0
 11
1082.9654405329
 21
273.5283841956
 31
0.0
  0
LINE
  5
DA
330
1F
100
AcDbEntity
  8
0
  6
Continuous
 62
     7
370
    15
100
AcDbLine
 10
1081.4654300425
 20
273.5283841956
 30
0.0
 11
1081.4654300425
 21
270.2283730376
 31
0.0
  0
ARC
  5
DB
330
1F
100
AcDbEntity
  8
0
  6
Continuous
 62
     7
370
    15
100
AcDbCircle
 10
396.715431613
 20
271.4783744953
 30
0.0
 40
2.750000000000005
100
AcDbArc
 50
207.0356917894
 51
243.1295854596
  0
LINE
  5
DC
330
1F
100
AcDbEntity
  8
0
  6
Continuous
 62
     7
370
    15
100
AcDbLine
 10
395.4654405329
 20
271.4783718455
 30
0.0
 11
395.4725036833
 21
271.3456024993
 31
0.0
  0
ARC
  5
DD
330
1F
100
AcDbEntity
  8
0
  6
Continuous
 62
     7
370
    15
100
AcDbCircle
 10
1080.215431613
 20
271.4783744953
 30
0.0
 40
2.749999999999803
100
AcDbArc
 50
296.8704145402
 51
332.9643082106
  0
LINE
  5
DE
330
1F
100
AcDbEntity
  8
0
  6
Continuous
 62
     7
370
    15
100
AcDbLine
 10
1081.4583668921
 20
271.3456024993
 30
0.0
 11
1081.4654300425
 21
271.4783718455
 31
0.0
  0
LINE
  5
DF
330
1F
100
AcDbEntity
  8
0
  6
Continuous
 62
     7
370
    15
100
AcDbLine
 10
1017.2803322289
 20
1387.0783915389
 30
0.0
 11
1017.2803322289
 21
1402.9783477653
 31
0.0
  0
LINE
  5
E0
330
1F
100
AcDbEntity
  8
0
  6
Continuous
 62
     7
370
    15
100
AcDbLine
 10
451.8944690439
 20
1387.0783915389
 30
0.0
 11
451.8944690439
 21
1402.9783477653
 31
0.0
  0
LWPOLYLINE
  5
E1
330
1F
100
AcDbEntity
  8
0
  6
Continuous
 62
     7
370
    15
100
AcDbPolyline
 90
        6
 70
   128
 43
0.0
 10
1016.0373965714
 20
1405.0283899177
 10
1016.3235882733
 20
1404.895769583
 10
1016.6098693821
 20
1404.5148959029
 10
1016.896150491
 20
1403.9350619186
 10
1017.1824315998
 20
1403.2313694823
 10
1017.2803322289
 20
1402.9783477653
  0
LWPOLYLINE
  5
E2
330
1F
100
AcDbEntity
  8
0
  6
Continuous
 62
     7
370
    15
100
AcDbPolyline
 90
        6
 70
   128
 43
0.0
 10
451.8944690439
 20
1402.9783477653
 10
452.1806607458
 20
1403.7037362922
 10
452.4669418547
 20
1404.3354263175
 10
452.7532229635
 20
1404.7914614547
 10
453.0395040724
 20
1405.0127138961
 10
453.1374047014
 20
1405.0283899177
  0
LINE
  5
E3
330
1F
100
AcDbEntity
  8
0
  6
Continuous
 62
     7
370
    15
100
AcDbLine
 10
453.1374047014
 20
1405.0283899177
 30
0.0
 11
1016.0373965714
 21
1405.0283899177
 31
0.0
  0
LWPOLYLINE
  5
E4
330
1F
100
AcDbEntity
  8
0
  6
Continuous
 62
     7
370
    15
100
AcDbPolyline
 90
        6
 70
   128
 43
0.0
 10
1017.2803322289
 20
1387.0783915389
 10
1016.9923076842
 20
1386.3525261748
 10
1016.7041937325
 20
1385.7204785216
 10
1016.4160648796
 20
1385.2645029891
 10
1016.1279360268
 20
1385.0437869895
 10
1016.030333421
 20
1385.0283493865
  0
LINE
  5
E5
330
1F
100
AcDbEntity
  8
0
  6
Continuous
 62
     7
370
    15
100
AcDbLine
 10
996.5374092076
 20
1385.0283493865
 30
0.0
 11
992.0874009344
 21
1385.0283493865
 31
0.0
  0
LINE
  5
E6
330
1F
100
AcDbEntity
  8
0
  6
Continuous
 62
     7
370
    15
100
AcDbLine
 10
477.0874152396
 20
1385.0283493865
 30
0.0
 11
473.0373988364
 21
1385.0283493865
 31
0.0
  0
LWPOLYLINE
  5
E7
330
1F
100
AcDbEntity
  8
0
  6
Continuous
 62
     7
370
    15
100
AcDbPolyline
 90
        6
 70
   128
 43
0.0
 10
453.1444678519
 20
1385.0283493865
 10
452.8564582083
 20
1385.1612081397
 10
452.5683293555
 20
1385.5426182616
 10
452.2802005026
 20
1386.1231675017
 10
451.9920716498
 20
1386.8275751937
 10
451.8944690439
 20
1387.0783915389
  0
ARC
  5
E8
330
1F
100
AcDbEntity
  8
0
  6
Continuous
 62
     7
370
    15
100
AcDbCircle
 10
453.1375464
 20
1387.0785034333
 30
0.0
 40
2.050154051682386
100
AcDbArc
 50
180.003127119
 51
269.9960399421
  0
LINE
  5
E9
330
1F
100
AcDbEntity
  8
0
  6
Continuous
 62
     7
370
    15
100
AcDbLine
 10
451.8874058935
 20
1387.0783915389
 30
0.0
 11
451.0873923514
 21
1387.0783915389
 31
0.0
  0
LWPOLYLINE
  5
EA
330
1F
100
AcDbEntity
  8
0
  6
Continuous
 62
     7
370
    15
100
AcDbPolyline
 90
        3
 70
   128
 43
0.0
 10
451.8874058935
 20
1387.0783915389
 10
451.9861707899
 20
1386.5914215911
 10
452.2407720301
 20
1386.2195482124
  0
LINE
  5
EB
330
1F
100
AcDbEntity
  8
0
  6
Continuous
 62
     7
370
    15
100
AcDbLine
 10
1017.2874102804
 20
1387.0783915389
 30
0.0
 11
1018.0874089215
 21
1387.0783915389
 31
0.0
  0
ARC
  5
EC
330
1F
100
AcDbEntity
  8
0
  6
Continuous
 62
     7
370
    15
100
AcDbCircle
 10
1016.246663431
 20
1386.9947670843
 30
0.0
 40
1.044101074674996
100
AcDbArc
 50
310.6814755625
 51
4.5938710561
  0
ARC
  5
ED
330
1F
100
AcDbEntity
  8
0
  6
Continuous
 62
     7
370
    15
100
AcDbCircle
 10
1016.0373030862
 20
1387.0784552206
 30
0.0
 40
2.050105836214766
100
AcDbArc
 50
270.0026126964
 51
359.9982202424
  0
ARC
  5
EE
330
1F
100
AcDbEntity
  8
0
  6
Continuous
 62
     7
370
    15
100
AcDbCircle
 10
452.9252731255
 20
1403.0631947055
 30
0.0
 40
1.041329628138279
100
AcDbArc
 50
130.4709709975
 51
184.673608249
  0
LINE
  5
EF
330
1F
100
AcDbEntity
  8
0
  6
Continuous
 62
     7
370
    15
100
AcDbLine
 10
451.0873923514
 20
1402.9783477653
 30
0.0
 11
451.8874058935
 21
1402.9783477653
 31
0.0
  0
ARC
  5
F0
330
1F
100
AcDbEntity
  8
0
  6
Continuous
 62
     7
370
    15
100
AcDbCircle
 10
453.137430993
 20
1402.9783512762
 30
0.0
 40
2.050038641594932
100
AcDbArc
 50
90.0007348118
 51
180.0000981271
  0
LINE
  5
F1
330
1F
100
AcDbEntity
  8
0
  6
Continuous
 62
     7
370
    15
100
AcDbLine
 10
1018.0874089215
 20
1402.9783477653
 30
0.0
 11
1017.2874102804
 21
1402.9783477653
 31
0.0
  0
LWPOLYLINE
  5
F2
330
1F
100
AcDbEntity
  8
0
  6
Continuous
 62
     7
370
    15
100
AcDbPolyline
 90
        3
 70
   128
 43
0.0
 10
1017.2874102804
 20
1402.9783477653
 10
1017.1889583084
 20
1403.4646024573
 10
1016.9382909748
 20
1403.8314690459
  0
ARC
  5
F3
330
1F
100
AcDbEntity
  8
0
  6
Continuous
 62
     7
370
    15
100
AcDbCircle
 10
1016.0373755746
 20
1402.9783565709
 30
0.0
 40
2.050033346873573
100
AcDbArc
 50
359.9997538938
 51
89.9994131674
  0
LINE
  5
F4
330
1F
100
AcDbEntity
  8
0
  6
Continuous
 62
     7
370
    15
100
AcDbLine
 10
451.8874058935
 20
1402.9783477653
 30
0.0
 11
451.8874058935
 21
1387.0783915389
 31
0.0
  0
LINE
  5
F5
330
1F
100
AcDbEntity
  8
0
  6
Continuous
 62
     7
370
    15
100
AcDbLine
 10
451.0873923514
 20
1387.0783915389
 30
0.0
 11
451.0873923514
 21
1402.9783477653
 31
0.0
  0
LINE
  5
F6
330
1F
100
AcDbEntity
  8
0
  6
Continuous
 62
     7
370
    15
100
AcDbLine
 10
1017.2874102804
 20
1402.9783477653
 30
0.0
 11
1017.2874102804
 21
1387.0783915389
 31
0.0
  0
LINE
  5
F7
330
1F
100
AcDbEntity
  8
0
  6
Continuous
 62
     7
370
    15
100
AcDbLine
 10
1018.0874089215
 20
1387.0783915389
 30
0.0
 11
1018.0874089215
 21
1402.9783477653
 31
0.0
  0
LINE
  5
F8
330
1F
100
AcDbEntity
  8
0
  6
Continuous
 62
     7
370
    15
100
AcDbLine
 10
1081.4347336504
 20
1349.2283692229
 30
0.0
 11
1097.6265738222
 21
1349.2283692229
 31
0.0
  0
LINE
  5
F9
330
1F
100
AcDbEntity
  8
0
  6
Continuous
 62
     7
370
    15
100
AcDbLine
 10
1081.4347336504
 20
1350.0283827651
 30
0.0
 11
1097.6265738222
 21
1350.0283827651
 31
0.0
  0
LINE
  5
FA
330
1F
100
AcDbEntity
  8
0
  6
Continuous
 62
     7
370
    15
100
AcDbLine
 10
1081.3874075625
 20
1227.7406921256
 30
0.0
 11
1140.0314638827
 21
1227.7406921256
 31
0.0
  0
LINE
  5
FB
330
1F
100
AcDbEntity
  8
0
  6
Continuous
 62
     7
370
    15
100
AcDbLine
 10
1081.3874075625
 20
1228.5407056678
 30
0.0
 11
1140.0314638827
 21
1228.5407056678
 31
0.0
  0
LINE
  5
FC
330
1F
100
AcDbEntity
  8
0
  6
Continuous
 62
     7
370
    15
100
AcDbLine
 10
1081.3874075625
 20
1227.7406921256
 30
0.0
 11
1079.3874035094
 21
1227.7406921256
 31
0.0
  0
LINE
  5
FD
330
1F
100
AcDbEntity
  8
0
  6
Continuous
 62
     7
370
    15
100
AcDbLine
 10
1079.3874035094
 20
1227.7406921256
 30
0.0
 11
1079.3874035094
 21
1228.5407056678
 31
0.0
  0
LINE
  5
FE
330
1F
100
AcDbEntity
  8
0
  6
Continuous
 62
     7
370
    15
100
AcDbLine
 10
1079.3874035094
 20
1228.5407056678
 30
0.0
 11
1081.3874075625
 21
1228.5407056678
 31
0.0
  0
LINE
  5
FF
330
1F
100
AcDbEntity
  8
0
  6
Continuous
 62
     7
370
    15
100
AcDbLine
 10
1123.1395075533
 20
1273.5026945937
 30
0.0
 11
1098.8153884623
 21
1348.3646383155
 31
0.0
  0
LINE
  5
100
330
1F
100
AcDbEntity
  8
0
  6
Continuous
 62
     7
370
    15
100
AcDbLine
 10
1123.9003608439
 20
1273.7499346603
 30
0.0
 11
1099.5762417528
 21
1348.611878382
 31
0.0
  0
LINE
  5
101
330
1F
100
AcDbEntity
  8
0
  6
Continuous
 62
     7
370
    15
100
AcDbLine
 10
1079.4347295973
 20
1349.2283692229
 30
0.0
 11
1079.4347295973
 21
1350.0283827651
 31
0.0
  0
LINE
  5
102
330
1F
100
AcDbEntity
  8
0
  6
Continuous
 62
     7
370
    15
100
AcDbLine
 10
1079.4347295973
 20
1350.0283827651
 30
0.0
 11
1080.1874170515
 21
1350.0283827651
 31
0.0
  0
LINE
  5
103
330
1F
100
AcDbEntity
  8
0
  6
Continuous
 62
     7
370
    15
100
AcDbLine
 10
1081.4347336504
 20
1349.2283692229
 30
0.0
 11
1079.4347295973
 21
1349.2283692229
 31
0.0
  0
ARC
  5
104
330
1F
100
AcDbEntity
  8
0
  6
Continuous
 62
     7
370
    15
100
AcDbCircle
 10
1097.626564796
 20
1347.9783744953
 30
0.0
 40
2.049999999999984
100
AcDbArc
 50
18.0
 51
90.0
  0
ARC
  5
105
330
1F
100
AcDbEntity
  8
0
  6
Continuous
 62
     7
370
    15
100
AcDbCircle
 10
1097.626564796
 20
1347.9783744953
 30
0.0
 40
1.250000000000139
100
AcDbArc
 50
18.0
 51
90.0
  0
LINE
  5
106
330
1F
100
AcDbEntity
  8
0
  6
Continuous
 62
     7
370
    15
100
AcDbLine
 10
1149.1674850199
 20
1259.6120705474
 30
0.0
 11
1129.7170887205
 21
1266.6914334167
 31
0.0
  0
LINE
  5
107
330
1F
100
AcDbEntity
  8
0
  6
Continuous
 62
     7
370
    15
100
AcDbLine
 10
1149.4411001417
 20
1260.3638043273
 30
0.0
 11
1129.9907038424
 21
1267.4431671966
 31
0.0
  0
ARC
  5
108
330
1F
100
AcDbEntity
  8
0
  6
Continuous
 62
     7
370
    15
100
AcDbCircle
 10
1133.410912771
 20
1276.8400949732
 30
0.0
 40
10.8000000000001
100
AcDbArc
 50
198.0
 51
250.0
  0
ARC
  5
109
330
1F
100
AcDbEntity
  8
0
  6
Continuous
 62
     7
370
    15
100
AcDbCircle
 10
1133.410912771
 20
1276.8400949732
 30
0.0
 40
10.00000000000009
100
AcDbArc
 50
198.0
 51
250.0
  0
ARC
  5
10A
330
1F
100
AcDbEntity
  8
0
  6
Continuous
 62
     7
370
    15
100
AcDbCircle
 10
1140.031473281
 20
1229.7906999681
 30
0.0
 40
1.250000000000015
100
AcDbArc
 50
270.0
 51
320.0
  0
ARC
  5
10B
330
1F
100
AcDbEntity
  8
0
  6
Continuous
 62
     7
370
    15
100
AcDbCircle
 10
1140.031473281
 20
1229.7906999681
 30
0.0
 40
2.04999999999998
100
AcDbArc
 50
270.0
 51
320.0
  0
LINE
  5
10C
330
1F
100
AcDbEntity
  8
0
  6
Continuous
 62
     7
370
    15
100
AcDbLine
 10
1140.9890423033
 20
1228.9872040618
 30
0.0
 11
1153.4077296469
 21
1243.7872757781
 31
0.0
  0
LINE
  5
10D
330
1F
100
AcDbEntity
  8
0
  6
Continuous
 62
     7
370
    15
100
AcDbLine
 10
1141.6018674586
 20
1228.4729947913
 30
0.0
 11
1154.0205548022
 21
1243.273006903
 31
0.0
  0
ARC
  5
10E
330
1F
100
AcDbEntity
  8
0
  6
Continuous
 62
     7
370
    15
100
AcDbCircle
 10
1145.7472865502
 20
1250.2151244513
 30
0.0
 40
10.80000000000002
100
AcDbArc
 50
320.0
 51
70.0
  0
ARC
  5
10F
330
1F
100
AcDbEntity
  8
0
  6
Continuous
 62
     7
370
    15
100
AcDbCircle
 10
1145.7472865502
 20
1250.2151244513
 30
0.0
 40
10.00000000000002
100
AcDbArc
 50
320.0
 51
70.0
  0
LINE
  5
110
330
1F
100
AcDbEntity
  8
0
  6
Continuous
 62
     7
370
    15
100
AcDbLine
 10
1100.6946037028
 20
1348.7921228278
 30
0.0
 11
1108.8018486712
 21
1352.4016609061
 31
0.0
  0
LINE
  5
111
330
1F
100
AcDbEntity
  8
0
  6
Continuous
 62
     7
370
    15
100
AcDbLine
 10
1100.3692219469
 20
1349.5229353774
 30
0.0
 11
1108.4764669153
 21
1353.1325330604
 31
0.0
  0
ARC
  5
112
330
1F
100
AcDbEntity
  8
0
  6
Continuous
 62
     7
370
    15
100
AcDbCircle
 10
1101.2030293971
 20
1347.6501725971
 30
0.0
 40
2.049999999999995
100
AcDbArc
 50
114.0
 51
145.9172407043
  0
ARC
  5
113
330
1F
100
AcDbEntity
  8
0
  6
Continuous
 62
     7
370
    15
100
AcDbCircle
 10
1101.2030293971
 20
1347.6501725971
 30
0.0
 40
1.249999999999994
100
AcDbArc
 50
114.0
 51
198.0
  0
LINE
  5
114
330
1F
100
AcDbEntity
  8
0
  6
Continuous
 62
     7
370
    15
100
AcDbLine
 10
1113.0442092631
 20
1355.1661839355
 30
0.0
 11
1113.3695910189
 21
1354.4353713859
 31
0.0
  0
LWPOLYLINE
  5
115
330
1F
100
AcDbEntity
  8
0
  6
Continuous
 62
     7
370
    15
100
AcDbPolyline
 90
        9
 70
   128
 43
0.0
 10
1108.8018486712
 20
1352.4016609061
 10
1109.6929679129
 20
1352.7984490264
 10
1110.5498442862
 20
1353.179918753
 10
1111.3395462248
 20
1353.5315265525
 10
1112.0317349646
 20
1353.8397421706
 10
1112.5997970316
 20
1354.0926446784
 10
1113.0218873236
 20
1354.2805781234
 10
1113.2818231795
 20
1354.3962707389
 10
1113.3695910189
 20
1354.4353713859
  0
LWPOLYLINE
  5
116
330
1F
100
AcDbEntity
  8
0
  6
Continuous
 62
     7
370
    15
100
AcDbPolyline
 90
        9
 70
   128
 43
0.0
 10
1108.4764669153
 20
1353.1325330604
 10
1109.3675861571
 20
1353.529261576
 10
1110.2244625304
 20
1353.9107909072
 10
1111.014164469
 20
1354.2623987067
 10
1111.7063532088
 20
1354.5705547202
 10
1112.2743854735
 20
1354.823457228
 10
1112.6965055678
 20
1355.011390673
 10
1112.9564414236
 20
1355.1271428931
 10
1113.0442092631
 20
1355.1661839355
  0
LWPOLYLINE
  5
117
330
1F
100
AcDbEntity
  8
0
  6
Continuous
 62
     7
370
    15
100
AcDbPolyline
 90
        7
 70
   128
 43
0.0
 10
1118.5509631846
 20
1318.6268677581
 10
1118.5651192877
 20
1318.5832967628
 10
1118.6766395781
 20
1318.2401528228
 10
1118.8906202528
 20
1317.581521498
 10
1119.1897461626
 20
1316.6609277595
 10
1119.5497880194
 20
1315.5528774131
 10
1119.5552716467
 20
1315.535949694
  0
ARC
  5
118
330
1F
100
AcDbEntity
  8
0
  6
Continuous
 62
     7
370
    15
100
AcDbCircle
 10
1077.5874039802
 20
770.6283744953
 30
0.0
 40
9.000000000000007
100
AcDbArc
 50
281.5369590329
 51
0.0
  0
ARC
  5
119
330
1F
100
AcDbEntity
  8
0
  6
Continuous
 62
     7
370
    15
100
AcDbCircle
 10
1082.5874039802
 20
1197.3666669478
 30
0.0
 40
4.0
100
AcDbArc
 50
0.0
 51
143.1301023541
  0
LINE
  5
11A
330
1F
100
AcDbEntity
  8
0
  6
Continuous
 62
     7
370
    15
100
AcDbLine
 10
1086.5874061796
 20
1185.3666772712
 30
0.0
 11
1086.5874061796
 21
1197.3666419852
 31
0.0
  0
LINE
  5
11B
330
1F
100
AcDbEntity
  8
0
  6
Continuous
 62
     7
370
    15
100
AcDbLine
 10
1086.5874061796
 20
770.6283798087
 30
0.0
 11
1086.5874061796
 21
788.2149835694
 31
0.0
  0
LINE
  5
11C
330
1F
100
AcDbEntity
  8
0
  6
Continuous
 62
     7
370
    15
100
AcDbLine
 10
1086.5874061796
 20
822.0367749799
 30
0.0
 11
1086.5874061796
 21
1185.3666772712
 31
0.0
  0
LINE
  5
11D
330
1F
100
AcDbEntity
  8
0
  6
Continuous
 62
     7
370
    15
100
AcDbLine
 10
1087.143666527
 20
822.0789452661
 30
0.0
 11
1082.2197864268
 21
821.7055966724
 31
0.0
  0
LINE
  5
11E
330
1F
100
AcDbEntity
  8
0
  6
Continuous
 62
     7
370
    15
100
AcDbLine
 10
1087.8872940752
 20
822.206692921
 30
0.0
 11
1087.143666527
 21
822.0789452661
 31
0.0
  0
LWPOLYLINE
  5
11F
330
1F
100
AcDbEntity
  8
0
  6
Continuous
 62
     7
370
    15
100
AcDbPolyline
 90
        3
 70
   128
 43
0.0
 10
1087.8872940752
 20
792.873950826
 10
1087.6877377245
 20
792.6477064956
 10
1087.4356100771
 20
792.4049367774
  0
ARC
  5
120
330
1F
100
AcDbEntity
  8
0
  6
Continuous
 62
     7
370
    15
100
AcDbCircle
 10
1086.1127269922
 20
793.9049453383
 30
0.0
 40
2.000006576140259
100
AcDbArc
 50
270.0
 51
311.4092465579
  0
LINE
  5
121
330
1F
100
AcDbEntity
  8
0
  6
Continuous
 62
     7
370
    15
100
AcDbLine
 10
1086.1127147887
 20
791.9049432147
 30
0.0
 11
1083.4670136187
 21
791.9049432147
 31
0.0
  0
ARC
  5
122
330
1F
100
AcDbEntity
  8
0
  6
Continuous
 62
     7
370
    15
100
AcDbCircle
 10
1083.4670174092
 20
793.9049467403
 30
0.0
 40
2.000007977615266
100
AcDbArc
 50
224.0528661569
 51
270.0
  0
ARC
  5
123
330
1F
100
AcDbEntity
  8
0
  6
Continuous
 62
     7
370
    15
100
AcDbCircle
 10
1079.8735172472
 20
790.4283305193
 30
0.0
 40
3.000002398615343
100
AcDbArc
 50
44.0528661582
 51
89.999999989
  0
LINE
  5
124
330
1F
100
AcDbEntity
  8
0
  6
Continuous
 62
     7
370
    15
100
AcDbLine
 10
1079.3874035094
 20
793.428333627
 30
0.0
 11
1079.8735091898
 21
793.428333627
 31
0.0
  0
ARC
  5
125
330
1F
100
AcDbEntity
  8
0
  6
Continuous
 62
     7
370
    15
100
AcDbCircle
 10
1076.5076617892
 20
817.6594167023
 30
0.0
 40
6.99999862319326
100
AcDbArc
 50
33.7096154663
 51
65.707703054
  0
ARC
  5
126
330
1F
100
AcDbEntity
  8
0
  6
Continuous
 62
     7
370
    15
100
AcDbCircle
 10
1083.9942632662
 20
822.6541746633
 30
0.0
 40
1.99982408419317
100
AcDbArc
 50
213.709615481
 51
261.4990850052
  0
LINE
  5
127
330
1F
100
AcDbEntity
  8
0
  6
Continuous
 62
     7
370
    15
100
AcDbLine
 10
1083.6986372683
 20
820.6763287652
 30
0.0
 11
1087.8872940752
 21
820.0502564777
 31
0.0
  0
ARC
  5
128
330
1F
100
AcDbEntity
  8
0
  6
Continuous
 62
     7
370
    15
100
AcDbCircle
 10
1079.9872868962
 20
795.9282838763
 30
0.0
 40
1.0
100
AcDbArc
 50
270.0
 51
126.8615125817
  0
LWPOLYLINE
  5
129
330
1F
100
AcDbEntity
  8
0
  6
Continuous
 62
     7
370
    15
100
AcDbPolyline
 90
        3
 70
   128
 43
0.0
 10
1079.3874035094
 20
795.1281984914
 10
1079.6046028349
 20
795.0043996442
 10
1079.9872944567
 20
794.9282845128
  0
CIRCLE
  5
12A
330
1F
100
AcDbEntity
  8
0
  6
Continuous
 62
     7
370
    15
100
AcDbCircle
 10
1084.7872868962
 20
795.9285428763
 30
0.0
 40
2.5
  0
LINE
  5
12B
330
1F
100
AcDbEntity
  8
0
  6
Continuous
 62
     7
370
    15
100
AcDbLine
 10
1084.0141842577
 20
791.0563071836
 30
0.0
 11
1083.9507351134
 21
790.6090637315
 31
0.0
  0
ARC
  5
12C
330
1F
100
AcDbEntity
  8
0
  6
Continuous
 62
     7
370
    15
100
AcDbCircle
 10
1083.5191428031
 20
791.1265334813
 30
0.0
 40
0.5000014154989962
100
AcDbArc
 50
351.9252550443
 51
72.7328215543
  0
LINE
  5
12D
330
1F
100
AcDbEntity
  8
0
  6
Continuous
 62
     7
370
    15
100
AcDbLine
 10
1083.667553446
 20
791.6039993632
 30
0.0
 11
1080.8952520106
 21
792.4657335151
 31
0.0
  0
ARC
  5
12E
330
1F
100
AcDbEntity
  8
0
  6
Continuous
 62
     7
370
    15
100
AcDbCircle
 10
1081.2241933313
 20
792.8554417935
 30
0.0
 40
0.5099694220000947
100
AcDbArc
 50
139.8348425602
 51
229.8347613795
  0
LINE
  5
12F
330
1F
100
AcDbEntity
  8
0
  6
Continuous
 62
     7
370
    15
100
AcDbLine
 10
1080.8344850752
 20
793.184371816
 30
0.0
 11
1080.8903346274
 21
793.2507564891
 31
0.0
  0
LINE
  5
130
330
1F
100
AcDbEntity
  8
0
  6
Continuous
 62
     7
370
    15
100
AcDbLine
 10
1087.8872940752
 20
788.0305667985
 30
0.0
 11
1083.6698184225
 21
788.6288931239
 31
0.0
  0
LWPOLYLINE
  5
131
330
1F
100
AcDbEntity
  8
0
  6
Continuous
 62
     7
370
    15
100
AcDbPolyline
 90
        9
 70
   128
 43
0.0
 10
1083.6698184225
 20
788.6288931239
 10
1083.6752126429
 20
788.6669506896
 10
1083.6911866877
 20
788.7796332706
 10
1083.7171445105
 20
788.96261953
 10
1083.7521026346
 20
789.2088761199
 10
1083.794660351
 20
789.5089408029
 10
1083.8432381365
 20
789.8512949813
 10
1083.8959286425
 20
790.2227511275
 10
1083.9507351134
 20
790.6090637315
  0
CIRCLE
  5
132
330
1F
100
AcDbEntity
  8
0
  6
Continuous
 62
     7
370
    15
100
AcDbCircle
 10
1084.7872868962
 20
795.9285428763
 30
0.0
 40
2.250000000000083
  0
LWPOLYLINE
  5
133
330
1F
100
AcDbEntity
  8
0
  6
Continuous
 62
     7
370
    15
100
AcDbPolyline
 90
        6
 70
   128
 43
0.0
 10
1116.4853344176
 20
1304.8822750915
 10
1116.47150614
 20
1304.9248328078
 10
1116.3614759657
 20
1305.2635063995
 10
1116.1443958494
 20
1305.9316744674
 10
1115.826166651
 20
1306.910978781
 10
1115.4243121359
 20
1308.1477751601
  0
LWPOLYLINE
  5
134
330
1F
100
AcDbEntity
  8
0
  6
Continuous
 62
     7
370
    15
100
AcDbPolyline
 90
       12
 70
   128
 43
0.0
 10
1112.6431594107
 20
1316.7073001731
 10
1112.437225363
 20
1317.3411359656
 10
1111.7709348414
 20
1319.3917741645
 10
1111.1227939341
 20
1321.3865032066
 10
1110.510535023
 20
1323.2709040511
 10
1109.9508176062
 20
1324.9935378898
 10
1109.4589302752
 20
1326.5073766578
 10
1109.048284075
 20
1327.7712335456
 10
1108.7300548765
 20
1328.7505974639
 10
1108.5129747603
 20
1329.4187059272
 10
1108.4029147837
 20
1329.7574391235
 10
1108.3890865061
 20
1329.7999968398
  0
LWPOLYLINE
  5
135
330
1F
100
AcDbEntity
  8
0
  6
Continuous
 62
     7
370
    15
100
AcDbPolyline
 90
        5
 70
   128
 43
0.0
 10
1116.6648636076
 20
1306.6974749435
 10
1116.6613171313
 20
1306.7083825935
 10
1116.5763209078
 20
1306.9699873794
 10
1116.3806686613
 20
1307.5721731055
 10
1116.1201665613
 20
1308.3739151824
  0
LWPOLYLINE
  5
136
330
1F
100
AcDbEntity
  8
0
  6
Continuous
 62
     7
370
    15
100
AcDbPolyline
 90
       11
 70
   128
 43
0.0
 10
1113.3390138361
 20
1316.9333805907
 10
1112.8164897177
 20
1318.5415735114
 10
1112.1934721682
 20
1320.4589953292
 10
1111.6006741736
 20
1322.2834339011
 10
1111.0571394179
 20
1323.9562978614
 10
1110.5803022597
 20
1325.4238238204
 10
1110.185510895
 20
1326.6388645042
 10
1109.8854909155
 20
1327.562259661
 10
1109.6898088667
 20
1328.1644453872
 10
1109.6048126433
 20
1328.4260501731
 10
1109.6012661669
 20
1328.4369578231
  0
LINE
  5
137
330
1F
100
AcDbEntity
  8
0
  6
Continuous
 62
     7
370
    15
100
AcDbLine
 10
987.0874057028
 20
1393.028365599
 30
0.0
 11
482.0874104712
 21
1393.028365599
 31
0.0
  0
ARC
  5
138
330
1F
100
AcDbEntity
  8
0
  6
Continuous
 62
     7
370
    15
100
AcDbCircle
 10
987.0874039802
 20
1388.0283744953
 30
0.0
 40
5.000000000000227
100
AcDbArc
 50
0.0
 51
90.0
  0
LINE
  5
139
330
1F
100
AcDbEntity
  8
0
  6
Continuous
 62
     7
370
    15
100
AcDbLine
 10
992.0874009344
 20
1369.2783584464
 30
0.0
 11
992.0874009344
 21
1388.0283703673
 31
0.0
  0
ARC
  5
13A
330
1F
100
AcDbEntity
  8
0
  6
Continuous
 62
     7
370
    15
100
AcDbCircle
 10
482.0874039802
 20
1388.0283744952
 30
0.0
 40
5.000000000000227
100
AcDbArc
 50
90.0
 51
180.0
  0
LINE
  5
13B
330
1F
100
AcDbEntity
  8
0
  6
Continuous
 62
     7
370
    15
100
AcDbLine
 10
477.0874152396
 20
1388.0283703673
 30
0.0
 11
477.0874152396
 21
1369.2783584464
 31
0.0
  0
LINE
  5
13C
330
1F
100
AcDbEntity
  8
0
  6
Continuous
 62
     7
370
    15
100
AcDbLine
 10
477.0874152396
 20
1367.2783841956
 30
0.0
 11
477.0874152396
 21
1369.2783584464
 31
0.0
  0
LINE
  5
13D
330
1F
100
AcDbEntity
  8
0
  6
Continuous
 62
     7
370
    15
100
AcDbLine
 10
992.0874009344
 20
1369.2783584464
 30
0.0
 11
992.0874009344
 21
1367.2783841956
 31
0.0
  0
LWPOLYLINE
  5
13E
330
1F
100
AcDbEntity
  8
0
  6
Continuous
 62
     7
370
    15
100
AcDbPolyline
 90
        3
 70
   128
 43
0.0
 10
1079.3874035094
 20
1229.1535606254
 10
1079.4984767649
 20
1229.0738692153
 10
1079.5055697176
 20
1229.0691604484
  0
LINE
  5
13F
330
1F
100
AcDbEntity
  8
0
  6
Continuous
 62
     7
370
    15
100
AcDbLine
 10
370.8874056551
 20
1341.7283763755
 30
0.0
 11
370.8874056551
 21
1309.7283711303
 31
0.0
  0
LINE
  5
140
330
1F
100
AcDbEntity
  8
0
  6
Continuous
 62
     7
370
    15
100
AcDbLine
 10
1141.2872741434
 20
805.4222633708
 30
0.0
 11
1141.2872741434
 21
861.4339103568
 31
0.0
  0
LINE
  5
141
330
1F
100
AcDbEntity
  8
0
  6
Continuous
 62
     7
370
    15
100
AcDbLine
 10
1139.6872768614
 20
863.428281771
 30
0.0
 11
1141.2872741434
 21
863.428281771
 31
0.0
  0
LINE
  5
142
330
1F
100
AcDbEntity
  8
0
  6
Continuous
 62
     7
370
    15
100
AcDbLine
 10
1141.2872741434
 20
861.4339103568
 30
0.0
 11
1141.2872741434
 21
863.428281771
 31
0.0
  0
LINE
  5
143
330
1F
100
AcDbEntity
  8
0
  6
Continuous
 62
     7
370
    15
100
AcDbLine
 10
1139.6872768614
 20
803.4282793868
 30
0.0
 11
1141.2872741434
 21
803.4282793868
 31
0.0
  0
LINE
  5
144
330
1F
100
AcDbEntity
  8
0
  6
Continuous
 62
     7
370
    15
100
AcDbLine
 10
1141.2872741434
 20
803.4282793868
 30
0.0
 11
1141.2872741434
 21
805.4222633708
 31
0.0
  0
LINE
  5
145
330
1F
100
AcDbEntity
  8
0
  6
Continuous
 62
     7
370
    15
100
AcDbLine
 10
1142.6872978422
 20
860.890554415
 30
0.0
 11
1142.6872978422
 21
805.9660067428
 31
0.0
  0
ARC
  5
146
330
1F
100
AcDbEntity
  8
0
  6
Continuous
 62
     7
370
    15
100
AcDbCircle
 10
1139.6873479768
 20
860.8905789797
 30
0.0
 40
2.99994986558825
100
AcDbArc
 50
359.9995308427
 51
57.7701106721
  0
ARC
  5
147
330
1F
100
AcDbEntity
  8
0
  6
Continuous
 62
     7
370
    15
100
AcDbCircle
 10
1139.6872808264
 20
805.966019224
 30
0.0
 40
3.000017015899949
100
AcDbArc
 50
302.230596857
 51
359.9997616282
  0
LINE
  5
148
330
1F
100
AcDbEntity
  8
0
  6
Continuous
 62
     7
370
    15
100
AcDbLine
 10
1087.8872940752
 20
777.1782895196
 30
0.0
 11
1087.8872940752
 21
1209.6782793868
 31
0.0
  0
ARC
  5
149
330
1F
100
AcDbEntity
  8
0
  6
Continuous
 62
     7
370
    15
100
AcDbCircle
 10
1090.0360231744
 20
1207.8587615491
 30
0.0
 40
2.815613947810145
100
AcDbArc
 50
97.1146498994
 51
139.7424769367
  0
ARC
  5
14A
330
1F
100
AcDbEntity
  8
0
  6
Continuous
 62
     7
370
    15
100
AcDbCircle
 10
1089.9630800362
 20
778.8589604162
 30
0.0
 40
2.670869150383428
100
AcDbArc
 50
218.9955415468
 51
264.0732597099
  0
ARC
  5
14B
330
1F
100
AcDbEntity
  8
0
  6
Continuous
 62
     7
370
    15
100
AcDbCircle
 10
1089.9608074011
 20
776.6840049991
 30
0.0
 40
0.6344710608724332
100
AcDbArc
 50
221.1339168581
 51
244.4633930726
  0
ARC
  5
14C
330
1F
100
AcDbEntity
  8
0
  6
Continuous
 62
     7
370
    15
100
AcDbCircle
 10
1090.3058784869
 20
777.1638798856
 30
0.0
 40
2.418627336760689
100
AcDbArc
 50
179.6586427001
 51
255.1814840371
  0
LINE
  5
14D
330
1F
100
AcDbEntity
  8
0
  6
Continuous
 62
     7
370
    15
100
AcDbLine
 10
1089.6872947428
 20
1210.7209434379
 30
0.0
 11
1089.5151267264
 21
1210.5965485442
 31
0.0
  0
ARC
  5
14E
330
1F
100
AcDbEntity
  8
0
  6
Continuous
 62
     7
370
    15
100
AcDbCircle
 10
1090.1775920673
 20
1209.773183097
 30
0.0
 40
2.292263424373838
100
AcDbArc
 50
102.3505447117
 51
182.3728235715
  0
ARC
  5
14F
330
1F
100
AcDbEntity
  8
0
  6
Continuous
 62
     7
370
    15
100
AcDbCircle
 10
1086.3872868962
 20
1179.9282838763
 30
0.0
 40
1.500000000000187
100
AcDbArc
 50
277.6667682556
 51
0.0
  0
LINE
  5
150
330
1F
100
AcDbEntity
  8
0
  6
Continuous
 62
     7
370
    15
100
AcDbLine
 10
1089.6872947428
 20
774.2989977468
 30
0.0
 11
1089.6872947428
 21
1212.557600962
 31
0.0
  0
CIRCLE
  5
151
330
1F
100
AcDbEntity
  8
0
  6
Continuous
 62
     7
370
    15
100
AcDbCircle
 10
1113.6872868962
 20
805.4282838763
 30
0.0
 40
1.599999999999909
  0
CIRCLE
  5
152
330
1F
100
AcDbEntity
  8
0
  6
Continuous
 62
     7
370
    15
100
AcDbCircle
 10
1113.6872868962
 20
993.4282838763
 30
0.0
 40
1.600000000000364
  0
CIRCLE
  5
153
330
1F
100
AcDbEntity
  8
0
  6
Continuous
 62
     7
370
    15
100
AcDbCircle
 10
1113.6872868962
 20
1181.4282838763
 30
0.0
 40
1.599999999999909
  0
LINE
  5
154
330
1F
100
AcDbEntity
  8
0
  6
Continuous
 62
     7
370
    15
100
AcDbLine
 10
1137.6372943136
 20
1212.557600962
 30
0.0
 11
1089.6872947428
 21
1212.557600962
 31
0.0
  0
LINE
  5
155
330
1F
100
AcDbEntity
  8
0
  6
Continuous
 62
     7
370
    15
100
AcDbLine
 10
1137.6372943136
 20
774.2989977468
 30
0.0
 11
1089.6872947428
 21
774.2989977468
 31
0.0
  0
LWPOLYLINE
  5
156
330
1F
100
AcDbEntity
  8
0
  6
Continuous
 62
     7
370
    15
100
AcDbPolyline
 90
        6
 70
   128
 43
0.0
 10
1137.6372943136
 20
1212.557600962
 10
1138.3581528876
 20
1212.2878303397
 10
1138.9871010992
 20
1212.0179405082
 10
1139.4435534689
 20
1211.7481102813
 10
1139.6691272471
 20
1211.4782800544
 10
1139.6872768614
 20
1211.3782634605
  0
LINE
  5
157
330
1F
100
AcDbEntity
  8
0
  6
Continuous
 62
     7
370
    15
100
AcDbLine
 10
1139.6872768614
 20
1211.3782634605
 30
0.0
 11
1139.6872768614
 21
775.4782905448
 31
0.0
  0
ARC
  5
158
330
1F
100
AcDbEntity
  8
0
  6
Continuous
 62
     7
370
    15
100
AcDbCircle
 10
1136.727792479
 20
778.2514028413
 30
0.0
 40
4.055699646027317
100
AcDbArc
 50
282.9589415962
 51
316.862083577
  0
LINE
  5
159
330
1F
100
AcDbEntity
  8
0
  6
Continuous
 62
     7
370
    15
100
AcDbLine
 10
1137.6372943136
 20
773.4282781947
 30
0.0
 11
1137.6372943136
 21
774.2282768357
 31
0.0
  0
ARC
  5
15A
330
1F
100
AcDbEntity
  8
0
  6
Continuous
 62
     7
370
    15
100
AcDbCircle
 10
1137.7162388968
 20
775.2733088837
 30
0.0
 40
1.048009650941782
100
AcDbArc
 50
265.6799252154
 51
323.52777495
  0
ARC
  5
15B
330
1F
100
AcDbEntity
  8
0
  6
Continuous
 62
     7
370
    15
100
AcDbCircle
 10
1137.6372941265
 20
775.4782609298
 30
0.0
 40
2.049982735087391
100
AcDbArc
 50
270.0000052297
 51
0.0008277212
  0
ARC
  5
15C
330
1F
100
AcDbEntity
  8
0
  6
Continuous
 62
     7
370
    15
100
AcDbCircle
 10
1137.7144780746
 20
1211.58215734
 30
0.0
 40
1.048978173143009
100
AcDbArc
 50
36.1120924592
 51
94.2196339391
  0
LINE
  5
15D
330
1F
100
AcDbEntity
  8
0
  6
Continuous
 62
     7
370
    15
100
AcDbLine
 10
1137.6372943136
 20
1213.4283056129
 30
0.0
 11
1137.6372943136
 21
1212.6282920707
 31
0.0
  0
ARC
  5
15E
330
1F
100
AcDbEntity
  8
0
  6
Continuous
 62
     7
370
    15
100
AcDbCircle
 10
1137.6371595285
 20
1211.378188283
 30
0.0
 40
2.050117334288449
100
AcDbArc
 50
0.0021010265
 51
89.9962330838
  0
LINE
  5
15F
330
1F
100
AcDbEntity
  8
0
  6
Continuous
 62
     7
370
    15
100
AcDbLine
 10
1089.6872947428
 20
774.2282768357
 30
0.0
 11
1089.6872947428
 21
773.4282781947
 31
0.0
  0
LINE
  5
160
330
1F
100
AcDbEntity
  8
0
  6
Continuous
 62
     7
370
    15
100
AcDbLine
 10
1137.6372943136
 20
774.2282768357
 30
0.0
 11
1089.6872947428
 21
774.2282768357
 31
0.0
  0
LINE
  5
161
330
1F
100
AcDbEntity
  8
0
  6
Continuous
 62
     7
370
    15
100
AcDbLine
 10
1089.6872947428
 20
773.4282781947
 30
0.0
 11
1137.6372943136
 21
773.4282781947
 31
0.0
  0
LINE
  5
162
330
1F
100
AcDbEntity
  8
0
  6
Continuous
 62
     7
370
    15
100
AcDbLine
 10
1089.6872947428
 20
1213.4283056129
 30
0.0
 11
1137.6372943136
 21
1213.4283056129
 31
0.0
  0
LINE
  5
163
330
1F
100
AcDbEntity
  8
0
  6
Continuous
 62
     7
370
    15
100
AcDbLine
 10
1089.6872947428
 20
1212.6282920707
 30
0.0
 11
1089.6872947428
 21
1213.4283056129
 31
0.0
  0
LINE
  5
164
330
1F
100
AcDbEntity
  8
0
  6
Continuous
 62
     7
370
    15
100
AcDbLine
 10
1137.6372943136
 20
1212.6282920707
 30
0.0
 11
1089.6872947428
 21
1212.6282920707
 31
0.0
  0
ARC
  5
165
330
1F
100
AcDbEntity
  8
0
  6
Continuous
 62
     7
370
    15
100
AcDbCircle
 10
1080.3874039802
 20
1348.2283744953
 30
0.0
 40
1.000000000000227
100
AcDbArc
 50
90.0
 51
180.0
  0
LINE
  5
166
330
1F
100
AcDbEntity
  8
0
  6
Continuous
 62
     7
370
    15
100
AcDbLine
 10
1079.3874035094
 20
1229.5406927932
 30
0.0
 11
1079.3874035094
 21
1348.2283820975
 31
0.0
  0
ARC
  5
167
330
1F
100
AcDbEntity
  8
0
  6
Continuous
 62
     7
370
    15
100
AcDbCircle
 10
1080.3874039802
 20
1229.5406999681
 30
0.0
 40
1.000000000000227
100
AcDbArc
 50
180.0
 51
270.0
  0
LINE
  5
168
330
1F
100
AcDbEntity
  8
0
  6
Continuous
 62
     7
370
    15
100
AcDbLine
 10
427.3873934958
 20
1367.3283924926
 30
0.0
 11
427.3873934958
 21
1367.828356253
 31
0.0
  0
LINE
  5
169
330
1F
100
AcDbEntity
  8
0
  6
Continuous
 62
     7
370
    15
100
AcDbLine
 10
377.3874113772
 20
1367.828356253
 30
0.0
 11
377.3874113772
 21
1367.3283924926
 31
0.0
  0
LINE
  5
16A
330
1F
100
AcDbEntity
  8
0
  6
Continuous
 62
     7
370
    15
100
AcDbLine
 10
438.5874042723
 20
1367.3283924926
 30
0.0
 11
438.5874042723
 21
1367.828356253
 31
0.0
  0
LINE
  5
16B
330
1F
100
AcDbEntity
  8
0
  6
Continuous
 62
     7
370
    15
100
AcDbLine
 10
1030.6374052975
 20
1367.3283924926
 30
0.0
 11
1030.6374052975
 21
1367.4283494819
 31
0.0
  0
LINE
  5
16C
330
1F
100
AcDbEntity
  8
0
  6
Continuous
 62
     7
370
    15
100
AcDbLine
 10
997.5874046299
 20
1383.8183750976
 30
0.0
 11
997.5874046299
 21
1383.8283886779
 31
0.0
  0
LINE
  5
16D
330
1F
100
AcDbEntity
  8
0
  6
Continuous
 62
     7
370
    15
100
AcDbLine
 10
1018.5589859698
 20
1383.8283886779
 30
0.0
 11
1018.3374057028
 21
1383.8283886779
 31
0.0
  0
LINE
  5
16E
330
1F
100
AcDbEntity
  8
0
  6
Continuous
 62
     7
370
    15
100
AcDbLine
 10
1116.1153385851
 20
1358.8302006591
 30
0.0
 11
1115.8013711188
 21
1358.8027229179
 31
0.0
  0
LINE
  5
16F
330
1F
100
AcDbEntity
  8
0
  6
Continuous
 62
     7
370
    15
100
AcDbLine
 10
1116.8850133631
 20
1359.2738976348
 30
0.0
 11
1116.8941924784
 21
1359.1688742507
 31
0.0
  0
ARC
  5
170
330
1F
100
AcDbEntity
  8
0
  6
Continuous
 62
     7
370
    15
100
AcDbCircle
 10
371.8874039802
 20
1368.8283744953
 30
0.0
 40
1.000000000000227
100
AcDbArc
 50
180.0
 51
270.0
  0
LINE
  5
171
330
1F
100
AcDbEntity
  8
0
  6
Continuous
 62
     7
370
    15
100
AcDbLine
 10
473.2874105189
 20
1367.828356253
 30
0.0
 11
371.8873927805
 21
1367.828356253
 31
0.0
  0
LINE
  5
172
330
1F
100
AcDbEntity
  8
0
  6
Continuous
 62
     7
370
    15
100
AcDbLine
 10
370.8874056551
 20
1368.828402983
 30
0.0
 11
370.8874056551
 21
1404.9054851401
 31
0.0
  0
LINE
  5
173
330
1F
100
AcDbEntity
  8
0
  6
Continuous
 62
     7
370
    15
100
AcDbLine
 10
474.2873976443
 20
1374.9055137504
 30
0.0
 11
474.2873976443
 21
1368.828402983
 31
0.0
  0
ARC
  5
174
330
1F
100
AcDbEntity
  8
0
  6
Continuous
 62
     7
370
    15
100
AcDbCircle
 10
473.2874039802
 20
1368.8283744953
 30
0.0
 40
1.0
100
AcDbArc
 50
270.0
 51
0.0
  0
LINE
  5
175
330
1F
100
AcDbEntity
  8
0
  6
Continuous
 62
     7
370
    15
100
AcDbLine
 10
372.6679752085
 20
1454.9879898894
 30
0.0
 11
405.9649477217
 21
1446.0660686362
 31
0.0
  0
LINE
  5
176
330
1F
100
AcDbEntity
  8
0
  6
Continuous
 62
     7
370
    15
100
AcDbLine
 10
372.4609384749
 20
1454.2152156699
 30
0.0
 11
405.7578811857
 21
1445.2933540214
 31
0.0
  0
LINE
  5
177
330
1F
100
AcDbEntity
  8
0
  6
Continuous
 62
     7
370
    15
100
AcDbLine
 10
370.8874056551
 20
1406.2283506263
 30
0.0
 11
370.8874056551
 21
1404.9054851401
 31
0.0
  0
LINE
  5
178
330
1F
100
AcDbEntity
  8
0
  6
Continuous
 62
     7
370
    15
100
AcDbLine
 10
370.8874056551
 20
1404.2283763755
 30
0.0
 11
370.0873921129
 21
1404.2283763755
 31
0.0
  0
LINE
  5
179
330
1F
100
AcDbEntity
  8
0
  6
Continuous
 62
     7
370
    15
100
AcDbLine
 10
370.0873921129
 20
1404.2283763755
 30
0.0
 11
370.0873921129
 21
1406.2283506263
 31
0.0
  0
ARC
  5
17A
330
1F
100
AcDbEntity
  8
0
  6
Continuous
 62
     7
370
    15
100
AcDbCircle
 10
372.1374039802
 20
1453.007829655
 30
0.0
 40
2.050000000000324
100
AcDbArc
 50
75.0
 51
180.0
  0
ARC
  5
17B
330
1F
100
AcDbEntity
  8
0
  6
Continuous
 62
     7
370
    15
100
AcDbCircle
 10
372.1374039802
 20
1453.007829655
 30
0.0
 40
1.250000000000046
100
AcDbArc
 50
75.0
 51
180.0
  0
LINE
  5
17C
330
1F
100
AcDbEntity
  8
0
  6
Continuous
 62
     7
370
    15
100
AcDbLine
 10
370.8874056551
 20
1406.2283506263
 30
0.0
 11
370.8874056551
 21
1453.0078043807
 31
0.0
  0
LINE
  5
17D
330
1F
100
AcDbEntity
  8
0
  6
Continuous
 62
     7
370
    15
100
AcDbLine
 10
370.0873921129
 20
1406.2283506263
 30
0.0
 11
370.0873921129
 21
1453.0078043807
 31
0.0
  0
ARC
  5
17E
330
1F
100
AcDbEntity
  8
0
  6
Continuous
 62
     7
370
    15
100
AcDbCircle
 10
399.2874039802
 20
1421.1451997958
 30
0.0
 40
25.00000000000022
100
AcDbArc
 50
0.0
 51
75.0
  0
ARC
  5
17F
330
1F
100
AcDbEntity
  8
0
  6
Continuous
 62
     7
370
    15
100
AcDbCircle
 10
399.2874039802
 20
1421.1451997958
 30
0.0
 40
25.80000000000028
100
AcDbArc
 50
0.0
 51
75.0
  0
ARC
  5
180
330
1F
100
AcDbEntity
  8
0
  6
Continuous
 62
     7
370
    15
100
AcDbCircle
 10
426.3374039802
 20
1406.2783744953
 30
0.0
 40
1.250000000000057
100
AcDbArc
 50
180.0
 51
270.0
  0
ARC
  5
181
330
1F
100
AcDbEntity
  8
0
  6
Continuous
 62
     7
370
    15
100
AcDbCircle
 10
426.3374039802
 20
1406.2783744953
 30
0.0
 40
2.050000000000011
100
AcDbArc
 50
180.0
 51
270.0
  0
LINE
  5
182
330
1F
100
AcDbEntity
  8
0
  6
Continuous
 62
     7
370
    15
100
AcDbLine
 10
426.3373980734
 20
1404.2283763755
 30
0.0
 11
447.5373993132
 21
1404.2283763755
 31
0.0
  0
LINE
  5
183
330
1F
100
AcDbEntity
  8
0
  6
Continuous
 62
     7
370
    15
100
AcDbLine
 10
426.3373980734
 20
1405.0283899177
 30
0.0
 11
447.5373993132
 21
1405.0283899177
 31
0.0
  0
LINE
  5
184
330
1F
100
AcDbEntity
  8
0
  6
Continuous
 62
     7
370
    15
100
AcDbLine
 10
425.0873992655
 20
1421.1451878417
 30
0.0
 11
425.0873992655
 21
1406.2783589233
 31
0.0
  0
LINE
  5
185
330
1F
100
AcDbEntity
  8
0
  6
Continuous
 62
     7
370
    15
100
AcDbLine
 10
424.2874155257
 20
1421.1451878417
 30
0.0
 11
424.2874155257
 21
1406.2783589233
 31
0.0
  0
ARC
  5
186
330
1F
100
AcDbEntity
  8
0
  6
Continuous
 62
     7
370
    15
100
AcDbCircle
 10
450.8374039802
 20
1386.2783744953
 30
0.0
 40
1.25
100
AcDbArc
 50
180.0
 51
270.0
  0
ARC
  5
187
330
1F
100
AcDbEntity
  8
0
  6
Continuous
 62
     7
370
    15
100
AcDbCircle
 10
450.8374039802
 20
1386.2783744953
 30
0.0
 40
2.050000000000068
100
AcDbArc
 50
180.0
 51
270.0
  0
LINE
  5
188
330
1F
100
AcDbEntity
  8
0
  6
Continuous
 62
     7
370
    15
100
AcDbLine
 10
449.5874116633
 20
1402.9783477653
 30
0.0
 11
449.5874116633
 21
1386.2783779967
 31
0.0
  0
LINE
  5
189
330
1F
100
AcDbEntity
  8
0
  6
Continuous
 62
     7
370
    15
100
AcDbLine
 10
448.7873981211
 20
1402.9783477653
 30
0.0
 11
448.7873981211
 21
1386.2783779967
 31
0.0
  0
ARC
  5
18A
330
1F
100
AcDbEntity
  8
0
  6
Continuous
 62
     7
370
    15
100
AcDbCircle
 10
447.5374039802
 20
1402.9783744953
 30
0.0
 40
2.050000000000011
100
AcDbArc
 50
0.0
 51
90.0
  0
ARC
  5
18B
330
1F
100
AcDbEntity
  8
0
  6
Continuous
 62
     7
370
    15
100
AcDbCircle
 10
447.5374039802
 20
1402.9783744953
 30
0.0
 40
1.250000000000227
100
AcDbArc
 50
0.0
 51
90.0
  0
LINE
  5
18C
330
1F
100
AcDbEntity
  8
0
  6
Continuous
 62
     7
370
    15
100
AcDbLine
 10
450.8374104712
 20
1385.0283493865
 30
0.0
 11
473.0373988364
 21
1385.0283493865
 31
0.0
  0
LINE
  5
18D
330
1F
100
AcDbEntity
  8
0
  6
Continuous
 62
     7
370
    15
100
AcDbLine
 10
450.8374104712
 20
1384.228395449
 30
0.0
 11
473.0373988364
 21
1384.228395449
 31
0.0
  0
ARC
  5
18E
330
1F
100
AcDbEntity
  8
0
  6
Continuous
 62
     7
370
    15
100
AcDbCircle
 10
473.0374039802
 20
1382.9783744953
 30
0.0
 40
2.050000000000011
100
AcDbArc
 50
0.0
 51
90.0
  0
ARC
  5
18F
330
1F
100
AcDbEntity
  8
0
  6
Continuous
 62
     7
370
    15
100
AcDbCircle
 10
473.0374039802
 20
1382.9783744953
 30
0.0
 40
1.25
100
AcDbArc
 50
0.0
 51
90.0
  0
LINE
  5
190
330
1F
100
AcDbEntity
  8
0
  6
Continuous
 62
     7
370
    15
100
AcDbLine
 10
475.0874111864
 20
1374.2283453811
 30
0.0
 11
474.2873976443
 21
1374.2283453811
 31
0.0
  0
LINE
  5
191
330
1F
100
AcDbEntity
  8
0
  6
Continuous
 62
     7
370
    15
100
AcDbLine
 10
474.2873976443
 20
1374.9055137504
 30
0.0
 11
474.2873976443
 21
1376.2283792365
 31
0.0
  0
LINE
  5
192
330
1F
100
AcDbEntity
  8
0
  6
Continuous
 62
     7
370
    15
100
AcDbLine
 10
475.0874111864
 20
1376.2283792365
 30
0.0
 11
475.0874111864
 21
1374.2283453811
 31
0.0
  0
LINE
  5
193
330
1F
100
AcDbEntity
  8
0
  6
Continuous
 62
     7
370
    15
100
AcDbLine
 10
474.2873976443
 20
1382.9783668388
 30
0.0
 11
474.2873976443
 21
1376.2283792365
 31
0.0
  0
LINE
  5
194
330
1F
100
AcDbEntity
  8
0
  6
Continuous
 62
     7
370
    15
100
AcDbLine
 10
475.0874111864
 20
1382.9783668388
 30
0.0
 11
475.0874111864
 21
1376.2283792365
 31
0.0
  0
LINE
  5
195
330
1F
100
AcDbEntity
  8
0
  6
Continuous
 62
     7
370
    15
100
AcDbLine
 10
995.2974090788
 20
1382.5783600677
 30
0.0
 11
995.2974090788
 21
1369.8783984054
 31
0.0
  0
ARC
  5
196
330
1F
100
AcDbEntity
  8
0
  6
Continuous
 62
     7
370
    15
100
AcDbCircle
 10
996.5374039802
 20
1382.5783744953
 30
0.0
 40
1.240000000000009
100
AcDbArc
 50
90.0
 51
180.0
  0
LINE
  5
197
330
1F
100
AcDbEntity
  8
0
  6
Continuous
 62
     7
370
    15
100
AcDbLine
 10
1018.3374057028
 20
1383.8183750976
 30
0.0
 11
996.5374092076
 21
1383.8183750976
 31
0.0
  0
ARC
  5
198
330
1F
100
AcDbEntity
  8
0
  6
Continuous
 62
     7
370
    15
100
AcDbCircle
 10
1018.3374039802
 20
1386.2783744953
 30
0.0
 40
2.459999999999923
100
AcDbArc
 50
270.0
 51
0.0
  0
LINE
  5
199
330
1F
100
AcDbEntity
  8
0
  6
Continuous
 62
     7
370
    15
100
AcDbLine
 10
1020.797408602
 20
1402.5283923019
 30
0.0
 11
1020.797408602
 21
1386.2783779967
 31
0.0
  0
LINE
  5
19A
330
1F
100
AcDbEntity
  8
0
  6
Continuous
 62
     7
370
    15
100
AcDbLine
 10
1022.0374087307
 20
1402.5283923019
 30
0.0
 11
1020.797408602
 21
1402.5283923019
 31
0.0
  0
LINE
  5
19B
330
1F
100
AcDbEntity
  8
0
  6
Continuous
 62
     7
370
    15
100
AcDbLine
 10
1022.0374087307
 20
1402.5784005988
 30
0.0
 11
1022.0374087307
 21
1402.5283923019
 31
0.0
  0
LINE
  5
19C
330
1F
100
AcDbEntity
  8
0
  6
Continuous
 62
     7
370
    15
100
AcDbLine
 10
1113.3542130205
 20
1402.5283923019
 30
0.0
 11
1113.3542130205
 21
1402.5784005988
 31
0.0
  0
LINE
  5
19D
330
1F
100
AcDbEntity
  8
0
  6
Continuous
 62
     7
370
    15
100
AcDbLine
 10
1113.8542065832
 20
1402.5283923019
 30
0.0
 11
1113.3542130205
 21
1402.5283923019
 31
0.0
  0
LINE
  5
19E
330
1F
100
AcDbEntity
  8
0
  6
Continuous
 62
     7
370
    15
100
AcDbLine
 10
1113.8542065832
 20
1403.7226905692
 30
0.0
 11
1113.8542065832
 21
1402.5283923019
 31
0.0
  0
ARC
  5
19F
330
1F
100
AcDbEntity
  8
0
  6
Continuous
 62
     7
370
    15
100
AcDbCircle
 10
1113.3542124787
 20
1381.7283744953
 30
0.0
 40
22.00000000000032
100
AcDbArc
 50
293.5
 51
88.6977110648
  0
LINE
  5
1A0
330
1F
100
AcDbEntity
  8
0
  6
Continuous
 62
     7
370
    15
100
AcDbLine
 10
1095.6217417929
 20
1350.0283827651
 30
0.0
 11
1122.1267054293
 21
1361.5530600417
 31
0.0
  0
LINE
  5
1A1
330
1F
100
AcDbEntity
  8
0
  6
Continuous
 62
     7
370
    15
100
AcDbLine
 10
1080.1874170515
 20
1350.0283827651
 30
0.0
 11
1095.6217417929
 21
1350.0283827651
 31
0.0
  0
ARC
  5
1A2
330
1F
100
AcDbEntity
  8
0
  6
Continuous
 62
     7
370
    15
100
AcDbCircle
 10
1080.1874039802
 20
1352.0283744953
 30
0.0
 40
2.0
100
AcDbArc
 50
180.0
 51
270.0
  0
LINE
  5
1A3
330
1F
100
AcDbEntity
  8
0
  6
Continuous
 62
     7
370
    15
100
AcDbLine
 10
1078.1874129984
 20
1369.9283470977
 30
0.0
 11
1078.1874129984
 21
1352.0283570159
 31
0.0
  0
LINE
  5
1A4
330
1F
100
AcDbEntity
  8
0
  6
Continuous
 62
     7
370
    15
100
AcDbLine
 10
1078.1769821856
 20
1369.9283470977
 30
0.0
 11
1078.1874129984
 21
1369.9283470977
 31
0.0
  0
ARC
  5
1A5
330
1F
100
AcDbEntity
  8
0
  6
Continuous
 62
     7
370
    15
100
AcDbCircle
 10
1078.0624039802
 20
1369.8783744953
 30
0.0
 40
0.1250000000000312
100
AcDbArc
 50
23.5781784782
 51
156.4218215218
  0
LINE
  5
1A6
330
1F
100
AcDbEntity
  8
0
  6
Continuous
 62
     7
370
    15
100
AcDbLine
 10
1077.9374013159
 20
1369.9283470977
 30
0.0
 11
1077.9478321287
 21
1369.9283470977
 31
0.0
  0
LINE
  5
1A7
330
1F
100
AcDbEntity
  8
0
  6
Continuous
 62
     7
370
    15
100
AcDbLine
 10
1077.9374013159
 20
1369.8783984054
 30
0.0
 11
1077.9374013159
 21
1369.9283470977
 31
0.0
  0
ARC
  5
1A8
330
1F
100
AcDbEntity
  8
0
  6
Continuous
 62
     7
370
    15
100
AcDbCircle
 10
1100.3621493409
 20
1372.0355748565
 30
0.0
 40
0.2500000000001912
100
AcDbArc
 50
279.9421486626
 51
99.9421486627
  0
ARC
  5
1A9
330
1F
100
AcDbEntity
  8
0
  6
Continuous
 62
     7
370
    15
100
AcDbCircle
 10
1100.8542124787
 20
1369.2283744953
 30
0.0
 40
3.100000000000089
100
AcDbArc
 50
99.9421486627
 51
260.0578513373
  0
ARC
  5
1AA
330
1F
100
AcDbEntity
  8
0
  6
Continuous
 62
     7
370
    15
100
AcDbCircle
 10
1100.3621493409
 20
1366.421174134
 30
0.0
 40
0.249999999999928
100
AcDbArc
 50
260.0578513373
 51
80.0578513374
  0
ARC
  5
1AB
330
1F
100
AcDbEntity
  8
0
  6
Continuous
 62
     7
370
    15
100
AcDbCircle
 10
1100.8542124787
 20
1369.2283744953
 30
0.0
 40
2.600000000000418
100
AcDbArc
 50
99.9421486627
 51
260.0578513373
  0
ARC
  5
1AC
330
1F
100
AcDbEntity
  8
0
  6
Continuous
 62
     7
370
    15
100
AcDbCircle
 10
1101.3462756165
 20
1366.421174134
 30
0.0
 40
0.2499999999999673
100
AcDbArc
 50
99.9421486627
 51
279.9421486627
  0
ARC
  5
1AD
330
1F
100
AcDbEntity
  8
0
  6
Continuous
 62
     7
370
    15
100
AcDbCircle
 10
1100.8542124787
 20
1369.2283744953
 30
0.0
 40
3.100000000000049
100
AcDbArc
 50
279.9421486627
 51
80.0578513373
  0
ARC
  5
1AE
330
1F
100
AcDbEntity
  8
0
  6
Continuous
 62
     7
370
    15
100
AcDbCircle
 10
1101.3462756165
 20
1372.0355748565
 30
0.0
 40
0.250000000000152
100
AcDbArc
 50
80.0578513374
 51
260.0578513373
  0
ARC
  5
1AF
330
1F
100
AcDbEntity
  8
0
  6
Continuous
 62
     7
370
    15
100
AcDbCircle
 10
1100.8542124787
 20
1369.2283744953
 30
0.0
 40
2.600000000000378
100
AcDbArc
 50
279.9421486627
 51
80.0578513373
  0
LINE
  5
1B0
330
1F
100
AcDbEntity
  8
0
  6
Continuous
 62
     7
370
    15
100
AcDbLine
 10
1077.9374013159
 20
1369.8783984054
 30
0.0
 11
1077.9374013159
 21
1367.4283494819
 31
0.0
  0
LINE
  5
1B1
330
1F
100
AcDbEntity
  8
0
  6
Continuous
 62
     7
370
    15
100
AcDbLine
 10
1077.9374013159
 20
1367.4283494819
 30
0.0
 11
995.2974090788
 21
1367.4283494819
 31
0.0
  0
LINE
  5
1B2
330
1F
100
AcDbEntity
  8
0
  6
Continuous
 62
     7
370
    15
100
AcDbLine
 10
995.2974090788
 20
1367.4283494819
 30
0.0
 11
995.2974090788
 21
1369.8783984054
 31
0.0
  0
LINE
  5
1B3
330
1F
100
AcDbEntity
  8
0
  6
Continuous
 62
     7
370
    15
100
AcDbLine
 10
1113.3542130205
 20
1405.0283899177
 30
0.0
 11
1113.3542130205
 21
1402.5784005988
 31
0.0
  0
LINE
  5
1B4
330
1F
100
AcDbEntity
  8
0
  6
Continuous
 62
     7
370
    15
100
AcDbLine
 10
1022.0374087307
 20
1405.0283899177
 30
0.0
 11
1113.3542130205
 21
1405.0283899177
 31
0.0
  0
LINE
  5
1B5
330
1F
100
AcDbEntity
  8
0
  6
Continuous
 62
     7
370
    15
100
AcDbLine
 10
1022.0374087307
 20
1402.5784005988
 30
0.0
 11
1022.0374087307
 21
1405.0283899177
 31
0.0
  0
LINE
  5
1B6
330
1F
100
AcDbEntity
  8
0
  6
Continuous
 62
     7
370
    15
100
AcDbLine
 10
995.2874103997
 20
1377.0283927787
 30
0.0
 11
995.2874103997
 21
1375.0283589233
 31
0.0
  0
LINE
  5
1B7
330
1F
100
AcDbEntity
  8
0
  6
Continuous
 62
     7
370
    15
100
AcDbLine
 10
995.2874103997
 20
1375.0283589233
 30
0.0
 11
994.0874049876
 21
1375.0283589233
 31
0.0
  0
LINE
  5
1B8
330
1F
100
AcDbEntity
  8
0
  6
Continuous
 62
     7
370
    15
100
AcDbLine
 10
994.0874049876
 20
1375.0283589233
 30
0.0
 11
994.0874049876
 21
1377.0283927787
 31
0.0
  0
ARC
  5
1B9
330
1F
100
AcDbEntity
  8
0
  6
Continuous
 62
     7
370
    15
100
AcDbCircle
 10
996.5374039802
 20
1382.5783744953
 30
0.0
 40
1.25
100
AcDbArc
 50
90.0
 51
180.0
  0
ARC
  5
1BA
330
1F
100
AcDbEntity
  8
0
  6
Continuous
 62
     7
370
    15
100
AcDbCircle
 10
996.5374039802
 20
1382.5783744953
 30
0.0
 40
2.450000000000045
100
AcDbArc
 50
90.0
 51
180.0
  0
LINE
  5
1BB
330
1F
100
AcDbEntity
  8
0
  6
Continuous
 62
     7
370
    15
100
AcDbLine
 10
1019.5874045107
 20
1402.5784005988
 30
0.0
 11
1019.5874045107
 21
1386.2783779967
 31
0.0
  0
LINE
  5
1BC
330
1F
100
AcDbEntity
  8
0
  6
Continuous
 62
     7
370
    15
100
AcDbLine
 10
1020.7874099228
 20
1402.5784005988
 30
0.0
 11
1020.7874099228
 21
1386.2783779967
 31
0.0
  0
LINE
  5
1BD
330
1F
100
AcDbEntity
  8
0
  6
Continuous
 62
     7
370
    15
100
AcDbLine
 10
1020.7874099228
 20
1402.5784005988
 30
0.0
 11
1019.5874045107
 21
1402.5784005988
 31
0.0
  0
LINE
  5
1BE
330
1F
100
AcDbEntity
  8
0
  6
Continuous
 62
     7
370
    15
100
AcDbLine
 10
1018.3374057028
 20
1385.0283493865
 30
0.0
 11
996.5374092076
 21
1385.0283493865
 31
0.0
  0
LINE
  5
1BF
330
1F
100
AcDbEntity
  8
0
  6
Continuous
 62
     7
370
    15
100
AcDbLine
 10
1018.3374057028
 20
1383.8283886779
 30
0.0
 11
996.5374092076
 21
1383.8283886779
 31
0.0
  0
LINE
  5
1C0
330
1F
100
AcDbEntity
  8
0
  6
Continuous
 62
     7
370
    15
100
AcDbLine
 10
995.2874103997
 20
1382.5783600677
 30
0.0
 11
995.2874103997
 21
1377.0283927787
 31
0.0
  0
LINE
  5
1C1
330
1F
100
AcDbEntity
  8
0
  6
Continuous
 62
     7
370
    15
100
AcDbLine
 10
994.0874049876
 20
1382.5783600677
 30
0.0
 11
994.0874049876
 21
1377.0283927787
 31
0.0
  0
ARC
  5
1C2
330
1F
100
AcDbEntity
  8
0
  6
Continuous
 62
     7
370
    15
100
AcDbCircle
 10
1018.3374039802
 20
1386.2783744953
 30
0.0
 40
2.450000000000045
100
AcDbArc
 50
270.0
 51
0.0
  0
ARC
  5
1C3
330
1F
100
AcDbEntity
  8
0
  6
Continuous
 62
     7
370
    15
100
AcDbCircle
 10
1018.3374039802
 20
1386.2783744953
 30
0.0
 40
1.25
100
AcDbArc
 50
270.0
 51
0.0
  0
LINE
  5
1C4
330
1F
100
AcDbEntity
  8
0
  6
Continuous
 62
     7
370
    15
100
AcDbLine
 10
1098.9954540941
 20
1351.3862361777
 30
0.0
 11
1122.1665809366
 21
1361.4613284934
 31
0.0
  0
LINE
  5
1C5
330
1F
100
AcDbEntity
  8
0
  6
Continuous
 62
     7
370
    15
100
AcDbLine
 10
1099.4739601824
 20
1350.2858152259
 30
0.0
 11
1122.6450572226
 21
1360.3608479369
 31
0.0
  0
LINE
  5
1C6
330
1F
100
AcDbEntity
  8
0
  6
Continuous
 62
     7
370
    15
100
AcDbLine
 10
1098.9954540941
 20
1351.3862361777
 30
0.0
 11
1099.4739601824
 21
1350.2858152259
 31
0.0
  0
ARC
  5
1C7
330
1F
100
AcDbEntity
  8
0
  6
Continuous
 62
     7
370
    15
100
AcDbCircle
 10
1113.3542124787
 20
1381.7283744953
 30
0.0
 40
23.2999999999999
100
AcDbArc
 50
293.5
 51
88.7703824493
  0
ARC
  5
1C8
330
1F
100
AcDbEntity
  8
0
  6
Continuous
 62
     7
370
    15
100
AcDbCircle
 10
1113.3542124787
 20
1381.7283744953
 30
0.0
 40
22.10000000000023
100
AcDbArc
 50
293.5
 51
88.703604783
  0
LINE
  5
1C9
330
1F
100
AcDbEntity
  8
0
  6
Continuous
 62
     7
370
    15
100
AcDbLine
 10
1113.8542065832
 20
1403.8227071632
 30
0.0
 11
1113.8542065832
 21
1405.0230254996
 31
0.0
  0
ARC
  5
1CA
330
1F
100
AcDbEntity
  8
0
  6
Continuous
 62
     7
370
    15
100
AcDbCircle
 10
1022.0374039802
 20
1402.5783744953
 30
0.0
 40
1.25
100
AcDbArc
 50
90.0
 51
180.0
  0
ARC
  5
1CB
330
1F
100
AcDbEntity
  8
0
  6
Continuous
 62
     7
370
    15
100
AcDbCircle
 10
1022.0374039802
 20
1402.5783744953
 30
0.0
 40
2.450000000000045
100
AcDbArc
 50
90.0
 51
180.0
  0
ARC
  5
1CC
330
1F
100
AcDbEntity
  8
0
  6
Continuous
 62
     7
370
    15
100
AcDbCircle
 10
1113.3542124787
 20
1381.7283744953
 30
0.0
 40
23.29999999999995
100
AcDbArc
 50
88.7703824493
 51
90.0
  0
ARC
  5
1CD
330
1F
100
AcDbEntity
  8
0
  6
Continuous
 62
     7
370
    15
100
AcDbCircle
 10
1113.3542124787
 20
1381.7283744953
 30
0.0
 40
22.10000000000023
100
AcDbArc
 50
88.703604783
 51
90.0
  0
LINE
  5
1CE
330
1F
100
AcDbEntity
  8
0
  6
Continuous
 62
     7
370
    15
100
AcDbLine
 10
1110.4587087843
 20
1356.3706149924
 30
0.0
 11
1110.5776796553
 21
1356.531428324
 31
0.0
  0
LINE
  5
1CF
330
1F
100
AcDbEntity
  8
0
  6
Continuous
 62
     7
370
    15
100
AcDbLine
 10
1113.4053240034
 20
1355.8634986747
 30
0.0
 11
1113.2298777315
 21
1356.2670221198
 31
0.0
  0
ARC
  5
1D0
330
1F
100
AcDbEntity
  8
0
  6
Continuous
 62
     7
370
    15
100
AcDbCircle
 10
1099.2347135903
 20
1350.8360285882
 30
0.0
 40
1.040000000000044
100
AcDbArc
 50
161.1950102926
 51
293.5
  0
LINE
  5
1D1
330
1F
100
AcDbEntity
  8
0
  6
Continuous
 62
     7
370
    15
100
AcDbLine
 10
1099.6494064543
 20
1349.8822917808
 30
0.0
 11
1113.4053240034
 21
1355.8634986747
 31
0.0
  0
ARC
  5
1D2
330
1F
100
AcDbEntity
  8
0
  6
Continuous
 62
     7
370
    15
100
AcDbCircle
 10
1099.2347135903
 20
1350.8360285882
 30
0.0
 40
0.5999999999999619
100
AcDbArc
 50
113.5
 51
293.5
  0
LWPOLYLINE
  5
1D3
330
1F
100
AcDbEntity
  8
0
  6
Continuous
 62
     7
370
    15
100
AcDbPolyline
 90
        6
 70
   128
 43
0.0
 10
1124.0305969927
 20
1340.595172869
 10
1123.5065529558
 20
1342.2079553474
 10
1123.0912575934
 20
1343.4861173499
 10
1122.7904329512
 20
1344.4119562972
 10
1122.6082513544
 20
1344.9726571906
 10
1122.5472460005
 20
1345.1604118217
  0
LWPOLYLINE
  5
1D4
330
1F
100
AcDbEntity
  8
0
  6
Continuous
 62
     7
370
    15
100
AcDbPolyline
 90
        6
 70
   128
 43
0.0
 10
1140.1612231943
 20
1290.950225817
 10
1140.1002178404
 20
1291.1379804481
 10
1139.9180362437
 20
1291.6986813415
 10
1139.6172116015
 20
1292.6245202888
 10
1139.2018864367
 20
1293.9026822913
 10
1138.6778722021
 20
1295.5155243743
  0
LWPOLYLINE
  5
1D5
330
1F
100
AcDbEntity
  8
0
  6
Continuous
 62
     7
370
    15
100
AcDbPolyline
 90
        7
 70
   128
 43
0.0
 10
1134.5436344359
 20
1291.8091287482
 10
1134.5251271937
 20
1291.9429411758
 10
1134.5566282484
 20
1292.1060194839
 10
1134.6391508791
 20
1292.2814955581
 10
1134.7734401438
 20
1292.4711575378
 10
1135.1043949339
 20
1292.8077449668
 10
1135.4707250807
 20
1293.1020727027
  0
LINE
  5
1D6
330
1F
100
AcDbEntity
  8
0
  6
Continuous
 62
     7
370
    15
100
AcDbLine
 10
1134.5928976748
 20
1291.7204370368
 30
0.0
 11
1134.5436344359
 21
1291.8091287482
 31
0.0
  0
LWPOLYLINE
  5
1D7
330
1F
100
AcDbEntity
  8
0
  6
Continuous
 62
     7
370
    15
100
AcDbPolyline
 90
        7
 70
   128
 43
0.0
 10
1135.4707250807
 20
1293.1020727027
 10
1135.8460555289
 20
1293.3640351165
 10
1136.2243066046
 20
1293.5614457
 10
1136.404789469
 20
1293.6128249038
 10
1136.5543077204
 20
1293.6115732062
 10
1136.6601059649
 20
1293.5518493522
 10
1136.6621325228
 20
1293.5483326781
  0
LINE
  5
1D8
330
1F
100
AcDbEntity
  8
0
  6
Continuous
 62
     7
370
    15
100
AcDbLine
 10
1134.9966297362
 20
1290.6680574287
 30
0.0
 11
1134.8121831629
 21
1291.2157645095
 31
0.0
  0
LWPOLYLINE
  5
1D9
330
1F
100
AcDbEntity
  8
0
  6
Continuous
 62
     7
370
    15
100
AcDbPolyline
 90
        4
 70
   128
 43
0.0
 10
1136.0193560335
 20
1291.6770448554
 10
1136.042601845
 20
1291.6447987426
 10
1136.0827157709
 20
1291.6292419303
 10
1136.19319298
 20
1291.6368713248
  0
ARC
  5
1DA
330
1F
100
AcDbEntity
  8
0
  6
Continuous
 62
     7
370
    15
100
AcDbCircle
 10
1136.2852869803
 20
1292.1584202772
 30
0.0
 40
0.3959439211156288
100
AcDbArc
 50
309.9942123315
 51
1.6982099773
  0
LINE
  5
1DB
330
1F
100
AcDbEntity
  8
0
  6
Continuous
 62
     7
370
    15
100
AcDbLine
 10
1136.6099486563
 20
1291.6309108604
 30
0.0
 11
1136.5397641871
 21
1291.8550839294
 31
0.0
  0
LWPOLYLINE
  5
1DC
330
1F
100
AcDbEntity
  8
0
  6
Continuous
 62
     7
370
    15
100
AcDbPolyline
 90
        6
 70
   128
 43
0.0
 10
1136.1963222239
 20
1292.301641928
 10
1136.4784608099
 20
1292.4817075599
 10
1136.6128692839
 20
1292.5379743446
 10
1136.7399463866
 20
1292.5700416434
 10
1136.9412610743
 20
1292.558537947
 10
1136.9922528479
 20
1292.5020327438
  0
ARC
  5
1DD
330
1F
100
AcDbEntity
  8
0
  6
Continuous
 62
     7
370
    15
100
AcDbCircle
 10
1136.7124486014
 20
1291.3695123007
 30
0.0
 40
1.065482087883129
100
AcDbArc
 50
118.9735908254
 51
177.9753595983
  0
LINE
  5
1DE
330
1F
100
AcDbEntity
  8
0
  6
Continuous
 62
     7
370
    15
100
AcDbLine
 10
1135.6914708826
 20
1291.3471927512
 30
0.0
 11
1135.6476316664
 21
1291.4071550239
 31
0.0
  0
LINE
  5
1DF
330
1F
100
AcDbEntity
  8
0
  6
Continuous
 62
     7
370
    15
100
AcDbLine
 10
1135.3025803778
 20
1291.1071052421
 30
0.0
 11
1135.6914708826
 21
1291.3471927512
 31
0.0
  0
LINE
  5
1E0
330
1F
100
AcDbEntity
  8
0
  6
Continuous
 62
     7
370
    15
100
AcDbLine
 10
1134.8121831629
 20
1291.2157645095
 30
0.0
 11
1135.1711521361
 21
1291.4919724334
 31
0.0
  0
LINE
  5
1E1
330
1F
100
AcDbEntity
  8
0
  6
Continuous
 62
     7
370
    15
100
AcDbLine
 10
1135.2654168818
 20
1289.7986044753
 30
0.0
 11
1135.1705262873
 21
1290.0845279563
 31
0.0
  0
LINE
  5
1E2
330
1F
100
AcDbEntity
  8
0
  6
Continuous
 62
     7
370
    15
100
AcDbLine
 10
1135.1705262873
 20
1290.0845279563
 30
0.0
 11
1137.2214923117
 21
1291.6969528068
 31
0.0
  0
LWPOLYLINE
  5
1E3
330
1F
100
AcDbEntity
  8
0
  6
Continuous
 62
     7
370
    15
100
AcDbPolyline
 90
        7
 70
   128
 43
0.0
 10
1130.0427088949
 20
1305.6837191451
 10
1129.997230551
 20
1305.9023489822
 10
1130.0072739336
 20
1306.1331381667
 10
1130.0763259146
 20
1306.350218283
 10
1130.2051017496
 20
1306.5566291679
 10
1130.5450866434
 20
1306.8649043906
 10
1130.9333512995
 20
1307.0890774596
  0
ARC
  5
1E4
330
1F
100
AcDbEntity
  8
0
  6
Continuous
 62
     7
370
    15
100
AcDbCircle
 10
1130.6609027601
 20
1305.8482093472
 30
0.0
 40
0.6397035887739319
100
AcDbArc
 50
194.900132677
 51
242.6029885191
  0
ARC
  5
1E5
330
1F
100
AcDbEntity
  8
0
  6
Continuous
 62
     7
370
    15
100
AcDbCircle
 10
1131.6292459964
 20
1306.2024824331
 30
0.0
 40
1.127084810574827
100
AcDbArc
 50
63.0283538932
 51
128.1286188178
  0
LWPOLYLINE
  5
1E6
330
1F
100
AcDbEntity
  8
0
  6
Continuous
 62
     7
370
    15
100
AcDbPolyline
 90
        7
 70
   128
 43
0.0
 10
1131.0400138113
 20
1304.0329685081
 10
1131.0693690989
 20
1303.9674033988
 10
1131.1131189081
 20
1303.9124479163
 10
1131.1681935999
 20
1303.874241339
 10
1131.234116337
 20
1303.8512339461
 10
1131.3754687521
 20
1303.8517107833
 10
1131.5170893881
 20
1303.9018978942
  0
LINE
  5
1E7
330
1F
100
AcDbEntity
  8
0
  6
Continuous
 62
     7
370
    15
100
AcDbLine
 10
1132.2617302153
 20
1305.5668940414
 30
0.0
 11
1132.6475212786
 21
1305.7709803451
 31
0.0
  0
LINE
  5
1E8
330
1F
100
AcDbEntity
  8
0
  6
Continuous
 62
     7
370
    15
100
AcDbLine
 10
1132.5272987101
 20
1304.7616948951
 30
0.0
 11
1132.2617302153
 21
1305.5668940414
 31
0.0
  0
LINE
  5
1E9
330
1F
100
AcDbEntity
  8
0
  6
Continuous
 62
     7
370
    15
100
AcDbLine
 10
1132.1856150839
 20
1304.8770894874
 30
0.0
 11
1132.5272987101
 21
1304.7616948951
 31
0.0
  0
ARC
  5
1EA
330
1F
100
AcDbEntity
  8
0
  6
Continuous
 62
     7
370
    15
100
AcDbCircle
 10
1131.5874516085
 20
1303.6756256765
 30
0.0
 40
1.342130706026077
100
AcDbArc
 50
63.5330198588
 51
113.3426675839
  0
ARC
  5
1EB
330
1F
100
AcDbEntity
  8
0
  6
Continuous
 62
     7
370
    15
100
AcDbCircle
 10
1131.4929900641
 20
1304.1269522852
 30
0.0
 40
0.8950669469380043
100
AcDbArc
 50
119.2486288179
 51
197.7649068158
  0
ARC
  5
1EC
330
1F
100
AcDbEntity
  8
0
  6
Continuous
 62
     7
370
    15
100
AcDbCircle
 10
1131.2483705526
 20
1304.0001886115
 30
0.0
 40
0.6251354770915731
100
AcDbArc
 50
193.5374309909
 51
249.9126121486
  0
LINE
  5
1ED
330
1F
100
AcDbEntity
  8
0
  6
Continuous
 62
     7
370
    15
100
AcDbLine
 10
1131.4004430983
 20
1301.7148246635
 30
0.0
 11
1131.2006781313
 21
1302.3322691787
 31
0.0
  0
LINE
  5
1EE
330
1F
100
AcDbEntity
  8
0
  6
Continuous
 62
     7
370
    15
100
AcDbLine
 10
1131.2006781313
 20
1302.3322691787
 30
0.0
 11
1133.3732674334
 21
1303.5486807693
 31
0.0
  0
LWPOLYLINE
  5
1EF
330
1F
100
AcDbEntity
  8
0
  6
Continuous
 62
     7
370
    15
100
AcDbPolyline
 90
       10
 70
   128
 43
0.0
 10
1114.2952809546
 20
1345.708714949
 10
1114.2951915476
 20
1345.708714949
 10
1114.4845257017
 20
1345.6826081145
 10
1115.0232026789
 20
1345.6138839591
 10
1115.8301303599
 20
1345.5267419685
 10
1116.7834470484
 20
1345.4486002792
 10
1117.7385518763
 20
1345.3980555404
 10
1118.5499201033
 20
1345.3775515426
 10
1119.0925905916
 20
1345.3756441939
 10
1119.2841003153
 20
1345.3772535194
  0
LWPOLYLINE
  5
1F0
330
1F
100
AcDbEntity
  8
0
  6
Continuous
 62
     7
370
    15
100
AcDbPolyline
 90
       10
 70
   128
 43
0.0
 10
1129.3996641848
 20
1304.1545619834
 10
1129.2493114683
 20
1304.246412741
 10
1128.7437448714
 20
1304.2943348754
 10
1128.2349000189
 20
1304.1207065452
 10
1127.8002033446
 20
1303.7540783752
 10
1127.5061140272
 20
1303.2486905921
 10
1127.3931632254
 20
1302.6841750014
 10
1127.4775336001
 20
1302.1470179427
 10
1127.7453968737
 20
1301.7203678954
 10
1127.9620001528
 20
1301.5867938865
  0
LWPOLYLINE
  5
1F1
330
1F
100
AcDbEntity
  8
0
  6
Continuous
 62
     7
370
    15
100
AcDbPolyline
 90
       12
 70
   128
 43
0.0
 10
1133.883334181
 20
1289.4017567504
 10
1134.154922745
 20
1289.8251881469
 10
1134.2609892103
 20
1290.1953925956
 10
1134.1779897425
 20
1290.4566993583
 10
1133.920587084
 20
1290.5702462066
 10
1133.5308919165
 20
1290.5170788634
 10
1133.071042082
 20
1290.2997603286
 10
1132.6133678171
 20
1289.9506559241
 10
1132.228053591
 20
1289.521621691
 10
1131.9703529093
 20
1289.0811433662
 10
1131.8770120356
 20
1288.6996736396
 10
1131.9598028872
 20
1288.439022528
  0
LWPOLYLINE
  5
1F2
330
1F
100
AcDbEntity
  8
0
  6
Continuous
 62
     7
370
    15
100
AcDbPolyline
 90
        9
 70
   128
 43
0.0
 10
1130.947358391
 20
1297.9742159713
 10
1130.8091054175
 20
1298.0577816833
 10
1130.5739054892
 20
1298.0697622169
 10
1130.3253541205
 20
1297.9792227615
 10
1130.101598284
 20
1297.799753176
 10
1129.9365530226
 20
1297.5587715972
 10
1129.8546264384
 20
1297.2935905326
 10
1129.8676202509
 20
1297.0450391639
 10
1129.9732694838
 20
1296.8512644637
  0
LWPOLYLINE
  5
1F3
330
1F
100
AcDbEntity
  8
0
  6
Continuous
 62
     7
370
    15
100
AcDbPolyline
 90
        9
 70
   128
 43
0.0
 10
1132.4468026373
 20
1293.4971322883
 10
1132.3022017691
 20
1293.5773601401
 10
1132.0861945364
 20
1293.5722937453
 10
1131.8459282133
 20
1293.474363314
 10
1131.6184768889
 20
1293.2981123794
 10
1131.4383516524
 20
1293.070482241
 10
1131.3323447916
 20
1292.8266992438
 10
1131.3157747004
 20
1292.6046719421
 10
1131.3907573435
 20
1292.4386134017
  0
LWPOLYLINE
  5
1F4
330
1F
100
AcDbEntity
  8
0
  6
Continuous
 62
     7
370
    15
100
AcDbPolyline
 90
       12
 70
   128
 43
0.0
 10
1134.2011163447
 20
1287.0392670501
 10
1134.361631653
 20
1287.2236242164
 10
1134.4475815508
 20
1287.36983441
 10
1134.4450781557
 20
1287.4564995635
 10
1134.3543896887
 20
1287.4706258643
 10
1134.1897914622
 20
1287.4095311034
 10
1133.9772711012
 20
1287.2813811172
 10
1133.7498197768
 20
1287.1049513686
 10
1133.5422764036
 20
1286.906885134
 10
1133.3856950018
 20
1286.7179384101
 10
1133.3030531618
 20
1286.5678539146
 10
1133.3062718127
 20
1286.4802946914
  0
LWPOLYLINE
  5
1F5
330
1F
100
AcDbEntity
  8
0
  6
Continuous
 62
     7
370
    15
100
AcDbPolyline
 90
        3
 70
   128
 43
0.0
 10
1134.4261238787
 20
1286.2023582328
 10
1134.6073518011
 20
1286.3620390762
 10
1134.7228656027
 20
1286.4730825294
  0
LWPOLYLINE
  5
1F6
330
1F
100
AcDbEntity
  8
0
  6
Continuous
 62
     7
370
    15
100
AcDbPolyline
 90
       10
 70
   128
 43
0.0
 10
1134.7532937739
 20
1286.5182032455
 10
1134.7542176459
 20
1286.5195145476
 10
1134.6964011404
 20
1286.4946594108
 10
1134.5585952017
 20
1286.4017357696
 10
1134.362644932
 20
1286.2539758552
 10
1134.1391871187
 20
1286.0728373397
 10
1133.9224646303
 20
1285.8856191505
 10
1133.7450812075
 20
1285.7212891448
 10
1133.6332330916
 20
1285.6058945525
 10
1133.6031625483
 20
1285.5578532088
  0
LWPOLYLINE
  5
1F7
330
1F
100
AcDbEntity
  8
0
  6
Continuous
 62
     7
370
    15
100
AcDbPolyline
 90
       31
 70
   128
 43
0.0
 10
1131.8867275927
 20
1284.0558161605
 10
1131.8317125056
 20
1284.2251529563
 10
1131.6672632906
 20
1284.7312559951
 10
1131.3951680872
 20
1285.5686416495
 10
1131.0184369299
 20
1286.7280711997
 10
1130.5412123415
 20
1288.1969084609
 10
1129.9686501238
 20
1289.9590005744
 10
1129.3070981714
 20
1291.9950356353
 10
1128.5637686465
 20
1294.2827811111
 10
1127.7468273852
 20
1296.7970838416
 10
1126.865185282
 20
1299.5104660857
 10
1125.9285280916
 20
1302.3931851257
 10
1124.9471376154
 20
1305.4136504996
 10
1123.9317426893
 20
1308.5387220252
 10
1122.8934595797
 20
1311.7342462409
 10
1121.8436727736
 20
1314.9651756156
 10
1120.7938859675
 20
1318.1960453857
 10
1119.7556028578
 20
1321.3915696014
 10
1118.7401781294
 20
1324.5166411269
 10
1117.7587876532
 20
1327.5371065009
 10
1116.8221304629
 20
1330.4198255408
 10
1115.940518162
 20
1333.133207785
 10
1115.1235470984
 20
1335.6475105155
 10
1114.3802175734
 20
1337.9352559913
 10
1113.718665621
 20
1339.9713506568
 10
1113.1461332056
 20
1341.7334427703
 10
1112.6688788149
 20
1343.2022204269
 10
1112.2921476576
 20
1344.3617095817
 10
1112.0200822565
 20
1345.1990356315
 10
1111.8556330416
 20
1345.7051386703
 10
1111.8006179545
 20
1345.8744754661
  0
LWPOLYLINE
  5
1F8
330
1F
100
AcDbEntity
  8
0
  6
Continuous
 62
     7
370
    15
100
AcDbPolyline
 90
       17
 70
   128
 43
0.0
 10
1129.9075851652
 20
1302.4607767928
 10
1130.0290594313
 20
1303.0180802215
 10
1129.9505601141
 20
1303.5554160941
 10
1129.6766767714
 20
1303.985821234
 10
1129.2533645842
 20
1304.2442073692
 10
1128.7473509524
 20
1304.2918314803
 10
1128.2384464953
 20
1304.1177263129
 10
1127.8037796232
 20
1303.7503828872
 10
1127.5100181315
 20
1303.2441606391
 10
1127.39784219
 20
1302.6794066299
 10
1127.4832258436
 20
1302.1418919433
 10
1127.7519831869
 20
1301.7157783378
 10
1128.1638512823
 20
1301.4631142486
 10
1128.6590466711
 20
1301.4232387412
 10
1129.1646132681
 20
1301.6000261176
 10
1129.6044061396
 20
1301.9682040084
 10
1129.9075851652
 20
1302.4607767928
  0
LWPOLYLINE
  5
1F9
330
1F
100
AcDbEntity
  8
0
  6
Continuous
 62
     7
370
    15
100
AcDbPolyline
 90
       17
 70
   128
 43
0.0
 10
1124.5974371645
 20
1338.8505449165
 10
1125.2401242468
 20
1336.8725647796
 10
1125.9608338091
 20
1334.6544971336
 10
1126.7503271315
 20
1332.2246541846
 10
1127.5985906336
 20
1329.6139707435
 10
1128.4947464678
 20
1326.8558850158
 10
1129.4274101469
 20
1323.9855041373
 10
1130.3846309397
 20
1321.03942536
 10
1131.3542196963
 20
1318.0553188193
 10
1132.3238382551
 20
1315.0712122787
 10
1133.2810590479
 20
1312.1251335014
 10
1134.2136929247
 20
1309.2547526229
 10
1135.1098785612
 20
1306.4966668952
 10
1135.958112261
 20
1303.8860430587
 10
1136.7476353857
 20
1301.4561405051
 10
1137.4683151457
 20
1299.2380728591
 10
1138.111002228
 20
1297.2600927222
  0
LWPOLYLINE
  5
1FA
330
1F
100
AcDbEntity
  8
0
  6
Continuous
 62
     7
370
    15
100
AcDbPolyline
 90
        7
 70
   128
 43
0.0
 10
1130.0473282549
 20
1305.6815733779
 10
1130.0018201086
 20
1305.9003224242
 10
1130.011833689
 20
1306.1311116088
 10
1130.0808856699
 20
1306.3481917251
 10
1130.2096317026
 20
1306.5546622146
 10
1130.5496165964
 20
1306.862997042
 10
1130.9378514502
 20
1307.087170111
  0
LWPOLYLINE
  5
1FB
330
1F
100
AcDbEntity
  8
0
  6
Continuous
 62
     7
370
    15
100
AcDbPolyline
 90
        7
 70
   128
 43
0.0
 10
1130.9378514502
 20
1307.087170111
 10
1131.3418517325
 20
1307.2574009765
 10
1131.759739897
 20
1307.3287477363
 10
1131.9747040484
 20
1307.2948326934
 10
1132.1449945185
 20
1307.2049488891
 10
1132.2810421202
 20
1307.0474734176
 10
1132.3691675875
 20
1306.8508972991
  0
LWPOLYLINE
  5
1FC
330
1F
100
AcDbEntity
  8
0
  6
Continuous
 62
     7
370
    15
100
AcDbPolyline
 90
        7
 70
   128
 43
0.0
 10
1132.3691675875
 20
1306.8508972991
 10
1132.4150929663
 20
1306.6355457175
 10
1132.4073145602
 20
1306.4086904395
 10
1132.3388288233
 20
1306.1959614623
 10
1132.2102318022
 20
1305.9906234611
 10
1131.8732867453
 20
1305.6844344009
 10
1131.4888665888
 20
1305.4630031455
  0
LWPOLYLINE
  5
1FD
330
1F
100
AcDbEntity
  8
0
  6
Continuous
 62
     7
370
    15
100
AcDbPolyline
 90
        3
 70
   128
 43
0.0
 10
1131.4888665888
 20
1305.4630031455
 10
1131.0214171622
 20
1305.2712550033
 10
1130.5430898878
 20
1305.2204718459
  0
ARC
  5
1FE
330
1F
100
AcDbEntity
  8
0
  6
Continuous
 62
     7
370
    15
100
AcDbCircle
 10
1130.6708545347
 20
1305.8549046105
 30
0.0
 40
0.6471697905316117
100
AcDbArc
 50
195.535156728
 51
258.613837014
  0
ARC
  5
1FF
330
1F
100
AcDbEntity
  8
0
  6
Continuous
 62
     7
370
    15
100
AcDbCircle
 10
1131.7332402575
 20
1306.57860215
 30
0.0
 40
0.2567813080479491
100
AcDbArc
 50
17.1919522254
 51
87.9635296353
  0
LWPOLYLINE
  5
200
330
1F
100
AcDbEntity
  8
0
  6
Continuous
 62
     7
370
    15
100
AcDbPolyline
 90
        3
 70
   128
 43
0.0
 10
1131.742365143
 20
1306.8352212775
 10
1131.4107845042
 20
1306.782292353
 10
1131.0896048758
 20
1306.6457977164
  0
LWPOLYLINE
  5
201
330
1F
100
AcDbEntity
  8
0
  6
Continuous
 62
     7
370
    15
100
AcDbPolyline
 90
        7
 70
   128
 43
0.0
 10
1131.0896048758
 20
1306.6457977164
 10
1130.6403944704
 20
1306.3677420486
 10
1130.5437455389
 20
1306.2720169891
 10
1130.4694781515
 20
1306.1552514899
 10
1130.4299602721
 20
1306.0231079925
 10
1130.4299602721
 20
1305.9555759299
 10
1130.4438779566
 20
1305.8915605415
  0
LWPOLYLINE
  5
202
330
1F
100
AcDbEntity
  8
0
  6
Continuous
 62
     7
370
    15
100
AcDbPolyline
 90
        7
 70
   128
 43
0.0
 10
1130.4438779566
 20
1305.8915605415
 10
1130.5076549265
 20
1305.7797422279
 10
1130.5557260725
 20
1305.7386746276
 10
1130.6108007643
 20
1305.7114949096
 10
1130.7327220652
 20
1305.6959977019
 10
1130.8625409815
 20
1305.7126870025
 10
1131.358541033
 20
1305.9083094466
  0
LWPOLYLINE
  5
203
330
1F
100
AcDbEntity
  8
0
  6
Continuous
 62
     7
370
    15
100
AcDbPolyline
 90
        6
 70
   128
 43
0.0
 10
1131.358541033
 20
1305.9083094466
 10
1131.796903393
 20
1306.1834444869
 10
1131.8893203947
 20
1306.2799444068
 10
1131.9589982245
 20
1306.3962330688
 10
1131.9934795115
 20
1306.526230799
 10
1131.978548548
 20
1306.6544999946
  0
LWPOLYLINE
  5
204
330
1F
100
AcDbEntity
  8
0
  6
Continuous
 62
     7
370
    15
100
AcDbPolyline
 90
        3
 70
   128
 43
0.0
 10
1130.0473282549
 20
1305.6815733779
 10
1130.0450334761
 20
1305.6826462615
 10
1130.0427088949
 20
1305.6837191451
  0
ARC
  5
205
330
1F
100
AcDbEntity
  8
0
  6
Continuous
 62
     7
370
    15
100
AcDbCircle
 10
1131.7286881738
 20
1306.5806275777
 30
0.0
 40
0.2567811086606587
100
AcDbArc
 50
17.2200754238
 51
87.9718948936
  0
LWPOLYLINE
  5
206
330
1F
100
AcDbEntity
  8
0
  6
Continuous
 62
     7
370
    15
100
AcDbPolyline
 90
        6
 70
   128
 43
0.0
 10
1131.353921673
 20
1305.9105148185
 10
1131.7922542307
 20
1306.1856498588
 10
1131.8847010348
 20
1306.2821497787
 10
1131.9543788645
 20
1306.3984384406
 10
1131.9888601515
 20
1306.5284361709
 10
1131.9739589903
 20
1306.6566457618
  0
LWPOLYLINE
  5
207
330
1F
100
AcDbEntity
  8
0
  6
Continuous
 62
     7
370
    15
100
AcDbPolyline
 90
        7
 70
   128
 43
0.0
 10
1130.4392585966
 20
1305.8937063087
 10
1130.5030355665
 20
1305.7819475997
 10
1130.5511067126
 20
1305.7408799995
 10
1130.6061814043
 20
1305.7137002814
 10
1130.7281027052
 20
1305.6982030738
 10
1130.8578918192
 20
1305.714951979
 10
1131.353921673
 20
1305.9105148185
  0
LINE
  5
208
330
1F
100
AcDbEntity
  8
0
  6
Continuous
 62
     7
370
    15
100
AcDbLine
 10
1131.9739589903
 20
1306.6566457618
 30
0.0
 11
1131.978548548
 21
1306.6544999946
 31
0.0
  0
LINE
  5
209
330
1F
100
AcDbEntity
  8
0
  6
Continuous
 62
     7
370
    15
100
AcDbLine
 10
1131.5219173643
 20
1303.8990964759
 30
0.0
 11
1131.6528091643
 21
1303.4835328925
 31
0.0
  0
ARC
  5
20A
330
1F
100
AcDbEntity
  8
0
  6
Continuous
 62
     7
370
    15
100
AcDbCircle
 10
1131.2825267891
 20
1304.0330059109
 30
0.0
 40
0.6625931143828605
100
AcDbArc
 50
195.9277017529
 51
303.975492868
  0
ARC
  5
20B
330
1F
100
AcDbEntity
  8
0
  6
Continuous
 62
     7
370
    15
100
AcDbCircle
 10
1131.4978212363
 20
1304.1244025598
 30
0.0
 40
0.8951671817500266
100
AcDbArc
 50
119.2540156968
 51
197.7717557468
  0
ARC
  5
20C
330
1F
100
AcDbEntity
  8
0
  6
Continuous
 62
     7
370
    15
100
AcDbCircle
 10
1131.5920190353
 20
1303.6737498435
 30
0.0
 40
1.341498511130553
100
AcDbArc
 50
63.5099874293
 51
113.3477452719
  0
LINE
  5
20D
330
1F
100
AcDbEntity
  8
0
  6
Continuous
 62
     7
370
    15
100
AcDbLine
 10
1132.1903834555
 20
1304.8744072784
 30
0.0
 11
1132.532096884
 21
1304.7590126861
 31
0.0
  0
LINE
  5
20E
330
1F
100
AcDbEntity
  8
0
  6
Continuous
 62
     7
370
    15
100
AcDbLine
 10
1132.532096884
 20
1304.7590126861
 30
0.0
 11
1132.2664389822
 21
1305.5644502509
 31
0.0
  0
LINE
  5
20F
330
1F
100
AcDbEntity
  8
0
  6
Continuous
 62
     7
370
    15
100
AcDbLine
 10
1132.2664389822
 20
1305.5644502509
 30
0.0
 11
1132.6522300455
 21
1305.7685365546
 31
0.0
  0
LINE
  5
210
330
1F
100
AcDbEntity
  8
0
  6
Continuous
 62
     7
370
    15
100
AcDbLine
 10
1132.6522300455
 20
1305.7685365546
 30
0.0
 11
1133.1569323752
 21
1304.2086830009
 31
0.0
  0
LINE
  5
211
330
1F
100
AcDbEntity
  8
0
  6
Continuous
 62
     7
370
    15
100
AcDbLine
 10
1133.1569323752
 20
1304.2086830009
 30
0.0
 11
1132.9570481989
 21
1304.1028251517
 31
0.0
  0
LINE
  5
212
330
1F
100
AcDbEntity
  8
0
  6
Continuous
 62
     7
370
    15
100
AcDbLine
 10
1132.9570481989
 20
1304.1028251517
 30
0.0
 11
1132.0465276453
 21
1304.4307103027
 31
0.0
  0
ARC
  5
213
330
1F
100
AcDbEntity
  8
0
  6
Continuous
 62
     7
370
    15
100
AcDbCircle
 10
1131.5719223131
 20
1303.5765525198
 30
0.0
 40
0.9771569676339951
100
AcDbArc
 50
60.9416423639
 51
110.1111499128
  0
ARC
  5
214
330
1F
100
AcDbEntity
  8
0
  6
Continuous
 62
     7
370
    15
100
AcDbCircle
 10
1131.411690554
 20
1304.1504141767
 30
0.0
 40
0.3860448047102189
100
AcDbArc
 50
117.0825840779
 51
198.1301159272
  0
LWPOLYLINE
  5
215
330
1F
100
AcDbEntity
  8
0
  6
Continuous
 62
     7
370
    15
100
AcDbPolyline
 90
        7
 70
   128
 43
0.0
 10
1131.0448119852
 20
1304.0302862991
 10
1131.0741374705
 20
1303.9646615852
 10
1131.117917082
 20
1303.9097061027
 10
1131.1729917738
 20
1303.8714399207
 10
1131.2389145109
 20
1303.8484325278
 10
1131.380266926
 20
1303.848909365
 10
1131.5219173643
 20
1303.8990964759
  0
LINE
  5
216
330
1F
100
AcDbEntity
  8
0
  6
Continuous
 62
     7
370
    15
100
AcDbLine
 10
1131.0603687975
 20
1304.9054016936
 30
0.0
 11
1131.0556600306
 21
1304.9079050887
 31
0.0
  0
LWPOLYLINE
  5
217
330
1F
100
AcDbEntity
  8
0
  6
Continuous
 62
     7
370
    15
100
AcDbPolyline
 90
        3
 70
   128
 43
0.0
 10
1130.6453714583
 20
1303.8511743415
 10
1130.6429872725
 20
1303.8525452483
 10
1130.6406030867
 20
1303.8538565505
  0
LWPOLYLINE
  5
218
330
1F
100
AcDbEntity
  8
0
  6
Continuous
 62
     7
370
    15
100
AcDbPolyline
 90
        3
 70
   128
 43
0.0
 10
1131.5219173643
 20
1303.8990964759
 10
1131.5195033762
 20
1303.9005269874
 10
1131.5170893881
 20
1303.9018978942
  0
LINE
  5
219
330
1F
100
AcDbEntity
  8
0
  6
Continuous
 62
     7
370
    15
100
AcDbLine
 10
1132.2664389822
 20
1305.5644502509
 30
0.0
 11
1132.2617302153
 21
1305.5668940414
 31
0.0
  0
LINE
  5
21A
330
1F
100
AcDbEntity
  8
0
  6
Continuous
 62
     7
370
    15
100
AcDbLine
 10
1132.532096884
 20
1304.7590126861
 30
0.0
 11
1132.5272987101
 21
1304.7616948951
 31
0.0
  0
LINE
  5
21B
330
1F
100
AcDbEntity
  8
0
  6
Continuous
 62
     7
370
    15
100
AcDbLine
 10
1132.6522300455
 20
1305.7685365546
 30
0.0
 11
1132.6475212786
 21
1305.7709803451
 31
0.0
  0
LINE
  5
21C
330
1F
100
AcDbEntity
  8
0
  6
Continuous
 62
     7
370
    15
100
AcDbLine
 10
1133.3781848166
 20
1303.5455217231
 30
0.0
 11
1133.3732674334
 21
1303.5486807693
 31
0.0
  0
LINE
  5
21D
330
1F
100
AcDbEntity
  8
0
  6
Continuous
 62
     7
370
    15
100
AcDbLine
 10
1131.2056253168
 20
1302.3291101325
 30
0.0
 11
1133.3781848166
 21
1303.5455217231
 31
0.0
  0
LINE
  5
21E
330
1F
100
AcDbEntity
  8
0
  6
Continuous
 62
     7
370
    15
100
AcDbLine
 10
1131.2056253168
 20
1302.3291101325
 30
0.0
 11
1131.2006781313
 21
1302.3322691787
 31
0.0
  0
LINE
  5
21F
330
1F
100
AcDbEntity
  8
0
  6
Continuous
 62
     7
370
    15
100
AcDbLine
 10
1131.4054200861
 20
1301.7114868034
 30
0.0
 11
1131.2056253168
 21
1302.3291101325
 31
0.0
  0
LINE
  5
220
330
1F
100
AcDbEntity
  8
0
  6
Continuous
 62
     7
370
    15
100
AcDbLine
 10
1133.3781848166
 20
1303.5455217231
 30
0.0
 11
1133.5117290232
 21
1303.1350245345
 31
0.0
  0
LINE
  5
221
330
1F
100
AcDbEntity
  8
0
  6
Continuous
 62
     7
370
    15
100
AcDbLine
 10
1133.5117290232
 20
1303.1350245345
 30
0.0
 11
1131.7276725981
 21
1302.1361102927
 31
0.0
  0
LINE
  5
222
330
1F
100
AcDbEntity
  8
0
  6
Continuous
 62
     7
370
    15
100
AcDbLine
 10
1131.7276725981
 20
1302.1361102927
 30
0.0
 11
1131.8689356062
 21
1301.6916384566
 31
0.0
  0
LINE
  5
223
330
1F
100
AcDbEntity
  8
0
  6
Continuous
 62
     7
370
    15
100
AcDbLine
 10
1131.8689356062
 20
1301.6916384566
 30
0.0
 11
1131.4054200861
 21
1301.7114868034
 31
0.0
  0
LINE
  5
224
330
1F
100
AcDbEntity
  8
0
  6
Continuous
 62
     7
370
    15
100
AcDbLine
 10
1131.4054200861
 20
1301.7114868034
 30
0.0
 11
1131.4004430983
 21
1301.7148246635
 31
0.0
  0
LWPOLYLINE
  5
225
330
1F
100
AcDbEntity
  8
0
  6
Continuous
 62
     7
370
    15
100
AcDbPolyline
 90
       17
 70
   128
 43
0.0
 10
1131.0327420447
 20
1297.2368469108
 10
1131.1178872797
 20
1297.4994649757
 10
1131.1064133856
 20
1297.7468242515
 10
1130.9997508738
 20
1297.9414930213
 10
1130.8143804285
 20
1298.0536093581
 10
1130.5791506979
 20
1298.0655898917
 10
1130.3305993292
 20
1297.975110041
 10
1130.106873295
 20
1297.7955808509
 10
1129.9417982313
 20
1297.5545992721
 10
1129.8599014494
 20
1297.2893586028
 10
1129.8729250643
 20
1297.0407476295
 10
1129.9785742972
 20
1296.8469133247
 10
1130.1609645102
 20
1296.7372407783
 10
1130.39297559
 20
1296.7278232444
 10
1130.6399772379
 20
1296.8196143973
 10
1130.8646867487
 20
1296.9983091224
 10
1131.0327420447
 20
1297.2368469108
  0
LWPOLYLINE
  5
226
330
1F
100
AcDbEntity
  8
0
  6
Continuous
 62
     7
370
    15
100
AcDbPolyline
 90
       17
 70
   128
 43
0.0
 10
1132.4132750246
 20
1292.8571572173
 10
1132.5228879664
 20
1293.0974235404
 10
1132.5416038248
 20
1293.3173646796
 10
1132.4660847399
 20
1293.4840192664
 10
1132.307923815
 20
1293.5718169082
 10
1132.09188678
 20
1293.5667505134
 10
1131.8516204569
 20
1293.4688796867
 10
1131.6241691324
 20
1293.2926287521
 10
1131.4440438959
 20
1293.0649986137
 10
1131.3380370352
 20
1292.8211560119
 10
1131.3214967463
 20
1292.5990691054
 10
1131.3964793894
 20
1292.4330105651
 10
1131.5517196867
 20
1292.3480739463
 10
1131.7641506407
 20
1292.3566570151
 10
1132.0022413943
 20
1292.4566140044
 10
1132.2301993582
 20
1292.6323881019
 10
1132.4132750246
 20
1292.8571572173
  0
ARC
  5
227
330
1F
100
AcDbEntity
  8
0
  6
Continuous
 62
     7
370
    15
100
AcDbCircle
 10
1123.6240066858
 20
1339.4561855942
 30
0.0
 40
1.195641620704552
100
AcDbArc
 50
16.7498556802
 51
69.0466255783
  0
ARC
  5
228
330
1F
100
AcDbEntity
  8
0
  6
Continuous
 62
     7
370
    15
100
AcDbCircle
 10
1124.0639400157
 20
1340.6053611244
 30
0.0
 40
0.0348648495404131
100
AcDbArc
 50
196.9909953285
 51
249.2326286584
  0
ARC
  5
229
330
1F
100
AcDbEntity
  8
0
  6
Continuous
 62
     7
370
    15
100
AcDbCircle
 10
1137.6797781678
 20
1296.1978553128
 30
0.0
 40
1.195364756528959
100
AcDbArc
 50
326.9491051267
 51
19.2574927188
  0
ARC
  5
22A
330
1F
100
AcDbEntity
  8
0
  6
Continuous
 62
     7
370
    15
100
AcDbCircle
 10
1138.7096671506
 20
1295.526945541
 30
0.0
 40
0.033784046422603
100
AcDbArc
 50
145.8251125088
 51
199.7589605066
  0
LWPOLYLINE
  5
22B
330
1F
100
AcDbEntity
  8
0
  6
Continuous
 62
     7
370
    15
100
AcDbPolyline
 90
        7
 70
   128
 43
0.0
 10
1134.5496247027
 20
1291.8028106559
 10
1134.5310578558
 20
1291.9366230834
 10
1134.5625887129
 20
1292.0997609962
 10
1134.6450815413
 20
1292.2752370704
 10
1134.779370806
 20
1292.4649586547
 10
1135.1103255961
 20
1292.8014864791
 10
1135.4766557429
 20
1293.0958738197
  0
LWPOLYLINE
  5
22C
330
1F
100
AcDbEntity
  8
0
  6
Continuous
 62
     7
370
    15
100
AcDbPolyline
 90
        7
 70
   128
 43
0.0
 10
1135.4766557429
 20
1293.0958738197
 10
1135.851986191
 20
1293.3578362334
 10
1136.2302372668
 20
1293.5551872123
 10
1136.4107201311
 20
1293.6065664161
 10
1136.5602383826
 20
1293.6053147185
 10
1136.6660664294
 20
1293.5455908645
 10
1136.7249558184
 20
1293.4424152244
  0
LWPOLYLINE
  5
22D
330
1F
100
AcDbEntity
  8
0
  6
Continuous
 62
     7
370
    15
100
AcDbPolyline
 90
        7
 70
   128
 43
0.0
 10
1136.7249558184
 20
1293.4424152244
 10
1136.7438802931
 20
1293.3121194709
 10
1136.7132137034
 20
1293.1553592551
 10
1136.6305122587
 20
1292.9866781104
 10
1136.495567343
 20
1292.8021421302
 10
1136.1658046458
 20
1292.4732437003
 10
1135.8028719637
 20
1292.1836247314
  0
LWPOLYLINE
  5
22E
330
1F
100
AcDbEntity
  8
0
  6
Continuous
 62
     7
370
    15
100
AcDbPolyline
 90
        3
 70
   128
 43
0.0
 10
1135.8028719637
 20
1292.1836247314
 10
1135.3697846148
 20
1291.8825616706
 10
1134.9417338583
 20
1291.6715612281
  0
LWPOLYLINE
  5
22F
330
1F
100
AcDbEntity
  8
0
  6
Continuous
 62
     7
370
    15
100
AcDbPolyline
 90
        6
 70
   128
 43
0.0
 10
1134.9417338583
 20
1291.6715612281
 10
1134.8003814432
 20
1291.6459908355
 10
1134.6829304907
 20
1291.6593422759
 10
1134.5988581393
 20
1291.7139997352
 10
1134.5702777121
 20
1291.7549481261
 10
1134.5496247027
 20
1291.8028106559
  0
LWPOLYLINE
  5
230
330
1F
100
AcDbEntity
  8
0
  6
Continuous
 62
     7
370
    15
100
AcDbPolyline
 90
        5
 70
   128
 43
0.0
 10
1136.3587746832
 20
1293.1668629516
 10
1136.3346049998
 20
1293.2044138778
 10
1136.2913320277
 20
1293.2231297362
 10
1136.2336645338
 20
1293.2227125037
 10
1136.1674139712
 20
1293.2063212264
  0
LWPOLYLINE
  5
231
330
1F
100
AcDbEntity
  8
0
  6
Continuous
 62
     7
370
    15
100
AcDbPolyline
 90
        3
 70
   128
 43
0.0
 10
1136.1674139712
 20
1293.2063212264
 10
1135.8680496428
 20
1293.0508127082
 10
1135.5696985934
 20
1292.841600405
  0
LWPOLYLINE
  5
232
330
1F
100
AcDbEntity
  8
0
  6
Continuous
 62
     7
370
    15
100
AcDbPolyline
 90
        7
 70
   128
 43
0.0
 10
1135.5696985934
 20
1292.841600405
 10
1135.1442406389
 20
1292.488562094
 10
1135.0492308352
 20
1292.3877706397
 10
1134.9717745993
 20
1292.2807206977
 10
1134.923673651
 20
1292.175637709
 10
1134.9168787215
 20
1292.1292652953
 10
1134.9226901743
 20
1292.0903434623
  0
LWPOLYLINE
  5
233
330
1F
100
AcDbEntity
  8
0
  6
Continuous
 62
     7
370
    15
100
AcDbPolyline
 90
        6
 70
   128
 43
0.0
 10
1134.9226901743
 20
1292.0903434623
 10
1134.9681685183
 20
1292.0371165145
 10
1135.0523898813
 20
1292.0281162131
 10
1135.1458797667
 20
1292.0561900008
 10
1135.2751324389
 20
1292.1203245986
 10
1135.7339987967
 20
1292.4337258208
  0
LWPOLYLINE
  5
234
330
1F
100
AcDbEntity
  8
0
  6
Continuous
 62
     7
370
    15
100
AcDbPolyline
 90
        6
 70
   128
 43
0.0
 10
1135.7339987967
 20
1292.4337258208
 10
1136.1503670428
 20
1292.7800884116
 10
1136.242277405
 20
1292.8791513312
 10
1136.3157997343
 20
1292.9835786689
 10
1136.3594601366
 20
1293.0847277511
 10
1136.3587746832
 20
1293.1668629516
  0
LWPOLYLINE
  5
235
330
1F
100
AcDbEntity
  8
0
  6
Continuous
 62
     7
370
    15
100
AcDbPolyline
 90
        3
 70
   128
 43
0.0
 10
1134.5496247027
 20
1291.8028106559
 10
1134.5466146681
 20
1291.8059697021
 10
1134.5436344359
 20
1291.8091287482
  0
LWPOLYLINE
  5
236
330
1F
100
AcDbEntity
  8
0
  6
Continuous
 62
     7
370
    15
100
AcDbPolyline
 90
        6
 70
   128
 43
0.0
 10
1135.7280085299
 20
1292.4401631225
 10
1136.144376776
 20
1292.7865257133
 10
1136.2362871382
 20
1292.8855290282
 10
1136.3098094675
 20
1292.9899563659
 10
1136.3534996722
 20
1293.0911054481
 10
1136.3528142187
 20
1293.1731810439
  0
LWPOLYLINE
  5
237
330
1F
100
AcDbEntity
  8
0
  6
Continuous
 62
     7
370
    15
100
AcDbPolyline
 90
        6
 70
   128
 43
0.0
 10
1134.9166999075
 20
1292.0967211593
 10
1134.9621782515
 20
1292.0434942115
 10
1135.0463996145
 20
1292.0344939101
 10
1135.1398894999
 20
1292.0625676978
 10
1135.2691421721
 20
1292.1267022956
 10
1135.7280085299
 20
1292.4401631225
  0
LWPOLYLINE
  5
238
330
1F
100
AcDbEntity
  8
0
  6
Continuous
 62
     7
370
    15
100
AcDbPolyline
 90
       17
 70
   128
 43
0.0
 10
1133.8894436571
 20
1289.3949618209
 10
1134.1604361746
 20
1289.8172011245
 10
1134.2670688841
 20
1290.1887168754
 10
1134.1838309977
 20
1290.4503216613
 10
1133.9261601183
 20
1290.5637493003
 10
1133.5360775206
 20
1290.5103435386
 10
1133.0759892676
 20
1290.2926673759
 10
1132.6181361887
 20
1289.9430861343
 10
1132.2328219626
 20
1289.5134558547
 10
1131.975687525
 20
1289.0729775298
 10
1131.8830321047
 20
1288.691388594
 10
1131.9670150492
 20
1288.4306182731
 10
1132.2136888716
 20
1288.3285751212
 10
1132.5888405058
 20
1288.4002199042
 10
1133.0384681437
 20
1288.6302938331
 10
1133.4972152922
 20
1288.9827957023
 10
1133.8894436571
 20
1289.3949618209
  0
ARC
  5
239
330
1F
100
AcDbEntity
  8
0
  6
Continuous
 62
     7
370
    15
100
AcDbCircle
 10
1126.1689540065
 20
1371.5086179787
 30
0.0
 40
26.58670166863231
100
AcDbArc
 50
263.2505790852
 51
263.7545850803
  0
LINE
  5
23A
330
1F
100
AcDbEntity
  8
0
  6
Continuous
 62
     7
370
    15
100
AcDbLine
 10
1123.2766578409
 20
1345.0797071326
 30
0.0
 11
1142.2545085165
 21
1342.9591526855
 31
0.0
  0
LINE
  5
23B
330
1F
100
AcDbEntity
  8
0
  6
Continuous
 62
     7
370
    15
100
AcDbLine
 10
1142.2545085165
 20
1342.9591526855
 30
0.0
 11
1143.7243590567
 21
1342.7972068656
 31
0.0
  0
LWPOLYLINE
  5
23C
330
1F
100
AcDbEntity
  8
0
  6
Continuous
 62
     7
370
    15
100
AcDbPolyline
 90
        3
 70
   128
 43
0.0
 10
1134.9166999075
 20
1292.0967211593
 10
1134.9197099421
 20
1292.0935621131
 10
1134.9226901743
 20
1292.0903434623
  0
LINE
  5
23D
330
1F
100
AcDbEntity
  8
0
  6
Continuous
 62
     7
370
    15
100
AcDbLine
 10
1136.3528142187
 20
1293.1731810439
 30
0.0
 11
1136.3587746832
 21
1293.1668629516
 31
0.0
  0
LINE
  5
23E
330
1F
100
AcDbEntity
  8
0
  6
Continuous
 62
     7
370
    15
100
AcDbLine
 10
1135.1771722052
 20
1291.4854755271
 30
0.0
 11
1135.1711521361
 21
1291.4919724334
 31
0.0
  0
LINE
  5
23F
330
1F
100
AcDbEntity
  8
0
  6
Continuous
 62
     7
370
    15
100
AcDbLine
 10
1134.818203232
 20
1291.2092079986
 30
0.0
 11
1135.1771722052
 21
1291.4854755271
 31
0.0
  0
LINE
  5
240
330
1F
100
AcDbEntity
  8
0
  6
Continuous
 62
     7
370
    15
100
AcDbLine
 10
1134.818203232
 20
1291.2092079986
 30
0.0
 11
1134.8121831629
 21
1291.2157645095
 31
0.0
  0
LINE
  5
241
330
1F
100
AcDbEntity
  8
0
  6
Continuous
 62
     7
370
    15
100
AcDbLine
 10
1135.0027392123
 20
1290.6613817084
 30
0.0
 11
1134.818203232
 21
1291.2092079986
 31
0.0
  0
LINE
  5
242
330
1F
100
AcDbEntity
  8
0
  6
Continuous
 62
     7
370
    15
100
AcDbLine
 10
1135.1771722052
 20
1291.4854755271
 30
0.0
 11
1135.3086600516
 21
1291.1004295219
 31
0.0
  0
LINE
  5
243
330
1F
100
AcDbEntity
  8
0
  6
Continuous
 62
     7
370
    15
100
AcDbLine
 10
1135.3086600516
 20
1291.1004295219
 30
0.0
 11
1135.6975505564
 21
1291.340517031
 31
0.0
  0
LINE
  5
244
330
1F
100
AcDbEntity
  8
0
  6
Continuous
 62
     7
370
    15
100
AcDbLine
 10
1135.6975505564
 20
1291.340517031
 30
0.0
 11
1135.6536815378
 21
1291.4004793037
 31
0.0
  0
ARC
  5
245
330
1F
100
AcDbEntity
  8
0
  6
Continuous
 62
     7
370
    15
100
AcDbCircle
 10
1136.7186604638
 20
1291.3629235524
 30
0.0
 40
1.065640909161599
100
AcDbArc
 50
118.9788184277
 51
177.9803405622
  0
LWPOLYLINE
  5
246
330
1F
100
AcDbEntity
  8
0
  6
Continuous
 62
     7
370
    15
100
AcDbPolyline
 90
        6
 70
   128
 43
0.0
 10
1136.2023720953
 20
1292.2951450217
 10
1136.4845106814
 20
1292.475151049
 10
1136.618889353
 20
1292.5314178336
 10
1136.745996258
 20
1292.5634851325
 10
1136.9473109457
 20
1292.5519218314
 10
1137.0507846091
 20
1292.4372424949
  0
ARC
  5
247
330
1F
100
AcDbEntity
  8
0
  6
Continuous
 62
     7
370
    15
100
AcDbCircle
 10
1136.0862592606
 20
1292.4301387386
 30
0.0
 40
0.9645515077627783
100
AcDbArc
 50
303.3169225167
 51
0.4219773957
  0
LINE
  5
248
330
1F
100
AcDbEntity
  8
0
  6
Continuous
 62
     7
370
    15
100
AcDbLine
 10
1136.6160581324
 20
1291.6241159309
 30
0.0
 11
1136.5458736632
 21
1291.8483486045
 31
0.0
  0
ARC
  5
249
330
1F
100
AcDbEntity
  8
0
  6
Continuous
 62
     7
370
    15
100
AcDbCircle
 10
1136.2911253365
 20
1292.1517712849
 30
0.0
 40
0.3961843420490375
100
AcDbArc
 50
310.0162263318
 51
1.6933120777
  0
LWPOLYLINE
  5
24A
330
1F
100
AcDbEntity
  8
0
  6
Continuous
 62
     7
370
    15
100
AcDbPolyline
 90
        7
 70
   128
 43
0.0
 10
1136.6871366713
 20
1292.1634783614
 10
1136.6388271067
 20
1292.2144403327
 10
1136.5971336577
 20
1292.2212948669
 10
1136.5449199888
 20
1292.2156324256
 10
1136.4870438788
 20
1292.1983470786
 10
1136.4238629553
 20
1292.169260012
 10
1136.294967911
 20
1292.0845618117
  0
LWPOLYLINE
  5
24B
330
1F
100
AcDbEntity
  8
0
  6
Continuous
 62
     7
370
    15
100
AcDbPolyline
 90
        7
 70
   128
 43
0.0
 10
1136.294967911
 20
1292.0845618117
 10
1136.1790368769
 20
1291.9825782645
 10
1136.0852489683
 20
1291.8680777419
 10
1136.0510955069
 20
1291.8099632133
 10
1136.0288629744
 20
1291.7567362655
 10
1136.0203097079
 20
1291.7092313636
 10
1136.0254357073
 20
1291.6703691352
  0
LWPOLYLINE
  5
24C
330
1F
100
AcDbEntity
  8
0
  6
Continuous
 62
     7
370
    15
100
AcDbPolyline
 90
        4
 70
   128
 43
0.0
 10
1136.0254357073
 20
1291.6703691352
 10
1136.0486815188
 20
1291.6381230224
 10
1136.0887656424
 20
1291.6225662101
 10
1136.1992726538
 20
1291.6301956046
  0
LINE
  5
24D
330
1F
100
AcDbEntity
  8
0
  6
Continuous
 62
     7
370
    15
100
AcDbLine
 10
1136.1992726538
 20
1291.6301956046
 30
0.0
 11
1136.1839542601
 21
1291.4001812804
 31
0.0
  0
LINE
  5
24E
330
1F
100
AcDbEntity
  8
0
  6
Continuous
 62
     7
370
    15
100
AcDbLine
 10
1136.1839542601
 20
1291.4001812804
 30
0.0
 11
1135.0027392123
 21
1290.6613817084
 31
0.0
  0
LINE
  5
24F
330
1F
100
AcDbEntity
  8
0
  6
Continuous
 62
     7
370
    15
100
AcDbLine
 10
1135.0027392123
 20
1290.6613817084
 30
0.0
 11
1134.9966297362
 21
1290.6680574287
 31
0.0
  0
LWPOLYLINE
  5
250
330
1F
100
AcDbEntity
  8
0
  6
Continuous
 62
     7
370
    15
100
AcDbPolyline
 90
        3
 70
   128
 43
0.0
 10
1136.2023720953
 20
1292.2951450217
 10
1136.1993322584
 20
1292.2984232772
 10
1136.1963222239
 20
1292.301641928
  0
LINE
  5
251
330
1F
100
AcDbEntity
  8
0
  6
Continuous
 62
     7
370
    15
100
AcDbLine
 10
1135.6536815378
 20
1291.4004793037
 30
0.0
 11
1135.6476316664
 21
1291.4071550239
 31
0.0
  0
LINE
  5
252
330
1F
100
AcDbEntity
  8
0
  6
Continuous
 62
     7
370
    15
100
AcDbLine
 10
1136.6871366713
 20
1292.1634783614
 30
0.0
 11
1136.6810569975
 21
1292.1701540816
 31
0.0
  0
LINE
  5
253
330
1F
100
AcDbEntity
  8
0
  6
Continuous
 62
     7
370
    15
100
AcDbLine
 10
1135.6975505564
 20
1291.340517031
 30
0.0
 11
1135.6914708826
 21
1291.3471927512
 31
0.0
  0
LINE
  5
254
330
1F
100
AcDbEntity
  8
0
  6
Continuous
 62
     7
370
    15
100
AcDbLine
 10
1136.1992726538
 20
1291.6301956046
 30
0.0
 11
1136.19319298
 21
1291.6368713248
 31
0.0
  0
LINE
  5
255
330
1F
100
AcDbEntity
  8
0
  6
Continuous
 62
     7
370
    15
100
AcDbLine
 10
1136.0254357073
 20
1291.6703691352
 30
0.0
 11
1136.0193560335
 21
1291.6770448554
 31
0.0
  0
LINE
  5
256
330
1F
100
AcDbEntity
  8
0
  6
Continuous
 62
     7
370
    15
100
AcDbLine
 10
1136.5458736632
 20
1291.8483486045
 30
0.0
 11
1136.5397641871
 21
1291.8550839294
 31
0.0
  0
LWPOLYLINE
  5
257
330
1F
100
AcDbEntity
  8
0
  6
Continuous
 62
     7
370
    15
100
AcDbPolyline
 90
        3
 70
   128
 43
0.0
 10
1136.6160581324
 20
1291.6241159309
 10
1136.6130182955
 20
1291.6275133956
 10
1136.6099486563
 20
1291.6309108604
  0
LINE
  5
258
330
1F
100
AcDbEntity
  8
0
  6
Continuous
 62
     7
370
    15
100
AcDbLine
 10
1137.2276613924
 20
1291.6900982726
 30
0.0
 11
1137.2214923117
 21
1291.6969528068
 31
0.0
  0
LINE
  5
259
330
1F
100
AcDbEntity
  8
0
  6
Continuous
 62
     7
370
    15
100
AcDbLine
 10
1135.1766655657
 20
1290.0776734222
 30
0.0
 11
1137.2276613924
 21
1291.6900982726
 31
0.0
  0
LINE
  5
25A
330
1F
100
AcDbEntity
  8
0
  6
Continuous
 62
     7
370
    15
100
AcDbLine
 10
1135.1766655657
 20
1290.0776734222
 30
0.0
 11
1135.1705262873
 21
1290.0845279563
 31
0.0
  0
LINE
  5
25B
330
1F
100
AcDbEntity
  8
0
  6
Continuous
 62
     7
370
    15
100
AcDbLine
 10
1135.2715859625
 20
1289.7916307319
 30
0.0
 11
1135.1766655657
 21
1290.0776734222
 31
0.0
  0
LINE
  5
25C
330
1F
100
AcDbEntity
  8
0
  6
Continuous
 62
     7
370
    15
100
AcDbLine
 10
1137.2276613924
 20
1291.6900982726
 30
0.0
 11
1137.2919151995
 21
1291.4987077582
 31
0.0
  0
LINE
  5
25D
330
1F
100
AcDbEntity
  8
0
  6
Continuous
 62
     7
370
    15
100
AcDbLine
 10
1137.2919151995
 20
1291.4987077582
 30
0.0
 11
1135.6075475428
 21
1290.1746501792
 31
0.0
  0
LINE
  5
25E
330
1F
100
AcDbEntity
  8
0
  6
Continuous
 62
     7
370
    15
100
AcDbLine
 10
1135.6075475428
 20
1290.1746501792
 30
0.0
 11
1135.6720695708
 21
1289.9724116195
 31
0.0
  0
LINE
  5
25F
330
1F
100
AcDbEntity
  8
0
  6
Continuous
 62
     7
370
    15
100
AcDbLine
 10
1135.6720695708
 20
1289.9724116195
 30
0.0
 11
1135.2715859625
 21
1289.7916307319
 31
0.0
  0
LINE
  5
260
330
1F
100
AcDbEntity
  8
0
  6
Continuous
 62
     7
370
    15
100
AcDbLine
 10
1135.2715859625
 20
1289.7916307319
 30
0.0
 11
1135.2654168818
 21
1289.7986044753
 31
0.0
  0
LWPOLYLINE
  5
261
330
1F
100
AcDbEntity
  8
0
  6
Continuous
 62
     7
370
    15
100
AcDbPolyline
 90
        9
 70
   128
 43
0.0
 10
1145.5646822665
 20
1339.041398989
 10
1146.7506060812
 20
1335.3915085662
 10
1147.9508648131
 20
1331.6975107062
 10
1149.1607198927
 20
1327.9739489425
 10
1150.3753731463
 20
1324.2356648315
 10
1151.5899965975
 20
1320.4973807204
 10
1152.7998516772
 20
1316.7738189567
 10
1154.000110409
 20
1313.0798210967
 10
1155.1860342238
 20
1309.4299306739
  0
LWPOLYLINE
  5
262
330
1F
100
AcDbEntity
  8
0
  6
Continuous
 62
     7
370
    15
100
AcDbPolyline
 90
        9
 70
   128
 43
0.0
 10
1144.5677945826
 20
1342.1094884742
 10
1144.6101436827
 20
1341.9791927207
 10
1144.6767816756
 20
1341.7740335334
 10
1144.7674999449
 20
1341.4949049819
 10
1144.8818514559
 20
1341.1429991592
 10
1145.0193593714
 20
1340.7197465766
 10
1145.1794872496
 20
1340.2269353736
 10
1145.3615198347
 20
1339.6667113174
 10
1145.5646822665
 20
1339.041398989
  0
ARC
  5
263
330
1F
100
AcDbEntity
  8
0
  6
Continuous
 62
     7
370
    15
100
AcDbCircle
 10
1143.6133631433
 20
1341.8000139139
 30
0.0
 40
1.003351322221215
100
AcDbArc
 50
17.9652955111
 51
83.6486447147
  0
LWPOLYLINE
  5
264
330
1F
100
AcDbEntity
  8
0
  6
Continuous
 62
     7
370
    15
100
AcDbPolyline
 90
        5
 70
   128
 43
0.0
 10
1155.1860342238
 20
1309.4299306739
 10
1155.6226978514
 20
1308.0860843528
 10
1155.9417615149
 20
1307.1040382255
 10
1156.1361024592
 20
1306.5059056152
 10
1156.2013695452
 20
1306.3049783576
  0
LWPOLYLINE
  5
265
330
1F
100
AcDbEntity
  8
0
  6
Continuous
 62
     7
370
    15
100
AcDbPolyline
 90
       17
 70
   128
 43
0.0
 10
1134.207434437
 20
1287.0318760741
 10
1134.3679497454
 20
1287.2161736358
 10
1134.4538698408
 20
1287.3623838294
 10
1134.4513962481
 20
1287.4491085876
 10
1134.3606779787
 20
1287.463294493
 10
1134.1960797522
 20
1287.4021401275
 10
1133.9835593912
 20
1287.2740497459
 10
1133.7561080668
 20
1287.0976199973
 10
1133.5485646937
 20
1286.8994941581
 10
1133.3919832918
 20
1286.7105474342
 10
1133.3093712542
 20
1286.5604629386
 10
1133.312589905
 20
1286.4729037154
 10
1133.4009835932
 20
1286.4614596236
 10
1133.5616181109
 20
1286.5272035468
 10
1133.7708602164
 20
1286.6591682304
 10
1133.9975962851
 20
1286.8364324439
 10
1134.207434437
 20
1287.0318760741
  0
LWPOLYLINE
  5
266
330
1F
100
AcDbEntity
  8
0
  6
Continuous
 62
     7
370
    15
100
AcDbPolyline
 90
        9
 70
   128
 43
0.0
 10
1119.5552716467
 20
1315.535949694
 10
1119.5575068209
 20
1315.5290951598
 10
1119.5640931341
 20
1315.5088295806
 10
1119.5748517725
 20
1315.4756893981
 10
1119.5895145151
 20
1315.430568682
 10
1119.6076045248
 20
1315.3748979438
 10
1119.6286449644
 20
1315.3101672996
 10
1119.6520099852
 20
1315.2382244933
 10
1119.677043936
 20
1315.1612152923
  0
LWPOLYLINE
  5
267
330
1F
100
AcDbEntity
  8
0
  6
Continuous
 62
     7
370
    15
100
AcDbPolyline
 90
        9
 70
   128
 43
0.0
 10
1119.5552716467
 20
1315.535949694
 10
1119.5556590769
 20
1315.5360689033
 10
1119.557149193
 20
1315.5365457404
 10
1119.5607850764
 20
1315.5377378333
 10
1119.5676694128
 20
1315.5399432052
 10
1119.5819149229
 20
1315.5445923675
 10
1119.6385989401
 20
1315.5630102027
 10
1119.7545597765
 20
1315.6006803382
 10
1121.4574048731
 20
1316.1539902557
  0
LWPOLYLINE
  5
268
330
1F
100
AcDbEntity
  8
0
  6
Continuous
 62
     7
370
    15
100
AcDbPolyline
 90
        9
 70
   128
 43
0.0
 10
1119.677043936
 20
1315.1612152923
 10
1119.7382877085
 20
1314.9726858009
 10
1119.7998593066
 20
1314.7832026351
 10
1119.8616991255
 20
1314.5928850043
 10
1119.9237475607
 20
1314.4019117225
 10
1119.9859748099
 20
1314.2103423942
 10
1120.0483510706
 20
1314.018415438
 10
1120.1108167383
 20
1313.8261904586
 10
1120.1733122084
 20
1313.6338462699
  0
LWPOLYLINE
  5
269
330
1F
100
AcDbEntity
  8
0
  6
Continuous
 62
     7
370
    15
100
AcDbPolyline
 90
        9
 70
   128
 43
0.0
 10
1120.1733122084
 20
1313.6338462699
 10
1120.2034423563
 20
1313.541041838
 10
1120.232440016
 20
1313.4518732894
 10
1120.2591428969
 20
1313.3696188796
 10
1120.2825675223
 20
1313.2975568641
 10
1120.3017900202
 20
1313.2384290565
 10
1120.3160653326
 20
1313.1945004333
 10
1120.3248570177
 20
1313.1674399245
 10
1120.3278074476
 20
1313.1583204139
  0
LINE
  5
26A
330
1F
100
AcDbEntity
  8
0
  6
Continuous
 62
     7
370
    15
100
AcDbLine
 10
1122.2407291147
 20
1313.7431611884
 30
0.0
 11
1120.3278074476
 21
1313.1583204139
 31
0.0
  0
LINE
  5
26B
330
1F
100
AcDbEntity
  8
0
  6
Continuous
 62
     7
370
    15
100
AcDbLine
 10
1123.1603989813
 20
1310.9126558173
 30
0.0
 11
1121.2571332667
 21
1310.2981319297
 31
0.0
  0
LWPOLYLINE
  5
26C
330
1F
100
AcDbEntity
  8
0
  6
Continuous
 62
     7
370
    15
100
AcDbPolyline
 90
        9
 70
   128
 43
0.0
 10
1120.3278074476
 20
1313.1583204139
 10
1120.4551825735
 20
1312.7663006652
 10
1120.5803821299
 20
1312.3809566367
 10
1120.7028696749
 20
1312.0039572585
 10
1120.8221385691
 20
1311.636911856
 10
1120.937682173
 20
1311.2813105453
 10
1121.0490236494
 20
1310.9387030471
 10
1121.1556563589
 20
1310.610519873
 10
1121.2571332667
 20
1310.2981319297
  0
LWPOLYLINE
  5
26D
330
1F
100
AcDbEntity
  8
0
  6
Continuous
 62
     7
370
    15
100
AcDbPolyline
 90
        9
 70
   128
 43
0.0
 10
1121.6031978342
 20
1309.2330565322
 10
1121.6255793783
 20
1309.1642131675
 10
1121.6493616316
 20
1309.0909590591
 10
1121.6739783499
 20
1309.0153207648
 10
1121.6987142775
 20
1308.9390864242
 10
1121.7230031702
 20
1308.8643421996
 10
1121.7462191794
 20
1308.7929358352
 10
1121.7677066538
 20
1308.7267746795
 10
1121.7869589541
 20
1308.6675276626
  0
LINE
  5
26E
330
1F
100
AcDbEntity
  8
0
  6
Continuous
 62
     7
370
    15
100
AcDbLine
 10
1121.2571332667
 20
1310.2981319297
 30
0.0
 11
1121.6031978342
 21
1309.2330565322
 31
0.0
  0
LWPOLYLINE
  5
26F
330
1F
100
AcDbEntity
  8
0
  6
Continuous
 62
     7
370
    15
100
AcDbPolyline
 90
        9
 70
   128
 43
0.0
 10
1121.7869589541
 20
1308.6675276626
 10
1121.8321392748
 20
1308.528529631
 10
1121.8760977003
 20
1308.3932270873
 10
1121.9188044283
 20
1308.2617988456
 10
1121.9602594588
 20
1308.1342449058
 10
1122.000403187
 20
1308.0106844772
 10
1122.0392058108
 20
1307.891236769
 10
1122.07666733
 20
1307.775961386
 10
1122.1127281401
 20
1307.6649179328
  0
LWPOLYLINE
  5
270
330
1F
100
AcDbEntity
  8
0
  6
Continuous
 62
     7
370
    15
100
AcDbPolyline
 90
        4
 70
   128
 43
0.0
 10
1122.1127281401
 20
1307.6649179328
 10
1122.1276591036
 20
1307.6189627517
 10
1122.1365998003
 20
1307.5914254058
 10
1122.1392224047
 20
1307.5833787788
  0
LWPOLYLINE
  5
271
330
1F
100
AcDbEntity
  8
0
  6
Continuous
 62
     7
370
    15
100
AcDbPolyline
 90
       17
 70
   128
 43
0.0
 10
1134.432531378
 20
1286.1946692336
 10
1134.6137593004
 20
1286.3544096816
 10
1134.7292432997
 20
1286.4653935302
 10
1134.7606251452
 20
1286.5118851531
 10
1134.7028086397
 20
1286.4869704116
 10
1134.565002701
 20
1286.394106375
 10
1134.3690524313
 20
1286.246286856
 10
1134.1455648157
 20
1286.0651483405
 10
1133.9288423273
 20
1285.8779301513
 10
1133.7514887068
 20
1285.7136001456
 10
1133.6396405909
 20
1285.5982055534
 10
1133.6095700476
 20
1285.5502238143
 10
1133.6655686114
 20
1285.577284323
 10
1133.7995002482
 20
1285.6747975219
 10
1133.9918146345
 20
1285.82696818
 10
1134.2139909479
 20
1286.0096564162
 10
1134.432531378
 20
1286.1946692336
  0
LWPOLYLINE
  5
272
330
1F
100
AcDbEntity
  8
0
  6
Continuous
 62
     7
370
    15
100
AcDbPolyline
 90
       10
 70
   128
 43
0.0
 10
1114.2961154196
 20
1345.7186689246
 10
1114.2958471987
 20
1345.7187285293
 10
1114.4854197714
 20
1345.6925620902
 10
1115.0245735857
 20
1345.6237783301
 10
1115.8321271155
 20
1345.5365767348
 10
1116.7859802458
 20
1345.4584350455
 10
1117.7413830969
 20
1345.4079499114
 10
1118.552483103
 20
1345.3875055183
 10
1119.0946767542
 20
1345.3856577743
 10
1119.2847857687
 20
1345.387207495
  0
LINE
  5
273
330
1F
100
AcDbEntity
  8
0
  6
Continuous
 62
     7
370
    15
100
AcDbLine
 10
1081.6373894427
 20
685.0383748878
 30
0.0
 11
1079.5874068949
 21
685.0383748878
 31
0.0
  0
LINE
  5
274
330
1F
100
AcDbEntity
  8
0
  6
Continuous
 62
     7
370
    15
100
AcDbLine
 10
1079.5874068949
 20
685.0383748878
 30
0.0
 11
1079.5874068949
 21
743.7283714879
 31
0.0
  0
LINE
  5
275
330
1F
100
AcDbEntity
  8
0
  6
Continuous
 62
     7
370
    15
100
AcDbLine
 10
1079.5874068949
 20
743.7283714879
 30
0.0
 11
1081.6373894427
 21
743.7283714879
 31
0.0
  0
LINE
  5
276
330
1F
100
AcDbEntity
  8
0
  6
Continuous
 62
     7
370
    15
100
AcDbLine
 10
1136.5374098036
 20
743.7283714879
 30
0.0
 11
1081.6373894427
 21
743.7283714879
 31
0.0
  0
LINE
  5
277
330
1F
100
AcDbEntity
  8
0
  6
Continuous
 62
     7
370
    15
100
AcDbLine
 10
1081.6373894427
 20
685.0383748878
 30
0.0
 11
1136.5374098036
 21
685.0383748878
 31
0.0
  0
ARC
  5
278
330
1F
100
AcDbEntity
  8
0
  6
Continuous
 62
     7
370
    15
100
AcDbCircle
 10
1136.1473154041
 20
740.630844051
 30
0.0
 40
3.121994532808126
100
AcDbArc
 50
38.5948722812
 51
82.8221097694
  0
LINE
  5
279
330
1F
100
AcDbEntity
  8
0
  6
Continuous
 62
     7
370
    15
100
AcDbLine
 10
1138.5873923514
 20
742.5783743728
 30
0.0
 11
1138.5873923514
 21
686.2783750165
 31
0.0
  0
ARC
  5
27A
330
1F
100
AcDbEntity
  8
0
  6
Continuous
 62
     7
370
    15
100
AcDbCircle
 10
1135.874049314
 20
688.4495776056
 30
0.0
 40
3.475104476369383
100
AcDbArc
 50
281.0046911127
 51
321.3333919215
  0
LINE
  5
27B
330
1F
100
AcDbEntity
  8
0
  6
Continuous
 62
     7
370
    15
100
AcDbLine
 10
1136.5374098036
 20
684.2283775676
 30
0.0
 11
1136.5374098036
 21
685.0283762086
 31
0.0
  0
LINE
  5
27C
330
1F
100
AcDbEntity
  8
0
  6
Continuous
 62
     7
370
    15
100
AcDbLine
 10
1136.5374098036
 20
685.0283762086
 30
0.0
 11
1082.3873946879
 21
685.0283762086
 31
0.0
  0
LINE
  5
27D
330
1F
100
AcDbEntity
  8
0
  6
Continuous
 62
     7
370
    15
100
AcDbLine
 10
1136.5374098036
 20
684.2283775676
 30
0.0
 11
1082.3873946879
 21
684.2283775676
 31
0.0
  0
LINE
  5
27E
330
1F
100
AcDbEntity
  8
0
  6
Continuous
 62
     7
370
    15
100
AcDbLine
 10
1136.5374098036
 20
743.8283731807
 30
0.0
 11
1136.5374098036
 21
744.6283718217
 31
0.0
  0
LINE
  5
27F
330
1F
100
AcDbEntity
  8
0
  6
Continuous
 62
     7
370
    15
100
AcDbLine
 10
1081.3874075625
 20
743.8283731807
 30
0.0
 11
1136.5374098036
 21
743.8283731807
 31
0.0
  0
LINE
  5
280
330
1F
100
AcDbEntity
  8
0
  6
Continuous
 62
     7
370
    15
100
AcDbLine
 10
1081.3874075625
 20
744.6283718217
 30
0.0
 11
1136.5374098036
 21
744.6283718217
 31
0.0
  0
LINE
  5
281
330
1F
100
AcDbEntity
  8
0
  6
Continuous
 62
     7
370
    15
100
AcDbLine
 10
1080.3873906348
 20
684.2283775676
 30
0.0
 11
1080.3873906348
 21
685.0283762086
 31
0.0
  0
LINE
  5
282
330
1F
100
AcDbEntity
  8
0
  6
Continuous
 62
     7
370
    15
100
AcDbLine
 10
1080.3873906348
 20
685.0283762086
 30
0.0
 11
1082.3873946879
 21
685.0283762086
 31
0.0
  0
LINE
  5
283
330
1F
100
AcDbEntity
  8
0
  6
Continuous
 62
     7
370
    15
100
AcDbLine
 10
1082.3873946879
 20
684.2283775676
 30
0.0
 11
1080.3873906348
 21
684.2283775676
 31
0.0
  0
LINE
  5
284
330
1F
100
AcDbEntity
  8
0
  6
Continuous
 62
     7
370
    15
100
AcDbLine
 10
1080.3873906348
 20
743.8283731807
 30
0.0
 11
1080.3873906348
 21
744.6283718217
 31
0.0
  0
LINE
  5
285
330
1F
100
AcDbEntity
  8
0
  6
Continuous
 62
     7
370
    15
100
AcDbLine
 10
1081.3874075625
 20
743.8283731807
 30
0.0
 11
1080.3873906348
 21
743.8283731807
 31
0.0
  0
LINE
  5
286
330
1F
100
AcDbEntity
  8
0
  6
Continuous
 62
     7
370
    15
100
AcDbLine
 10
1080.3873906348
 20
744.6283718217
 30
0.0
 11
1081.3874075625
 21
744.6283718217
 31
0.0
  0
ARC
  5
287
330
1F
100
AcDbEntity
  8
0
  6
Continuous
 62
     7
370
    15
100
AcDbCircle
 10
1136.5374039802
 20
686.2783744953
 30
0.0
 40
2.050000000000182
100
AcDbArc
 50
270.0
 51
0.0
  0
ARC
  5
288
330
1F
100
AcDbEntity
  8
0
  6
Continuous
 62
     7
370
    15
100
AcDbCircle
 10
1136.5374039802
 20
686.2783744953
 30
0.0
 40
1.249999999999997
100
AcDbArc
 50
270.0
 51
313.2543092001
  0
ARC
  5
289
330
1F
100
AcDbEntity
  8
0
  6
Continuous
 62
     7
370
    15
100
AcDbCircle
 10
1136.5374039802
 20
742.5783744953
 30
0.0
 40
1.25
100
AcDbArc
 50
40.5380234727
 51
90.0
  0
ARC
  5
28A
330
1F
100
AcDbEntity
  8
0
  6
Continuous
 62
     7
370
    15
100
AcDbCircle
 10
1136.5374039802
 20
742.5783744953
 30
0.0
 40
2.049999999999955
100
AcDbArc
 50
0.0
 51
90.0
  0
LINE
  5
28B
330
1F
100
AcDbEntity
  8
0
  6
Continuous
 62
     7
370
    15
100
AcDbLine
 10
1079.6117553923
 20
685.0283762086
 30
0.0
 11
1080.3873906348
 21
685.0283762086
 31
0.0
  0
LINE
  5
28C
330
1F
100
AcDbEntity
  8
0
  6
Continuous
 62
     7
370
    15
100
AcDbLine
 10
1080.3873906348
 20
684.2283775676
 30
0.0
 11
1078.5166988585
 21
684.2283775676
 31
0.0
  0
ARC
  5
28D
330
1F
100
AcDbEntity
  8
0
  6
Continuous
 62
     7
370
    15
100
AcDbCircle
 10
1080.8374039802
 20
745.8783744953
 30
0.0
 40
2.050000000000077
100
AcDbArc
 50
224.982957828
 51
257.3196165081
  0
ARC
  5
28E
330
1F
100
AcDbEntity
  8
0
  6
Continuous
 62
     7
370
    15
100
AcDbCircle
 10
1080.8374039802
 20
745.8783744953
 30
0.0
 40
1.250000000000227
100
AcDbArc
 50
180.0
 51
270.0
  0
LINE
  5
28F
330
1F
100
AcDbEntity
  8
0
  6
Continuous
 62
     7
370
    15
100
AcDbLine
 10
1079.5874068949
 20
761.8534138072
 30
0.0
 11
1079.5874068949
 21
745.8783706296
 31
0.0
  0
ARC
  5
290
330
1F
100
AcDbEntity
  8
0
  6
Continuous
 62
     7
370
    15
100
AcDbCircle
 10
374.3187170404
 20
683.0702579503
 30
0.0
 40
3.24401965938447
100
AcDbArc
 50
98.5321828727
 51
141.2881222509
  0
LINE
  5
291
330
1F
100
AcDbEntity
  8
0
  6
Continuous
 62
     7
370
    15
100
AcDbLine
 10
371.7874059889
 20
1366.4576878417
 30
0.0
 11
371.7874059889
 21
685.0990822185
 31
0.0
  0
ARC
  5
292
330
1F
100
AcDbEntity
  8
0
  6
Continuous
 62
     7
370
    15
100
AcDbCircle
 10
374.3188995702
 20
1368.4867077905
 30
0.0
 40
3.244284467299335
100
AcDbArc
 50
218.7125582928
 51
261.4652590849
  0
ARC
  5
293
330
1F
100
AcDbEntity
  8
0
  6
Continuous
 62
     7
370
    15
100
AcDbCircle
 10
369.8845687985
 20
1364.368658724
 30
0.0
 40
4.05617533225651
100
AcDbArc
 50
12.9601462215
 51
46.8600647006
  0
ARC
  5
294
330
1F
100
AcDbEntity
  8
0
  6
Continuous
 62
     7
370
    15
100
AcDbCircle
 10
371.8137083945
 20
1364.5504408962
 30
0.0
 40
2.150640392597047
100
AcDbArc
 50
19.7831813589
 51
66.8818619707
  0
LINE
  5
295
330
1F
100
AcDbEntity
  8
0
  6
Continuous
 62
     7
370
    15
100
AcDbLine
 10
372.6581106398
 20
1367.3283924926
 30
0.0
 11
372.6581106398
 21
1366.5283789504
 31
0.0
  0
LINE
  5
296
330
1F
100
AcDbEntity
  8
0
  6
Continuous
 62
     7
370
    15
100
AcDbLine
 10
1078.1874129984
 20
1367.3283924926
 30
0.0
 11
992.0874009344
 21
1367.3283924926
 31
0.0
  0
LINE
  5
297
330
1F
100
AcDbEntity
  8
0
  6
Continuous
 62
     7
370
    15
100
AcDbLine
 10
477.0874152396
 20
1367.3283924926
 30
0.0
 11
372.6581106398
 21
1367.3283924926
 31
0.0
  0
ARC
  5
298
330
1F
100
AcDbEntity
  8
0
  6
Continuous
 62
     7
370
    15
100
AcDbCircle
 10
1083.7369532542
 20
1363.4423371619
 30
0.0
 40
6.657727795394316
100
AcDbArc
 50
146.4650185275
 51
163.9919899042
  0
LINE
  5
299
330
1F
100
AcDbEntity
  8
0
  6
Continuous
 62
     7
370
    15
100
AcDbLine
 10
372.5873897288
 20
1366.4576878417
 30
0.0
 11
371.7874059889
 21
1366.4576878417
 31
0.0
  0
ARC
  5
29A
330
1F
100
AcDbEntity
  8
0
  6
Continuous
 62
     7
370
    15
100
AcDbCircle
 10
374.5619536743
 20
1367.2984625894
 30
0.0
 40
2.146113918543924
100
AcDbArc
 50
203.0644379822
 51
250.2690732339
  0
ARC
  5
29B
330
1F
100
AcDbEntity
  8
0
  6
Continuous
 62
     7
370
    15
100
AcDbCircle
 10
1080.5456746827
 20
686.7598026232
 30
0.0
 40
3.244203401060314
100
AcDbArc
 50
188.533998106
 51
231.2872928796
  0
LINE
  5
29C
330
1F
100
AcDbEntity
  8
0
  6
Continuous
 62
     7
370
    15
100
AcDbLine
 10
372.6581106398
 20
684.2283775676
 30
0.0
 11
1078.5166988585
 21
684.2283775676
 31
0.0
  0
LWPOLYLINE
  5
29D
330
1F
100
AcDbEntity
  8
0
  6
Continuous
 62
     7
370
    15
100
AcDbPolyline
 90
        6
 70
   128
 43
0.0
 10
373.837418339
 20
686.2783750165
 10
373.5676477167
 20
685.5575164426
 10
373.2977876875
 20
684.9285607803
 10
373.0279574606
 20
684.4721158612
 10
372.7580974314
 20
684.2465271819
 10
372.6581106398
 20
684.2283775676
  0
LINE
  5
29E
330
1F
100
AcDbEntity
  8
0
  6
Continuous
 62
     7
370
    15
100
AcDbLine
 10
372.6581106398
 20
684.2283775676
 30
0.0
 11
372.6581106398
 21
685.0283762086
 31
0.0
  0
ARC
  5
29F
330
1F
100
AcDbEntity
  8
0
  6
Continuous
 62
     7
370
    15
100
AcDbCircle
 10
371.8204112627
 20
687.0000078165
 30
0.0
 40
2.142211811129584
100
AcDbArc
 50
293.0194845013
 51
340.3141084587
  0
ARC
  5
2A0
330
1F
100
AcDbEntity
  8
0
  6
Continuous
 62
     7
370
    15
100
AcDbCircle
 10
374.5617704984
 20
684.2584250584
 30
0.0
 40
2.145899318287929
100
AcDbArc
 50
109.7277859926
 51
156.936534597
  0
LINE
  5
2A1
330
1F
100
AcDbEntity
  8
0
  6
Continuous
 62
     7
370
    15
100
AcDbLine
 10
372.5873897288
 20
685.0990822185
 30
0.0
 11
371.7874059889
 21
685.0990822185
 31
0.0
  0
LWPOLYLINE
  5
2A2
330
1F
100
AcDbEntity
  8
0
  6
Continuous
 62
     7
370
    15
100
AcDbPolyline
 90
        3
 70
   128
 43
0.0
 10
1078.1874129984
 20
1365.6019439567
 10
1077.609605572
 20
1365.3783669341
 10
1077.3373911593
 20
1365.2783503402
  0
LINE
  5
2A3
330
1F
100
AcDbEntity
  8
0
  6
Continuous
 62
     7
370
    15
100
AcDbLine
 10
1079.3874035094
 20
685.0990822185
 30
0.0
 11
1079.3874035094
 21
1227.7406921256
 31
0.0
  0
LINE
  5
2A4
330
1F
100
AcDbEntity
  8
0
  6
Continuous
 62
     7
370
    15
100
AcDbLine
 10
1079.3874035094
 20
1228.5407056678
 30
0.0
 11
1079.3874035094
 21
1229.5406927932
 31
0.0
  0
LINE
  5
2A5
330
1F
100
AcDbEntity
  8
0
  6
Continuous
 62
     7
370
    15
100
AcDbLine
 10
1079.3874035094
 20
1348.2283820975
 30
0.0
 11
1079.3874035094
 21
1350.1953353751
 31
0.0
  0
LWPOLYLINE
  5
2A6
330
1F
100
AcDbEntity
  8
0
  6
Continuous
 62
     7
370
    15
100
AcDbPolyline
 90
        6
 70
   128
 43
0.0
 10
1077.3373911593
 20
686.2783750165
 10
1078.0582497332
 20
686.0086118448
 10
1078.6872277472
 20
685.7387667168
 10
1079.1436503145
 20
685.4689141381
 10
1079.369253895
 20
685.1990690101
 10
1079.3874035094
 20
685.0990822185
  0
ARC
  5
2A7
330
1F
100
AcDbEntity
  8
0
  6
Continuous
 62
     7
370
    15
100
AcDbCircle
 10
1080.6696746618
 20
1363.6397428884
 30
0.0
 40
3.71337416944901
100
AcDbArc
 50
131.9487237634
 51
153.8149422892
  0
LWPOLYLINE
  5
2A8
330
1F
100
AcDbEntity
  8
0
  6
Continuous
 62
     7
370
    15
100
AcDbPolyline
 90
        3
 70
   128
 43
0.0
 10
1078.1874129984
 20
1365.8431639541
 10
1077.8115461085
 20
1365.5704727042
 10
1077.3373911593
 20
1365.2783503402
  0
LINE
  5
2A9
330
1F
100
AcDbEntity
  8
0
  6
Continuous
 62
     7
370
    15
100
AcDbLine
 10
1078.5873899672
 20
685.0990822185
 30
0.0
 11
1079.3874035094
 21
685.0990822185
 31
0.0
  0
ARC
  5
2AA
330
1F
100
AcDbEntity
  8
0
  6
Continuous
 62
     7
370
    15
100
AcDbCircle
 10
1076.6158871761
 20
684.2614938955
 30
0.0
 40
2.142049825283547
100
AcDbArc
 50
23.0180979332
 51
70.3162177677
  0
ARC
  5
2AB
330
1F
100
AcDbEntity
  8
0
  6
Continuous
 62
     7
370
    15
100
AcDbCircle
 10
1079.3573430254
 20
687.0027860699
 30
0.0
 40
2.145920994777755
100
AcDbArc
 50
199.7292489659
 51
246.9371580741
  0
LINE
  5
2AC
330
1F
100
AcDbEntity
  8
0
  6
Continuous
 62
     7
370
    15
100
AcDbLine
 10
1078.5166988585
 20
685.0283762086
 30
0.0
 11
1078.5166988585
 21
684.2283775676
 31
0.0
  0
LINE
  5
2AD
330
1F
100
AcDbEntity
  8
0
  6
Continuous
 62
     7
370
    15
100
AcDbLine
 10
372.5873897288
 20
685.0990822185
 30
0.0
 11
372.5873897288
 21
685.6283714641
 31
0.0
  0
LINE
  5
2AE
330
1F
100
AcDbEntity
  8
0
  6
Continuous
 62
     7
370
    15
100
AcDbLine
 10
372.5873897288
 20
1367.828356253
 30
0.0
 11
372.5873897288
 21
1367.4884905685
 31
0.0
  0
LINE
  5
2AF
330
1F
100
AcDbEntity
  8
0
  6
Continuous
 62
     7
370
    15
100
AcDbLine
 10
373.3874032709
 20
1367.828356253
 30
0.0
 11
373.3874032709
 21
1367.3283924926
 31
0.0
  0
LINE
  5
2B0
330
1F
100
AcDbEntity
  8
0
  6
Continuous
 62
     7
370
    15
100
AcDbLine
 10
373.3874032709
 20
1365.9701814521
 30
0.0
 11
373.3874032709
 21
1365.555750357
 31
0.0
  0
LINE
  5
2B1
330
1F
100
AcDbEntity
  8
0
  6
Continuous
 62
     7
370
    15
100
AcDbLine
 10
373.3874032709
 20
685.6283714641
 30
0.0
 11
372.5873897288
 21
685.6283714641
 31
0.0
  0
LINE
  5
2B2
330
1F
100
AcDbEntity
  8
0
  6
Continuous
 62
     7
370
    15
100
AcDbLine
 10
373.3874032709
 20
685.9915798176
 30
0.0
 11
373.3874032709
 21
685.6283714641
 31
0.0
  0
ARC
  5
2B3
330
1F
100
AcDbEntity
  8
0
  6
Continuous
 62
     7
370
    15
100
AcDbCircle
 10
360.367624806
 20
731.1082929998
 30
0.0
 40
0.4632443741553788
100
AcDbArc
 50
81.336960404
 51
112.8928950595
  0
LINE
  5
2B4
330
1F
100
AcDbEntity
  8
0
  6
Continuous
 62
     7
370
    15
100
AcDbLine
 10
360.1874182436
 20
731.5350493062
 30
0.0
 11
360.1874182436
 21
739.0251179803
 31
0.0
  0
ARC
  5
2B5
330
1F
100
AcDbEntity
  8
0
  6
Continuous
 62
     7
370
    15
100
AcDbCircle
 10
361.2066922872
 20
731.1042740858
 30
0.0
 40
0.46714637122659
100
AcDbArc
 50
67.2412424909
 51
98.5305809161
  0
LINE
  5
2B6
330
1F
100
AcDbEntity
  8
0
  6
Continuous
 62
     7
370
    15
100
AcDbLine
 10
361.3874087546
 20
739.302786218
 30
0.0
 11
361.3874087546
 21
731.5350493062
 31
0.0
  0
LINE
  5
2B7
330
1F
100
AcDbEntity
  8
0
  6
Continuous
 62
     7
370
    15
100
AcDbLine
 10
360.4374001238
 20
731.5662523378
 30
0.0
 11
361.1373970721
 21
731.5662523378
 31
0.0
  0
ARC
  5
2B8
330
1F
100
AcDbEntity
  8
0
  6
Continuous
 62
     7
370
    15
100
AcDbCircle
 10
360.0673570365
 20
727.536472411
 30
0.0
 40
1.32558556319644
100
AcDbArc
 50
264.3741153191
 51
354.7628085469
  0
ARC
  5
2B9
330
1F
100
AcDbEntity
  8
0
  6
Continuous
 62
     7
370
    15
100
AcDbCircle
 10
360.0592419724
 20
731.5347232335
 30
0.0
 40
1.350405912100207
100
AcDbArc
 50
264.823660095
 51
349.5873281316
  0
LINE
  5
2BA
330
1F
100
AcDbEntity
  8
0
  6
Continuous
 62
     7
370
    15
100
AcDbLine
 10
361.3874087546
 20
731.2906553615
 30
0.0
 11
361.3874087546
 21
727.4154742826
 31
0.0
  0
LINE
  5
2BB
330
1F
100
AcDbEntity
  8
0
  6
Continuous
 62
     7
370
    15
100
AcDbLine
 10
354.5874128554
 20
726.4479344357
 30
0.0
 11
354.5874128554
 21
730.3231155146
 31
0.0
  0
LINE
  5
2BC
330
1F
100
AcDbEntity
  8
0
  6
Continuous
 62
     7
370
    15
100
AcDbLine
 10
354.5874128554
 20
730.3231155146
 30
0.0
 11
354.5874128554
 21
730.8857610095
 31
0.0
  0
LINE
  5
2BD
330
1F
100
AcDbEntity
  8
0
  6
Continuous
 62
     7
370
    15
100
AcDbLine
 10
361.3874087546
 20
731.5350493062
 30
0.0
 11
361.3874087546
 21
731.2906553615
 31
0.0
  0
LINE
  5
2BE
330
1F
100
AcDbEntity
  8
0
  6
Continuous
 62
     7
370
    15
100
AcDbLine
 10
360.1874182436
 20
731.2906553615
 30
0.0
 11
360.1874182436
 21
731.5350493062
 31
0.0
  0
LINE
  5
2BF
330
1F
100
AcDbEntity
  8
0
  6
Continuous
 62
     7
370
    15
100
AcDbLine
 10
359.9374065611
 20
726.1979376543
 30
0.0
 11
359.9374065611
 21
726.217271911
 31
0.0
  0
LINE
  5
2C0
330
1F
100
AcDbEntity
  8
0
  6
Continuous
 62
     7
370
    15
100
AcDbLine
 10
361.3874087546
 20
727.4154742826
 30
0.0
 11
361.3874087546
 21
727.1783744562
 31
0.0
  0
ARC
  5
2C1
330
1F
100
AcDbEntity
  8
0
  6
Continuous
 62
     7
370
    15
100
AcDbCircle
 10
360.0041040972
 20
743.6099303949
 30
0.0
 40
1.431104648238735
100
AcDbArc
 50
45.4022116933
 51
92.6712736297
  0
LINE
  5
2C2
330
1F
100
AcDbEntity
  8
0
  6
Continuous
 62
     7
370
    15
100
AcDbLine
 10
354.5874128554
 20
744.2461719382
 30
0.0
 11
354.5874128554
 21
744.8088099826
 31
0.0
  0
LINE
  5
2C3
330
1F
100
AcDbEntity
  8
0
  6
Continuous
 62
     7
370
    15
100
AcDbLine
 10
354.5874128554
 20
740.9450878966
 30
0.0
 11
354.5874128554
 21
744.2461719382
 31
0.0
  0
LWPOLYLINE
  5
2C4
330
1F
100
AcDbEntity
  8
0
  6
Continuous
 62
     7
370
    15
100
AcDbPolyline
 90
        7
 70
   128
 43
0.0
 10
359.9374065611
 20
738.9005293716
 10
360.0097367975
 20
738.9031966794
 10
360.0736627791
 20
738.9105876554
 10
360.1271877501
 20
738.9221658576
 10
360.1682553503
 20
738.9385273326
 10
360.1873884413
 20
738.9610429872
 10
360.1874182436
 20
738.9616837371
  0
LINE
  5
2C5
330
1F
100
AcDbEntity
  8
0
  6
Continuous
 62
     7
370
    15
100
AcDbLine
 10
360.1874182436
 20
738.9616837371
 30
0.0
 11
360.1874182436
 21
731.5350493062
 31
0.0
  0
LWPOLYLINE
  5
2C6
330
1F
100
AcDbEntity
  8
0
  6
Continuous
 62
     7
370
    15
100
AcDbPolyline
 90
        7
 70
   128
 43
0.0
 10
358.9873979304
 20
738.9616837371
 10
358.9874277327
 20
738.9610429872
 10
359.0065608237
 20
738.9385273326
 10
359.0476284239
 20
738.9221658576
 10
359.1011533949
 20
738.9105876554
 10
359.1650793764
 20
738.9031966794
 10
359.2374096129
 20
738.9005293716
  0
LINE
  5
2C7
330
1F
100
AcDbEntity
  8
0
  6
Continuous
 62
     7
370
    15
100
AcDbLine
 10
358.9873979304
 20
731.1357577909
 30
0.0
 11
358.9873979304
 21
738.9616837371
 31
0.0
  0
LINE
  5
2C8
330
1F
100
AcDbEntity
  8
0
  6
Continuous
 62
     7
370
    15
100
AcDbLine
 10
359.9374065611
 20
738.9005293716
 30
0.0
 11
359.2374096129
 21
738.9005293716
 31
0.0
  0
ARC
  5
2C9
330
1F
100
AcDbEntity
  8
0
  6
Continuous
 62
     7
370
    15
100
AcDbCircle
 10
360.2645654947
 20
743.321059767
 30
0.0
 40
1.289384405893275
100
AcDbArc
 50
82.2966400154
 51
172.1065038621
  0
LWPOLYLINE
  5
2CA
330
1F
100
AcDbEntity
  8
0
  6
Continuous
 62
     7
370
    15
100
AcDbPolyline
 90
        6
 70
   128
 43
0.0
 10
358.9873979304
 20
739.1841729749
 10
359.0765366766
 20
739.526124822
 10
359.3391845438
 20
739.8315241206
 10
359.733558676
 20
740.0514354575
 10
360.1948092196
 20
740.1624342073
 10
360.4374001238
 20
740.1764561999
  0
LINE
  5
2CB
330
1F
100
AcDbEntity
  8
0
  6
Continuous
 62
     7
370
    15
100
AcDbLine
 10
358.9873979304
 20
739.1841729749
 30
0.0
 11
358.9873979304
 21
743.4981336463
 31
0.0
  0
LINE
  5
2CC
330
1F
100
AcDbEntity
  8
0
  6
Continuous
 62
     7
370
    15
100
AcDbLine
 10
365.7873938296
 20
744.3789561856
 30
0.0
 11
365.7873938296
 21
740.0649806131
 31
0.0
  0
LINE
  5
2CD
330
1F
100
AcDbEntity
  8
0
  6
Continuous
 62
     7
370
    15
100
AcDbLine
 10
365.7873938296
 20
740.0649806131
 30
0.0
 11
365.7873938296
 21
739.5527829993
 31
0.0
  0
LINE
  5
2CE
330
1F
100
AcDbEntity
  8
0
  6
Continuous
 62
     7
370
    15
100
AcDbLine
 10
358.9873979304
 20
738.9616837371
 30
0.0
 11
358.9873979304
 21
739.1841729749
 31
0.0
  0
LINE
  5
2CF
330
1F
100
AcDbEntity
  8
0
  6
Continuous
 62
     7
370
    15
100
AcDbLine
 10
360.1874182436
 20
739.1841729749
 30
0.0
 11
360.1874182436
 21
738.9616837371
 31
0.0
  0
LINE
  5
2D0
330
1F
100
AcDbEntity
  8
0
  6
Continuous
 62
     7
370
    15
100
AcDbLine
 10
360.4374001238
 20
744.628952967
 30
0.0
 11
360.4374001238
 21
744.5988079179
 31
0.0
  0
LINE
  5
2D1
330
1F
100
AcDbEntity
  8
0
  6
Continuous
 62
     7
370
    15
100
AcDbLine
 10
358.9873979304
 20
743.4981336463
 30
0.0
 11
358.9873979304
 21
744.078369962
 31
0.0
  0
LINE
  5
2D2
330
1F
100
AcDbEntity
  8
0
  6
Continuous
 62
     7
370
    15
100
AcDbLine
 10
365.7873938296
 20
727.3900007475
 30
0.0
 11
365.7873938296
 21
726.8777956832
 31
0.0
  0
LINE
  5
2D3
330
1F
100
AcDbEntity
  8
0
  6
Continuous
 62
     7
370
    15
100
AcDbLine
 10
365.7873938296
 20
730.1270534862
 30
0.0
 11
365.7873938296
 21
727.3900007475
 31
0.0
  0
LINE
  5
2D4
330
1F
100
AcDbEntity
  8
0
  6
Continuous
 62
     7
370
    15
100
AcDbLine
 10
371.5908298704
 20
733.7245365251
 30
0.0
 11
371.7874059889
 21
732.8951229919
 31
0.0
  0
LINE
  5
2D5
330
1F
100
AcDbEntity
  8
0
  6
Continuous
 62
     7
370
    15
100
AcDbLine
 10
371.7874059889
 20
730.7307963837
 30
0.0
 11
371.5908298704
 21
729.9561222661
 31
0.0
  0
LINE
  5
2D6
330
1F
100
AcDbEntity
  8
0
  6
Continuous
 62
     7
370
    15
100
AcDbLine
 10
371.5908298704
 20
729.9561222661
 30
0.0
 11
367.2839770529
 21
729.9561222661
 31
0.0
  0
LWPOLYLINE
  5
2D7
330
1F
100
AcDbEntity
  8
0
  6
Continuous
 62
     7
370
    15
100
AcDbPolyline
 90
        3
 70
   128
 43
0.0
 10
366.8373892519
 20
731.8403293956
 10
366.8398330424
 20
731.7063977588
 10
367.2839770529
 20
729.9561222661
  0
LINE
  5
2D8
330
1F
100
AcDbEntity
  8
0
  6
Continuous
 62
     7
370
    15
100
AcDbLine
 10
367.2839770529
 20
733.7245365251
 30
0.0
 11
366.8373892519
 21
731.8403293956
 31
0.0
  0
LINE
  5
2D9
330
1F
100
AcDbEntity
  8
0
  6
Continuous
 62
     7
370
    15
100
AcDbLine
 10
371.5908298704
 20
733.7245365251
 30
0.0
 11
367.2839770529
 21
733.7245365251
 31
0.0
  0
LWPOLYLINE
  5
2DA
330
1F
100
AcDbEntity
  8
0
  6
Continuous
 62
     7
370
    15
100
AcDbPolyline
 90
        3
 70
   128
 43
0.0
 10
367.2839770529
 20
733.7245365251
 10
367.0946428988
 20
734.4412227739
 10
366.8373892519
 20
736.5606745351
  0
LINE
  5
2DB
330
1F
100
AcDbEntity
  8
0
  6
Continuous
 62
     7
370
    15
100
AcDbLine
 10
366.8373892519
 20
731.8403293956
 30
0.0
 11
366.8373892519
 21
736.5606745351
 31
0.0
  0
LWPOLYLINE
  5
2DC
330
1F
100
AcDbEntity
  8
0
  6
Continuous
 62
     7
370
    15
100
AcDbPolyline
 90
        3
 70
   128
 43
0.0
 10
371.5908298704
 20
733.7245365251
 10
371.7801640246
 20
734.4412227739
 10
371.7874059889
 20
734.5007827151
  0
LWPOLYLINE
  5
2DD
330
1F
100
AcDbEntity
  8
0
  6
Continuous
 62
     7
370
    15
100
AcDbPolyline
 90
        3
 70
   128
 43
0.0
 10
366.8373892519
 20
736.5606745351
 10
366.8728242132
 20
737.3324950803
 10
367.2839770529
 20
739.396797644
  0
LINE
  5
2DE
330
1F
100
AcDbEntity
  8
0
  6
Continuous
 62
     7
370
    15
100
AcDbLine
 10
371.5908298704
 20
739.396797644
 30
0.0
 11
367.2839770529
 21
739.396797644
 31
0.0
  0
LINE
  5
2DF
330
1F
100
AcDbEntity
  8
0
  6
Continuous
 62
     7
370
    15
100
AcDbLine
 10
371.7874059889
 20
738.4098341334
 30
0.0
 11
371.5908298704
 21
739.396797644
 31
0.0
  0
LWPOLYLINE
  5
2E0
330
1F
100
AcDbEntity
  8
0
  6
Continuous
 62
     7
370
    15
100
AcDbPolyline
 90
        3
 70
   128
 43
0.0
 10
366.8373892519
 20
740.3487136233
 10
366.8398330424
 20
740.2810474504
 10
367.2839770529
 20
739.396797644
  0
LINE
  5
2E1
330
1F
100
AcDbEntity
  8
0
  6
Continuous
 62
     7
370
    15
100
AcDbLine
 10
366.8373892519
 20
736.5606745351
 30
0.0
 11
366.8373892519
 21
740.3487136233
 31
0.0
  0
LINE
  5
2E2
330
1F
100
AcDbEntity
  8
0
  6
Continuous
 62
     7
370
    15
100
AcDbLine
 10
371.7874059889
 20
739.7881617416
 30
0.0
 11
371.5908298704
 21
739.396797644
 31
0.0
  0
LINE
  5
2E3
330
1F
100
AcDbEntity
  8
0
  6
Continuous
 62
     7
370
    15
100
AcDbLine
 10
371.5908298704
 20
741.3006296027
 30
0.0
 11
371.7667529795
 21
740.9255822766
 31
0.0
  0
LINE
  5
2E4
330
1F
100
AcDbEntity
  8
0
  6
Continuous
 62
     7
370
    15
100
AcDbLine
 10
367.2839770529
 20
741.3006296027
 30
0.0
 11
366.8373892519
 21
740.3487136233
 31
0.0
  0
LINE
  5
2E5
330
1F
100
AcDbEntity
  8
0
  6
Continuous
 62
     7
370
    15
100
AcDbLine
 10
371.5908298704
 20
741.3006296027
 30
0.0
 11
367.2839770529
 21
741.3006296027
 31
0.0
  0
LINE
  5
2E6
330
1F
100
AcDbEntity
  8
0
  6
Continuous
 62
     7
370
    15
100
AcDbLine
 10
367.2839770529
 20
729.9561222661
 30
0.0
 11
367.1080539438
 21
730.3311621416
 31
0.0
  0
LINE
  5
2E7
330
1F
100
AcDbEntity
  8
0
  6
Continuous
 62
     7
370
    15
100
AcDbLine
 10
366.8373892519
 20
730.6283732522
 30
0.0
 11
366.8373892519
 21
731.8403293956
 31
0.0
  0
LINE
  5
2E8
330
1F
100
AcDbEntity
  8
0
  6
Continuous
 62
     7
370
    15
100
AcDbLine
 10
371.5908298704
 20
729.9561222661
 30
0.0
 11
371.7667529795
 21
730.3311621416
 31
0.0
  0
LINE
  5
2E9
330
1F
100
AcDbEntity
  8
0
  6
Continuous
 62
     7
370
    15
100
AcDbLine
 10
366.8373892519
 20
740.3487136233
 30
0.0
 11
366.8373892519
 21
740.6283786166
 31
0.0
  0
LINE
  5
2EA
330
1F
100
AcDbEntity
  8
0
  6
Continuous
 62
     7
370
    15
100
AcDbLine
 10
366.1408195708
 20
741.1296983827
 30
0.0
 11
366.5874073717
 21
738.9958073962
 31
0.0
  0
LWPOLYLINE
  5
2EB
330
1F
100
AcDbEntity
  8
0
  6
Continuous
 62
     7
370
    15
100
AcDbPolyline
 90
        3
 70
   128
 43
0.0
 10
366.5874073717
 20
738.9958073962
 10
366.5849635813
 20
738.8441284764
 10
366.1408195708
 20
736.8619164098
  0
LINE
  5
2EC
330
1F
100
AcDbEntity
  8
0
  6
Continuous
 62
     7
370
    15
100
AcDbLine
 10
366.1408195708
 20
736.8619164098
 30
0.0
 11
361.8339965555
 21
736.8619164098
 31
0.0
  0
LWPOLYLINE
  5
2ED
330
1F
100
AcDbEntity
  8
0
  6
Continuous
 62
     7
370
    15
100
AcDbPolyline
 90
        3
 70
   128
 43
0.0
 10
361.3874087546
 20
738.9958073962
 10
361.3898227427
 20
738.8441284764
 10
361.8339965555
 20
736.8619164098
  0
LINE
  5
2EE
330
1F
100
AcDbEntity
  8
0
  6
Continuous
 62
     7
370
    15
100
AcDbLine
 10
361.4516625616
 20
739.302786218
 30
0.0
 11
361.3874087546
 21
738.9958073962
 31
0.0
  0
LINE
  5
2EF
330
1F
100
AcDbEntity
  8
0
  6
Continuous
 62
     7
370
    15
100
AcDbLine
 10
366.1408195708
 20
741.1296983827
 30
0.0
 11
365.7873938296
 21
741.1296983827
 31
0.0
  0
LWPOLYLINE
  5
2F0
330
1F
100
AcDbEntity
  8
0
  6
Continuous
 62
     7
370
    15
100
AcDbPolyline
 90
        3
 70
   128
 43
0.0
 10
361.3874087546
 20
734.1112663615
 10
361.4228139136
 20
734.8598261941
 10
361.8339965555
 20
736.8619164098
  0
LWPOLYLINE
  5
2F1
330
1F
100
AcDbEntity
  8
0
  6
Continuous
 62
     7
370
    15
100
AcDbPolyline
 90
        3
 70
   128
 43
0.0
 10
366.5874073717
 20
734.1112663615
 10
366.5520022127
 20
734.8598261941
 10
366.1408195708
 20
736.8619164098
  0
LINE
  5
2F2
330
1F
100
AcDbEntity
  8
0
  6
Continuous
 62
     7
370
    15
100
AcDbLine
 10
366.5874073717
 20
734.1112663615
 30
0.0
 11
366.5874073717
 21
738.9958073962
 31
0.0
  0
LWPOLYLINE
  5
2F3
330
1F
100
AcDbEntity
  8
0
  6
Continuous
 62
     7
370
    15
100
AcDbPolyline
 90
        3
 70
   128
 43
0.0
 10
366.1408195708
 20
731.3606014121
 10
366.3301835272
 20
732.0556958783
 10
366.5874073717
 20
734.1112663615
  0
LINE
  5
2F4
330
1F
100
AcDbEntity
  8
0
  6
Continuous
 62
     7
370
    15
100
AcDbLine
 10
366.1408195708
 20
731.3606014121
 30
0.0
 11
361.8339965555
 21
731.3606014121
 31
0.0
  0
LWPOLYLINE
  5
2F5
330
1F
100
AcDbEntity
  8
0
  6
Continuous
 62
     7
370
    15
100
AcDbPolyline
 90
        3
 70
   128
 43
0.0
 10
361.8339965555
 20
731.3606014121
 10
361.6446325991
 20
732.0556958783
 10
361.3874087546
 20
734.1112663615
  0
LINE
  5
2F6
330
1F
100
AcDbEntity
  8
0
  6
Continuous
 62
     7
370
    15
100
AcDbLine
 10
361.8339965555
 20
731.3606014121
 30
0.0
 11
361.3874087546
 21
730.7438274491
 31
0.0
  0
LINE
  5
2F7
330
1F
100
AcDbEntity
  8
0
  6
Continuous
 62
     7
370
    15
100
AcDbLine
 10
366.1408195708
 20
731.3606014121
 30
0.0
 11
366.5874073717
 21
730.7438274491
 31
0.0
  0
LINE
  5
2F8
330
1F
100
AcDbEntity
  8
0
  6
Continuous
 62
     7
370
    15
100
AcDbLine
 10
366.5874073717
 20
734.1112663615
 30
0.0
 11
366.5874073717
 21
730.7438274491
 31
0.0
  0
LINE
  5
2F9
330
1F
100
AcDbEntity
  8
0
  6
Continuous
 62
     7
370
    15
100
AcDbLine
 10
366.4382765505
 20
740.7459785808
 30
0.0
 11
366.1408195708
 21
741.1296983827
 31
0.0
  0
LINE
  5
2FA
330
1F
100
AcDbEntity
  8
0
  6
Continuous
 62
     7
370
    15
100
AcDbLine
 10
366.5874073717
 20
740.6283786166
 30
0.0
 11
366.5874073717
 21
738.9958073962
 31
0.0
  0
LWPOLYLINE
  5
2FB
330
1F
100
AcDbEntity
  8
0
  6
Continuous
 62
     7
370
    15
100
AcDbPolyline
 90
        3
 70
   128
 43
0.0
 10
366.5874073717
 20
730.7438274491
 10
366.5849635813
 20
730.6999882329
 10
366.1408195708
 20
730.1270534862
  0
LINE
  5
2FC
330
1F
100
AcDbEntity
  8
0
  6
Continuous
 62
     7
370
    15
100
AcDbLine
 10
366.1408195708
 20
730.1270534862
 30
0.0
 11
361.8339965555
 21
730.1270534862
 31
0.0
  0
LINE
  5
2FD
330
1F
100
AcDbEntity
  8
0
  6
Continuous
 62
     7
370
    15
100
AcDbLine
 10
361.5365097735
 20
730.5107658375
 30
0.0
 11
361.8339965555
 21
730.1270534862
 31
0.0
  0
LINE
  5
2FE
330
1F
100
AcDbEntity
  8
0
  6
Continuous
 62
     7
370
    15
100
AcDbLine
 10
366.5874073717
 20
730.7438274491
 30
0.0
 11
366.5874073717
 21
730.6283732522
 31
0.0
  0
LINE
  5
2FF
330
1F
100
AcDbEntity
  8
0
  6
Continuous
 62
     7
370
    15
100
AcDbLine
 10
358.5408101294
 20
740.2359565366
 30
0.0
 11
358.9873979304
 21
737.5776042808
 31
0.0
  0
LWPOLYLINE
  5
300
330
1F
100
AcDbEntity
  8
0
  6
Continuous
 62
     7
370
    15
100
AcDbPolyline
 90
        3
 70
   128
 43
0.0
 10
358.9873979304
 20
737.5776042808
 10
358.9849839422
 20
737.3886277545
 10
358.5408101294
 20
734.919252025
  0
LINE
  5
301
330
1F
100
AcDbEntity
  8
0
  6
Continuous
 62
     7
370
    15
100
AcDbLine
 10
358.5408101294
 20
734.919252025
 30
0.0
 11
354.2339871142
 21
734.919252025
 31
0.0
  0
LWPOLYLINE
  5
302
330
1F
100
AcDbEntity
  8
0
  6
Continuous
 62
     7
370
    15
100
AcDbPolyline
 90
        3
 70
   128
 43
0.0
 10
353.7873993132
 20
737.5776042808
 10
353.7898431036
 20
737.3886277545
 10
354.2339871142
 20
734.919252025
  0
LINE
  5
303
330
1F
100
AcDbEntity
  8
0
  6
Continuous
 62
     7
370
    15
100
AcDbLine
 10
354.2339871142
 20
740.2359565366
 30
0.0
 11
353.7873993132
 21
737.5776042808
 31
0.0
  0
LINE
  5
304
330
1F
100
AcDbEntity
  8
0
  6
Continuous
 62
     7
370
    15
100
AcDbLine
 10
358.5408101294
 20
740.2359565366
 30
0.0
 11
354.2339871142
 21
740.2359565366
 31
0.0
  0
LWPOLYLINE
  5
305
330
1F
100
AcDbEntity
  8
0
  6
Continuous
 62
     7
370
    15
100
AcDbPolyline
 90
        3
 70
   128
 43
0.0
 10
353.7873993132
 20
732.6154579986
 10
353.8228044722
 20
733.2424094546
 10
354.2339871142
 20
734.919252025
  0
LINE
  5
306
330
1F
100
AcDbEntity
  8
0
  6
Continuous
 62
     7
370
    15
100
AcDbLine
 10
353.7873993132
 20
732.6154579986
 30
0.0
 11
353.7873993132
 21
737.5776042808
 31
0.0
  0
LWPOLYLINE
  5
307
330
1F
100
AcDbEntity
  8
0
  6
Continuous
 62
     7
370
    15
100
AcDbPolyline
 90
        3
 70
   128
 43
0.0
 10
358.9873979304
 20
732.6154579986
 10
358.9519927714
 20
733.2424094546
 10
358.5408101294
 20
734.919252025
  0
LINE
  5
308
330
1F
100
AcDbEntity
  8
0
  6
Continuous
 62
     7
370
    15
100
AcDbLine
 10
358.7663243029
 20
731.1357577909
 30
0.0
 11
358.9873979304
 21
732.6154579986
 31
0.0
  0
LINE
  5
309
330
1F
100
AcDbEntity
  8
0
  6
Continuous
 62
     7
370
    15
100
AcDbLine
 10
354.5874128554
 20
730.3116714228
 30
0.0
 11
354.2339871142
 21
730.3116714228
 31
0.0
  0
LWPOLYLINE
  5
30A
330
1F
100
AcDbEntity
  8
0
  6
Continuous
 62
     7
370
    15
100
AcDbPolyline
 90
        3
 70
   128
 43
0.0
 10
354.2339871142
 20
730.3116714228
 10
354.0446231577
 20
730.8938225377
 10
353.7873993132
 20
732.6154579986
  0
LWPOLYLINE
  5
30B
330
1F
100
AcDbEntity
  8
0
  6
Continuous
 62
     7
370
    15
100
AcDbPolyline
 90
        3
 70
   128
 43
0.0
 10
358.9873979304
 20
740.590514766
 10
358.9849839422
 20
740.5653169025
 10
358.5408101294
 20
740.2359565366
  0
LWPOLYLINE
  5
30C
330
1F
100
AcDbEntity
  8
0
  6
Continuous
 62
     7
370
    15
100
AcDbPolyline
 90
        3
 70
   128
 43
0.0
 10
353.7873993132
 20
740.590514766
 10
353.7898431036
 20
740.5653169025
 10
354.2339871142
 20
740.2359565366
  0
LINE
  5
30D
330
1F
100
AcDbEntity
  8
0
  6
Continuous
 62
     7
370
    15
100
AcDbLine
 10
353.7873993132
 20
737.5776042808
 30
0.0
 11
353.7873993132
 21
740.590514766
 31
0.0
  0
LINE
  5
30E
330
1F
100
AcDbEntity
  8
0
  6
Continuous
 62
     7
370
    15
100
AcDbLine
 10
354.2339871142
 20
730.3116714228
 30
0.0
 11
353.7873993132
 21
730.6662296522
 31
0.0
  0
LINE
  5
30F
330
1F
100
AcDbEntity
  8
0
  6
Continuous
 62
     7
370
    15
100
AcDbLine
 10
353.7873993132
 20
732.6154579986
 30
0.0
 11
353.7873993132
 21
730.6285222638
 31
0.0
  0
LINE
  5
310
330
1F
100
AcDbEntity
  8
0
  6
Continuous
 62
     7
370
    15
100
AcDbLine
 10
358.5408101294
 20
740.9450878966
 30
0.0
 11
358.9873979304
 21
740.590514766
 31
0.0
  0
LINE
  5
311
330
1F
100
AcDbEntity
  8
0
  6
Continuous
 62
     7
370
    15
100
AcDbLine
 10
354.2339871142
 20
740.9450878966
 30
0.0
 11
353.7873993132
 21
740.590514766
 31
0.0
  0
LINE
  5
312
330
1F
100
AcDbEntity
  8
0
  6
Continuous
 62
     7
370
    15
100
AcDbLine
 10
358.5408101294
 20
740.9450878966
 30
0.0
 11
354.2339871142
 21
740.9450878966
 31
0.0
  0
LWPOLYLINE
  5
313
330
1F
100
AcDbEntity
  8
0
  6
Continuous
 62
     7
370
    15
100
AcDbPolyline
 90
        3
 70
   128
 43
0.0
 10
1077.7550707075
 20
685.6307929028
 10
1077.9819557879
 20
685.8338286746
 10
1077.9977510187
 20
685.8497654665
  0
LINE
  5
314
330
1F
100
AcDbEntity
  8
0
  6
Continuous
 62
     7
370
    15
100
AcDbLine
 10
1059.4654450629
 20
98.7283458579
 30
0.0
 11
1006.4654270623
 21
98.7283458579
 31
0.0
  0
LINE
  5
315
330
1F
100
AcDbEntity
  8
0
  6
Continuous
 62
     7
370
    15
100
AcDbLine
 10
1061.4654193136
 20
104.7283878196
 30
0.0
 11
1004.4654379103
 21
104.7283878196
 31
0.0
  0
LINE
  5
316
330
1F
100
AcDbEntity
  8
0
  6
Continuous
 62
     7
370
    15
100
AcDbLine
 10
472.4654326651
 20
104.7283878196
 30
0.0
 11
415.4654214594
 21
104.7283878196
 31
0.0
  0
LINE
  5
317
330
1F
100
AcDbEntity
  8
0
  6
Continuous
 62
     7
370
    15
100
AcDbLine
 10
470.465428612
 20
98.7283458579
 30
0.0
 11
417.4654255125
 21
98.7283458579
 31
0.0
  0
LINE
  5
318
330
1F
100
AcDbEntity
  8
0
  6
Continuous
 62
     7
370
    15
100
AcDbLine
 10
1067.9654250357
 20
266.7283882964
 30
0.0
 11
1067.9654250357
 21
268.7283625472
 31
0.0
  0
LINE
  5
319
330
1F
100
AcDbEntity
  8
0
  6
Continuous
 62
     7
370
    15
100
AcDbLine
 10
997.9654321882
 20
266.7283882964
 30
0.0
 11
1067.9654250357
 21
266.7283882964
 31
0.0
  0
LINE
  5
31A
330
1F
100
AcDbEntity
  8
0
  6
Continuous
 62
     7
370
    15
100
AcDbLine
 10
997.9654321882
 20
266.7283882964
 30
0.0
 11
997.9654321882
 21
268.7283625472
 31
0.0
  0
LINE
  5
31B
330
1F
100
AcDbEntity
  8
0
  6
Continuous
 62
     7
370
    15
100
AcDbLine
 10
1063.9250943873
 20
172.7283766139
 30
0.0
 11
1002.0057777378
 21
172.7283766139
 31
0.0
  0
LINE
  5
31C
330
1F
100
AcDbEntity
  8
0
  6
Continuous
 62
     7
370
    15
100
AcDbLine
 10
478.9654383871
 20
266.7283882964
 30
0.0
 11
478.9654383871
 21
268.7283625472
 31
0.0
  0
LINE
  5
31D
330
1F
100
AcDbEntity
  8
0
  6
Continuous
 62
     7
370
    15
100
AcDbLine
 10
408.9654455397
 20
266.7283882964
 30
0.0
 11
478.9654383871
 21
266.7283882964
 31
0.0
  0
LINE
  5
31E
330
1F
100
AcDbEntity
  8
0
  6
Continuous
 62
     7
370
    15
100
AcDbLine
 10
408.9654455397
 20
266.7283882964
 30
0.0
 11
408.9654455397
 21
268.7283625472
 31
0.0
  0
LINE
  5
31F
330
1F
100
AcDbEntity
  8
0
  6
Continuous
 62
     7
370
    15
100
AcDbLine
 10
474.9250779364
 20
172.7283766139
 30
0.0
 11
413.0057761881
 21
172.7283766139
 31
0.0
  0
LINE
  5
320
330
1F
100
AcDbEntity
  8
0
  6
CENTERX2
 62
     7
370
     0
100
AcDbLine
 10
331.2035816564
 20
1328.7283744953
 30
0.0
 11
431.1304714154
 21
1328.7283744953
 31
0.0
  0
LINE
  5
321
330
1F
100
AcDbEntity
  8
0
  6
CENTERX2
 62
     7
370
     0
100
AcDbLine
 10
372.1374039802
 20
1455.7283744953
 30
0.0
 11
371.8337093535
 21
1455.7283744953
 31
0.0
  0
LINE
  5
322
330
1F
100
AcDbEntity
  8
0
  6
CENTERX2
 62
     7
370
     0
100
AcDbLine
 10
443.965431613
 20
74.7283744953
 30
0.0
 11
443.965431613
 21
213.3798463578
 31
0.0
  0
LINE
  5
323
330
1F
100
AcDbEntity
  8
0
  6
CENTERX2
 62
     7
370
     0
100
AcDbLine
 10
1032.965431613
 20
213.3798463578
 30
0.0
 11
1032.965431613
 21
74.7283744953
 31
0.0
  0
ENDSEC
  0
SECTION
  2
OBJECTS
  0
DICTIONARY
  5
C
330
0
100
AcDbDictionary
281
     1
  3
ACAD_GROUP
350
D
  3
ACAD_LAYOUT
350
1A
  3
ACAD_MLINESTYLE
350
17
  3
ACAD_PLOTSETTINGS
350
19
  3
ACAD_PLOTSTYLENAME
350
E
  0
DICTIONARY
  5
D
102
{ACAD_REACTORS
330
C
102
}
330
C
100
AcDbDictionary
281
     1
  0
DICTIONARY
  5
1A
102
{ACAD_REACTORS
330
C
102
}
330
C
100
AcDbDictionary
281
     1
  3
Layout1
350
1E
  3
Layout2
350
26
  3
Model
350
22
  0
DICTIONARY
  5
17
102
{ACAD_REACTORS
330
C
102
}
330
C
100
AcDbDictionary
281
     1
  3
Standard
350
18
  0
DICTIONARY
  5
19
102
{ACAD_REACTORS
330
C
102
}
330
C
100
AcDbDictionary
281
     1
  0
ACDBDICTIONARYWDFLT
  5
E
102
{ACAD_REACTORS
330
C
102
}
330
C
100
AcDbDictionary
281
     1
  3
Normal
350
F
100
AcDbDictionaryWithDefault
340
F
  0
LAYOUT
  5
1E
102
{ACAD_REACTORS
330
1A
102
}
330
1A
100
AcDbPlotSettings
  1

  2
none_device
  4

  6

 40
0.0
 41
0.0
 42
0.0
 43
0.0
 44
0.0
 45
0.0
 46
0.0
 47
0.0
 48
0.0
 49
0.0
140
0.0
141
0.0
142
1.0
143
1.0
 70
   688
 72
     0
 73
     0
 74
     5
  7

 75
    16
147
1.0
148
0.0
149
0.0
100
AcDbLayout
  1
Layout1
 70
     1
 71
     1
 10
0.0
 20
0.0
 11
420.0
 21
297.0
 12
0.0
 22
0.0
 32
0.0
 14
1.0000000000E+20
 24
1.0000000000E+20
 34
1.0000000000E+20
 15
-1.0000000000E+20
 25
-1.0000000000E+20
 35
-1.0000000000E+20
146
0.0
 13
0.0
 23
0.0
 33
0.0
 16
1.0
 26
0.0
 36
0.0
 17
0.0
 27
1.0
 37
0.0
 76
     0
330
1B
  0
LAYOUT
  5
26
102
{ACAD_REACTORS
330
1A
102
}
330
1A
100
AcDbPlotSettings
  1

  2
none_device
  4

  6

 40
0.0
 41
0.0
 42
0.0
 43
0.0
 44
0.0
 45
0.0
 46
0.0
 47
0.0
 48
0.0
 49
0.0
140
0.0
141
0.0
142
1.0
143
1.0
 70
   688
 72
     0
 73
     0
 74
     5
  7

 75
    16
147
1.0
148
0.0
149
0.0
100
AcDbLayout
  1
Layout2
 70
     1
 71
     2
 10
0.0
 20
0.0
 11
0.0
 21
0.0
 12
0.0
 22
0.0
 32
0.0
 14
0.0
 24
0.0
 34
0.0
 15
0.0
 25
0.0
 35
0.0
146
0.0
 13
0.0
 23
0.0
 33
0.0
 16
1.0
 26
0.0
 36
0.0
 17
0.0
 27
1.0
 37
0.0
 76
     0
330
23
  0
LAYOUT
  5
22
102
{ACAD_REACTORS
330
1A
102
}
330
1A
100
AcDbPlotSettings
  1

  2
none_device
  4

  6

 40
0.0
 41
0.0
 42
0.0
 43
0.0
 44
0.0
 45
0.0
 46
0.0
 47
0.0
 48
0.0
 49
0.0
140
0.0
141
0.0
142
1.0
143
1.0
 70
  1712
 72
     0
 73
     0
 74
     0
  7

 75
     0
147
1.0
148
0.0
149
0.0
100
AcDbLayout
  1
Model
 70
     1
 71
     0
 10
0.0
 20
0.0
 11
1500.0
 21
1500.0
 12
0.0
 22
0.0
 32
0.0
 14
0.0
 24
0.0
 34
0.0
 15
1500.0
 25
1500.0
 35
0.0
146
0.0
 13
0.0
 23
0.0
 33
0.0
 16
1.0
 26
0.0
 36
0.0
 17
0.0
 27
1.0
 37
0.0
 76
     0
330
1F
331
29
  0
MLINESTYLE
  5
18
102
{ACAD_REACTORS
330
17
102
}
330
17
100
AcDbMlineStyle
  2
Standard
 70
     0
  3

 62
   256
 51
90.0
 52
90.0
 71
     2
 49
0.5
 62
   256
  6
BYLAYER
 49
-0.5
 62
   256
  6
BYLAYER
  0
ACDBPLACEHOLDER
  5
F
102
{ACAD_REACTORS
330
E
102
}
330
E
  0
ENDSEC
  0
EOF
