  0
SECTION
  2
HEADER
  9
$ACADVER
  1
AC1015
  9
$ACADMAINTVER
 70
     6
  9
$DWGCODEPAGE
  3
ANSI_1252
  9
$INSBASE
 10
0.0
 20
0.0
 30
0.0
  9
$EXTMIN
 10
0.0
 20
0.0
 30
0.0
  9
$EXTMAX
 10
1500.0
 20
1500.0
 30
0.0
  9
$LIMMIN
 10
0.0
 20
0.0
  9
$LIMMAX
 10
1500.0
 20
1500.0
  9
$ORTHOMODE
 70
     0
  9
$REGENMODE
 70
     1
  9
$FILLMODE
 70
     1
  9
$QTEXTMODE
 70
     0
  9
$MIRRTEXT
 70
     1
  9
$LTSCALE
 40
1.0
  9
$ATTMODE
 70
     1
  9
$TEXTSIZE
 40
3.5
  9
$TRACEWID
 40
1.0
  9
$TEXTSTYLE
  7
Standard
  9
$CLAYER
  8
0
  9
$CELTYPE
  6
ByLayer
  9
$CECOLOR
 62
   256
  9
$CELTSCALE
 40
1.0
  9
$DISPSILH
 70
     0
  9
$DIMSCALE
 40
1.0
  9
$DIMASZ
 40
3.302
  9
$DIMEXO
 40
1.0
  9
$DIMDLI
 40
3.75
  9
$DIMRND
 40
0.0
  9
$DIMDLE
 40
0.0
  9
$DIMEXE
 40
1.0
  9
$DIMTP
 40
0.0
  9
$DIMTM
 40
0.0
  9
$DIMTXT
 40
3.5
  9
$DIMCEN
 40
2.5
  9
$DIMTSZ
 40
0.0
  9
$DIMTOL
 70
     0
  9
$DIMLIM
 70
     0
  9
$DIMTIH
 70
     1
  9
$DIMTOH
 70
     1
  9
$DIMSE1
 70
     0
  9
$DIMSE2
 70
     0
  9
$DIMTAD
 70
     1
  9
$DIMZIN
 70
     0
  9
$DIMBLK
  1

  9
$DIMASO
 70
     1
  9
$DIMSHO
 70
     1
  9
$DIMPOST
  1

  9
$DIMAPOST
  1

  9
$DIMALT
 70
     0
  9
$DIMALTD
 70
     3
  9
$DIMALTF
 40
0.0393700787
  9
$DIMLFAC
 40
1.0
  9
$DIMTOFL
 70
     1
  9
$DIMTVP
 40
0.0
  9
$DIMTIX
 70
     0
  9
$DIMSOXD
 70
     0
  9
$DIMSAH
 70
     0
  9
$DIMBLK1
  1

  9
$DIMBLK2
  1

  9
$DIMSTYLE
  2
ISO-25
  9
$DIMCLRD
 70
     0
  9
$DIMCLRE
 70
     0
  9
$DIMCLRT
 70
     0
  9
$DIMTFAC
 40
1.0
  9
$DIMGAP
 40
1.524
  9
$DIMJUST
 70
     0
  9
$DIMSD1
 70
     0
  9
$DIMSD2
 70
     0
  9
$DIMTOLJ
 70
     0
  9
$DIMTZIN
 70
     0
  9
$DIMALTZ
 70
     0
  9
$DIMALTTZ
 70
     0
  9
$DIMUPT
 70
     0
  9
$DIMDEC
 70
     1
  9
$DIMTDEC
 70
     1
  9
$DIMALTU
 70
     2
  9
$DIMALTTD
 70
     3
  9
$DIMTXSTY
  7
Standard
  9
$DIMAUNIT
 70
     0
  9
$DIMADEC
 70
     1
  9
$DIMALTRND
 40
0.0
  9
$DIMAZIN
 70
     0
  9
$DIMDSEP
 70
    44
  9
$DIMATFIT
 70
     3
  9
$DIMFRAC
 70
     0
  9
$DIMLDRBLK
  1

  9
$DIMLUNIT
 70
     2
  9
$DIMLWD
 70
    -2
  9
$DIMLWE
 70
    -2
  9
$DIMTMOVE
 70
     0
  9
$LUNITS
 70
     2
  9
$LUPREC
 70
     1
  9
$SKETCHINC
 40
1.0
  9
$FILLETRAD
 40
10.0
  9
$AUNITS
 70
     0
  9
$AUPREC
 70
     1
  9
$MENU
  1
.
  9
$ELEVATION
 40
0.0
  9
$PELEVATION
 40
0.0
  9
$THICKNESS
 40
0.0
  9
$LIMCHECK
 70
     0
  9
$CHAMFERA
 40
10.0
  9
$CHAMFERB
 40
10.0
  9
$CHAMFERC
 40
20.0
  9
$CHAMFERD
 40
0.0
  9
$SKPOLY
 70
     0
  9
$TDCREATE
 40
2456049.316458252
  9
$TDUCREATE
 40
2456049.274791586
  9
$TDUPDATE
 40
2456049.316458981
  9
$TDUUPDATE
 40
2456049.274792315
  9
$TDINDWG
 40
0.0000000116
  9
$TDUSRTIMER
 40
0.0000000116
  9
$USRTIMER
 70
     1
  9
$ANGBASE
 50
0.0
  9
$ANGDIR
 70
     0
  9
$PDMODE
 70
     0
  9
$PDSIZE
 40
-1.0
  9
$PLINEWID
 40
0.0
  9
$SPLFRAME
 70
     0
  9
$SPLINETYPE
 70
     6
  9
$SPLINESEGS
 70
     8
  9
$HANDSEED
  5
52C
  9
$SURFTAB1
 70
     6
  9
$SURFTAB2
 70
     6
  9
$SURFTYPE
 70
     6
  9
$SURFU
 70
     6
  9
$SURFV
 70
     6
  9
$UCSBASE
  2

  9
$UCSNAME
  2

  9
$UCSORG
 10
0.0
 20
0.0
 30
0.0
  9
$UCSXDIR
 10
1.0
 20
0.0
 30
0.0
  9
$UCSYDIR
 10
0.0
 20
1.0
 30
0.0
  9
$UCSORTHOREF
  2

  9
$UCSORTHOVIEW
 70
     0
  9
$UCSORGTOP
 10
0.0
 20
0.0
 30
0.0
  9
$UCSORGBOTTOM
 10
0.0
 20
0.0
 30
0.0
  9
$UCSORGLEFT
 10
0.0
 20
0.0
 30
0.0
  9
$UCSORGRIGHT
 10
0.0
 20
0.0
 30
0.0
  9
$UCSORGFRONT
 10
0.0
 20
0.0
 30
0.0
  9
$UCSORGBACK
 10
0.0
 20
0.0
 30
0.0
  9
$PUCSBASE
  2

  9
$PUCSNAME
  2

  9
$PUCSORG
 10
0.0
 20
0.0
 30
0.0
  9
$PUCSXDIR
 10
1.0
 20
0.0
 30
0.0
  9
$PUCSYDIR
 10
0.0
 20
1.0
 30
0.0
  9
$PUCSORTHOREF
  2

  9
$PUCSORTHOVIEW
 70
     0
  9
$PUCSORGTOP
 10
0.0
 20
0.0
 30
0.0
  9
$PUCSORGBOTTOM
 10
0.0
 20
0.0
 30
0.0
  9
$PUCSORGLEFT
 10
0.0
 20
0.0
 30
0.0
  9
$PUCSORGRIGHT
 10
0.0
 20
0.0
 30
0.0
  9
$PUCSORGFRONT
 10
0.0
 20
0.0
 30
0.0
  9
$PUCSORGBACK
 10
0.0
 20
0.0
 30
0.0
  9
$USERI1
 70
     0
  9
$USERI2
 70
     0
  9
$USERI3
 70
     0
  9
$USERI4
 70
     0
  9
$USERI5
 70
     0
  9
$USERR1
 40
0.0
  9
$USERR2
 40
0.0
  9
$USERR3
 40
0.0
  9
$USERR4
 40
0.0
  9
$USERR5
 40
0.0
  9
$WORLDVIEW
 70
     1
  9
$SHADEDGE
 70
     3
  9
$SHADEDIF
 70
    70
  9
$TILEMODE
 70
     1
  9
$MAXACTVP
 70
    64
  9
$PINSBASE
 10
0.0
 20
0.0
 30
0.0
  9
$PLIMCHECK
 70
     0
  9
$PEXTMIN
 10
1.0000000000E+20
 20
1.0000000000E+20
 30
1.0000000000E+20
  9
$PEXTMAX
 10
-1.0000000000E+20
 20
-1.0000000000E+20
 30
-1.0000000000E+20
  9
$PLIMMIN
 10
0.0
 20
0.0
  9
$PLIMMAX
 10
420.0
 20
297.0
  9
$UNITMODE
 70
     0
  9
$VISRETAIN
 70
     1
  9
$PLINEGEN
 70
     0
  9
$PSLTSCALE
 70
     1
  9
$TREEDEPTH
 70
  3020
  9
$CMLSTYLE
  2
Standard
  9
$CMLJUST
 70
     0
  9
$CMLSCALE
 40
20.0
  9
$PROXYGRAPHICS
 70
     1
  9
$MEASUREMENT
 70
     1
  9
$CELWEIGHT
370
    -1
  9
$ENDCAPS
280
     0
  9
$JOINSTYLE
280
     0
  9
$LWDISPLAY
290
     1
  9
$INSUNITS
 70
     4
  9
$HYPERLINKBASE
  1

  9
$STYLESHEET
  1

  9
$XEDIT
290
     1
  9
$CEPSNTYPE
380
     0
  9
$PSTYLEMODE
290
     1
  9
$FINGERPRINTGUID
  2
{0A11749C-0647-498E-A328-CEAFFD528CB8}
  9
$VERSIONGUID
  2
{FAEB1C32-E019-11D5-929B-00C0DF256EC4}
  9
$EXTNAMES
290
     1
  9
$PSVPSCALE
 40
0.0
  9
$OLESTARTUP
290
     0
  0
ENDSEC
  0
SECTION
  2
CLASSES
  0
CLASS
  1
ACDBDICTIONARYWDFLT
  2
AcDbDictionaryWithDefault
  3
ObjectDBX Classes
 90
        0
280
     0
281
     0
  0
CLASS
  1
VISUALSTYLE
  2
AcDbVisualStyle
  3
ObjectDBX Classes
 90
     4095
280
     0
281
     0
  0
CLASS
  1
MATERIAL
  2
AcDbMaterial
  3
ObjectDBX Classes
 90
     1153
280
     0
281
     0
  0
CLASS
  1
ACDBPLACEHOLDER
  2
AcDbPlaceHolder
  3
ObjectDBX Classes
 90
        0
280
     0
281
     0
  0
CLASS
  1
LAYOUT
  2
AcDbLayout
  3
ObjectDBX Classes
 90
        0
280
     0
281
     0
  0
ENDSEC
  0
SECTION
  2
TABLES
  0
TABLE
  2
VPORT
  5
8
330
0
100
AcDbSymbolTable
 70
     1
  0
VPORT
  5
29
330
8
100
AcDbSymbolTableRecord
100
AcDbViewportTableRecord
  2
*Active
 70
     0
 10
0.0
 20
0.0
 11
1.0
 21
1.0
 12
750.0
 22
750.0
 13
0.0
 23
0.0
 14
10.0
 24
10.0
 15
10.0
 25
10.0
 16
0.0
 26
0.0
 36
1.0
 17
0.0
 27
0.0
 37
0.0
 40
1500.0
 41
1.0
 42
50.0
 43
0.0
 44
0.0
 50
0.0
 51
0.0
 71
     0
 72
  2000
 73
     1
 74
     3
 75
     0
 76
     0
 77
     0
 78
     0
281
     0
 65
     1
110
0.0
120
0.0
130
0.0
111
1.0
121
0.0
131
0.0
112
0.0
122
1.0
132
0.0
 79
     0
146
0.0
  0
ENDTAB
  0
TABLE
  2
LTYPE
  5
5
330
0
100
AcDbSymbolTable
 70
     6
  0
LTYPE
  5
14
330
5
100
AcDbSymbolTableRecord
100
AcDbLinetypeTableRecord
  2
ByBlock
 70
     0
  3

 72
    65
 73
     0
 40
0.0
  0
LTYPE
  5
15
330
5
100
AcDbSymbolTableRecord
100
AcDbLinetypeTableRecord
  2
ByLayer
 70
     0
  3

 72
    65
 73
     0
 40
0.0
  0
LTYPE
  5
16
330
5
100
AcDbSymbolTableRecord
100
AcDbLinetypeTableRecord
  2
Continuous
 70
     0
  3
Solid line
 72
    65
 73
     0
 40
0.0
  0
LTYPE
  5
3F
330
5
100
AcDbSymbolTableRecord
100
AcDbLinetypeTableRecord
  2
HIDDEN
 70
     0
  3
Hidden __ __ __ __ __ __ __ __ __ __ __ __ __ __
 72
    65
 73
     2
 40
1.905
 49
1.27
 74
     0
 49
-0.635
 74
     0
  0
LTYPE
  5
40
330
5
100
AcDbSymbolTableRecord
100
AcDbLinetypeTableRecord
  2
PHANTOM
 70
     0
  3
Phantom ______  __  __  ______  __  __  ______
 72
    65
 73
     6
 40
12.7
 49
6.35
 74
     0
 49
-1.27
 74
     0
 49
1.27
 74
     0
 49
-1.27
 74
     0
 49
1.27
 74
     0
 49
-1.27
 74
     0
  0
LTYPE
  5
41
330
5
100
AcDbSymbolTableRecord
100
AcDbLinetypeTableRecord
  2
CENTER
 70
     0
  3
Center ____ _ ____ _ ____ _ ____ _ ____ _ ____
 72
    65
 73
     4
 40
10.16
 49
6.35
 74
     0
 49
-1.27
 74
     0
 49
1.27
 74
     0
 49
-1.27
 74
     0
  0
LTYPE
  5
42
330
5
100
AcDbSymbolTableRecord
100
AcDbLinetypeTableRecord
  2
CENTERX2
 70
     0
  3
Center (2x) ________  __  ________  __  _____
 72
    65
 73
     4
 40
20.32
 49
12.7
 74
     0
 49
-2.54
 74
     0
 49
2.54
 74
     0
 49
-2.54
 74
     0
  0
LTYPE
  5
43
330
5
100
AcDbSymbolTableRecord
100
AcDbLinetypeTableRecord
  2
DOT2
 70
     0
  3
Dot (.5x) ........................................
 72
    65
 73
     2
 40
0.635
 49
0.0
 74
     0
 49
-0.635
 74
     0
  0
ENDTAB
  0
TABLE
  2
LAYER
  5
2
330
0
100
AcDbSymbolTable
 70
     4
  0
LAYER
  5
10
330
2
100
AcDbSymbolTableRecord
100
AcDbLayerTableRecord
  2
0
 70
     0
 62
     7
  6
Continuous
370
    -3
390
F
  0
LAYER
  5
44
330
2
100
AcDbSymbolTableRecord
100
AcDbLayerTableRecord
  2
FORMAT
 70
     0
 62
     7
  6
Continuous
370
    -3
390
F
  0
LAYER
  5
45
330
2
100
AcDbSymbolTableRecord
100
AcDbLayerTableRecord
  2
SLD-0
 70
     0
 62
     1
  6
Continuous
370
    -3
390
F
  0
LAYER
  5
46
330
2
100
AcDbSymbolTableRecord
100
AcDbLayerTableRecord
  2
WATERMARK
 70
     0
 62
    20
  6
Continuous
370
    -3
390
F
  0
ENDTAB
  0
TABLE
  2
STYLE
  5
3
330
0
100
AcDbSymbolTable
 70
     1
  0
STYLE
  5
11
330
3
100
AcDbSymbolTableRecord
100
AcDbTextStyleTableRecord
  2
Standard
 70
     0
 40
0.0
 41
1.0
 50
0.0
 71
     0
 42
3.5
  3
txt
  4

  0
ENDTAB
  0
TABLE
  2
VIEW
  5
6
330
0
100
AcDbSymbolTable
 70
     0
  0
ENDTAB
  0
TABLE
  2
UCS
  5
7
330
0
100
AcDbSymbolTable
 70
     0
  0
ENDTAB
  0
TABLE
  2
APPID
  5
9
330
0
100
AcDbSymbolTable
 70
     1
  0
APPID
  5
12
330
9
100
AcDbSymbolTableRecord
100
AcDbRegAppTableRecord
  2
ACAD
 70
     0
  0
ENDTAB
  0
TABLE
  2
DIMSTYLE
  5
A
330
0
100
AcDbSymbolTable
 70
     1
100
AcDbDimStyleTable
  0
DIMSTYLE
105
27
330
A
100
AcDbSymbolTableRecord
100
AcDbDimStyleTableRecord
  2
ISO-25
 70
     0
 41
2.5
 42
0.625
 43
3.75
 44
1.25
 73
     0
 74
     0
 77
     1
 78
     8
140
2.5
141
2.5
143
0.0393700787
147
0.625
171
     3
172
     1
178
     0
271
     2
272
     2
274
     3
278
    44
283
     0
284
     8
340
11
  0
ENDTAB
  0
TABLE
  2
BLOCK_RECORD
  5
1
330
0
100
AcDbSymbolTable
 70
     1
  0
BLOCK_RECORD
  5
1F
330
1
100
AcDbSymbolTableRecord
100
AcDbBlockTableRecord
  2
*Model_Space
340
22
  0
BLOCK_RECORD
  5
1B
330
1
100
AcDbSymbolTableRecord
100
AcDbBlockTableRecord
  2
*Paper_Space
340
1E
  0
BLOCK_RECORD
  5
23
330
1
100
AcDbSymbolTableRecord
100
AcDbBlockTableRecord
  2
*Paper_Space0
340
26
  0
ENDTAB
  0
ENDSEC
  0
SECTION
  2
BLOCKS
  0
BLOCK
  5
20
330
1F
100
AcDbEntity
  8
0
100
AcDbBlockBegin
  2
*Model_Space
 70
     0
 10
0.0
 20
0.0
 30
0.0
  3
*Model_Space
  1

  0
ENDBLK
  5
21
330
1F
100
AcDbEntity
  8
0
100
AcDbBlockEnd
  0
BLOCK
  5
1C
330
1B
100
AcDbEntity
 67
     1
  8
0
100
AcDbBlockBegin
  2
*Paper_Space
 70
     0
 10
0.0
 20
0.0
 30
0.0
  3
*Paper_Space
  1

  0
ENDBLK
  5
1D
330
1B
100
AcDbEntity
 67
     1
  8
0
100
AcDbBlockEnd
  0
BLOCK
  5
24
330
23
100
AcDbEntity
  8
0
100
AcDbBlockBegin
  2
*Paper_Space0
 70
     0
 10
0.0
 20
0.0
 30
0.0
  3
*Paper_Space0
  1

  0
ENDBLK
  5
25
330
23
100
AcDbEntity
  8
0
100
AcDbBlockEnd
  0
ENDSEC
  0
SECTION
  2
ENTITIES
  0
LINE
  5
47
330
1F
100
AcDbEntity
  8
0
  6
Continuous
 62
     7
370
    15
100
AcDbLine
 10
1142.8476186809
 20
298.0016123697
 30
0.0
 11
1143.3476420459
 21
298.0016123697
 31
0.0
  0
LINE
  5
48
330
1F
100
AcDbEntity
  8
0
  6
Continuous
 62
     7
370
    15
100
AcDbLine
 10
1143.3476420459
 20
308.401609604
 30
0.0
 11
1142.8476186809
 21
308.401609604
 31
0.0
  0
LINE
  5
49
330
1F
100
AcDbEntity
  8
0
  6
Continuous
 62
     7
370
    15
100
AcDbLine
 10
365.8476384697
 20
308.401609604
 30
0.0
 11
365.347644907
 21
308.401609604
 31
0.0
  0
LINE
  5
4A
330
1F
100
AcDbEntity
  8
0
  6
Continuous
 62
     7
370
    15
100
AcDbLine
 10
365.347644907
 20
298.0016123697
 30
0.0
 11
365.8476384697
 21
298.0016123697
 31
0.0
  0
LINE
  5
4B
330
1F
100
AcDbEntity
  8
0
  6
Continuous
 62
     7
370
    15
100
AcDbLine
 10
878.847627562
 20
1226.208860819
 30
0.0
 11
878.847627562
 21
1226.1995028898
 31
0.0
  0
LINE
  5
4C
330
1F
100
AcDbEntity
  8
0
  6
Continuous
 62
     7
370
    15
100
AcDbLine
 10
883.8476302442
 20
1226.1995028898
 30
0.0
 11
883.8476302442
 21
1226.208860819
 31
0.0
  0
LINE
  5
4D
330
1F
100
AcDbEntity
  8
0
  6
Continuous
 62
     7
370
    15
100
AcDbLine
 10
356.3476415691
 20
734.3016218588
 30
0.0
 11
356.3476415691
 21
729.6368580505
 31
0.0
  0
LINE
  5
4E
330
1F
100
AcDbEntity
  8
0
  6
Continuous
 62
     7
370
    15
100
AcDbLine
 10
1140.3476210651
 20
734.3016218588
 30
0.0
 11
1140.3476210651
 21
729.6368580505
 31
0.0
  0
LINE
  5
4F
330
1F
100
AcDbEntity
  8
0
  6
Continuous
 62
     7
370
    15
100
AcDbLine
 10
356.3476415691
 20
737.1015202448
 30
0.0
 11
356.3476415691
 21
734.3016218588
 31
0.0
  0
LINE
  5
50
330
1F
100
AcDbEntity
  8
0
  6
Continuous
 62
     7
370
    15
100
AcDbLine
 10
368.3476360855
 20
729.6368580505
 30
0.0
 11
368.3476360855
 21
734.3016218588
 31
0.0
  0
LINE
  5
51
330
1F
100
AcDbEntity
  8
0
  6
Continuous
 62
     7
370
    15
100
AcDbLine
 10
1152.3476155815
 20
729.6368580505
 30
0.0
 11
1152.3476155815
 21
734.3016218588
 31
0.0
  0
LINE
  5
52
330
1F
100
AcDbEntity
  8
0
  6
Continuous
 62
     7
370
    15
100
AcDbLine
 10
368.3476360855
 20
734.3016218588
 30
0.0
 11
368.3476360855
 21
737.1015202448
 31
0.0
  0
LINE
  5
53
330
1F
100
AcDbEntity
  8
0
  6
Continuous
 62
     7
370
    15
100
AcDbLine
 10
1152.3476155815
 20
734.3016218588
 30
0.0
 11
1152.3476155815
 21
737.1015202448
 31
0.0
  0
LINE
  5
54
330
1F
100
AcDbEntity
  8
0
  6
Continuous
 62
     7
370
    15
100
AcDbLine
 10
1140.3476210651
 20
737.1015202448
 30
0.0
 11
1140.3476210651
 21
734.3016218588
 31
0.0
  0
LINE
  5
55
330
1F
100
AcDbEntity
  8
0
  6
Continuous
 62
     7
370
    15
100
AcDbLine
 10
1176.2476178226
 20
1281.2404584333
 30
0.0
 11
1176.2476178226
 21
1285.5666827604
 31
0.0
  0
LINE
  5
56
330
1F
100
AcDbEntity
  8
0
  6
Continuous
 62
     7
370
    15
100
AcDbLine
 10
1165.4476436195
 20
1285.5666827604
 30
0.0
 11
1165.4476436195
 21
1281.2404584333
 31
0.0
  0
LINE
  5
57
330
1F
100
AcDbEntity
  8
0
  6
Continuous
 62
     7
370
    15
100
AcDbLine
 10
1183.9476438579
 20
1280.2206825658
 30
0.0
 11
1183.9476438579
 21
1281.0143780157
 31
0.0
  0
LINE
  5
58
330
1F
100
AcDbEntity
  8
0
  6
Continuous
 62
     7
370
    15
100
AcDbLine
 10
1157.7476175842
 20
1281.0143780157
 30
0.0
 11
1157.7476175842
 21
1280.2206825658
 31
0.0
  0
LINE
  5
59
330
1F
100
AcDbEntity
  8
0
  6
Continuous
 62
     7
370
    15
100
AcDbLine
 10
485.0476296959
 20
547.2014051124
 30
0.0
 11
485.0476296959
 21
547.7013986751
 31
0.0
  0
LINE
  5
5A
330
1F
100
AcDbEntity
  8
0
  6
Continuous
 62
     7
370
    15
100
AcDbLine
 10
474.6476324615
 20
547.7013986751
 30
0.0
 11
474.6476324615
 21
547.2014051124
 31
0.0
  0
LINE
  5
5B
330
1F
100
AcDbEntity
  8
0
  6
Continuous
 62
     7
370
    15
100
AcDbLine
 10
1034.0476246891
 20
547.2014051124
 30
0.0
 11
1034.0476246891
 21
547.7013986751
 31
0.0
  0
LINE
  5
5C
330
1F
100
AcDbEntity
  8
0
  6
Continuous
 62
     7
370
    15
100
AcDbLine
 10
1023.6476274547
 20
547.7013986751
 30
0.0
 11
1023.6476274547
 21
547.2014051124
 31
0.0
  0
ARC
  5
5D
330
1F
100
AcDbEntity
  8
0
  6
Continuous
 62
     7
370
    15
100
AcDbCircle
 10
1156.0221742659
 20
1316.3761606555
 30
0.0
 40
0.9745441101795222
100
AcDbArc
 50
180.0
 51
270.0
  0
LINE
  5
5E
330
1F
100
AcDbEntity
  8
0
  6
Continuous
 62
     7
370
    15
100
AcDbLine
 10
1156.5424712715
 20
1315.4016088888
 30
0.0
 11
1156.0221823272
 21
1315.4016088888
 31
0.0
  0
LINE
  5
5F
330
1F
100
AcDbEntity
  8
0
  6
Continuous
 62
     7
370
    15
100
AcDbLine
 10
456.5868290481
 20
1107.1015548154
 30
0.0
 11
1052.5599034843
 21
1107.1015548154
 31
0.0
  0
LINE
  5
60
330
1F
100
AcDbEntity
  8
0
  6
Continuous
 62
     7
370
    15
100
AcDbLine
 10
1051.9634994087
 20
1147.1015166685
 30
0.0
 11
456.6548677501
 21
1147.1015166685
 31
0.0
  0
LINE
  5
61
330
1F
100
AcDbEntity
  8
0
  6
Continuous
 62
     7
370
    15
100
AcDbLine
 10
1204.3476315555
 20
1418.7310885831
 30
0.0
 11
304.3476255951
 21
1418.7310885831
 31
0.0
  0
ARC
  5
62
330
1F
100
AcDbEntity
  8
0
  6
Continuous
 62
     7
370
    15
100
AcDbCircle
 10
866.9824334162
 20
1272.7941618213
 30
0.0
 40
1.000000000000102
100
AcDbArc
 50
10.3016237991
 51
15.1243958777
  0
ARC
  5
63
330
1F
100
AcDbEntity
  8
0
  6
Continuous
 62
     7
370
    15
100
AcDbCircle
 10
845.7128268953
 20
1272.7941618213
 30
0.0
 40
1.000000000000102
100
AcDbArc
 50
164.8756041223
 51
169.6983762009
  0
ARC
  5
64
330
1F
100
AcDbEntity
  8
0
  6
Continuous
 62
     7
370
    15
100
AcDbCircle
 10
855.8476301558
 20
1306.1774150623
 30
0.0
 40
1.0
100
AcDbArc
 50
180.0
 51
229.7562252183
  0
ARC
  5
65
330
1F
100
AcDbEntity
  8
0
  6
Continuous
 62
     7
370
    15
100
AcDbCircle
 10
856.8476301558
 20
1306.1774150623
 30
0.0
 40
1.00000000000004
100
AcDbArc
 50
306.6480530193
 51
0.0
  0
LINE
  5
66
330
1F
100
AcDbEntity
  8
0
  6
Continuous
 62
     7
370
    15
100
AcDbLine
 10
1156.8476172504
 20
64.4016217634
 30
0.0
 11
1156.8476172504
 21
68.4016298696
 31
0.0
  0
LINE
  5
67
330
1F
100
AcDbEntity
  8
0
  6
Continuous
 62
     7
370
    15
100
AcDbLine
 10
1099.8476358471
 20
68.4016298696
 30
0.0
 11
1099.8476358471
 21
64.4016217634
 31
0.0
  0
ARC
  5
68
330
1F
100
AcDbEntity
  8
0
  6
Continuous
 62
     7
370
    15
100
AcDbCircle
 10
1154.8476301558
 20
64.4016165453
 30
0.0
 40
2.000000000000007
100
AcDbArc
 50
270.0
 51
0.0
  0
ARC
  5
69
330
1F
100
AcDbEntity
  8
0
  6
Continuous
 62
     7
370
    15
100
AcDbCircle
 10
1101.8476301558
 20
64.4016165453
 30
0.0
 40
2.000000000000007
100
AcDbArc
 50
180.0
 51
270.0
  0
ARC
  5
6A
330
1F
100
AcDbEntity
  8
0
  6
Continuous
 62
     7
370
    15
100
AcDbCircle
 10
406.8476301558
 20
64.4016165453
 30
0.0
 40
2.000000000000007
100
AcDbArc
 50
270.0
 51
0.0
  0
ARC
  5
6B
330
1F
100
AcDbEntity
  8
0
  6
Continuous
 62
     7
370
    15
100
AcDbCircle
 10
353.8476301558
 20
64.4016165453
 30
0.0
 40
2.000000000000007
100
AcDbArc
 50
180.0
 51
270.0
  0
LINE
  5
6C
330
1F
100
AcDbEntity
  8
0
  6
Continuous
 62
     7
370
    15
100
AcDbLine
 10
408.8476213035
 20
64.4016217634
 30
0.0
 11
408.8476213035
 21
68.4016298696
 31
0.0
  0
LINE
  5
6D
330
1F
100
AcDbEntity
  8
0
  6
Continuous
 62
     7
370
    15
100
AcDbLine
 10
351.8476399002
 20
68.4016298696
 30
0.0
 11
351.8476399002
 21
64.4016217634
 31
0.0
  0
LINE
  5
6E
330
1F
100
AcDbEntity
  8
0
  6
Continuous
 62
     7
370
    15
100
AcDbLine
 10
408.647617918
 20
68.4016298696
 30
0.0
 11
408.647617918
 21
136.4016186639
 31
0.0
  0
LINE
  5
6F
330
1F
100
AcDbEntity
  8
0
  6
Continuous
 62
     7
370
    15
100
AcDbLine
 10
352.0476432857
 20
136.4016186639
 30
0.0
 11
352.0476432857
 21
68.4016298696
 31
0.0
  0
LINE
  5
70
330
1F
100
AcDbEntity
  8
0
  6
Continuous
 62
     7
370
    15
100
AcDbLine
 10
1156.6476436672
 20
68.4016298696
 30
0.0
 11
1156.6476436672
 21
136.4016186639
 31
0.0
  0
LINE
  5
71
330
1F
100
AcDbEntity
  8
0
  6
Continuous
 62
     7
370
    15
100
AcDbLine
 10
1100.0476392326
 20
136.4016186639
 30
0.0
 11
1100.0476392326
 21
68.4016298696
 31
0.0
  0
ARC
  5
72
330
1F
100
AcDbEntity
  8
0
  6
Continuous
 62
     7
370
    15
100
AcDbCircle
 10
413.7476301558
 20
228.9016165453
 30
0.0
 40
1.5
100
AcDbArc
 50
90.0
 51
180.0
  0
ARC
  5
73
330
1F
100
AcDbEntity
  8
0
  6
Continuous
 62
     7
370
    15
100
AcDbCircle
 10
346.9476301558
 20
228.9016165453
 30
0.0
 40
1.5
100
AcDbArc
 50
0.0
 51
90.0
  0
ARC
  5
74
330
1F
100
AcDbEntity
  8
0
  6
Continuous
 62
     7
370
    15
100
AcDbCircle
 10
407.5476301558
 20
142.434182491
 30
0.0
 40
4.700000000000006
100
AcDbArc
 50
350.5402980318
 51
0.0
  0
ARC
  5
75
330
1F
100
AcDbEntity
  8
0
  6
Continuous
 62
     7
370
    15
100
AcDbCircle
 10
353.1476301558
 20
142.434182491
 30
0.0
 40
4.700000000000006
100
AcDbArc
 50
180.0
 51
189.4597019682
  0
LINE
  5
76
330
1F
100
AcDbEntity
  8
0
  6
Continuous
 62
     7
370
    15
100
AcDbLine
 10
412.2476192531
 20
142.4341749593
 30
0.0
 11
412.2476192531
 21
228.901619856
 31
0.0
  0
LINE
  5
77
330
1F
100
AcDbEntity
  8
0
  6
Continuous
 62
     7
370
    15
100
AcDbLine
 10
348.4476419506
 20
228.901619856
 30
0.0
 11
348.4476419506
 21
142.4341749593
 31
0.0
  0
LINE
  5
78
330
1F
100
AcDbEntity
  8
0
  6
Continuous
 62
     7
370
    15
100
AcDbLine
 10
348.5115381298
 20
141.6617285654
 30
0.0
 11
349.3879946289
 21
136.4016186639
 31
0.0
  0
LINE
  5
79
330
1F
100
AcDbEntity
  8
0
  6
Continuous
 62
     7
370
    15
100
AcDbLine
 10
411.3072665748
 20
136.4016186639
 30
0.0
 11
412.1837230739
 21
141.6617285654
 31
0.0
  0
ARC
  5
7A
330
1F
100
AcDbEntity
  8
0
  6
Continuous
 62
     7
370
    15
100
AcDbCircle
 10
1161.7476301558
 20
228.9016165453
 30
0.0
 40
1.5
100
AcDbArc
 50
90.0
 51
180.0
  0
ARC
  5
7B
330
1F
100
AcDbEntity
  8
0
  6
Continuous
 62
     7
370
    15
100
AcDbCircle
 10
1094.9476301558
 20
228.9016165453
 30
0.0
 40
1.5
100
AcDbArc
 50
0.0
 51
90.0
  0
ARC
  5
7C
330
1F
100
AcDbEntity
  8
0
  6
Continuous
 62
     7
370
    15
100
AcDbCircle
 10
1155.5476301558
 20
142.434182491
 30
0.0
 40
4.700000000000273
100
AcDbArc
 50
350.5402980318
 51
0.0
  0
ARC
  5
7D
330
1F
100
AcDbEntity
  8
0
  6
Continuous
 62
     7
370
    15
100
AcDbCircle
 10
1101.1476301558
 20
142.434182491
 30
0.0
 40
4.700000000000045
100
AcDbArc
 50
180.0
 51
189.4597019682
  0
LINE
  5
7E
330
1F
100
AcDbEntity
  8
0
  6
Continuous
 62
     7
370
    15
100
AcDbLine
 10
1160.2476450023
 20
142.4341749593
 30
0.0
 11
1160.2476450023
 21
228.901619856
 31
0.0
  0
LINE
  5
7F
330
1F
100
AcDbEntity
  8
0
  6
Continuous
 62
     7
370
    15
100
AcDbLine
 10
1096.4476378975
 20
228.901619856
 30
0.0
 11
1096.4476378975
 21
142.4341749593
 31
0.0
  0
LINE
  5
80
330
1F
100
AcDbEntity
  8
0
  6
Continuous
 62
     7
370
    15
100
AcDbLine
 10
1096.5115340767
 20
141.6617285654
 30
0.0
 11
1097.3879905758
 21
136.4016186639
 31
0.0
  0
LINE
  5
81
330
1F
100
AcDbEntity
  8
0
  6
Continuous
 62
     7
370
    15
100
AcDbLine
 10
1159.307292324
 20
136.4016186639
 30
0.0
 11
1160.1837190208
 21
141.6617285654
 31
0.0
  0
LINE
  5
82
330
1F
100
AcDbEntity
  8
0
  6
Continuous
 62
     7
370
    15
100
AcDbLine
 10
1143.3476420459
 20
646.2016131922
 30
0.0
 11
1143.3476420459
 21
273.2016097948
 31
0.0
  0
LINE
  5
83
330
1F
100
AcDbEntity
  8
0
  6
Continuous
 62
     7
370
    15
100
AcDbLine
 10
1143.3476420459
 20
646.2016131922
 30
0.0
 11
1144.3476291713
 21
646.2016131922
 31
0.0
  0
LINE
  5
84
330
1F
100
AcDbEntity
  8
0
  6
Continuous
 62
     7
370
    15
100
AcDbLine
 10
1182.3476167736
 20
646.2016131922
 30
0.0
 11
1183.3476337013
 21
646.2016131922
 31
0.0
  0
LINE
  5
85
330
1F
100
AcDbEntity
  8
0
  6
Continuous
 62
     7
370
    15
100
AcDbLine
 10
1183.3476337013
 20
646.2016131922
 30
0.0
 11
1183.3476337013
 21
273.2016097948
 31
0.0
  0
LINE
  5
86
330
1F
100
AcDbEntity
  8
0
  6
Continuous
 62
     7
370
    15
100
AcDbLine
 10
325.3476234493
 20
646.2016131922
 30
0.0
 11
325.3476234493
 21
273.2016097948
 31
0.0
  0
LINE
  5
87
330
1F
100
AcDbEntity
  8
0
  6
Continuous
 62
     7
370
    15
100
AcDbLine
 10
325.3476234493
 20
646.2016131922
 30
0.0
 11
326.347640377
 21
646.2016131922
 31
0.0
  0
LINE
  5
88
330
1F
100
AcDbEntity
  8
0
  6
Continuous
 62
     7
370
    15
100
AcDbLine
 10
364.3476279793
 20
646.2016131922
 30
0.0
 11
365.347644907
 21
646.2016131922
 31
0.0
  0
LINE
  5
89
330
1F
100
AcDbEntity
  8
0
  6
Continuous
 62
     7
370
    15
100
AcDbLine
 10
365.347644907
 20
646.2016131922
 30
0.0
 11
365.347644907
 21
273.2016097948
 31
0.0
  0
LINE
  5
8A
330
1F
100
AcDbEntity
  8
0
  6
Continuous
 62
     7
370
    15
100
AcDbLine
 10
1142.8476186809
 20
298.0016123697
 30
0.0
 11
1142.8476186809
 21
308.401609604
 31
0.0
  0
LINE
  5
8B
330
1F
100
AcDbEntity
  8
0
  6
Continuous
 62
     7
370
    15
100
AcDbLine
 10
365.8476384697
 20
308.401609604
 30
0.0
 11
365.8476384697
 21
298.0016123697
 31
0.0
  0
LINE
  5
8C
330
1F
100
AcDbEntity
  8
0
  6
Continuous
 62
     7
370
    15
100
AcDbLine
 10
1182.3476167736
 20
646.2016131922
 30
0.0
 11
1182.3476167736
 21
647.9016196176
 31
0.0
  0
LINE
  5
8D
330
1F
100
AcDbEntity
  8
0
  6
Continuous
 62
     7
370
    15
100
AcDbLine
 10
1179.8476191578
 20
646.2016131922
 30
0.0
 11
1182.3476167736
 21
646.2016131922
 31
0.0
  0
LINE
  5
8E
330
1F
100
AcDbEntity
  8
0
  6
Continuous
 62
     7
370
    15
100
AcDbLine
 10
1144.3476291713
 20
646.2016131922
 30
0.0
 11
1146.8476267872
 21
646.2016131922
 31
0.0
  0
LINE
  5
8F
330
1F
100
AcDbEntity
  8
0
  6
Continuous
 62
     7
370
    15
100
AcDbLine
 10
1144.3476291713
 20
646.2016131922
 30
0.0
 11
1144.3476291713
 21
647.9016196176
 31
0.0
  0
LINE
  5
90
330
1F
100
AcDbEntity
  8
0
  6
Continuous
 62
     7
370
    15
100
AcDbLine
 10
1146.8476267872
 20
646.2016131922
 30
0.0
 11
1179.8476191578
 21
646.2016131922
 31
0.0
  0
LINE
  5
91
330
1F
100
AcDbEntity
  8
0
  6
Continuous
 62
     7
370
    15
100
AcDbLine
 10
326.347640377
 20
646.2016131922
 30
0.0
 11
328.8476379928
 21
646.2016131922
 31
0.0
  0
LINE
  5
92
330
1F
100
AcDbEntity
  8
0
  6
Continuous
 62
     7
370
    15
100
AcDbLine
 10
326.347640377
 20
646.2016131922
 30
0.0
 11
326.347640377
 21
647.9016196176
 31
0.0
  0
LINE
  5
93
330
1F
100
AcDbEntity
  8
0
  6
Continuous
 62
     7
370
    15
100
AcDbLine
 10
328.8476379928
 20
646.2016131922
 30
0.0
 11
361.8476303634
 21
646.2016131922
 31
0.0
  0
LINE
  5
94
330
1F
100
AcDbEntity
  8
0
  6
Continuous
 62
     7
370
    15
100
AcDbLine
 10
364.3476279793
 20
646.2016131922
 30
0.0
 11
364.3476279793
 21
647.9016196176
 31
0.0
  0
LINE
  5
95
330
1F
100
AcDbEntity
  8
0
  6
Continuous
 62
     7
370
    15
100
AcDbLine
 10
361.8476303634
 20
646.2016131922
 30
0.0
 11
364.3476279793
 21
646.2016131922
 31
0.0
  0
LINE
  5
96
330
1F
100
AcDbEntity
  8
0
  6
Continuous
 62
     7
370
    15
100
AcDbLine
 10
368.097624403
 20
550.5538292423
 30
0.0
 11
368.097624403
 21
547.789037992
 31
0.0
  0
LINE
  5
97
330
1F
100
AcDbEntity
  8
0
  6
Continuous
 62
     7
370
    15
100
AcDbLine
 10
1140.5976327476
 20
547.789037992
 30
0.0
 11
1140.5976327476
 21
550.5538292423
 31
0.0
  0
LINE
  5
98
330
1F
100
AcDbEntity
  8
0
  6
Continuous
 62
     7
370
    15
100
AcDbLine
 10
368.097624403
 20
550.5457397744
 30
0.0
 11
366.8476255951
 21
550.5457397744
 31
0.0
  0
LINE
  5
99
330
1F
100
AcDbEntity
  8
0
  6
Continuous
 62
     7
370
    15
100
AcDbLine
 10
368.097624403
 20
550.5538292423
 30
0.0
 11
366.8476255951
 21
550.5538292423
 31
0.0
  0
LINE
  5
9A
330
1F
100
AcDbEntity
  8
0
  6
Continuous
 62
     7
370
    15
100
AcDbLine
 10
366.8476255951
 20
550.5457397744
 30
0.0
 11
366.8476255951
 21
550.5538292423
 31
0.0
  0
LINE
  5
9B
330
1F
100
AcDbEntity
  8
0
  6
Continuous
 62
     7
370
    15
100
AcDbLine
 10
368.097624403
 20
583.0533558696
 30
0.0
 11
366.8476255951
 21
583.0533558696
 31
0.0
  0
LINE
  5
9C
330
1F
100
AcDbEntity
  8
0
  6
Continuous
 62
     7
370
    15
100
AcDbLine
 10
1141.8476315555
 20
583.0533558696
 30
0.0
 11
1140.5976327476
 21
583.0533558696
 31
0.0
  0
LINE
  5
9D
330
1F
100
AcDbEntity
  8
0
  6
Continuous
 62
     7
370
    15
100
AcDbLine
 10
1141.8476315555
 20
550.5538292423
 30
0.0
 11
1141.8476315555
 21
583.0533558696
 31
0.0
  0
LINE
  5
9E
330
1F
100
AcDbEntity
  8
0
  6
Continuous
 62
     7
370
    15
100
AcDbLine
 10
1141.8476315555
 20
550.5538292423
 30
0.0
 11
1140.5976327476
 21
550.5538292423
 31
0.0
  0
LINE
  5
9F
330
1F
100
AcDbEntity
  8
0
  6
Continuous
 62
     7
370
    15
100
AcDbLine
 10
366.8476255951
 20
550.5538292423
 30
0.0
 11
366.8476255951
 21
583.0533558696
 31
0.0
  0
LINE
  5
A0
330
1F
100
AcDbEntity
  8
0
  6
Continuous
 62
     7
370
    15
100
AcDbLine
 10
1141.8476315555
 20
550.5457397744
 30
0.0
 11
1140.5976327476
 21
550.5457397744
 31
0.0
  0
LINE
  5
A1
330
1F
100
AcDbEntity
  8
0
  6
Continuous
 62
     7
370
    15
100
AcDbLine
 10
1141.8476315555
 20
550.5538292423
 30
0.0
 11
1141.8476315555
 21
550.5457397744
 31
0.0
  0
LINE
  5
A2
330
1F
100
AcDbEntity
  8
0
  6
Continuous
 62
     7
370
    15
100
AcDbLine
 10
368.097624403
 20
585.7884854272
 30
0.0
 11
368.097624403
 21
583.0533558696
 31
0.0
  0
LINE
  5
A3
330
1F
100
AcDbEntity
  8
0
  6
Continuous
 62
     7
370
    15
100
AcDbLine
 10
1140.5976327476
 20
585.7884854272
 30
0.0
 11
368.097624403
 21
585.7884854272
 31
0.0
  0
LINE
  5
A4
330
1F
100
AcDbEntity
  8
0
  6
Continuous
 62
     7
370
    15
100
AcDbLine
 10
1140.5976327476
 20
583.0533558696
 30
0.0
 11
1140.5976327476
 21
585.7884854272
 31
0.0
  0
LINE
  5
A5
330
1F
100
AcDbEntity
  8
0
  6
Continuous
 62
     7
370
    15
100
AcDbLine
 10
1141.8476315555
 20
517.7692499205
 30
0.0
 11
1141.8476315555
 21
522.7961417481
 31
0.0
  0
LINE
  5
A6
330
1F
100
AcDbEntity
  8
0
  6
Continuous
 62
     7
370
    15
100
AcDbLine
 10
366.8476255951
 20
522.7961417481
 30
0.0
 11
366.8476255951
 21
517.7692499205
 31
0.0
  0
LINE
  5
A7
330
1F
100
AcDbEntity
  8
0
  6
Continuous
 62
     7
370
    15
100
AcDbLine
 10
366.8476255951
 20
546.5457968607
 30
0.0
 11
365.347644907
 21
546.5457968607
 31
0.0
  0
LINE
  5
A8
330
1F
100
AcDbEntity
  8
0
  6
Continuous
 62
     7
370
    15
100
AcDbLine
 10
366.8476255951
 20
522.7961417481
 30
0.0
 11
366.8476255951
 21
546.5457968607
 31
0.0
  0
LINE
  5
A9
330
1F
100
AcDbEntity
  8
0
  6
Continuous
 62
     7
370
    15
100
AcDbLine
 10
1141.8476315555
 20
546.5457968607
 30
0.0
 11
1143.3476420459
 21
546.5457968607
 31
0.0
  0
LINE
  5
AA
330
1F
100
AcDbEntity
  8
0
  6
Continuous
 62
     7
370
    15
100
AcDbLine
 10
1141.8476315555
 20
546.5457968607
 30
0.0
 11
1141.8476315555
 21
522.7961417481
 31
0.0
  0
LINE
  5
AB
330
1F
100
AcDbEntity
  8
0
  6
Continuous
 62
     7
370
    15
100
AcDbLine
 10
1141.8476315555
 20
587.0384674713
 30
0.0
 11
1143.3476420459
 21
587.0384674713
 31
0.0
  0
LINE
  5
AC
330
1F
100
AcDbEntity
  8
0
  6
Continuous
 62
     7
370
    15
100
AcDbLine
 10
1141.8476315555
 20
587.0452083841
 30
0.0
 11
1141.8476315555
 21
587.0384674713
 31
0.0
  0
LINE
  5
AD
330
1F
100
AcDbEntity
  8
0
  6
Continuous
 62
     7
370
    15
100
AcDbLine
 10
1141.8476315555
 20
587.0452083841
 30
0.0
 11
1143.3476420459
 21
587.0452083841
 31
0.0
  0
LINE
  5
AE
330
1F
100
AcDbEntity
  8
0
  6
Continuous
 62
     7
370
    15
100
AcDbLine
 10
1141.8476315555
 20
610.7948634967
 30
0.0
 11
1141.8476315555
 21
587.0452083841
 31
0.0
  0
LINE
  5
AF
330
1F
100
AcDbEntity
  8
0
  6
Continuous
 62
     7
370
    15
100
AcDbLine
 10
366.8476255951
 20
587.0452083841
 30
0.0
 11
365.347644907
 21
587.0452083841
 31
0.0
  0
LINE
  5
B0
330
1F
100
AcDbEntity
  8
0
  6
Continuous
 62
     7
370
    15
100
AcDbLine
 10
366.8476255951
 20
587.0452083841
 30
0.0
 11
366.8476255951
 21
610.7948634967
 31
0.0
  0
LINE
  5
B1
330
1F
100
AcDbEntity
  8
0
  6
Continuous
 62
     7
370
    15
100
AcDbLine
 10
366.8476255951
 20
587.0384674713
 30
0.0
 11
365.347644907
 21
587.0384674713
 31
0.0
  0
LINE
  5
B2
330
1F
100
AcDbEntity
  8
0
  6
Continuous
 62
     7
370
    15
100
AcDbLine
 10
366.8476255951
 20
587.0384674713
 30
0.0
 11
366.8476255951
 21
587.0452083841
 31
0.0
  0
LINE
  5
B3
330
1F
100
AcDbEntity
  8
0
  6
Continuous
 62
     7
370
    15
100
AcDbLine
 10
365.347644907
 20
615.7678242966
 30
0.0
 11
366.8476255951
 21
615.7678242966
 31
0.0
  0
LINE
  5
B4
330
1F
100
AcDbEntity
  8
0
  6
Continuous
 62
     7
370
    15
100
AcDbLine
 10
366.8476255951
 20
615.7678242966
 30
0.0
 11
366.8476255951
 21
610.7948634967
 31
0.0
  0
LINE
  5
B5
330
1F
100
AcDbEntity
  8
0
  6
Continuous
 62
     7
370
    15
100
AcDbLine
 10
1141.8476315555
 20
615.7678242966
 30
0.0
 11
1143.3476420459
 21
615.7678242966
 31
0.0
  0
LINE
  5
B6
330
1F
100
AcDbEntity
  8
0
  6
Continuous
 62
     7
370
    15
100
AcDbLine
 10
1141.8476315555
 20
610.7948634967
 30
0.0
 11
1141.8476315555
 21
615.7678242966
 31
0.0
  0
ARC
  5
B7
330
1F
100
AcDbEntity
  8
0
  6
Continuous
 62
     7
370
    15
100
AcDbCircle
 10
368.0975747281
 20
546.539085134
 30
0.0
 40
2.749929821243638
100
AcDbArc
 50
89.9989650053
 51
180.0006081031
  0
ARC
  5
B8
330
1F
100
AcDbEntity
  8
0
  6
Continuous
 62
     7
370
    15
100
AcDbCircle
 10
368.0976267644
 20
546.5390368225
 30
0.0
 40
1.250001169518739
100
AcDbArc
 50
90.0001082415
 51
179.9991233563
  0
ARC
  5
B9
330
1F
100
AcDbEntity
  8
0
  6
Continuous
 62
     7
370
    15
100
AcDbCircle
 10
1140.5976529283
 20
546.5390258371
 30
0.0
 40
2.749989117806765
100
AcDbArc
 50
0.0006273564
 51
90.0004204627
  0
ARC
  5
BA
330
1F
100
AcDbEntity
  8
0
  6
Continuous
 62
     7
370
    15
100
AcDbCircle
 10
1140.5976303862
 20
546.5390368225
 30
0.0
 40
1.250001169518666
100
AcDbArc
 50
0.0008766437
 51
89.9998917585
  0
ARC
  5
BB
330
1F
100
AcDbEntity
  8
0
  6
Continuous
 62
     7
370
    15
100
AcDbCircle
 10
1140.5976296111
 20
546.3489270329
 30
0.0
 40
1.250001944633893
100
AcDbArc
 50
0.0009121716
 51
89.9998562305
  0
ARC
  5
BC
330
1F
100
AcDbEntity
  8
0
  6
Continuous
 62
     7
370
    15
100
AcDbCircle
 10
368.0976275395
 20
546.3489270329
 30
0.0
 40
1.250001944633983
100
AcDbArc
 50
90.0001437695
 51
179.9990878284
  0
LINE
  5
BD
330
1F
100
AcDbEntity
  8
0
  6
Continuous
 62
     7
370
    15
100
AcDbLine
 10
1140.5976327476
 20
547.5989289775
 30
0.0
 11
1034.0476246891
 21
547.5989289775
 31
0.0
  0
LINE
  5
BE
330
1F
100
AcDbEntity
  8
0
  6
Continuous
 62
     7
370
    15
100
AcDbLine
 10
1023.6476274547
 20
547.5989289775
 30
0.0
 11
485.0476296959
 21
547.5989289775
 31
0.0
  0
LINE
  5
BF
330
1F
100
AcDbEntity
  8
0
  6
Continuous
 62
     7
370
    15
100
AcDbLine
 10
474.6476324615
 20
547.5989289775
 30
0.0
 11
368.097624403
 21
547.5989289775
 31
0.0
  0
ARC
  5
C0
330
1F
100
AcDbEntity
  8
0
  6
Continuous
 62
     7
370
    15
100
AcDbCircle
 10
1140.5976518684
 20
587.0384967794
 30
0.0
 40
2.749990177705483
100
AcDbArc
 50
269.9996016205
 51
359.9993893688
  0
ARC
  5
C1
330
1F
100
AcDbEntity
  8
0
  6
Continuous
 62
     7
370
    15
100
AcDbCircle
 10
1140.5976333172
 20
587.0384836656
 30
0.0
 40
1.249998238447477
100
AcDbArc
 50
269.999973893
 51
359.9992577048
  0
ARC
  5
C2
330
1F
100
AcDbEntity
  8
0
  6
Continuous
 62
     7
370
    15
100
AcDbCircle
 10
1140.5976527859
 20
586.8632181594
 30
0.0
 40
2.749989260231022
100
AcDbArc
 50
269.9995825049
 51
359.9993890802
  0
ARC
  5
C3
330
1F
100
AcDbEntity
  8
0
  6
Continuous
 62
     7
370
    15
100
AcDbCircle
 10
368.0975748705
 20
586.8631588625
 30
0.0
 40
2.749929963734064
100
AcDbArc
 50
179.9993754613
 51
270.001032026
  0
ARC
  5
C4
330
1F
100
AcDbEntity
  8
0
  6
Continuous
 62
     7
370
    15
100
AcDbCircle
 10
368.097575788
 20
587.0384374825
 30
0.0
 40
2.749930881175019
100
AcDbArc
 50
179.9993751727
 51
270.0010129105
  0
ARC
  5
C5
330
1F
100
AcDbEntity
  8
0
  6
Continuous
 62
     7
370
    15
100
AcDbCircle
 10
368.0976238334
 20
587.0384836656
 30
0.0
 40
1.249998238447374
100
AcDbArc
 50
180.0007422952
 51
270.000026107
  0
LINE
  5
C6
330
1F
100
AcDbEntity
  8
0
  6
Continuous
 62
     7
370
    15
100
AcDbLine
 10
1141.8476315555
 20
517.6263291582
 30
0.0
 11
1143.3476420459
 21
517.6263291582
 31
0.0
  0
LINE
  5
C7
330
1F
100
AcDbEntity
  8
0
  6
Continuous
 62
     7
370
    15
100
AcDbLine
 10
1141.8476315555
 20
517.7692499205
 30
0.0
 11
1141.8476315555
 21
517.6263291582
 31
0.0
  0
LINE
  5
C8
330
1F
100
AcDbEntity
  8
0
  6
Continuous
 62
     7
370
    15
100
AcDbLine
 10
365.347644907
 20
517.6263291582
 30
0.0
 11
366.8476255951
 21
517.6263291582
 31
0.0
  0
LINE
  5
C9
330
1F
100
AcDbEntity
  8
0
  6
Continuous
 62
     7
370
    15
100
AcDbLine
 10
366.8476255951
 20
517.6263291582
 30
0.0
 11
366.8476255951
 21
517.7692499205
 31
0.0
  0
LINE
  5
CA
330
1F
100
AcDbEntity
  8
0
  6
Continuous
 62
     7
370
    15
100
AcDbLine
 10
305.1547022876
 20
237.2016262457
 30
0.0
 11
1203.5405548629
 21
237.2016262457
 31
0.0
  0
LINE
  5
CB
330
1F
100
AcDbEntity
  8
0
  6
Continuous
 62
     7
370
    15
100
AcDbLine
 10
305.1547022876
 20
271.151627247
 30
0.0
 11
305.1547022876
 21
237.2016262457
 31
0.0
  0
LINE
  5
CC
330
1F
100
AcDbEntity
  8
0
  6
Continuous
 62
     7
370
    15
100
AcDbLine
 10
1203.5405548629
 20
271.151627247
 30
0.0
 11
1203.5405548629
 21
237.2016262457
 31
0.0
  0
LINE
  5
CD
330
1F
100
AcDbEntity
  8
0
  6
Continuous
 62
     7
370
    15
100
AcDbLine
 10
306.3976379451
 20
273.2016097948
 30
0.0
 11
1202.2976192054
 21
273.2016097948
 31
0.0
  0
LWPOLYLINE
  5
CE
330
1F
100
AcDbEntity
  8
0
  6
Continuous
 62
     7
370
    15
100
AcDbPolyline
 90
        6
 70
   128
 43
0.0
 10
305.1547022876
 20
271.151627247
 10
305.4408641872
 20
271.8769859716
 10
305.7271750984
 20
272.5087057993
 10
306.0134562072
 20
272.9647111341
 10
306.2997373161
 20
273.1859337732
 10
306.3976379451
 20
273.2016097948
  0
LWPOLYLINE
  5
CF
330
1F
100
AcDbEntity
  8
0
  6
Continuous
 62
     7
370
    15
100
AcDbPolyline
 90
        6
 70
   128
 43
0.0
 10
1202.2976192054
 20
273.2016097948
 10
1202.5838109073
 20
273.0689894601
 10
1202.8700920162
 20
272.68811578
 10
1203.156373125
 20
272.108311598
 10
1203.4426542339
 20
271.4046191618
 10
1203.5405548629
 20
271.151627247
  0
LINE
  5
D0
330
1F
100
AcDbEntity
  8
0
  6
Continuous
 62
     7
370
    15
100
AcDbLine
 10
1204.3476315555
 20
271.151627247
 30
0.0
 11
1203.5476180134
 21
271.151627247
 31
0.0
  0
LWPOLYLINE
  5
D1
330
1F
100
AcDbEntity
  8
0
  6
Continuous
 62
     7
370
    15
100
AcDbPolyline
 90
        3
 70
   128
 43
0.0
 10
1203.5476180134
 20
271.151627247
 10
1203.4491809425
 20
271.6378223344
 10
1203.1985136089
 20
272.004688923
  0
ARC
  5
D2
330
1F
100
AcDbEntity
  8
0
  6
Continuous
 62
     7
370
    15
100
AcDbCircle
 10
1202.2976300933
 20
271.1516083325
 30
0.0
 40
2.050001462322772
100
AcDbArc
 50
0.000528645
 51
90.000304306
  0
ARC
  5
D3
330
1F
100
AcDbEntity
  8
0
  6
Continuous
 62
     7
370
    15
100
AcDbCircle
 10
306.1873123326
 20
271.235701856
 30
0.0
 40
1.04306706064295
100
AcDbArc
 50
130.5199637957
 51
184.6232421653
  0
LINE
  5
D4
330
1F
100
AcDbEntity
  8
0
  6
Continuous
 62
     7
370
    15
100
AcDbLine
 10
304.3476255951
 20
271.151627247
 30
0.0
 11
305.1476391372
 21
271.151627247
 31
0.0
  0
ARC
  5
D5
330
1F
100
AcDbEntity
  8
0
  6
Continuous
 62
     7
370
    15
100
AcDbCircle
 10
306.3976404432
 20
271.1515949464
 30
0.0
 40
2.050014848388274
100
AcDbArc
 50
90.0000698179
 51
179.9990972311
  0
LINE
  5
D6
330
1F
100
AcDbEntity
  8
0
  6
Continuous
 62
     7
370
    15
100
AcDbLine
 10
1203.5476180134
 20
271.151627247
 30
0.0
 11
1203.5476180134
 21
237.2016262457
 31
0.0
  0
LINE
  5
D7
330
1F
100
AcDbEntity
  8
0
  6
Continuous
 62
     7
370
    15
100
AcDbLine
 10
1204.3476315555
 20
271.151627247
 30
0.0
 11
1204.3476315555
 21
237.2016262457
 31
0.0
  0
LINE
  5
D8
330
1F
100
AcDbEntity
  8
0
  6
Continuous
 62
     7
370
    15
100
AcDbLine
 10
1204.3476315555
 20
237.2016262457
 30
0.0
 11
1203.5476180134
 21
237.2016262457
 31
0.0
  0
LINE
  5
D9
330
1F
100
AcDbEntity
  8
0
  6
Continuous
 62
     7
370
    15
100
AcDbLine
 10
305.1476391372
 20
271.151627247
 30
0.0
 11
305.1476391372
 21
237.2016262457
 31
0.0
  0
LINE
  5
DA
330
1F
100
AcDbEntity
  8
0
  6
Continuous
 62
     7
370
    15
100
AcDbLine
 10
304.3476255951
 20
237.2016262457
 30
0.0
 11
305.1476391372
 21
237.2016262457
 31
0.0
  0
LINE
  5
DB
330
1F
100
AcDbEntity
  8
0
  6
Continuous
 62
     7
370
    15
100
AcDbLine
 10
304.3476255951
 20
271.151627247
 30
0.0
 11
304.3476255951
 21
237.2016262457
 31
0.0
  0
LINE
  5
DC
330
1F
100
AcDbEntity
  8
0
  6
Continuous
 62
     7
370
    15
100
AcDbLine
 10
1140.3476210651
 20
235.1516138956
 30
0.0
 11
1140.3476210651
 21
232.4016045972
 31
0.0
  0
LINE
  5
DD
330
1F
100
AcDbEntity
  8
0
  6
Continuous
 62
     7
370
    15
100
AcDbLine
 10
1140.3476210651
 20
232.4016045972
 30
0.0
 11
368.3476360855
 21
232.4016045972
 31
0.0
  0
LINE
  5
DE
330
1F
100
AcDbEntity
  8
0
  6
Continuous
 62
     7
370
    15
100
AcDbLine
 10
368.3476360855
 20
232.4016045972
 30
0.0
 11
368.3476360855
 21
235.1516138956
 31
0.0
  0
LINE
  5
DF
330
1F
100
AcDbEntity
  8
0
  6
Continuous
 62
     7
370
    15
100
AcDbLine
 10
1184.3405576763
 20
233.9016150877
 30
0.0
 11
1184.3405576763
 21
237.2016262457
 31
0.0
  0
LINE
  5
E0
330
1F
100
AcDbEntity
  8
0
  6
Continuous
 62
     7
370
    15
100
AcDbLine
 10
1140.3476210651
 20
235.1516138956
 30
0.0
 11
1140.3476210651
 21
235.9016191408
 31
0.0
  0
LINE
  5
E1
330
1F
100
AcDbEntity
  8
0
  6
Continuous
 62
     7
370
    15
100
AcDbLine
 10
368.3476360855
 20
235.9016191408
 30
0.0
 11
368.3476360855
 21
235.1516138956
 31
0.0
  0
LINE
  5
E2
330
1F
100
AcDbEntity
  8
0
  6
Continuous
 62
     7
370
    15
100
AcDbLine
 10
367.5976308403
 20
233.9016150877
 30
0.0
 11
367.5976308403
 21
235.9016191408
 31
0.0
  0
LINE
  5
E3
330
1F
100
AcDbEntity
  8
0
  6
Continuous
 62
     7
370
    15
100
AcDbLine
 10
367.5976308403
 20
233.9016150877
 30
0.0
 11
324.3546994743
 21
233.9016150877
 31
0.0
  0
LINE
  5
E4
330
1F
100
AcDbEntity
  8
0
  6
Continuous
 62
     7
370
    15
100
AcDbLine
 10
1140.3476210651
 20
235.9016191408
 30
0.0
 11
1141.0976263103
 21
235.9016191408
 31
0.0
  0
LINE
  5
E5
330
1F
100
AcDbEntity
  8
0
  6
Continuous
 62
     7
370
    15
100
AcDbLine
 10
1184.3405576763
 20
233.9016150877
 30
0.0
 11
1141.0976263103
 21
233.9016150877
 31
0.0
  0
LINE
  5
E6
330
1F
100
AcDbEntity
  8
0
  6
Continuous
 62
     7
370
    15
100
AcDbLine
 10
1141.0976263103
 20
235.9016191408
 30
0.0
 11
1141.0976263103
 21
233.9016150877
 31
0.0
  0
LINE
  5
E7
330
1F
100
AcDbEntity
  8
0
  6
Continuous
 62
     7
370
    15
100
AcDbLine
 10
324.3546994743
 20
233.9016150877
 30
0.0
 11
324.3546994743
 21
237.2016262457
 31
0.0
  0
LINE
  5
E8
330
1F
100
AcDbEntity
  8
0
  6
Continuous
 62
     7
370
    15
100
AcDbLine
 10
367.5976308403
 20
235.9016191408
 30
0.0
 11
368.3476360855
 21
235.9016191408
 31
0.0
  0
LINE
  5
E9
330
1F
100
AcDbEntity
  8
0
  6
Continuous
 62
     7
370
    15
100
AcDbLine
 10
1185.8476313171
 20
237.2016262457
 30
0.0
 11
1185.8476313171
 21
235.1516138956
 31
0.0
  0
LINE
  5
EA
330
1F
100
AcDbEntity
  8
0
  6
Continuous
 62
     7
370
    15
100
AcDbLine
 10
1184.3476208267
 20
237.2016262457
 30
0.0
 11
1184.3476208267
 21
235.1516138956
 31
0.0
  0
LINE
  5
EB
330
1F
100
AcDbEntity
  8
0
  6
Continuous
 62
     7
370
    15
100
AcDbLine
 10
322.8476258335
 20
237.2016262457
 30
0.0
 11
322.8476258335
 21
235.1516138956
 31
0.0
  0
LINE
  5
EC
330
1F
100
AcDbEntity
  8
0
  6
Continuous
 62
     7
370
    15
100
AcDbLine
 10
324.3476363239
 20
237.2016262457
 30
0.0
 11
324.3476363239
 21
235.1516138956
 31
0.0
  0
LINE
  5
ED
330
1F
100
AcDbEntity
  8
0
  6
Continuous
 62
     7
370
    15
100
AcDbLine
 10
367.8476425228
 20
232.4016045972
 30
0.0
 11
367.8476425228
 21
233.9016150877
 31
0.0
  0
LINE
  5
EE
330
1F
100
AcDbEntity
  8
0
  6
Continuous
 62
     7
370
    15
100
AcDbLine
 10
325.5976351318
 20
232.4016045972
 30
0.0
 11
367.8476425228
 21
232.4016045972
 31
0.0
  0
LINE
  5
EF
330
1F
100
AcDbEntity
  8
0
  6
Continuous
 62
     7
370
    15
100
AcDbLine
 10
367.5976308403
 20
233.9016150877
 30
0.0
 11
367.8476425228
 21
233.9016150877
 31
0.0
  0
LINE
  5
F0
330
1F
100
AcDbEntity
  8
0
  6
Continuous
 62
     7
370
    15
100
AcDbLine
 10
1183.0976220188
 20
232.4016045972
 30
0.0
 11
1140.8476444301
 21
232.4016045972
 31
0.0
  0
LINE
  5
F1
330
1F
100
AcDbEntity
  8
0
  6
Continuous
 62
     7
370
    15
100
AcDbLine
 10
1140.8476444301
 20
232.4016045972
 30
0.0
 11
1140.8476444301
 21
233.9016150877
 31
0.0
  0
LINE
  5
F2
330
1F
100
AcDbEntity
  8
0
  6
Continuous
 62
     7
370
    15
100
AcDbLine
 10
1141.0976263103
 20
233.9016150877
 30
0.0
 11
1140.8476444301
 21
233.9016150877
 31
0.0
  0
LINE
  5
F3
330
1F
100
AcDbEntity
  8
0
  6
Continuous
 62
     7
370
    15
100
AcDbLine
 10
1184.3405576763
 20
235.0188445493
 30
0.0
 11
1184.3476208267
 21
235.1516138956
 31
0.0
  0
ARC
  5
F4
330
1F
100
AcDbEntity
  8
0
  6
Continuous
 62
     7
370
    15
100
AcDbCircle
 10
1183.0976301558
 20
235.1516165453
 30
0.0
 40
2.750000000000256
100
AcDbArc
 50
270.0
 51
0.0
  0
LINE
  5
F5
330
1F
100
AcDbEntity
  8
0
  6
Continuous
 62
     7
370
    15
100
AcDbLine
 10
324.3476363239
 20
235.1516138956
 30
0.0
 11
324.3546994743
 21
235.0188445493
 31
0.0
  0
ARC
  5
F6
330
1F
100
AcDbEntity
  8
0
  6
Continuous
 62
     7
370
    15
100
AcDbCircle
 10
325.5976301558
 20
235.1516165453
 30
0.0
 40
2.750000000000142
100
AcDbArc
 50
180.0
 51
270.0
  0
LINE
  5
F7
330
1F
100
AcDbEntity
  8
0
  6
Continuous
 62
     7
370
    15
100
AcDbLine
 10
304.3476255951
 20
1206.946248953
 30
0.0
 11
304.3476255951
 21
1224.0370463773
 31
0.0
  0
LINE
  5
F8
330
1F
100
AcDbEntity
  8
0
  6
Continuous
 62
     7
370
    15
100
AcDbLine
 10
1204.3476315555
 20
1206.946248953
 30
0.0
 11
1204.3476315555
 21
1224.0370463773
 31
0.0
  0
LINE
  5
F9
330
1F
100
AcDbEntity
  8
0
  6
Continuous
 62
     7
370
    15
100
AcDbLine
 10
1204.3476315555
 20
1192.1462368414
 30
0.0
 11
1204.3476315555
 21
1206.946248953
 31
0.0
  0
LINE
  5
FA
330
1F
100
AcDbEntity
  8
0
  6
Continuous
 62
     7
370
    15
100
AcDbLine
 10
304.3476255951
 20
1192.1462368414
 30
0.0
 11
304.3476255951
 21
1206.946248953
 31
0.0
  0
LWPOLYLINE
  5
FB
330
1F
100
AcDbEntity
  8
0
  6
Continuous
 62
     7
370
    15
100
AcDbPolyline
 90
       17
 70
   128
 43
0.0
 10
882.8476282177
 20
1227.2904467031
 10
883.8097216901
 20
1227.0596575185
 10
884.4942810354
 20
1226.7330240652
 10
884.8241629419
 20
1226.3472628042
 10
884.7621592102
 20
1225.9459447309
 10
884.315273386
 20
1225.5742501661
 10
883.5338713941
 20
1225.274081175
 10
882.5060339985
 20
1225.0792931959
 10
881.3476326284
 20
1225.011820738
 10
880.1892163572
 20
1225.0792931959
 10
879.1613938627
 20
1225.274081175
 10
878.3799918709
 20
1225.5742501661
 10
877.9331060466
 20
1225.9459447309
 10
877.8711023149
 20
1226.3472628042
 10
878.2009767708
 20
1226.7330240652
 10
878.8855435667
 20
1227.0596575185
 10
879.8476370392
 20
1227.2904467031
  0
LINE
  5
FC
330
1F
100
AcDbEntity
  8
0
  6
Continuous
 62
     7
370
    15
100
AcDbLine
 10
882.8476282177
 20
1227.2904467031
 30
0.0
 11
882.8476282177
 21
1229.6290349409
 31
0.0
  0
LWPOLYLINE
  5
FD
330
1F
100
AcDbEntity
  8
0
  6
Continuous
 62
     7
370
    15
100
AcDbPolyline
 90
        9
 70
   128
 43
0.0
 10
879.8476370392
 20
1229.63505501
 10
879.9676658926
 20
1229.8302602216
 10
880.2962364969
 20
1229.9950074598
 10
880.7836832819
 20
1230.1045011922
 10
881.3563647089
 20
1230.1421117231
 10
881.9277050314
 20
1230.1021766111
 10
882.4113818226
 20
1229.99077553
 10
882.7342899856
 20
1229.8247169897
 10
882.8476282177
 20
1229.6290349409
  0
LINE
  5
FE
330
1F
100
AcDbEntity
  8
0
  6
Continuous
 62
     7
370
    15
100
AcDbLine
 10
879.8476370392
 20
1227.2904467031
 30
0.0
 11
879.8476370392
 21
1229.63505501
 31
0.0
  0
LINE
  5
FF
330
1F
100
AcDbEntity
  8
0
  6
Continuous
 62
     7
370
    15
100
AcDbLine
 10
1204.3476315555
 20
1224.0370463773
 30
0.0
 11
1204.3476315555
 21
1231.1164092466
 31
0.0
  0
LINE
  5
100
330
1F
100
AcDbEntity
  8
0
  6
Continuous
 62
     7
370
    15
100
AcDbLine
 10
1177.2891195831
 20
1226.4305900976
 30
0.0
 11
1174.9752970752
 21
1227.576727812
 31
0.0
  0
LINE
  5
101
330
1F
100
AcDbEntity
  8
0
  6
Continuous
 62
     7
370
    15
100
AcDbLine
 10
1177.847644907
 20
1229.0230345174
 30
0.0
 11
1174.9752970752
 21
1227.576727812
 31
0.0
  0
LINE
  5
102
330
1F
100
AcDbEntity
  8
0
  6
Continuous
 62
     7
370
    15
100
AcDbLine
 10
1173.3795615253
 20
1228.5318326398
 30
0.0
 11
1177.847644907
 21
1229.0230345174
 31
0.0
  0
LINE
  5
103
330
1F
100
AcDbEntity
  8
0
  6
Continuous
 62
     7
370
    15
100
AcDbLine
 10
1173.3795615253
 20
1228.5318326398
 30
0.0
 11
1170.7465561447
 21
1230.1145743772
 31
0.0
  0
LINE
  5
104
330
1F
100
AcDbEntity
  8
0
  6
Continuous
 62
     7
370
    15
100
AcDbLine
 10
1169.1508205948
 20
1228.3680986807
 30
0.0
 11
1170.7465561447
 21
1230.1145743772
 31
0.0
  0
LINE
  5
105
330
1F
100
AcDbEntity
  8
0
  6
Continuous
 62
     7
370
    15
100
AcDbLine
 10
1169.1508205948
 20
1228.3680986807
 30
0.0
 11
1165.321043354
 21
1228.5318326398
 31
0.0
  0
LINE
  5
106
330
1F
100
AcDbEntity
  8
0
  6
Continuous
 62
     7
370
    15
100
AcDbLine
 10
1168.0337997493
 20
1227.576727812
 30
0.0
 11
1165.321043354
 21
1228.5318326398
 31
0.0
  0
LINE
  5
107
330
1F
100
AcDbEntity
  8
0
  6
Continuous
 62
     7
370
    15
100
AcDbLine
 10
1161.2518938598
 20
1225.3663491651
 30
0.0
 11
1168.0337997493
 21
1227.576727812
 31
0.0
  0
LINE
  5
108
330
1F
100
AcDbEntity
  8
0
  6
Continuous
 62
     7
370
    15
100
AcDbLine
 10
1161.2518938598
 20
1225.3663491651
 30
0.0
 11
1170.0284989891
 21
1226.758058016
 31
0.0
  0
LINE
  5
109
330
1F
100
AcDbEntity
  8
0
  6
Continuous
 62
     7
370
    15
100
AcDbLine
 10
1170.0284989891
 20
1226.758058016
 30
0.0
 11
1172.2625406799
 21
1224.9842833921
 31
0.0
  0
LINE
  5
10A
330
1F
100
AcDbEntity
  8
0
  6
Continuous
 62
     7
370
    15
100
AcDbLine
 10
1172.581663948
 20
1226.758058016
 30
0.0
 11
1172.2625406799
 21
1224.9842833921
 31
0.0
  0
LINE
  5
10B
330
1F
100
AcDbEntity
  8
0
  6
Continuous
 62
     7
370
    15
100
AcDbLine
 10
1172.581663948
 20
1226.758058016
 30
0.0
 11
1177.2891195831
 21
1226.4305900976
 31
0.0
  0
LINE
  5
10C
330
1F
100
AcDbEntity
  8
0
  6
Continuous
 62
     7
370
    15
100
AcDbLine
 10
304.3476255951
 20
1224.0370463773
 30
0.0
 11
304.3476255951
 21
1231.1164092466
 31
0.0
  0
LINE
  5
10D
330
1F
100
AcDbEntity
  8
0
  6
Continuous
 62
     7
370
    15
100
AcDbLine
 10
1161.3080414352
 20
1225.3752302572
 30
0.0
 11
1168.0337997493
 21
1227.5673102781
 31
0.0
  0
LINE
  5
10E
330
1F
100
AcDbEntity
  8
0
  6
Continuous
 62
     7
370
    15
100
AcDbLine
 10
1169.1508205948
 20
1228.3586811468
 30
0.0
 11
1165.3514119205
 21
1228.5211634084
 31
0.0
  0
LINE
  5
10F
330
1F
100
AcDbEntity
  8
0
  6
Continuous
 62
     7
370
    15
100
AcDbLine
 10
1169.1508205948
 20
1228.3586811468
 30
0.0
 11
1170.7465561447
 21
1230.105216448
 31
0.0
  0
LINE
  5
110
330
1F
100
AcDbEntity
  8
0
  6
Continuous
 62
     7
370
    15
100
AcDbLine
 10
1173.3795615253
 20
1228.522415106
 30
0.0
 11
1170.7465561447
 21
1230.105216448
 31
0.0
  0
LINE
  5
111
330
1F
100
AcDbEntity
  8
0
  6
Continuous
 62
     7
370
    15
100
AcDbLine
 10
1173.3795615253
 20
1228.522415106
 30
0.0
 11
1177.8237434444
 21
1229.0109943792
 31
0.0
  0
LINE
  5
112
330
1F
100
AcDbEntity
  8
0
  6
Continuous
 62
     7
370
    15
100
AcDbLine
 10
1177.2670360622
 20
1226.4321398183
 30
0.0
 11
1174.9752970752
 21
1227.5673102781
 31
0.0
  0
LINE
  5
113
330
1F
100
AcDbEntity
  8
0
  6
Continuous
 62
     7
370
    15
100
AcDbLine
 10
1175.3883572635
 20
1228.3840131208
 30
0.0
 11
1173.7726839599
 21
1227.5704693243
 31
0.0
  0
LINE
  5
114
330
1F
100
AcDbEntity
  8
0
  6
Continuous
 62
     7
370
    15
100
AcDbLine
 10
1169.4407375869
 20
1227.5628399297
 30
0.0
 11
1168.0221768436
 21
1228.0622672483
 31
0.0
  0
LINE
  5
115
330
1F
100
AcDbEntity
  8
0
  6
Continuous
 62
     7
370
    15
100
AcDbLine
 10
1166.327646595
 20
1226.5388321325
 30
0.0
 11
1170.5402942714
 21
1227.2068213865
 31
0.0
  0
LINE
  5
116
330
1F
100
AcDbEntity
  8
0
  6
Continuous
 62
     7
370
    15
100
AcDbLine
 10
1170.5402942714
 20
1227.2068213865
 30
0.0
 11
1171.5219827709
 21
1226.4273714468
 31
0.0
  0
LINE
  5
117
330
1F
100
AcDbEntity
  8
0
  6
Continuous
 62
     7
370
    15
100
AcDbLine
 10
1171.654185873
 20
1227.1622371122
 30
0.0
 11
1171.5219827709
 21
1226.4273714468
 31
0.0
  0
LINE
  5
118
330
1F
100
AcDbEntity
  8
0
  6
Continuous
 62
     7
370
    15
100
AcDbLine
 10
1171.654185873
 20
1227.1622371122
 30
0.0
 11
1175.0556143341
 21
1226.9256066724
 31
0.0
  0
LINE
  5
119
330
1F
100
AcDbEntity
  8
0
  6
Continuous
 62
     7
370
    15
100
AcDbLine
 10
879.8476370392
 20
1227.2810291692
 30
0.0
 11
879.8476370392
 21
1227.2904467031
 31
0.0
  0
LWPOLYLINE
  5
11A
330
1F
100
AcDbEntity
  8
0
  6
Continuous
 62
     7
370
    15
100
AcDbPolyline
 90
        5
 70
   128
 43
0.0
 10
882.8476282177
 20
1227.2810291692
 10
883.8097216901
 20
1227.0502995893
 10
884.4942810354
 20
1226.7236065313
 10
884.8241629419
 20
1226.337904875
 10
884.8476322708
 20
1226.1995028898
  0
LWPOLYLINE
  5
11B
330
1F
100
AcDbEntity
  8
0
  6
Continuous
 62
     7
370
    15
100
AcDbPolyline
 90
        5
 70
   128
 43
0.0
 10
877.847632986
 20
1226.1995028898
 10
877.8711023149
 20
1226.337904875
 10
878.2009767708
 20
1226.7236065313
 10
878.8855435667
 20
1227.0502995893
 10
879.8476370392
 20
1227.2810291692
  0
LINE
  5
11C
330
1F
100
AcDbEntity
  8
0
  6
Continuous
 62
     7
370
    15
100
AcDbLine
 10
882.8476282177
 20
1227.2810291692
 30
0.0
 11
882.8476282177
 21
1227.2904467031
 31
0.0
  0
LWPOLYLINE
  5
11D
330
1F
100
AcDbEntity
  8
0
  6
Continuous
 62
     7
370
    15
100
AcDbPolyline
 90
        9
 70
   128
 43
0.0
 10
879.8476370392
 20
1229.6256374761
 10
879.9676658926
 20
1229.8208426878
 10
880.2962364969
 20
1229.9855899259
 10
880.7836832819
 20
1230.0950836584
 10
881.3563647089
 20
1230.1326941892
 10
881.9277050314
 20
1230.0928186819
 10
882.4113818226
 20
1229.9813579961
 10
882.7342899856
 20
1229.8152994558
 10
882.8476282177
 20
1229.6196770116
  0
LINE
  5
11E
330
1F
100
AcDbEntity
  8
0
  6
Continuous
 62
     7
370
    15
100
AcDbLine
 10
880.4476322946
 20
1228.1138848707
 30
0.0
 11
880.8476241646
 21
1228.1138848707
 31
0.0
  0
LWPOLYLINE
  5
11F
330
1F
100
AcDbEntity
  8
0
  6
Continuous
 62
     7
370
    15
100
AcDbPolyline
 90
       10
 70
   128
 43
0.0
 10
883.8476302442
 20
1226.1995028898
 10
883.7984415111
 20
1226.0307025358
 10
883.4239902315
 20
1225.723261778
 10
882.7344687996
 20
1225.4880618497
 10
881.8345429716
 20
1225.3608059332
 10
880.8607222852
 20
1225.3608059332
 10
879.9607815561
 20
1225.4880618497
 10
879.2712750253
 20
1225.723261778
 10
878.8968162951
 20
1226.0307025358
 10
878.847627562
 20
1226.1995028898
  0
LINE
  5
120
330
1F
100
AcDbEntity
  8
0
  6
Continuous
 62
     7
370
    15
100
AcDbLine
 10
881.8476261911
 20
1228.1138848707
 30
0.0
 11
882.2476329622
 21
1228.1138848707
 31
0.0
  0
LWPOLYLINE
  5
121
330
1F
100
AcDbEntity
  8
0
  6
Continuous
 62
     7
370
    15
100
AcDbPolyline
 90
       16
 70
   128
 43
0.0
 10
881.8476261911
 20
1227.046663706
 10
882.7455701647
 20
1226.9177388593
 10
883.4313961086
 20
1226.6812872335
 10
883.8010492143
 20
1226.3731908247
 10
883.7984415111
 20
1226.0401200697
 10
883.4239902315
 20
1225.7326197073
 10
882.7344687996
 20
1225.4974793836
 10
881.8345429716
 20
1225.370223467
 10
880.8607222852
 20
1225.370223467
 10
879.9607815561
 20
1225.4974793836
 10
879.2712750253
 20
1225.7326197073
 10
878.8968162951
 20
1226.0401200697
 10
878.8942160425
 20
1226.3731908247
 10
879.2638691482
 20
1226.6812872335
 10
879.9496950922
 20
1226.9177388593
 10
880.8476241646
 20
1227.046663706
  0
LWPOLYLINE
  5
122
330
1F
100
AcDbEntity
  8
0
  6
Continuous
 62
     7
370
    15
100
AcDbPolyline
 90
        9
 70
   128
 43
0.0
 10
880.4476322946
 20
1229.6336841032
 10
880.5206628856
 20
1229.7506284162
 10
880.7184012947
 20
1229.849154894
 10
881.011015397
 20
1229.9145411893
 10
881.3543828544
 20
1229.9368929311
 10
881.6967221317
 20
1229.9128126546
 10
881.9864156065
 20
1229.8459362432
 10
882.1797730741
 20
1229.7463368818
 10
882.2476329622
 20
1229.6290349409
  0
LINE
  5
123
330
1F
100
AcDbEntity
  8
0
  6
Continuous
 62
     7
370
    15
100
AcDbLine
 10
882.2476329622
 20
1228.1232427999
 30
0.0
 11
882.2476329622
 21
1229.6290349409
 31
0.0
  0
LINE
  5
124
330
1F
100
AcDbEntity
  8
0
  6
Continuous
 62
     7
370
    15
100
AcDbLine
 10
881.8476261911
 20
1228.1232427999
 30
0.0
 11
882.2476329622
 21
1228.1232427999
 31
0.0
  0
LINE
  5
125
330
1F
100
AcDbEntity
  8
0
  6
Continuous
 62
     7
370
    15
100
AcDbLine
 10
881.8476261911
 20
1227.046663706
 30
0.0
 11
881.8476261911
 21
1228.1232427999
 31
0.0
  0
LINE
  5
126
330
1F
100
AcDbEntity
  8
0
  6
Continuous
 62
     7
370
    15
100
AcDbLine
 10
880.8476241646
 20
1227.046663706
 30
0.0
 11
880.8476241646
 21
1228.1232427999
 31
0.0
  0
LINE
  5
127
330
1F
100
AcDbEntity
  8
0
  6
Continuous
 62
     7
370
    15
100
AcDbLine
 10
880.4476322946
 20
1228.1232427999
 30
0.0
 11
880.8476241646
 21
1228.1232427999
 31
0.0
  0
LINE
  5
128
330
1F
100
AcDbEntity
  8
0
  6
Continuous
 62
     7
370
    15
100
AcDbLine
 10
880.4476322946
 20
1228.1232427999
 30
0.0
 11
880.4476322946
 21
1229.6336841032
 31
0.0
  0
LINE
  5
129
330
1F
100
AcDbEntity
  8
0
  6
Continuous
 62
     7
370
    15
100
AcDbLine
 10
1168.0337997493
 20
1227.5673102781
 30
0.0
 11
1168.0337997493
 21
1227.576727812
 31
0.0
  0
LINE
  5
12A
330
1F
100
AcDbEntity
  8
0
  6
Continuous
 62
     7
370
    15
100
AcDbLine
 10
1174.9752970752
 20
1227.5673102781
 30
0.0
 11
1174.9752970752
 21
1227.576727812
 31
0.0
  0
LINE
  5
12B
330
1F
100
AcDbEntity
  8
0
  6
Continuous
 62
     7
370
    15
100
AcDbLine
 10
1171.654185873
 20
1227.1622371122
 30
0.0
 11
1171.654185873
 21
1227.1715950414
 31
0.0
  0
LINE
  5
12C
330
1F
100
AcDbEntity
  8
0
  6
Continuous
 62
     7
370
    15
100
AcDbLine
 10
1171.5219827709
 20
1226.4273714468
 30
0.0
 11
1171.5219827709
 21
1226.4367889806
 31
0.0
  0
LINE
  5
12D
330
1F
100
AcDbEntity
  8
0
  6
Continuous
 62
     7
370
    15
100
AcDbLine
 10
1171.654185873
 20
1227.1715950414
 30
0.0
 11
1171.5219827709
 21
1226.4367889806
 31
0.0
  0
LINE
  5
12E
330
1F
100
AcDbEntity
  8
0
  6
Continuous
 62
     7
370
    15
100
AcDbLine
 10
1170.5402942714
 20
1227.2162389204
 30
0.0
 11
1171.5219827709
 21
1226.4367889806
 31
0.0
  0
LINE
  5
12F
330
1F
100
AcDbEntity
  8
0
  6
Continuous
 62
     7
370
    15
100
AcDbLine
 10
1166.327646595
 20
1226.5481900617
 30
0.0
 11
1170.5402942714
 21
1227.2162389204
 31
0.0
  0
LINE
  5
130
330
1F
100
AcDbEntity
  8
0
  6
Continuous
 62
     7
370
    15
100
AcDbLine
 10
1166.327646595
 20
1226.5481900617
 30
0.0
 11
1169.4545956669
 21
1227.5673698827
 31
0.0
  0
LINE
  5
131
330
1F
100
AcDbEntity
  8
0
  6
Continuous
 62
     7
370
    15
100
AcDbLine
 10
1169.4545956669
 20
1227.5673698827
 30
0.0
 11
1168.0221768436
 21
1228.0716847822
 31
0.0
  0
LINE
  5
132
330
1F
100
AcDbEntity
  8
0
  6
Continuous
 62
     7
370
    15
100
AcDbLine
 10
1169.8560329494
 20
1227.9932450697
 30
0.0
 11
1168.0221768436
 21
1228.0716847822
 31
0.0
  0
LINE
  5
133
330
1F
100
AcDbEntity
  8
0
  6
Continuous
 62
     7
370
    15
100
AcDbLine
 10
1169.8560329494
 20
1227.9932450697
 30
0.0
 11
1171.0149260578
 21
1229.2616319105
 31
0.0
  0
LINE
  5
134
330
1F
100
AcDbEntity
  8
0
  6
Continuous
 62
     7
370
    15
100
AcDbLine
 10
1172.912141901
 20
1228.121216242
 30
0.0
 11
1171.0149260578
 21
1229.2616319105
 31
0.0
  0
LINE
  5
135
330
1F
100
AcDbEntity
  8
0
  6
Continuous
 62
     7
370
    15
100
AcDbLine
 10
1172.912141901
 20
1228.121216242
 30
0.0
 11
1175.3883572635
 21
1228.3934306547
 31
0.0
  0
LINE
  5
136
330
1F
100
AcDbEntity
  8
0
  6
Continuous
 62
     7
370
    15
100
AcDbLine
 10
1175.3883572635
 20
1228.3934306547
 30
0.0
 11
1173.7632664261
 21
1227.5751184866
 31
0.0
  0
LINE
  5
137
330
1F
100
AcDbEntity
  8
0
  6
Continuous
 62
     7
370
    15
100
AcDbLine
 10
1175.0556143341
 20
1226.9349646017
 30
0.0
 11
1173.7632664261
 21
1227.5751184866
 31
0.0
  0
LINE
  5
138
330
1F
100
AcDbEntity
  8
0
  6
Continuous
 62
     7
370
    15
100
AcDbLine
 10
1171.654185873
 20
1227.1715950414
 30
0.0
 11
1175.0556143341
 21
1226.9349646017
 31
0.0
  0
LINE
  5
139
330
1F
100
AcDbEntity
  8
0
  6
Continuous
 62
     7
370
    15
100
AcDbLine
 10
1170.5402942714
 20
1227.2068213865
 30
0.0
 11
1170.5402942714
 21
1227.2162389204
 31
0.0
  0
LINE
  5
13A
330
1F
100
AcDbEntity
  8
0
  6
Continuous
 62
     7
370
    15
100
AcDbLine
 10
1166.327646595
 20
1226.5388321325
 30
0.0
 11
1166.327646595
 21
1226.5481900617
 31
0.0
  0
LINE
  5
13B
330
1F
100
AcDbEntity
  8
0
  6
Continuous
 62
     7
370
    15
100
AcDbLine
 10
1204.3476315555
 20
1191.4139341756
 30
0.0
 11
304.3476255951
 21
1191.4139341756
 31
0.0
  0
LINE
  5
13C
330
1F
100
AcDbEntity
  8
0
  6
Continuous
 62
     7
370
    15
100
AcDbLine
 10
1204.3476315555
 20
1191.4139341756
 30
0.0
 11
1204.3476315555
 21
1192.1462368414
 31
0.0
  0
LINE
  5
13D
330
1F
100
AcDbEntity
  8
0
  6
Continuous
 62
     7
370
    15
100
AcDbLine
 10
304.3476255951
 20
1191.4139341756
 30
0.0
 11
304.3476255951
 21
1192.1462368414
 31
0.0
  0
LINE
  5
13E
330
1F
100
AcDbEntity
  8
0
  6
Continuous
 62
     7
370
    15
100
AcDbLine
 10
1175.0556143341
 20
1226.9256066724
 30
0.0
 11
1175.0556143341
 21
1226.9349646017
 31
0.0
  0
LINE
  5
13F
330
1F
100
AcDbEntity
  8
0
  6
Continuous
 62
     7
370
    15
100
AcDbLine
 10
1168.0221768436
 20
1228.0622672483
 30
0.0
 11
1168.0221768436
 21
1228.0716847822
 31
0.0
  0
LINE
  5
140
330
1F
100
AcDbEntity
  8
0
  6
Continuous
 62
     7
370
    15
100
AcDbLine
 10
1175.3883572635
 20
1228.3840131208
 30
0.0
 11
1175.3883572635
 21
1228.3934306547
 31
0.0
  0
LINE
  5
141
330
1F
100
AcDbEntity
  8
0
  6
Continuous
 62
     7
370
    15
100
AcDbLine
 10
882.2476329622
 20
1228.1138848707
 30
0.0
 11
882.2476329622
 21
1228.1232427999
 31
0.0
  0
LINE
  5
142
330
1F
100
AcDbEntity
  8
0
  6
Continuous
 62
     7
370
    15
100
AcDbLine
 10
880.4476322946
 20
1228.1138848707
 30
0.0
 11
880.4476322946
 21
1228.1232427999
 31
0.0
  0
LINE
  5
143
330
1F
100
AcDbEntity
  8
0
  6
Continuous
 62
     7
370
    15
100
AcDbLine
 10
1170.7465561447
 20
1230.105216448
 30
0.0
 11
1170.7465561447
 21
1230.1145743772
 31
0.0
  0
LINE
  5
144
330
1F
100
AcDbEntity
  8
0
  6
Continuous
 62
     7
370
    15
100
AcDbLine
 10
1169.1508205948
 20
1228.3586811468
 30
0.0
 11
1169.1508205948
 21
1228.3680986807
 31
0.0
  0
LINE
  5
145
330
1F
100
AcDbEntity
  8
0
  6
Continuous
 62
     7
370
    15
100
AcDbLine
 10
1173.3795615253
 20
1228.522415106
 30
0.0
 11
1173.3795615253
 21
1228.5318326398
 31
0.0
  0
LINE
  5
146
330
1F
100
AcDbEntity
  8
0
  6
Continuous
 62
     7
370
    15
100
AcDbLine
 10
1204.3476315555
 20
1231.1164092466
 30
0.0
 11
1204.3476315555
 21
1237.4231767103
 31
0.0
  0
LINE
  5
147
330
1F
100
AcDbEntity
  8
0
  6
Continuous
 62
     7
370
    15
100
AcDbLine
 10
304.3476255951
 20
1231.1164092466
 30
0.0
 11
304.3476255951
 21
1237.4231767103
 31
0.0
  0
ARC
  5
148
330
1F
100
AcDbEntity
  8
0
  6
Continuous
 62
     7
370
    15
100
AcDbCircle
 10
335.0976320324
 20
1310.9472559456
 30
0.0
 40
0.2502153900844768
100
AcDbArc
 50
182.3121376101
 51
357.6878623899
  0
LINE
  5
149
330
1F
100
AcDbEntity
  8
0
  6
Continuous
 62
     7
370
    15
100
AcDbLine
 10
335.3476437149
 20
1310.9371613905
 30
0.0
 11
335.3476437149
 21
1312.0075416013
 31
0.0
  0
LINE
  5
14A
330
1F
100
AcDbEntity
  8
0
  6
Continuous
 62
     7
370
    15
100
AcDbLine
 10
354.8476310787
 20
1312.0075416013
 30
0.0
 11
335.3476437149
 21
1312.0075416013
 31
0.0
  0
LINE
  5
14B
330
1F
100
AcDbEntity
  8
0
  6
Continuous
 62
     7
370
    15
100
AcDbLine
 10
354.8476310787
 20
1312.2851204321
 30
0.0
 11
354.8476310787
 21
1312.0075416013
 31
0.0
  0
LINE
  5
14C
330
1F
100
AcDbEntity
  8
0
  6
Continuous
 62
     7
370
    15
100
AcDbLine
 10
1153.8476260719
 20
1312.2851204321
 30
0.0
 11
1153.8476260719
 21
1312.0075416013
 31
0.0
  0
LINE
  5
14D
330
1F
100
AcDbEntity
  8
0
  6
Continuous
 62
     7
370
    15
100
AcDbLine
 10
1173.347643238
 20
1312.0075416013
 30
0.0
 11
1153.8476260719
 21
1312.0075416013
 31
0.0
  0
LINE
  5
14E
330
1F
100
AcDbEntity
  8
0
  6
Continuous
 62
     7
370
    15
100
AcDbLine
 10
1173.347643238
 20
1312.0075416013
 30
0.0
 11
1173.347643238
 21
1310.9371613905
 31
0.0
  0
ARC
  5
14F
330
1F
100
AcDbEntity
  8
0
  6
Continuous
 62
     7
370
    15
100
AcDbCircle
 10
1173.5976400194
 20
1310.9472463965
 30
0.0
 40
0.2502001159713962
100
AcDbArc
 50
182.3100903187
 51
357.6899096813
  0
ARC
  5
150
330
1F
100
AcDbEntity
  8
0
  6
Continuous
 62
     7
370
    15
100
AcDbCircle
 10
1189.097619277
 20
1310.9472359518
 30
0.0
 40
0.2501996951856765
100
AcDbArc
 50
182.3077004189
 51
357.6922995811
  0
LINE
  5
151
330
1F
100
AcDbEntity
  8
0
  6
Continuous
 62
     7
370
    15
100
AcDbLine
 10
1189.3476160583
 20
1310.9371613905
 30
0.0
 11
1189.3476160583
 21
1312.2851204321
 31
0.0
  0
LINE
  5
152
330
1F
100
AcDbEntity
  8
0
  6
Continuous
 62
     7
370
    15
100
AcDbLine
 10
319.3476410923
 20
1312.2851204321
 30
0.0
 11
319.3476410923
 21
1310.9371613905
 31
0.0
  0
ARC
  5
153
330
1F
100
AcDbEntity
  8
0
  6
Continuous
 62
     7
370
    15
100
AcDbCircle
 10
319.5976378736
 20
1310.9472463965
 30
0.0
 40
0.2502001159713962
100
AcDbArc
 50
182.3100903187
 51
357.6899096813
  0
LINE
  5
154
330
1F
100
AcDbEntity
  8
0
  6
Continuous
 62
     7
370
    15
100
AcDbLine
 10
1204.3476315555
 20
1237.4231767103
 30
0.0
 11
1204.3476315555
 21
1312.2851204321
 31
0.0
  0
LINE
  5
155
330
1F
100
AcDbEntity
  8
0
  6
Continuous
 62
     7
370
    15
100
AcDbLine
 10
304.3476255951
 20
1237.4231767103
 30
0.0
 11
304.3476255951
 21
1312.2851204321
 31
0.0
  0
LINE
  5
156
330
1F
100
AcDbEntity
  8
0
  6
Continuous
 62
     7
370
    15
100
AcDbLine
 10
319.847634655
 20
1316.8057751104
 30
0.0
 11
319.847634655
 21
1316.0749029562
 31
0.0
  0
LWPOLYLINE
  5
157
330
1F
100
AcDbEntity
  8
0
  6
Continuous
 62
     7
370
    15
100
AcDbPolyline
 90
        9
 70
   128
 43
0.0
 10
319.847634655
 20
1316.8057751104
 10
319.9437173423
 20
1317.202503626
 10
320.2282401142
 20
1317.5840329572
 10
320.6902953205
 20
1317.9356407568
 10
321.3120909748
 20
1318.2437967703
 10
322.0697852192
 20
1318.496699278
 10
322.93420158
 20
1318.684632723
 10
323.8721700725
 20
1318.8003849432
 10
324.8476298866
 20
1318.8394259855
  0
LWPOLYLINE
  5
158
330
1F
100
AcDbEntity
  8
0
  6
Continuous
 62
     7
370
    15
100
AcDbPolyline
 90
        9
 70
   128
 43
0.0
 10
319.847634655
 20
1316.0749029562
 10
319.9437173423
 20
1316.4716910764
 10
320.2282401142
 20
1316.853160803
 10
320.6902953205
 20
1317.2047686025
 10
321.3120909748
 20
1317.5129842207
 10
322.0697852192
 20
1317.7658867284
 10
322.93420158
 20
1317.9538201734
 10
323.8721700725
 20
1318.0695127889
 10
324.8476298866
 20
1318.1086134359
  0
LINE
  5
159
330
1F
100
AcDbEntity
  8
0
  6
Continuous
 62
     7
370
    15
100
AcDbLine
 10
324.8476298866
 20
1318.1086134359
 30
0.0
 11
329.8476251182
 21
1318.1086134359
 31
0.0
  0
LWPOLYLINE
  5
15A
330
1F
100
AcDbEntity
  8
0
  6
Continuous
 62
     7
370
    15
100
AcDbPolyline
 90
        9
 70
   128
 43
0.0
 10
329.8476251182
 20
1318.1086134359
 10
330.8230849323
 20
1318.0695127889
 10
331.7610534248
 20
1317.9538201734
 10
332.6254697857
 20
1317.7658867284
 10
333.38316403
 20
1317.5129842207
 10
334.0049894867
 20
1317.2047686025
 10
334.4670148906
 20
1316.853160803
 10
334.7515674648
 20
1316.4716910764
 10
334.8476203499
 20
1316.0749029562
  0
LINE
  5
15B
330
1F
100
AcDbEntity
  8
0
  6
Continuous
 62
     7
370
    15
100
AcDbLine
 10
334.8476203499
 20
1316.0749029562
 30
0.0
 11
334.8476203499
 21
1312.4653648779
 31
0.0
  0
LINE
  5
15C
330
1F
100
AcDbEntity
  8
0
  6
Continuous
 62
     7
370
    15
100
AcDbLine
 10
319.847634655
 20
1312.4653648779
 30
0.0
 11
319.847634655
 21
1316.0749029562
 31
0.0
  0
LWPOLYLINE
  5
15D
330
1F
100
AcDbEntity
  8
0
  6
Continuous
 62
     7
370
    15
100
AcDbPolyline
 90
       19
 70
   128
 43
0.0
 10
327.3476275024
 20
1316.9697474882
 10
328.4420879898
 20
1316.891248171
 10
329.4045539913
 20
1316.665227358
 10
330.1189156589
 20
1316.3189839765
 10
330.4990144787
 20
1315.8941816732
 10
330.4990144787
 20
1315.4421996519
 10
330.1189156589
 20
1315.0173973486
 10
329.4045539913
 20
1314.6711539671
 10
328.4420879898
 20
1314.4451331541
 10
327.3476275024
 20
1314.3666338369
 10
326.253167015
 20
1314.4451331541
 10
325.2907010135
 20
1314.6711539671
 10
324.5763393459
 20
1315.0173973486
 10
324.1962405262
 20
1315.4421996519
 10
324.1962405262
 20
1315.8941816732
 10
324.5763393459
 20
1316.3189839765
 10
325.2907010135
 20
1316.665227358
 10
326.253167015
 20
1316.891248171
 10
327.3476275024
 20
1316.9697474882
  0
LINE
  5
15E
330
1F
100
AcDbEntity
  8
0
  6
Continuous
 62
     7
370
    15
100
AcDbLine
 10
324.8476298866
 20
1318.8394259855
 30
0.0
 11
329.8476251182
 21
1318.8394259855
 31
0.0
  0
LWPOLYLINE
  5
15F
330
1F
100
AcDbEntity
  8
0
  6
Continuous
 62
     7
370
    15
100
AcDbPolyline
 90
        9
 70
   128
 43
0.0
 10
329.8476251182
 20
1318.8394259855
 10
330.8230849323
 20
1318.8003849432
 10
331.7610534248
 20
1318.684632723
 10
332.6254697857
 20
1318.496699278
 10
333.38316403
 20
1318.2437967703
 10
334.0049894867
 20
1317.9356407568
 10
334.4670148906
 20
1317.5840329572
 10
334.7515674648
 20
1317.202503626
 10
334.8476203499
 20
1316.8057751104
  0
LINE
  5
160
330
1F
100
AcDbEntity
  8
0
  6
Continuous
 62
     7
370
    15
100
AcDbLine
 10
334.8476203499
 20
1316.8057751104
 30
0.0
 11
334.8476203499
 21
1316.0749029562
 31
0.0
  0
LWPOLYLINE
  5
161
330
1F
100
AcDbEntity
  8
0
  6
Continuous
 62
     7
370
    15
100
AcDbPolyline
 90
        9
 70
   128
 43
0.0
 10
1183.847627264
 20
1318.8394259855
 10
1184.8230870781
 20
1318.8003849432
 10
1185.7610555706
 20
1318.684632723
 10
1186.6254719314
 20
1318.496699278
 10
1187.3831661758
 20
1318.2437967703
 10
1188.0049916324
 20
1317.9356407568
 10
1188.4670170364
 20
1317.5840329572
 10
1188.7515696106
 20
1317.202503626
 10
1188.8476224956
 20
1316.8057751104
  0
LINE
  5
162
330
1F
100
AcDbEntity
  8
0
  6
Continuous
 62
     7
370
    15
100
AcDbLine
 10
1188.8476224956
 20
1316.8057751104
 30
0.0
 11
1188.8476224956
 21
1316.0749029562
 31
0.0
  0
LWPOLYLINE
  5
163
330
1F
100
AcDbEntity
  8
0
  6
Continuous
 62
     7
370
    15
100
AcDbPolyline
 90
        9
 70
   128
 43
0.0
 10
1183.847627264
 20
1318.1086134359
 10
1184.8230870781
 20
1318.0695127889
 10
1185.7610555706
 20
1317.9538201734
 10
1186.6254719314
 20
1317.7658867284
 10
1187.3831661758
 20
1317.5129842207
 10
1188.0049916324
 20
1317.2047686025
 10
1188.4670170364
 20
1316.853160803
 10
1188.7515696106
 20
1316.4716910764
 10
1188.8476224956
 20
1316.0749029562
  0
LWPOLYLINE
  5
164
330
1F
100
AcDbEntity
  8
0
  6
Continuous
 62
     7
370
    15
100
AcDbPolyline
 90
        9
 70
   128
 43
0.0
 10
1173.8476368007
 20
1316.0749029562
 10
1173.9436896858
 20
1316.4716910764
 10
1174.22824226
 20
1316.853160803
 10
1174.6902676639
 20
1317.2047686025
 10
1175.3120931205
 20
1317.5129842207
 10
1176.0697873649
 20
1317.7658867284
 10
1176.9342037258
 20
1317.9538201734
 10
1177.8721722183
 20
1318.0695127889
 10
1178.8476320324
 20
1318.1086134359
  0
LINE
  5
165
330
1F
100
AcDbEntity
  8
0
  6
Continuous
 62
     7
370
    15
100
AcDbLine
 10
1178.8476320324
 20
1318.1086134359
 30
0.0
 11
1183.847627264
 21
1318.1086134359
 31
0.0
  0
LINE
  5
166
330
1F
100
AcDbEntity
  8
0
  6
Continuous
 62
     7
370
    15
100
AcDbLine
 10
1188.8476224956
 20
1316.0749029562
 30
0.0
 11
1188.8476224956
 21
1312.4653648779
 31
0.0
  0
LINE
  5
167
330
1F
100
AcDbEntity
  8
0
  6
Continuous
 62
     7
370
    15
100
AcDbLine
 10
1173.8476368007
 20
1312.4653648779
 30
0.0
 11
1173.8476368007
 21
1316.0749029562
 31
0.0
  0
LWPOLYLINE
  5
168
330
1F
100
AcDbEntity
  8
0
  6
Continuous
 62
     7
370
    15
100
AcDbPolyline
 90
       19
 70
   128
 43
0.0
 10
1181.3476296482
 20
1316.9697474882
 10
1182.4420901355
 20
1316.891248171
 10
1183.4045561371
 20
1316.665227358
 10
1184.1189178047
 20
1316.3189839765
 10
1184.4990166244
 20
1315.8941816732
 10
1184.4990166244
 20
1315.4421996519
 10
1184.1189178047
 20
1315.0173973486
 10
1183.4045561371
 20
1314.6711539671
 10
1182.4420901355
 20
1314.4451331541
 10
1181.3476296482
 20
1314.3666338369
 10
1180.2531691608
 20
1314.4451331541
 10
1179.2907031593
 20
1314.6711539671
 10
1178.5763414917
 20
1315.0173973486
 10
1178.1962426719
 20
1315.4421996519
 10
1178.1962426719
 20
1315.8941816732
 10
1178.5763414917
 20
1316.3189839765
 10
1179.2907031593
 20
1316.665227358
 10
1180.2531691608
 20
1316.891248171
 10
1181.3476296482
 20
1316.9697474882
  0
LINE
  5
169
330
1F
100
AcDbEntity
  8
0
  6
Continuous
 62
     7
370
    15
100
AcDbLine
 10
1173.8476368007
 20
1316.8057751104
 30
0.0
 11
1173.8476368007
 21
1316.0749029562
 31
0.0
  0
LWPOLYLINE
  5
16A
330
1F
100
AcDbEntity
  8
0
  6
Continuous
 62
     7
370
    15
100
AcDbPolyline
 90
        9
 70
   128
 43
0.0
 10
1173.8476368007
 20
1316.8057751104
 10
1173.9436896858
 20
1317.202503626
 10
1174.22824226
 20
1317.5840329572
 10
1174.6902676639
 20
1317.9356407568
 10
1175.3120931205
 20
1318.2437967703
 10
1176.0697873649
 20
1318.496699278
 10
1176.9342037258
 20
1318.684632723
 10
1177.8721722183
 20
1318.8003849432
 10
1178.8476320324
 20
1318.8394259855
  0
LINE
  5
16B
330
1F
100
AcDbEntity
  8
0
  6
Continuous
 62
     7
370
    15
100
AcDbLine
 10
1178.8476320324
 20
1318.8394259855
 30
0.0
 11
1183.847627264
 21
1318.8394259855
 31
0.0
  0
ARC
  5
16C
330
1F
100
AcDbEntity
  8
0
  6
Continuous
 62
     7
370
    15
100
AcDbCircle
 10
327.3476424036
 20
1320.0916165279
 30
0.0
 40
5.089240133069041
100
AcDbArc
 50
232.8799120347
 51
307.1200879653
  0
ARC
  5
16D
330
1F
100
AcDbEntity
  8
0
  6
Continuous
 62
     7
370
    15
100
AcDbCircle
 10
1181.3476296482
 20
1320.0916811285
 30
0.0
 40
5.089300636471846
100
AcDbArc
 50
232.880217172
 51
307.119782828
  0
LINE
  5
16E
330
1F
100
AcDbEntity
  8
0
  6
Continuous
 62
     7
370
    15
100
AcDbLine
 10
334.8476203499
 20
1310.9371613905
 30
0.0
 11
334.8476203499
 21
1312.4653648779
 31
0.0
  0
LINE
  5
16F
330
1F
100
AcDbEntity
  8
0
  6
Continuous
 62
     7
370
    15
100
AcDbLine
 10
319.847634655
 20
1312.4653648779
 30
0.0
 11
319.847634655
 21
1310.9371613905
 31
0.0
  0
LINE
  5
170
330
1F
100
AcDbEntity
  8
0
  6
Continuous
 62
     7
370
    15
100
AcDbLine
 10
1173.8476368007
 20
1312.4653648779
 30
0.0
 11
1173.8476368007
 21
1310.9371613905
 31
0.0
  0
LINE
  5
171
330
1F
100
AcDbEntity
  8
0
  6
Continuous
 62
     7
370
    15
100
AcDbLine
 10
1188.8476224956
 20
1310.9371613905
 30
0.0
 11
1188.8476224956
 21
1312.4653648779
 31
0.0
  0
LINE
  5
172
330
1F
100
AcDbEntity
  8
0
  6
Continuous
 62
     7
370
    15
100
AcDbLine
 10
1189.3476160583
 20
1312.2851204321
 30
0.0
 11
1189.3476160583
 21
1313.7016248151
 31
0.0
  0
LINE
  5
173
330
1F
100
AcDbEntity
  8
0
  6
Continuous
 62
     7
370
    15
100
AcDbLine
 10
1204.3476315555
 20
1313.7016248151
 30
0.0
 11
1189.3476160583
 21
1313.7016248151
 31
0.0
  0
LINE
  5
174
330
1F
100
AcDbEntity
  8
0
  6
Continuous
 62
     7
370
    15
100
AcDbLine
 10
1204.3476315555
 20
1313.7016248151
 30
0.0
 11
1204.3476315555
 21
1312.2851204321
 31
0.0
  0
LINE
  5
175
330
1F
100
AcDbEntity
  8
0
  6
Continuous
 62
     7
370
    15
100
AcDbLine
 10
319.3476410923
 20
1313.7016248151
 30
0.0
 11
304.3476255951
 21
1313.7016248151
 31
0.0
  0
LINE
  5
176
330
1F
100
AcDbEntity
  8
0
  6
Continuous
 62
     7
370
    15
100
AcDbLine
 10
319.3476410923
 20
1313.7016248151
 30
0.0
 11
319.3476410923
 21
1312.2851204321
 31
0.0
  0
LINE
  5
177
330
1F
100
AcDbEntity
  8
0
  6
Continuous
 62
     7
370
    15
100
AcDbLine
 10
304.3476255951
 20
1312.2851204321
 30
0.0
 11
304.3476255951
 21
1313.7016248151
 31
0.0
  0
LINE
  5
178
330
1F
100
AcDbEntity
  8
0
  6
Continuous
 62
     7
370
    15
100
AcDbLine
 10
1153.8476260719
 20
1313.7016248151
 30
0.0
 11
354.8476310787
 21
1313.7016248151
 31
0.0
  0
LINE
  5
179
330
1F
100
AcDbEntity
  8
0
  6
Continuous
 62
     7
370
    15
100
AcDbLine
 10
1153.8476260719
 20
1313.7016248151
 30
0.0
 11
1153.8476260719
 21
1312.2851204321
 31
0.0
  0
LINE
  5
17A
330
1F
100
AcDbEntity
  8
0
  6
Continuous
 62
     7
370
    15
100
AcDbLine
 10
354.8476310787
 20
1312.2851204321
 30
0.0
 11
354.8476310787
 21
1313.7016248151
 31
0.0
  0
LWPOLYLINE
  5
17B
330
1F
100
AcDbEntity
  8
0
  6
Continuous
 62
     7
370
    15
100
AcDbPolyline
 90
        3
 70
   128
 43
0.0
 10
359.0976210651
 20
725.501949732
 10
359.111568552
 20
725.4973899767
 10
360.347619873
 20
725.3016185209
  0
LWPOLYLINE
  5
17C
330
1F
100
AcDbEntity
  8
0
  6
Continuous
 62
     7
370
    15
100
AcDbPolyline
 90
        3
 70
   128
 43
0.0
 10
1144.3476291713
 20
725.3016185209
 10
1143.111548048
 20
725.4973899767
 10
1143.0976303634
 20
725.501949732
  0
LWPOLYLINE
  5
17D
330
1F
100
AcDbEntity
  8
0
  6
Continuous
 62
     7
370
    15
100
AcDbPolyline
 90
        3
 70
   128
 43
0.0
 10
364.3476279793
 20
725.3016185209
 10
365.5837091026
 20
725.4973899767
 10
365.5976267872
 20
725.501949732
  0
LINE
  5
17E
330
1F
100
AcDbEntity
  8
0
  6
Continuous
 62
     7
370
    15
100
AcDbLine
 10
360.347619873
 20
725.3016185209
 30
0.0
 11
364.3476279793
 21
725.3016185209
 31
0.0
  0
LWPOLYLINE
  5
17F
330
1F
100
AcDbEntity
  8
0
  6
Continuous
 62
     7
370
    15
100
AcDbPolyline
 90
        3
 70
   128
 43
0.0
 10
1149.5976360855
 20
725.501949732
 10
1149.5836885986
 20
725.4973899767
 10
1148.3476372776
 20
725.3016185209
  0
LINE
  5
180
330
1F
100
AcDbEntity
  8
0
  6
Continuous
 62
     7
370
    15
100
AcDbLine
 10
1148.3476372776
 20
725.3016185209
 30
0.0
 11
1144.3476291713
 21
725.3016185209
 31
0.0
  0
ARC
  5
181
330
1F
100
AcDbEntity
  8
0
  6
Continuous
 62
     7
370
    15
100
AcDbCircle
 10
1170.8475786397
 20
1285.3485038066
 30
0.0
 40
5.404444951393665
100
AcDbArc
 50
2.3136753856
 51
177.6591302783
  0
ARC
  5
182
330
1F
100
AcDbEntity
  8
0
  6
Continuous
 62
     7
370
    15
100
AcDbCircle
 10
1170.8476307211
 20
1281.4368186001
 30
0.0
 40
5.403556052459038
100
AcDbArc
 50
182.0825334851
 51
357.9174665149
  0
LWPOLYLINE
  5
183
330
1F
100
AcDbEntity
  8
0
  6
Continuous
 62
     7
370
    15
100
AcDbPolyline
 90
       36
 70
   128
 43
0.0
 10
1182.2767766533
 20
1281.2404584333
 10
1182.0931049404
 20
1279.2996119901
 10
1181.5479906616
 20
1277.4211120054
 10
1180.6589575824
 20
1275.6653975889
 10
1179.4545861301
 20
1274.0888547346
 10
1177.9735895214
 20
1272.7421473905
 10
1176.2635322628
 20
1271.6686081335
 10
1174.3794294414
 20
1270.9026884481
 10
1172.3818095741
 20
1270.4690646574
 10
1170.3348668632
 20
1270.3816246435
 10
1168.3044048366
 20
1270.6432294294
 10
1166.3556905803
 20
1271.2454151556
 10
1164.5513387737
 20
1272.1688699171
 10
1162.9493745384
 20
1273.3838509962
 10
1161.6012664852
 20
1274.8513769552
 10
1160.5503173885
 20
1276.5242409155
 10
1159.8303528843
 20
1278.348739092
 10
1159.4644995746
 20
1280.2661013052
 10
1159.4644995746
 20
1282.2148155614
 10
1159.8303528843
 20
1284.1322373792
 10
1160.5503173885
 20
1285.9566759512
 10
1161.6012664852
 20
1287.6295399114
 10
1162.9493745384
 20
1289.0970658704
 10
1164.5513387737
 20
1290.3121065542
 10
1166.3556905803
 20
1291.235501711
 10
1168.3044048366
 20
1291.8376874372
 10
1170.3348668632
 20
1292.0992922231
 10
1172.3818095741
 20
1292.0118522092
 10
1174.3794294414
 20
1291.5782284185
 10
1176.2635322628
 20
1290.8123087331
 10
1177.9735895214
 20
1289.7387694761
 10
1179.4545861301
 20
1288.3921217367
 10
1180.6589575824
 20
1286.8155788824
 10
1181.5479906616
 20
1285.0598048612
 10
1182.0931049404
 20
1283.1813644811
 10
1182.2767766533
 20
1281.2404584333
  0
LWPOLYLINE
  5
184
330
1F
100
AcDbEntity
  8
0
  6
Continuous
 62
     7
370
    15
100
AcDbPolyline
 90
       39
 70
   128
 43
0.0
 10
1183.9476438579
 20
1281.0143780157
 10
1183.7689491329
 20
1278.9637398168
 10
1183.2378419456
 20
1276.9690107748
 10
1182.3687466201
 20
1275.0846099302
 10
1181.1853560028
 20
1273.3619760915
 10
1179.7200056133
 20
1271.8480777189
 10
1178.012660366
 20
1270.5842208311
 10
1176.1098416862
 20
1269.6049165174
 10
1174.0634950218
 20
1268.9367484495
 10
1171.9294103203
 20
1268.5980748579
 10
1169.7658511219
 20
1268.5980748579
 10
1167.6317664203
 20
1268.9367484495
 10
1165.5854197559
 20
1269.6049165174
 10
1163.6826010761
 20
1270.5842208311
 10
1161.9752558288
 20
1271.8480777189
 10
1160.509875637
 20
1273.3619760915
 10
1159.326514822
 20
1275.0846099302
 10
1158.4574194965
 20
1276.9690107748
 10
1157.9262825069
 20
1278.9637398168
 10
1157.7476175842
 20
1281.0143780157
 10
1157.9262825069
 20
1283.0650162145
 10
1158.4574194965
 20
1285.0597452566
 10
1159.326514822
 20
1286.9441461012
 10
1160.509875637
 20
1288.6667799398
 10
1161.9752558288
 20
1290.1806187078
 10
1163.6826010761
 20
1291.4444755956
 10
1165.5854197559
 20
1292.4238395139
 10
1167.6317664203
 20
1293.0919479772
 10
1169.7658511219
 20
1293.4306811735
 10
1171.9294103203
 20
1293.4306811735
 10
1174.0634950218
 20
1293.0919479772
 10
1176.1098416862
 20
1292.4238395139
 10
1178.012660366
 20
1291.4444755956
 10
1179.7200056133
 20
1290.1806187078
 10
1181.1853560028
 20
1288.6667799398
 10
1182.3687466201
 20
1286.9441461012
 10
1183.2378419456
 20
1285.0597452566
 10
1183.7689491329
 20
1283.0650162145
 10
1183.9476438579
 20
1281.0143780157
  0
LWPOLYLINE
  5
185
330
1F
100
AcDbEntity
  8
0
  6
Continuous
 62
     7
370
    15
100
AcDbPolyline
 90
       20
 70
   128
 43
0.0
 10
1183.9476438579
 20
1280.2206825658
 10
1183.7689491329
 20
1278.170044367
 10
1183.2378419456
 20
1276.1753153249
 10
1182.3687466201
 20
1274.290974085
 10
1181.1853560028
 20
1272.5683402464
 10
1179.7200056133
 20
1271.0544418737
 10
1178.012660366
 20
1269.7905849859
 10
1176.1098416862
 20
1268.8112210676
 10
1174.0634950218
 20
1268.1431126043
 10
1171.9294103203
 20
1267.8044390127
 10
1169.7658511219
 20
1267.8044390127
 10
1167.6317664203
 20
1268.1431126043
 10
1165.5854197559
 20
1268.8112210676
 10
1163.6826010761
 20
1269.7905849859
 10
1161.9752558288
 20
1271.0544418737
 10
1160.509875637
 20
1272.5683402464
 10
1159.326514822
 20
1274.290974085
 10
1158.4574194965
 20
1276.1753153249
 10
1157.9262825069
 20
1278.170044367
 10
1157.7476175842
 20
1280.2206825658
  0
ARC
  5
186
330
1F
100
AcDbEntity
  8
0
  6
Continuous
 62
     7
370
    15
100
AcDbCircle
 10
479.8476310787
 20
198.5045807321
 30
0.0
 40
349.2355331966741
100
AcDbArc
 50
89.1468537536
 51
90.8531462464
  0
LWPOLYLINE
  5
187
330
1F
100
AcDbEntity
  8
0
  6
Continuous
 62
     7
370
    15
100
AcDbPolyline
 90
       25
 70
   128
 43
0.0
 10
479.8476310787
 20
547.1733611271
 10
481.1935039577
 20
547.174316664
 10
482.4476154861
 20
547.1771180823
 10
483.5245820102
 20
547.1815753922
 10
484.3509706077
 20
547.1873831197
 10
484.8704548893
 20
547.1941463843
 10
485.0476296959
 20
547.2014051124
 10
484.8704548893
 20
547.2086638406
 10
484.3509706077
 20
547.2154271051
 10
483.5245820102
 20
547.2212366953
 10
482.4476154861
 20
547.2256921425
 10
481.1935039577
 20
547.2284954235
 10
479.8476310787
 20
547.2294509604
 10
478.5017581997
 20
547.2284954235
 10
477.2476168689
 20
547.2256921425
 10
476.1706801471
 20
547.2212366953
 10
475.3442915497
 20
547.2154271051
 10
474.8248072681
 20
547.2086638406
 10
474.6476324615
 20
547.2014051124
 10
474.8248072681
 20
547.1941463843
 10
475.3442915497
 20
547.1873831197
 10
476.1706801471
 20
547.1815753922
 10
477.2476168689
 20
547.1771180823
 10
478.5017581997
 20
547.174316664
 10
479.8476310787
 20
547.1733611271
  0
LWPOLYLINE
  5
188
330
1F
100
AcDbEntity
  8
0
  6
Continuous
 62
     7
370
    15
100
AcDbPolyline
 90
       22
 70
   128
 43
0.0
 10
479.8476310787
 20
547.1790235683
 10
481.0708674011
 20
547.1800182208
 10
482.1854146537
 20
547.1829127714
 10
483.0922397194
 20
547.187450175
 10
483.7107571182
 20
547.1932281002
 10
483.9860113678
 20
547.1997324571
 10
483.893594366
 20
547.2063858256
 10
483.441642147
 20
547.2125958845
 10
482.6703580436
 20
547.2178131535
 10
481.648257595
 20
547.2215701088
 10
480.4661484775
 20
547.2235370621
 10
479.2291136799
 20
547.2235370621
 10
478.0470045623
 20
547.2215701088
 10
477.0249041137
 20
547.2178131535
 10
476.2536200103
 20
547.2125958845
 10
475.8016677913
 20
547.2063858256
 10
475.7092209873
 20
547.1997324571
 10
475.9845050392
 20
547.1932281002
 10
476.603022438
 20
547.187450175
 10
477.5098475036
 20
547.1829127714
 10
478.6243947563
 20
547.1800182208
 10
479.8476310787
 20
547.1790235683
  0
ARC
  5
189
330
1F
100
AcDbEntity
  8
0
  6
Continuous
 62
     7
370
    15
100
AcDbCircle
 10
1028.8476260719
 20
198.5040871675
 30
0.0
 40
349.2360267065066
100
AcDbArc
 50
89.1468549593
 51
90.8531450407
  0
LWPOLYLINE
  5
18A
330
1F
100
AcDbEntity
  8
0
  6
Continuous
 62
     7
370
    15
100
AcDbPolyline
 90
       25
 70
   128
 43
0.0
 10
1028.8476260719
 20
547.1733611271
 10
1030.1934989509
 20
547.174316664
 10
1031.4476402816
 20
547.1771180823
 10
1032.5245770035
 20
547.1815753922
 10
1033.3509656009
 20
547.1873831197
 10
1033.8704498825
 20
547.1941463843
 10
1034.0476246891
 20
547.2014051124
 10
1033.8704498825
 20
547.2086638406
 10
1033.3509656009
 20
547.2154271051
 10
1032.5245770035
 20
547.2212366953
 10
1031.4476402816
 20
547.2256921425
 10
1030.1934989509
 20
547.2284954235
 10
1028.8476260719
 20
547.2294509604
 10
1027.5017829952
 20
547.2284954235
 10
1026.2476416645
 20
547.2256921425
 10
1025.1706751404
 20
547.2212366953
 10
1024.3442865429
 20
547.2154271051
 10
1023.8248022613
 20
547.2086638406
 10
1023.6476274547
 20
547.2014051124
 10
1023.8248022613
 20
547.1941463843
 10
1024.3442865429
 20
547.1873831197
 10
1025.1706751404
 20
547.1815753922
 10
1026.2476416645
 20
547.1771180823
 10
1027.5017829952
 20
547.174316664
 10
1028.8476260719
 20
547.1733611271
  0
LWPOLYLINE
  5
18B
330
1F
100
AcDbEntity
  8
0
  6
Continuous
 62
     7
370
    15
100
AcDbPolyline
 90
       22
 70
   128
 43
0.0
 10
1028.8476260719
 20
547.1790235683
 10
1030.0708623943
 20
547.1800182208
 10
1031.185409647
 20
547.1829127714
 10
1032.0922347126
 20
547.187450175
 10
1032.7107521114
 20
547.1932281002
 10
1032.9860361633
 20
547.1997324571
 10
1032.8935893593
 20
547.2063858256
 10
1032.4416371402
 20
547.2125958845
 10
1031.6703530369
 20
547.2178131535
 10
1030.6482525882
 20
547.2215701088
 10
1029.4661434707
 20
547.2235370621
 10
1028.2291086731
 20
547.2235370621
 10
1027.0469995556
 20
547.2215701088
 10
1026.024899107
 20
547.2178131535
 10
1025.2536150036
 20
547.2125958845
 10
1024.8016925869
 20
547.2063858256
 10
1024.7092457828
 20
547.1997324571
 10
1024.9845000324
 20
547.1932281002
 10
1025.6030174312
 20
547.187450175
 10
1026.5098424968
 20
547.1829127714
 10
1027.6243897495
 20
547.1800182208
 10
1028.8476260719
 20
547.1790235683
  0
LINE
  5
18C
330
1F
100
AcDbEntity
  8
0
  6
Continuous
 62
     7
370
    15
100
AcDbLine
 10
798.0476307091
 20
1313.9015983984
 30
0.0
 11
798.0476307091
 21
1313.7016248151
 31
0.0
  0
LINE
  5
18D
330
1F
100
AcDbEntity
  8
0
  6
Continuous
 62
     7
370
    15
100
AcDbLine
 10
796.0476303813
 20
1313.9015983984
 30
0.0
 11
796.0476303813
 21
1313.7016248151
 31
0.0
  0
LINE
  5
18E
330
1F
100
AcDbEntity
  8
0
  6
Continuous
 62
     7
370
    15
100
AcDbLine
 10
796.0476303813
 20
1314.0926908895
 30
0.0
 11
796.0476303813
 21
1313.9015983984
 31
0.0
  0
LINE
  5
18F
330
1F
100
AcDbEntity
  8
0
  6
Continuous
 62
     7
370
    15
100
AcDbLine
 10
1153.047642332
 20
1319.401616995
 30
0.0
 11
1154.76577602
 21
1319.401616995
 31
0.0
  0
LINE
  5
190
330
1F
100
AcDbEntity
  8
0
  6
Continuous
 62
     7
370
    15
100
AcDbLine
 10
1155.0476165828
 20
1319.2875337049
 30
0.0
 11
1155.0476165828
 21
1312.0075416013
 31
0.0
  0
LINE
  5
191
330
1F
100
AcDbEntity
  8
0
  6
Continuous
 62
     7
370
    15
100
AcDbLine
 10
1157.547644001
 20
1312.0075416013
 30
0.0
 11
1157.547644001
 21
1314.6570276662
 31
0.0
  0
LINE
  5
192
330
1F
100
AcDbEntity
  8
0
  6
Continuous
 62
     7
370
    15
100
AcDbLine
 10
376.297644001
 20
825.1027714655
 30
0.0
 11
376.297644001
 21
769.0998863622
 31
0.0
  0
ARC
  5
193
330
1F
100
AcDbEntity
  8
0
  6
Continuous
 62
     7
370
    15
100
AcDbCircle
 10
338.2994880126
 20
769.1034024287
 30
0.0
 40
2.001881045399777
100
AcDbArc
 50
180.2260206188
 51
270.0132562309
  0
LINE
  5
194
330
1F
100
AcDbEntity
  8
0
  6
Continuous
 62
     7
370
    15
100
AcDbLine
 10
374.2992790756
 20
767.1015214368
 30
0.0
 11
338.2999511776
 21
767.1015214368
 31
0.0
  0
ARC
  5
195
330
1F
100
AcDbEntity
  8
0
  6
Continuous
 62
     7
370
    15
100
AcDbCircle
 10
374.2956791595
 20
769.1034862784
 30
0.0
 40
2.001968078190266
100
AcDbArc
 50
270.103028672
 51
359.896971328
  0
ARC
  5
196
330
1F
100
AcDbEntity
  8
0
  6
Continuous
 62
     7
370
    15
100
AcDbCircle
 10
374.2953404041
 20
825.0992209501
 30
0.0
 40
2.002306744754761
100
AcDbArc
 50
0.101597646
 51
89.887295292
  0
LINE
  5
197
330
1F
100
AcDbEntity
  8
0
  6
Continuous
 62
     7
370
    15
100
AcDbLine
 10
338.2999511776
 20
827.101523821
 30
0.0
 11
374.2992790756
 21
827.101523821
 31
0.0
  0
ARC
  5
198
330
1F
100
AcDbEntity
  8
0
  6
Continuous
 62
     7
370
    15
100
AcDbCircle
 10
338.2997043479
 20
825.0994271272
 30
0.0
 40
2.002096709056924
100
AcDbArc
 50
89.9929362575
 51
179.7789182629
  0
LINE
  5
199
330
1F
100
AcDbEntity
  8
0
  6
Continuous
 62
     7
370
    15
100
AcDbLine
 10
336.2976225433
 20
769.0955054208
 30
0.0
 11
336.2976225433
 21
825.1071524068
 31
0.0
  0
ARC
  5
19A
330
1F
100
AcDbEntity
  8
0
  6
Continuous
 62
     7
370
    15
100
AcDbCircle
 10
338.2968969866
 20
769.1008005595
 30
0.0
 40
1.999281455481507
100
AcDbArc
 50
180.1517492443
 51
270.0875276055
  0
ARC
  5
19B
330
1F
100
AcDbEntity
  8
0
  6
Continuous
 62
     7
370
    15
100
AcDbCircle
 10
338.2971962924
 20
825.1019451895
 30
0.0
 40
1.999580529321237
100
AcDbArc
 50
89.9210617728
 51
179.8507927476
  0
ARC
  5
19C
330
1F
100
AcDbEntity
  8
0
  6
Continuous
 62
     7
370
    15
100
AcDbCircle
 10
374.2981536013
 20
769.1010118365
 30
0.0
 40
1.999490716446734
100
AcDbArc
 50
270.032250678
 51
359.967749322
  0
ARC
  5
19D
330
1F
100
AcDbEntity
  8
0
  6
Continuous
 62
     7
370
    15
100
AcDbCircle
 10
374.2978692198
 20
825.1017492756
 30
0.0
 40
1.999775042409517
100
AcDbArc
 50
0.0292868777
 51
89.9596060603
  0
LWPOLYLINE
  5
19E
330
1F
100
AcDbEntity
  8
0
  6
Continuous
 62
     7
370
    15
100
AcDbPolyline
 90
       23
 70
   128
 43
0.0
 10
1051.9079180774
 20
1146.9777774259
 10
1057.4470969257
 20
1146.8271564886
 10
1061.2890931186
 20
1146.2236594602
 10
1065.0892468509
 20
1145.2429842397
 10
1069.3218322811
 20
1143.6015915319
 10
1073.3493479309
 20
1141.3075279638
 10
1076.0628791866
 20
1139.1475748464
 10
1078.4569295463
 20
1136.5224074766
 10
1079.9312206325
 20
1134.2463445112
 10
1081.042608839
 20
1131.6944908544
 10
1081.6629441795
 20
1129.0507864401
 10
1081.7708285866
 20
1126.2361955091
 10
1081.4233931122
 20
1123.8569569036
 10
1080.6677254257
 20
1121.5026926443
 10
1079.5635195789
 20
1119.312519972
 10
1078.1272562561
 20
1117.2593187734
 10
1075.5942376671
 20
1114.633912985
 10
1072.5863488731
 20
1112.3908709928
 10
1067.9954203186
 20
1110.0153874799
 10
1062.9478307781
 20
1108.3568286344
 10
1057.7658029613
 20
1107.412393038
 10
1052.4251075802
 20
1107.1015548154
 10
1052.4251075802
 20
1107.1015548154
  0
LWPOLYLINE
  5
19F
330
1F
100
AcDbEntity
  8
0
  6
Continuous
 62
     7
370
    15
100
AcDbPolyline
 90
       22
 70
   128
 43
0.0
 10
456.6369863567
 20
1107.1333240911
 10
456.1701329765
 20
1107.1015548154
 10
451.1701377449
 20
1107.3734712049
 10
446.1701425132
 20
1108.2297515318
 10
441.3803430614
 20
1109.7027015134
 10
436.767241579
 20
1111.9250606939
 10
433.8230701503
 20
1113.9478635236
 10
431.1603518543
 20
1116.4458345815
 10
429.4061871586
 20
1118.7159966871
 10
428.0096205291
 20
1121.307427828
 10
427.1299453792
 20
1124.0430426046
 10
426.7982753334
 20
1127.013440077
 10
426.9941361961
 20
1129.4555615827
 10
427.6229651985
 20
1131.9004249021
 10
428.5917492923
 20
1134.1115188047
 10
429.901352745
 20
1136.2035822317
 10
432.1910651741
 20
1138.8249349043
 10
434.9527271805
 20
1141.1032032415
 10
439.1837032852
 20
1143.5592722341
 10
443.8795062122
 20
1145.3581404134
 10
450.6493123588
 20
1146.7689823553
 10
456.7119093952
 20
1147.030110304
  0
LWPOLYLINE
  5
1A0
330
1F
100
AcDbEntity
  8
0
  6
Continuous
 62
     7
370
    15
100
AcDbPolyline
 90
        6
 70
   128
 43
0.0
 10
308.3476337013
 20
739.1515325948
 10
307.6267751274
 20
738.8817619726
 10
306.9978269157
 20
738.6119168445
 10
306.541374546
 20
738.3420717165
 10
306.3157709655
 20
738.0722116872
 10
306.2976213512
 20
737.9722397968
  0
LINE
  5
1A1
330
1F
100
AcDbEntity
  8
0
  6
Continuous
 62
     7
370
    15
100
AcDbLine
 10
306.2976213512
 20
1176.230843012
 30
0.0
 11
306.2976213512
 21
737.9722397968
 31
0.0
  0
ARC
  5
1A2
330
1F
100
AcDbEntity
  8
0
  6
Continuous
 62
     7
370
    15
100
AcDbCircle
 10
309.2578041939
 20
1179.0050425883
 30
0.0
 40
4.056952766702466
100
AcDbArc
 50
223.1423767313
 51
257.0354406464
  0
LWPOLYLINE
  5
1A3
330
1F
100
AcDbEntity
  8
0
  6
Continuous
 62
     7
370
    15
100
AcDbPolyline
 90
        6
 70
   128
 43
0.0
 10
308.3476337013
 20
1175.0515055105
 10
308.077863079
 20
1175.7723640844
 10
307.8080328521
 20
1176.4013122961
 10
307.5381728229
 20
1176.8577646658
 10
307.2683127937
 20
1177.0833682462
 10
307.1683260021
 20
1177.1015476629
  0
LINE
  5
1A4
330
1F
100
AcDbEntity
  8
0
  6
Continuous
 62
     7
370
    15
100
AcDbLine
 10
307.1683260021
 20
1177.1015476629
 30
0.0
 11
1201.4269145546
 21
1177.1015476629
 31
0.0
  0
ARC
  5
1A5
330
1F
100
AcDbEntity
  8
0
  6
Continuous
 62
     7
370
    15
100
AcDbCircle
 10
1204.2005009262
 20
1174.1418457424
 30
0.0
 40
4.056182542586897
100
AcDbArc
 50
133.1407018978
 51
167.0403388487
  0
ARC
  5
1A6
330
1F
100
AcDbEntity
  8
0
  6
Continuous
 62
     7
370
    15
100
AcDbCircle
 10
306.3305276829
 20
1174.3298263727
 30
0.0
 40
2.142320579929118
100
AcDbArc
 50
19.686166999
 51
66.9788763306
  0
LINE
  5
1A7
330
1F
100
AcDbEntity
  8
0
  6
Continuous
 62
     7
370
    15
100
AcDbLine
 10
307.1683260021
 20
1177.1015476629
 30
0.0
 11
307.1683260021
 21
1176.3015341207
 31
0.0
  0
ARC
  5
1A8
330
1F
100
AcDbEntity
  8
0
  6
Continuous
 62
     7
370
    15
100
AcDbCircle
 10
309.0692052888
 20
737.1345798162
 30
0.0
 40
2.142140067146925
100
AcDbArc
 50
109.6848392086
 51
156.9808450904
  0
LINE
  5
1A9
330
1F
100
AcDbEntity
  8
0
  6
Continuous
 62
     7
370
    15
100
AcDbLine
 10
306.2976213512
 20
737.9722397968
 30
0.0
 11
307.0976348934
 21
737.9722397968
 31
0.0
  0
LINE
  5
1AA
330
1F
100
AcDbEntity
  8
0
  6
Continuous
 62
     7
370
    15
100
AcDbLine
 10
306.2976213512
 20
1176.230843012
 30
0.0
 11
307.0976348934
 21
1176.230843012
 31
0.0
  0
ARC
  5
1AB
330
1F
100
AcDbEntity
  8
0
  6
Continuous
 62
     7
370
    15
100
AcDbCircle
 10
309.0757075041
 20
1177.0753183406
 30
0.0
 40
2.150792838402122
100
AcDbArc
 50
203.1185212056
 51
250.2136262981
  0
LWPOLYLINE
  5
1AC
330
1F
100
AcDbEntity
  8
0
  6
Continuous
 62
     7
370
    15
100
AcDbPolyline
 90
        6
 70
   128
 43
0.0
 10
1200.2476366577
 20
1175.0515055105
 10
1200.9684952316
 20
1175.3212761327
 10
1201.5974434433
 20
1175.5911063596
 10
1202.053895813
 20
1175.8609961912
 10
1202.2794695911
 20
1176.1308264181
 10
1202.2976192054
 20
1176.230843012
  0
LINE
  5
1AD
330
1F
100
AcDbEntity
  8
0
  6
Continuous
 62
     7
370
    15
100
AcDbLine
 10
1202.2976192054
 20
737.9722397968
 30
0.0
 11
1202.2976192054
 21
1176.230843012
 31
0.0
  0
ARC
  5
1AE
330
1F
100
AcDbEntity
  8
0
  6
Continuous
 62
     7
370
    15
100
AcDbCircle
 10
1199.3378321152
 20
735.1986012986
 30
0.0
 40
4.056280332764832
100
AcDbArc
 50
43.1404165275
 51
77.0385582993
  0
ARC
  5
1AF
330
1F
100
AcDbEntity
  8
0
  6
Continuous
 62
     7
370
    15
100
AcDbCircle
 10
1199.5260142641
 20
1177.0684803882
 30
0.0
 40
2.1421779888965
100
AcDbArc
 50
289.6859195796
 51
336.9819329167
  0
LINE
  5
1B0
330
1F
100
AcDbEntity
  8
0
  6
Continuous
 62
     7
370
    15
100
AcDbLine
 10
1202.2976192054
 20
1176.230843012
 30
0.0
 11
1201.4976354656
 21
1176.230843012
 31
0.0
  0
ARC
  5
1B1
330
1F
100
AcDbEntity
  8
0
  6
Continuous
 62
     7
370
    15
100
AcDbCircle
 10
304.3947355381
 20
740.0612952094
 30
0.0
 40
4.056238639876935
100
AcDbArc
 50
313.1400385578
 51
347.0390304817
  0
LINE
  5
1B2
330
1F
100
AcDbEntity
  8
0
  6
Continuous
 62
     7
370
    15
100
AcDbLine
 10
307.1683260021
 20
737.1015202448
 30
0.0
 11
307.1683260021
 21
737.9015188858
 31
0.0
  0
ARC
  5
1B3
330
1F
100
AcDbEntity
  8
0
  6
Continuous
 62
     7
370
    15
100
AcDbCircle
 10
306.323957221
 20
739.879434046
 30
0.0
 40
2.150606198188201
100
AcDbArc
 50
293.1175575572
 51
340.2167172623
  0
LINE
  5
1B4
330
1F
100
AcDbEntity
  8
0
  6
Continuous
 62
     7
370
    15
100
AcDbLine
 10
1201.4269145546
 20
1177.1015476629
 30
0.0
 11
1201.4269145546
 21
1176.3015341207
 31
0.0
  0
ARC
  5
1B5
330
1F
100
AcDbEntity
  8
0
  6
Continuous
 62
     7
370
    15
100
AcDbCircle
 10
1202.2712697568
 20
1174.3236886945
 30
0.0
 40
2.150536732417172
100
AcDbArc
 50
113.1179542752
 51
160.2184478838
  0
LWPOLYLINE
  5
1B6
330
1F
100
AcDbEntity
  8
0
  6
Continuous
 62
     7
370
    15
100
AcDbPolyline
 90
        6
 70
   128
 43
0.0
 10
1200.2476366577
 20
739.1515325948
 10
1200.5173774776
 20
738.4306740209
 10
1200.7872375068
 20
737.8017109081
 10
1201.0570975361
 20
737.3452585384
 10
1201.326927763
 20
737.1196847602
 10
1201.4269145546
 20
737.1015202448
  0
LINE
  5
1B7
330
1F
100
AcDbEntity
  8
0
  6
Continuous
 62
     7
370
    15
100
AcDbLine
 10
1201.4269145546
 20
737.1015202448
 30
0.0
 11
307.1683260021
 21
737.1015202448
 31
0.0
  0
ARC
  5
1B8
330
1F
100
AcDbEntity
  8
0
  6
Continuous
 62
     7
370
    15
100
AcDbCircle
 10
1202.2645007549
 20
739.8729870308
 30
0.0
 40
2.142017107766972
100
AcDbArc
 50
199.6826877401
 51
246.9815919508
  0
LINE
  5
1B9
330
1F
100
AcDbEntity
  8
0
  6
Continuous
 62
     7
370
    15
100
AcDbLine
 10
1201.4269145546
 20
737.1015202448
 30
0.0
 11
1201.4269145546
 21
737.9015188858
 31
0.0
  0
LINE
  5
1BA
330
1F
100
AcDbEntity
  8
0
  6
Continuous
 62
     7
370
    15
100
AcDbLine
 10
1202.2976192054
 20
737.9722397968
 30
0.0
 11
1201.4976354656
 21
737.9722397968
 31
0.0
  0
ARC
  5
1BB
330
1F
100
AcDbEntity
  8
0
  6
Continuous
 62
     7
370
    15
100
AcDbCircle
 10
1199.5197297503
 20
737.1278646541
 30
0.0
 40
2.150600009378814
100
AcDbArc
 50
23.1178122265
 51
70.2165034745
  0
LINE
  5
1BC
330
1F
100
AcDbEntity
  8
0
  6
Continuous
 62
     7
370
    15
100
AcDbLine
 10
355.6476446209
 20
1313.7016248151
 30
0.0
 11
355.6476446209
 21
1319.8214721128
 31
0.0
  0
LINE
  5
1BD
330
1F
100
AcDbEntity
  8
0
  6
Continuous
 62
     7
370
    15
100
AcDbLine
 10
356.8476351318
 20
1313.7016248151
 30
0.0
 11
356.8476351318
 21
1319.9302505895
 31
0.0
  0
LINE
  5
1BE
330
1F
100
AcDbEntity
  8
0
  6
Continuous
 62
     7
370
    15
100
AcDbLine
 10
358.0476256427
 20
1313.7016248151
 30
0.0
 11
358.0476256427
 21
1319.9402641698
 31
0.0
  0
LINE
  5
1BF
330
1F
100
AcDbEntity
  8
0
  6
Continuous
 62
     7
370
    15
100
AcDbLine
 10
1150.6476315078
 20
1319.9402641698
 30
0.0
 11
1150.6476315078
 21
1313.7016248151
 31
0.0
  0
LINE
  5
1C0
330
1F
100
AcDbEntity
  8
0
  6
Continuous
 62
     7
370
    15
100
AcDbLine
 10
1151.8476220188
 20
1316.9016193792
 30
0.0
 11
1153.047642332
 21
1316.9016193792
 31
0.0
  0
LINE
  5
1C1
330
1F
100
AcDbEntity
  8
0
  6
Continuous
 62
     7
370
    15
100
AcDbLine
 10
1151.8476220188
 20
1316.9016193792
 30
0.0
 11
1151.8476220188
 21
1319.9302505895
 31
0.0
  0
LINE
  5
1C2
330
1F
100
AcDbEntity
  8
0
  6
Continuous
 62
     7
370
    15
100
AcDbLine
 10
1153.047642332
 20
1316.9016193792
 30
0.0
 11
1153.047642332
 21
1319.8214721128
 31
0.0
  0
LINE
  5
1C3
330
1F
100
AcDbEntity
  8
0
  6
Continuous
 62
     7
370
    15
100
AcDbLine
 10
1151.8476220188
 20
1314.9016451284
 30
0.0
 11
1151.8476220188
 21
1316.9016193792
 31
0.0
  0
LINE
  5
1C4
330
1F
100
AcDbEntity
  8
0
  6
Continuous
 62
     7
370
    15
100
AcDbLine
 10
1153.047642332
 20
1316.9016193792
 30
0.0
 11
1153.047642332
 21
1314.9016451284
 31
0.0
  0
LINE
  5
1C5
330
1F
100
AcDbEntity
  8
0
  6
Continuous
 62
     7
370
    15
100
AcDbLine
 10
1151.8476220188
 20
1313.7016248151
 30
0.0
 11
1151.8476220188
 21
1314.9016451284
 31
0.0
  0
LINE
  5
1C6
330
1F
100
AcDbEntity
  8
0
  6
Continuous
 62
     7
370
    15
100
AcDbLine
 10
1153.047642332
 20
1313.7016248151
 30
0.0
 11
1153.047642332
 21
1314.9016451284
 31
0.0
  0
LINE
  5
1C7
330
1F
100
AcDbEntity
  8
0
  6
Continuous
 62
     7
370
    15
100
AcDbLine
 10
1204.3476315555
 20
1368.7016319677
 30
0.0
 11
1201.8976422367
 21
1368.7016319677
 31
0.0
  0
LINE
  5
1C8
330
1F
100
AcDbEntity
  8
0
  6
Continuous
 62
     7
370
    15
100
AcDbLine
 10
306.7976447162
 20
1368.7016319677
 30
0.0
 11
304.3476255951
 21
1368.7016319677
 31
0.0
  0
LINE
  5
1C9
330
1F
100
AcDbEntity
  8
0
  6
Continuous
 62
     7
370
    15
100
AcDbLine
 10
1204.3476315555
 20
1368.7016319677
 30
0.0
 11
1204.3476315555
 21
1367.3959326192
 31
0.0
  0
LINE
  5
1CA
330
1F
100
AcDbEntity
  8
0
  6
Continuous
 62
     7
370
    15
100
AcDbLine
 10
304.3476255951
 20
1368.7016319677
 30
0.0
 11
304.3476255951
 21
1367.4015950605
 31
0.0
  0
LINE
  5
1CB
330
1F
100
AcDbEntity
  8
0
  6
Continuous
 62
     7
370
    15
100
AcDbLine
 10
1204.3476315555
 20
1369.9516009733
 30
0.0
 11
1204.3476315555
 21
1368.7016319677
 31
0.0
  0
LINE
  5
1CC
330
1F
100
AcDbEntity
  8
0
  6
Continuous
 62
     7
370
    15
100
AcDbLine
 10
304.3476255951
 20
1369.9516009733
 30
0.0
 11
304.3476255951
 21
1368.7016319677
 31
0.0
  0
LINE
  5
1CD
330
1F
100
AcDbEntity
  8
0
  6
Continuous
 62
     7
370
    15
100
AcDbLine
 10
889.3134655771
 20
1409.7393106863
 30
0.0
 11
888.7807490644
 21
1409.7319197103
 31
0.0
  0
LINE
  5
1CE
330
1F
100
AcDbEntity
  8
0
  6
Continuous
 62
     7
370
    15
100
AcDbLine
 10
909.9992575464
 20
1409.7319197103
 30
0.0
 11
909.4665410337
 21
1409.7393106863
 31
0.0
  0
LINE
  5
1CF
330
1F
100
AcDbEntity
  8
0
  6
Continuous
 62
     7
370
    15
100
AcDbLine
 10
988.7807580051
 20
1409.7319197103
 30
0.0
 11
909.9992575464
 21
1409.7319197103
 31
0.0
  0
LINE
  5
1D0
330
1F
100
AcDbEntity
  8
0
  6
Continuous
 62
     7
370
    15
100
AcDbLine
 10
989.3134596166
 20
1409.7393106863
 30
0.0
 11
988.7807580051
 21
1409.7319197103
 31
0.0
  0
LINE
  5
1D1
330
1F
100
AcDbEntity
  8
0
  6
Continuous
 62
     7
370
    15
100
AcDbLine
 10
1009.9992366848
 20
1409.7319197103
 30
0.0
 11
1009.4665499744
 21
1409.7393106863
 31
0.0
  0
LINE
  5
1D2
330
1F
100
AcDbEntity
  8
0
  6
Continuous
 62
     7
370
    15
100
AcDbLine
 10
1088.7807520446
 20
1409.7319197103
 30
0.0
 11
1009.9992366848
 21
1409.7319197103
 31
0.0
  0
LINE
  5
1D3
330
1F
100
AcDbEntity
  8
0
  6
Continuous
 62
     7
370
    15
100
AcDbLine
 10
1089.3134685573
 20
1409.7393106863
 30
0.0
 11
1088.7807520446
 21
1409.7319197103
 31
0.0
  0
LINE
  5
1D4
330
1F
100
AcDbEntity
  8
0
  6
Continuous
 62
     7
370
    15
100
AcDbLine
 10
1109.9992605266
 20
1409.7319197103
 30
0.0
 11
1109.4665440139
 21
1409.7393106863
 31
0.0
  0
LINE
  5
1D5
330
1F
100
AcDbEntity
  8
0
  6
Continuous
 62
     7
370
    15
100
AcDbLine
 10
1179.3476255951
 20
1409.7319197103
 30
0.0
 11
1109.9992605266
 21
1409.7319197103
 31
0.0
  0
LINE
  5
1D6
330
1F
100
AcDbEntity
  8
0
  6
Continuous
 62
     7
370
    15
100
AcDbLine
 10
1179.8803421077
 20
1409.7393106863
 30
0.0
 11
1179.3476255951
 21
1409.7319197103
 31
0.0
  0
LINE
  5
1D7
330
1F
100
AcDbEntity
  8
0
  6
Continuous
 62
     7
370
    15
100
AcDbLine
 10
1204.3476315555
 20
1409.7393106863
 30
0.0
 11
1204.3476315555
 21
1384.8184298917
 31
0.0
  0
LINE
  5
1D8
330
1F
100
AcDbEntity
  8
0
  6
Continuous
 62
     7
370
    15
100
AcDbLine
 10
304.3476255951
 20
1409.7393106863
 30
0.0
 11
304.3476255951
 21
1384.8184298917
 31
0.0
  0
ARC
  5
1D9
330
1F
100
AcDbEntity
  8
0
  6
Continuous
 62
     7
370
    15
100
AcDbCircle
 10
329.349498033
 20
1429.0683455105
 30
0.0
 40
19.3364258902509
100
AcDbArc
 50
268.4157748465
 51
269.994469439
  0
LINE
  5
1DA
330
1F
100
AcDbEntity
  8
0
  6
Continuous
 62
     7
370
    15
100
AcDbLine
 10
388.7807639656
 20
1409.7319197103
 30
0.0
 11
329.3476315555
 21
1409.7319197103
 31
0.0
  0
LINE
  5
1DB
330
1F
100
AcDbEntity
  8
0
  6
Continuous
 62
     7
370
    15
100
AcDbLine
 10
389.3134506759
 20
1409.7393106863
 30
0.0
 11
388.7807639656
 21
1409.7319197103
 31
0.0
  0
LINE
  5
1DC
330
1F
100
AcDbEntity
  8
0
  6
Continuous
 62
     7
370
    15
100
AcDbLine
 10
409.9992426452
 20
1409.7319197103
 30
0.0
 11
409.4665559349
 21
1409.7393106863
 31
0.0
  0
LINE
  5
1DD
330
1F
100
AcDbEntity
  8
0
  6
Continuous
 62
     7
370
    15
100
AcDbLine
 10
488.7807580051
 20
1409.7319197103
 30
0.0
 11
409.9992426452
 21
1409.7319197103
 31
0.0
  0
LINE
  5
1DE
330
1F
100
AcDbEntity
  8
0
  6
Continuous
 62
     7
370
    15
100
AcDbLine
 10
489.3134745178
 20
1409.7393106863
 30
0.0
 11
488.7807580051
 21
1409.7319197103
 31
0.0
  0
LINE
  5
1DF
330
1F
100
AcDbEntity
  8
0
  6
Continuous
 62
     7
370
    15
100
AcDbLine
 10
509.9992515859
 20
1409.7319197103
 30
0.0
 11
509.4665499744
 21
1409.7393106863
 31
0.0
  0
LINE
  5
1E0
330
1F
100
AcDbEntity
  8
0
  6
Continuous
 62
     7
370
    15
100
AcDbLine
 10
588.7807520446
 20
1409.7319197103
 30
0.0
 11
509.9992515859
 21
1409.7319197103
 31
0.0
  0
LINE
  5
1E1
330
1F
100
AcDbEntity
  8
0
  6
Continuous
 62
     7
370
    15
100
AcDbLine
 10
589.3134536562
 20
1409.7393106863
 30
0.0
 11
588.7807520446
 21
1409.7319197103
 31
0.0
  0
LINE
  5
1E2
330
1F
100
AcDbEntity
  8
0
  6
Continuous
 62
     7
370
    15
100
AcDbLine
 10
609.9992456255
 20
1409.7319197103
 30
0.0
 11
609.4665440139
 21
1409.7393106863
 31
0.0
  0
LINE
  5
1E3
330
1F
100
AcDbEntity
  8
0
  6
Continuous
 62
     7
370
    15
100
AcDbLine
 10
688.7807535348
 20
1409.7319197103
 30
0.0
 11
609.9992456255
 21
1409.7319197103
 31
0.0
  0
LINE
  5
1E4
330
1F
100
AcDbEntity
  8
0
  6
Continuous
 62
     7
370
    15
100
AcDbLine
 10
689.3134625969
 20
1409.7393106863
 30
0.0
 11
688.7807535348
 21
1409.7319197103
 31
0.0
  0
LINE
  5
1E5
330
1F
100
AcDbEntity
  8
0
  6
Continuous
 62
     7
370
    15
100
AcDbLine
 10
709.9992508409
 20
1409.7319197103
 30
0.0
 11
709.4665455041
 21
1409.7393106863
 31
0.0
  0
LINE
  5
1E6
330
1F
100
AcDbEntity
  8
0
  6
Continuous
 62
     7
370
    15
100
AcDbLine
 10
788.7807550249
 20
1409.7319197103
 30
0.0
 11
709.9992508409
 21
1409.7319197103
 31
0.0
  0
LINE
  5
1E7
330
1F
100
AcDbEntity
  8
0
  6
Continuous
 62
     7
370
    15
100
AcDbLine
 10
789.3134603617
 20
1409.7393106863
 30
0.0
 11
788.7807550249
 21
1409.7319197103
 31
0.0
  0
LINE
  5
1E8
330
1F
100
AcDbEntity
  8
0
  6
Continuous
 62
     7
370
    15
100
AcDbLine
 10
809.999252331
 20
1409.7319197103
 30
0.0
 11
809.4665469942
 21
1409.7393106863
 31
0.0
  0
LINE
  5
1E9
330
1F
100
AcDbEntity
  8
0
  6
Continuous
 62
     7
370
    15
100
AcDbLine
 10
888.7807490644
 20
1409.7319197103
 30
0.0
 11
809.999252331
 21
1409.7319197103
 31
0.0
  0
LINE
  5
1EA
330
1F
100
AcDbEntity
  8
0
  6
Continuous
 62
     7
370
    15
100
AcDbLine
 10
304.3476255951
 20
1384.8184298917
 30
0.0
 11
304.3476255951
 21
1369.9516009733
 31
0.0
  0
LINE
  5
1EB
330
1F
100
AcDbEntity
  8
0
  6
Continuous
 62
     7
370
    15
100
AcDbLine
 10
1204.3476315555
 20
1384.8184298917
 30
0.0
 11
1204.3476315555
 21
1369.9516009733
 31
0.0
  0
LWPOLYLINE
  5
1EC
330
1F
100
AcDbEntity
  8
0
  6
Continuous
 62
     7
370
    15
100
AcDbPolyline
 90
        9
 70
   128
 43
0.0
 10
405.5423351345
 20
1411.6126250669
 10
405.1293345508
 20
1411.31931061
 10
404.9996944484
 20
1411.0089492246
 10
405.1609548149
 20
1410.6996011182
 10
405.6037577209
 20
1410.4092668935
 10
406.3022943554
 20
1410.1547550604
 10
407.2159739551
 20
1409.9510263845
 10
408.2915695724
 20
1409.8097633764
 10
409.4665559349
 20
1409.7393106863
  0
LINE
  5
1ED
330
1F
100
AcDbEntity
  8
0
  6
Continuous
 62
     7
370
    15
100
AcDbLine
 10
405.5423351345
 20
1410.8398508474
 30
0.0
 11
405.2272947845
 21
1410.6396984502
 31
0.0
  0
LWPOLYLINE
  5
1EE
330
1F
100
AcDbEntity
  8
0
  6
Continuous
 62
     7
370
    15
100
AcDbPolyline
 90
        9
 70
   128
 43
0.0
 10
324.3476363239
 20
1411.0260557577
 10
324.4311126289
 20
1410.7905578062
 10
324.6788295326
 20
1410.5629276678
 10
325.0824423847
 20
1410.3507351324
 10
325.6285103378
 20
1410.1611327573
 10
326.2987943706
 20
1410.0003790304
 10
327.070912939
 20
1409.8738979742
 10
327.9190572319
 20
1409.7859215185
 10
328.8149150428
 20
1409.7393106863
  0
LWPOLYLINE
  5
1EF
330
1F
100
AcDbEntity
  8
0
  6
Continuous
 62
     7
370
    15
100
AcDbPolyline
 90
        9
 70
   128
 43
0.0
 10
1105.5423232135
 20
1411.6126250669
 10
1105.1293226299
 20
1411.31931061
 10
1104.9996825275
 20
1411.0089492246
 10
1105.160942894
 20
1410.6996011182
 10
1105.6037458
 20
1410.4092668935
 10
1106.3023122368
 20
1410.1547550604
 10
1107.2159620342
 20
1409.9510263845
 10
1108.2915576515
 20
1409.8097633764
 10
1109.4665440139
 20
1409.7393106863
  0
LINE
  5
1F0
330
1F
100
AcDbEntity
  8
0
  6
Continuous
 62
     7
370
    15
100
AcDbLine
 10
1105.5423232135
 20
1410.8398508474
 30
0.0
 11
1105.2273126659
 21
1410.6396984502
 31
0.0
  0
LWPOLYLINE
  5
1F1
330
1F
100
AcDbEntity
  8
0
  6
Continuous
 62
     7
370
    15
100
AcDbPolyline
 90
        9
 70
   128
 43
0.0
 10
1179.8803421077
 20
1409.7393106863
 10
1180.7761999187
 20
1409.7859215185
 10
1181.6243442116
 20
1409.8738979742
 10
1182.39646278
 20
1410.0003790304
 10
1183.0667468128
 20
1410.1611327573
 10
1183.6128147659
 20
1410.3507351324
 10
1184.016427618
 20
1410.5629276678
 10
1184.2641445217
 20
1410.7905578062
 10
1184.3476208267
 20
1411.0260557577
  0
LWPOLYLINE
  5
1F2
330
1F
100
AcDbEntity
  8
0
  6
Continuous
 62
     7
370
    15
100
AcDbPolyline
 90
        9
 70
   128
 43
0.0
 10
605.5423232135
 20
1411.6126250669
 10
605.1293226299
 20
1411.31931061
 10
604.9996825275
 20
1411.0089492246
 10
605.1609577951
 20
1410.6996011182
 10
605.6037458
 20
1410.4092668935
 10
606.3022973356
 20
1410.1547550604
 10
607.2159620342
 20
1409.9510263845
 10
608.2915725527
 20
1409.8097633764
 10
609.4665440139
 20
1409.7393106863
  0
LINE
  5
1F3
330
1F
100
AcDbEntity
  8
0
  6
Continuous
 62
     7
370
    15
100
AcDbLine
 10
605.5423232135
 20
1410.8398508474
 30
0.0
 11
605.2272977647
 21
1410.6396984502
 31
0.0
  0
LWPOLYLINE
  5
1F4
330
1F
100
AcDbEntity
  8
0
  6
Continuous
 62
     7
370
    15
100
AcDbPolyline
 90
        9
 70
   128
 43
0.0
 10
705.5423247037
 20
1411.6126250669
 10
705.12932412
 20
1411.31931061
 10
704.9996877429
 20
1411.0089492246
 10
705.1609555599
 20
1410.6996011182
 10
705.6037472901
 20
1410.4092668935
 10
706.3022988257
 20
1410.1547550604
 10
707.215959799
 20
1409.9510263845
 10
708.2915703175
 20
1409.8097633764
 10
709.4665455041
 20
1409.7393106863
  0
LINE
  5
1F5
330
1F
100
AcDbEntity
  8
0
  6
Continuous
 62
     7
370
    15
100
AcDbLine
 10
705.5423247037
 20
1410.8398508474
 30
0.0
 11
705.2273029802
 21
1410.6396984502
 31
0.0
  0
LWPOLYLINE
  5
1F6
330
1F
100
AcDbEntity
  8
0
  6
Continuous
 62
     7
370
    15
100
AcDbPolyline
 90
        9
 70
   128
 43
0.0
 10
805.5423261938
 20
1411.6126250669
 10
805.1293256101
 20
1411.31931061
 10
804.9996855077
 20
1411.0089492246
 10
805.1609570501
 20
1410.6996011182
 10
805.6037487802
 20
1410.4092668935
 10
806.3022965905
 20
1410.1547550604
 10
807.2159612891
 20
1409.9510263845
 10
808.2915718076
 20
1409.8097633764
 10
809.4665469942
 20
1409.7393106863
  0
LINE
  5
1F7
330
1F
100
AcDbEntity
  8
0
  6
Continuous
 62
     7
370
    15
100
AcDbLine
 10
805.5423261938
 20
1410.8398508474
 30
0.0
 11
805.2273044703
 21
1410.6396984502
 31
0.0
  0
LWPOLYLINE
  5
1F8
330
1F
100
AcDbEntity
  8
0
  6
Continuous
 62
     7
370
    15
100
AcDbPolyline
 90
        9
 70
   128
 43
0.0
 10
905.5423202333
 20
1411.6126250669
 10
905.1293196497
 20
1411.31931061
 10
904.9996944484
 20
1411.0089492246
 10
905.1609548149
 20
1410.6996011182
 10
905.6037428198
 20
1410.4092668935
 10
906.3022943554
 20
1410.1547550604
 10
907.215959054
 20
1409.9510263845
 10
908.2915695724
 20
1409.8097633764
 10
909.4665410337
 20
1409.7393106863
  0
LINE
  5
1F9
330
1F
100
AcDbEntity
  8
0
  6
Continuous
 62
     7
370
    15
100
AcDbLine
 10
905.5423202333
 20
1410.8398508474
 30
0.0
 11
905.2273096857
 21
1410.6396984502
 31
0.0
  0
LWPOLYLINE
  5
1FA
330
1F
100
AcDbEntity
  8
0
  6
Continuous
 62
     7
370
    15
100
AcDbPolyline
 90
        9
 70
   128
 43
0.0
 10
505.542329174
 20
1411.6126250669
 10
505.1293285904
 20
1411.31931061
 10
504.999688488
 20
1411.0089492246
 10
505.1609488544
 20
1410.6996011182
 10
505.6037517605
 20
1410.4092668935
 10
506.3023032961
 20
1410.1547550604
 10
507.2159530935
 20
1409.9510263845
 10
508.2915785131
 20
1409.8097633764
 10
509.4665499744
 20
1409.7393106863
  0
LINE
  5
1FB
330
1F
100
AcDbEntity
  8
0
  6
Continuous
 62
     7
370
    15
100
AcDbLine
 10
505.542329174
 20
1410.8398508474
 30
0.0
 11
505.2273037252
 21
1410.6396984502
 31
0.0
  0
LWPOLYLINE
  5
1FC
330
1F
100
AcDbEntity
  8
0
  6
Continuous
 62
     7
370
    15
100
AcDbPolyline
 90
        9
 70
   128
 43
0.0
 10
1005.542329174
 20
1411.6126250669
 10
1005.1293285904
 20
1411.31931061
 10
1004.999688488
 20
1411.0089492246
 10
1005.1609488544
 20
1410.6996011182
 10
1005.6037517605
 20
1410.4092668935
 10
1006.3022883949
 20
1410.1547550604
 10
1007.2159679947
 20
1409.9510263845
 10
1008.291563612
 20
1409.8097633764
 10
1009.4665499744
 20
1409.7393106863
  0
LINE
  5
1FD
330
1F
100
AcDbEntity
  8
0
  6
Continuous
 62
     7
370
    15
100
AcDbLine
 10
1005.542329174
 20
1410.8398508474
 30
0.0
 11
1005.2272888241
 21
1410.6396984502
 31
0.0
  0
LINE
  5
1FE
330
1F
100
AcDbEntity
  8
0
  6
Continuous
 62
     7
370
    15
100
AcDbLine
 10
793.2376811621
 20
1410.4394864484
 30
0.0
 11
803.1529361722
 21
1415.4865097448
 31
0.0
  0
LWPOLYLINE
  5
1FF
330
1F
100
AcDbEntity
  8
0
  6
Continuous
 62
     7
370
    15
100
AcDbPolyline
 90
        9
 70
   128
 43
0.0
 10
803.1529361722
 20
1415.4865097448
 10
803.5806218502
 20
1415.7966327116
 10
803.6920303819
 20
1416.1246370718
 10
803.4799533305
 20
1416.4493035719
 10
802.9581183908
 20
1416.7496513769
 10
802.160317671
 20
1417.006189768
 10
801.1382060466
 20
1417.2022294447
 10
799.9579632995
 20
1417.3252534315
 10
798.696010035
 20
1417.3670958921
  0
LINE
  5
200
330
1F
100
AcDbEntity
  8
0
  6
Continuous
 62
     7
370
    15
100
AcDbLine
 10
798.696010035
 20
1417.3670958921
 30
0.0
 11
719.914505851
 21
1417.3670958921
 31
0.0
  0
ARC
  5
201
330
1F
100
AcDbEntity
  8
0
  6
Continuous
 62
     7
370
    15
100
AcDbCircle
 10
719.4137199067
 20
1406.1298770322
 30
0.0
 40
11.24837207189803
100
AcDbArc
 50
87.448305584
 51
110.5918074087
  0
LINE
  5
202
330
1F
100
AcDbEntity
  8
0
  6
Continuous
 62
     7
370
    15
100
AcDbLine
 10
715.4575797138
 20
1416.6595887586
 30
0.0
 11
705.5423247037
 21
1411.6126250669
 31
0.0
  0
LINE
  5
203
330
1F
100
AcDbEntity
  8
0
  6
Continuous
 62
     7
370
    15
100
AcDbLine
 10
693.237679672
 20
1410.4394864484
 30
0.0
 11
703.1529346821
 21
1415.4865097448
 31
0.0
  0
LWPOLYLINE
  5
204
330
1F
100
AcDbEntity
  8
0
  6
Continuous
 62
     7
370
    15
100
AcDbPolyline
 90
        9
 70
   128
 43
0.0
 10
703.1529346821
 20
1415.4865097448
 10
703.5806203601
 20
1415.7966327116
 10
703.6920326171
 20
1416.1246370718
 10
703.4799518404
 20
1416.4493035719
 10
702.9581206259
 20
1416.7496513769
 10
702.1603199062
 20
1417.006189768
 10
701.1382045564
 20
1417.2022294447
 10
699.9579618094
 20
1417.3252534315
 10
698.6960085449
 20
1417.3670958921
  0
LINE
  5
205
330
1F
100
AcDbEntity
  8
0
  6
Continuous
 62
     7
370
    15
100
AcDbLine
 10
698.6960085449
 20
1417.3670958921
 30
0.0
 11
619.9145080862
 21
1417.3670958921
 31
0.0
  0
ARC
  5
206
330
1F
100
AcDbEntity
  8
0
  6
Continuous
 62
     7
370
    15
100
AcDbCircle
 10
619.4137184814
 20
1406.1299209221
 30
0.0
 40
11.24832838847665
100
AcDbArc
 50
87.4482770037
 51
110.5918508198
  0
LINE
  5
207
330
1F
100
AcDbEntity
  8
0
  6
Continuous
 62
     7
370
    15
100
AcDbLine
 10
615.4575856743
 20
1416.6595887586
 30
0.0
 11
605.5423232135
 21
1411.6126250669
 31
0.0
  0
LINE
  5
208
330
1F
100
AcDbEntity
  8
0
  6
Continuous
 62
     7
370
    15
100
AcDbLine
 10
593.2376744566
 20
1410.4394864484
 30
0.0
 11
603.1529369173
 21
1415.4865097448
 31
0.0
  0
LWPOLYLINE
  5
209
330
1F
100
AcDbEntity
  8
0
  6
Continuous
 62
     7
370
    15
100
AcDbPolyline
 90
        9
 70
   128
 43
0.0
 10
603.1529369173
 20
1415.4865097448
 10
603.5806151447
 20
1415.7966327116
 10
603.6920311269
 20
1416.1246370718
 10
603.4799578008
 20
1416.4493035719
 10
602.9581191358
 20
1416.7496513769
 10
602.1603109655
 20
1417.006189768
 10
601.1382105169
 20
1417.2022294447
 10
599.9579640445
 20
1417.3252534315
 10
598.6960145054
 20
1417.3670958921
  0
LINE
  5
20A
330
1F
100
AcDbEntity
  8
0
  6
Continuous
 62
     7
370
    15
100
AcDbLine
 10
598.6960145054
 20
1417.3670958921
 30
0.0
 11
519.9144991455
 21
1417.3670958921
 31
0.0
  0
ARC
  5
20B
330
1F
100
AcDbEntity
  8
0
  6
Continuous
 62
     7
370
    15
100
AcDbCircle
 10
519.4137224389
 20
1406.1298396701
 30
0.0
 40
11.24840898566548
100
AcDbArc
 50
87.448361064
 51
110.5917667595
  0
LINE
  5
20C
330
1F
100
AcDbEntity
  8
0
  6
Continuous
 62
     7
370
    15
100
AcDbLine
 10
515.4575767336
 20
1416.6595887586
 30
0.0
 11
505.542329174
 21
1411.6126250669
 31
0.0
  0
LINE
  5
20D
330
1F
100
AcDbEntity
  8
0
  6
Continuous
 62
     7
370
    15
100
AcDbLine
 10
493.2376953182
 20
1410.4394864484
 30
0.0
 11
503.1529279766
 21
1415.4865097448
 31
0.0
  0
LWPOLYLINE
  5
20E
330
1F
100
AcDbEntity
  8
0
  6
Continuous
 62
     7
370
    15
100
AcDbPolyline
 90
        9
 70
   128
 43
0.0
 10
503.1529279766
 20
1415.4865097448
 10
503.5806211052
 20
1415.7966327116
 10
503.6920221863
 20
1416.1246370718
 10
503.4799488601
 20
1416.4493035719
 10
502.9581101951
 20
1416.7496513769
 10
502.1603318271
 20
1417.006189768
 10
501.1382015762
 20
1417.2022294447
 10
499.957970005
 20
1417.3252534315
 10
498.6960204658
 20
1417.3670958921
  0
LINE
  5
20F
330
1F
100
AcDbEntity
  8
0
  6
Continuous
 62
     7
370
    15
100
AcDbLine
 10
498.6960204658
 20
1417.3670958921
 30
0.0
 11
419.9145051059
 21
1417.3670958921
 31
0.0
  0
ARC
  5
210
330
1F
100
AcDbEntity
  8
0
  6
Continuous
 62
     7
370
    15
100
AcDbCircle
 10
419.4137382903
 20
1406.1296940393
 30
0.0
 40
11.2485540317135
100
AcDbArc
 50
87.4484444191
 51
110.5916240813
  0
LINE
  5
211
330
1F
100
AcDbEntity
  8
0
  6
Continuous
 62
     7
370
    15
100
AcDbLine
 10
415.4575677929
 20
1416.6595887586
 30
0.0
 11
405.5423351345
 21
1411.6126250669
 31
0.0
  0
LINE
  5
212
330
1F
100
AcDbEntity
  8
0
  6
Continuous
 62
     7
370
    15
100
AcDbLine
 10
393.2376714763
 20
1410.4394864484
 30
0.0
 11
403.152933937
 21
1415.4865097448
 31
0.0
  0
LWPOLYLINE
  5
213
330
1F
100
AcDbEntity
  8
0
  6
Continuous
 62
     7
370
    15
100
AcDbPolyline
 90
        9
 70
   128
 43
0.0
 10
403.152933937
 20
1415.4865097448
 10
403.5806270656
 20
1415.7966327116
 10
403.6920281467
 20
1416.1246370718
 10
403.4799548206
 20
1416.4493035719
 10
402.9581161556
 20
1416.7496513769
 10
402.1603079853
 20
1417.006189768
 10
401.1382075367
 20
1417.2022294447
 10
399.9579759655
 20
1417.3252534315
 10
398.695996624
 20
1417.3670958921
  0
LINE
  5
214
330
1F
100
AcDbEntity
  8
0
  6
Continuous
 62
     7
370
    15
100
AcDbLine
 10
398.695996624
 20
1417.3670958921
 30
0.0
 11
329.3476315555
 21
1417.3670958921
 31
0.0
  0
LWPOLYLINE
  5
215
330
1F
100
AcDbEntity
  8
0
  6
Continuous
 62
     7
370
    15
100
AcDbPolyline
 90
        9
 70
   128
 43
0.0
 10
329.3476315555
 20
1417.3670958921
 10
328.3721717415
 20
1417.3422407552
 10
327.4342032489
 20
1417.2686290189
 10
326.5697868881
 20
1417.1490024969
 10
325.8120926437
 20
1416.988069956
 10
325.1902969894
 20
1416.7919706747
 10
324.7282417831
 20
1416.5682744428
 10
324.443689209
 20
1416.3255047247
 10
324.3476363239
 20
1416.0730194494
  0
LINE
  5
216
330
1F
100
AcDbEntity
  8
0
  6
Continuous
 62
     7
370
    15
100
AcDbLine
 10
324.3476363239
 20
1416.0730194494
 30
0.0
 11
324.3476363239
 21
1411.0260557577
 31
0.0
  0
LINE
  5
217
330
1F
100
AcDbEntity
  8
0
  6
Continuous
 62
     7
370
    15
100
AcDbLine
 10
304.3476255951
 20
1418.6612319395
 30
0.0
 11
304.3476255951
 21
1409.7393106863
 31
0.0
  0
LINE
  5
218
330
1F
100
AcDbEntity
  8
0
  6
Continuous
 62
     7
370
    15
100
AcDbLine
 10
1204.3476315555
 20
1418.6612319395
 30
0.0
 11
1204.3476315555
 21
1409.7393106863
 31
0.0
  0
LINE
  5
219
330
1F
100
AcDbEntity
  8
0
  6
Continuous
 62
     7
370
    15
100
AcDbLine
 10
1184.3476208267
 20
1411.0260557577
 30
0.0
 11
1184.3476208267
 21
1416.0730194494
 31
0.0
  0
LWPOLYLINE
  5
21A
330
1F
100
AcDbEntity
  8
0
  6
Continuous
 62
     7
370
    15
100
AcDbPolyline
 90
        9
 70
   128
 43
0.0
 10
1184.3476208267
 20
1416.0730194494
 10
1184.2515679416
 20
1416.3255047247
 10
1183.9670153675
 20
1416.5682744428
 10
1183.5049899635
 20
1416.7919706747
 10
1182.8831645069
 20
1416.988069956
 10
1182.1254702625
 20
1417.1490024969
 10
1181.2610539016
 20
1417.2686290189
 10
1180.3230854091
 20
1417.3422407552
 10
1179.3476255951
 20
1417.3670958921
  0
LINE
  5
21B
330
1F
100
AcDbEntity
  8
0
  6
Continuous
 62
     7
370
    15
100
AcDbLine
 10
1179.3476255951
 20
1417.3670958921
 30
0.0
 11
1119.914493185
 21
1417.3670958921
 31
0.0
  0
ARC
  5
21C
330
1F
100
AcDbEntity
  8
0
  6
Continuous
 62
     7
370
    15
100
AcDbCircle
 10
1119.4137065877
 20
1406.1299852983
 30
0.0
 40
11.2482639421655
100
AcDbArc
 50
87.4482777087
 51
110.5919094382
  0
LINE
  5
21D
330
1F
100
AcDbEntity
  8
0
  6
Continuous
 62
     7
370
    15
100
AcDbLine
 10
1115.4575856743
 20
1416.6595887586
 30
0.0
 11
1105.5423232135
 21
1411.6126250669
 31
0.0
  0
LINE
  5
21E
330
1F
100
AcDbEntity
  8
0
  6
Continuous
 62
     7
370
    15
100
AcDbLine
 10
1093.2376893577
 20
1410.4394864484
 30
0.0
 11
1103.1529220161
 21
1415.4865097448
 31
0.0
  0
LWPOLYLINE
  5
21F
330
1F
100
AcDbEntity
  8
0
  6
Continuous
 62
     7
370
    15
100
AcDbPolyline
 90
        9
 70
   128
 43
0.0
 10
1103.1529220161
 20
1415.4865097448
 10
1103.5806151447
 20
1415.7966327116
 10
1103.6920162258
 20
1416.1246370718
 10
1103.4799428997
 20
1416.4493035719
 10
1102.958134037
 20
1416.7496513769
 10
1102.1603258667
 20
1417.006189768
 10
1101.1381956157
 20
1417.2022294447
 10
1099.9579640445
 20
1417.3252534315
 10
1098.6960145054
 20
1417.3670958921
  0
LINE
  5
220
330
1F
100
AcDbEntity
  8
0
  6
Continuous
 62
     7
370
    15
100
AcDbLine
 10
1098.6960145054
 20
1417.3670958921
 30
0.0
 11
1019.9144991455
 21
1417.3670958921
 31
0.0
  0
ARC
  5
221
330
1F
100
AcDbEntity
  8
0
  6
Continuous
 62
     7
370
    15
100
AcDbCircle
 10
1019.4137017277
 20
1406.1300534615
 30
0.0
 40
11.24819632838015
100
AcDbArc
 50
87.4482071882
 51
110.5919799588
  0
LINE
  5
222
330
1F
100
AcDbEntity
  8
0
  6
Continuous
 62
     7
370
    15
100
AcDbLine
 10
1015.4575916347
 20
1416.6595887586
 30
0.0
 11
1005.542329174
 21
1411.6126250669
 31
0.0
  0
LINE
  5
223
330
1F
100
AcDbEntity
  8
0
  6
Continuous
 62
     7
370
    15
100
AcDbLine
 10
993.237680417
 20
1410.4394864484
 30
0.0
 11
1003.1529279766
 21
1415.4865097448
 31
0.0
  0
LWPOLYLINE
  5
224
330
1F
100
AcDbEntity
  8
0
  6
Continuous
 62
     7
370
    15
100
AcDbPolyline
 90
        9
 70
   128
 43
0.0
 10
1003.1529279766
 20
1415.4865097448
 10
1003.5806211052
 20
1415.7966327116
 10
1003.6920370874
 20
1416.1246370718
 10
1003.4799488601
 20
1416.4493035719
 10
1002.9581250963
 20
1416.7496513769
 10
1002.160316926
 20
1417.006189768
 10
1001.1382015762
 20
1417.2022294447
 10
999.957970005
 20
1417.3252534315
 10
998.6960055647
 20
1417.3670958921
  0
LINE
  5
225
330
1F
100
AcDbEntity
  8
0
  6
Continuous
 62
     7
370
    15
100
AcDbLine
 10
998.6960055647
 20
1417.3670958921
 30
0.0
 11
919.9145051059
 21
1417.3670958921
 31
0.0
  0
ARC
  5
226
330
1F
100
AcDbEntity
  8
0
  6
Continuous
 62
     7
370
    15
100
AcDbCircle
 10
919.4137155011
 20
1406.1299209221
 30
0.0
 40
11.24832838847668
100
AcDbArc
 50
87.4482770037
 51
110.5918508198
  0
LINE
  5
227
330
1F
100
AcDbEntity
  8
0
  6
Continuous
 62
     7
370
    15
100
AcDbLine
 10
915.457582694
 20
1416.6595887586
 30
0.0
 11
905.5423202333
 21
1411.6126250669
 31
0.0
  0
LINE
  5
228
330
1F
100
AcDbEntity
  8
0
  6
Continuous
 62
     7
370
    15
100
AcDbLine
 10
893.2376863775
 20
1410.4394864484
 30
0.0
 11
903.152933937
 21
1415.4865097448
 31
0.0
  0
LWPOLYLINE
  5
229
330
1F
100
AcDbEntity
  8
0
  6
Continuous
 62
     7
370
    15
100
AcDbPolyline
 90
        9
 70
   128
 43
0.0
 10
903.152933937
 20
1415.4865097448
 10
903.5806270656
 20
1415.7966327116
 10
903.6920281467
 20
1416.1246370718
 10
903.4799548206
 20
1416.4493035719
 10
902.9581161556
 20
1416.7496513769
 10
902.1603228864
 20
1417.006189768
 10
901.1382075367
 20
1417.2022294447
 10
899.9579610643
 20
1417.3252534315
 10
898.6960115251
 20
1417.3670958921
  0
LINE
  5
22A
330
1F
100
AcDbEntity
  8
0
  6
Continuous
 62
     7
370
    15
100
AcDbLine
 10
898.6960115251
 20
1417.3670958921
 30
0.0
 11
819.9145036158
 21
1417.3670958921
 31
0.0
  0
ARC
  5
22B
330
1F
100
AcDbEntity
  8
0
  6
Continuous
 62
     7
370
    15
100
AcDbCircle
 10
819.4137208961
 20
1406.1298567192
 30
0.0
 40
11.2483922212088
100
AcDbArc
 50
87.4483265991
 51
110.5917863936
  0
LINE
  5
22C
330
1F
100
AcDbEntity
  8
0
  6
Continuous
 62
     7
370
    15
100
AcDbLine
 10
815.4575774786
 20
1416.6595887586
 30
0.0
 11
805.5423261938
 21
1411.6126250669
 31
0.0
  0
ARC
  5
22D
330
1F
100
AcDbEntity
  8
0
  6
Continuous
 62
     7
370
    15
100
AcDbCircle
 10
1089.4829972346
 20
1420.1361423476
 30
0.0
 40
10.39821371996545
100
AcDbArc
 50
269.0658291572
 51
291.1671584322
  0
ARC
  5
22E
330
1F
100
AcDbEntity
  8
0
  6
Continuous
 62
     7
370
    15
100
AcDbCircle
 10
989.4830054934
 20
1420.1360459506
 30
0.0
 40
10.39811761625774
100
AcDbArc
 50
269.0657257367
 51
291.1672618526
  0
ARC
  5
22F
330
1F
100
AcDbEntity
  8
0
  6
Continuous
 62
     7
370
    15
100
AcDbCircle
 10
889.4829859005
 20
1420.1361891678
 30
0.0
 40
10.39826039781591
100
AcDbArc
 50
269.065879388
 51
291.1671082013
  0
ARC
  5
230
330
1F
100
AcDbEntity
  8
0
  6
Continuous
 62
     7
370
    15
100
AcDbCircle
 10
589.4830095399
 20
1420.1359898655
 30
0.0
 40
10.39806170177853
100
AcDbArc
 50
269.0656655644
 51
291.1673220249
  0
ARC
  5
231
330
1F
100
AcDbEntity
  8
0
  6
Continuous
 62
     7
370
    15
100
AcDbCircle
 10
789.4829980521
 20
1420.1360918323
 30
0.0
 40
10.39816335833195
100
AcDbArc
 50
269.0657749616
 51
291.1672126278
  0
ARC
  5
232
330
1F
100
AcDbEntity
  8
0
  6
Continuous
 62
     7
370
    15
100
AcDbCircle
 10
689.4830010912
 20
1420.1360673498
 30
0.0
 40
10.39813889221534
100
AcDbArc
 50
269.0657683328
 51
291.1672380671
  0
ARC
  5
233
330
1F
100
AcDbEntity
  8
0
  6
Continuous
 62
     7
370
    15
100
AcDbCircle
 10
389.4830137517
 20
1420.1359495568
 30
0.0
 40
10.39802151566724
100
AcDbArc
 50
269.0656223177
 51
291.1673652716
  0
ARC
  5
234
330
1F
100
AcDbEntity
  8
0
  6
Continuous
 62
     7
370
    15
100
AcDbCircle
 10
489.4829864871
 20
1420.1362359893
 30
0.0
 40
10.39830707690486
100
AcDbArc
 50
269.0659296198
 51
291.1670579695
  0
LINE
  5
235
330
1F
100
AcDbEntity
  8
0
  6
Continuous
 62
     7
370
    15
100
AcDbLine
 10
415.4575677929
 20
1415.8868145391
 30
0.0
 11
405.5423351345
 21
1410.8398508474
 31
0.0
  0
LINE
  5
236
330
1F
100
AcDbEntity
  8
0
  6
Continuous
 62
     7
370
    15
100
AcDbLine
 10
1115.4575856743
 20
1415.8868145391
 30
0.0
 11
1105.5423232135
 21
1410.8398508474
 31
0.0
  0
LINE
  5
237
330
1F
100
AcDbEntity
  8
0
  6
Continuous
 62
     7
370
    15
100
AcDbLine
 10
615.4575856743
 20
1415.8868145391
 30
0.0
 11
605.5423232135
 21
1410.8398508474
 31
0.0
  0
LINE
  5
238
330
1F
100
AcDbEntity
  8
0
  6
Continuous
 62
     7
370
    15
100
AcDbLine
 10
715.4575797138
 20
1415.8868145391
 30
0.0
 11
705.5423247037
 21
1410.8398508474
 31
0.0
  0
LINE
  5
239
330
1F
100
AcDbEntity
  8
0
  6
Continuous
 62
     7
370
    15
100
AcDbLine
 10
515.4575767336
 20
1415.8868145391
 30
0.0
 11
505.542329174
 21
1410.8398508474
 31
0.0
  0
LINE
  5
23A
330
1F
100
AcDbEntity
  8
0
  6
Continuous
 62
     7
370
    15
100
AcDbLine
 10
915.457582694
 20
1415.8868145391
 30
0.0
 11
905.5423202333
 21
1410.8398508474
 31
0.0
  0
LINE
  5
23B
330
1F
100
AcDbEntity
  8
0
  6
Continuous
 62
     7
370
    15
100
AcDbLine
 10
815.4575774786
 20
1415.8868145391
 30
0.0
 11
805.5423261938
 21
1410.8398508474
 31
0.0
  0
LINE
  5
23C
330
1F
100
AcDbEntity
  8
0
  6
Continuous
 62
     7
370
    15
100
AcDbLine
 10
1015.4575916347
 20
1415.8868145391
 30
0.0
 11
1005.542329174
 21
1410.8398508474
 31
0.0
  0
ARC
  5
23D
330
1F
100
AcDbEntity
  8
0
  6
Continuous
 62
     7
370
    15
100
AcDbCircle
 10
399.3668208899
 20
1407.1238507438
 30
0.0
 40
9.494258990565895
100
AcDbArc
 50
64.4080994143
 51
94.0516538583
  0
ARC
  5
23E
330
1F
100
AcDbEntity
  8
0
  6
Continuous
 62
     7
370
    15
100
AcDbCircle
 10
499.366793367
 20
1407.1235807155
 30
0.0
 40
9.494524715062136
100
AcDbArc
 50
64.4085237407
 51
94.051229532
  0
ARC
  5
23F
330
1F
100
AcDbEntity
  8
0
  6
Continuous
 62
     7
370
    15
100
AcDbCircle
 10
699.3668108967
 20
1407.1237355399
 30
0.0
 40
9.494372358247302
100
AcDbArc
 50
64.4082804503
 51
94.0514728224
  0
ARC
  5
240
330
1F
100
AcDbEntity
  8
0
  6
Continuous
 62
     7
370
    15
100
AcDbCircle
 10
799.3668086798
 20
1407.1237160517
 30
0.0
 40
9.494391535838128
100
AcDbArc
 50
64.4083110744
 51
94.0514421982
  0
ARC
  5
241
330
1F
100
AcDbEntity
  8
0
  6
Continuous
 62
     7
370
    15
100
AcDbCircle
 10
599.3668082277
 20
1407.1236901742
 30
0.0
 40
9.494417000954106
100
AcDbArc
 50
64.4083517387
 51
94.051401534
  0
ARC
  5
242
330
1F
100
AcDbEntity
  8
0
  6
Continuous
 62
     7
370
    15
100
AcDbCircle
 10
999.3668189766
 20
1407.1237936835
 30
0.0
 40
9.494315141352795
100
AcDbArc
 50
64.4081890816
 51
94.051564191
  0
ARC
  5
243
330
1F
100
AcDbEntity
  8
0
  6
Continuous
 62
     7
370
    15
100
AcDbCircle
 10
899.3668052475
 20
1407.1236901742
 30
0.0
 40
9.494417000954114
100
AcDbArc
 50
64.4083517387
 51
94.051401534
  0
ARC
  5
244
330
1F
100
AcDbEntity
  8
0
  6
Continuous
 62
     7
370
    15
100
AcDbCircle
 10
1099.3668170631
 20
1407.1237366226
 30
0.0
 40
9.494371292856997
100
AcDbArc
 50
64.408278749
 51
94.0514745236
  0
LWPOLYLINE
  5
245
330
1F
100
AcDbEntity
  8
0
  6
Continuous
 62
     7
370
    15
100
AcDbPolyline
 90
        9
 70
   128
 43
0.0
 10
329.3476315555
 20
1416.5943812772
 10
328.3721717415
 20
1416.5695261404
 10
327.4342032489
 20
1416.4958547994
 10
326.5697868881
 20
1416.376287882
 10
325.8120926437
 20
1416.2153553411
 10
325.1902969894
 20
1416.0192560598
 10
324.7282417831
 20
1415.7955002233
 10
324.443689209
 20
1415.5527305051
 10
324.3476363239
 20
1415.3003048345
  0
LWPOLYLINE
  5
246
330
1F
100
AcDbEntity
  8
0
  6
Continuous
 62
     7
370
    15
100
AcDbPolyline
 90
        9
 70
   128
 43
0.0
 10
1184.3476208267
 20
1415.3003048345
 10
1184.2515679416
 20
1415.5527305051
 10
1183.9670153675
 20
1415.7955002233
 10
1183.5049899635
 20
1416.0192560598
 10
1182.8831645069
 20
1416.2153553411
 10
1182.1254702625
 20
1416.376287882
 10
1181.2610539016
 20
1416.4958547994
 10
1180.3230854091
 20
1416.5695261404
 10
1179.3476255951
 20
1416.5943812772
  0
ARC
  5
247
330
1F
100
AcDbEntity
  8
0
  6
Continuous
 62
     7
370
    15
100
AcDbCircle
 10
1119.4137228048
 20
1405.3580555332
 30
0.0
 40
11.24747914870408
100
AcDbArc
 50
87.4481822377
 51
110.5934997322
  0
ARC
  5
248
330
1F
100
AcDbEntity
  8
0
  6
Continuous
 62
     7
370
    15
100
AcDbCircle
 10
419.4137545118
 20
1405.3577642705
 30
0.0
 40
11.24776924169492
100
AcDbArc
 50
87.4483489852
 51
110.5932143286
  0
ARC
  5
249
330
1F
100
AcDbEntity
  8
0
  6
Continuous
 62
     7
370
    15
100
AcDbCircle
 10
619.4137347019
 20
1405.3579911399
 30
0.0
 40
11.24754361187125
100
AcDbArc
 50
87.4481815548
 51
110.5934410868
  0
ARC
  5
24A
330
1F
100
AcDbEntity
  8
0
  6
Continuous
 62
     7
370
    15
100
AcDbCircle
 10
719.4137361266
 20
1405.3579472576
 30
0.0
 40
11.24758728774179
100
AcDbArc
 50
87.4482101326
 51
110.5933976771
  0
ARC
  5
24B
330
1F
100
AcDbEntity
  8
0
  6
Continuous
 62
     7
370
    15
100
AcDbCircle
 10
919.4137317217
 20
1405.3579911399
 30
0.0
 40
11.24754361187125
100
AcDbArc
 50
87.4481815548
 51
110.5934410868
  0
ARC
  5
24C
330
1F
100
AcDbEntity
  8
0
  6
Continuous
 62
     7
370
    15
100
AcDbCircle
 10
519.4137386581
 20
1405.3579099031
 30
0.0
 40
11.24762419392571
100
AcDbArc
 50
87.4482656115
 51
110.5933570302
  0
ARC
  5
24D
330
1F
100
AcDbEntity
  8
0
  6
Continuous
 62
     7
370
    15
100
AcDbCircle
 10
819.4137371157
 20
1405.3579269483
 30
0.0
 40
11.24760743326885
100
AcDbArc
 50
87.4482311468
 51
110.5933766629
  0
ARC
  5
24E
330
1F
100
AcDbEntity
  8
0
  6
Continuous
 62
     7
370
    15
100
AcDbCircle
 10
1019.4137179455
 20
1405.358123686
 30
0.0
 40
11.24741154517521
100
AcDbArc
 50
87.4481117176
 51
110.5935702523
  0
LINE
  5
24F
330
1F
100
AcDbEntity
  8
0
  6
Continuous
 62
     7
370
    15
100
AcDbLine
 10
398.695996624
 20
1416.5943812772
 30
0.0
 11
329.3476315555
 21
1416.5943812772
 31
0.0
  0
LINE
  5
250
330
1F
100
AcDbEntity
  8
0
  6
Continuous
 62
     7
370
    15
100
AcDbLine
 10
498.6960204658
 20
1416.5943812772
 30
0.0
 11
419.9145051059
 21
1416.5943812772
 31
0.0
  0
LINE
  5
251
330
1F
100
AcDbEntity
  8
0
  6
Continuous
 62
     7
370
    15
100
AcDbLine
 10
1179.3476255951
 20
1416.5943812772
 30
0.0
 11
1119.914493185
 21
1416.5943812772
 31
0.0
  0
LINE
  5
252
330
1F
100
AcDbEntity
  8
0
  6
Continuous
 62
     7
370
    15
100
AcDbLine
 10
698.6960085449
 20
1416.5943812772
 30
0.0
 11
619.9145080862
 21
1416.5943812772
 31
0.0
  0
LINE
  5
253
330
1F
100
AcDbEntity
  8
0
  6
Continuous
 62
     7
370
    15
100
AcDbLine
 10
798.696010035
 20
1416.5943812772
 30
0.0
 11
719.914505851
 21
1416.5943812772
 31
0.0
  0
LINE
  5
254
330
1F
100
AcDbEntity
  8
0
  6
Continuous
 62
     7
370
    15
100
AcDbLine
 10
598.6960145054
 20
1416.5943812772
 30
0.0
 11
519.9144991455
 21
1416.5943812772
 31
0.0
  0
LINE
  5
255
330
1F
100
AcDbEntity
  8
0
  6
Continuous
 62
     7
370
    15
100
AcDbLine
 10
898.6960115251
 20
1416.5943812772
 30
0.0
 11
819.9145036158
 21
1416.5943812772
 31
0.0
  0
LINE
  5
256
330
1F
100
AcDbEntity
  8
0
  6
Continuous
 62
     7
370
    15
100
AcDbLine
 10
998.6960055647
 20
1416.5943812772
 30
0.0
 11
919.9145051059
 21
1416.5943812772
 31
0.0
  0
LINE
  5
257
330
1F
100
AcDbEntity
  8
0
  6
Continuous
 62
     7
370
    15
100
AcDbLine
 10
1098.6960145054
 20
1416.5943812772
 30
0.0
 11
1019.9144991455
 21
1416.5943812772
 31
0.0
  0
LINE
  5
258
330
1F
100
AcDbEntity
  8
0
  6
Continuous
 62
     7
370
    15
100
AcDbLine
 10
1204.3476315555
 20
1418.7310885831
 30
0.0
 11
1204.3476315555
 21
1418.6612319395
 31
0.0
  0
LINE
  5
259
330
1F
100
AcDbEntity
  8
0
  6
Continuous
 62
     7
370
    15
100
AcDbLine
 10
304.3476255951
 20
1418.7310885831
 30
0.0
 11
304.3476255951
 21
1418.6612319395
 31
0.0
  0
LINE
  5
25A
330
1F
100
AcDbEntity
  8
0
  6
Continuous
 62
     7
370
    15
100
AcDbLine
 10
305.547616106
 20
1368.6962675497
 30
0.0
 11
306.7976447162
 21
1368.6962675497
 31
0.0
  0
LINE
  5
25B
330
1F
100
AcDbEntity
  8
0
  6
Continuous
 62
     7
370
    15
100
AcDbLine
 10
306.7976447162
 20
1368.6962675497
 30
0.0
 11
306.7976447162
 21
1368.7016319677
 31
0.0
  0
LINE
  5
25C
330
1F
100
AcDbEntity
  8
0
  6
Continuous
 62
     7
370
    15
100
AcDbLine
 10
1201.8976422367
 20
1368.7016319677
 30
0.0
 11
306.7976447162
 21
1368.7016319677
 31
0.0
  0
LINE
  5
25D
330
1F
100
AcDbEntity
  8
0
  6
Continuous
 62
     7
370
    15
100
AcDbLine
 10
1201.8976422367
 20
1368.7016319677
 30
0.0
 11
1201.8976422367
 21
1368.6962675497
 31
0.0
  0
LINE
  5
25E
330
1F
100
AcDbEntity
  8
0
  6
Continuous
 62
     7
370
    15
100
AcDbLine
 10
1201.8976422367
 20
1368.6962675497
 30
0.0
 11
1203.1476410446
 21
1368.6962675497
 31
0.0
  0
LINE
  5
25F
330
1F
100
AcDbEntity
  8
0
  6
Continuous
 62
     7
370
    15
100
AcDbLine
 10
305.547616106
 20
1324.034089987
 30
0.0
 11
305.547616106
 21
1368.6962675497
 31
0.0
  0
LINE
  5
260
330
1F
100
AcDbEntity
  8
0
  6
Continuous
 62
     7
370
    15
100
AcDbLine
 10
1203.1476410446
 20
1324.034089987
 30
0.0
 11
1203.1476410446
 21
1368.6962675497
 31
0.0
  0
LINE
  5
261
330
1F
100
AcDbEntity
  8
0
  6
Continuous
 62
     7
370
    15
100
AcDbLine
 10
304.3476255951
 20
1325.2263020918
 30
0.0
 11
304.3476255951
 21
1367.3959326192
 31
0.0
  0
LINE
  5
262
330
1F
100
AcDbEntity
  8
0
  6
Continuous
 62
     7
370
    15
100
AcDbLine
 10
304.3476255951
 20
1367.3959326192
 30
0.0
 11
305.547616106
 21
1367.3959326192
 31
0.0
  0
LINE
  5
263
330
1F
100
AcDbEntity
  8
0
  6
Continuous
 62
     7
370
    15
100
AcDbLine
 10
1204.3476315555
 20
1367.3959326192
 30
0.0
 11
1203.1476410446
 21
1367.3959326192
 31
0.0
  0
LINE
  5
264
330
1F
100
AcDbEntity
  8
0
  6
Continuous
 62
     7
370
    15
100
AcDbLine
 10
1204.3476315555
 20
1325.2263020918
 30
0.0
 11
1204.3476315555
 21
1367.3959326192
 31
0.0
  0
LINE
  5
265
330
1F
100
AcDbEntity
  8
0
  6
Continuous
 62
     7
370
    15
100
AcDbLine
 10
808.5476296363
 20
1316.4312791273
 30
0.0
 11
808.5476296363
 21
1317.866797392
 31
0.0
  0
LWPOLYLINE
  5
266
330
1F
100
AcDbEntity
  8
0
  6
Continuous
 62
     7
370
    15
100
AcDbPolyline
 90
       10
 70
   128
 43
0.0
 10
808.5476296363
 20
1317.866797392
 10
808.3546446976
 20
1318.3031629964
 10
807.7989729461
 20
1318.6869573042
 10
806.9476286289
 20
1318.9718079015
 10
805.9033030984
 20
1319.1233825132
 10
804.7919558701
 20
1319.1233825132
 10
803.7476303396
 20
1318.9718079015
 10
802.8962897477
 20
1318.6869573042
 10
802.3406142709
 20
1318.3031629964
 10
802.1476293323
 20
1317.866797392
  0
LINE
  5
267
330
1F
100
AcDbEntity
  8
0
  6
Continuous
 62
     7
370
    15
100
AcDbLine
 10
802.1476293323
 20
1317.866797392
 30
0.0
 11
802.1476293323
 21
1316.4312791273
 31
0.0
  0
LWPOLYLINE
  5
268
330
1F
100
AcDbEntity
  8
0
  6
Continuous
 62
     7
370
    15
100
AcDbPolyline
 90
       10
 70
   128
 43
0.0
 10
802.1476293323
 20
1316.4312791273
 10
802.3406142709
 20
1315.9948539182
 10
802.8962897477
 20
1315.6110596105
 10
803.7476303396
 20
1315.3262090131
 10
804.7919558701
 20
1315.1746940061
 10
805.9033030984
 20
1315.1746940061
 10
806.9476286289
 20
1315.3262090131
 10
807.7989729461
 20
1315.6110596105
 10
808.3546446976
 20
1315.9948539182
 10
808.5476296363
 20
1316.4312791273
  0
LWPOLYLINE
  5
269
330
1F
100
AcDbEntity
  8
0
  6
Continuous
 62
     7
370
    15
100
AcDbPolyline
 90
        9
 70
   128
 43
0.0
 10
1156.3476236877
 20
1317.9465484068
 10
1156.2515708027
 20
1318.3354687139
 10
1155.9670182285
 20
1318.7094878599
 10
1155.5049928245
 20
1319.0541815206
 10
1154.8831673679
 20
1319.356317465
 10
1154.1254731235
 20
1319.6042727872
 10
1153.2610567627
 20
1319.7885107442
 10
1152.3230882702
 20
1319.9019383833
 10
1151.3476284561
 20
1319.9402641698
  0
LINE
  5
26A
330
1F
100
AcDbEntity
  8
0
  6
Continuous
 62
     7
370
    15
100
AcDbLine
 10
1151.3476284561
 20
1319.9402641698
 30
0.0
 11
822.8476332841
 21
1319.9402641698
 31
0.0
  0
LWPOLYLINE
  5
26B
330
1F
100
AcDbEntity
  8
0
  6
Continuous
 62
     7
370
    15
100
AcDbPolyline
 90
        9
 70
   128
 43
0.0
 10
822.8476332841
 20
1319.9402641698
 10
821.8721809206
 20
1319.9019383833
 10
820.9342124281
 20
1319.7885107442
 10
820.069781166
 20
1319.6042727872
 10
819.3120943722
 20
1319.356317465
 10
818.6902838168
 20
1319.0541815206
 10
818.2282360611
 20
1318.7094878599
 10
817.9437058387
 20
1318.3354687139
 10
817.8476306019
 20
1317.9465484068
  0
LINE
  5
26C
330
1F
100
AcDbEntity
  8
0
  6
Continuous
 62
     7
370
    15
100
AcDbLine
 10
817.8476306019
 20
1317.9465484068
 30
0.0
 11
817.8476306019
 21
1315.952773039
 31
0.0
  0
LWPOLYLINE
  5
26D
330
1F
100
AcDbEntity
  8
0
  6
Continuous
 62
     7
370
    15
100
AcDbPolyline
 90
        9
 70
   128
 43
0.0
 10
812.8476316449
 20
1313.9590572759
 10
813.8230802831
 20
1313.9973234579
 10
814.7610487756
 20
1314.1108107015
 10
815.6254800377
 20
1314.2950486585
 10
816.3831631062
 20
1314.5430039808
 10
817.0049773869
 20
1314.8451399252
 10
817.4670251426
 20
1315.1898335859
 10
817.7515553651
 20
1315.5637931272
 10
817.8476306019
 20
1315.952773039
  0
LINE
  5
26E
330
1F
100
AcDbEntity
  8
0
  6
Continuous
 62
     7
370
    15
100
AcDbLine
 10
812.8476316449
 20
1313.9590572759
 30
0.0
 11
797.8476310489
 21
1313.9590572759
 31
0.0
  0
LWPOLYLINE
  5
26F
330
1F
100
AcDbEntity
  8
0
  6
Continuous
 62
     7
370
    15
100
AcDbPolyline
 90
        9
 70
   128
 43
0.0
 10
792.8476283667
 20
1315.952773039
 10
792.9437036035
 20
1315.5637931272
 10
793.2282338259
 20
1315.1898335859
 10
793.6902815816
 20
1314.8451399252
 10
794.3120958624
 20
1314.5430039808
 10
795.0697789309
 20
1314.2950486585
 10
795.9342139182
 20
1314.1108107015
 10
796.8721786854
 20
1313.9973234579
 10
797.8476310489
 20
1313.9590572759
  0
LINE
  5
270
330
1F
100
AcDbEntity
  8
0
  6
Continuous
 62
     7
370
    15
100
AcDbLine
 10
792.8476283667
 20
1315.952773039
 30
0.0
 11
792.8476283667
 21
1317.9465484068
 31
0.0
  0
LWPOLYLINE
  5
271
330
1F
100
AcDbEntity
  8
0
  6
Continuous
 62
     7
370
    15
100
AcDbPolyline
 90
        9
 70
   128
 43
0.0
 10
792.8476283667
 20
1317.9465484068
 10
792.7515568552
 20
1318.3354687139
 10
792.4670266328
 20
1318.7094878599
 10
792.004978877
 20
1319.0541815206
 10
791.3831645963
 20
1319.356317465
 10
790.6254815278
 20
1319.6042727872
 10
789.7610465405
 20
1319.7885107442
 10
788.8230817733
 20
1319.9019383833
 10
787.8476294098
 20
1319.9402641698
  0
LINE
  5
272
330
1F
100
AcDbEntity
  8
0
  6
Continuous
 62
     7
370
    15
100
AcDbLine
 10
787.8476294098
 20
1319.9402641698
 30
0.0
 11
357.3476286945
 21
1319.9402641698
 31
0.0
  0
LWPOLYLINE
  5
273
330
1F
100
AcDbEntity
  8
0
  6
Continuous
 62
     7
370
    15
100
AcDbPolyline
 90
        9
 70
   128
 43
0.0
 10
357.3476286945
 20
1319.9402641698
 10
356.3721688804
 20
1319.9019383833
 10
355.4342003879
 20
1319.7885107442
 10
354.5697840271
 20
1319.6042727872
 10
353.8120897827
 20
1319.356317465
 10
353.1902941284
 20
1319.0541815206
 10
352.7282389221
 20
1318.7094878599
 10
352.4437161503
 20
1318.3354687139
 10
352.3476334629
 20
1317.9465484068
  0
LINE
  5
274
330
1F
100
AcDbEntity
  8
0
  6
Continuous
 62
     7
370
    15
100
AcDbLine
 10
352.3476334629
 20
1317.9465484068
 30
0.0
 11
352.3476334629
 21
1315.952773039
 31
0.0
  0
LWPOLYLINE
  5
275
330
1F
100
AcDbEntity
  8
0
  6
Continuous
 62
     7
370
    15
100
AcDbPolyline
 90
        9
 70
   128
 43
0.0
 10
347.3476382312
 20
1313.9590572759
 10
348.323068243
 20
1313.9973234579
 10
349.2610367355
 20
1314.1108107015
 10
350.1254828987
 20
1314.2950486585
 10
350.8831771431
 20
1314.5430039808
 10
351.5049727974
 20
1314.8451399252
 10
351.9670280037
 20
1315.1898335859
 10
352.2515507755
 20
1315.5637931272
 10
352.3476334629
 20
1315.952773039
  0
LINE
  5
276
330
1F
100
AcDbEntity
  8
0
  6
Continuous
 62
     7
370
    15
100
AcDbLine
 10
347.3476382312
 20
1313.9590572759
 30
0.0
 11
334.8476203499
 21
1313.9590572759
 31
0.0
  0
LINE
  5
277
330
1F
100
AcDbEntity
  8
0
  6
Continuous
 62
     7
370
    15
100
AcDbLine
 10
319.847634655
 20
1313.9590572759
 30
0.0
 11
305.547616106
 21
1313.9590572759
 31
0.0
  0
LINE
  5
278
330
1F
100
AcDbEntity
  8
0
  6
Continuous
 62
     7
370
    15
100
AcDbLine
 10
305.547616106
 20
1313.9590572759
 30
0.0
 11
305.547616106
 21
1324.034089987
 31
0.0
  0
LINE
  5
279
330
1F
100
AcDbEntity
  8
0
  6
Continuous
 62
     7
370
    15
100
AcDbLine
 10
1203.1476410446
 20
1313.9590572759
 30
0.0
 11
1203.1476410446
 21
1324.034089987
 31
0.0
  0
LINE
  5
27A
330
1F
100
AcDbEntity
  8
0
  6
Continuous
 62
     7
370
    15
100
AcDbLine
 10
1203.1476410446
 20
1313.9590572759
 30
0.0
 11
1188.8476224956
 21
1313.9590572759
 31
0.0
  0
LINE
  5
27B
330
1F
100
AcDbEntity
  8
0
  6
Continuous
 62
     7
370
    15
100
AcDbLine
 10
1173.8476368007
 20
1313.9590572759
 30
0.0
 11
1161.3476189193
 21
1313.9590572759
 31
0.0
  0
LWPOLYLINE
  5
27C
330
1F
100
AcDbEntity
  8
0
  6
Continuous
 62
     7
370
    15
100
AcDbPolyline
 90
        9
 70
   128
 43
0.0
 10
1156.3476236877
 20
1315.952773039
 10
1156.4437063751
 20
1315.5637931272
 10
1156.7282291469
 20
1315.1898335859
 10
1157.1902843532
 20
1314.8451399252
 10
1157.8121098098
 20
1314.5430039808
 10
1158.5697742519
 20
1314.2950486585
 10
1159.4342204151
 20
1314.1108107015
 10
1160.3721889076
 20
1313.9973234579
 10
1161.3476189193
 20
1313.9590572759
  0
LINE
  5
27D
330
1F
100
AcDbEntity
  8
0
  6
Continuous
 62
     7
370
    15
100
AcDbLine
 10
1156.3476236877
 20
1315.952773039
 30
0.0
 11
1156.3476236877
 21
1317.9465484068
 31
0.0
  0
LINE
  5
27E
330
1F
100
AcDbEntity
  8
0
  6
Continuous
 62
     7
370
    15
100
AcDbLine
 10
1203.1476410446
 20
1313.7016248151
 30
0.0
 11
1203.1476410446
 21
1313.9590572759
 31
0.0
  0
LINE
  5
27F
330
1F
100
AcDbEntity
  8
0
  6
Continuous
 62
     7
370
    15
100
AcDbLine
 10
1204.3476315555
 20
1313.7016248151
 30
0.0
 11
1204.3476315555
 21
1325.2263020918
 31
0.0
  0
LINE
  5
280
330
1F
100
AcDbEntity
  8
0
  6
Continuous
 62
     7
370
    15
100
AcDbLine
 10
305.547616106
 20
1313.7016248151
 30
0.0
 11
305.547616106
 21
1313.9590572759
 31
0.0
  0
LINE
  5
281
330
1F
100
AcDbEntity
  8
0
  6
Continuous
 62
     7
370
    15
100
AcDbLine
 10
304.3476255951
 20
1313.7016248151
 30
0.0
 11
304.3476255951
 21
1325.2263020918
 31
0.0
  0
LINE
  5
282
330
1F
100
AcDbEntity
  8
0
  6
Continuous
 62
     7
370
    15
100
AcDbLine
 10
306.7976447162
 20
1368.7016319677
 30
0.0
 11
306.6355796871
 21
1368.6962675497
 31
0.0
  0
ARC
  5
283
330
1F
100
AcDbEntity
  8
0
  6
Continuous
 62
     7
370
    15
100
AcDbCircle
 10
306.7976301558
 20
1366.2516165453
 30
0.0
 40
2.449999999999911
100
AcDbArc
 50
120.6774244726
 51
152.1558358072
  0
ARC
  5
284
330
1F
100
AcDbEntity
  8
0
  6
Continuous
 62
     7
370
    15
100
AcDbCircle
 10
1201.8976301558
 20
1366.2516165453
 30
0.0
 40
2.449999999999811
100
AcDbArc
 50
27.8441641928
 51
59.3225755274
  0
LINE
  5
285
330
1F
100
AcDbEntity
  8
0
  6
Continuous
 62
     7
370
    15
100
AcDbLine
 10
1202.0596774635
 20
1368.6962675497
 30
0.0
 11
1201.8976422367
 21
1368.7016319677
 31
0.0
  0
LWPOLYLINE
  5
286
330
1F
100
AcDbEntity
  8
0
  6
Continuous
 62
     7
370
    15
100
AcDbPolyline
 90
       10
 70
   128
 43
0.0
 10
802.1476293323
 20
1317.5317596838
 10
802.3406142709
 20
1317.0953344747
 10
802.8962897477
 20
1316.711540167
 10
803.7476303396
 20
1316.4266895696
 10
804.7919558701
 20
1316.275114958
 10
805.9033030984
 20
1316.275114958
 10
806.9476286289
 20
1316.4266895696
 10
807.7989729461
 20
1316.711540167
 10
808.3546446976
 20
1317.0953344747
 10
808.5476296363
 20
1317.5317596838
  0
ARC
  5
287
330
1F
100
AcDbEntity
  8
0
  6
Continuous
 62
     7
370
    15
100
AcDbCircle
 10
327.3573488226
 20
1323.1463619326
 30
0.0
 40
6.904359274016783
100
AcDbArc
 50
251.3299746193
 51
286.4343522183
  0
ARC
  5
288
330
1F
100
AcDbEntity
  8
0
  6
Continuous
 62
     7
370
    15
100
AcDbCircle
 10
1181.3632973992
 20
1323.2211559813
 30
0.0
 40
6.976736351281826
100
AcDbArc
 50
251.3903900981
 51
283.1686389203
  0
LINE
  5
289
330
1F
100
AcDbEntity
  8
0
  6
Continuous
 62
     7
370
    15
100
AcDbLine
 10
1175.2097519455
 20
1319.5367407247
 30
0.0
 11
1186.3097461281
 21
1319.5367407247
 31
0.0
  0
LINE
  5
28A
330
1F
100
AcDbEntity
  8
0
  6
Continuous
 62
     7
370
    15
100
AcDbLine
 10
1175.2097519455
 20
1319.9402641698
 30
0.0
 11
1186.3097461281
 21
1319.9402641698
 31
0.0
  0
LINE
  5
28B
330
1F
100
AcDbEntity
  8
0
  6
Continuous
 62
     7
370
    15
100
AcDbLine
 10
1186.3097461281
 20
1319.5367407247
 30
0.0
 11
1186.3097461281
 21
1319.9402641698
 31
0.0
  0
LINE
  5
28C
330
1F
100
AcDbEntity
  8
0
  6
Continuous
 62
     7
370
    15
100
AcDbLine
 10
1175.2097519455
 20
1319.5367407247
 30
0.0
 11
1175.2097519455
 21
1319.9402641698
 31
0.0
  0
LWPOLYLINE
  5
28D
330
1F
100
AcDbEntity
  8
0
  6
Continuous
 62
     7
370
    15
100
AcDbPolyline
 90
       13
 70
   128
 43
0.0
 10
1178.5125347194
 20
1316.2717770979
 10
1178.5097631035
 20
1316.2271332189
 10
1178.6810370502
 20
1315.883810465
 10
1179.1687520561
 20
1315.5927609846
 10
1179.8987003383
 20
1315.3982710287
 10
1180.7597490368
 20
1315.3299641058
 10
1181.6207977352
 20
1315.3982710287
 10
1182.3507460174
 20
1315.5927609846
 10
1182.8384908256
 20
1315.883810465
 10
1183.0097647724
 20
1316.2271332189
 10
1182.8384908256
 20
1316.5704559728
 10
1182.3507460174
 20
1316.8615650579
 10
1182.1709188041
 20
1316.9259380743
  0
LINE
  5
28E
330
1F
100
AcDbEntity
  8
0
  6
Continuous
 62
     7
370
    15
100
AcDbLine
 10
1186.3097461281
 20
1318.5757946416
 30
0.0
 11
1186.3097461281
 21
1319.5367407247
 31
0.0
  0
LINE
  5
28F
330
1F
100
AcDbEntity
  8
0
  6
Continuous
 62
     7
370
    15
100
AcDbLine
 10
1175.2097519455
 20
1318.2009410307
 30
0.0
 11
1175.2097519455
 21
1319.5367407247
 31
0.0
  0
ARC
  5
290
330
1F
100
AcDbEntity
  8
0
  6
Continuous
 62
     7
370
    15
100
AcDbCircle
 10
1180.7371317602
 20
1319.1754334234
 30
0.0
 40
3.528944698236685
100
AcDbArc
 50
233.1826752872
 51
308.8619063957
  0
LINE
  5
291
330
1F
100
AcDbEntity
  8
0
  6
Continuous
 62
     7
370
    15
100
AcDbLine
 10
321.6375025329
 20
1319.5367407247
 30
0.0
 11
332.7374967155
 21
1319.5367407247
 31
0.0
  0
LINE
  5
292
330
1F
100
AcDbEntity
  8
0
  6
Continuous
 62
     7
370
    15
100
AcDbLine
 10
321.6375025329
 20
1319.9402641698
 30
0.0
 11
332.7374967155
 21
1319.9402641698
 31
0.0
  0
LINE
  5
293
330
1F
100
AcDbEntity
  8
0
  6
Continuous
 62
     7
370
    15
100
AcDbLine
 10
332.7374967155
 20
1319.5367407247
 30
0.0
 11
332.7374967155
 21
1319.9402641698
 31
0.0
  0
LINE
  5
294
330
1F
100
AcDbEntity
  8
0
  6
Continuous
 62
     7
370
    15
100
AcDbLine
 10
321.6375025329
 20
1319.5367407247
 30
0.0
 11
321.6375025329
 21
1319.9402641698
 31
0.0
  0
LWPOLYLINE
  5
295
330
1F
100
AcDbEntity
  8
0
  6
Continuous
 62
     7
370
    15
100
AcDbPolyline
 90
       11
 70
   128
 43
0.0
 10
324.9374838886
 20
1316.2271332189
 10
325.1087578354
 20
1315.883810465
 10
325.5965026436
 20
1315.5927609846
 10
326.3264509258
 20
1315.3982710287
 10
327.1874996242
 20
1315.3299641058
 10
328.0485185203
 20
1315.3982710287
 10
328.7784966049
 20
1315.5927609846
 10
329.2662116108
 20
1315.883810465
 10
329.4374855575
 20
1316.2271332189
 10
329.2662116108
 20
1316.5704559728
 10
328.9111765442
 20
1316.8038081571
  0
LWPOLYLINE
  5
296
330
1F
100
AcDbEntity
  8
0
  6
Continuous
 62
     7
370
    15
100
AcDbPolyline
 90
        3
 70
   128
 43
0.0
 10
325.1471432266
 20
1316.60532469
 10
325.1087578354
 20
1316.5704559728
 10
324.9374838886
 20
1316.2271332189
  0
LINE
  5
297
330
1F
100
AcDbEntity
  8
0
  6
Continuous
 62
     7
370
    15
100
AcDbLine
 10
332.7374967155
 20
1318.4653472349
 30
0.0
 11
332.7374967155
 21
1319.5367407247
 31
0.0
  0
LINE
  5
298
330
1F
100
AcDbEntity
  8
0
  6
Continuous
 62
     7
370
    15
100
AcDbLine
 10
321.6375025329
 20
1318.3649730131
 30
0.0
 11
321.6375025329
 21
1319.5367407247
 31
0.0
  0
ARC
  5
299
330
1F
100
AcDbEntity
  8
0
  6
Continuous
 62
     7
370
    15
100
AcDbCircle
 10
327.1874996242
 20
1319.0736132852
 30
0.0
 40
3.435266598964797
100
AcDbArc
 50
230.3424685214
 51
309.6575314786
  0
ARC
  5
29A
330
1F
100
AcDbEntity
  8
0
  6
Continuous
 62
     7
370
    15
100
AcDbCircle
 10
872.1485985493
 20
1259.2486431662
 30
0.0
 40
0.0662918513766195
100
AcDbArc
 50
295.4141558556
 51
333.5974103082
  0
ARC
  5
29B
330
1F
100
AcDbEntity
  8
0
  6
Continuous
 62
     7
370
    15
100
AcDbCircle
 10
856.3476303932
 20
1284.290051613
 30
0.0
 40
29.67566322321571
100
AcDbArc
 50
237.7635751065
 51
302.2364248935
  0
ARC
  5
29C
330
1F
100
AcDbEntity
  8
0
  6
Continuous
 62
     7
370
    15
100
AcDbCircle
 10
840.5484159624
 20
1259.2504274096
 30
0.0
 40
0.0686609344088089
100
AcDbArc
 50
207.0854503319
 51
243.9029835042
  0
LINE
  5
29D
330
1F
100
AcDbEntity
  8
0
  6
Continuous
 62
     7
370
    15
100
AcDbLine
 10
842.2527524051
 20
1261.5654420301
 30
0.0
 11
844.7444575247
 21
1273.0362963125
 31
0.0
  0
LINE
  5
29E
330
1F
100
AcDbEntity
  8
0
  6
Continuous
 62
     7
370
    15
100
AcDbLine
 10
844.7289454159
 20
1272.9729961797
 30
0.0
 11
844.7338106451
 21
1272.9967188284
 31
0.0
  0
LINE
  5
29F
330
1F
100
AcDbEntity
  8
0
  6
Continuous
 62
     7
370
    15
100
AcDbLine
 10
867.9663153705
 20
1272.9729961797
 30
0.0
 11
867.9614501414
 21
1272.9967188284
 31
0.0
  0
LINE
  5
2A0
330
1F
100
AcDbEntity
  8
0
  6
Continuous
 62
     7
370
    15
100
AcDbLine
 10
867.9508032617
 20
1273.0362963125
 30
0.0
 11
870.4425083813
 21
1261.5654420301
 31
0.0
  0
ARC
  5
2A1
330
1F
100
AcDbEntity
  8
0
  6
Continuous
 62
     7
370
    15
100
AcDbCircle
 10
790.9177701645
 20
1287.605280821
 30
0.0
 40
55.76349685756361
100
AcDbArc
 50
344.8549337107
 51
15.1450662893
  0
ARC
  5
2A2
330
1F
100
AcDbEntity
  8
0
  6
Continuous
 62
     7
370
    15
100
AcDbCircle
 10
790.813524351
 20
1282.629318443
 30
0.0
 40
55.58765197422331
100
AcDbArc
 50
359.3366458795
 51
16.8658549072
  0
ARC
  5
2A3
330
1F
100
AcDbEntity
  8
0
  6
Continuous
 62
     7
370
    15
100
AcDbCircle
 10
921.7774906219
 20
1287.605280821
 30
0.0
 40
55.76349685756361
100
AcDbArc
 50
164.8549337107
 51
195.1450662893
  0
ARC
  5
2A4
330
1F
100
AcDbEntity
  8
0
  6
Continuous
 62
     7
370
    15
100
AcDbCircle
 10
921.9508573834
 20
1282.6201638525
 30
0.0
 40
55.65666319297288
100
AcDbArc
 50
162.321170039
 51
180.6531067421
  0
ARC
  5
2A5
330
1F
100
AcDbEntity
  8
0
  6
Continuous
 62
     7
370
    15
100
AcDbCircle
 10
856.3476303932
 20
1271.801568586
 30
0.0
 40
1.501222952724394
100
AcDbArc
 50
182.3135082113
 51
357.6864917887
  0
LINE
  5
2A6
330
1F
100
AcDbEntity
  8
0
  6
Continuous
 62
     7
370
    15
100
AcDbLine
 10
857.8476297078
 20
1271.7409681722
 30
0.0
 11
857.8476297078
 21
1305.7827305242
 31
0.0
  0
LINE
  5
2A7
330
1F
100
AcDbEntity
  8
0
  6
Continuous
 62
     7
370
    15
100
AcDbLine
 10
854.8476310787
 20
1305.7827305242
 30
0.0
 11
854.8476310787
 21
1271.7409681722
 31
0.0
  0
ARC
  5
2A8
330
1F
100
AcDbEntity
  8
0
  6
Continuous
 62
     7
370
    15
100
AcDbCircle
 10
856.4069143053
 20
1286.0954684393
 30
0.0
 40
20.42585347744794
100
AcDbArc
 50
57.1163156368
 51
85.9553459333
  0
LINE
  5
2A9
330
1F
100
AcDbEntity
  8
0
  6
Continuous
 62
     7
370
    15
100
AcDbLine
 10
857.8476297078
 20
1305.7827305242
 30
0.0
 11
857.8476297078
 21
1306.4704489156
 31
0.0
  0
ARC
  5
2AA
330
1F
100
AcDbEntity
  8
0
  6
Continuous
 62
     7
370
    15
100
AcDbCircle
 10
856.2883464812
 20
1286.0954684393
 30
0.0
 40
20.42585347744794
100
AcDbArc
 50
94.0446540667
 51
122.8836843632
  0
LINE
  5
2AB
330
1F
100
AcDbEntity
  8
0
  6
Continuous
 62
     7
370
    15
100
AcDbLine
 10
854.8476310787
 20
1306.4704489156
 30
0.0
 11
854.8476310787
 21
1305.7827305242
 31
0.0
  0
ARC
  5
2AC
330
1F
100
AcDbEntity
  8
0
  6
Continuous
 62
     7
370
    15
100
AcDbCircle
 10
872.0983155277
 20
1304.1272194663
 30
0.0
 40
0.1616632212327727
100
AcDbArc
 50
47.2871691103
 51
60.8553013804
  0
LINE
  5
2AD
330
1F
100
AcDbEntity
  8
0
  6
Continuous
 62
     7
370
    15
100
AcDbLine
 10
856.6127555785
 20
1308.7529491827
 30
0.0
 11
857.8476297078
 21
1306.6323947355
 31
0.0
  0
ARC
  5
2AE
330
1F
100
AcDbEntity
  8
0
  6
Continuous
 62
     7
370
    15
100
AcDbCircle
 10
856.430495284
 20
1308.2239454895
 30
0.0
 40
0.5595209757376839
100
AcDbArc
 50
70.9893770757
 51
96.9003419877
  0
ELLIPSE
  5
2AF
330
1F
100
AcDbEntity
  8
0
  6
Continuous
 62
     7
370
    15
100
AcDbEllipse
 10
856.3476301558
 20
1270.1028472975
 30
0.0
 11
0.0
 21
38.67659121471888
 31
0.0
210
0.0
220
0.0
230
1.0
 40
0.8983300055
 41
6.282735029799743
 42
6.283635584559445
  0
ARC
  5
2B0
330
1F
100
AcDbEntity
  8
0
  6
Continuous
 62
     7
370
    15
100
AcDbCircle
 10
856.2878940766
 20
1308.0059104945
 30
0.0
 40
0.7747589231590315
100
AcDbArc
 50
86.7373647141
 51
105.3729162226
  0
LINE
  5
2B1
330
1F
100
AcDbEntity
  8
0
  6
Continuous
 62
     7
370
    15
100
AcDbLine
 10
856.082505208
 20
1308.7529491827
 30
0.0
 11
854.8476310787
 21
1306.6323947355
 31
0.0
  0
ARC
  5
2B2
330
1F
100
AcDbEntity
  8
0
  6
Continuous
 62
     7
370
    15
100
AcDbCircle
 10
840.5910630446
 20
1304.1353368437
 30
0.0
 40
0.1517134481884659
100
AcDbArc
 50
118.6974783658
 51
133.1600511436
  0
ARC
  5
2B3
330
1F
100
AcDbEntity
  8
0
  6
Continuous
 62
     7
370
    15
100
AcDbCircle
 10
856.3476303932
 20
1279.1666160109
 30
0.0
 40
29.67609775627883
100
AcDbArc
 50
57.7641041683
 51
122.2358958317
  0
LINE
  5
2B4
330
1F
100
AcDbEntity
  8
0
  6
Continuous
 62
     7
370
    15
100
AcDbLine
 10
857.8476297078
 20
1306.4704489156
 30
0.0
 11
857.8476297078
 21
1306.6323947355
 31
0.0
  0
ARC
  5
2B5
330
1F
100
AcDbEntity
  8
0
  6
Continuous
 62
     7
370
    15
100
AcDbCircle
 10
855.8537146173
 20
1306.1355746702
 30
0.0
 40
0.9661755629205593
100
AcDbArc
 50
227.8763323399
 51
267.7057304772
  0
LWPOLYLINE
  5
2B6
330
1F
100
AcDbEntity
  8
0
  6
Continuous
 62
     7
370
    15
100
AcDbPolyline
 90
        3
 70
   128
 43
0.0
 10
855.8150368151
 20
1305.1701735899
 10
855.8431553063
 20
1305.1657628461
 10
855.8476331052
 20
1305.1650475904
  0
LWPOLYLINE
  5
2B7
330
1F
100
AcDbEntity
  8
0
  6
Continuous
 62
     7
370
    15
100
AcDbPolyline
 90
        3
 70
   128
 43
0.0
 10
856.8476276812
 20
1305.1650475904
 10
856.8521054802
 20
1305.1657628461
 10
856.8802239713
 20
1305.1701735899
  0
ARC
  5
2B8
330
1F
100
AcDbEntity
  8
0
  6
Continuous
 62
     7
370
    15
100
AcDbCircle
 10
856.8015734446
 20
1306.2171857471
 30
0.0
 40
1.049962076788502
100
AcDbArc
 50
274.295934445
 51
307.3840087853
  0
LINE
  5
2B9
330
1F
100
AcDbEntity
  8
0
  6
Continuous
 62
     7
370
    15
100
AcDbLine
 10
856.082505208
 20
1308.4940266058
 30
0.0
 11
856.082505208
 21
1308.7529491827
 31
0.0
  0
ARC
  5
2BA
330
1F
100
AcDbEntity
  8
0
  6
Continuous
 62
     7
370
    15
100
AcDbCircle
 10
870.7042562651
 20
1259.70448828
 30
0.0
 40
1.580098335164484
100
AcDbArc
 50
342.1125817019
 51
20.7904317756
  0
ARC
  5
2BB
330
1F
100
AcDbEntity
  8
0
  6
Continuous
 62
     7
370
    15
100
AcDbCircle
 10
841.990377417
 20
1259.7045041702
 30
0.0
 40
1.579506438128939
100
AcDbArc
 50
159.2020327183
 51
197.8949538042
  0
LWPOLYLINE
  5
2BC
330
1F
100
AcDbEntity
  8
0
  6
Continuous
 62
     7
370
    15
100
AcDbPolyline
 90
       61
 70
   128
 43
0.0
 10
856.3476266679
 20
1309.5477175161
 10
859.7448082981
 20
1309.3783807203
 10
863.104759377
 20
1308.8722776815
 10
866.3906814871
 20
1308.0349516317
 10
869.5665734229
 20
1306.8754624769
 10
872.5976335225
 20
1305.4066848203
 10
875.4506545481
 20
1303.6445927068
 10
878.0943738637
 20
1301.6084980413
 10
880.4998310623
 20
1299.3207525655
 10
882.640680891
 20
1296.806449835
 10
884.4934614715
 20
1294.0930675909
 10
886.0378625211
 20
1291.210348551
 10
887.2569712219
 20
1288.189883177
 10
888.1374212322
 20
1285.0648116514
 10
888.6695864019
 20
1281.8692874357
 10
888.8476254759
 20
1278.6384176656
 10
888.6695864019
 20
1275.4074882909
 10
888.1374212322
 20
1272.2119640752
 10
887.2569712219
 20
1269.0868925497
 10
886.0378625211
 20
1266.0664271757
 10
884.4934614715
 20
1263.1837081358
 10
882.640680891
 20
1260.4703258916
 10
880.4998310623
 20
1257.9560231611
 10
878.0943738637
 20
1255.6682776853
 10
875.4506545481
 20
1253.6322426244
 10
872.5976335225
 20
1251.8701505109
 10
869.5665734229
 20
1250.4013132497
 10
866.3906814871
 20
1249.2418836996
 10
863.104759377
 20
1248.4044980451
 10
859.7448082981
 20
1247.8983950063
 10
856.3476266679
 20
1247.7290582105
 10
852.9504524884
 20
1247.8983950063
 10
849.5905014095
 20
1248.4044980451
 10
846.3045792994
 20
1249.2418836996
 10
843.1286873636
 20
1250.4013132497
 10
840.097627264
 20
1251.8701505109
 10
837.2446062383
 20
1253.6322426244
 10
834.6008869228
 20
1255.6682776853
 10
832.1954222736
 20
1257.9560231611
 10
830.0545798955
 20
1260.4703258916
 10
828.2018067655
 20
1263.1837081358
 10
826.6574057159
 20
1266.0664271757
 10
825.4382970152
 20
1269.0868925497
 10
824.5578321037
 20
1272.2119640752
 10
824.025666934
 20
1275.4074882909
 10
823.84762786
 20
1278.6384176656
 10
824.025666934
 20
1281.8692874357
 10
824.5578321037
 20
1285.0648116514
 10
825.4382970152
 20
1288.189883177
 10
826.6574057159
 20
1291.210348551
 10
828.2018067655
 20
1294.0930675909
 10
830.0545798955
 20
1296.806449835
 10
832.1954222736
 20
1299.3207525655
 10
834.6008869228
 20
1301.6084980413
 10
837.2446062383
 20
1303.6445927068
 10
840.097627264
 20
1305.4066848203
 10
843.1286873636
 20
1306.8754624769
 10
846.3045792994
 20
1308.0349516317
 10
849.5905014095
 20
1308.8722776815
 10
852.9504524884
 20
1309.3783807203
 10
856.3476266679
 20
1309.5477175161
  0
ARC
  5
2BD
330
1F
100
AcDbEntity
  8
0
  6
Continuous
 62
     7
370
    15
100
AcDbCircle
 10
858.0601077379
 20
1281.2219960421
 30
0.0
 40
27.0823424159161
100
AcDbArc
 50
12.3490378426
 51
53.6110777248
  0
ARC
  5
2BE
330
1F
100
AcDbEntity
  8
0
  6
Continuous
 62
     7
370
    15
100
AcDbCircle
 10
854.7133981695
 20
1281.1822254554
 30
0.0
 40
27.16081102869486
100
AcDbArc
 50
126.4720357439
 51
170.1534939891
  0
LWPOLYLINE
  5
2BF
330
1F
100
AcDbEntity
  8
0
  6
Continuous
 62
     7
370
    15
100
AcDbPolyline
 90
        3
 70
   128
 43
0.0
 10
885.8504953203
 20
1273.4963249609
 10
885.655319911
 20
1273.5347103521
 10
885.4771765289
 20
1273.6779403135
  0
LWPOLYLINE
  5
2C0
330
1F
100
AcDbEntity
  8
0
  6
Continuous
 62
     7
370
    15
100
AcDbPolyline
 90
        6
 70
   128
 43
0.0
 10
885.1824315605
 20
1275.0278663084
 10
885.2394136009
 20
1275.2345752164
 10
885.3133680639
 20
1275.4065942213
 10
885.4013147173
 20
1275.5220484182
 10
885.4966821489
 20
1275.5762290403
 10
885.5619343338
 20
1275.5646061346
  0
ARC
  5
2C1
330
1F
100
AcDbEntity
  8
0
  6
Continuous
 62
     7
370
    15
100
AcDbCircle
 10
886.5016640303
 20
1274.6087690663
 30
0.0
 40
1.384202589062993
100
AcDbArc
 50
162.375851449
 51
222.2576545686
  0
LINE
  5
2C2
330
1F
100
AcDbEntity
  8
0
  6
Continuous
 62
     7
370
    15
100
AcDbLine
 10
885.737961751
 20
1276.5413474485
 30
0.0
 11
885.8908178625
 21
1277.6250194952
 31
0.0
  0
LINE
  5
2C3
330
1F
100
AcDbEntity
  8
0
  6
Continuous
 62
     7
370
    15
100
AcDbLine
 10
885.4622902689
 20
1276.2623381063
 30
0.0
 11
885.5389865455
 21
1276.7244529173
 31
0.0
  0
LINE
  5
2C4
330
1F
100
AcDbEntity
  8
0
  6
Continuous
 62
     7
370
    15
100
AcDbLine
 10
885.6612952766
 20
1276.0792326376
 30
0.0
 11
885.4622902689
 21
1276.2623381063
 31
0.0
  0
LINE
  5
2C5
330
1F
100
AcDbEntity
  8
0
  6
Continuous
 62
     7
370
    15
100
AcDbLine
 10
885.6222989378
 20
1275.858516638
 30
0.0
 11
885.6612952766
 21
1276.0792326376
 31
0.0
  0
LINE
  5
2C6
330
1F
100
AcDbEntity
  8
0
  6
Continuous
 62
     7
370
    15
100
AcDbLine
 10
885.7929619369
 20
1275.7016968176
 30
0.0
 11
885.6222989378
 21
1275.858516638
 31
0.0
  0
LINE
  5
2C7
330
1F
100
AcDbEntity
  8
0
  6
Continuous
 62
     7
370
    15
100
AcDbLine
 10
886.4560189066
 20
1275.3491353437
 30
0.0
 11
885.8319284734
 21
1275.9224128172
 31
0.0
  0
LINE
  5
2C8
330
1F
100
AcDbEntity
  8
0
  6
Continuous
 62
     7
370
    15
100
AcDbLine
 10
886.4766421137
 20
1278.6831211492
 30
0.0
 11
886.5037026224
 21
1279.1434478208
 31
0.0
  0
ARC
  5
2C9
330
1F
100
AcDbEntity
  8
0
  6
Continuous
 62
     7
370
    15
100
AcDbCircle
 10
885.9611827224
 20
1278.2715191796
 30
0.0
 40
0.659632144053262
100
AcDbArc
 50
352.3278568103
 51
38.6078841785
  0
LWPOLYLINE
  5
2CA
330
1F
100
AcDbEntity
  8
0
  6
Continuous
 62
     7
370
    15
100
AcDbPolyline
 90
        8
 70
   128
 43
0.0
 10
886.4575835285
 20
1277.9511761114
 10
886.4839883861
 20
1277.9350232526
 10
886.5105422554
 20
1277.9319834158
 10
886.5361275491
 20
1277.9437851354
 10
886.5596415815
 20
1277.9701899931
 10
886.5799667654
 20
1278.00929064
 10
886.5962388334
 20
1278.0595969602
 10
886.6149099884
 20
1278.1834554121
  0
LINE
  5
2CB
330
1F
100
AcDbEntity
  8
0
  6
Continuous
 62
     7
370
    15
100
AcDbLine
 10
885.7182922182
 20
1278.0470203802
 30
0.0
 11
885.8497055587
 21
1279.7661971494
 31
0.0
  0
LINE
  5
2CC
330
1F
100
AcDbEntity
  8
0
  6
Continuous
 62
     7
370
    15
100
AcDbLine
 10
885.889014822
 20
1277.9025983259
 30
0.0
 11
885.7182922182
 21
1278.0470203802
 31
0.0
  0
LINE
  5
2CD
330
1F
100
AcDbEntity
  8
0
  6
Continuous
 62
     7
370
    15
100
AcDbLine
 10
886.0608997163
 20
1278.4119200155
 30
0.0
 11
885.9684976158
 21
1278.7873696729
 31
0.0
  0
ARC
  5
2CE
330
1F
100
AcDbEntity
  8
0
  6
Continuous
 62
     7
370
    15
100
AcDbCircle
 10
887.9444849201
 20
1278.6019113363
 30
0.0
 40
1.893142868813029
100
AcDbArc
 50
185.7597644417
 51
216.7269016132
  0
LINE
  5
2CF
330
1F
100
AcDbEntity
  8
0
  6
Continuous
 62
     7
370
    15
100
AcDbLine
 10
886.5466775713
 20
1277.4388741895
 30
0.0
 11
886.4271404562
 21
1277.4698090002
 31
0.0
  0
LWPOLYLINE
  5
2D0
330
1F
100
AcDbEntity
  8
0
  6
Continuous
 62
     7
370
    15
100
AcDbPolyline
 90
        3
 70
   128
 43
0.0
 10
884.2766495762
 20
1291.4715361044
 10
884.224778634
 20
1291.4431642934
 10
884.0770932255
 20
1291.4835762426
  0
LWPOLYLINE
  5
2D1
330
1F
100
AcDbEntity
  8
0
  6
Continuous
 62
     7
370
    15
100
AcDbPolyline
 90
        6
 70
   128
 43
0.0
 10
883.2468303261
 20
1292.4770664617
 10
883.1593009052
 20
1292.6738213941
 10
883.0962689933
 20
1292.8490590498
 10
883.0686422405
 20
1292.9838251516
 10
883.0765994606
 20
1293.0700134679
 10
883.1183078108
 20
1293.0945109769
  0
ARC
  5
2D2
330
1F
100
AcDbEntity
  8
0
  6
Continuous
 62
     7
370
    15
100
AcDbCircle
 10
885.0499016011
 20
1293.1402270276
 30
0.0
 40
1.921157973489861
100
AcDbArc
 50
200.1932688233
 51
239.5779517661
  0
LINE
  5
2D3
330
1F
100
AcDbEntity
  8
0
  6
Continuous
 62
     7
370
    15
100
AcDbLine
 10
883.1914725122
 20
1293.7354397222
 30
0.0
 11
882.6651485977
 21
1294.6488809034
 31
0.0
  0
LINE
  5
2D4
330
1F
100
AcDbEntity
  8
0
  6
Continuous
 62
     7
370
    15
100
AcDbLine
 10
882.201767188
 20
1294.4692921087
 30
0.0
 11
882.0635142145
 21
1294.7947334692
 31
0.0
  0
LINE
  5
2D5
330
1F
100
AcDbEntity
  8
0
  6
Continuous
 62
     7
370
    15
100
AcDbLine
 10
883.5441382942
 20
1293.1841563627
 30
0.0
 11
882.201767188
 21
1294.4692921087
 31
0.0
  0
LINE
  5
2D6
330
1F
100
AcDbEntity
  8
0
  6
Continuous
 62
     7
370
    15
100
AcDbLine
 10
883.6297007618
 20
1293.1530427381
 30
0.0
 11
883.5441531954
 21
1293.1841563627
 31
0.0
  0
LINE
  5
2D7
330
1F
100
AcDbEntity
  8
0
  6
Continuous
 62
     7
370
    15
100
AcDbLine
 10
881.6649230537
 20
1296.0659217283
 30
0.0
 11
881.3953312454
 21
1296.4548420354
 31
0.0
  0
ARC
  5
2D8
330
1F
100
AcDbEntity
  8
0
  6
Continuous
 62
     7
370
    15
100
AcDbCircle
 10
881.1432708042
 20
1295.2025655078
 30
0.0
 40
1.008714544748717
100
AcDbArc
 50
30.5056111854
 51
58.8590245727
  0
LWPOLYLINE
  5
2D9
330
1F
100
AcDbEntity
  8
0
  6
Continuous
 62
     7
370
    15
100
AcDbPolyline
 90
        8
 70
   128
 43
0.0
 10
882.0941808042
 20
1295.4559873983
 10
882.1131350813
 20
1295.454020445
 10
882.1243705568
 20
1295.4629611417
 10
882.1265312252
 20
1295.4837035581
 10
882.1193786678
 20
1295.5153536245
 10
882.1035387335
 20
1295.5560039922
 10
882.0792349395
 20
1295.6047605917
 10
882.0123585281
 20
1295.714611952
  0
LINE
  5
2DA
330
1F
100
AcDbEntity
  8
0
  6
Continuous
 62
     7
370
    15
100
AcDbLine
 10
881.7725392399
 20
1295.2157210752
 30
0.0
 11
880.7931306181
 21
1296.686644499
 31
0.0
  0
LINE
  5
2DB
330
1F
100
AcDbEntity
  8
0
  6
Continuous
 62
     7
370
    15
100
AcDbLine
 10
881.9184216079
 20
1295.1703619405
 30
0.0
 11
881.7725392399
 21
1295.2157210752
 31
0.0
  0
LINE
  5
2DC
330
1F
100
AcDbEntity
  8
0
  6
Continuous
 62
     7
370
    15
100
AcDbLine
 10
881.6811057148
 20
1295.664782469
 30
0.0
 11
881.4249398527
 21
1295.9344934866
 31
0.0
  0
ARC
  5
2DD
330
1F
100
AcDbEntity
  8
0
  6
Continuous
 62
     7
370
    15
100
AcDbCircle
 10
883.6796846654
 20
1297.185991617
 30
0.0
 40
2.511651865651682
100
AcDbArc
 50
217.2764095496
 51
238.4600898874
  0
LINE
  5
2DE
330
1F
100
AcDbEntity
  8
0
  6
Continuous
 62
     7
370
    15
100
AcDbLine
 10
882.4272813616
 20
1295.0713586256
 30
0.0
 11
882.3658587751
 21
1295.0453710004
 31
0.0
  0
LINE
  5
2DF
330
1F
100
AcDbEntity
  8
0
  6
Continuous
 62
     7
370
    15
100
AcDbLine
 10
875.5371408877
 20
1258.2524966642
 30
0.0
 11
875.3984483299
 21
1258.4966372892
 31
0.0
  0
LWPOLYLINE
  5
2E0
330
1F
100
AcDbEntity
  8
0
  6
Continuous
 62
     7
370
    15
100
AcDbPolyline
 90
        6
 70
   128
 43
0.0
 10
875.7616715846
 20
1259.832317774
 10
875.9426312861
 20
1259.9653553411
 10
876.1261837897
 20
1260.057325308
 10
876.2921231208
 20
1260.091717188
 10
876.442922872
 20
1260.0703787252
 10
876.5589507637
 20
1259.9824618742
  0
ARC
  5
2E1
330
1F
100
AcDbEntity
  8
0
  6
Continuous
 62
     7
370
    15
100
AcDbCircle
 10
876.3716600625
 20
1258.9492108043
 30
0.0
 40
1.073295794744718
100
AcDbArc
 50
124.6340013403
 51
204.9398827043
  0
LINE
  5
2E2
330
1F
100
AcDbEntity
  8
0
  6
Continuous
 62
     7
370
    15
100
AcDbLine
 10
877.9826747594
 20
1260.1020287916
 30
0.0
 11
878.3605756578
 21
1260.4718160078
 31
0.0
  0
LINE
  5
2E3
330
1F
100
AcDbEntity
  8
0
  6
Continuous
 62
     7
370
    15
100
AcDbLine
 10
877.0616265354
 20
1260.9278511449
 30
0.0
 11
877.4134504018
 21
1261.2627696439
 31
0.0
  0
LINE
  5
2E4
330
1F
100
AcDbEntity
  8
0
  6
Continuous
 62
     7
370
    15
100
AcDbLine
 10
877.754724246
 20
1259.5143865987
 30
0.0
 11
877.0616265354
 21
1260.9278511449
 31
0.0
  0
LINE
  5
2E5
330
1F
100
AcDbEntity
  8
0
  6
Continuous
 62
     7
370
    15
100
AcDbLine
 10
879.452339035
 20
1261.9476866171
 30
0.0
 11
879.7646524725
 21
1262.3033475324
 31
0.0
  0
ARC
  5
2E6
330
1F
100
AcDbEntity
  8
0
  6
Continuous
 62
     7
370
    15
100
AcDbCircle
 10
878.9922604305
 20
1261.7911930795
 30
0.0
 40
0.4859655847919006
100
AcDbArc
 50
313.8724963931
 51
18.7854911434
  0
LWPOLYLINE
  5
2E7
330
1F
100
AcDbEntity
  8
0
  6
Continuous
 62
     7
370
    15
100
AcDbPolyline
 90
        8
 70
   128
 43
0.0
 10
878.99299584
 20
1261.3631438657
 10
879.0167333898
 20
1261.3310169622
 10
879.0483238516
 20
1261.3093804762
 10
879.0873201904
 20
1261.3008570119
 10
879.1328134355
 20
1261.3056253835
 10
879.1817339477
 20
1261.3230299398
 10
879.231861454
 20
1261.3526534483
 10
879.3290617284
 20
1261.4408683225
  0
LINE
  5
2E8
330
1F
100
AcDbEntity
  8
0
  6
Continuous
 62
     7
370
    15
100
AcDbLine
 10
878.1196760354
 20
1261.9674753591
 30
0.0
 11
879.3092133817
 21
1263.280148451
 31
0.0
  0
LINE
  5
2E9
330
1F
100
AcDbEntity
  8
0
  6
Continuous
 62
     7
370
    15
100
AcDbLine
 10
878.2497929749
 20
1261.7273282453
 30
0.0
 11
878.1196760354
 21
1261.9674753591
 31
0.0
  0
LINE
  5
2EA
330
1F
100
AcDbEntity
  8
0
  6
Continuous
 62
     7
370
    15
100
AcDbLine
 10
878.7645610389
 20
1262.023205702
 30
0.0
 11
878.8708063183
 21
1262.3966884061
 31
0.0
  0
ARC
  5
2EB
330
1F
100
AcDbEntity
  8
0
  6
Continuous
 62
     7
370
    15
100
AcDbCircle
 10
880.0843920554
 20
1261.3857282986
 30
0.0
 40
1.465718715156527
100
AcDbArc
 50
154.2194917962
 51
195.689484352
  0
LINE
  5
2EC
330
1F
100
AcDbEntity
  8
0
  6
Continuous
 62
     7
370
    15
100
AcDbLine
 10
878.8052784619
 20
1260.8791541502
 30
0.0
 11
878.673283976
 21
1260.9893631384
 31
0.0
  0
ARC
  5
2ED
330
1F
100
AcDbEntity
  8
0
  6
Continuous
 62
     7
370
    15
100
AcDbCircle
 10
859.0738769395
 20
1252.2694392162
 30
0.0
 40
0.7604109918509296
100
AcDbArc
 50
7.9616120202
 51
104.7873194579
  0
ARC
  5
2EE
330
1F
100
AcDbEntity
  8
0
  6
Continuous
 62
     7
370
    15
100
AcDbCircle
 10
858.8490248316
 20
1252.158159521
 30
0.0
 40
0.8470648884109012
100
AcDbArc
 50
87.918176235
 51
186.8946305722
  0
ARC
  5
2EF
330
1F
100
AcDbEntity
  8
0
  6
Continuous
 62
     7
370
    15
100
AcDbCircle
 10
860.6876762692
 20
1251.85237754
 30
0.0
 40
0.4125095125026003
100
AcDbArc
 50
118.9119881917
 51
181.5965218175
  0
ARC
  5
2F0
330
1F
100
AcDbEntity
  8
0
  6
Continuous
 62
     7
370
    15
100
AcDbCircle
 10
861.4628536129
 20
1252.0138623621
 30
0.0
 40
0.3780343562066132
100
AcDbArc
 50
8.6868770485
 51
73.5232804358
  0
LWPOLYLINE
  5
2F1
330
1F
100
AcDbEntity
  8
0
  6
Continuous
 62
     7
370
    15
100
AcDbPolyline
 90
        7
 70
   128
 43
0.0
 10
860.929823142
 20
1253.2414745733
 10
861.2731831488
 20
1253.2710384771
 10
861.4418195901
 20
1253.258640711
 10
861.5860255775
 20
1253.2217454359
 10
861.7084982214
 20
1253.1591605589
 10
861.8013920603
 20
1253.0771445676
 10
861.8865298447
 20
1252.8724026128
  0
LWPOLYLINE
  5
2F2
330
1F
100
AcDbEntity
  8
0
  6
Continuous
 62
     7
370
    15
100
AcDbPolyline
 90
        7
 70
   128
 43
0.0
 10
860.0759717045
 20
1252.6004266187
 10
860.1250710306
 20
1252.8216194555
 10
860.2010744033
 20
1252.9280137464
 10
860.3067385373
 20
1253.0239772245
 10
860.4388671336
 20
1253.1037878439
 10
860.5955900964
 20
1253.1666707441
 10
860.929823142
 20
1253.2414745733
  0
LINE
  5
2F3
330
1F
100
AcDbEntity
  8
0
  6
Continuous
 62
     7
370
    15
100
AcDbLine
 10
863.2881703195
 20
1252.2478055402
 30
0.0
 11
863.8121696529
 21
1252.3675512716
 31
0.0
  0
LINE
  5
2F4
330
1F
100
AcDbEntity
  8
0
  6
Continuous
 62
     7
370
    15
100
AcDbLine
 10
862.6286225733
 20
1253.5015892431
 30
0.0
 11
863.1111966786
 21
1253.6056589529
 31
0.0
  0
LINE
  5
2F5
330
1F
100
AcDbEntity
  8
0
  6
Continuous
 62
     7
370
    15
100
AcDbLine
 10
862.8438698468
 20
1251.8480371877
 30
0.0
 11
862.6286225733
 21
1253.5015892431
 31
0.0
  0
LWPOLYLINE
  5
2F6
330
1F
100
AcDbEntity
  8
0
  6
Continuous
 62
     7
370
    15
100
AcDbPolyline
 90
        3
 70
   128
 43
0.0
 10
841.3186582145
 20
1255.8633636877
 10
841.1789821801
 20
1255.5623006269
 10
841.1601620135
 20
1255.5468630239
  0
ARC
  5
2F7
330
1F
100
AcDbEntity
  8
0
  6
Continuous
 62
     7
370
    15
100
AcDbCircle
 10
840.3588465518
 20
1256.1978816795
 30
0.0
 40
1.016435297888065
100
AcDbArc
 50
340.7852964016
 51
65.3883587723
  0
LWPOLYLINE
  5
2F8
330
1F
100
AcDbEntity
  8
0
  6
Continuous
 62
     7
370
    15
100
AcDbPolyline
 90
        6
 70
   128
 43
0.0
 10
839.8534568367
 20
1257.0372771665
 10
840.0515901265
 20
1257.23468775
 10
840.1991786775
 20
1257.2860669538
 10
840.3769122777
 20
1257.2848152563
 10
840.5784504828
 20
1257.2250914022
 10
840.7821568069
 20
1257.1219753667
  0
LINE
  5
2F9
330
1F
100
AcDbEntity
  8
0
  6
Continuous
 62
     7
370
    15
100
AcDbLine
 10
842.6794248042
 20
1255.3101133749
 30
0.0
 11
843.0271657524
 21
1255.0801586553
 31
0.0
  0
ARC
  5
2FA
330
1F
100
AcDbEntity
  8
0
  6
Continuous
 62
     7
370
    15
100
AcDbCircle
 10
842.5821318418
 20
1255.7713045889
 30
0.0
 40
0.4713419739404841
100
AcDbArc
 50
243.2822174125
 51
281.9124572623
  0
ARC
  5
2FB
330
1F
100
AcDbEntity
  8
0
  6
Continuous
 62
     7
370
    15
100
AcDbCircle
 10
842.516171957
 20
1255.7254892206
 30
0.0
 40
0.4025906845970337
100
AcDbArc
 50
174.4507928496
 51
248.7439651343
  0
ARC
  5
2FC
330
1F
100
AcDbEntity
  8
0
  6
Continuous
 62
     7
370
    15
100
AcDbCircle
 10
842.2453259153
 20
1255.1154935792
 30
0.0
 40
1.072095514151737
100
AcDbArc
 50
10.1352567397
 51
69.116524213
  0
ARC
  5
2FD
330
1F
100
AcDbEntity
  8
0
  6
Continuous
 62
     7
370
    15
100
AcDbCircle
 10
842.1832607325
 20
1255.4895866074
 30
0.0
 40
0.7688901875491467
100
AcDbArc
 50
54.7068961826
 51
120.0767285516
  0
LINE
  5
2FE
330
1F
100
AcDbEntity
  8
0
  6
Continuous
 62
     7
370
    15
100
AcDbLine
 10
842.2424929557
 20
1254.7803472921
 30
0.0
 11
842.4188854513
 21
1255.0204348013
 31
0.0
  0
LINE
  5
2FF
330
1F
100
AcDbEntity
  8
0
  6
Continuous
 62
     7
370
    15
100
AcDbLine
 10
841.4891498503
 20
1255.1652144834
 30
0.0
 11
842.2424929557
 21
1254.7803472921
 31
0.0
  0
LINE
  5
300
330
1F
100
AcDbEntity
  8
0
  6
Continuous
 62
     7
370
    15
100
AcDbLine
 10
844.2716883836
 20
1253.854806368
 30
0.0
 11
844.7716819462
 21
1253.6526870176
 31
0.0
  0
LINE
  5
301
330
1F
100
AcDbEntity
  8
0
  6
Continuous
 62
     7
370
    15
100
AcDbLine
 10
844.5900516925
 20
1255.1789235517
 30
0.0
 11
844.2716883836
 21
1253.854806368
 31
0.0
  0
LINE
  5
302
330
1F
100
AcDbEntity
  8
0
  6
Continuous
 62
     7
370
    15
100
AcDbLine
 10
844.1338004884
 20
1255.3701948568
 30
0.0
 11
844.5900516925
 21
1255.1789235517
 31
0.0
  0
LWPOLYLINE
  5
303
330
1F
100
AcDbEntity
  8
0
  6
Continuous
 62
     7
370
    15
100
AcDbPolyline
 90
        3
 70
   128
 43
0.0
 10
828.8508640942
 20
1269.1386293813
 10
828.6475526509
 20
1268.9468216344
 10
828.5294460473
 20
1268.9226221487
  0
ARC
  5
304
330
1F
100
AcDbEntity
  8
0
  6
Continuous
 62
     7
370
    15
100
AcDbCircle
 10
827.8171921723
 20
1269.9191193587
 30
0.0
 40
1.295238297353625
100
AcDbArc
 50
322.9448062386
 51
27.9543289641
  0
ARC
  5
305
330
1F
100
AcDbEntity
  8
0
  6
Continuous
 62
     7
370
    15
100
AcDbCircle
 10
828.3436816382
 20
1270.401439789
 30
0.0
 40
0.6301141164904397
100
AcDbArc
 50
11.4277036122
 51
72.9615457855
  0
LINE
  5
306
330
1F
100
AcDbEntity
  8
0
  6
Continuous
 62
     7
370
    15
100
AcDbLine
 10
829.3524893341
 20
1267.5751399442
 30
0.0
 11
829.5731382785
 21
1267.1596955701
 31
0.0
  0
LWPOLYLINE
  5
307
330
1F
100
AcDbEntity
  8
0
  6
Continuous
 62
     7
370
    15
100
AcDbPolyline
 90
        7
 70
   128
 43
0.0
 10
829.0342303333
 20
1267.7062105581
 10
829.0723698554
 20
1267.6406454488
 10
829.1155385194
 20
1267.5856899664
 10
829.1599365291
 20
1267.5474833891
 10
829.2056532917
 20
1267.5244759962
 10
829.2873042044
 20
1267.5249528333
 10
829.3524893341
 20
1267.5751399442
  0
ARC
  5
308
330
1F
100
AcDbEntity
  8
0
  6
Continuous
 62
     7
370
    15
100
AcDbCircle
 10
829.4414871317
 20
1267.9732761362
 30
0.0
 40
0.4870134729936911
100
AcDbArc
 50
156.1760601481
 51
213.2555412364
  0
LINE
  5
309
330
1F
100
AcDbEntity
  8
0
  6
Continuous
 62
     7
370
    15
100
AcDbLine
 10
829.0970312772
 20
1268.228228037
 30
0.0
 11
828.9959716019
 21
1268.1699942991
 31
0.0
  0
LINE
  5
30A
330
1F
100
AcDbEntity
  8
0
  6
Continuous
 62
     7
370
    15
100
AcDbLine
 10
830.2024068651
 20
1267.8849052831
 30
0.0
 11
830.1221715626
 21
1267.779047434
 31
0.0
  0
LINE
  5
30B
330
1F
100
AcDbEntity
  8
0
  6
Continuous
 62
     7
370
    15
100
AcDbLine
 10
829.4066401539
 20
1269.4442223951
 30
0.0
 11
830.2024068651
 21
1267.8849052831
 31
0.0
  0
LINE
  5
30C
330
1F
100
AcDbEntity
  8
0
  6
Continuous
 62
     7
370
    15
100
AcDbLine
 10
829.4180022893
 20
1268.5503315374
 30
0.0
 11
829.6499835667
 21
1268.4349369451
 31
0.0
  0
LWPOLYLINE
  5
30D
330
1F
100
AcDbEntity
  8
0
  6
Continuous
 62
     7
370
    15
100
AcDbPolyline
 90
        3
 70
   128
 43
0.0
 10
828.9070340213
 20
1268.674726431
 10
829.0671991524
 20
1268.6833691045
 10
829.4180022893
 20
1268.5503315374
  0
LINE
  5
30E
330
1F
100
AcDbEntity
  8
0
  6
Continuous
 62
     7
370
    15
100
AcDbLine
 10
829.5731382785
 20
1267.1596955701
 30
0.0
 11
829.4395344672
 21
1267.0699905798
 31
0.0
  0
LINE
  5
30F
330
1F
100
AcDbEntity
  8
0
  6
Continuous
 62
     7
370
    15
100
AcDbLine
 10
830.1340924916
 20
1265.8126902029
 30
0.0
 11
830.409562808
 21
1265.3682779714
 31
0.0
  0
LINE
  5
310
330
1F
100
AcDbEntity
  8
0
  6
Continuous
 62
     7
370
    15
100
AcDbLine
 10
830.8302002368
 20
1266.81154484
 30
0.0
 11
830.1340924916
 21
1265.8126902029
 31
0.0
  0
LINE
  5
311
330
1F
100
AcDbEntity
  8
0
  6
Continuous
 62
     7
370
    15
100
AcDbLine
 10
830.5837797341
 20
1267.2219228193
 30
0.0
 11
830.8302002368
 21
1266.81154484
 31
0.0
  0
LINE
  5
312
330
1F
100
AcDbEntity
  8
0
  6
Continuous
 62
     7
370
    15
100
AcDbLine
 10
873.4218912539
 20
1304.4265460416
 30
0.0
 11
870.8030196247
 21
1305.8965753957
 31
0.0
  0
LINE
  5
313
330
1F
100
AcDbEntity
  8
0
  6
Continuous
 62
     7
370
    15
100
AcDbLine
 10
874.1434203801
 20
1303.834671919
 30
0.0
 11
873.2179390607
 21
1304.4082474157
 31
0.0
  0
LINE
  5
314
330
1F
100
AcDbEntity
  8
0
  6
Continuous
 62
     7
370
    15
100
AcDbLine
 10
874.2397489366
 20
1303.8439702436
 30
0.0
 11
874.1434203801
 21
1303.834671919
 31
0.0
  0
LINE
  5
315
330
1F
100
AcDbEntity
  8
0
  6
Continuous
 62
     7
370
    15
100
AcDbLine
 10
874.2915230212
 20
1303.8837265417
 30
0.0
 11
874.2397489366
 21
1303.8439702436
 31
0.0
  0
LWPOLYLINE
  5
316
330
1F
100
AcDbEntity
  8
0
  6
Continuous
 62
     7
370
    15
100
AcDbPolyline
 90
        7
 70
   128
 43
0.0
 10
870.1336147604
 20
1305.7593655035
 10
869.6984337983
 20
1305.9797834798
 10
869.498728436
 20
1306.0839127943
 10
869.3371700463
 20
1306.1748694822
 10
869.248903018
 20
1306.2379311964
 10
869.2241670904
 20
1306.2745880529
 10
869.2327054558
 20
1306.2790584013
  0
LINE
  5
317
330
1F
100
AcDbEntity
  8
0
  6
Continuous
 62
     7
370
    15
100
AcDbLine
 10
872.4365445194
 20
1304.4707130834
 30
0.0
 11
870.1336147604
 21
1305.7593655035
 31
0.0
  0
ARC
  5
318
330
1F
100
AcDbEntity
  8
0
  6
Continuous
 62
     7
370
    15
100
AcDbCircle
 10
874.8793116623
 20
1307.6046294589
 30
0.0
 40
3.973479981402056
100
AcDbArc
 50
232.0649572178
 51
253.3754721608
  0
LINE
  5
319
330
1F
100
AcDbEntity
  8
0
  6
Continuous
 62
     7
370
    15
100
AcDbLine
 10
873.8652231512
 20
1303.8090419218
 30
0.0
 11
873.7425046382
 21
1303.7972402021
 31
0.0
  0
LINE
  5
31A
330
1F
100
AcDbEntity
  8
0
  6
Continuous
 62
     7
370
    15
100
AcDbLine
 10
870.8030196247
 20
1305.8965753957
 30
0.0
 11
870.1568531213
 21
1305.8383416578
 31
0.0
  0
ARC
  5
31B
330
1F
100
AcDbEntity
  8
0
  6
Continuous
 62
     7
370
    15
100
AcDbCircle
 10
857.1849991739
 20
1323.500608274
 30
0.0
 40
14.4743549041169
100
AcDbArc
 50
266.6834643877
 51
276.5863619223
  0
ARC
  5
31C
330
1F
100
AcDbEntity
  8
0
  6
Continuous
 62
     7
370
    15
100
AcDbCircle
 10
855.5099847963
 20
1323.5584289441
 30
0.0
 40
14.53209464287871
100
AcDbArc
 50
263.4521685499
 51
273.3044073142
  0
LWPOLYLINE
  5
31D
330
1F
100
AcDbEntity
  8
0
  6
Continuous
 62
     7
370
    15
100
AcDbPolyline
 90
        5
 70
   128
 43
0.0
 10
886.3778325138
 20
1287.5208210394
 10
886.5032257852
 20
1287.2763227865
 10
886.6311522541
 20
1287.0979856893
 10
886.7432089863
 20
1287.0134066984
 10
886.8225427685
 20
1287.0355200216
  0
ARC
  5
31E
330
1F
100
AcDbEntity
  8
0
  6
Continuous
 62
     7
370
    15
100
AcDbCircle
 10
887.5221640555
 20
1288.1923417514
 30
0.0
 40
1.326813756343279
100
AcDbArc
 50
171.7199031341
 51
210.4054149684
  0
ARC
  5
31F
330
1F
100
AcDbEntity
  8
0
  6
Continuous
 62
     7
370
    15
100
AcDbCircle
 10
888.207989117
 20
1281.3817665747
 30
0.0
 40
0.7621040199265695
100
AcDbArc
 50
186.2625642924
 51
233.0328983678
  0
LWPOLYLINE
  5
320
330
1F
100
AcDbEntity
  8
0
  6
Continuous
 62
     7
370
    15
100
AcDbPolyline
 90
        6
 70
   128
 43
0.0
 10
887.5584515152
 20
1282.2416972562
 10
887.4659600076
 20
1282.2157692358
 10
887.4034049329
 20
1282.0821952268
 10
887.3790415344
 20
1281.8611215994
 10
887.3955818233
 20
1281.5859865591
 10
887.4504329977
 20
1281.2986325666
  0
LWPOLYLINE
  5
321
330
1F
100
AcDbEntity
  8
0
  6
Continuous
 62
     7
370
    15
100
AcDbPolyline
 90
        5
 70
   128
 43
0.0
 10
883.8579567489
 20
1293.2216476843
 10
884.1837855396
 20
1292.7706193372
 10
884.485832077
 20
1292.4349855825
 10
884.7216429529
 20
1292.2722052976
 10
884.8122122106
 20
1292.2950338766
  0
ARC
  5
322
330
1F
100
AcDbEntity
  8
0
  6
Continuous
 62
     7
370
    15
100
AcDbCircle
 10
885.4639010621
 20
1294.8048372347
 30
0.0
 40
2.255115582305307
100
AcDbArc
 50
180.8624898989
 51
224.5911962926
  0
LWPOLYLINE
  5
323
330
1F
100
AcDbEntity
  8
0
  6
Continuous
 62
     7
370
    15
100
AcDbPolyline
 90
        6
 70
   128
 43
0.0
 10
828.9078610358
 20
1266.1369394704
 10
828.7836971101
 20
1266.6958522245
 10
828.5616176543
 20
1267.2313403532
 10
828.2739134845
 20
1267.6611494466
 10
827.9635148463
 20
1267.919654791
 10
827.6727261362
 20
1267.9675769254
  0
LWPOLYLINE
  5
324
330
1F
100
AcDbEntity
  8
0
  6
Continuous
 62
     7
370
    15
100
AcDbPolyline
 90
        5
 70
   128
 43
0.0
 10
828.5783740101
 20
1265.1257466718
 10
828.7796588955
 20
1265.2741026327
 10
828.9065050301
 20
1265.6394791052
 10
828.9238797841
 20
1265.877778475
 10
828.9078610358
 20
1266.1369394704
  0
LWPOLYLINE
  5
325
330
1F
100
AcDbEntity
  8
0
  6
Continuous
 62
     7
370
    15
100
AcDbPolyline
 90
        7
 70
   128
 43
0.0
 10
842.9270448503
 20
1253.0749988004
 10
842.6278444347
 20
1253.4984301969
 10
842.1874853191
 20
1253.8686346456
 10
841.6706683454
 20
1254.1299414083
 10
841.1578746853
 20
1254.2434882566
 10
840.7244148073
 20
1254.1903209135
 10
840.4355110941
 20
1253.9730023786
  0
ARC
  5
326
330
1F
100
AcDbEntity
  8
0
  6
Continuous
 62
     7
370
    15
100
AcDbCircle
 10
842.2728573393
 20
1252.6999244619
 30
0.0
 40
0.7540835888713743
100
AcDbArc
 50
332.1598436778
 51
29.8275349995
  0
LWPOLYLINE
  5
327
330
1F
100
AcDbEntity
  8
0
  6
Continuous
 62
     7
370
    15
100
AcDbPolyline
 90
        4
 70
   128
 43
0.0
 10
831.9912167606
 20
1260.4055356428
 10
832.1185248313
 20
1260.4973267957
 10
832.1751566944
 20
1260.6760215208
 10
832.1527676997
 20
1260.9144997045
  0
ARC
  5
328
330
1F
100
AcDbEntity
  8
0
  6
Continuous
 62
     7
370
    15
100
AcDbCircle
 10
885.865052439
 20
1268.785849949
 30
0.0
 40
0.4811089823010576
100
AcDbArc
 50
165.2236174295
 51
236.5835933057
  0
LWPOLYLINE
  5
329
330
1F
100
AcDbEntity
  8
0
  6
Continuous
 62
     7
370
    15
100
AcDbPolyline
 90
        6
 70
   128
 43
0.0
 10
885.9228702602
 20
1269.8463153288
 10
885.7928129253
 20
1269.8217582151
 10
885.6526228008
 20
1269.6883034155
 10
885.5289878664
 20
1269.4678854391
 10
885.440117341
 20
1269.194061701
 10
885.3998544035
 20
1268.9085554525
  0
LWPOLYLINE
  5
32A
330
1F
100
AcDbEntity
  8
0
  6
Continuous
 62
     7
370
    15
100
AcDbPolyline
 90
        4
 70
   128
 43
0.0
 10
882.3700161991
 20
1263.2980298444
 10
882.3582293806
 20
1263.0537104055
 10
882.4180724439
 20
1262.8732871458
 10
882.5407984075
 20
1262.7840589925
  0
LWPOLYLINE
  5
32B
330
1F
100
AcDbEntity
  8
0
  6
Continuous
 62
     7
370
    15
100
AcDbPolyline
 90
        7
 70
   128
 43
0.0
 10
883.1241937694
 20
1264.152343218
 10
883.0985786733
 20
1264.1711186811
 10
882.9367222604
 20
1264.1532372877
 10
882.7573718843
 20
1264.0323590681
 10
882.5868280945
 20
1263.82731909
 10
882.4506463823
 20
1263.5695290014
 10
882.3700161991
 20
1263.2980298444
  0
LWPOLYLINE
  5
32C
330
1F
100
AcDbEntity
  8
0
  6
Continuous
 62
     7
370
    15
100
AcDbPolyline
 90
        7
 70
   128
 43
0.0
 10
836.7386894641
 20
1256.5361213132
 10
836.6125883875
 20
1256.7763280317
 10
836.4204379139
 20
1256.9962691709
 10
836.1919956622
 20
1257.1628641531
 10
835.9619291839
 20
1257.2506021902
 10
835.7646005568
 20
1257.2455357954
 10
835.6292086062
 20
1257.147605364
  0
LWPOLYLINE
  5
32D
330
1F
100
AcDbEntity
  8
0
  6
Continuous
 62
     7
370
    15
100
AcDbPolyline
 90
        4
 70
   128
 43
0.0
 10
836.6877200422
 20
1256.1078619405
 10
836.7259564218
 20
1256.135637705
 10
836.7787288842
 20
1256.3113521978
 10
836.7386894641
 20
1256.5361213132
  0
LWPOLYLINE
  5
32E
330
1F
100
AcDbEntity
  8
0
  6
Continuous
 62
     7
370
    15
100
AcDbPolyline
 90
        3
 70
   128
 43
0.0
 10
872.9793044147
 20
1254.4938873693
 10
872.9320006785
 20
1254.2772840902
 10
872.9840131817
 20
1254.1024040624
  0
LWPOLYLINE
  5
32F
330
1F
100
AcDbEntity
  8
0
  6
Continuous
 62
     7
370
    15
100
AcDbPolyline
 90
        7
 70
   128
 43
0.0
 10
874.1471903739
 20
1255.0356339857
 10
874.0287037906
 20
1255.1227759763
 10
873.819357377
 20
1255.1402401373
 10
873.5731082377
 20
1255.0694298193
 10
873.3269112525
 20
1254.9217891142
 10
873.1182279405
 20
1254.7199081823
 10
872.9793044147
 20
1254.4938873693
  0
LWPOLYLINE
  5
330
330
1F
100
AcDbEntity
  8
0
  6
Continuous
 62
     7
370
    15
100
AcDbPolyline
 90
        3
 70
   128
 43
0.0
 10
867.0413928446
 20
1251.6941379949
 10
866.9854240832
 20
1251.4918398306
 10
867.0377644119
 20
1251.316244547
  0
LWPOLYLINE
  5
331
330
1F
100
AcDbEntity
  8
0
  6
Continuous
 62
     7
370
    15
100
AcDbPolyline
 90
        8
 70
   128
 43
0.0
 10
868.3573888955
 20
1252.0021151945
 10
868.3461087165
 20
1252.0400237486
 10
868.1951152501
 20
1252.1585177824
 10
867.9678799925
 20
1252.2031616613
 10
867.6985266027
 20
1252.1679949209
 10
867.4277650532
 20
1252.0590972349
 10
867.1968790111
 20
1251.8929790899
 10
867.0413928446
 20
1251.6941379949
  0
ARC
  5
332
330
1F
100
AcDbEntity
  8
0
  6
Continuous
 62
     7
370
    15
100
AcDbCircle
 10
887.9894784155
 20
1274.6719501624
 30
0.0
 40
1.169412730969928
100
AcDbArc
 50
174.5004774023
 51
234.090608547
  0
LWPOLYLINE
  5
333
330
1F
100
AcDbEntity
  8
0
  6
Continuous
 62
     7
370
    15
100
AcDbPolyline
 90
        7
 70
   128
 43
0.0
 10
887.3904260215
 20
1276.6916703626
 10
887.2329207477
 20
1276.6523312971
 10
887.0379688558
 20
1276.377673094
 10
886.8938299236
 20
1275.9262871191
 10
886.8196519432
 20
1275.3662418768
 10
886.811590415
 20
1275.069708769
 10
886.8254484949
 20
1274.7840237066
  0
LWPOLYLINE
  5
334
330
1F
100
AcDbEntity
  8
0
  6
Continuous
 62
     7
370
    15
100
AcDbPolyline
 90
        4
 70
   128
 43
0.0
 10
877.6262464342
 20
1258.2968425199
 10
877.5591018018
 20
1257.8378867551
 10
877.6647957382
 20
1257.4836563512
 10
877.7684109626
 20
1257.4091505453
  0
LWPOLYLINE
  5
335
330
1F
100
AcDbEntity
  8
0
  6
Continuous
 62
     7
370
    15
100
AcDbPolyline
 90
        8
 70
   128
 43
0.0
 10
879.556617361
 20
1259.7445797369
 10
879.4335784731
 20
1259.8329138204
 10
879.0645065126
 20
1259.8236154958
 10
878.6373945293
 20
1259.6213769361
 10
878.2142313537
 20
1259.2602323934
 10
877.8592037377
 20
1258.7951969549
 10
877.7226867494
 20
1258.5435461446
 10
877.6262464342
 20
1258.2968425199
  0
LWPOLYLINE
  5
336
330
1F
100
AcDbEntity
  8
0
  6
Continuous
 62
     7
370
    15
100
AcDbPolyline
 90
        9
 70
   128
 43
0.0
 10
862.7350839195
 20
1250.3647159979
 10
862.6747342167
 20
1250.5667757436
 10
862.3600142417
 20
1250.8376788541
 10
861.8847268042
 20
1250.9871673032
 10
861.3194810567
 20
1250.9953331396
 10
860.7503237543
 20
1250.8639048978
 10
860.2647843179
 20
1250.6108235761
 10
860.074131411
 20
1250.4489373609
 10
859.9348130045
 20
1250.2730440542
  0
LWPOLYLINE
  5
337
330
1F
100
AcDbEntity
  8
0
  6
Continuous
 62
     7
370
    15
100
AcDbPolyline
 90
        7
 70
   128
 43
0.0
 10
849.012500268
 20
1250.7125091001
 10
848.8515975294
 20
1250.8968662664
 10
848.6131118951
 20
1251.04307646
 10
848.3336257157
 20
1251.1297416135
 10
848.0557563123
 20
1251.1438679144
 10
847.8216367182
 20
1251.0827731535
 10
847.6665752349
 20
1250.9546231672
  0
LWPOLYLINE
  5
338
330
1F
100
AcDbEntity
  8
0
  6
Continuous
 62
     7
370
    15
100
AcDbPolyline
 90
        3
 70
   128
 43
0.0
 10
849.0180509505
 20
1250.339860861
 10
849.0710096774
 20
1250.5171250745
 10
849.012500268
 20
1250.7125091001
  0
LWPOLYLINE
  5
339
330
1F
100
AcDbEntity
  8
0
  6
Continuous
 62
     7
370
    15
100
AcDbPolyline
 90
        9
 70
   128
 43
0.0
 10
855.0879048524
 20
1249.8756002828
 10
854.9227105794
 20
1250.0352811262
 10
854.6778248963
 20
1250.1463245794
 10
854.3906124649
 20
1250.1927565977
 10
854.1048230943
 20
1250.1679014608
 10
853.8639607248
 20
1250.0749778196
 10
853.7046002564
 20
1249.9272179052
 10
853.6509188232
 20
1249.7460793897
 10
853.6751108584
 20
1249.6707391187
  0
LWPOLYLINE
  5
33A
330
1F
100
AcDbEntity
  8
0
  6
Continuous
 62
     7
370
    15
100
AcDbPolyline
 90
        3
 70
   128
 43
0.0
 10
855.1103534517
 20
1249.5620202467
 10
855.1482024011
 20
1249.6905278608
 10
855.0879048524
 20
1249.8756002828
  0
ARC
  5
33B
330
1F
100
AcDbEntity
  8
0
  6
Continuous
 62
     7
370
    15
100
AcDbCircle
 10
869.1767371714
 20
1308.9253051501
 30
0.0
 40
2.106258431937438
100
AcDbArc
 50
242.6344968681
 51
265.3064514746
  0
LWPOLYLINE
  5
33C
330
1F
100
AcDbEntity
  8
0
  6
Continuous
 62
     7
370
    15
100
AcDbPolyline
 90
        8
 70
   128
 43
0.0
 10
867.4190627751
 20
1307.4200105116
 10
867.4145104704
 20
1307.4194144651
 10
867.4307378349
 20
1307.3990296766
 10
867.4795093355
 20
1307.3677372381
 10
867.6580550489
 20
1307.279820387
 10
867.9131629286
 20
1307.1704458639
 10
868.0579053578
 20
1307.1125697538
 10
868.2085635481
 20
1307.0547532484
  0
ARC
  5
33D
330
1F
100
AcDbEntity
  8
0
  6
Continuous
 62
     7
370
    15
100
AcDbCircle
 10
858.8229070232
 20
1252.0292227881
 30
0.0
 40
0.814543909324869
100
AcDbArc
 50
178.6196051478
 51
281.3868282024
  0
ARC
  5
33E
330
1F
100
AcDbEntity
  8
0
  6
Continuous
 62
     7
370
    15
100
AcDbCircle
 10
858.8495537321
 20
1252.1504725221
 30
0.0
 40
0.8470726787871442
100
AcDbArc
 50
87.9000347709
 51
186.8906421464
  0
LWPOLYLINE
  5
33F
330
1F
100
AcDbEntity
  8
0
  6
Continuous
 62
     7
370
    15
100
AcDbPolyline
 90
        7
 70
   128
 43
0.0
 10
858.8805931029
 20
1252.9969763204
 10
859.1128947553
 20
1253.0012082502
 10
859.3327166853
 20
1252.9680680677
 10
859.5118062911
 20
1252.8952311918
 10
859.6562506971
 20
1252.7821611807
 10
859.8062383351
 20
1252.5115560934
 10
859.8508002577
 20
1252.2163342878
  0
LWPOLYLINE
  5
340
330
1F
100
AcDbEntity
  8
0
  6
Continuous
 62
     7
370
    15
100
AcDbPolyline
 90
        3
 70
   128
 43
0.0
 10
859.8508002577
 20
1252.2163342878
 10
859.8283963618
 20
1251.8655013487
 10
859.6624272284
 20
1251.5220593855
  0
ARC
  5
341
330
1F
100
AcDbEntity
  8
0
  6
Continuous
 62
     7
370
    15
100
AcDbCircle
 10
858.9348942744
 20
1252.2806663407
 30
0.0
 40
1.051089297707988
100
AcDbArc
 50
272.662710756
 51
313.8021654505
  0
ARC
  5
342
330
1F
100
AcDbEntity
  8
0
  6
Continuous
 62
     7
370
    15
100
AcDbCircle
 10
858.9136146169
 20
1252.3070804616
 30
0.0
 40
0.3932206053462586
100
AcDbArc
 50
92.3641369564
 51
139.6707895248
  0
LWPOLYLINE
  5
343
330
1F
100
AcDbEntity
  8
0
  6
Continuous
 62
     7
370
    15
100
AcDbPolyline
 90
        3
 70
   128
 43
0.0
 10
858.6138474164
 20
1252.5615643903
 10
858.5171910343
 20
1252.325708811
 10
858.5069166836
 20
1252.08508486
  0
LWPOLYLINE
  5
344
330
1F
100
AcDbEntity
  8
0
  6
Continuous
 62
     7
370
    15
100
AcDbPolyline
 90
        7
 70
   128
 43
0.0
 10
858.5069166836
 20
1252.08508486
 10
858.5776897487
 20
1251.7358016416
 10
858.6314903912
 20
1251.6524743482
 10
858.7089987812
 20
1251.587743704
 10
858.8207351384
 20
1251.5421461507
 10
858.8869857011
 20
1251.5330862447
 10
858.9560898361
 20
1251.5340995237
  0
LWPOLYLINE
  5
345
330
1F
100
AcDbEntity
  8
0
  6
Continuous
 62
     7
370
    15
100
AcDbPolyline
 90
        7
 70
   128
 43
0.0
 10
858.9560898361
 20
1251.5340995237
 10
859.0951027689
 20
1251.5639018461
 10
859.1568308291
 20
1251.5921544477
 10
859.2084782538
 20
1251.6272019788
 10
859.2739539561
 20
1251.7019462034
 10
859.3210639772
 20
1251.8032740995
 10
859.3522595582
 20
1252.1741341993
  0
LWPOLYLINE
  5
346
330
1F
100
AcDbEntity
  8
0
  6
Continuous
 62
     7
370
    15
100
AcDbPolyline
 90
        6
 70
   128
 43
0.0
 10
859.3522595582
 20
1252.1741341993
 10
859.2790650544
 20
1252.5140594885
 10
859.2259349642
 20
1252.5905322477
 10
859.142816287
 20
1252.6535939619
 10
859.03031252
 20
1252.694005911
 10
858.8973941621
 20
1252.6999663755
  0
ARC
  5
347
330
1F
100
AcDbEntity
  8
0
  6
Continuous
 62
     7
370
    15
100
AcDbCircle
 10
860.5403154749
 20
1252.6732711811
 30
0.0
 40
0.4701203474065764
100
AcDbArc
 50
189.856279924
 51
263.7967390737
  0
LWPOLYLINE
  5
348
330
1F
100
AcDbEntity
  8
0
  6
Continuous
 62
     7
370
    15
100
AcDbPolyline
 90
        7
 70
   128
 43
0.0
 10
860.077133995
 20
1252.5927972242
 10
860.1261141119
 20
1252.8136920377
 10
860.2023335514
 20
1252.9204439565
 10
860.3079827842
 20
1253.01634783
 10
860.4401411829
 20
1253.0961584493
 10
860.5969237504
 20
1253.1590413496
 10
860.9312685547
 20
1253.2339047834
  0
LWPOLYLINE
  5
349
330
1F
100
AcDbEntity
  8
0
  6
Continuous
 62
     7
370
    15
100
AcDbPolyline
 90
        7
 70
   128
 43
0.0
 10
860.9312685547
 20
1253.2339047834
 10
861.2747328696
 20
1253.2634686872
 10
861.4434065637
 20
1253.2511305257
 10
861.5876721558
 20
1253.214175646
 10
861.7101820526
 20
1253.151590769
 10
861.8030982432
 20
1253.0696343824
 10
861.8882583794
 20
1252.8648924276
  0
ARC
  5
34A
330
1F
100
AcDbEntity
  8
0
  6
Continuous
 62
     7
370
    15
100
AcDbCircle
 10
861.2793746239
 20
1252.9043873322
 30
0.0
 40
0.6101633184484255
100
AcDbArc
 50
298.6252249596
 51
356.288740358
  0
ARC
  5
34B
330
1F
100
AcDbEntity
  8
0
  6
Continuous
 62
     7
370
    15
100
AcDbCircle
 10
861.4720998922
 20
1252.0128591566
 30
0.0
 40
0.369613742733721
100
AcDbArc
 50
7.866795718
 51
74.3687250883
  0
LWPOLYLINE
  5
34C
330
1F
100
AcDbEntity
  8
0
  6
Continuous
 62
     7
370
    15
100
AcDbPolyline
 90
        7
 70
   128
 43
0.0
 10
861.8382351813
 20
1252.0634483739
 10
861.7975177583
 20
1251.8653821394
 10
861.7320197043
 20
1251.7686438009
 10
861.6400273857
 20
1251.6815018102
 10
861.5251766858
 20
1251.6065787717
 10
861.3907533107
 20
1251.5451859876
 10
861.0984968362
 20
1251.4712166235
  0
LWPOLYLINE
  5
34D
330
1F
100
AcDbEntity
  8
0
  6
Continuous
 62
     7
370
    15
100
AcDbPolyline
 90
        7
 70
   128
 43
0.0
 10
861.0984968362
 20
1251.4712166235
 10
860.8016806063
 20
1251.4578055784
 10
860.6619151649
 20
1251.4789652273
 10
860.5375351724
 20
1251.5200328275
 10
860.4344638405
 20
1251.5790414259
 10
860.3534760294
 20
1251.6540836736
 10
860.2765338835
 20
1251.8333148405
  0
ARC
  5
34E
330
1F
100
AcDbEntity
  8
0
  6
Continuous
 62
     7
370
    15
100
AcDbCircle
 10
860.7042064912
 20
1251.8360126693
 30
0.0
 40
0.4276811167719953
100
AcDbArc
 50
120.1315384138
 51
180.361426363
  0
LWPOLYLINE
  5
34F
330
1F
100
AcDbEntity
  8
0
  6
Continuous
 62
     7
370
    15
100
AcDbPolyline
 90
        8
 70
   128
 43
0.0
 10
861.0426100311
 20
1252.1560739919
 10
860.9296219763
 20
1252.1257948324
 10
860.8803512869
 20
1252.1006416723
 10
860.8381586489
 20
1252.0694684431
 10
860.8057113704
 20
1252.0347189352
 10
860.7838215646
 20
1251.9970487997
 10
860.7734950599
 20
1251.9586634084
 10
860.7728692112
 20
1251.9206356451
  0
LWPOLYLINE
  5
350
330
1F
100
AcDbEntity
  8
0
  6
Continuous
 62
     7
370
    15
100
AcDbPolyline
 90
        8
 70
   128
 43
0.0
 10
860.7728692112
 20
1251.9206356451
 10
860.7993709264
 20
1251.8507193967
 10
860.8291359958
 20
1251.8219303533
 10
860.8694883403
 20
1251.799161379
 10
860.9169932422
 20
1251.7838429853
 10
860.971464437
 20
1251.7758559629
 10
861.0283198175
 20
1251.7755579397
 10
861.0861139712
 20
1251.7817568227
  0
LWPOLYLINE
  5
351
330
1F
100
AcDbEntity
  8
0
  6
Continuous
 62
     7
370
    15
100
AcDbPolyline
 90
        8
 70
   128
 43
0.0
 10
861.0861139712
 20
1251.7817568227
 10
861.1950712619
 20
1251.811082308
 10
861.2431647596
 20
1251.8356990263
 10
861.2838449297
 20
1251.8656205579
 10
861.315815371
 20
1251.8995356008
 10
861.3376083193
 20
1251.9358348295
 10
861.3483148036
 20
1251.9730281278
 10
861.349231225
 20
1252.0098041937
  0
LWPOLYLINE
  5
352
330
1F
100
AcDbEntity
  8
0
  6
Continuous
 62
     7
370
    15
100
AcDbPolyline
 90
        8
 70
   128
 43
0.0
 10
861.349231225
 20
1252.0098041937
 10
861.3227891144
 20
1252.0796012327
 10
861.2940745768
 20
1252.1082114622
 10
861.2548919735
 20
1252.1319937154
 10
861.2080054698
 20
1252.1496366903
 10
861.1567752776
 20
1252.159590666
 10
861.1004488883
 20
1252.16143841
 10
861.0426100311
 20
1252.1560739919
  0
LWPOLYLINE
  5
353
330
1F
100
AcDbEntity
  8
0
  6
Continuous
 62
     7
370
    15
100
AcDbPolyline
 90
        8
 70
   128
 43
0.0
 10
860.966293734
 20
1252.9325436994
 10
860.8137654481
 20
1252.8966020986
 10
860.7432904062
 20
1252.8674554273
 10
860.6812270698
 20
1252.8305005476
 10
860.6295945463
 20
1252.7865123197
 10
860.5940254745
 20
1252.73864979
 10
860.5750786481
 20
1252.6877474233
 10
860.572165471
 20
1252.636964266
  0
LWPOLYLINE
  5
354
330
1F
100
AcDbEntity
  8
0
  6
Continuous
 62
     7
370
    15
100
AcDbPolyline
 90
        7
 70
   128
 43
0.0
 10
860.572165471
 20
1252.636964266
 10
860.6119515714
 20
1252.5437426015
 10
860.6545092878
 20
1252.5069069311
 10
860.7116775927
 20
1252.4769257948
 10
860.8498188076
 20
1252.4455737516
 10
860.9264629302
 20
1252.4445604726
 10
861.0044928608
 20
1252.4523686811
  0
LWPOLYLINE
  5
355
330
1F
100
AcDbEntity
  8
0
  6
Continuous
 62
     7
370
    15
100
AcDbPolyline
 90
        7
 70
   128
 43
0.0
 10
861.0044928608
 20
1252.4523686811
 10
861.1566560683
 20
1252.4907540723
 10
861.2878086385
 20
1252.5603126928
 10
861.3416837868
 20
1252.6058506414
 10
861.3793315706
 20
1252.6527594968
 10
861.4020036874
 20
1252.704079096
 10
861.4060866055
 20
1252.7552794859
  0
LWPOLYLINE
  5
356
330
1F
100
AcDbEntity
  8
0
  6
Continuous
 62
     7
370
    15
100
AcDbPolyline
 90
        8
 70
   128
 43
0.0
 10
861.4060866055
 20
1252.7552794859
 10
861.3940911708
 20
1252.8040956899
 10
861.3654064355
 20
1252.8486203596
 10
861.3211723385
 20
1252.8850387975
 10
861.2634154377
 20
1252.9135894224
 10
861.1963453111
 20
1252.932782118
 10
861.1228453335
 20
1252.9417824194
 10
860.966293734
 20
1252.9325436994
  0
LWPOLYLINE
  5
357
330
1F
100
AcDbEntity
  8
0
  6
Continuous
 62
     7
370
    15
100
AcDbPolyline
 90
        3
 70
   128
 43
0.0
 10
858.8805931029
 20
1252.9969763204
 10
858.8801907716
 20
1253.0007910177
 10
858.8797958908
 20
1253.0046653196
  0
LWPOLYLINE
  5
358
330
1F
100
AcDbEntity
  8
0
  6
Continuous
 62
     7
370
    15
100
AcDbPolyline
 90
        3
 70
   128
 43
0.0
 10
858.0085995016
 20
1252.048845236
 10
858.0083461818
 20
1252.0526599332
 10
858.0080854115
 20
1252.0564746305
  0
LINE
  5
359
330
1F
100
AcDbEntity
  8
0
  6
Continuous
 62
     7
370
    15
100
AcDbLine
 10
863.5731401262
 20
1251.9997310087
 30
0.0
 11
862.8458442507
 21
1251.8405866071
 31
0.0
  0
LINE
  5
35A
330
1F
100
AcDbEntity
  8
0
  6
Continuous
 62
     7
370
    15
100
AcDbLine
 10
862.8458442507
 20
1251.8405866071
 30
0.0
 11
862.6305969772
 21
1253.4941386625
 31
0.0
  0
LINE
  5
35B
330
1F
100
AcDbEntity
  8
0
  6
Continuous
 62
     7
370
    15
100
AcDbLine
 10
862.6305969772
 20
1253.4941386625
 30
0.0
 11
863.1133200941
 21
1253.5982083723
 31
0.0
  0
LINE
  5
35C
330
1F
100
AcDbEntity
  8
0
  6
Continuous
 62
     7
370
    15
100
AcDbLine
 10
863.1133200941
 20
1253.5982083723
 30
0.0
 11
863.2903011856
 21
1252.2403549596
 31
0.0
  0
LINE
  5
35D
330
1F
100
AcDbEntity
  8
0
  6
Continuous
 62
     7
370
    15
100
AcDbLine
 10
863.2903011856
 20
1252.2403549596
 30
0.0
 11
863.8144569812
 21
1252.360100691
 31
0.0
  0
LINE
  5
35E
330
1F
100
AcDbEntity
  8
0
  6
Continuous
 62
     7
370
    15
100
AcDbLine
 10
863.8144569812
 20
1252.360100691
 30
0.0
 11
863.5731401262
 21
1251.9997310087
 31
0.0
  0
LINE
  5
35F
330
1F
100
AcDbEntity
  8
0
  6
Continuous
 62
     7
370
    15
100
AcDbLine
 10
862.6305969772
 20
1253.4941386625
 30
0.0
 11
862.6286225733
 21
1253.5015892431
 31
0.0
  0
LINE
  5
360
330
1F
100
AcDbEntity
  8
0
  6
Continuous
 62
     7
370
    15
100
AcDbLine
 10
862.8458442507
 20
1251.8405866071
 30
0.0
 11
862.8438698468
 21
1251.8480371877
 31
0.0
  0
LWPOLYLINE
  5
361
330
1F
100
AcDbEntity
  8
0
  6
Continuous
 62
     7
370
    15
100
AcDbPolyline
 90
        3
 70
   128
 43
0.0
 10
860.9312685547
 20
1253.2339047834
 10
860.9305458483
 20
1253.2377194807
 10
860.929823142
 20
1253.2414745733
  0
LINE
  5
362
330
1F
100
AcDbEntity
  8
0
  6
Continuous
 62
     7
370
    15
100
AcDbLine
 10
860.077133995
 20
1252.5927972242
 30
0.0
 11
860.0759717045
 21
1252.6004266187
 31
0.0
  0
LWPOLYLINE
  5
363
330
1F
100
AcDbEntity
  8
0
  6
Continuous
 62
     7
370
    15
100
AcDbPolyline
 90
        7
 70
   128
 43
0.0
 10
858.506253582
 20
1252.0927738592
 10
858.5770042953
 20
1251.7434906408
 10
858.6307900366
 20
1251.6601633474
 10
858.7082686243
 20
1251.5954327032
 10
858.8199751792
 20
1251.5497755453
 10
858.8862108407
 20
1251.5407156393
 10
858.955292624
 20
1251.5417289182
  0
LWPOLYLINE
  5
364
330
1F
100
AcDbEntity
  8
0
  6
Continuous
 62
     7
370
    15
100
AcDbPolyline
 90
        7
 70
   128
 43
0.0
 10
858.955292624
 20
1251.5417289182
 10
859.0942683038
 20
1251.5715908453
 10
859.1559665618
 20
1251.5998434469
 10
859.2075990853
 20
1251.6348313734
 10
859.2730524358
 20
1251.7095755979
 10
859.3201550064
 20
1251.810903494
 10
859.3513356862
 20
1252.1817635938
  0
LINE
  5
365
330
1F
100
AcDbEntity
  8
0
  6
Continuous
 62
     7
370
    15
100
AcDbLine
 10
863.1133200941
 20
1253.5982083723
 30
0.0
 11
863.1111966786
 21
1253.6056589529
 31
0.0
  0
LWPOLYLINE
  5
366
330
1F
100
AcDbEntity
  8
0
  6
Continuous
 62
     7
370
    15
100
AcDbPolyline
 90
        7
 70
   128
 43
0.0
 10
860.5708467183
 20
1252.6445340559
 10
860.6106328187
 20
1252.5513123914
 10
860.6531756339
 20
1252.514476721
 10
860.7103215871
 20
1252.4844955846
 10
860.848425549
 20
1252.4531435415
 10
860.9250398693
 20
1252.4521898672
 10
861.0030474481
 20
1252.459938471
  0
LWPOLYLINE
  5
367
330
1F
100
AcDbEntity
  8
0
  6
Continuous
 62
     7
370
    15
100
AcDbPolyline
 90
        7
 70
   128
 43
0.0
 10
861.0030474481
 20
1252.459938471
 10
861.1551659522
 20
1252.4983238622
 10
861.2862812695
 20
1252.567822878
 10
861.3401266155
 20
1252.6134204313
 10
861.3777669487
 20
1252.6603292867
 10
861.4004316148
 20
1252.7116488859
 10
861.404514533
 20
1252.7628492757
  0
LWPOLYLINE
  5
368
330
1F
100
AcDbEntity
  8
0
  6
Continuous
 62
     7
370
    15
100
AcDbPolyline
 90
        3
 70
   128
 43
0.0
 10
861.404514533
 20
1252.7628492757
 10
861.405296844
 20
1252.7590345785
 10
861.4060866055
 20
1252.7552794859
  0
LINE
  5
369
330
1F
100
AcDbEntity
  8
0
  6
Continuous
 62
     7
370
    15
100
AcDbLine
 10
844.4307731805
 20
1253.4648727819
 30
0.0
 11
843.7421905217
 21
1253.7509154722
 31
0.0
  0
LINE
  5
36A
330
1F
100
AcDbEntity
  8
0
  6
Continuous
 62
     7
370
    15
100
AcDbLine
 10
843.7421905217
 20
1253.7509154722
 30
0.0
 11
844.1299559889
 21
1255.3633403226
 31
0.0
  0
LINE
  5
36B
330
1F
100
AcDbEntity
  8
0
  6
Continuous
 62
     7
370
    15
100
AcDbLine
 10
844.1299559889
 20
1255.3633403226
 30
0.0
 11
844.5863487539
 21
1255.1719498083
 31
0.0
  0
LINE
  5
36C
330
1F
100
AcDbEntity
  8
0
  6
Continuous
 62
     7
370
    15
100
AcDbLine
 10
844.5863487539
 20
1255.1719498083
 30
0.0
 11
844.2679928956
 21
1253.8478922292
 31
0.0
  0
LINE
  5
36D
330
1F
100
AcDbEntity
  8
0
  6
Continuous
 62
     7
370
    15
100
AcDbLine
 10
844.2679928956
 20
1253.8478922292
 30
0.0
 11
844.7681429205
 21
1253.6456536695
 31
0.0
  0
LINE
  5
36E
330
1F
100
AcDbEntity
  8
0
  6
Continuous
 62
     7
370
    15
100
AcDbLine
 10
844.7681429205
 20
1253.6456536695
 30
0.0
 11
844.4307731805
 21
1253.4648727819
 31
0.0
  0
LINE
  5
36F
330
1F
100
AcDbEntity
  8
0
  6
Continuous
 62
     7
370
    15
100
AcDbLine
 10
844.2679928956
 20
1253.8478922292
 30
0.0
 11
844.2716883836
 21
1253.854806368
 31
0.0
  0
LINE
  5
370
330
1F
100
AcDbEntity
  8
0
  6
Continuous
 62
     7
370
    15
100
AcDbLine
 10
844.5863487539
 20
1255.1719498083
 30
0.0
 11
844.5900516925
 21
1255.1789235517
 31
0.0
  0
LINE
  5
371
330
1F
100
AcDbEntity
  8
0
  6
Continuous
 62
     7
370
    15
100
AcDbLine
 10
842.491103929
 20
1254.3346237585
 30
0.0
 11
841.4062695918
 21
1254.8824500486
 31
0.0
  0
LINE
  5
372
330
1F
100
AcDbEntity
  8
0
  6
Continuous
 62
     7
370
    15
100
AcDbLine
 10
841.4062695918
 20
1254.8824500486
 30
0.0
 11
841.4846049962
 21
1255.1587175771
 31
0.0
  0
LINE
  5
373
330
1F
100
AcDbEntity
  8
0
  6
Continuous
 62
     7
370
    15
100
AcDbLine
 10
841.4846049962
 20
1255.1587175771
 30
0.0
 11
842.2381716189
 21
1254.7736715719
 31
0.0
  0
LINE
  5
374
330
1F
100
AcDbEntity
  8
0
  6
Continuous
 62
     7
370
    15
100
AcDbLine
 10
842.2381716189
 20
1254.7736715719
 30
0.0
 11
842.4146013674
 21
1255.013759081
 31
0.0
  0
LINE
  5
375
330
1F
100
AcDbEntity
  8
0
  6
Continuous
 62
     7
370
    15
100
AcDbLine
 10
842.4146013674
 20
1255.013759081
 30
0.0
 11
842.2600465235
 21
1255.0737213537
 31
0.0
  0
ARC
  5
376
330
1F
100
AcDbEntity
  8
0
  6
Continuous
 62
     7
370
    15
100
AcDbCircle
 10
842.5399081948
 20
1255.8919696055
 30
0.0
 40
0.8647848036884767
100
AcDbArc
 50
174.9303959384
 51
251.1180100272
  0
LWPOLYLINE
  5
377
330
1F
100
AcDbEntity
  8
0
  6
Continuous
 62
     7
370
    15
100
AcDbPolyline
 90
        6
 70
   128
 43
0.0
 10
841.6785063562
 20
1255.9683870718
 10
841.7933719573
 20
1256.148393099
 10
841.8908479032
 20
1256.2046598837
 10
842.0144083318
 20
1256.2367271825
 10
842.3049362716
 20
1256.2251638815
 10
842.6231803713
 20
1256.1104845449
  0
ARC
  5
378
330
1F
100
AcDbEntity
  8
0
  6
Continuous
 62
     7
370
    15
100
AcDbCircle
 10
842.2409862451
 20
1255.1085050007
 30
0.0
 40
1.072397014621447
100
AcDbArc
 50
10.1428874827
 51
69.1211956107
  0
LINE
  5
379
330
1F
100
AcDbEntity
  8
0
  6
Continuous
 62
     7
370
    15
100
AcDbLine
 10
843.2966234503
 20
1255.2973579809
 30
0.0
 11
842.8276690063
 21
1255.5215906545
 31
0.0
  0
ARC
  5
37A
330
1F
100
AcDbEntity
  8
0
  6
Continuous
 62
     7
370
    15
100
AcDbCircle
 10
842.3030172401
 20
1255.3275799806
 30
0.0
 40
0.5593743088515417
100
AcDbArc
 50
20.2938606401
 51
65.532493982
  0
LWPOLYLINE
  5
37B
330
1F
100
AcDbEntity
  8
0
  6
Continuous
 62
     7
370
    15
100
AcDbPolyline
 90
        7
 70
   128
 43
0.0
 10
842.5346898255
 20
1255.8367204115
 10
842.3890309748
 20
1255.8876823827
 10
842.3208581624
 20
1255.8945369169
 10
842.2573643145
 20
1255.8888744756
 10
842.2038020906
 20
1255.8715891286
 10
842.1607451853
 20
1255.842502062
 10
842.1110423622
 20
1255.7578038618
  0
ARC
  5
37C
330
1F
100
AcDbEntity
  8
0
  6
Continuous
 62
     7
370
    15
100
AcDbCircle
 10
842.5118569909
 20
1255.7189186999
 30
0.0
 40
0.4026964395129833
100
AcDbArc
 50
174.4587724759
 51
248.7465708498
  0
ARC
  5
37D
330
1F
100
AcDbEntity
  8
0
  6
Continuous
 62
     7
370
    15
100
AcDbCircle
 10
842.5778634676
 20
1255.7648773623
 30
0.0
 40
0.4715911014313331
100
AcDbArc
 50
243.2892348061
 51
281.9096721379
  0
LINE
  5
37E
330
1F
100
AcDbEntity
  8
0
  6
Continuous
 62
     7
370
    15
100
AcDbLine
 10
842.6751854238
 20
1255.3034376546
 30
0.0
 11
843.0230306802
 21
1255.0734233305
 31
0.0
  0
LINE
  5
37F
330
1F
100
AcDbEntity
  8
0
  6
Continuous
 62
     7
370
    15
100
AcDbLine
 10
843.0230306802
 20
1255.0734233305
 30
0.0
 11
842.491103929
 21
1254.3346237585
 31
0.0
  0
LWPOLYLINE
  5
380
330
1F
100
AcDbEntity
  8
0
  6
Continuous
 62
     7
370
    15
100
AcDbPolyline
 90
        3
 70
   128
 43
0.0
 10
861.0030474481
 20
1252.459938471
 10
861.0037701544
 20
1252.4561237737
 10
861.0044928608
 20
1252.4523686811
  0
LWPOLYLINE
  5
381
330
1F
100
AcDbEntity
  8
0
  6
Continuous
 62
     7
370
    15
100
AcDbPolyline
 90
        3
 70
   128
 43
0.0
 10
860.5708467183
 20
1252.6445340559
 10
860.57150982
 20
1252.6407193586
 10
860.572165471
 20
1252.636964266
  0
LINE
  5
382
330
1F
100
AcDbEntity
  8
0
  6
Continuous
 62
     7
370
    15
100
AcDbLine
 10
844.1299559889
 20
1255.3633403226
 30
0.0
 11
844.1338004884
 21
1255.3701948568
 31
0.0
  0
LINE
  5
383
330
1F
100
AcDbEntity
  8
0
  6
Continuous
 62
     7
370
    15
100
AcDbLine
 10
843.2966234503
 20
1255.2973579809
 30
0.0
 11
843.3006914673
 21
1255.3041529104
 31
0.0
  0
LWPOLYLINE
  5
384
330
1F
100
AcDbEntity
  8
0
  6
Continuous
 62
     7
370
    15
100
AcDbPolyline
 90
        3
 70
   128
 43
0.0
 10
842.6231803713
 20
1256.1104845449
 10
842.625333589
 20
1256.113822405
 10
842.6274942574
 20
1256.1171602651
  0
LWPOLYLINE
  5
385
330
1F
100
AcDbEntity
  8
0
  6
Continuous
 62
     7
370
    15
100
AcDbPolyline
 90
        3
 70
   128
 43
0.0
 10
858.955292624
 20
1251.5417289182
 10
858.9556949553
 20
1251.537914221
 10
858.9560898361
 20
1251.5340995237
  0
ARC
  5
386
330
1F
100
AcDbEntity
  8
0
  6
Continuous
 62
     7
370
    15
100
AcDbCircle
 10
840.7099796886
 20
1256.411512012
 30
0.0
 40
1.041101624865414
100
AcDbArc
 50
159.9105955912
 51
243.9652922471
  0
LWPOLYLINE
  5
387
330
1F
100
AcDbEntity
  8
0
  6
Continuous
 62
     7
370
    15
100
AcDbPolyline
 90
        7
 70
   128
 43
0.0
 10
839.7322209892
 20
1256.7691158697
 10
839.8483308372
 20
1257.0310782835
 10
840.0464864788
 20
1257.2284292623
 10
840.1941122827
 20
1257.2798084661
 10
840.3718905863
 20
1257.2785567686
 10
840.5734883961
 20
1257.2188329145
 10
840.7772543249
 20
1257.1156572744
  0
ARC
  5
388
330
1F
100
AcDbEntity
  8
0
  6
Continuous
 62
     7
370
    15
100
AcDbCircle
 10
840.3537640156
 20
1256.1912461009
 30
0.0
 40
1.016798927903062
100
AcDbArc
 50
340.800712097
 51
65.3865852123
  0
LWPOLYLINE
  5
389
330
1F
100
AcDbEntity
  8
0
  6
Continuous
 62
     7
370
    15
100
AcDbPolyline
 90
        3
 70
   128
 43
0.0
 10
841.3140090522
 20
1255.8568667814
 10
841.1743181166
 20
1255.5558037206
 10
840.9170346675
 20
1255.3448032781
  0
ARC
  5
38A
330
1F
100
AcDbEntity
  8
0
  6
Continuous
 62
     7
370
    15
100
AcDbCircle
 10
840.7421049695
 20
1256.2051071867
 30
0.0
 40
0.8779069470590346
100
AcDbArc
 50
236.1445999818
 51
281.4930570999
  0
ARC
  5
38B
330
1F
100
AcDbEntity
  8
0
  6
Continuous
 62
     7
370
    15
100
AcDbCircle
 10
840.5094441221
 20
1256.5875786632
 30
0.0
 40
0.3095366891171471
100
AcDbArc
 50
54.6685598329
 51
109.3874049118
  0
LWPOLYLINE
  5
38C
330
1F
100
AcDbEntity
  8
0
  6
Continuous
 62
     7
370
    15
100
AcDbPolyline
 90
        3
 70
   128
 43
0.0
 10
840.4066922483
 20
1256.8795632764
 10
840.2459161696
 20
1256.7240547582
 10
840.1542740283
 20
1256.5148424551
  0
LWPOLYLINE
  5
38D
330
1F
100
AcDbEntity
  8
0
  6
Continuous
 62
     7
370
    15
100
AcDbPolyline
 90
        7
 70
   128
 43
0.0
 10
840.1542740283
 20
1256.5148424551
 10
840.0923224506
 20
1256.1618041441
 10
840.1062475857
 20
1256.0610126897
 10
840.1493566451
 20
1255.9539627477
 10
840.2257623491
 20
1255.848879759
 10
840.2772086081
 20
1255.8025073454
 10
840.3346674857
 20
1255.7635855123
  0
LWPOLYLINE
  5
38E
330
1F
100
AcDbEntity
  8
0
  6
Continuous
 62
     7
370
    15
100
AcDbPolyline
 90
        6
 70
   128
 43
0.0
 10
840.3346674857
 20
1255.7635855123
 10
840.4598521409
 20
1255.7103585645
 10
840.5756639657
 20
1255.7013582632
 10
840.6544464049
 20
1255.7294320509
 10
840.7299952922
 20
1255.7935666486
 10
840.883946639
 20
1256.1069678709
  0
LWPOLYLINE
  5
38F
330
1F
100
AcDbEntity
  8
0
  6
Continuous
 62
     7
370
    15
100
AcDbPolyline
 90
        6
 70
   128
 43
0.0
 10
840.883946639
 20
1256.1069678709
 10
840.9406083045
 20
1256.4533304617
 10
840.9230398354
 20
1256.5523933813
 10
840.8757286486
 20
1256.6568207189
 10
840.7963948664
 20
1256.7579698011
 10
840.6884508547
 20
1256.8401050016
  0
LWPOLYLINE
  5
390
330
1F
100
AcDbEntity
  8
0
  6
Continuous
 62
     7
370
    15
100
AcDbPolyline
 90
        3
 70
   128
 43
0.0
 10
841.3140090522
 20
1255.8568667814
 10
841.3163336334
 20
1255.8600854322
 10
841.3186582145
 20
1255.8633636877
  0
LINE
  5
391
330
1F
100
AcDbEntity
  8
0
  6
Continuous
 62
     7
370
    15
100
AcDbLine
 10
840.7772543249
 20
1257.1156572744
 30
0.0
 11
840.7821568069
 21
1257.1219753667
 31
0.0
  0
LWPOLYLINE
  5
392
330
1F
100
AcDbEntity
  8
0
  6
Continuous
 62
     7
370
    15
100
AcDbPolyline
 90
        3
 70
   128
 43
0.0
 10
860.2765338835
 20
1251.8333148405
 10
860.2759303865
 20
1251.8370699331
 10
860.2753268895
 20
1251.8408846304
  0
LWPOLYLINE
  5
393
330
1F
100
AcDbEntity
  8
0
  6
Continuous
 62
     7
370
    15
100
AcDbPolyline
 90
        8
 70
   128
 43
0.0
 10
860.7715132055
 20
1251.928205435
 10
860.7980074701
 20
1251.8582891866
 10
860.827765089
 20
1251.8295001432
 10
860.8681025324
 20
1251.8067311689
 10
860.9155925331
 20
1251.7914127752
 10
860.9700488267
 20
1251.7834257528
 10
861.026889306
 20
1251.7831873342
 10
861.0846685586
 20
1251.7893266126
  0
LWPOLYLINE
  5
394
330
1F
100
AcDbEntity
  8
0
  6
Continuous
 62
     7
370
    15
100
AcDbPolyline
 90
        8
 70
   128
 43
0.0
 10
861.0846685586
 20
1251.7893266126
 10
861.1935885963
 20
1251.8186520979
 10
861.2416671929
 20
1251.8432688161
 10
861.2823324618
 20
1251.8731903478
 10
861.3142954526
 20
1251.9071053907
 10
861.3360809502
 20
1251.9434046194
 10
861.346779984
 20
1251.9805979177
 10
861.3476964054
 20
1252.0173739835
  0
LWPOLYLINE
  5
395
330
1F
100
AcDbEntity
  8
0
  6
Continuous
 62
     7
370
    15
100
AcDbPolyline
 90
        3
 70
   128
 43
0.0
 10
842.1110423622
 20
1255.7578038618
 10
842.1132551846
 20
1255.7610821172
 10
842.1154680071
 20
1255.7644199773
  0
LWPOLYLINE
  5
396
330
1F
100
AcDbEntity
  8
0
  6
Continuous
 62
     7
370
    15
100
AcDbPolyline
 90
        3
 70
   128
 43
0.0
 10
861.3476964054
 20
1252.0173739835
 10
861.3484638152
 20
1252.0136188909
 10
861.349231225
 20
1252.0098041937
  0
LWPOLYLINE
  5
397
330
1F
100
AcDbEntity
  8
0
  6
Continuous
 62
     7
370
    15
100
AcDbPolyline
 90
        7
 70
   128
 43
0.0
 10
840.159288269
 20
1256.5211009428
 10
840.0973217902
 20
1256.1680626318
 10
840.1112245736
 20
1256.0673307821
 10
840.1543187318
 20
1255.9602808401
 10
840.2306946335
 20
1255.8551978513
 10
840.2821185407
 20
1255.8088850423
 10
840.3395625171
 20
1255.7699632093
  0
LWPOLYLINE
  5
398
330
1F
100
AcDbEntity
  8
0
  6
Continuous
 62
     7
370
    15
100
AcDbPolyline
 90
        3
 70
   128
 43
0.0
 10
840.4116692362
 20
1256.8858813688
 10
840.2509155092
 20
1256.7303728506
 10
840.159288269
 20
1256.5211009428
  0
LWPOLYLINE
  5
399
330
1F
100
AcDbEntity
  8
0
  6
Continuous
 62
     7
370
    15
100
AcDbPolyline
 90
        6
 70
   128
 43
0.0
 10
840.3395625171
 20
1255.7699632093
 10
840.46471737
 20
1255.7167362615
 10
840.5804919419
 20
1255.7077359602
 10
840.65925948
 20
1255.7358097479
 10
840.7347934661
 20
1255.7999443456
 10
840.7481076536
 20
1255.827064459
  0
LWPOLYLINE
  5
39A
330
1F
100
AcDbEntity
  8
0
  6
Continuous
 62
     7
370
    15
100
AcDbPolyline
 90
        3
 70
   128
 43
0.0
 10
861.0846685586
 20
1251.7893266126
 10
861.0853912649
 20
1251.78557152
 10
861.0861139712
 20
1251.7817568227
  0
LWPOLYLINE
  5
39B
330
1F
100
AcDbEntity
  8
0
  6
Continuous
 62
     7
370
    15
100
AcDbPolyline
 90
        3
 70
   128
 43
0.0
 10
860.7715132055
 20
1251.928205435
 10
860.7721912083
 20
1251.9244503423
 10
860.7728692112
 20
1251.9206356451
  0
LWPOLYLINE
  5
39C
330
1F
100
AcDbEntity
  8
0
  6
Continuous
 62
     7
370
    15
100
AcDbPolyline
 90
        3
 70
   128
 43
0.0
 10
842.3658894715
 20
1255.3436111852
 10
842.3680501399
 20
1255.3469490453
 10
842.3702182588
 20
1255.3502869054
  0
LWPOLYLINE
  5
39D
330
1F
100
AcDbEntity
  8
0
  6
Continuous
 62
     7
370
    15
100
AcDbPolyline
 90
        7
 70
   128
 43
0.0
 10
876.456281763
 20
1258.3008360311
 10
876.271812838
 20
1258.1683945104
 10
876.083365303
 20
1258.0808948919
 10
875.9089546618
 20
1258.0513309881
 10
875.7578047332
 20
1258.0788087293
 10
875.5430417475
 20
1258.2468342229
 10
875.4043417391
 20
1258.4909152433
  0
ARC
  5
39E
330
1F
100
AcDbEntity
  8
0
  6
Continuous
 62
     7
370
    15
100
AcDbCircle
 10
876.3778595562
 20
1258.9434644751
 30
0.0
 40
1.073563108246092
100
AcDbArc
 50
124.6299860437
 51
204.9318193543
  0
LWPOLYLINE
  5
39F
330
1F
100
AcDbEntity
  8
0
  6
Continuous
 62
     7
370
    15
100
AcDbPolyline
 90
        7
 70
   128
 43
0.0
 10
875.7677810607
 20
1259.8268341467
 10
875.9488003669
 20
1259.9598717138
 10
876.1323975739
 20
1260.0519012853
 10
876.2983741579
 20
1260.0862931654
 10
876.4492111621
 20
1260.0650143072
 10
876.6594814477
 20
1259.9057506963
 10
876.7957898197
 20
1259.6657227918
  0
ARC
  5
3A0
330
1F
100
AcDbEntity
  8
0
  6
Continuous
 62
     7
370
    15
100
AcDbCircle
 10
875.8327585594
 20
1259.1753311764
 30
0.0
 40
1.080700302946648
100
AcDbArc
 50
347.3565811829
 51
26.9859549607
  0
ARC
  5
3A1
330
1F
100
AcDbEntity
  8
0
  6
Continuous
 62
     7
370
    15
100
AcDbCircle
 10
875.6514980266
 20
1259.3090617221
 30
0.0
 40
1.29003717250142
100
AcDbArc
 50
308.5974918704
 51
343.3198718913
  0
ARC
  5
3A2
330
1F
100
AcDbEntity
  8
0
  6
Continuous
 62
     7
370
    15
100
AcDbCircle
 10
876.1979321972
 20
1259.1785932764
 30
0.0
 40
0.5023333537759495
100
AcDbArc
 50
128.7825554894
 51
167.3984725265
  0
LWPOLYLINE
  5
3A3
330
1F
100
AcDbEntity
  8
0
  6
Continuous
 62
     7
370
    15
100
AcDbPolyline
 90
        3
 70
   128
 43
0.0
 10
875.7076995787
 20
1259.2881869718
 10
875.712438148
 20
1259.0230655119
 10
875.7868917999
 20
1258.8016342565
  0
LWPOLYLINE
  5
3A4
330
1F
100
AcDbEntity
  8
0
  6
Continuous
 62
     7
370
    15
100
AcDbPolyline
 90
        7
 70
   128
 43
0.0
 10
875.7868917999
 20
1258.8016342565
 10
875.9624572811
 20
1258.5278105184
 10
876.0299744425
 20
1258.4841203138
 10
876.1167513547
 20
1258.4680270597
 10
876.2204634366
 20
1258.4893655225
 10
876.2757169423
 20
1258.5180353567
 10
876.3297112999
 20
1258.5573148176
  0
LWPOLYLINE
  5
3A5
330
1F
100
AcDbEntity
  8
0
  6
Continuous
 62
     7
370
    15
100
AcDbPolyline
 90
        7
 70
   128
 43
0.0
 10
876.3297112999
 20
1258.5573148176
 10
876.4286773619
 20
1258.6613845274
 10
876.4677705583
 20
1258.7210487768
 10
876.4961498198
 20
1258.7810110494
 10
876.522793096
 20
1258.8948559209
 10
876.5239777384
 20
1259.0014886304
 10
876.4206679878
 20
1259.3513678953
  0
LWPOLYLINE
  5
3A6
330
1F
100
AcDbEntity
  8
0
  6
Continuous
 62
     7
370
    15
100
AcDbPolyline
 90
        6
 70
   128
 43
0.0
 10
876.4206679878
 20
1259.3513678953
 10
876.2466820297
 20
1259.6155952856
 10
876.17867313
 20
1259.6545171186
 10
876.0919185695
 20
1259.6649479314
 10
875.989763659
 20
1259.6386026785
 10
875.8832874117
 20
1259.5701765463
  0
LWPOLYLINE
  5
3A7
330
1F
100
AcDbEntity
  8
0
  6
Continuous
 62
     7
370
    15
100
AcDbPolyline
 90
        3
 70
   128
 43
0.0
 10
842.6751854238
 20
1255.3034376546
 10
842.6773013887
 20
1255.3067755148
 10
842.6794248042
 20
1255.3101133749
  0
LINE
  5
3A8
330
1F
100
AcDbEntity
  8
0
  6
Continuous
 62
     7
370
    15
100
AcDbLine
 10
843.0230306802
 20
1255.0734233305
 30
0.0
 11
843.0271657524
 21
1255.0801586553
 31
0.0
  0
LINE
  5
3A9
330
1F
100
AcDbEntity
  8
0
  6
Continuous
 62
     7
370
    15
100
AcDbLine
 10
875.7677810607
 20
1259.8268341467
 30
0.0
 11
875.7616715846
 21
1259.832317774
 31
0.0
  0
LINE
  5
3AA
330
1F
100
AcDbEntity
  8
0
  6
Continuous
 62
     7
370
    15
100
AcDbLine
 10
863.8144569812
 20
1252.360100691
 30
0.0
 11
863.8121696529
 21
1252.3675512716
 31
0.0
  0
LWPOLYLINE
  5
3AB
330
1F
100
AcDbEntity
  8
0
  6
Continuous
 62
     7
370
    15
100
AcDbPolyline
 90
        3
 70
   128
 43
0.0
 10
840.3395625171
 20
1255.7699632093
 10
840.3371112761
 20
1255.7668041631
 10
840.3346674857
 20
1255.7635855123
  0
LINE
  5
3AC
330
1F
100
AcDbEntity
  8
0
  6
Continuous
 62
     7
370
    15
100
AcDbLine
 10
842.2381716189
 20
1254.7736715719
 30
0.0
 11
842.2424929557
 21
1254.7803472921
 31
0.0
  0
ARC
  5
3AD
330
1F
100
AcDbEntity
  8
0
  6
Continuous
 62
     7
370
    15
100
AcDbCircle
 10
876.1116766938
 20
1258.7808915927
 30
0.0
 40
0.3041001180898724
100
AcDbArc
 50
253.23097196
 51
314.1782275983
  0
LINE
  5
3AE
330
1F
100
AcDbEntity
  8
0
  6
Continuous
 62
     7
370
    15
100
AcDbLine
 10
876.4144542036
 20
1259.356791918
 30
0.0
 11
876.2470247564
 21
1259.6110653326
 31
0.0
  0
LWPOLYLINE
  5
3AF
330
1F
100
AcDbEntity
  8
0
  6
Continuous
 62
     7
370
    15
100
AcDbPolyline
 90
        7
 70
   128
 43
0.0
 10
876.3236018238
 20
1258.5627984449
 10
876.4225306329
 20
1258.66680855
 10
876.4616163788
 20
1258.7265324041
 10
876.4899807391
 20
1258.7864350721
 10
876.5166016636
 20
1258.9002799436
 10
876.5177788553
 20
1259.0069126531
 10
876.4144542036
 20
1259.356791918
  0
LINE
  5
3B0
330
1F
100
AcDbEntity
  8
0
  6
Continuous
 62
     7
370
    15
100
AcDbLine
 10
844.7681429205
 20
1253.6456536695
 30
0.0
 11
844.7716819462
 21
1253.6526870176
 31
0.0
  0
LWPOLYLINE
  5
3B1
330
1F
100
AcDbEntity
  8
0
  6
Continuous
 62
     7
370
    15
100
AcDbPolyline
 90
       17
 70
   128
 43
0.0
 10
859.9358858881
 20
1250.2654146597
 10
859.818196517
 20
1249.8891305372
 10
859.9231751976
 20
1249.5270919248
 10
860.2418439803
 20
1249.2393206998
 10
860.7218327341
 20
1249.0723084852
 10
861.2897457895
 20
1249.0541886732
 10
861.8580611763
 20
1249.1913985654
 10
862.3415517029
 20
1249.4603943273
 10
862.6653613863
 20
1249.8182010099
 10
862.7828942952
 20
1250.2051543638
 10
862.6754792747
 20
1250.5609344885
 10
862.3596789655
 20
1250.8312415525
 10
861.8831472811
 20
1250.9801339552
 10
861.317111772
 20
1250.9873461172
 10
860.7473286209
 20
1250.8547257825
 10
860.261140984
 20
1250.5997371122
 10
859.9358858881
 20
1250.2654146597
  0
LINE
  5
3B2
330
1F
100
AcDbEntity
  8
0
  6
Continuous
 62
     7
370
    15
100
AcDbLine
 10
877.0681383428
 20
1260.9227251455
 30
0.0
 11
877.0616265354
 21
1260.9278511449
 31
0.0
  0
LINE
  5
3B3
330
1F
100
AcDbEntity
  8
0
  6
Continuous
 62
     7
370
    15
100
AcDbLine
 10
877.761243504
 20
1259.5092605993
 30
0.0
 11
877.0681383428
 21
1260.9227251455
 31
0.0
  0
LINE
  5
3B4
330
1F
100
AcDbEntity
  8
0
  6
Continuous
 62
     7
370
    15
100
AcDbLine
 10
877.761243504
 20
1259.5092605993
 30
0.0
 11
877.754724246
 21
1259.5143865987
 31
0.0
  0
LINE
  5
3B5
330
1F
100
AcDbEntity
  8
0
  6
Continuous
 62
     7
370
    15
100
AcDbLine
 10
878.2899590549
 20
1260.0160192892
 30
0.0
 11
877.761243504
 21
1259.5092605993
 31
0.0
  0
LINE
  5
3B6
330
1F
100
AcDbEntity
  8
0
  6
Continuous
 62
     7
370
    15
100
AcDbLine
 10
877.0681383428
 20
1260.9227251455
 30
0.0
 11
877.4200739679
 21
1261.2577628538
 31
0.0
  0
LINE
  5
3B7
330
1F
100
AcDbEntity
  8
0
  6
Continuous
 62
     7
370
    15
100
AcDbLine
 10
877.4200739679
 20
1261.2577628538
 30
0.0
 11
877.9892983255
 21
1260.0969623968
 31
0.0
  0
LINE
  5
3B8
330
1F
100
AcDbEntity
  8
0
  6
Continuous
 62
     7
370
    15
100
AcDbLine
 10
877.9892983255
 20
1260.0969623968
 30
0.0
 11
878.3673109827
 21
1260.4669284269
 31
0.0
  0
LINE
  5
3B9
330
1F
100
AcDbEntity
  8
0
  6
Continuous
 62
     7
370
    15
100
AcDbLine
 10
878.3673109827
 20
1260.4669284269
 30
0.0
 11
878.2899590549
 21
1260.0160192892
 31
0.0
  0
LINE
  5
3BA
330
1F
100
AcDbEntity
  8
0
  6
Continuous
 62
     7
370
    15
100
AcDbLine
 10
877.4200739679
 20
1261.2577628538
 30
0.0
 11
877.4134504018
 21
1261.2627696439
 31
0.0
  0
LINE
  5
3BB
330
1F
100
AcDbEntity
  8
0
  6
Continuous
 62
     7
370
    15
100
AcDbLine
 10
841.4846049962
 20
1255.1587175771
 30
0.0
 11
841.4891498503
 21
1255.1652144834
 31
0.0
  0
LINE
  5
3BC
330
1F
100
AcDbEntity
  8
0
  6
Continuous
 62
     7
370
    15
100
AcDbLine
 10
879.4594468889
 20
1261.943156664
 30
0.0
 11
879.7718497333
 21
1262.2989367887
 31
0.0
  0
ARC
  5
3BD
330
1F
100
AcDbEntity
  8
0
  6
Continuous
 62
     7
370
    15
100
AcDbCircle
 10
878.7235818001
 20
1261.9899492788
 30
0.0
 40
1.092858152309408
100
AcDbArc
 50
311.4251543901
 51
16.4234109988
  0
LWPOLYLINE
  5
3BE
330
1F
100
AcDbEntity
  8
0
  6
Continuous
 62
     7
370
    15
100
AcDbPolyline
 90
        6
 70
   128
 43
0.0
 10
879.4466616926
 20
1261.1705016538
 10
879.228255373
 20
1260.9735679075
 10
879.1147979316
 20
1260.9069895193
 10
879.0045889435
 20
1260.8681272909
 10
878.8121478972
 20
1260.8743857786
 10
878.6801385102
 20
1260.9845947668
  0
ARC
  5
3BF
330
1F
100
AcDbEntity
  8
0
  6
Continuous
 62
     7
370
    15
100
AcDbCircle
 10
880.0911166436
 20
1261.3808464872
 30
0.0
 40
1.465562935807748
100
AcDbArc
 50
154.2090368878
 51
195.6865884997
  0
LINE
  5
3C0
330
1F
100
AcDbEntity
  8
0
  6
Continuous
 62
     7
370
    15
100
AcDbLine
 10
878.771542233
 20
1262.018496935
 30
0.0
 11
878.8778471169
 21
1262.3920392439
 31
0.0
  0
LINE
  5
3C1
330
1F
100
AcDbEntity
  8
0
  6
Continuous
 62
     7
370
    15
100
AcDbLine
 10
878.8778471169
 20
1262.3920392439
 30
0.0
 11
878.2566400585
 21
1261.7225002691
 31
0.0
  0
LINE
  5
3C2
330
1F
100
AcDbEntity
  8
0
  6
Continuous
 62
     7
370
    15
100
AcDbLine
 10
878.2566400585
 20
1261.7225002691
 30
0.0
 11
878.1265231189
 21
1261.9626473829
 31
0.0
  0
LINE
  5
3C3
330
1F
100
AcDbEntity
  8
0
  6
Continuous
 62
     7
370
    15
100
AcDbLine
 10
878.1265231189
 20
1261.9626473829
 30
0.0
 11
879.3164255438
 21
1263.2757377073
 31
0.0
  0
LINE
  5
3C4
330
1F
100
AcDbEntity
  8
0
  6
Continuous
 62
     7
370
    15
100
AcDbLine
 10
879.3164255438
 20
1263.2757377073
 30
0.0
 11
879.3837936935
 21
1263.1516408369
 31
0.0
  0
LINE
  5
3C5
330
1F
100
AcDbEntity
  8
0
  6
Continuous
 62
     7
370
    15
100
AcDbLine
 10
879.3837936935
 20
1263.1516408369
 30
0.0
 11
879.0948303756
 21
1262.1295403883
 31
0.0
  0
ARC
  5
3C6
330
1F
100
AcDbEntity
  8
0
  6
Continuous
 62
     7
370
    15
100
AcDbCircle
 10
880.1754054507
 20
1261.605198645
 30
0.0
 40
1.201073168716484
100
AcDbArc
 50
154.1153334985
 51
191.8559922165
  0
LWPOLYLINE
  5
3C7
330
1F
100
AcDbEntity
  8
0
  6
Continuous
 62
     7
370
    15
100
AcDbPolyline
 90
        8
 70
   128
 43
0.0
 10
878.9999546823
 20
1261.3584350988
 10
879.0552826938
 20
1261.3047313139
 10
879.0942790327
 20
1261.2962078497
 10
879.139787179
 20
1261.3009762212
 10
879.1887076912
 20
1261.3183807775
 10
879.2388649997
 20
1261.348004286
 10
879.2884858665
 20
1261.3884758398
 10
879.3360950765
 20
1261.4362191602
  0
ARC
  5
3C8
330
1F
100
AcDbEntity
  8
0
  6
Continuous
 62
     7
370
    15
100
AcDbCircle
 10
879.0188813007
 20
1261.781882174
 30
0.0
 40
0.4691561559110731
100
AcDbArc
 50
312.5424971982
 51
20.1057778844
  0
LINE
  5
3C9
330
1F
100
AcDbEntity
  8
0
  6
Continuous
 62
     7
370
    15
100
AcDbLine
 10
878.1265231189
 20
1261.9626473829
 30
0.0
 11
878.1196760354
 21
1261.9674753591
 31
0.0
  0
LINE
  5
3CA
330
1F
100
AcDbEntity
  8
0
  6
Continuous
 62
     7
370
    15
100
AcDbLine
 10
878.2566400585
 20
1261.7225002691
 30
0.0
 11
878.2497929749
 21
1261.7273282453
 31
0.0
  0
LINE
  5
3CB
330
1F
100
AcDbEntity
  8
0
  6
Continuous
 62
     7
370
    15
100
AcDbLine
 10
879.3164255438
 20
1263.2757377073
 30
0.0
 11
879.3092133817
 21
1263.280148451
 31
0.0
  0
LWPOLYLINE
  5
3CC
330
1F
100
AcDbEntity
  8
0
  6
Continuous
 62
     7
370
    15
100
AcDbPolyline
 90
       17
 70
   128
 43
0.0
 10
855.0875323233
 20
1249.8679112836
 10
854.9222858963
 20
1250.0276517316
 10
854.677333158
 20
1250.1386355802
 10
854.390023869
 20
1250.1851272031
 10
854.1041525421
 20
1250.1602124616
 10
853.8632231173
 20
1250.0673484251
 10
853.7038179455
 20
1249.919528906
 10
853.6501216111
 20
1249.7383903906
 10
853.7102775988
 20
1249.5511722013
 10
853.8751738486
 20
1249.3868421957
 10
854.1197987613
 20
1249.2714476034
 10
854.4069813904
 20
1249.2234658643
 10
854.6930166301
 20
1249.2505263731
 10
854.9343036828
 20
1249.3480395719
 10
855.0940366802
 20
1249.50021023
 10
855.1478447733
 20
1249.6828984663
 10
855.0875323233
 20
1249.8679112836
  0
LINE
  5
3CD
330
1F
100
AcDbEntity
  8
0
  6
Continuous
 62
     7
370
    15
100
AcDbLine
 10
876.3236018238
 20
1258.5627984449
 30
0.0
 11
876.3297112999
 21
1258.5573148176
 31
0.0
  0
LWPOLYLINE
  5
3CE
330
1F
100
AcDbEntity
  8
0
  6
Continuous
 62
     7
370
    15
100
AcDbPolyline
 90
       17
 70
   128
 43
0.0
 10
842.923036438
 20
1253.0682038709
 10
842.6248716531
 20
1253.4904431745
 10
842.1831937847
 20
1253.8619589254
 10
841.6656168518
 20
1254.1235637113
 10
841.1526369271
 20
1254.2369913503
 10
840.7190205869
 20
1254.1835855886
 10
840.4303329406
 20
1253.9659094259
 10
840.3262632308
 20
1253.6163281843
 10
840.4255347666
 20
1253.1866979047
 10
840.7122778115
 20
1252.7462195799
 10
841.1471756515
 20
1252.364630644
 10
841.6640969333
 20
1252.1038603231
 10
842.1855183658
 20
1252.0018171713
 10
842.6290737805
 20
1252.0734619543
 10
842.9256664929
 20
1252.3035358831
 10
843.026711267
 20
1252.6560377523
 10
842.923036438
 20
1253.0682038709
  0
LWPOLYLINE
  5
3CF
330
1F
100
AcDbEntity
  8
0
  6
Continuous
 62
     7
370
    15
100
AcDbPolyline
 90
       17
 70
   128
 43
0.0
 10
849.0103172478
 20
1250.7051181242
 10
848.8493698058
 20
1250.8894156858
 10
848.6108022151
 20
1251.0356258794
 10
848.3312340793
 20
1251.1223506376
 10
848.0532827196
 20
1251.136536543
 10
847.8191035208
 20
1251.0753821775
 10
847.663997334
 20
1250.9472917959
 10
847.611306828
 20
1250.7708620474
 10
847.6689743218
 20
1250.5727362081
 10
847.8284465489
 20
1250.3837894842
 10
848.0657698927
 20
1250.2337049886
 10
848.3450698075
 20
1250.1461457655
 10
848.623877984
 20
1250.1347016737
 10
848.8595472989
 20
1250.2004455968
 10
849.0158902821
 20
1250.3324102804
 10
849.0688564596
 20
1250.5096744939
 10
849.0103172478
 20
1250.7051181242
  0
LINE
  5
3D0
330
1F
100
AcDbEntity
  8
0
  6
Continuous
 62
     7
370
    15
100
AcDbLine
 10
878.6801385102
 20
1260.9845947668
 30
0.0
 11
878.673283976
 21
1260.9893631384
 31
0.0
  0
LWPOLYLINE
  5
3D1
330
1F
100
AcDbEntity
  8
0
  6
Continuous
 62
     7
370
    15
100
AcDbPolyline
 90
       17
 70
   128
 43
0.0
 10
867.0445742426
 20
1251.6869854375
 10
866.9885756788
 20
1251.4846276685
 10
867.0409234581
 20
1251.3090919897
 10
867.1936007557
 20
1251.1870812818
 10
867.4230190334
 20
1251.1380266592
 10
867.6938103852
 20
1251.1703323766
 10
867.9644527254
 20
1251.2796472952
 10
868.1937592444
 20
1251.4492821142
 10
868.3471741495
 20
1251.6526531622
 10
868.401809257
 20
1251.8578719541
 10
868.3496626434
 20
1252.0329904005
 10
868.1986393747
 20
1252.1515440389
 10
867.9713445124
 20
1252.1960687086
 10
867.7019166169
 20
1252.1609019682
 10
867.431073111
 20
1252.0520042822
 10
867.2001125631
 20
1251.8858265325
 10
867.0445742426
 20
1251.6869854375
  0
LINE
  5
3D2
330
1F
100
AcDbEntity
  8
0
  6
Continuous
 62
     7
370
    15
100
AcDbLine
 10
830.1017495212
 20
1265.3847288534
 30
0.0
 11
829.727983695
 21
1266.0023521825
 31
0.0
  0
LINE
  5
3D3
330
1F
100
AcDbEntity
  8
0
  6
Continuous
 62
     7
370
    15
100
AcDbLine
 10
829.727983695
 20
1266.0023521825
 30
0.0
 11
830.575680953
 21
1267.2187637731
 31
0.0
  0
LINE
  5
3D4
330
1F
100
AcDbEntity
  8
0
  6
Continuous
 62
     7
370
    15
100
AcDbLine
 10
830.575680953
 20
1267.2187637731
 30
0.0
 11
830.8221759615
 21
1266.8082665846
 31
0.0
  0
LINE
  5
3D5
330
1F
100
AcDbEntity
  8
0
  6
Continuous
 62
     7
370
    15
100
AcDbLine
 10
830.8221759615
 20
1266.8082665846
 30
0.0
 11
830.1260682163
 21
1265.8093523428
 31
0.0
  0
LINE
  5
3D6
330
1F
100
AcDbEntity
  8
0
  6
Continuous
 62
     7
370
    15
100
AcDbLine
 10
830.1260682163
 20
1265.8093523428
 30
0.0
 11
830.4016279397
 21
1265.3648805067
 31
0.0
  0
LINE
  5
3D7
330
1F
100
AcDbEntity
  8
0
  6
Continuous
 62
     7
370
    15
100
AcDbLine
 10
830.4016279397
 20
1265.3648805067
 30
0.0
 11
830.1017495212
 21
1265.3847288534
 31
0.0
  0
LINE
  5
3D8
330
1F
100
AcDbEntity
  8
0
  6
Continuous
 62
     7
370
    15
100
AcDbLine
 10
830.1260682163
 20
1265.8093523428
 30
0.0
 11
830.1340924916
 21
1265.8126902029
 31
0.0
  0
LINE
  5
3D9
330
1F
100
AcDbEntity
  8
0
  6
Continuous
 62
     7
370
    15
100
AcDbLine
 10
830.8221759615
 20
1266.8082665846
 30
0.0
 11
830.8302002368
 21
1266.81154484
 31
0.0
  0
LINE
  5
3DA
330
1F
100
AcDbEntity
  8
0
  6
Continuous
 62
     7
370
    15
100
AcDbLine
 10
878.3673109827
 20
1260.4669284269
 30
0.0
 11
878.3605756578
 21
1260.4718160078
 31
0.0
  0
LINE
  5
3DB
330
1F
100
AcDbEntity
  8
0
  6
Continuous
 62
     7
370
    15
100
AcDbLine
 10
830.575680953
 20
1267.2187637731
 30
0.0
 11
830.5837797341
 21
1267.2219228193
 31
0.0
  0
LINE
  5
3DC
330
1F
100
AcDbEntity
  8
0
  6
Continuous
 62
     7
370
    15
100
AcDbLine
 10
879.3360950765
 20
1261.4362191602
 30
0.0
 11
879.3290617284
 21
1261.4408683225
 31
0.0
  0
LWPOLYLINE
  5
3DD
330
1F
100
AcDbEntity
  8
0
  6
Continuous
 62
     7
370
    15
100
AcDbPolyline
 90
        3
 70
   128
 43
0.0
 10
879.4594468889
 20
1261.943156664
 10
879.4559004125
 20
1261.9454216406
 10
879.452339035
 20
1261.9476866171
  0
LWPOLYLINE
  5
3DE
330
1F
100
AcDbEntity
  8
0
  6
Continuous
 62
     7
370
    15
100
AcDbPolyline
 90
       17
 70
   128
 43
0.0
 10
872.9842516002
 20
1254.487569277
 10
872.9369106111
 20
1254.2709063932
 10
872.9889231143
 20
1254.0960263654
 10
873.1324063954
 20
1253.9895128652
 10
873.3450459656
 20
1253.9681147977
 10
873.5937910495
 20
1254.0359448835
 10
873.8402562556
 20
1254.1834067747
 10
874.0468608556
 20
1254.3879699155
 10
874.1825955329
 20
1254.6179842397
 10
874.2275001821
 20
1254.8375677511
 10
874.1752865133
 20
1255.0126861974
 10
874.0339639005
 20
1255.1166366979
 10
873.8245578823
 20
1255.1340412542
 10
873.5782491383
 20
1255.0632309362
 10
873.3319776473
 20
1254.9155306265
 10
873.1232272801
 20
1254.71359009
 10
872.9842516002
 20
1254.487569277
  0
LINE
  5
3DF
330
1F
100
AcDbEntity
  8
0
  6
Continuous
 62
     7
370
    15
100
AcDbLine
 10
879.7718497333
 20
1262.2989367887
 30
0.0
 11
879.7646524725
 21
1262.3033475324
 31
0.0
  0
LINE
  5
3E0
330
1F
100
AcDbEntity
  8
0
  6
Continuous
 62
     7
370
    15
100
AcDbLine
 10
829.3441893873
 20
1267.5723385259
 30
0.0
 11
829.5649053869
 21
1267.1567749426
 31
0.0
  0
LWPOLYLINE
  5
3E1
330
1F
100
AcDbEntity
  8
0
  6
Continuous
 62
     7
370
    15
100
AcDbPolyline
 90
        7
 70
   128
 43
0.0
 10
829.5649053869
 20
1267.1567749426
 10
829.4168847022
 20
1267.0574139997
 10
829.3264048514
 20
1267.0525860235
 10
829.2298974809
 20
1267.0834612295
 10
829.1291507301
 20
1267.1499204084
 10
829.0306093511
 20
1267.2496389791
 10
828.8551630792
 20
1267.5244163915
  0
ARC
  5
3E2
330
1F
100
AcDbEntity
  8
0
  6
Continuous
 62
     7
370
    15
100
AcDbCircle
 10
829.8325981693
 20
1268.1388868928
 30
0.0
 40
1.154535990023864
100
AcDbArc
 50
157.6108752101
 51
212.1557711185
  0
LWPOLYLINE
  5
3E3
330
1F
100
AcDbEntity
  8
0
  6
Continuous
 62
     7
370
    15
100
AcDbPolyline
 90
        4
 70
   128
 43
0.0
 10
828.7650930104
 20
1268.5786437437
 10
828.8985776124
 20
1268.672223036
 10
829.0587576446
 20
1268.6808657095
 10
829.4096203861
 20
1268.5476493284
  0
LINE
  5
3E4
330
1F
100
AcDbEntity
  8
0
  6
Continuous
 62
     7
370
    15
100
AcDbLine
 10
829.4096203861
 20
1268.5476493284
 30
0.0
 11
829.6416314659
 21
1268.4322547361
 31
0.0
  0
LINE
  5
3E5
330
1F
100
AcDbEntity
  8
0
  6
Continuous
 62
     7
370
    15
100
AcDbLine
 10
829.6416314659
 20
1268.4322547361
 30
0.0
 11
829.2432489214
 21
1269.237692301
 31
0.0
  0
LINE
  5
3E6
330
1F
100
AcDbEntity
  8
0
  6
Continuous
 62
     7
370
    15
100
AcDbLine
 10
829.2432489214
 20
1269.237692301
 30
0.0
 11
829.3981688437
 21
1269.4417786047
 31
0.0
  0
LINE
  5
3E7
330
1F
100
AcDbEntity
  8
0
  6
Continuous
 62
     7
370
    15
100
AcDbLine
 10
829.3981688437
 20
1269.4417786047
 30
0.0
 11
830.1941814241
 21
1267.8819250509
 31
0.0
  0
LINE
  5
3E8
330
1F
100
AcDbEntity
  8
0
  6
Continuous
 62
     7
370
    15
100
AcDbLine
 10
830.1941814241
 20
1267.8819250509
 30
0.0
 11
830.1139461217
 21
1267.7760672018
 31
0.0
  0
LINE
  5
3E9
330
1F
100
AcDbEntity
  8
0
  6
Continuous
 62
     7
370
    15
100
AcDbLine
 10
830.1139461217
 20
1267.7760672018
 30
0.0
 11
829.4701265511
 21
1268.1039523527
 31
0.0
  0
LWPOLYLINE
  5
3EA
330
1F
100
AcDbEntity
  8
0
  6
Continuous
 62
     7
370
    15
100
AcDbPolyline
 90
        4
 70
   128
 43
0.0
 10
829.4701265511
 20
1268.1039523527
 10
829.2098703203
 20
1268.2160686895
 10
829.0886344728
 20
1268.2256054327
 10
828.9875747976
 20
1268.1673716947
  0
ARC
  5
3EB
330
1F
100
AcDbEntity
  8
0
  6
Continuous
 62
     7
370
    15
100
AcDbCircle
 10
829.4728520848
 20
1267.9739347395
 30
0.0
 40
0.5224097061817463
100
AcDbArc
 50
158.2672208893
 51
211.1723149886
  0
LWPOLYLINE
  5
3EC
330
1F
100
AcDbEntity
  8
0
  6
Continuous
 62
     7
370
    15
100
AcDbPolyline
 90
        7
 70
   128
 43
0.0
 10
829.0258782325
 20
1267.7035283491
 10
829.0640252051
 20
1267.6379036352
 10
829.1072013197
 20
1267.5829481527
 10
829.1515993294
 20
1267.5446819708
 10
829.1973384437
 20
1267.5216745779
 10
829.2789968071
 20
1267.522151415
 10
829.3441893873
 20
1267.5723385259
  0
LINE
  5
3ED
330
1F
100
AcDbEntity
  8
0
  6
Continuous
 62
     7
370
    15
100
AcDbLine
 10
830.1139461217
 20
1267.7760672018
 30
0.0
 11
830.1221641121
 21
1267.779047434
 31
0.0
  0
LINE
  5
3EE
330
1F
100
AcDbEntity
  8
0
  6
Continuous
 62
     7
370
    15
100
AcDbLine
 10
830.1941814241
 20
1267.8819250509
 30
0.0
 11
830.2024068651
 21
1267.8849052831
 31
0.0
  0
LINE
  5
3EF
330
1F
100
AcDbEntity
  8
0
  6
Continuous
 62
     7
370
    15
100
AcDbLine
 10
829.3981688437
 20
1269.4417786047
 30
0.0
 11
829.4066401539
 21
1269.4442223951
 31
0.0
  0
LWPOLYLINE
  5
3F0
330
1F
100
AcDbEntity
  8
0
  6
Continuous
 62
     7
370
    15
100
AcDbPolyline
 90
       17
 70
   128
 43
0.0
 10
877.63260923
 20
1258.2915377065
 10
877.5653602895
 20
1257.8338336393
 10
877.6710914788
 20
1257.4782919332
 10
877.9397594151
 20
1257.2853516981
 10
878.3259602604
 20
1257.2838019773
 10
878.767846745
 20
1257.475311701
 10
879.1946532545
 20
1257.8346681043
 10
879.5415820894
 20
1258.3063792631
 10
879.7560694036
 20
1258.8179659292
 10
879.810458642
 20
1259.2881273672
 10
879.6985658226
 20
1259.6436690733
 10
879.4387789783
 20
1259.828622286
 10
879.0688725528
 20
1259.8181318685
 10
878.6412390289
 20
1259.614522402
 10
878.217673522
 20
1259.2518281385
 10
877.8622212228
 20
1258.7843489095
 10
877.63260923
 20
1258.2915377065
  0
LWPOLYLINE
  5
3F1
330
1F
100
AcDbEntity
  8
0
  6
Continuous
 62
     7
370
    15
100
AcDbPolyline
 90
       17
 70
   128
 43
0.0
 10
836.7328556595
 20
1256.5303992674
 10
836.6067024288
 20
1256.7706655904
 10
836.4144849
 20
1256.9906067297
 10
836.1859755931
 20
1257.1572613165
 10
835.9558569607
 20
1257.2450589582
 10
835.7584836302
 20
1257.2399925634
 10
835.6230693278
 20
1257.1421217367
 10
835.5697380719
 20
1256.9658708021
 10
835.6067525563
 20
1256.7382406637
 10
835.7291432438
 20
1256.4943980619
 10
835.9190957961
 20
1256.2723111555
 10
836.1481713471
 20
1256.1062526151
 10
836.3813447175
 20
1256.0213159963
 10
836.5824805913
 20
1256.0298990652
 10
836.7201524195
 20
1256.1298560545
 10
836.7729248819
 20
1256.3056301519
 10
836.7328556595
 20
1256.5303992674
  0
ARC
  5
3F2
330
1F
100
AcDbEntity
  8
0
  6
Continuous
 62
     7
370
    15
100
AcDbCircle
 10
829.1806997968
 20
1269.9457595598
 30
0.0
 40
1.317164245079069
100
AcDbArc
 50
141.7940673845
 51
206.6570240918
  0
LWPOLYLINE
  5
3F3
330
1F
100
AcDbEntity
  8
0
  6
Continuous
 62
     7
370
    15
100
AcDbPolyline
 90
        7
 70
   128
 43
0.0
 10
828.1456815419
 20
1270.760412161
 10
828.3181773839
 20
1270.9306430265
 10
828.5196038303
 20
1271.0019897863
 10
828.6393048582
 20
1270.9680747434
 10
828.749111515
 20
1270.8781909391
 10
828.8579719481
 20
1270.7207154676
 10
828.9526837287
 20
1270.5241393491
  0
ARC
  5
3F4
330
1F
100
AcDbEntity
  8
0
  6
Continuous
 62
     7
370
    15
100
AcDbCircle
 10
827.8084244645
 20
1269.9167679713
 30
0.0
 40
1.295464879573654
100
AcDbArc
 50
322.9505550576
 51
27.9593063302
  0
LWPOLYLINE
  5
3F5
330
1F
100
AcDbEntity
  8
0
  6
Continuous
 62
     7
370
    15
100
AcDbPolyline
 90
        3
 70
   128
 43
0.0
 10
828.8423555312
 20
1269.1362451955
 10
828.6390366373
 20
1268.9444970533
 10
828.3910962162
 20
1268.893713896
  0
ARC
  5
3F6
330
1F
100
AcDbEntity
  8
0
  6
Continuous
 62
     7
370
    15
100
AcDbCircle
 10
828.7781958623
 20
1269.6124939576
 30
0.0
 40
0.8163889471354299
100
AcDbArc
 50
198.3989752203
 51
241.6952753621
  0
ARC
  5
3F7
330
1F
100
AcDbEntity
  8
0
  6
Continuous
 62
     7
370
    15
100
AcDbCircle
 10
828.540300537
 20
1270.2607512806
 30
0.0
 40
0.2613591193996039
100
AcDbArc
 50
14.8516327485
 51
71.4028387243
  0
LWPOLYLINE
  5
3F8
330
1F
100
AcDbEntity
  8
0
  6
Continuous
 62
     7
370
    15
100
AcDbPolyline
 90
        3
 70
   128
 43
0.0
 10
828.6236511883
 20
1270.5084633276
 10
828.4611912784
 20
1270.455534403
 10
828.3239590344
 20
1270.3190397665
  0
ARC
  5
3F9
330
1F
100
AcDbEntity
  8
0
  6
Continuous
 62
     7
370
    15
100
AcDbCircle
 10
828.8030076546
 20
1269.8225936728
 30
0.0
 40
0.6898886174068154
100
AcDbArc
 50
133.9782659711
 51
201.9421705077
  0
LWPOLYLINE
  5
3FA
330
1F
100
AcDbEntity
  8
0
  6
Continuous
 62
     7
370
    15
100
AcDbPolyline
 90
        7
 70
   128
 43
0.0
 10
828.1630935487
 20
1269.5648025915
 10
828.2251792369
 20
1269.4529842779
 10
828.2613741574
 20
1269.4119166776
 10
828.297941607
 20
1269.3847369596
 10
828.3676119861
 20
1269.369239752
 10
828.4333335576
 20
1269.3859290525
 10
828.6502795634
 20
1269.5815514967
  0
ARC
  5
3FB
330
1F
100
AcDbEntity
  8
0
  6
Continuous
 62
     7
370
    15
100
AcDbCircle
 10
828.1643997678
 20
1270.0611671764
 30
0.0
 40
0.6827227665896967
100
AcDbArc
 50
315.3717286822
 51
22.9830280427
  0
LINE
  5
3FC
330
1F
100
AcDbEntity
  8
0
  6
Continuous
 62
     7
370
    15
100
AcDbLine
 10
828.8423555312
 20
1269.1362451955
 30
0.0
 11
828.8508640942
 21
1269.1386293813
 31
0.0
  0
LWPOLYLINE
  5
3FD
330
1F
100
AcDbEntity
  8
0
  6
Continuous
 62
     7
370
    15
100
AcDbPolyline
 90
        3
 70
   128
 43
0.0
 10
828.9526837287
 20
1270.5241393491
 10
828.9569901643
 20
1270.5252122327
 10
828.9613040504
 20
1270.5262851164
  0
ARC
  5
3FE
330
1F
100
AcDbEntity
  8
0
  6
Continuous
 62
     7
370
    15
100
AcDbCircle
 10
828.8114468877
 20
1269.8246272496
 30
0.0
 40
0.6896787253008977
100
AcDbArc
 50
133.9681656046
 51
201.9391468708
  0
LWPOLYLINE
  5
3FF
330
1F
100
AcDbEntity
  8
0
  6
Continuous
 62
     7
370
    15
100
AcDbPolyline
 90
        3
 70
   128
 43
0.0
 10
828.632308763
 20
1270.5104898855
 10
828.4698563037
 20
1270.4575609609
 10
828.3326315102
 20
1270.3210067197
  0
ARC
  5
400
330
1F
100
AcDbEntity
  8
0
  6
Continuous
 62
     7
370
    15
100
AcDbCircle
 10
828.4131541272
 20
1269.6147873598
 30
0.0
 40
0.2461340439599736
100
AcDbArc
 50
191.2074311481
 51
261.3621447334
  0
LWPOLYLINE
  5
401
330
1F
100
AcDbEntity
  8
0
  6
Continuous
 62
     7
370
    15
100
AcDbPolyline
 90
        3
 70
   128
 43
0.0
 10
828.9875747976
 20
1268.1673716947
 10
828.9917769251
 20
1268.1686829969
 10
828.9959716019
 20
1268.1699942991
  0
LINE
  5
402
330
1F
100
AcDbEntity
  8
0
  6
Continuous
 62
     7
370
    15
100
AcDbLine
 10
830.4016279397
 20
1265.3648805067
 30
0.0
 11
830.409562808
 21
1265.3682779714
 31
0.0
  0
LINE
  5
403
330
1F
100
AcDbEntity
  8
0
  6
Continuous
 62
     7
370
    15
100
AcDbLine
 10
829.5649053869
 20
1267.1567749426
 30
0.0
 11
829.5731382785
 21
1267.1596955701
 31
0.0
  0
LWPOLYLINE
  5
404
330
1F
100
AcDbEntity
  8
0
  6
Continuous
 62
     7
370
    15
100
AcDbPolyline
 90
        3
 70
   128
 43
0.0
 10
829.3441893873
 20
1267.5723385259
 10
829.3483393607
 20
1267.5737690374
 10
829.3524893341
 20
1267.5751399442
  0
LWPOLYLINE
  5
405
330
1F
100
AcDbEntity
  8
0
  6
Continuous
 62
     7
370
    15
100
AcDbPolyline
 90
        3
 70
   128
 43
0.0
 10
829.0258707819
 20
1267.7035283491
 10
829.0300505576
 20
1267.7048992559
 10
829.0342303333
 20
1267.7062105581
  0
LWPOLYLINE
  5
406
330
1F
100
AcDbEntity
  8
0
  6
Continuous
 62
     7
370
    15
100
AcDbPolyline
 90
        3
 70
   128
 43
0.0
 10
828.1717138705
 20
1269.5669483587
 10
828.1673999843
 20
1269.5658754751
 10
828.1630935487
 20
1269.5648025915
  0
LWPOLYLINE
  5
407
330
1F
100
AcDbEntity
  8
0
  6
Continuous
 62
     7
370
    15
100
AcDbPolyline
 90
       17
 70
   128
 43
0.0
 10
832.1455704388
 20
1260.9100889608
 10
832.0484148678
 20
1261.1727070257
 10
831.8922805009
 20
1261.4200663015
 10
831.7014338789
 20
1261.6147350713
 10
831.5046193418
 20
1261.7268514082
 10
831.3309016046
 20
1261.7388319418
 10
831.2057467518
 20
1261.648352091
 10
831.1477365312
 20
1261.4688229009
 10
831.1660277066
 20
1261.2278413221
 10
831.2587427315
 20
1260.9626006528
 10
831.4127164302
 20
1260.7139896795
 10
831.6049488601
 20
1260.5201553747
 10
831.8058835683
 20
1260.4104828283
 10
831.9840418515
 20
1260.4010652944
 10
832.1113648233
 20
1260.4928564474
 10
832.1679817853
 20
1260.6715511724
 10
832.1455704388
 20
1260.9100889608
  0
LWPOLYLINE
  5
408
330
1F
100
AcDbEntity
  8
0
  6
Continuous
 62
     7
370
    15
100
AcDbPolyline
 90
        7
 70
   128
 43
0.0
 10
886.1961426553
 20
1274.0411114141
 10
886.1361505804
 20
1273.8330315992
 10
886.0562654552
 20
1273.6613106176
 10
885.9608682213
 20
1273.5466312811
 10
885.859525424
 20
1273.4954308912
 10
885.6643351135
 20
1273.5336970731
 10
885.4861917314
 20
1273.6769270345
  0
ARC
  5
409
330
1F
100
AcDbEntity
  8
0
  6
Continuous
 62
     7
370
    15
100
AcDbCircle
 10
886.5111422067
 20
1274.6078911324
 30
0.0
 40
1.384636280155273
100
AcDbArc
 50
162.3744894868
 51
222.2489167832
  0
LWPOLYLINE
  5
40A
330
1F
100
AcDbEntity
  8
0
  6
Continuous
 62
     7
370
    15
100
AcDbPolyline
 90
        7
 70
   128
 43
0.0
 10
885.1915063677
 20
1275.0271510526
 10
885.2485033092
 20
1275.2339195654
 10
885.3224726734
 20
1275.4060577795
 10
885.4104193268
 20
1275.5215119764
 10
885.5058016596
 20
1275.5757522031
 10
885.6926622209
 20
1275.5423736021
 10
885.867199522
 20
1275.4013490125
  0
ARC
  5
40B
330
1F
100
AcDbEntity
  8
0
  6
Continuous
 62
     7
370
    15
100
AcDbCircle
 10
885.0368230181
 20
1274.5316909302
 30
0.0
 40
1.202426845348141
100
AcDbArc
 50
13.558601795
 51
46.3236602714
  0
ARC
  5
40C
330
1F
100
AcDbEntity
  8
0
  6
Continuous
 62
     7
370
    15
100
AcDbCircle
 10
884.4888771213
 20
1274.4486182049
 30
0.0
 40
1.755225737122893
100
AcDbArc
 50
346.5752707275
 51
12.00124995
  0
ARC
  5
40D
330
1F
100
AcDbEntity
  8
0
  6
Continuous
 62
     7
370
    15
100
AcDbCircle
 10
886.0451952964
 20
1274.700235807
 30
0.0
 40
0.7035420337301652
100
AcDbArc
 50
166.7980379361
 51
194.3241725807
  0
LWPOLYLINE
  5
40E
330
1F
100
AcDbEntity
  8
0
  6
Continuous
 62
     7
370
    15
100
AcDbPolyline
 90
        3
 70
   128
 43
0.0
 10
885.3635253725
 20
1274.5261740133
 10
885.4685338554
 20
1274.2969345495
 10
885.5988296089
 20
1274.1410684034
  0
LWPOLYLINE
  5
40F
330
1F
100
AcDbEntity
  8
0
  6
Continuous
 62
     7
370
    15
100
AcDbPolyline
 90
        7
 70
   128
 43
0.0
 10
885.5988296089
 20
1274.1410684034
 10
885.8107390222
 20
1273.9907454893
 10
885.8683916149
 20
1273.9865731641
 10
885.9270276842
 20
1274.0166735098
 10
885.9813722191
 20
1274.0871261999
 10
886.0036047516
 20
1274.1398763105
 10
886.0208751974
 20
1274.2012690946
  0
ARC
  5
410
330
1F
100
AcDbEntity
  8
0
  6
Continuous
 62
     7
370
    15
100
AcDbCircle
 10
885.3064665439
 20
1274.3685117001
 30
0.0
 40
0.7337232538479337
100
AcDbArc
 50
346.8243610885
 51
51.122916908
  0
LWPOLYLINE
  5
411
330
1F
100
AcDbEntity
  8
0
  6
Continuous
 62
     7
370
    15
100
AcDbPolyline
 90
        6
 70
   128
 43
0.0
 10
885.766989213
 20
1274.9397110387
 10
885.5603101072
 20
1275.082464163
 10
885.5045648632
 20
1275.0824045583
 10
885.4486408052
 20
1275.0481318876
 10
885.3975596246
 20
1274.9742817327
 10
885.360247117
 20
1274.8609136984
  0
LWPOLYLINE
  5
412
330
1F
100
AcDbEntity
  8
0
  6
Continuous
 62
     7
370
    15
100
AcDbPolyline
 90
        3
 70
   128
 43
0.0
 10
885.1915063677
 20
1275.0271510526
 10
885.1869764147
 20
1275.0275086805
 10
885.1824315605
 20
1275.0278663084
  0
ARC
  5
413
330
1F
100
AcDbEntity
  8
0
  6
Continuous
 62
     7
370
    15
100
AcDbCircle
 10
885.7481080406
 20
1274.2278953195
 30
0.0
 40
0.2649623247981931
100
AcDbArc
 50
294.8201706902
 51
354.3880110928
  0
LINE
  5
414
330
1F
100
AcDbEntity
  8
0
  6
Continuous
 62
     7
370
    15
100
AcDbLine
 10
885.7578846035
 20
1274.9403070852
 30
0.0
 11
885.5512054977
 21
1275.0830602094
 31
0.0
  0
ARC
  5
415
330
1F
100
AcDbEntity
  8
0
  6
Continuous
 62
     7
370
    15
100
AcDbCircle
 10
885.2975276335
 20
1274.3691628876
 30
0.0
 40
0.7335763316175011
100
AcDbArc
 50
346.8268140309
 51
51.1302889316
  0
LWPOLYLINE
  5
416
330
1F
100
AcDbEntity
  8
0
  6
Continuous
 62
     7
370
    15
100
AcDbPolyline
 90
       17
 70
   128
 43
0.0
 10
882.3777648029
 20
1263.2943343565
 10
882.3659481821
 20
1263.0499553129
 10
882.4257763443
 20
1262.8695320531
 10
882.5485321102
 20
1262.7803038999
 10
882.7150525865
 20
1262.7960395261
 10
882.8990223226
 20
1262.9148911878
 10
883.0714436588
 20
1263.1191563055
 10
883.20568822
 20
1263.3779000684
 10
883.2817139444
 20
1263.6516045972
 10
883.2889410076
 20
1263.8980698034
 10
883.2272800026
 20
1264.0793275282
 10
883.1065209923
 20
1264.1676616117
 10
882.944634777
 20
1264.1497802183
 10
882.7652545986
 20
1264.028842394
 10
882.5946512041
 20
1263.8237428114
 10
882.4584247884
 20
1263.5658931181
 10
882.3777648029
 20
1263.2943343565
  0
LWPOLYLINE
  5
417
330
1F
100
AcDbEntity
  8
0
  6
Continuous
 62
     7
370
    15
100
AcDbPolyline
 90
       17
 70
   128
 43
0.0
 10
828.8996355948
 20
1266.1340188429
 10
828.7759410557
 20
1266.6913222715
 10
828.5532357511
 20
1267.2286581442
 10
828.26512925
 20
1267.6590632841
 10
827.9546114025
 20
1267.9174494192
 10
827.663651329
 20
1267.9650735304
 10
827.4333240804
 20
1267.790968363
 10
827.2960843858
 20
1267.4236249372
 10
827.2766011176
 20
1266.9174026891
 10
827.3807825861
 20
1266.3526486799
 10
827.5978552518
 20
1265.8151339933
 10
827.8953122315
 20
1265.3890203878
 10
828.2263862309
 20
1265.1363562986
 10
828.5358684478
 20
1265.0964807912
 10
828.7729533729
 20
1265.2732681677
 10
828.8990693507
 20
1265.6414460584
 10
828.8996355948
 20
1266.1340188429
  0
LINE
  5
418
330
1F
100
AcDbEntity
  8
0
  6
Continuous
 62
     7
370
    15
100
AcDbLine
 10
886.5434589205
 20
1275.8216809675
 30
0.0
 11
886.4651831207
 21
1275.3487777158
 31
0.0
  0
LINE
  5
419
330
1F
100
AcDbEntity
  8
0
  6
Continuous
 62
     7
370
    15
100
AcDbLine
 10
886.4651831207
 20
1275.3487777158
 30
0.0
 11
885.8410926876
 21
1275.9220551893
 31
0.0
  0
LINE
  5
41A
330
1F
100
AcDbEntity
  8
0
  6
Continuous
 62
     7
370
    15
100
AcDbLine
 10
885.8410926876
 20
1275.9220551893
 30
0.0
 11
885.8020963487
 21
1275.701279585
 31
0.0
  0
LINE
  5
41B
330
1F
100
AcDbEntity
  8
0
  6
Continuous
 62
     7
370
    15
100
AcDbLine
 10
885.8020963487
 20
1275.701279585
 30
0.0
 11
885.6314333496
 21
1275.8580994054
 31
0.0
  0
LINE
  5
41C
330
1F
100
AcDbEntity
  8
0
  6
Continuous
 62
     7
370
    15
100
AcDbLine
 10
885.6314333496
 20
1275.8580994054
 30
0.0
 11
885.6704594907
 21
1276.0788750097
 31
0.0
  0
LINE
  5
41D
330
1F
100
AcDbEntity
  8
0
  6
Continuous
 62
     7
370
    15
100
AcDbLine
 10
885.6704594907
 20
1276.0788750097
 30
0.0
 11
885.4714395818
 21
1276.2619804784
 31
0.0
  0
LINE
  5
41E
330
1F
100
AcDbEntity
  8
0
  6
Continuous
 62
     7
370
    15
100
AcDbLine
 10
885.4714395818
 20
1276.2619804784
 30
0.0
 11
885.5481656608
 21
1276.7242741033
 31
0.0
  0
LINE
  5
41F
330
1F
100
AcDbEntity
  8
0
  6
Continuous
 62
     7
370
    15
100
AcDbLine
 10
885.5481656608
 20
1276.7242741033
 30
0.0
 11
885.7471408663
 21
1276.5411686346
 31
0.0
  0
LINE
  5
420
330
1F
100
AcDbEntity
  8
0
  6
Continuous
 62
     7
370
    15
100
AcDbLine
 10
885.7471408663
 20
1276.5411686346
 30
0.0
 11
885.9000416813
 21
1277.6251387045
 31
0.0
  0
LINE
  5
421
330
1F
100
AcDbEntity
  8
0
  6
Continuous
 62
     7
370
    15
100
AcDbLine
 10
885.9000416813
 20
1277.6251387045
 30
0.0
 11
886.0707195816
 21
1277.4683188841
 31
0.0
  0
LINE
  5
422
330
1F
100
AcDbEntity
  8
0
  6
Continuous
 62
     7
370
    15
100
AcDbLine
 10
886.0707195816
 20
1277.4683188841
 30
0.0
 11
886.5434589205
 21
1275.8216809675
 31
0.0
  0
LINE
  5
423
330
1F
100
AcDbEntity
  8
0
  6
Continuous
 62
     7
370
    15
100
AcDbLine
 10
886.0025765714
 20
1276.9518446371
 30
0.0
 11
885.9177293596
 21
1276.3843488142
 31
0.0
  0
LINE
  5
424
330
1F
100
AcDbEntity
  8
0
  6
Continuous
 62
     7
370
    15
100
AcDbLine
 10
885.9177293596
 20
1276.3843488142
 30
0.0
 11
886.2426789818
 21
1276.0858487531
 31
0.0
  0
LINE
  5
425
330
1F
100
AcDbEntity
  8
0
  6
Continuous
 62
     7
370
    15
100
AcDbLine
 10
886.2426789818
 20
1276.0858487531
 30
0.0
 11
886.0025765714
 21
1276.9518446371
 31
0.0
  0
LINE
  5
426
330
1F
100
AcDbEntity
  8
0
  6
Continuous
 62
     7
370
    15
100
AcDbLine
 10
885.4714395818
 20
1276.2619804784
 30
0.0
 11
885.4622902689
 21
1276.2623381063
 31
0.0
  0
LINE
  5
427
330
1F
100
AcDbEntity
  8
0
  6
Continuous
 62
     7
370
    15
100
AcDbLine
 10
885.6704594907
 20
1276.0788750097
 30
0.0
 11
885.6612952766
 21
1276.0792326376
 31
0.0
  0
LINE
  5
428
330
1F
100
AcDbEntity
  8
0
  6
Continuous
 62
     7
370
    15
100
AcDbLine
 10
885.5481656608
 20
1276.7242741033
 30
0.0
 11
885.5389865455
 21
1276.7244529173
 31
0.0
  0
LINE
  5
429
330
1F
100
AcDbEntity
  8
0
  6
Continuous
 62
     7
370
    15
100
AcDbLine
 10
885.6314333496
 20
1275.8580994054
 30
0.0
 11
885.6222989378
 21
1275.858516638
 31
0.0
  0
LINE
  5
42A
330
1F
100
AcDbEntity
  8
0
  6
Continuous
 62
     7
370
    15
100
AcDbLine
 10
885.8020963487
 20
1275.701279585
 30
0.0
 11
885.7929619369
 21
1275.7016968176
 31
0.0
  0
LWPOLYLINE
  5
42B
330
1F
100
AcDbEntity
  8
0
  6
Continuous
 62
     7
370
    15
100
AcDbPolyline
 90
        3
 70
   128
 43
0.0
 10
886.0118003902
 20
1274.2019843504
 10
886.0163452444
 20
1274.2016267225
 10
886.0208751974
 20
1274.2012690946
  0
LINE
  5
42C
330
1F
100
AcDbEntity
  8
0
  6
Continuous
 62
     7
370
    15
100
AcDbLine
 10
886.4859106359
 20
1278.6837171957
 30
0.0
 11
886.5129860458
 21
1279.1442226812
 31
0.0
  0
ARC
  5
42D
330
1F
100
AcDbEntity
  8
0
  6
Continuous
 62
     7
370
    15
100
AcDbCircle
 10
885.3221667714
 20
1278.2463248093
 30
0.0
 40
1.4913990521533
100
AcDbArc
 50
350.7853798478
 51
37.0169112062
  0
LWPOLYLINE
  5
42E
330
1F
100
AcDbEntity
  8
0
  6
Continuous
 62
     7
370
    15
100
AcDbPolyline
 90
        6
 70
   128
 43
0.0
 10
886.7943199691
 20
1278.0075025007
 10
886.7514046249
 20
1277.7298044607
 10
886.7143007335
 20
1277.6161980077
 10
886.6677346048
 20
1277.5281619474
 10
886.5559162912
 20
1277.4391722128
 10
886.4363791761
 20
1277.4700474187
  0
ARC
  5
42F
330
1F
100
AcDbEntity
  8
0
  6
Continuous
 62
     7
370
    15
100
AcDbCircle
 10
887.9542714702
 20
1278.6022968487
 30
0.0
 40
1.89366992582317
100
AcDbArc
 50
185.7571913244
 51
216.7205565771
  0
LINE
  5
430
330
1F
100
AcDbEntity
  8
0
  6
Continuous
 62
     7
370
    15
100
AcDbLine
 10
886.0701533375
 20
1278.412337248
 30
0.0
 11
885.9777512369
 21
1278.7879061147
 31
0.0
  0
LINE
  5
431
330
1F
100
AcDbEntity
  8
0
  6
Continuous
 62
     7
370
    15
100
AcDbLine
 10
885.9777512369
 20
1278.7879061147
 30
0.0
 11
885.8982535419
 21
1277.9028367445
 31
0.0
  0
LINE
  5
432
330
1F
100
AcDbEntity
  8
0
  6
Continuous
 62
     7
370
    15
100
AcDbLine
 10
885.8982535419
 20
1277.9028367445
 30
0.0
 11
885.7275309381
 21
1278.0472587988
 31
0.0
  0
LINE
  5
433
330
1F
100
AcDbEntity
  8
0
  6
Continuous
 62
     7
370
    15
100
AcDbLine
 10
885.7275309381
 20
1278.0472587988
 30
0.0
 11
885.858974081
 21
1279.7669720098
 31
0.0
  0
LINE
  5
434
330
1F
100
AcDbEntity
  8
0
  6
Continuous
 62
     7
370
    15
100
AcDbLine
 10
885.858974081
 20
1279.7669720098
 30
0.0
 11
885.9474124727
 21
1279.6924065992
 31
0.0
  0
LINE
  5
435
330
1F
100
AcDbEntity
  8
0
  6
Continuous
 62
     7
370
    15
100
AcDbLine
 10
885.9474124727
 20
1279.6924065992
 30
0.0
 11
886.2063499508
 21
1278.6666106626
 31
0.0
  0
ARC
  5
436
330
1F
100
AcDbEntity
  8
0
  6
Continuous
 62
     7
370
    15
100
AcDbCircle
 10
887.7914461677
 20
1278.8391178128
 30
0.0
 40
1.594455623021008
100
AcDbArc
 50
186.2110958016
 51
213.8231726747
  0
LWPOLYLINE
  5
437
330
1F
100
AcDbEntity
  8
0
  6
Continuous
 62
     7
370
    15
100
AcDbPolyline
 90
        8
 70
   128
 43
0.0
 10
886.4668371496
 20
1277.9515933439
 10
886.5197958765
 20
1277.9324006483
 10
886.5453662691
 20
1277.9442023679
 10
886.5688952026
 20
1277.9706072256
 10
886.5892203865
 20
1278.0097674772
 10
886.6054924545
 20
1278.0600737974
 10
886.6170259533
 20
1278.119201605
 10
886.6241785106
 20
1278.1839322492
  0
ARC
  5
438
330
1F
100
AcDbEntity
  8
0
  6
Continuous
 62
     7
370
    15
100
AcDbCircle
 10
885.9701508409
 20
1278.2720216007
 30
0.0
 40
0.6599253208784421
100
AcDbArc
 50
352.3342661033
 51
38.5979616866
  0
LINE
  5
439
330
1F
100
AcDbEntity
  8
0
  6
Continuous
 62
     7
370
    15
100
AcDbLine
 10
885.7275309381
 20
1278.0472587988
 30
0.0
 11
885.7182922182
 21
1278.0470203802
 31
0.0
  0
LINE
  5
43A
330
1F
100
AcDbEntity
  8
0
  6
Continuous
 62
     7
370
    15
100
AcDbLine
 10
885.8982535419
 20
1277.9028367445
 30
0.0
 11
885.889014822
 21
1277.9025983259
 31
0.0
  0
LINE
  5
43B
330
1F
100
AcDbEntity
  8
0
  6
Continuous
 62
     7
370
    15
100
AcDbLine
 10
885.858974081
 20
1279.7669720098
 30
0.0
 11
885.8497055587
 21
1279.7661971494
 31
0.0
  0
LINE
  5
43C
330
1F
100
AcDbEntity
  8
0
  6
Continuous
 62
     7
370
    15
100
AcDbLine
 10
885.9000416813
 20
1277.6251387045
 30
0.0
 11
885.8908178625
 21
1277.6250194952
 31
0.0
  0
LINE
  5
43D
330
1F
100
AcDbEntity
  8
0
  6
Continuous
 62
     7
370
    15
100
AcDbLine
 10
886.4651831207
 20
1275.3487777158
 30
0.0
 11
886.4560189066
 21
1275.3491353437
 31
0.0
  0
LINE
  5
43E
330
1F
100
AcDbEntity
  8
0
  6
Continuous
 62
     7
370
    15
100
AcDbLine
 10
886.2334998665
 20
1276.0860275671
 30
0.0
 11
885.9933676538
 21
1276.9518446371
 31
0.0
  0
LINE
  5
43F
330
1F
100
AcDbEntity
  8
0
  6
Continuous
 62
     7
370
    15
100
AcDbLine
 10
886.4363791761
 20
1277.4700474187
 30
0.0
 11
886.4271404562
 21
1277.4698090002
 31
0.0
  0
LWPOLYLINE
  5
440
330
1F
100
AcDbEntity
  8
0
  6
Continuous
 62
     7
370
    15
100
AcDbPolyline
 90
       17
 70
   128
 43
0.0
 10
885.408497077
 20
1268.9065288946
 10
885.4240091858
 20
1268.6524938985
 10
885.494104248
 20
1268.4684347555
 10
885.6087239799
 20
1268.3821272298
 10
885.7501061973
 20
1268.4069227621
 10
885.8956905422
 20
1268.5392450735
 10
886.0221566972
 20
1268.759126608
 10
886.1096712169
 20
1269.033307974
 10
886.1451955852
 20
1269.3199467107
 10
886.1243190584
 20
1269.575114195
 10
886.0514076767
 20
1269.7598289892
 10
885.9381737528
 20
1269.8457788869
 10
885.8015748081
 20
1269.8199700758
 10
885.6613548813
 20
1269.6865152761
 10
885.5377050457
 20
1269.4659780904
 10
885.448804718
 20
1269.1920947477
 10
885.408497077
 20
1268.9065288946
  0
LINE
  5
441
330
1F
100
AcDbEntity
  8
0
  6
Continuous
 62
     7
370
    15
100
AcDbLine
 10
886.6241785106
 20
1278.1839322492
 30
0.0
 11
886.6149099884
 21
1278.1834554121
 31
0.0
  0
LINE
  5
442
330
1F
100
AcDbEntity
  8
0
  6
Continuous
 62
     7
370
    15
100
AcDbLine
 10
886.4859106359
 20
1278.6837171957
 30
0.0
 11
886.4766421137
 21
1278.6831211492
 31
0.0
  0
LINE
  5
443
330
1F
100
AcDbEntity
  8
0
  6
Continuous
 62
     7
370
    15
100
AcDbLine
 10
886.5129860458
 20
1279.1442226812
 30
0.0
 11
886.5037026224
 21
1279.1434478208
 31
0.0
  0
ARC
  5
444
330
1F
100
AcDbEntity
  8
0
  6
Continuous
 62
     7
370
    15
100
AcDbCircle
 10
871.3139077314
 20
1303.8902495472
 30
0.0
 40
0.9622464831312277
100
AcDbArc
 50
334.36880944
 51
21.6978537085
  0
ARC
  5
445
330
1F
100
AcDbEntity
  8
0
  6
Continuous
 62
     7
370
    15
100
AcDbCircle
 10
841.3813530551
 20
1303.8902495472
 30
0.0
 40
0.962246483131122
100
AcDbArc
 50
158.3021462915
 51
205.63119056
  0
LWPOLYLINE
  5
446
330
1F
100
AcDbEntity
  8
0
  6
Continuous
 62
     7
370
    15
100
AcDbPolyline
 90
       17
 70
   128
 43
0.0
 10
886.8345978079
 20
1274.7836660787
 10
886.9261207399
 20
1274.2696356222
 10
887.0925369081
 20
1273.8947224065
 10
887.3130144891
 20
1273.7241935178
 10
887.5523867426
 20
1273.7811755582
 10
887.7709122715
 20
1274.0557741567
 10
887.9295798359
 20
1274.5081138059
 10
888.0021782932
 20
1275.0680398389
 10
887.9768612203
 20
1275.6509136602
 10
887.8623905
 20
1276.1672090932
 10
887.6803579149
 20
1276.5388440534
 10
887.4623986301
 20
1276.7082404539
 10
887.2408481655
 20
1276.6515564367
 10
887.0460452852
 20
1276.3752889082
 10
886.9021447715
 20
1275.9220551893
 10
886.8283989248
 20
1275.3592681333
 10
886.8345978079
 20
1274.7836660787
  0
LINE
  5
447
330
1F
100
AcDbEntity
  8
0
  6
Continuous
 62
     7
370
    15
100
AcDbLine
 10
883.2552941856
 20
1292.4818348333
 30
0.0
 11
883.2468303261
 21
1292.4770664617
 31
0.0
  0
ARC
  5
448
330
1F
100
AcDbEntity
  8
0
  6
Continuous
 62
     7
370
    15
100
AcDbCircle
 10
885.0588161002
 20
1293.1450911586
 30
0.0
 40
1.921613969901169
100
AcDbArc
 50
200.1913104209
 51
239.5744756932
  0
LWPOLYLINE
  5
449
330
1F
100
AcDbEntity
  8
0
  6
Continuous
 62
     7
370
    15
100
AcDbPolyline
 90
        7
 70
   128
 43
0.0
 10
884.1815354643
 20
1292.1042394086
 10
884.2679920015
 20
1291.9049214765
 10
884.3261363325
 20
1291.7272400304
 10
884.3475493011
 20
1291.5938448354
 10
884.3331547794
 20
1291.5023517057
 10
884.2333617029
 20
1291.4477538511
 10
884.0856762943
 20
1291.4881061956
  0
LWPOLYLINE
  5
44A
330
1F
100
AcDbEntity
  8
0
  6
Continuous
 62
     7
370
    15
100
AcDbPolyline
 90
        7
 70
   128
 43
0.0
 10
883.2552941856
 20
1292.4818348333
 10
883.1677349624
 20
1292.6786493703
 10
883.1046732483
 20
1292.8539466306
 10
883.0770166931
 20
1292.9887723371
 10
883.0849739132
 20
1293.0750202581
 10
883.1761690197
 20
1293.1285452291
 10
883.3206953821
 20
1293.087954466
  0
LWPOLYLINE
  5
44B
330
1F
100
AcDbEntity
  8
0
  6
Continuous
 62
     7
370
    15
100
AcDbPolyline
 90
        3
 70
   128
 43
0.0
 10
883.3206953821
 20
1293.087954466
 10
883.5207583723
 20
1292.9776858732
 10
883.7708296594
 20
1292.7499365255
  0
ARC
  5
44C
330
1F
100
AcDbEntity
  8
0
  6
Continuous
 62
     7
370
    15
100
AcDbCircle
 10
881.5356656624
 20
1290.8747588158
 30
0.0
 40
2.917575969227979
100
AcDbArc
 50
24.9233118203
 51
39.9947711763
  0
ARC
  5
44D
330
1F
100
AcDbEntity
  8
0
  6
Continuous
 62
     7
370
    15
100
AcDbCircle
 10
884.4859998045
 20
1292.9154622559
 30
0.0
 40
1.184172763892046
100
AcDbArc
 50
204.8437068719
 51
220.8132360201
  0
LWPOLYLINE
  5
44E
330
1F
100
AcDbEntity
  8
0
  6
Continuous
 62
     7
370
    15
100
AcDbPolyline
 90
        3
 70
   128
 43
0.0
 10
883.5897656498
 20
1292.1414923116
 10
883.7533953008
 20
1291.9968318388
 10
883.8883551178
 20
1291.9247102186
  0
LWPOLYLINE
  5
44F
330
1F
100
AcDbEntity
  8
0
  6
Continuous
 62
     7
370
    15
100
AcDbPolyline
 90
        7
 70
   128
 43
0.0
 10
883.8883551178
 20
1291.9247102186
 10
884.0535791931
 20
1291.892762129
 10
884.0788217601
 20
1291.9151734754
 10
884.0865405616
 20
1291.9660758421
 10
884.0707304296
 20
1292.0489859029
 10
884.0518655595
 20
1292.1023916647
 10
884.0260418472
 20
1292.1611022398
  0
ARC
  5
450
330
1F
100
AcDbEntity
  8
0
  6
Continuous
 62
     7
370
    15
100
AcDbCircle
 10
883.1516610507
 20
1291.7921016487
 30
0.0
 40
0.9490538517631556
100
AcDbArc
 50
22.8804064181
 51
66.4633034911
  0
LWPOLYLINE
  5
451
330
1F
100
AcDbEntity
  8
0
  6
Continuous
 62
     7
370
    15
100
AcDbPolyline
 90
        6
 70
   128
 43
0.0
 10
883.5306527433
 20
1292.6621984884
 10
883.3724024114
 20
1292.6899146482
 10
883.3504679022
 20
1292.6652979299
 10
883.3465936002
 20
1292.6123690054
 10
883.3659055052
 20
1292.5284456655
 10
883.4114136514
 20
1292.4179386541
  0
ARC
  5
452
330
1F
100
AcDbEntity
  8
0
  6
Continuous
 62
     7
370
    15
100
AcDbCircle
 10
883.6881888663
 20
1291.9570948608
 30
0.0
 40
0.3849589267820439
100
AcDbArc
 50
353.0426658058
 51
31.1686647422
  0
LINE
  5
453
330
1F
100
AcDbEntity
  8
0
  6
Continuous
 62
     7
370
    15
100
AcDbLine
 10
883.5222484884
 20
1292.6573109075
 30
0.0
 11
883.3639832554
 21
1292.685086672
 31
0.0
  0
ARC
  5
454
330
1F
100
AcDbEntity
  8
0
  6
Continuous
 62
     7
370
    15
100
AcDbCircle
 10
883.1435044734
 20
1291.7874751617
 30
0.0
 40
0.9487155809843923
100
AcDbArc
 50
22.8797271917
 51
66.4707202184
  0
LINE
  5
455
330
1F
100
AcDbEntity
  8
0
  6
Continuous
 62
     7
370
    15
100
AcDbLine
 10
882.2099032221
 20
1294.4747161314
 30
0.0
 11
882.201767188
 21
1294.4692921087
 31
0.0
  0
LINE
  5
456
330
1F
100
AcDbEntity
  8
0
  6
Continuous
 62
     7
370
    15
100
AcDbLine
 10
883.5524531421
 20
1293.1892823621
 30
0.0
 11
882.2099032221
 21
1294.4747161314
 31
0.0
  0
LINE
  5
457
330
1F
100
AcDbEntity
  8
0
  6
Continuous
 62
     7
370
    15
100
AcDbLine
 10
883.5524531421
 20
1293.1892823621
 30
0.0
 11
883.5441382942
 21
1293.1841563627
 31
0.0
  0
LINE
  5
458
330
1F
100
AcDbEntity
  8
0
  6
Continuous
 62
     7
370
    15
100
AcDbLine
 10
882.8263791618
 20
1294.5985745832
 30
0.0
 11
883.6380007086
 21
1293.1581687376
 31
0.0
  0
LINE
  5
459
330
1F
100
AcDbEntity
  8
0
  6
Continuous
 62
     7
370
    15
100
AcDbLine
 10
883.6380007086
 20
1293.1581687376
 30
0.0
 11
883.5524531421
 21
1293.1892823621
 31
0.0
  0
LINE
  5
45A
330
1F
100
AcDbEntity
  8
0
  6
Continuous
 62
     7
370
    15
100
AcDbLine
 10
882.2099032221
 20
1294.4747161314
 30
0.0
 11
882.0715906439
 21
1294.8002170965
 31
0.0
  0
LINE
  5
45B
330
1F
100
AcDbEntity
  8
0
  6
Continuous
 62
     7
370
    15
100
AcDbLine
 10
882.0715906439
 20
1294.8002170965
 30
0.0
 11
883.1996979532
 21
1293.740684931
 31
0.0
  0
LINE
  5
45C
330
1F
100
AcDbEntity
  8
0
  6
Continuous
 62
     7
370
    15
100
AcDbLine
 10
883.1996979532
 20
1293.740684931
 30
0.0
 11
882.6732101259
 21
1294.6544241354
 31
0.0
  0
LINE
  5
45D
330
1F
100
AcDbEntity
  8
0
  6
Continuous
 62
     7
370
    15
100
AcDbLine
 10
882.6732101259
 20
1294.6544241354
 30
0.0
 11
882.8263791618
 21
1294.5985745832
 31
0.0
  0
LWPOLYLINE
  5
45E
330
1F
100
AcDbEntity
  8
0
  6
Continuous
 62
     7
370
    15
100
AcDbPolyline
 90
       17
 70
   128
 43
0.0
 10
887.4597015199
 20
1281.3003014967
 10
887.5453831968
 20
1281.0446571752
 10
887.65013836
 20
1280.8599423811
 10
887.7589764414
 20
1280.7744097158
 10
887.8553720531
 20
1280.8011125967
 10
887.9238130865
 20
1280.9358190939
 10
887.9525872287
 20
1281.1578463956
 10
887.9364045677
 20
1281.4331602499
 10
887.8776343879
 20
1281.7197989866
 10
887.7860667524
 20
1281.9743108198
 10
887.6768859443
 20
1282.1581911489
 10
887.5676902351
 20
1282.2436642095
 10
887.4751987276
 20
1282.2176765844
 10
887.412658554
 20
1282.0841025755
 10
887.3882951555
 20
1281.8629097387
 10
887.4048503456
 20
1281.5876554891
 10
887.4597015199
 20
1281.3003014967
  0
LINE
  5
45F
330
1F
100
AcDbEntity
  8
0
  6
Continuous
 62
     7
370
    15
100
AcDbLine
 10
882.0715906439
 20
1294.8002170965
 30
0.0
 11
882.0635142145
 21
1294.7947334692
 31
0.0
  0
LINE
  5
460
330
1F
100
AcDbEntity
  8
0
  6
Continuous
 62
     7
370
    15
100
AcDbLine
 10
880.8008196172
 20
1296.6927837774
 30
0.0
 11
880.7931306181
 21
1296.686644499
 31
0.0
  0
LINE
  5
461
330
1F
100
AcDbEntity
  8
0
  6
Continuous
 62
     7
370
    15
100
AcDbLine
 10
881.7805262623
 20
1295.2213835165
 30
0.0
 11
880.8008196172
 21
1296.6927837774
 31
0.0
  0
LINE
  5
462
330
1F
100
AcDbEntity
  8
0
  6
Continuous
 62
     7
370
    15
100
AcDbLine
 10
881.7805262623
 20
1295.2213835165
 30
0.0
 11
881.7725392399
 21
1295.2157210752
 31
0.0
  0
LINE
  5
463
330
1F
100
AcDbEntity
  8
0
  6
Continuous
 62
     7
370
    15
100
AcDbLine
 10
881.6727014599
 20
1296.0718821928
 30
0.0
 11
881.4030351457
 21
1296.4609217092
 31
0.0
  0
ARC
  5
464
330
1F
100
AcDbEntity
  8
0
  6
Continuous
 62
     7
370
    15
100
AcDbCircle
 10
880.1957074201
 20
1294.5162177343
 30
0.0
 40
2.288998424450982
100
AcDbArc
 50
29.6426640195
 51
58.1668094241
  0
LWPOLYLINE
  5
465
330
1F
100
AcDbEntity
  8
0
  6
Continuous
 62
     7
370
    15
100
AcDbPolyline
 90
        6
 70
   128
 43
0.0
 10
882.1851374922
 20
1295.648331587
 10
882.3346259412
 20
1295.4011511251
 10
882.3888065633
 20
1295.2905845091
 10
882.423258048
 20
1295.1990317747
 10
882.435268384
 20
1295.0770210668
 10
882.3738457975
 20
1295.0510334417
  0
ARC
  5
466
330
1F
100
AcDbEntity
  8
0
  6
Continuous
 62
     7
370
    15
100
AcDbCircle
 10
883.6870297327
 20
1297.1909882165
 30
0.0
 40
2.510748590690509
100
AcDbArc
 50
217.2695851378
 51
238.4646271416
  0
LINE
  5
467
330
1F
100
AcDbEntity
  8
0
  6
Continuous
 62
     7
370
    15
100
AcDbLine
 10
881.688988429
 20
1295.6705641195
 30
0.0
 11
881.4327778635
 21
1295.9403943464
 31
0.0
  0
LINE
  5
468
330
1F
100
AcDbEntity
  8
0
  6
Continuous
 62
     7
370
    15
100
AcDbLine
 10
881.4327778635
 20
1295.9403943464
 30
0.0
 11
881.9264086303
 21
1295.1760243818
 31
0.0
  0
LINE
  5
469
330
1F
100
AcDbEntity
  8
0
  6
Continuous
 62
     7
370
    15
100
AcDbLine
 10
881.9264086303
 20
1295.1760243818
 30
0.0
 11
881.7805262623
 21
1295.2213835165
 31
0.0
  0
LINE
  5
46A
330
1F
100
AcDbEntity
  8
0
  6
Continuous
 62
     7
370
    15
100
AcDbLine
 10
880.8008196172
 20
1296.6927837774
 30
0.0
 11
880.8764579115
 21
1296.6691207334
 31
0.0
  0
LINE
  5
46B
330
1F
100
AcDbEntity
  8
0
  6
Continuous
 62
     7
370
    15
100
AcDbLine
 10
880.8764579115
 20
1296.6691207334
 30
0.0
 11
881.5855743704
 21
1295.9381889745
 31
0.0
  0
ARC
  5
46C
330
1F
100
AcDbEntity
  8
0
  6
Continuous
 62
     7
370
    15
100
AcDbCircle
 10
883.3298144833
 20
1297.3109923707
 30
0.0
 40
2.219676268328381
100
AcDbArc
 50
218.2044986982
 51
236.419026874
  0
LWPOLYLINE
  5
46D
330
1F
100
AcDbEntity
  8
0
  6
Continuous
 62
     7
370
    15
100
AcDbPolyline
 90
        8
 70
   128
 43
0.0
 10
882.1020784197
 20
1295.4617690488
 10
882.1322681722
 20
1295.4687427923
 10
882.1344437418
 20
1295.4894852087
 10
882.1272762832
 20
1295.521135275
 10
882.1114214477
 20
1295.5617856428
 10
882.0871176538
 20
1295.6106018468
 10
882.0561828432
 20
1295.6641268179
 10
882.0202114401
 20
1295.7204532072
  0
ARC
  5
46E
330
1F
100
AcDbEntity
  8
0
  6
Continuous
 62
     7
370
    15
100
AcDbCircle
 10
881.150557197
 20
1295.2080288568
 30
0.0
 40
1.009394480521588
100
AcDbArc
 50
30.5077691983
 51
58.8497137099
  0
LINE
  5
46F
330
1F
100
AcDbEntity
  8
0
  6
Continuous
 62
     7
370
    15
100
AcDbLine
 10
881.9264086303
 20
1295.1760243818
 30
0.0
 11
881.9184216079
 21
1295.1703619405
 31
0.0
  0
LINE
  5
470
330
1F
100
AcDbEntity
  8
0
  6
Continuous
 62
     7
370
    15
100
AcDbLine
 10
884.0175779876
 20
1292.1563338682
 30
0.0
 11
884.0260418472
 21
1292.1611022398
 31
0.0
  0
LWPOLYLINE
  5
471
330
1F
100
AcDbEntity
  8
0
  6
Continuous
 62
     7
370
    15
100
AcDbPolyline
 90
        3
 70
   128
 43
0.0
 10
882.3738457975
 20
1295.0510334417
 10
882.3698522863
 20
1295.0482320234
 10
882.3658587751
 20
1295.0453710004
  0
LWPOLYLINE
  5
472
330
1F
100
AcDbEntity
  8
0
  6
Continuous
 62
     7
370
    15
100
AcDbPolyline
 90
       17
 70
   128
 43
0.0
 10
886.3867881117
 20
1287.5243377134
 10
886.5121962843
 20
1287.2797202512
 10
886.6401376543
 20
1287.1013235494
 10
886.7521943865
 20
1287.0167445585
 10
886.8315281686
 20
1287.0389174863
 10
886.865398508
 20
1287.1642064497
 10
886.8474426088
 20
1287.3731207296
 10
886.7793890056
 20
1287.6333546087
 10
886.6713257847
 20
1287.9052113935
 10
886.5403594789
 20
1288.1476234838
 10
886.407619935
 20
1288.3240532323
 10
886.2943413076
 20
1288.4081553861
 10
886.2180622635
 20
1288.3872341558
 10
886.189735156
 20
1288.2641505643
 10
886.2124892292
 20
1288.0572032377
 10
886.2817796287
 20
1287.7974461958
 10
886.3867881117
 20
1287.5243377134
  0
LINE
  5
473
330
1F
100
AcDbEntity
  8
0
  6
Continuous
 62
     7
370
    15
100
AcDbLine
 10
882.6732101259
 20
1294.6544241354
 30
0.0
 11
882.6651485977
 21
1294.6488809034
 31
0.0
  0
LINE
  5
474
330
1F
100
AcDbEntity
  8
0
  6
Continuous
 62
     7
370
    15
100
AcDbLine
 10
883.6380007086
 20
1293.1581687376
 30
0.0
 11
883.6297007618
 21
1293.1530427381
 31
0.0
  0
LWPOLYLINE
  5
475
330
1F
100
AcDbEntity
  8
0
  6
Continuous
 62
     7
370
    15
100
AcDbPolyline
 90
        3
 70
   128
 43
0.0
 10
882.0202114401
 20
1295.7204532072
 10
882.0162924347
 20
1295.7175325796
 10
882.0123585281
 20
1295.714611952
  0
LINE
  5
476
330
1F
100
AcDbEntity
  8
0
  6
Continuous
 62
     7
370
    15
100
AcDbLine
 10
881.6727014599
 20
1296.0718821928
 30
0.0
 11
881.6649230537
 21
1296.0659217283
 31
0.0
  0
LINE
  5
477
330
1F
100
AcDbEntity
  8
0
  6
Continuous
 62
     7
370
    15
100
AcDbLine
 10
881.4030351457
 20
1296.4609217092
 30
0.0
 11
881.3953312454
 21
1296.4548420354
 31
0.0
  0
LWPOLYLINE
  5
478
330
1F
100
AcDbEntity
  8
0
  6
Continuous
 62
     7
370
    15
100
AcDbPolyline
 90
       17
 70
   128
 43
0.0
 10
883.8662417946
 20
1293.2267736837
 10
884.1911616144
 20
1292.7768182203
 10
884.4942363319
 20
1292.439932768
 10
884.7302707252
 20
1292.2770332739
 10
884.8657073793
 20
1292.3115443632
 10
884.8790737209
 20
1292.5357174322
 10
884.7626360473
 20
1292.9144453451
 10
884.5314594326
 20
1293.3863353178
 10
884.2179986057
 20
1293.8791465208
 10
883.8728579101
 20
1294.3182539388
 10
883.5518719969
 20
1294.639880602
 10
883.3089979706
 20
1294.7968792364
 10
883.1814738331
 20
1294.7682690069
 10
883.1885369835
 20
1294.555480425
 10
883.3243759689
 20
1294.1886138364
 10
883.5654469547
 20
1293.7190484449
 10
883.8662417946
 20
1293.2267736837
  0
LINE
  5
479
330
1F
100
AcDbEntity
  8
0
  6
Continuous
 62
     7
370
    15
100
AcDbLine
 10
873.4269949016
 20
1304.4350695058
 30
0.0
 11
870.8073409614
 21
1305.9055756971
 31
0.0
  0
LINE
  5
47A
330
1F
100
AcDbEntity
  8
0
  6
Continuous
 62
     7
370
    15
100
AcDbLine
 10
870.8073409614
 20
1305.9055756971
 30
0.0
 11
870.1611595568
 21
1305.8473419592
 31
0.0
  0
LINE
  5
47B
330
1F
100
AcDbEntity
  8
0
  6
Continuous
 62
     7
370
    15
100
AcDbLine
 10
870.1611595568
 20
1305.8473419592
 30
0.0
 11
872.7809476075
 21
1304.3772530004
 31
0.0
  0
LINE
  5
47C
330
1F
100
AcDbEntity
  8
0
  6
Continuous
 62
     7
370
    15
100
AcDbLine
 10
872.7809476075
 20
1304.3772530004
 30
0.0
 11
873.0190979657
 21
1304.398472254
 31
0.0
  0
LINE
  5
47D
330
1F
100
AcDbEntity
  8
0
  6
Continuous
 62
     7
370
    15
100
AcDbLine
 10
873.0190979657
 20
1304.398472254
 30
0.0
 11
873.870609921
 21
1303.817386572
 31
0.0
  0
LINE
  5
47E
330
1F
100
AcDbEntity
  8
0
  6
Continuous
 62
     7
370
    15
100
AcDbLine
 10
873.870609921
 20
1303.817386572
 30
0.0
 11
873.7478914079
 21
1303.8055252477
 31
0.0
  0
ARC
  5
47F
330
1F
100
AcDbEntity
  8
0
  6
Continuous
 62
     7
370
    15
100
AcDbCircle
 10
874.8859050973
 20
1307.6150294082
 30
0.0
 40
3.975851745980277
100
AcDbArc
 50
232.0636972724
 51
253.3675294836
  0
LINE
  5
480
330
1F
100
AcDbEntity
  8
0
  6
Continuous
 62
     7
370
    15
100
AcDbLine
 10
872.4416109142
 20
1304.4792961523
 30
0.0
 11
870.1379509983
 21
1305.7683062002
 31
0.0
  0
LWPOLYLINE
  5
481
330
1F
100
AcDbEntity
  8
0
  6
Continuous
 62
     7
370
    15
100
AcDbPolyline
 90
        7
 70
   128
 43
0.0
 10
870.1379509983
 20
1305.7683062002
 10
869.7026284752
 20
1305.9888433859
 10
869.5028635082
 20
1306.0929727003
 10
869.3412455139
 20
1306.1839889928
 10
869.2529337821
 20
1306.2469911024
 10
869.2281829533
 20
1306.2837075636
 10
869.2821028051
 20
1306.3117813512
  0
LINE
  5
482
330
1F
100
AcDbEntity
  8
0
  6
Continuous
 62
     7
370
    15
100
AcDbLine
 10
869.2821028051
 20
1306.3117813512
 30
0.0
 11
869.779250246
 21
1306.3590478346
 31
0.0
  0
ARC
  5
483
330
1F
100
AcDbEntity
  8
0
  6
Continuous
 62
     7
370
    15
100
AcDbCircle
 10
868.8802917491
 20
1302.0745020513
 30
0.0
 40
4.37783724552014
100
AcDbArc
 50
59.6955810275
 51
78.1504178031
  0
LINE
  5
484
330
1F
100
AcDbEntity
  8
0
  6
Continuous
 62
     7
370
    15
100
AcDbLine
 10
871.0893230853
 20
1305.8541368887
 30
0.0
 11
873.3927073297
 21
1304.5644711897
 31
0.0
  0
LWPOLYLINE
  5
485
330
1F
100
AcDbEntity
  8
0
  6
Continuous
 62
     7
370
    15
100
AcDbPolyline
 90
        7
 70
   128
 43
0.0
 10
873.3927147803
 20
1304.5644711897
 10
873.8174053249
 20
1304.2940449163
 10
874.0122082052
 20
1304.1599344656
 10
874.1734611211
 20
1304.037029688
 10
874.2672490296
 20
1303.9464902326
 10
874.2968799886
 20
1303.8920711919
 10
874.2451208052
 20
1303.8523148939
  0
LINE
  5
486
330
1F
100
AcDbEntity
  8
0
  6
Continuous
 62
     7
370
    15
100
AcDbLine
 10
874.2451208052
 20
1303.8523148939
 30
0.0
 11
874.1487922487
 21
1303.8430165693
 31
0.0
  0
LINE
  5
487
330
1F
100
AcDbEntity
  8
0
  6
Continuous
 62
     7
370
    15
100
AcDbLine
 10
874.1487922487
 20
1303.8430165693
 30
0.0
 11
873.2230427084
 21
1304.4167708799
 31
0.0
  0
LINE
  5
488
330
1F
100
AcDbEntity
  8
0
  6
Continuous
 62
     7
370
    15
100
AcDbLine
 10
873.2230427084
 20
1304.4167708799
 30
0.0
 11
873.4269949016
 21
1304.4350695058
 31
0.0
  0
LINE
  5
489
330
1F
100
AcDbEntity
  8
0
  6
Continuous
 62
     7
370
    15
100
AcDbLine
 10
873.870609921
 20
1303.817386572
 30
0.0
 11
873.8652231512
 21
1303.8090419218
 31
0.0
  0
LINE
  5
48A
330
1F
100
AcDbEntity
  8
0
  6
Continuous
 62
     7
370
    15
100
AcDbLine
 10
870.8073409614
 20
1305.9055756971
 30
0.0
 11
870.8030196247
 21
1305.8965753957
 31
0.0
  0
LWPOLYLINE
  5
48B
330
1F
100
AcDbEntity
  8
0
  6
Continuous
 62
     7
370
    15
100
AcDbPolyline
 90
       17
 70
   128
 43
0.0
 10
856.3476266679
 20
1309.0604495451
 10
857.3046537456
 20
1309.0588402197
 10
858.1153216181
 20
1309.0607475683
 10
858.6562859235
 20
1309.0812515661
 10
858.8459777055
 20
1309.1318559095
 10
858.655831438
 20
1309.2100572034
 10
858.1143828449
 20
1309.2972587988
 10
857.3034020481
 20
1309.3659233495
 10
856.3462855634
 20
1309.3919705793
 10
855.3893925962
 20
1309.3658041402
 10
854.579022747
 20
1309.2970203802
 10
854.0384831247
 20
1309.2098187849
 10
853.8493799386
 20
1309.1316770956
 10
854.0401371536
 20
1309.0811919614
 10
854.5817794618
 20
1309.0607475683
 10
855.3936543283
 20
1309.0588998243
 10
856.3476266679
 20
1309.0604495451
  0
LINE
  5
48C
330
1F
100
AcDbEntity
  8
0
  6
Continuous
 62
     7
370
    15
100
AcDbLine
 10
873.2230427084
 20
1304.4167708799
 30
0.0
 11
873.2179390607
 21
1304.4082474157
 31
0.0
  0
LINE
  5
48D
330
1F
100
AcDbEntity
  8
0
  6
Continuous
 62
     7
370
    15
100
AcDbLine
 10
874.1487922487
 20
1303.8430165693
 30
0.0
 11
874.1434203801
 21
1303.834671919
 31
0.0
  0
LWPOLYLINE
  5
48E
330
1F
100
AcDbEntity
  8
0
  6
Continuous
 62
     7
370
    15
100
AcDbPolyline
 90
       21
 70
   128
 43
0.0
 10
868.2121100244
 20
1307.064051573
 10
868.5130687771
 20
1306.9553327009
 10
868.7739210543
 20
1306.8704556867
 10
868.8741611657
 20
1306.8429183408
 10
868.9474897799
 20
1306.8278383657
 10
869.0081300554
 20
1306.835348551
 10
868.9507456836
 20
1306.8900656149
 10
868.7781157312
 20
1306.9845389768
 10
868.5211005029
 20
1307.1012448713
 10
868.3729159054
 20
1307.1617435857
 10
868.2177575645
 20
1307.2208713934
 10
867.9115088997
 20
1307.3262524053
 10
867.6508652386
 20
1307.4020695135
 10
867.4789505419
 20
1307.4369382307
 10
867.4177887258
 20
1307.428831999
 10
867.4340458927
 20
1307.4083876058
 10
867.4828248439
 20
1307.377154772
 10
867.6614301619
 20
1307.2891783163
 10
867.9166199979
 20
1307.1798037931
 10
868.0613996801
 20
1307.121927683
 10
868.2121100244
 20
1307.064051573
  0
LWPOLYLINE
  5
48F
330
1F
100
AcDbEntity
  8
0
  6
Continuous
 62
     7
370
    15
100
AcDbPolyline
 90
       17
 70
   128
 43
0.0
 10
868.2149337945
 20
1307.1057152197
 10
868.3565842328
 20
1307.0549916669
 10
868.4769036588
 20
1307.0170831129
 10
868.5576456008
 20
1306.9981288358
 10
868.5867624697
 20
1307.001287882
 10
868.5596498069
 20
1307.0262026235
 10
868.4804948387
 20
1307.0687603399
 10
868.3611514387
 20
1307.122106497
 10
868.2197170672
 20
1307.1778964445
 10
868.0776866493
 20
1307.2276067182
 10
867.9567562756
 20
1307.2639059469
 10
867.8755002436
 20
1307.2815489217
 10
867.8463535723
 20
1307.278151457
 10
867.873823863
 20
1307.2543692037
 10
867.95360468
 20
1307.2134208128
 10
868.0734174666
 20
1307.1613859579
 10
868.2149337945
 20
1307.1057152197
  0
LWPOLYLINE
  5
490
330
1F
100
AcDbEntity
  8
0
  6
Continuous
 62
     7
370
    15
100
AcDbPolyline
 90
       17
 70
   128
 43
0.0
 10
868.2114096698
 20
1307.0964168951
 10
868.3530303058
 20
1307.0456933424
 10
868.4733199296
 20
1307.0077847883
 10
868.5540320692
 20
1306.9888901159
 10
868.5831414876
 20
1306.9920491621
 10
868.5560586271
 20
1307.0169042989
 10
868.4769483623
 20
1307.0594024107
 10
868.3576273141
 20
1307.1128081724
 10
868.2162227449
 20
1307.1685981199
 10
868.0742221293
 20
1307.218248789
 10
867.953321558
 20
1307.2545480177
 10
867.8720953283
 20
1307.2721909925
 10
867.842948657
 20
1307.2687935278
 10
867.8703965959
 20
1307.2450112745
 10
867.9501401601
 20
1307.2041224882
 10
868.0699082432
 20
1307.1520280286
 10
868.2114096698
 20
1307.0964168951
  0
LINE
  5
491
330
1F
100
AcDbEntity
  8
0
  6
Continuous
 62
     7
370
    15
100
AcDbLine
 10
1132.0476444778
 20
726.9016158029
 30
0.0
 11
1132.0476444778
 21
727.301622574
 31
0.0
  0
LINE
  5
492
330
1F
100
AcDbEntity
  8
0
  6
Continuous
 62
     7
370
    15
100
AcDbLine
 10
376.6476424751
 20
727.301622574
 30
0.0
 11
376.6476424751
 21
726.9016158029
 31
0.0
  0
ARC
  5
493
330
1F
100
AcDbEntity
  8
0
  6
Continuous
 62
     7
370
    15
100
AcDbCircle
 10
1201.7097681537
 20
646.5825085293
 30
0.0
 40
3.428958571390558
100
AcDbArc
 50
38.3833372411
 51
79.2793174689
  0
LINE
  5
494
330
1F
100
AcDbEntity
  8
0
  6
Continuous
 62
     7
370
    15
100
AcDbLine
 10
1204.3976398525
 20
648.7116169378
 30
0.0
 11
1203.5976263103
 21
648.7116169378
 31
0.0
  0
ARC
  5
495
330
1F
100
AcDbEntity
  8
0
  6
Continuous
 62
     7
370
    15
100
AcDbCircle
 10
1201.665342571
 20
648.0137914448
 30
0.0
 40
2.054429572447181
100
AcDbArc
 50
19.8566928787
 51
70.603451123
  0
ARC
  5
496
330
1F
100
AcDbEntity
  8
0
  6
Continuous
 62
     7
370
    15
100
AcDbCircle
 10
1201.9575622851
 20
709.349155074
 30
0.0
 40
3.122002013035218
100
AcDbArc
 50
277.1773331518
 51
321.4049739631
  0
ARC
  5
497
330
1F
100
AcDbEntity
  8
0
  6
Continuous
 62
     7
370
    15
100
AcDbCircle
 10
1201.6535667911
 20
708.2603782046
 30
0.0
 40
2.12528684349365
100
AcDbArc
 50
289.0608851842
 51
336.1671379742
  0
LINE
  5
498
330
1F
100
AcDbEntity
  8
0
  6
Continuous
 62
     7
370
    15
100
AcDbLine
 10
1204.3976398525
 20
707.4016135379
 30
0.0
 11
1203.5976263103
 21
707.4016135379
 31
0.0
  0
LINE
  5
499
330
1F
100
AcDbEntity
  8
0
  6
Continuous
 62
     7
370
    15
100
AcDbLine
 10
1204.3976398525
 20
707.4016135379
 30
0.0
 11
1204.3976398525
 21
648.7116169378
 31
0.0
  0
LINE
  5
49A
330
1F
100
AcDbEntity
  8
0
  6
Continuous
 62
     7
370
    15
100
AcDbLine
 10
1202.3476275024
 20
647.9016196176
 30
0.0
 11
306.4476164398
 21
647.9016196176
 31
0.0
  0
LINE
  5
49B
330
1F
100
AcDbEntity
  8
0
  6
Continuous
 62
     7
370
    15
100
AcDbLine
 10
306.4476164398
 20
647.9016196176
 30
0.0
 11
306.4476164398
 21
649.9516170665
 31
0.0
  0
LINE
  5
49C
330
1F
100
AcDbEntity
  8
0
  6
Continuous
 62
     7
370
    15
100
AcDbLine
 10
1202.3476275024
 20
649.9516170665
 30
0.0
 11
1202.3476275024
 21
647.9016196176
 31
0.0
  0
ARC
  5
49D
330
1F
100
AcDbEntity
  8
0
  6
Continuous
 62
     7
370
    15
100
AcDbCircle
 10
306.8890935869
 20
646.9072344555
 30
0.0
 40
3.076226187008058
100
AcDbArc
 50
98.2511552879
 51
144.0869277462
  0
ARC
  5
49E
330
1F
100
AcDbEntity
  8
0
  6
Continuous
 62
     7
370
    15
100
AcDbCircle
 10
307.2282122843
 20
647.9146878066
 30
0.0
 40
2.181378161316785
100
AcDbArc
 50
110.9679251556
 51
158.5719308427
  0
LINE
  5
49F
330
1F
100
AcDbEntity
  8
0
  6
Continuous
 62
     7
370
    15
100
AcDbLine
 10
304.397633892
 20
648.7116169378
 30
0.0
 11
305.1976176319
 21
648.7116169378
 31
0.0
  0
LINE
  5
4A0
330
1F
100
AcDbEntity
  8
0
  6
Continuous
 62
     7
370
    15
100
AcDbLine
 10
304.397633892
 20
648.7116169378
 30
0.0
 11
304.397633892
 21
707.4016135379
 31
0.0
  0
ARC
  5
4A1
330
1F
100
AcDbEntity
  8
0
  6
Continuous
 62
     7
370
    15
100
AcDbCircle
 10
307.0273394505
 20
709.6871754412
 30
0.0
 40
3.484127514573946
100
AcDbArc
 50
220.9949578488
 51
260.4220242017
  0
LINE
  5
4A2
330
1F
100
AcDbEntity
  8
0
  6
Continuous
 62
     7
370
    15
100
AcDbLine
 10
1202.3476275024
 20
708.3016138717
 30
0.0
 11
306.4476164398
 21
708.3016138717
 31
0.0
  0
LINE
  5
4A3
330
1F
100
AcDbEntity
  8
0
  6
Continuous
 62
     7
370
    15
100
AcDbLine
 10
306.4476164398
 20
706.2516164228
 30
0.0
 11
306.4476164398
 21
708.3016138717
 31
0.0
  0
LINE
  5
4A4
330
1F
100
AcDbEntity
  8
0
  6
Continuous
 62
     7
370
    15
100
AcDbLine
 10
1202.3476275024
 20
708.3016138717
 30
0.0
 11
1202.3476275024
 21
706.2516164228
 31
0.0
  0
LINE
  5
4A5
330
1F
100
AcDbEntity
  8
0
  6
Continuous
 62
     7
370
    15
100
AcDbLine
 10
304.397633892
 20
707.4016135379
 30
0.0
 11
305.1976176319
 21
707.4016135379
 31
0.0
  0
ARC
  5
4A6
330
1F
100
AcDbEntity
  8
0
  6
Continuous
 62
     7
370
    15
100
AcDbCircle
 10
307.1343326691
 20
708.2523950596
 30
0.0
 40
2.115347331568331
100
AcDbArc
 50
203.7154527284
 51
251.0565241132
  0
LINE
  5
4A7
330
1F
100
AcDbEntity
  8
0
  6
Continuous
 62
     7
370
    15
100
AcDbLine
 10
306.4476164398
 20
707.5016152307
 30
0.0
 11
305.1976176319
 21
707.5016152307
 31
0.0
  0
LINE
  5
4A8
330
1F
100
AcDbEntity
  8
0
  6
Continuous
 62
     7
370
    15
100
AcDbLine
 10
305.1976176319
 20
707.5016152307
 30
0.0
 11
305.1976176319
 21
708.3016138717
 31
0.0
  0
LINE
  5
4A9
330
1F
100
AcDbEntity
  8
0
  6
Continuous
 62
     7
370
    15
100
AcDbLine
 10
306.4476164398
 20
708.3016138717
 30
0.0
 11
305.1976176319
 21
708.3016138717
 31
0.0
  0
LINE
  5
4AA
330
1F
100
AcDbEntity
  8
0
  6
Continuous
 62
     7
370
    15
100
AcDbLine
 10
305.1976176319
 20
647.9016196176
 30
0.0
 11
305.1976176319
 21
648.7016182586
 31
0.0
  0
LINE
  5
4AB
330
1F
100
AcDbEntity
  8
0
  6
Continuous
 62
     7
370
    15
100
AcDbLine
 10
306.4476164398
 20
648.7016182586
 30
0.0
 11
305.1976176319
 21
648.7016182586
 31
0.0
  0
LINE
  5
4AC
330
1F
100
AcDbEntity
  8
0
  6
Continuous
 62
     7
370
    15
100
AcDbLine
 10
306.4476164398
 20
647.9016196176
 30
0.0
 11
305.1976176319
 21
647.9016196176
 31
0.0
  0
LINE
  5
4AD
330
1F
100
AcDbEntity
  8
0
  6
Continuous
 62
     7
370
    15
100
AcDbLine
 10
1203.5976263103
 20
707.5016152307
 30
0.0
 11
1202.3476275024
 21
707.5016152307
 31
0.0
  0
LINE
  5
4AE
330
1F
100
AcDbEntity
  8
0
  6
Continuous
 62
     7
370
    15
100
AcDbLine
 10
1203.5976263103
 20
708.3016138717
 30
0.0
 11
1203.5976263103
 21
707.5016152307
 31
0.0
  0
LINE
  5
4AF
330
1F
100
AcDbEntity
  8
0
  6
Continuous
 62
     7
370
    15
100
AcDbLine
 10
1203.5976263103
 20
708.3016138717
 30
0.0
 11
1202.3476275024
 21
708.3016138717
 31
0.0
  0
LINE
  5
4B0
330
1F
100
AcDbEntity
  8
0
  6
Continuous
 62
     7
370
    15
100
AcDbLine
 10
1203.5976263103
 20
648.7016182586
 30
0.0
 11
1203.5976263103
 21
647.9016196176
 31
0.0
  0
LINE
  5
4B1
330
1F
100
AcDbEntity
  8
0
  6
Continuous
 62
     7
370
    15
100
AcDbLine
 10
1203.5976263103
 20
648.7016182586
 30
0.0
 11
1202.3476275024
 21
648.7016182586
 31
0.0
  0
LINE
  5
4B2
330
1F
100
AcDbEntity
  8
0
  6
Continuous
 62
     7
370
    15
100
AcDbLine
 10
1203.5976263103
 20
647.9016196176
 30
0.0
 11
1202.3476275024
 21
647.9016196176
 31
0.0
  0
LINE
  5
4B3
330
1F
100
AcDbEntity
  8
0
  6
Continuous
 62
     7
370
    15
100
AcDbLine
 10
306.4476164398
 20
707.4016135379
 30
0.0
 11
305.1976176319
 21
707.4016135379
 31
0.0
  0
LINE
  5
4B4
330
1F
100
AcDbEntity
  8
0
  6
Continuous
 62
     7
370
    15
100
AcDbLine
 10
305.1976176319
 20
648.7116169378
 30
0.0
 11
306.4476164398
 21
648.7116169378
 31
0.0
  0
LINE
  5
4B5
330
1F
100
AcDbEntity
  8
0
  6
Continuous
 62
     7
370
    15
100
AcDbLine
 10
1202.3476275024
 20
648.7116169378
 30
0.0
 11
1203.5976263103
 21
648.7116169378
 31
0.0
  0
LINE
  5
4B6
330
1F
100
AcDbEntity
  8
0
  6
Continuous
 62
     7
370
    15
100
AcDbLine
 10
1203.5976263103
 20
707.4016135379
 30
0.0
 11
1202.3476275024
 21
707.4016135379
 31
0.0
  0
LINE
  5
4B7
330
1F
100
AcDbEntity
  8
0
  6
Continuous
 62
     7
370
    15
100
AcDbLine
 10
1134.3976172027
 20
708.3016138717
 30
0.0
 11
1134.3976172027
 21
709.5516126796
 31
0.0
  0
LINE
  5
4B8
330
1F
100
AcDbEntity
  8
0
  6
Continuous
 62
     7
370
    15
100
AcDbLine
 10
374.3976267395
 20
709.5516126796
 30
0.0
 11
374.3976267395
 21
708.3016138717
 31
0.0
  0
LINE
  5
4B9
330
1F
100
AcDbEntity
  8
0
  6
Continuous
 62
     7
370
    15
100
AcDbLine
 10
1134.3976172027
 20
737.1015202448
 30
0.0
 11
1134.3976172027
 21
727.301622574
 31
0.0
  0
LINE
  5
4BA
330
1F
100
AcDbEntity
  8
0
  6
Continuous
 62
     7
370
    15
100
AcDbLine
 10
1134.3976172027
 20
727.301622574
 30
0.0
 11
1132.347634655
 21
727.301622574
 31
0.0
  0
LINE
  5
4BB
330
1F
100
AcDbEntity
  8
0
  6
Continuous
 62
     7
370
    15
100
AcDbLine
 10
1134.3976172027
 20
709.5516126796
 30
0.0
 11
1134.3976172027
 21
726.9016158029
 31
0.0
  0
LINE
  5
4BC
330
1F
100
AcDbEntity
  8
0
  6
Continuous
 62
     7
370
    15
100
AcDbLine
 10
374.3976267395
 20
726.9016158029
 30
0.0
 11
374.3976267395
 21
709.5516126796
 31
0.0
  0
LINE
  5
4BD
330
1F
100
AcDbEntity
  8
0
  6
Continuous
 62
     7
370
    15
100
AcDbLine
 10
374.3976267395
 20
726.9016158029
 30
0.0
 11
376.8476160583
 21
726.9016158029
 31
0.0
  0
LINE
  5
4BE
330
1F
100
AcDbEntity
  8
0
  6
Continuous
 62
     7
370
    15
100
AcDbLine
 10
376.8476160583
 20
726.9016158029
 30
0.0
 11
376.8476160583
 21
727.301622574
 31
0.0
  0
LINE
  5
4BF
330
1F
100
AcDbEntity
  8
0
  6
Continuous
 62
     7
370
    15
100
AcDbLine
 10
376.8476160583
 20
727.301622574
 30
0.0
 11
376.4476390896
 21
727.301622574
 31
0.0
  0
LINE
  5
4C0
330
1F
100
AcDbEntity
  8
0
  6
Continuous
 62
     7
370
    15
100
AcDbLine
 10
1131.9476278839
 20
727.301622574
 30
0.0
 11
1131.9476278839
 21
726.9016158029
 31
0.0
  0
LINE
  5
4C1
330
1F
100
AcDbEntity
  8
0
  6
Continuous
 62
     7
370
    15
100
AcDbLine
 10
1131.9476278839
 20
726.9016158029
 30
0.0
 11
1134.3976172027
 21
726.9016158029
 31
0.0
  0
LINE
  5
4C2
330
1F
100
AcDbEntity
  8
0
  6
Continuous
 62
     7
370
    15
100
AcDbLine
 10
1132.347634655
 20
727.301622574
 30
0.0
 11
1131.9476278839
 21
727.301622574
 31
0.0
  0
LINE
  5
4C3
330
1F
100
AcDbEntity
  8
0
  6
Continuous
 62
     7
370
    15
100
AcDbLine
 10
374.3976267395
 20
737.1015202448
 30
0.0
 11
374.3976267395
 21
727.301622574
 31
0.0
  0
LINE
  5
4C4
330
1F
100
AcDbEntity
  8
0
  6
Continuous
 62
     7
370
    15
100
AcDbLine
 10
376.4476390896
 20
727.301622574
 30
0.0
 11
374.3976267395
 21
727.301622574
 31
0.0
  0
LINE
  5
4C5
330
1F
100
AcDbEntity
  8
0
  6
Continuous
 62
     7
370
    15
100
AcDbLine
 10
314.3476160583
 20
1313.7016248151
 30
0.0
 11
314.3476160583
 21
1313.9590572759
 31
0.0
  0
LINE
  5
4C6
330
1F
100
AcDbEntity
  8
0
  6
Continuous
 62
     7
370
    15
100
AcDbLine
 10
373.1476279316
 20
1177.1015476629
 30
0.0
 11
373.1476279316
 21
1191.4139341756
 31
0.0
  0
LINE
  5
4C7
330
1F
100
AcDbEntity
  8
0
  6
Continuous
 62
     7
370
    15
100
AcDbLine
 10
371.8976291237
 20
723.7016212389
 30
0.0
 11
371.4976223526
 21
723.7016212389
 31
0.0
  0
LINE
  5
4C8
330
1F
100
AcDbEntity
  8
0
  6
Continuous
 62
     7
370
    15
100
AcDbLine
 10
371.4976223526
 20
723.7016212389
 30
0.0
 11
371.4976223526
 21
723.3016144678
 31
0.0
  0
LINE
  5
4C9
330
1F
100
AcDbEntity
  8
0
  6
Continuous
 62
     7
370
    15
100
AcDbLine
 10
371.4976223526
 20
723.3016144678
 30
0.0
 11
373.1476279316
 21
723.3016144678
 31
0.0
  0
LINE
  5
4CA
330
1F
100
AcDbEntity
  8
0
  6
Continuous
 62
     7
370
    15
100
AcDbLine
 10
373.1476279316
 20
708.3016138717
 30
0.0
 11
373.1476279316
 21
723.3016144678
 31
0.0
  0
CIRCLE
  5
4CB
330
1F
100
AcDbEntity
  8
0
  6
Continuous
 62
     7
370
    15
100
AcDbCircle
 10
362.3476301558
 20
716.1016165453
 30
0.0
 40
5.0
  0
ARC
  5
4CC
330
1F
100
AcDbEntity
  8
0
  6
Continuous
 62
     7
370
    15
100
AcDbCircle
 10
362.3476301558
 20
1193.5016165453
 30
0.0
 40
5.00000000000003
100
AcDbArc
 50
204.679053302
 51
335.320946698
  0
ARC
  5
4CD
330
1F
100
AcDbEntity
  8
0
  6
Continuous
 62
     7
370
    15
100
AcDbCircle
 10
322.3476301558
 20
1193.5016165453
 30
0.0
 40
5.000000000000083
100
AcDbArc
 50
204.679053302
 51
335.320946698
  0
ARC
  5
4CE
330
1F
100
AcDbEntity
  8
0
  6
Continuous
 62
     7
370
    15
100
AcDbCircle
 10
362.3476301558
 20
729.3016165453
 30
0.0
 40
5.000000000000041
100
AcDbArc
 50
224.1465629839
 51
315.8534370161
  0
LINE
  5
4CF
330
1F
100
AcDbEntity
  8
0
  6
Continuous
 62
     7
370
    15
100
AcDbLine
 10
304.3476255951
 20
649.9516170665
 30
0.0
 11
304.3476255951
 21
1191.4139341756
 31
0.0
  0
LINE
  5
4D0
330
1F
100
AcDbEntity
  8
0
  6
Continuous
 62
     7
370
    15
100
AcDbLine
 10
373.9476414737
 20
723.7016212389
 30
0.0
 11
373.9476414737
 21
737.1015202448
 31
0.0
  0
LINE
  5
4D1
330
1F
100
AcDbEntity
  8
0
  6
Continuous
 62
     7
370
    15
100
AcDbLine
 10
373.9476414737
 20
723.7016212389
 30
0.0
 11
371.8976291237
 21
723.7016212389
 31
0.0
  0
LWPOLYLINE
  5
4D2
330
1F
100
AcDbEntity
  8
0
  6
Continuous
 62
     7
370
    15
100
AcDbPolyline
 90
        3
 70
   128
 43
0.0
 10
305.1976176319
 20
648.3352881118
 10
304.9480529842
 20
648.5020470068
 10
304.8080416736
 20
648.7116169378
  0
LINE
  5
4D3
330
1F
100
AcDbEntity
  8
0
  6
Continuous
 62
     7
370
    15
100
AcDbLine
 10
304.397633892
 20
649.7002493784
 30
0.0
 11
304.3476255951
 21
649.9516170665
 31
0.0
  0
LINE
  5
4D4
330
1F
100
AcDbEntity
  8
0
  6
Continuous
 62
     7
370
    15
100
AcDbLine
 10
1135.547629219
 20
723.3016144678
 30
0.0
 11
1135.547629219
 21
708.3016138717
 31
0.0
  0
LINE
  5
4D5
330
1F
100
AcDbEntity
  8
0
  6
Continuous
 62
     7
370
    15
100
AcDbLine
 10
1135.547629219
 20
723.3016144678
 30
0.0
 11
1137.197634798
 21
723.3016144678
 31
0.0
  0
LINE
  5
4D6
330
1F
100
AcDbEntity
  8
0
  6
Continuous
 62
     7
370
    15
100
AcDbLine
 10
1137.197634798
 20
723.3016144678
 30
0.0
 11
1137.197634798
 21
723.7016212389
 31
0.0
  0
LINE
  5
4D7
330
1F
100
AcDbEntity
  8
0
  6
Continuous
 62
     7
370
    15
100
AcDbLine
 10
1137.197634798
 20
723.7016212389
 30
0.0
 11
1136.7976280269
 21
723.7016212389
 31
0.0
  0
LINE
  5
4D8
330
1F
100
AcDbEntity
  8
0
  6
Continuous
 62
     7
370
    15
100
AcDbLine
 10
1135.547629219
 20
1191.4139341756
 30
0.0
 11
1135.547629219
 21
1177.1015476629
 31
0.0
  0
LINE
  5
4D9
330
1F
100
AcDbEntity
  8
0
  6
Continuous
 62
     7
370
    15
100
AcDbLine
 10
1194.3476410923
 20
1313.9590572759
 30
0.0
 11
1194.3476410923
 21
1313.7016248151
 31
0.0
  0
ARC
  5
4DA
330
1F
100
AcDbEntity
  8
0
  6
Continuous
 62
     7
370
    15
100
AcDbCircle
 10
1146.3476301557
 20
729.3016165453
 30
0.0
 40
5.000000000000063
100
AcDbArc
 50
224.1465629841
 51
315.853437016
  0
ARC
  5
4DB
330
1F
100
AcDbEntity
  8
0
  6
Continuous
 62
     7
370
    15
100
AcDbCircle
 10
1146.3476301557
 20
1193.5016165453
 30
0.0
 40
5.00000000000002
100
AcDbArc
 50
204.6790533021
 51
335.3209466979
  0
ARC
  5
4DC
330
1F
100
AcDbEntity
  8
0
  6
Continuous
 62
     7
370
    15
100
AcDbCircle
 10
1186.3476301557
 20
1193.5016165453
 30
0.0
 40
5.000000000000226
100
AcDbArc
 50
204.6790533021
 51
335.3209466979
  0
CIRCLE
  5
4DD
330
1F
100
AcDbEntity
  8
0
  6
Continuous
 62
     7
370
    15
100
AcDbCircle
 10
1146.3476301557
 20
716.1016165453
 30
0.0
 40
5.000000000000227
  0
LINE
  5
4DE
330
1F
100
AcDbEntity
  8
0
  6
Continuous
 62
     7
370
    15
100
AcDbLine
 10
1204.3476315555
 20
1191.4139341756
 30
0.0
 11
1204.3476315555
 21
707.4016135379
 31
0.0
  0
LINE
  5
4DF
330
1F
100
AcDbEntity
  8
0
  6
Continuous
 62
     7
370
    15
100
AcDbLine
 10
1134.7476156769
 20
737.1015202448
 30
0.0
 11
1134.7476156769
 21
723.7016212389
 31
0.0
  0
LINE
  5
4E0
330
1F
100
AcDbEntity
  8
0
  6
Continuous
 62
     7
370
    15
100
AcDbLine
 10
1136.7976280269
 20
723.7016212389
 30
0.0
 11
1134.7476156769
 21
723.7016212389
 31
0.0
  0
LWPOLYLINE
  5
4E1
330
1F
100
AcDbEntity
  8
0
  6
Continuous
 62
     7
370
    15
100
AcDbPolyline
 90
        3
 70
   128
 43
0.0
 10
1203.5976263103
 20
648.378933613
 10
1203.6474557934
 20
648.4087284848
 10
1203.8885565815
 20
648.7116169378
  0
ARC
  5
4E2
330
1F
100
AcDbEntity
  8
0
  6
Continuous
 62
     7
370
    15
100
AcDbCircle
 10
1079.3476301557
 20
1193.5016165453
 30
0.0
 40
4.000000000000075
100
AcDbArc
 50
211.4610377374
 51
328.5389622626
  0
ARC
  5
4E3
330
1F
100
AcDbEntity
  8
0
  6
Continuous
 62
     7
370
    15
100
AcDbCircle
 10
429.3476301557
 20
1193.5016165453
 30
0.0
 40
4.000000000000028
100
AcDbArc
 50
211.4610377373
 51
328.5389622627
  0
ARC
  5
4E4
330
1F
100
AcDbEntity
  8
0
  6
Continuous
 62
     7
370
    15
100
AcDbCircle
 10
754.3476301557
 20
1193.5016165453
 30
0.0
 40
4.000000000000052
100
AcDbArc
 50
211.4610377373
 51
328.5389622627
  0
LINE
  5
4E5
330
1F
100
AcDbEntity
  8
0
  6
Continuous
 62
     7
370
    15
100
AcDbLine
 10
765.5476300386
 20
1177.7250122472
 30
0.0
 11
765.5476300386
 21
1177.1015476629
 31
0.0
  0
LINE
  5
4E6
330
1F
100
AcDbEntity
  8
0
  6
Continuous
 62
     7
370
    15
100
AcDbLine
 10
764.3476302144
 20
1178.1015943929
 30
0.0
 11
764.3476302144
 21
1177.1015476629
 31
0.0
  0
LINE
  5
4E7
330
1F
100
AcDbEntity
  8
0
  6
Continuous
 62
     7
370
    15
100
AcDbLine
 10
743.147629906
 20
1177.1015476629
 30
0.0
 11
743.147629906
 21
1177.7250122472
 31
0.0
  0
LINE
  5
4E8
330
1F
100
AcDbEntity
  8
0
  6
Continuous
 62
     7
370
    15
100
AcDbLine
 10
744.3476297301
 20
1177.1015476629
 30
0.0
 11
744.3476297301
 21
1178.1015943929
 31
0.0
  0
LINE
  5
4E9
330
1F
100
AcDbEntity
  8
0
  6
Continuous
 62
     7
370
    15
100
AcDbLine
 10
1192.3476370392
 20
1313.7016248151
 30
0.0
 11
1192.3476370392
 21
1313.9590572759
 31
0.0
  0
LINE
  5
4EA
330
1F
100
AcDbEntity
  8
0
  6
Continuous
 62
     7
370
    15
100
AcDbLine
 10
316.3476201114
 20
1313.9590572759
 30
0.0
 11
316.3476201114
 21
1313.7016248151
 31
0.0
  0
LWPOLYLINE
  5
4EB
330
1F
100
AcDbEntity
  8
0
  6
Continuous
 62
     7
370
    15
100
AcDbPolyline
 90
        3
 70
   128
 43
0.0
 10
1158.948979002
 20
1314.2034363195
 10
1158.3906920967
 20
1313.8240527555
 10
1157.547644001
 20
1313.1931971952
  0
LINE
  5
4EC
330
1F
100
AcDbEntity
  8
0
  6
Continuous
 62
     7
370
    15
100
AcDbLine
 10
373.9476414737
 20
726.7016124174
 30
0.0
 11
374.3976267395
 21
726.7016124174
 31
0.0
  0
LINE
  5
4ED
330
1F
100
AcDbEntity
  8
0
  6
Continuous
 62
     7
370
    15
100
AcDbLine
 10
1134.3976172027
 20
726.7016124174
 30
0.0
 11
1134.7476156769
 21
726.7016124174
 31
0.0
  0
LINE
  5
4EE
330
1F
100
AcDbEntity
  8
0
  6
Continuous
 62
     7
370
    15
100
AcDbLine
 10
1147.9930790481
 20
1191.151614134
 30
0.0
 11
1148.1445344505
 21
1191.4139341756
 31
0.0
  0
LINE
  5
4EF
330
1F
100
AcDbEntity
  8
0
  6
Continuous
 62
     7
370
    15
100
AcDbLine
 10
1144.5507319984
 20
1191.4139341756
 30
0.0
 11
1144.7021874008
 21
1191.151614134
 31
0.0
  0
LINE
  5
4F0
330
1F
100
AcDbEntity
  8
0
  6
Continuous
 62
     7
370
    15
100
AcDbLine
 10
1144.7021874008
 20
1191.151614134
 30
0.0
 11
1147.9930790481
 21
1191.151614134
 31
0.0
  0
ARC
  5
4F1
330
1F
100
AcDbEntity
  8
0
  6
Continuous
 62
     7
370
    15
100
AcDbCircle
 10
1146.3476301557
 20
1194.0016165453
 30
0.0
 40
4.25
100
AcDbArc
 50
270.0
 51
322.4925490336
  0
ARC
  5
4F2
330
1F
100
AcDbEntity
  8
0
  6
Continuous
 62
     7
370
    15
100
AcDbCircle
 10
1146.3476301557
 20
1194.0016165453
 30
0.0
 40
4.25
100
AcDbArc
 50
217.5074509664
 51
270.0
  0
LINE
  5
4F3
330
1F
100
AcDbEntity
  8
0
  6
Continuous
 62
     7
370
    15
100
AcDbLine
 10
1187.9930707035
 20
1191.151614134
 30
0.0
 11
1188.1445261059
 21
1191.4139341756
 31
0.0
  0
LINE
  5
4F4
330
1F
100
AcDbEntity
  8
0
  6
Continuous
 62
     7
370
    15
100
AcDbLine
 10
1184.7021790561
 20
1191.151614134
 30
0.0
 11
1187.9930707035
 21
1191.151614134
 31
0.0
  0
LINE
  5
4F5
330
1F
100
AcDbEntity
  8
0
  6
Continuous
 62
     7
370
    15
100
AcDbLine
 10
1184.5507236538
 20
1191.4139341756
 30
0.0
 11
1184.7021790561
 21
1191.151614134
 31
0.0
  0
ARC
  5
4F6
330
1F
100
AcDbEntity
  8
0
  6
Continuous
 62
     7
370
    15
100
AcDbCircle
 10
1186.3476301557
 20
1194.0016165453
 30
0.0
 40
4.25000000000031
100
AcDbArc
 50
270.0
 51
322.4925490335
  0
ARC
  5
4F7
330
1F
100
AcDbEntity
  8
0
  6
Continuous
 62
     7
370
    15
100
AcDbCircle
 10
1186.3476301557
 20
1194.0016165453
 30
0.0
 40
4.25
100
AcDbArc
 50
217.5074509665
 51
270.0
  0
LINE
  5
4F8
330
1F
100
AcDbEntity
  8
0
  6
Continuous
 62
     7
370
    15
100
AcDbLine
 10
765.9930788321
 20
1178.8515996381
 30
0.0
 11
762.7021815968
 21
1178.8515996381
 31
0.0
  0
ARC
  5
4F9
330
1F
100
AcDbEntity
  8
0
  6
Continuous
 62
     7
370
    15
100
AcDbCircle
 10
764.3476301557
 20
1176.0016165453
 30
0.0
 40
4.250000000000075
100
AcDbArc
 50
14.9990012347
 51
165.0009987653
  0
LINE
  5
4FA
330
1F
100
AcDbEntity
  8
0
  6
Continuous
 62
     7
370
    15
100
AcDbLine
 10
762.7021815968
 20
1178.8515996381
 30
0.0
 11
761.6917664525
 21
1177.1015476629
 31
0.0
  0
LINE
  5
4FB
330
1F
100
AcDbEntity
  8
0
  6
Continuous
 62
     7
370
    15
100
AcDbLine
 10
767.0034939763
 20
1177.1015476629
 30
0.0
 11
765.9930788321
 21
1178.8515996381
 31
0.0
  0
ARC
  5
4FC
330
1F
100
AcDbEntity
  8
0
  6
Continuous
 62
     7
370
    15
100
AcDbCircle
 10
764.3476301557
 20
1176.0016165453
 30
0.0
 40
2.525000000000083
100
AcDbArc
 50
25.8239675257
 51
154.1760324743
  0
ARC
  5
4FD
330
1F
100
AcDbEntity
  8
0
  6
Continuous
 62
     7
370
    15
100
AcDbCircle
 10
764.3476301557
 20
1176.0016165453
 30
0.0
 40
2.09999999999997
100
AcDbArc
 50
31.5852330858
 51
148.4147669142
  0
LINE
  5
4FE
330
1F
100
AcDbEntity
  8
0
  6
Continuous
 62
     7
370
    15
100
AcDbLine
 10
742.7021820438
 20
1178.8515996381
 30
0.0
 11
741.6917668996
 21
1177.1015476629
 31
0.0
  0
LINE
  5
4FF
330
1F
100
AcDbEntity
  8
0
  6
Continuous
 62
     7
370
    15
100
AcDbLine
 10
745.9930783478
 20
1178.8515996381
 30
0.0
 11
742.7021820438
 21
1178.8515996381
 31
0.0
  0
ARC
  5
500
330
1F
100
AcDbEntity
  8
0
  6
Continuous
 62
     7
370
    15
100
AcDbCircle
 10
744.3476301557
 20
1176.0016165453
 30
0.0
 40
4.250000000000068
100
AcDbArc
 50
14.9990012347
 51
165.0009987653
  0
LINE
  5
501
330
1F
100
AcDbEntity
  8
0
  6
Continuous
 62
     7
370
    15
100
AcDbLine
 10
747.003493492
 20
1177.1015476629
 30
0.0
 11
745.9930783478
 21
1178.8515996381
 31
0.0
  0
ARC
  5
502
330
1F
100
AcDbEntity
  8
0
  6
Continuous
 62
     7
370
    15
100
AcDbCircle
 10
744.3476301557
 20
1176.0016165453
 30
0.0
 40
2.524999999999987
100
AcDbArc
 50
25.8239675257
 51
154.1760324743
  0
ARC
  5
503
330
1F
100
AcDbEntity
  8
0
  6
Continuous
 62
     7
370
    15
100
AcDbCircle
 10
744.3476301557
 20
1176.0016165453
 30
0.0
 40
2.099999999999926
100
AcDbArc
 50
31.5852330857
 51
148.4147669143
  0
LINE
  5
504
330
1F
100
AcDbEntity
  8
0
  6
Continuous
 62
     7
370
    15
100
AcDbLine
 10
712.0034942743
 20
1177.1015476629
 30
0.0
 11
710.9930800614
 21
1178.8515996381
 31
0.0
  0
LINE
  5
505
330
1F
100
AcDbEntity
  8
0
  6
Continuous
 62
     7
370
    15
100
AcDbLine
 10
710.9930800614
 20
1178.8515996381
 30
0.0
 11
707.7021809635
 21
1178.8515996381
 31
0.0
  0
LINE
  5
506
330
1F
100
AcDbEntity
  8
0
  6
Continuous
 62
     7
370
    15
100
AcDbLine
 10
707.7021809635
 20
1178.8515996381
 30
0.0
 11
706.6917667505
 21
1177.1015476629
 31
0.0
  0
ARC
  5
507
330
1F
100
AcDbEntity
  8
0
  6
Continuous
 62
     7
370
    15
100
AcDbCircle
 10
709.3476301557
 20
1176.0016165453
 30
0.0
 40
4.249999999999926
100
AcDbArc
 50
14.9990012348
 51
165.0009987652
  0
ARC
  5
508
330
1F
100
AcDbEntity
  8
0
  6
Continuous
 62
     7
370
    15
100
AcDbCircle
 10
709.3476301557
 20
1176.0016165453
 30
0.0
 40
2.524999999999921
100
AcDbArc
 50
25.8239675258
 51
154.1760324742
  0
ARC
  5
509
330
1F
100
AcDbEntity
  8
0
  6
Continuous
 62
     7
370
    15
100
AcDbCircle
 10
709.3476301557
 20
1176.0016165453
 30
0.0
 40
2.099999999999887
100
AcDbArc
 50
31.5852330859
 51
148.4147669141
  0
LINE
  5
50A
330
1F
100
AcDbEntity
  8
0
  6
Continuous
 62
     7
370
    15
100
AcDbLine
 10
360.5507227001
 20
1191.4139341756
 30
0.0
 11
360.7021781025
 21
1191.151614134
 31
0.0
  0
LINE
  5
50B
330
1F
100
AcDbEntity
  8
0
  6
Continuous
 62
     7
370
    15
100
AcDbLine
 10
360.7021781025
 20
1191.151614134
 30
0.0
 11
363.9930697498
 21
1191.151614134
 31
0.0
  0
ARC
  5
50C
330
1F
100
AcDbEntity
  8
0
  6
Continuous
 62
     7
370
    15
100
AcDbCircle
 10
362.3476301557
 20
1194.0016165453
 30
0.0
 40
4.250000000000227
100
AcDbArc
 50
270.0
 51
322.4925490335
  0
ARC
  5
50D
330
1F
100
AcDbEntity
  8
0
  6
Continuous
 62
     7
370
    15
100
AcDbCircle
 10
362.3476301557
 20
1194.0016165453
 30
0.0
 40
4.250000000000227
100
AcDbArc
 50
217.5074509665
 51
270.0
  0
LINE
  5
50E
330
1F
100
AcDbEntity
  8
0
  6
Continuous
 62
     7
370
    15
100
AcDbLine
 10
363.9930697498
 20
1191.151614134
 30
0.0
 11
364.1445251522
 21
1191.4139341756
 31
0.0
  0
LINE
  5
50F
330
1F
100
AcDbEntity
  8
0
  6
Continuous
 62
     7
370
    15
100
AcDbLine
 10
320.5507310447
 20
1191.4139341756
 30
0.0
 11
320.7021864471
 21
1191.151614134
 31
0.0
  0
LINE
  5
510
330
1F
100
AcDbEntity
  8
0
  6
Continuous
 62
     7
370
    15
100
AcDbLine
 10
320.7021864471
 20
1191.151614134
 30
0.0
 11
323.9930780945
 21
1191.151614134
 31
0.0
  0
ARC
  5
511
330
1F
100
AcDbEntity
  8
0
  6
Continuous
 62
     7
370
    15
100
AcDbCircle
 10
322.3476301557
 20
1194.0016165453
 30
0.0
 40
4.25
100
AcDbArc
 50
270.0
 51
322.4925490336
  0
ARC
  5
512
330
1F
100
AcDbEntity
  8
0
  6
Continuous
 62
     7
370
    15
100
AcDbCircle
 10
322.3476301557
 20
1194.0016165453
 30
0.0
 40
4.25
100
AcDbArc
 50
217.5074509664
 51
270.0
  0
LINE
  5
513
330
1F
100
AcDbEntity
  8
0
  6
Continuous
 62
     7
370
    15
100
AcDbLine
 10
323.9930780945
 20
1191.151614134
 30
0.0
 11
324.1445334968
 21
1191.4139341756
 31
0.0
  0
LINE
  5
514
330
1F
100
AcDbEntity
  8
0
  6
Continuous
 62
     7
370
    15
100
AcDbLine
 10
802.0034941253
 20
1177.1015476629
 30
0.0
 11
800.9930799124
 21
1178.8515996381
 31
0.0
  0
LINE
  5
515
330
1F
100
AcDbEntity
  8
0
  6
Continuous
 62
     7
370
    15
100
AcDbLine
 10
797.7021808145
 20
1178.8515996381
 30
0.0
 11
796.6917666015
 21
1177.1015476629
 31
0.0
  0
ARC
  5
516
330
1F
100
AcDbEntity
  8
0
  6
Continuous
 62
     7
370
    15
100
AcDbCircle
 10
799.3476301557
 20
1176.0016165453
 30
0.0
 40
4.249999999999957
100
AcDbArc
 50
14.9990012347
 51
165.0009987653
  0
LINE
  5
517
330
1F
100
AcDbEntity
  8
0
  6
Continuous
 62
     7
370
    15
100
AcDbLine
 10
800.9930799124
 20
1178.8515996381
 30
0.0
 11
797.7021808145
 21
1178.8515996381
 31
0.0
  0
ARC
  5
518
330
1F
100
AcDbEntity
  8
0
  6
Continuous
 62
     7
370
    15
100
AcDbCircle
 10
799.3476301557
 20
1176.0016165453
 30
0.0
 40
2.524999999999987
100
AcDbArc
 50
25.8239675257
 51
154.1760324743
  0
ARC
  5
519
330
1F
100
AcDbEntity
  8
0
  6
Continuous
 62
     7
370
    15
100
AcDbCircle
 10
799.3476301557
 20
1176.0016165453
 30
0.0
 40
2.100000000000023
100
AcDbArc
 50
31.5852330857
 51
148.4147669143
  0
LINE
  5
51A
330
1F
100
AcDbEntity
  8
0
  6
Continuous
 62
     7
370
    15
100
AcDbLine
 10
1134.7476156769
 20
723.7016212389
 30
0.0
 11
1134.3976172027
 21
723.7016212389
 31
0.0
  0
LINE
  5
51B
330
1F
100
AcDbEntity
  8
0
  6
Continuous
 62
     7
370
    15
100
AcDbLine
 10
374.3976267395
 20
723.7016212389
 30
0.0
 11
373.9476414737
 21
723.7016212389
 31
0.0
  0
LINE
  5
51C
330
1F
100
AcDbEntity
  8
0
  6
Continuous
 62
     7
370
    15
100
AcDbLine
 10
1156.8476172504
 20
68.4016298696
 30
0.0
 11
1099.8476358471
 21
68.4016298696
 31
0.0
  0
LINE
  5
51D
330
1F
100
AcDbEntity
  8
0
  6
Continuous
 62
     7
370
    15
100
AcDbLine
 10
1154.8476429996
 20
62.4015879079
 30
0.0
 11
1101.8476399002
 21
62.4015879079
 31
0.0
  0
LINE
  5
51E
330
1F
100
AcDbEntity
  8
0
  6
Continuous
 62
     7
370
    15
100
AcDbLine
 10
406.8476172504
 20
62.4015879079
 30
0.0
 11
353.8476439533
 21
62.4015879079
 31
0.0
  0
LINE
  5
51F
330
1F
100
AcDbEntity
  8
0
  6
Continuous
 62
     7
370
    15
100
AcDbLine
 10
408.8476213035
 20
68.4016298696
 30
0.0
 11
351.8476399002
 21
68.4016298696
 31
0.0
  0
LINE
  5
520
330
1F
100
AcDbEntity
  8
0
  6
Continuous
 62
     7
370
    15
100
AcDbLine
 10
335.3476437149
 20
230.4016303465
 30
0.0
 11
335.3476437149
 21
232.4016045972
 31
0.0
  0
LINE
  5
521
330
1F
100
AcDbEntity
  8
0
  6
Continuous
 62
     7
370
    15
100
AcDbLine
 10
335.3476437149
 20
230.4016303465
 30
0.0
 11
425.3476174888
 21
230.4016303465
 31
0.0
  0
LINE
  5
522
330
1F
100
AcDbEntity
  8
0
  6
Continuous
 62
     7
370
    15
100
AcDbLine
 10
367.8476425228
 20
232.4016045972
 30
0.0
 11
368.3476360855
 21
232.4016045972
 31
0.0
  0
LINE
  5
523
330
1F
100
AcDbEntity
  8
0
  6
Continuous
 62
     7
370
    15
100
AcDbLine
 10
425.3476174888
 20
230.4016303465
 30
0.0
 11
425.3476174888
 21
232.4016045972
 31
0.0
  0
LINE
  5
524
330
1F
100
AcDbEntity
  8
0
  6
Continuous
 62
     7
370
    15
100
AcDbLine
 10
411.3072665748
 20
136.4016186639
 30
0.0
 11
349.3879946289
 21
136.4016186639
 31
0.0
  0
LINE
  5
525
330
1F
100
AcDbEntity
  8
0
  6
Continuous
 62
     7
370
    15
100
AcDbLine
 10
1173.347643238
 20
230.4016303465
 30
0.0
 11
1173.347643238
 21
232.4016045972
 31
0.0
  0
LINE
  5
526
330
1F
100
AcDbEntity
  8
0
  6
Continuous
 62
     7
370
    15
100
AcDbLine
 10
1083.3476396618
 20
230.4016303465
 30
0.0
 11
1083.3476396618
 21
232.4016045972
 31
0.0
  0
LINE
  5
527
330
1F
100
AcDbEntity
  8
0
  6
Continuous
 62
     7
370
    15
100
AcDbLine
 10
1083.3476396618
 20
230.4016303465
 30
0.0
 11
1173.347643238
 21
230.4016303465
 31
0.0
  0
LINE
  5
528
330
1F
100
AcDbEntity
  8
0
  6
Continuous
 62
     7
370
    15
100
AcDbLine
 10
1140.3476210651
 20
232.4016045972
 30
0.0
 11
1140.8476444301
 21
232.4016045972
 31
0.0
  0
LINE
  5
529
330
1F
100
AcDbEntity
  8
0
  6
Continuous
 62
     7
370
    15
100
AcDbLine
 10
1159.307292324
 20
136.4016186639
 30
0.0
 11
1097.3879905758
 21
136.4016186639
 31
0.0
  0
LINE
  5
52A
330
1F
100
AcDbEntity
  8
0
  6
CENTERX2
 62
     7
370
     0
100
AcDbLine
 10
380.3476301558
 20
177.5530884079
 30
0.0
 11
380.3476301558
 21
38.4016165453
 31
0.0
  0
LINE
  5
52B
330
1F
100
AcDbEntity
  8
0
  6
CENTERX2
 62
     7
370
     0
100
AcDbLine
 10
1128.3476301558
 20
177.5530884079
 30
0.0
 11
1128.3476301558
 21
38.4016165453
 31
0.0
  0
ENDSEC
  0
SECTION
  2
OBJECTS
  0
DICTIONARY
  5
C
330
0
100
AcDbDictionary
281
     1
  3
ACAD_GROUP
350
D
  3
ACAD_LAYOUT
350
1A
  3
ACAD_MLINESTYLE
350
17
  3
ACAD_PLOTSETTINGS
350
19
  3
ACAD_PLOTSTYLENAME
350
E
  0
DICTIONARY
  5
D
102
{ACAD_REACTORS
330
C
102
}
330
C
100
AcDbDictionary
281
     1
  0
DICTIONARY
  5
1A
102
{ACAD_REACTORS
330
C
102
}
330
C
100
AcDbDictionary
281
     1
  3
Layout1
350
1E
  3
Layout2
350
26
  3
Model
350
22
  0
DICTIONARY
  5
17
102
{ACAD_REACTORS
330
C
102
}
330
C
100
AcDbDictionary
281
     1
  3
Standard
350
18
  0
DICTIONARY
  5
19
102
{ACAD_REACTORS
330
C
102
}
330
C
100
AcDbDictionary
281
     1
  0
ACDBDICTIONARYWDFLT
  5
E
102
{ACAD_REACTORS
330
C
102
}
330
C
100
AcDbDictionary
281
     1
  3
Normal
350
F
100
AcDbDictionaryWithDefault
340
F
  0
LAYOUT
  5
1E
102
{ACAD_REACTORS
330
1A
102
}
330
1A
100
AcDbPlotSettings
  1

  2
none_device
  4

  6

 40
0.0
 41
0.0
 42
0.0
 43
0.0
 44
0.0
 45
0.0
 46
0.0
 47
0.0
 48
0.0
 49
0.0
140
0.0
141
0.0
142
1.0
143
1.0
 70
   688
 72
     0
 73
     0
 74
     5
  7

 75
    16
147
1.0
148
0.0
149
0.0
100
AcDbLayout
  1
Layout1
 70
     1
 71
     1
 10
0.0
 20
0.0
 11
420.0
 21
297.0
 12
0.0
 22
0.0
 32
0.0
 14
1.0000000000E+20
 24
1.0000000000E+20
 34
1.0000000000E+20
 15
-1.0000000000E+20
 25
-1.0000000000E+20
 35
-1.0000000000E+20
146
0.0
 13
0.0
 23
0.0
 33
0.0
 16
1.0
 26
0.0
 36
0.0
 17
0.0
 27
1.0
 37
0.0
 76
     0
330
1B
  0
LAYOUT
  5
26
102
{ACAD_REACTORS
330
1A
102
}
330
1A
100
AcDbPlotSettings
  1

  2
none_device
  4

  6

 40
0.0
 41
0.0
 42
0.0
 43
0.0
 44
0.0
 45
0.0
 46
0.0
 47
0.0
 48
0.0
 49
0.0
140
0.0
141
0.0
142
1.0
143
1.0
 70
   688
 72
     0
 73
     0
 74
     5
  7

 75
    16
147
1.0
148
0.0
149
0.0
100
AcDbLayout
  1
Layout2
 70
     1
 71
     2
 10
0.0
 20
0.0
 11
0.0
 21
0.0
 12
0.0
 22
0.0
 32
0.0
 14
0.0
 24
0.0
 34
0.0
 15
0.0
 25
0.0
 35
0.0
146
0.0
 13
0.0
 23
0.0
 33
0.0
 16
1.0
 26
0.0
 36
0.0
 17
0.0
 27
1.0
 37
0.0
 76
     0
330
23
  0
LAYOUT
  5
22
102
{ACAD_REACTORS
330
1A
102
}
330
1A
100
AcDbPlotSettings
  1

  2
none_device
  4

  6

 40
0.0
 41
0.0
 42
0.0
 43
0.0
 44
0.0
 45
0.0
 46
0.0
 47
0.0
 48
0.0
 49
0.0
140
0.0
141
0.0
142
1.0
143
1.0
 70
  1712
 72
     0
 73
     0
 74
     0
  7

 75
     0
147
1.0
148
0.0
149
0.0
100
AcDbLayout
  1
Model
 70
     1
 71
     0
 10
0.0
 20
0.0
 11
1500.0
 21
1500.0
 12
0.0
 22
0.0
 32
0.0
 14
0.0
 24
0.0
 34
0.0
 15
1500.0
 25
1500.0
 35
0.0
146
0.0
 13
0.0
 23
0.0
 33
0.0
 16
1.0
 26
0.0
 36
0.0
 17
0.0
 27
1.0
 37
0.0
 76
     0
330
1F
331
29
  0
MLINESTYLE
  5
18
102
{ACAD_REACTORS
330
17
102
}
330
17
100
AcDbMlineStyle
  2
Standard
 70
     0
  3

 62
   256
 51
90.0
 52
90.0
 71
     2
 49
0.5
 62
   256
  6
BYLAYER
 49
-0.5
 62
   256
  6
BYLAYER
  0
ACDBPLACEHOLDER
  5
F
102
{ACAD_REACTORS
330
E
102
}
330
E
  0
ENDSEC
  0
EOF
