  0
SECTION
  2
HEADER
  9
$ACADVER
  1
AC1015
  9
$ACADMAINTVER
 70
     6
  9
$DWGCODEPAGE
  3
ANSI_1252
  9
$INSBASE
 10
0.0
 20
0.0
 30
0.0
  9
$EXTMIN
 10
0.0
 20
0.0
 30
0.0
  9
$EXTMAX
 10
2000.0
 20
2000.0
 30
0.0
  9
$LIMMIN
 10
0.0
 20
0.0
  9
$LIMMAX
 10
2000.0
 20
2000.0
  9
$ORTHOMODE
 70
     0
  9
$REGENMODE
 70
     1
  9
$FILLMODE
 70
     1
  9
$QTEXTMODE
 70
     0
  9
$MIRRTEXT
 70
     1
  9
$LTSCALE
 40
1.0
  9
$ATTMODE
 70
     1
  9
$TEXTSIZE
 40
3.5
  9
$TRACEWID
 40
1.0
  9
$TEXTSTYLE
  7
STANDARD
  9
$CLAYER
  8
0
  9
$CELTYPE
  6
ByLayer
  9
$CECOLOR
 62
   256
  9
$CELTSCALE
 40
1.0
  9
$DISPSILH
 70
     0
  9
$DIMSCALE
 40
1.0
  9
$DIMASZ
 40
3.302
  9
$DIMEXO
 40
1.0
  9
$DIMDLI
 40
3.75
  9
$DIMRND
 40
0.0
  9
$DIMDLE
 40
0.0
  9
$DIMEXE
 40
1.0
  9
$DIMTP
 40
0.0
  9
$DIMTM
 40
0.0
  9
$DIMTXT
 40
3.5
  9
$DIMCEN
 40
2.5
  9
$DIMTSZ
 40
0.0
  9
$DIMTOL
 70
     0
  9
$DIMLIM
 70
     0
  9
$DIMTIH
 70
     1
  9
$DIMTOH
 70
     1
  9
$DIMSE1
 70
     0
  9
$DIMSE2
 70
     0
  9
$DIMTAD
 70
     1
  9
$DIMZIN
 70
     0
  9
$DIMBLK
  1

  9
$DIMASO
 70
     1
  9
$DIMSHO
 70
     1
  9
$DIMPOST
  1

  9
$DIMAPOST
  1

  9
$DIMALT
 70
     0
  9
$DIMALTD
 70
     3
  9
$DIMALTF
 40
0.0393700787
  9
$DIMLFAC
 40
1.0
  9
$DIMTOFL
 70
     1
  9
$DIMTVP
 40
0.0
  9
$DIMTIX
 70
     0
  9
$DIMSOXD
 70
     0
  9
$DIMSAH
 70
     0
  9
$DIMBLK1
  1

  9
$DIMBLK2
  1

  9
$DIMSTYLE
  2
ISO-25
  9
$DIMCLRD
 70
     0
  9
$DIMCLRE
 70
     0
  9
$DIMCLRT
 70
     0
  9
$DIMTFAC
 40
1.0
  9
$DIMGAP
 40
1.524
  9
$DIMJUST
 70
     0
  9
$DIMSD1
 70
     0
  9
$DIMSD2
 70
     0
  9
$DIMTOLJ
 70
     0
  9
$DIMTZIN
 70
     0
  9
$DIMALTZ
 70
     0
  9
$DIMALTTZ
 70
     0
  9
$DIMUPT
 70
     0
  9
$DIMDEC
 70
     1
  9
$DIMTDEC
 70
     1
  9
$DIMALTU
 70
     2
  9
$DIMALTTD
 70
     3
  9
$DIMTXSTY
  7
STANDARD
  9
$DIMAUNIT
 70
     0
  9
$DIMADEC
 70
     1
  9
$DIMALTRND
 40
0.0
  9
$DIMAZIN
 70
     0
  9
$DIMDSEP
 70
    44
  9
$DIMATFIT
 70
     3
  9
$DIMFRAC
 70
     0
  9
$DIMLDRBLK
  1

  9
$DIMLUNIT
 70
     2
  9
$DIMLWD
 70
    -2
  9
$DIMLWE
 70
    -2
  9
$DIMTMOVE
 70
     0
  9
$LUNITS
 70
     2
  9
$LUPREC
 70
     1
  9
$SKETCHINC
 40
1.0
  9
$FILLETRAD
 40
10.0
  9
$AUNITS
 70
     0
  9
$AUPREC
 70
     1
  9
$MENU
  1
.
  9
$ELEVATION
 40
0.0
  9
$PELEVATION
 40
0.0
  9
$THICKNESS
 40
0.0
  9
$LIMCHECK
 70
     0
  9
$CHAMFERA
 40
10.0
  9
$CHAMFERB
 40
10.0
  9
$CHAMFERC
 40
20.0
  9
$CHAMFERD
 40
0.0
  9
$SKPOLY
 70
     0
  9
$TDCREATE
 40
2455671.28440375
  9
$TDUCREATE
 40
2455671.242737083
  9
$TDUPDATE
 40
2455671.284403761
  9
$TDUUPDATE
 40
2455671.242737095
  9
$TDINDWG
 40
0.0000000116
  9
$TDUSRTIMER
 40
0.0000000116
  9
$USRTIMER
 70
     1
  9
$ANGBASE
 50
0.0
  9
$ANGDIR
 70
     0
  9
$PDMODE
 70
     0
  9
$PDSIZE
 40
-1.0
  9
$PLINEWID
 40
0.0
  9
$SPLFRAME
 70
     0
  9
$SPLINETYPE
 70
     6
  9
$SPLINESEGS
 70
     8
  9
$HANDSEED
  5
36F
  9
$SURFTAB1
 70
     6
  9
$SURFTAB2
 70
     6
  9
$SURFTYPE
 70
     6
  9
$SURFU
 70
     6
  9
$SURFV
 70
     6
  9
$UCSBASE
  2

  9
$UCSNAME
  2

  9
$UCSORG
 10
0.0
 20
0.0
 30
0.0
  9
$UCSXDIR
 10
1.0
 20
0.0
 30
0.0
  9
$UCSYDIR
 10
0.0
 20
1.0
 30
0.0
  9
$UCSORTHOREF
  2

  9
$UCSORTHOVIEW
 70
     0
  9
$UCSORGTOP
 10
0.0
 20
0.0
 30
0.0
  9
$UCSORGBOTTOM
 10
0.0
 20
0.0
 30
0.0
  9
$UCSORGLEFT
 10
0.0
 20
0.0
 30
0.0
  9
$UCSORGRIGHT
 10
0.0
 20
0.0
 30
0.0
  9
$UCSORGFRONT
 10
0.0
 20
0.0
 30
0.0
  9
$UCSORGBACK
 10
0.0
 20
0.0
 30
0.0
  9
$PUCSBASE
  2

  9
$PUCSNAME
  2

  9
$PUCSORG
 10
0.0
 20
0.0
 30
0.0
  9
$PUCSXDIR
 10
1.0
 20
0.0
 30
0.0
  9
$PUCSYDIR
 10
0.0
 20
1.0
 30
0.0
  9
$PUCSORTHOREF
  2

  9
$PUCSORTHOVIEW
 70
     0
  9
$PUCSORGTOP
 10
0.0
 20
0.0
 30
0.0
  9
$PUCSORGBOTTOM
 10
0.0
 20
0.0
 30
0.0
  9
$PUCSORGLEFT
 10
0.0
 20
0.0
 30
0.0
  9
$PUCSORGRIGHT
 10
0.0
 20
0.0
 30
0.0
  9
$PUCSORGFRONT
 10
0.0
 20
0.0
 30
0.0
  9
$PUCSORGBACK
 10
0.0
 20
0.0
 30
0.0
  9
$USERI1
 70
     0
  9
$USERI2
 70
     0
  9
$USERI3
 70
     0
  9
$USERI4
 70
     0
  9
$USERI5
 70
     0
  9
$USERR1
 40
0.0
  9
$USERR2
 40
0.0
  9
$USERR3
 40
0.0
  9
$USERR4
 40
0.0
  9
$USERR5
 40
0.0
  9
$WORLDVIEW
 70
     1
  9
$SHADEDGE
 70
     3
  9
$SHADEDIF
 70
    70
  9
$TILEMODE
 70
     1
  9
$MAXACTVP
 70
    64
  9
$PINSBASE
 10
0.0
 20
0.0
 30
0.0
  9
$PLIMCHECK
 70
     0
  9
$PEXTMIN
 10
1.0000000000E+20
 20
1.0000000000E+20
 30
1.0000000000E+20
  9
$PEXTMAX
 10
-1.0000000000E+20
 20
-1.0000000000E+20
 30
-1.0000000000E+20
  9
$PLIMMIN
 10
0.0
 20
0.0
  9
$PLIMMAX
 10
420.0
 20
297.0
  9
$UNITMODE
 70
     0
  9
$VISRETAIN
 70
     1
  9
$PLINEGEN
 70
     0
  9
$PSLTSCALE
 70
     1
  9
$TREEDEPTH
 70
  3020
  9
$CMLSTYLE
  2
Standard
  9
$CMLJUST
 70
     0
  9
$CMLSCALE
 40
20.0
  9
$PROXYGRAPHICS
 70
     1
  9
$MEASUREMENT
 70
     1
  9
$CELWEIGHT
370
    -1
  9
$ENDCAPS
280
     0
  9
$JOINSTYLE
280
     0
  9
$LWDISPLAY
290
     1
  9
$INSUNITS
 70
     4
  9
$HYPERLINKBASE
  1

  9
$STYLESHEET
  1

  9
$XEDIT
290
     1
  9
$CEPSNTYPE
380
     0
  9
$PSTYLEMODE
290
     1
  9
$FINGERPRINTGUID
  2
{46D0BA66-77CE-4CAF-99A0-F419AD938DF9}
  9
$VERSIONGUID
  2
{FAEB1C32-E019-11D5-929B-00C0DF256EC4}
  9
$EXTNAMES
290
     1
  9
$PSVPSCALE
 40
0.0
  9
$OLESTARTUP
290
     0
  0
ENDSEC
  0
SECTION
  2
CLASSES
  0
CLASS
  1
ACDBDICTIONARYWDFLT
  2
AcDbDictionaryWithDefault
  3
ObjectDBX Classes
 90
        0
280
     0
281
     0
  0
CLASS
  1
VISUALSTYLE
  2
AcDbVisualStyle
  3
ObjectDBX Classes
 90
     4095
280
     0
281
     0
  0
CLASS
  1
MATERIAL
  2
AcDbMaterial
  3
ObjectDBX Classes
 90
     1153
280
     0
281
     0
  0
CLASS
  1
ACDBPLACEHOLDER
  2
AcDbPlaceHolder
  3
ObjectDBX Classes
 90
        0
280
     0
281
     0
  0
CLASS
  1
LAYOUT
  2
AcDbLayout
  3
ObjectDBX Classes
 90
        0
280
     0
281
     0
  0
ENDSEC
  0
SECTION
  2
TABLES
  0
TABLE
  2
VPORT
  5
8
330
0
100
AcDbSymbolTable
 70
     1
  0
VPORT
  5
29
330
8
100
AcDbSymbolTableRecord
100
AcDbViewportTableRecord
  2
*Active
 70
     0
 10
0.0
 20
0.0
 11
1.0
 21
1.0
 12
1000.0
 22
1000.0
 13
0.0
 23
0.0
 14
10.0
 24
10.0
 15
10.0
 25
10.0
 16
0.0
 26
0.0
 36
1.0
 17
0.0
 27
0.0
 37
0.0
 40
2000.0
 41
1.0
 42
50.0
 43
0.0
 44
0.0
 50
0.0
 51
0.0
 71
     0
 72
  2000
 73
     1
 74
     3
 75
     0
 76
     0
 77
     0
 78
     0
281
     0
 65
     1
110
0.0
120
0.0
130
0.0
111
1.0
121
0.0
131
0.0
112
0.0
122
1.0
132
0.0
 79
     0
146
0.0
  0
ENDTAB
  0
TABLE
  2
LTYPE
  5
5
330
0
100
AcDbSymbolTable
 70
     8
  0
LTYPE
  5
14
330
5
100
AcDbSymbolTableRecord
100
AcDbLinetypeTableRecord
  2
ByBlock
 70
     0
  3

 72
    65
 73
     0
 40
0.0
  0
LTYPE
  5
15
330
5
100
AcDbSymbolTableRecord
100
AcDbLinetypeTableRecord
  2
ByLayer
 70
     0
  3

 72
    65
 73
     0
 40
0.0
  0
LTYPE
  5
16
330
5
100
AcDbSymbolTableRecord
100
AcDbLinetypeTableRecord
  2
Continuous
 70
     0
  3
Solid line
 72
    65
 73
     0
 40
0.0
  0
LTYPE
  5
3F
330
5
100
AcDbSymbolTableRecord
100
AcDbLinetypeTableRecord
  2
SLD-Solid
 70
     0
  3
SolidWorks Line Style
 72
    65
 73
     0
 40
0.0
  0
LTYPE
  5
40
330
5
100
AcDbSymbolTableRecord
100
AcDbLinetypeTableRecord
  2
SLD-Dashed
 70
     0
  3
SolidWorks Line Style
 72
    65
 73
     2
 40
1.905
 49
1.27
 74
     0
 49
-0.635
 74
     0
  0
LTYPE
  5
41
330
5
100
AcDbSymbolTableRecord
100
AcDbLinetypeTableRecord
  2
SLD-Phantom
 70
     0
  3
SolidWorks Line Style
 72
    65
 73
     6
 40
12.7
 49
6.35
 74
     0
 49
-1.27
 74
     0
 49
1.27
 74
     0
 49
-1.27
 74
     0
 49
1.27
 74
     0
 49
-1.27
 74
     0
  0
LTYPE
  5
42
330
5
100
AcDbSymbolTableRecord
100
AcDbLinetypeTableRecord
  2
SLD-Chain
 70
     0
  3
SolidWorks Line Style
 72
    65
 73
     4
 40
10.16
 49
6.35
 74
     0
 49
-1.27
 74
     0
 49
1.27
 74
     0
 49
-1.27
 74
     0
  0
LTYPE
  5
43
330
5
100
AcDbSymbolTableRecord
100
AcDbLinetypeTableRecord
  2
SLD-Center
 70
     0
  3
SolidWorks Line Style
 72
    65
 73
     4
 40
19.05
 49
15.24
 74
     0
 49
-1.27
 74
     0
 49
1.27
 74
     0
 49
-1.27
 74
     0
  0
LTYPE
  5
44
330
5
100
AcDbSymbolTableRecord
100
AcDbLinetypeTableRecord
  2
SLD-Stitch
 70
     0
  3
SolidWorks Line Style
 72
    65
 73
     2
 40
0.635
 49
0.0
 74
     0
 49
-0.635
 74
     0
  0
LTYPE
  5
45
330
5
100
AcDbSymbolTableRecord
100
AcDbLinetypeTableRecord
  2
SLD-Thin-Thick-Chain
 70
     0
  3
SolidWorks Line Style
 72
    65
 73
     4
 40
10.16
 49
6.35
 74
     0
 49
-1.27
 74
     0
 49
1.27
 74
     0
 49
-1.27
 74
     0
  0
ENDTAB
  0
TABLE
  2
LAYER
  5
2
330
0
100
AcDbSymbolTable
 70
     4
  0
LAYER
  5
10
330
2
100
AcDbSymbolTableRecord
100
AcDbLayerTableRecord
  2
0
 70
     0
 62
     7
  6
Continuous
370
    -3
390
F
  0
LAYER
  5
46
330
2
100
AcDbSymbolTableRecord
100
AcDbLayerTableRecord
  2
FORMAT
 70
     0
 62
     7
  6
SLD-Solid
370
    -3
390
F
  0
LAYER
  5
47
330
2
100
AcDbSymbolTableRecord
100
AcDbLayerTableRecord
  2
SLD-0
 70
     0
 62
     1
  6
SLD-Solid
370
    -3
390
F
  0
LAYER
  5
48
330
2
100
AcDbSymbolTableRecord
100
AcDbLayerTableRecord
  2
WATERMARK
 70
     0
 62
    20
  6
SLD-Solid
370
    -3
390
F
  0
ENDTAB
  0
TABLE
  2
STYLE
  5
3
330
0
100
AcDbSymbolTable
 70
     1
  0
STYLE
  5
11
330
3
100
AcDbSymbolTableRecord
100
AcDbTextStyleTableRecord
  2
STANDARD
 70
     0
 40
0.0
 41
1.0
 50
0.0
 71
     0
 42
2.5
  3
GOTHIC.TTF
  4

1001
ACAD
1000
CENTURY GOTHIC
1071
       34
  0
ENDTAB
  0
TABLE
  2
VIEW
  5
6
330
0
100
AcDbSymbolTable
 70
     0
  0
ENDTAB
  0
TABLE
  2
UCS
  5
7
330
0
100
AcDbSymbolTable
 70
     0
  0
ENDTAB
  0
TABLE
  2
APPID
  5
9
330
0
100
AcDbSymbolTable
 70
     1
  0
APPID
  5
12
330
9
100
AcDbSymbolTableRecord
100
AcDbRegAppTableRecord
  2
ACAD
 70
     0
  0
ENDTAB
  0
TABLE
  2
DIMSTYLE
  5
A
330
0
100
AcDbSymbolTable
 70
     1
100
AcDbDimStyleTable
  0
DIMSTYLE
105
27
330
A
100
AcDbSymbolTableRecord
100
AcDbDimStyleTableRecord
  2
ISO-25
 70
     0
 41
2.5
 42
0.625
 43
3.75
 44
1.25
 73
     0
 74
     0
 77
     1
 78
     8
140
2.5
141
2.5
143
0.0393700787
147
0.625
171
     3
172
     1
271
     2
272
     2
274
     3
278
    44
283
     0
284
     8
340
11
  0
ENDTAB
  0
TABLE
  2
BLOCK_RECORD
  5
1
330
0
100
AcDbSymbolTable
 70
     1
  0
BLOCK_RECORD
  5
1F
330
1
100
AcDbSymbolTableRecord
100
AcDbBlockTableRecord
  2
*Model_Space
340
22
  0
BLOCK_RECORD
  5
1B
330
1
100
AcDbSymbolTableRecord
100
AcDbBlockTableRecord
  2
*Paper_Space
340
1E
  0
BLOCK_RECORD
  5
23
330
1
100
AcDbSymbolTableRecord
100
AcDbBlockTableRecord
  2
*Paper_Space0
340
26
  0
ENDTAB
  0
ENDSEC
  0
SECTION
  2
BLOCKS
  0
BLOCK
  5
20
330
1F
100
AcDbEntity
  8
0
100
AcDbBlockBegin
  2
*Model_Space
 70
     0
 10
0.0
 20
0.0
 30
0.0
  3
*Model_Space
  1

  0
ENDBLK
  5
21
330
1F
100
AcDbEntity
  8
0
100
AcDbBlockEnd
  0
BLOCK
  5
1C
330
1B
100
AcDbEntity
 67
     1
  8
0
100
AcDbBlockBegin
  2
*Paper_Space
 70
     0
 10
0.0
 20
0.0
 30
0.0
  3
*Paper_Space
  1

  0
ENDBLK
  5
1D
330
1B
100
AcDbEntity
 67
     1
  8
0
100
AcDbBlockEnd
  0
BLOCK
  5
24
330
23
100
AcDbEntity
  8
0
100
AcDbBlockBegin
  2
*Paper_Space0
 70
     0
 10
0.0
 20
0.0
 30
0.0
  3
*Paper_Space0
  1

  0
ENDBLK
  5
25
330
23
100
AcDbEntity
  8
0
100
AcDbBlockEnd
  0
ENDSEC
  0
SECTION
  2
ENTITIES
  0
LINE
  5
49
330
1F
100
AcDbEntity
  8
0
  6
SLD-Solid
 62
     7
370
    15
100
AcDbLine
 10
1381.3028071806
 20
1541.9967976285
 30
0.0
 11
1389.5140026495
 21
1544.6647611333
 31
0.0
  0
LINE
  5
4A
330
1F
100
AcDbEntity
  8
0
  6
SLD-Solid
 62
     7
370
    15
100
AcDbLine
 10
1386.7328499243
 20
1553.2242861462
 30
0.0
 11
1378.5216544554
 21
1550.5563226414
 31
0.0
  0
LWPOLYLINE
  5
4B
330
1F
100
AcDbEntity
  8
0
  6
SLD-Solid
 62
     7
370
    15
100
AcDbPolyline
 90
        7
 70
   128
 43
0.0
 10
628.3668909952
 20
965.8878502322
 10
628.3661459372
 20
965.8657965136
 10
628.3298169062
 20
965.8084717465
 10
628.2774244234
 20
965.7707718087
 10
628.2109056399
 20
965.7449331952
 10
628.128740637
 20
965.7333400918
 10
628.1195913241
 20
965.7338169289
  0
LINE
  5
4C
330
1F
100
AcDbEntity
  8
0
  6
SLD-Solid
 62
     7
370
    15
100
AcDbLine
 10
628.1192933008
 20
965.733176179
 30
0.0
 11
623.0192814753
 21
965.733176179
 31
0.0
  0
ARC
  5
4D
330
1F
100
AcDbEntity
  8
0
  6
SLD-Solid
 62
     7
370
    15
100
AcDbCircle
 10
623.0192907199
 20
965.483174988
 30
0.0
 40
0.2500000000001137
100
AcDbArc
 50
90.0
 51
180.0
  0
ARC
  5
4E
330
1F
100
AcDbEntity
  8
0
  6
SLD-Solid
 62
     7
370
    15
100
AcDbCircle
 10
623.0192907199
 20
961.0453537733
 30
0.0
 40
0.2500000000001137
100
AcDbArc
 50
180.0
 51
270.0
  0
LINE
  5
4F
330
1F
100
AcDbEntity
  8
0
  6
SLD-Solid
 62
     7
370
    15
100
AcDbLine
 10
623.0192814753
 20
960.7953560425
 30
0.0
 11
628.1192933008
 21
960.7953560425
 31
0.0
  0
ARC
  5
50
330
1F
100
AcDbEntity
  8
0
  6
SLD-Solid
 62
     7
370
    15
100
AcDbCircle
 10
629.3192907199
 20
961.7757928834
 30
0.0
 40
0.25
100
AcDbArc
 50
301.0756875734
 51
0.0
  0
LINE
  5
51
330
1F
100
AcDbEntity
  8
0
  6
SLD-Solid
 62
     7
370
    15
100
AcDbLine
 10
628.1192933008
 20
979.6562251521
 30
0.0
 11
623.0192814753
 21
979.6562251521
 31
0.0
  0
ARC
  5
52
330
1F
100
AcDbEntity
  8
0
  6
SLD-Solid
 62
     7
370
    15
100
AcDbCircle
 10
623.0192907199
 20
979.4062319934
 30
0.0
 40
0.25
100
AcDbArc
 50
90.0
 51
180.0
  0
LWPOLYLINE
  5
53
330
1F
100
AcDbEntity
  8
0
  6
SLD-Solid
 62
     7
370
    15
100
AcDbPolyline
 90
        7
 70
   128
 43
0.0
 10
628.3703480646
 20
973.7818446828
 10
628.3707056925
 20
973.7899509144
 10
628.3894513533
 20
973.8194701148
 10
628.4329925463
 20
973.8536831809
 10
628.4952495978
 20
973.8813099337
 10
628.579113333
 20
973.8983121587
 10
628.6192868635
 20
973.8983121587
  0
LINE
  5
54
330
1F
100
AcDbEntity
  8
0
  6
SLD-Solid
 62
     7
370
    15
100
AcDbLine
 10
628.6192868635
 20
973.9002046061
 30
0.0
 11
633.7192986891
 21
973.9002046061
 31
0.0
  0
ARC
  5
55
330
1F
100
AcDbEntity
  8
0
  6
SLD-Solid
 62
     7
370
    15
100
AcDbCircle
 10
633.7192907199
 20
974.1502022193
 30
0.0
 40
0.25
100
AcDbArc
 50
270.0
 51
0.0
  0
ARC
  5
56
330
1F
100
AcDbEntity
  8
0
  6
SLD-Solid
 62
     7
370
    15
100
AcDbCircle
 10
633.7192907199
 20
978.9763691915
 30
0.0
 40
0.25
100
AcDbArc
 50
0.0
 51
90.0
  0
LINE
  5
57
330
1F
100
AcDbEntity
  8
0
  6
SLD-Solid
 62
     7
370
    15
100
AcDbLine
 10
633.7192986891
 20
979.2263713551
 30
0.0
 11
628.6192868635
 21
979.2263713551
 31
0.0
  0
ARC
  5
58
330
1F
100
AcDbEntity
  8
0
  6
SLD-Solid
 62
     7
370
    15
100
AcDbCircle
 10
627.4192907199
 20
978.6757928834
 30
0.0
 40
0.2500000000001137
100
AcDbArc
 50
90.0
 51
180.0
  0
LINE
  5
59
330
1F
100
AcDbEntity
  8
0
  6
SLD-Solid
 62
     7
370
    15
100
AcDbLine
 10
627.6825104639
 20
978.9258000327
 30
0.0
 11
627.4192963526
 21
978.9258000327
 31
0.0
  0
LINE
  5
5A
330
1F
100
AcDbEntity
  8
0
  6
SLD-Solid
 62
     7
370
    15
100
AcDbLine
 10
629.190806
 20
961.22521729
 30
0.0
 11
633.7192986891
 21
961.22521729
 31
0.0
  0
ARC
  5
5B
330
1F
100
AcDbEntity
  8
0
  6
SLD-Solid
 62
     7
370
    15
100
AcDbCircle
 10
633.7192907199
 20
961.4752165753
 30
0.0
 40
0.2500000000001137
100
AcDbArc
 50
270.0
 51
0.0
  0
LINE
  5
5C
330
1F
100
AcDbEntity
  8
0
  6
SLD-Solid
 62
     7
370
    15
100
AcDbLine
 10
635.0192759916
 20
965.2257916403
 30
0.0
 11
635.2156434939
 21
964.8856949878
 31
0.0
  0
LINE
  5
5D
330
1F
100
AcDbEntity
  8
0
  6
SLD-Solid
 62
     7
370
    15
100
AcDbLine
 10
635.2156434939
 20
975.5658862067
 30
0.0
 11
635.0192759916
 21
975.2257970048
 31
0.0
  0
LINE
  5
5E
330
1F
100
AcDbEntity
  8
0
  6
SLD-Solid
 62
     7
370
    15
100
AcDbLine
 10
634.7692941115
 20
975.2257970048
 30
0.0
 11
634.6810792372
 21
975.3785637093
 31
0.0
  0
LINE
  5
5F
330
1F
100
AcDbEntity
  8
0
  6
SLD-Solid
 62
     7
370
    15
100
AcDbLine
 10
629.5692954943
 20
965.2257916403
 30
0.0
 11
629.6575103686
 21
965.0730174852
 31
0.0
  0
LINE
  5
60
330
1F
100
AcDbEntity
  8
0
  6
SLD-Solid
 62
     7
370
    15
100
AcDbLine
 10
634.6810792372
 20
965.0730174852
 30
0.0
 11
634.7692941115
 21
965.2257916403
 31
0.0
  0
LINE
  5
61
330
1F
100
AcDbEntity
  8
0
  6
SLD-Solid
 62
     7
370
    15
100
AcDbLine
 10
635.0192759916
 20
973.2257929516
 30
0.0
 11
634.7692941115
 21
973.2257929516
 31
0.0
  0
LINE
  5
62
330
1F
100
AcDbEntity
  8
0
  6
SLD-Solid
 62
     7
370
    15
100
AcDbLine
 10
634.7692941115
 20
967.2257956935
 30
0.0
 11
635.0192759916
 21
967.2257956935
 31
0.0
  0
LINE
  5
63
330
1F
100
AcDbEntity
  8
0
  6
SLD-Solid
 62
     7
370
    15
100
AcDbLine
 10
1380.7283376143
 20
1553.4730163289
 30
0.0
 11
1377.8751824782
 21
1552.5459852887
 31
0.0
  0
LINE
  5
64
330
1F
100
AcDbEntity
  8
0
  6
SLD-Solid
 62
     7
370
    15
100
AcDbLine
 10
1384.040061085
 20
1533.5723963452
 30
0.0
 11
1386.8932460234
 21
1534.4994273854
 31
0.0
  0
LWPOLYLINE
  5
65
330
1F
100
AcDbEntity
  8
0
  6
SLD-Solid
 62
     7
370
    15
100
AcDbPolyline
 90
        3
 70
   128
 43
0.0
 10
1385.3021298334
 20
1552.7594295216
 10
1385.2695260927
 20
1552.7566281033
 10
1385.1737712309
 20
1552.7356472684
  0
ARC
  5
66
330
1F
100
AcDbEntity
  8
0
  6
SLD-Solid
 62
     7
370
    15
100
AcDbCircle
 10
1389.9017439227
 20
1538.1844694511
 30
0.0
 40
0.5000000000001985
100
AcDbArc
 50
288.0
 51
18.0
  0
LINE
  5
67
330
1F
100
AcDbEntity
  8
0
  6
SLD-Solid
 62
     7
370
    15
100
AcDbLine
 10
1385.1737712309
 20
1552.7356472684
 30
0.0
 11
1381.3695643828
 21
1551.499566145
 31
0.0
  0
LINE
  5
68
330
1F
100
AcDbEntity
  8
0
  6
SLD-Solid
 62
     7
370
    15
100
AcDbLine
 10
1386.2520192549
 20
1536.4728775693
 30
0.0
 11
1390.0562559054
 21
1537.7089586926
 31
0.0
  0
LINE
  5
69
330
1F
100
AcDbEntity
  8
0
  6
SLD-Solid
 62
     7
370
    15
100
AcDbLine
 10
1389.2554675028
 20
1551.9326534939
 30
0.0
 11
1387.3533640787
 21
1551.3146129323
 31
0.0
  0
LINE
  5
6A
330
1F
100
AcDbEntity
  8
0
  6
SLD-Solid
 62
     7
370
    15
100
AcDbLine
 10
1389.9060223982
 20
1539.7893396092
 30
0.0
 11
1392.8864036486
 21
1540.7577362729
 31
0.0
  0
LINE
  5
6B
330
1F
100
AcDbEntity
  8
0
  6
SLD-Solid
 62
     7
370
    15
100
AcDbLine
 10
1400.0686143324
 20
1518.6532345486
 30
0.0
 11
1408.3431099341
 21
1525.5476442052
 31
0.0
  0
LINE
  5
6C
330
1F
100
AcDbEntity
  8
0
  6
SLD-Solid
 62
     7
370
    15
100
AcDbLine
 10
1382.4771676943
 20
1580.3061333371
 30
0.0
 11
1379.9825046942
 21
1580.4718938542
 31
0.0
  0
LINE
  5
6D
330
1F
100
AcDbEntity
  8
0
  6
SLD-Solid
 62
     7
370
    15
100
AcDbLine
 10
1390.7291327402
 20
1579.7578302098
 30
0.0
 11
1387.465987055
 21
1579.9746719075
 31
0.0
  0
LINE
  5
6E
330
1F
100
AcDbEntity
  8
0
  6
SLD-Solid
 62
     7
370
    15
100
AcDbLine
 10
1391.226175873
 20
1579.7035899831
 30
0.0
 11
1390.7291327402
 21
1579.7578302098
 31
0.0
  0
LINE
  5
6F
330
1F
100
AcDbEntity
  8
0
  6
SLD-Solid
 62
     7
370
    15
100
AcDbLine
 10
1408.3431099341
 20
1525.5476442052
 30
0.0
 11
1424.1043065474
 21
1539.8529377652
 31
0.0
  0
ARC
  5
70
330
1F
100
AcDbEntity
  8
0
  6
SLD-Solid
 62
     7
370
    15
100
AcDbCircle
 10
1423.4322146592
 20
1540.5934047979
 30
0.0
 40
1.000000000000163
100
AcDbArc
 50
312.2277453179
 51
18.0
  0
LINE
  5
71
330
1F
100
AcDbEntity
  8
0
  6
SLD-Solid
 62
     7
370
    15
100
AcDbLine
 10
1390.3211091444
 20
1542.1807971669
 30
0.0
 11
1392.2340010092
 21
1542.7656379414
 31
0.0
  0
LINE
  5
72
330
1F
100
AcDbEntity
  8
0
  6
SLD-Solid
 62
     7
370
    15
100
AcDbLine
 10
1387.4694739268
 20
1579.9844470692
 30
0.0
 11
1382.4750517294
 21
1580.3163257313
 31
0.0
  0
LINE
  5
73
330
1F
100
AcDbEntity
  8
0
  6
SLD-Solid
 62
     7
370
    15
100
AcDbLine
 10
639.9692927286
 20
1576.3257947636
 30
0.0
 11
639.0692923948
 21
1576.3257947636
 31
0.0
  0
LINE
  5
74
330
1F
100
AcDbEntity
  8
0
  6
SLD-Solid
 62
     7
370
    15
100
AcDbLine
 10
639.0692923948
 20
1544.3257895184
 30
0.0
 11
639.9692927286
 21
1544.3257895184
 31
0.0
  0
LINE
  5
75
330
1F
100
AcDbEntity
  8
0
  6
SLD-Solid
 62
     7
370
    15
100
AcDbLine
 10
1329.7692869589
 20
334.8257747365
 30
0.0
 11
1329.7692869589
 21
338.8257828427
 31
0.0
  0
LINE
  5
76
330
1F
100
AcDbEntity
  8
0
  6
SLD-Solid
 62
     7
370
    15
100
AcDbLine
 10
1272.7692906544
 20
338.8257828427
 30
0.0
 11
1272.7692906544
 21
334.8257747365
 31
0.0
  0
ARC
  5
77
330
1F
100
AcDbEntity
  8
0
  6
SLD-Solid
 62
     7
370
    15
100
AcDbCircle
 10
1327.7692907199
 20
334.8257928834
 30
0.0
 40
2.0
100
AcDbArc
 50
270.0
 51
0.0
  0
ARC
  5
78
330
1F
100
AcDbEntity
  8
0
  6
SLD-Solid
 62
     7
370
    15
100
AcDbCircle
 10
1274.7692907199
 20
334.8257928834
 30
0.0
 40
2.0
100
AcDbArc
 50
180.0
 51
270.0
  0
LINE
  5
79
330
1F
100
AcDbEntity
  8
0
  6
SLD-Solid
 62
     7
370
    15
100
AcDbLine
 10
740.7693003103
 20
334.8257747365
 30
0.0
 11
740.7693003103
 21
338.8257828427
 31
0.0
  0
LINE
  5
7A
330
1F
100
AcDbEntity
  8
0
  6
SLD-Solid
 62
     7
370
    15
100
AcDbLine
 10
683.7692891047
 20
338.8257828427
 30
0.0
 11
683.7692891047
 21
334.8257747365
 31
0.0
  0
ARC
  5
7B
330
1F
100
AcDbEntity
  8
0
  6
SLD-Solid
 62
     7
370
    15
100
AcDbCircle
 10
738.7692907199
 20
334.8257928834
 30
0.0
 40
2.0
100
AcDbArc
 50
270.0
 51
0.0
  0
ARC
  5
7C
330
1F
100
AcDbEntity
  8
0
  6
SLD-Solid
 62
     7
370
    15
100
AcDbCircle
 10
685.7692907199
 20
334.8257928834
 30
0.0
 40
2.0
100
AcDbArc
 50
180.0
 51
270.0
  0
LINE
  5
7D
330
1F
100
AcDbEntity
  8
0
  6
SLD-Solid
 62
     7
370
    15
100
AcDbLine
 10
1329.5692835734
 20
338.8257828427
 30
0.0
 11
1329.5692835734
 21
406.8258014394
 31
0.0
  0
LINE
  5
7E
330
1F
100
AcDbEntity
  8
0
  6
SLD-Solid
 62
     7
370
    15
100
AcDbLine
 10
1272.9692940399
 20
406.8258014394
 30
0.0
 11
1272.9692940399
 21
338.8257828427
 31
0.0
  0
LINE
  5
7F
330
1F
100
AcDbEntity
  8
0
  6
SLD-Solid
 62
     7
370
    15
100
AcDbLine
 10
740.5692969248
 20
338.8257828427
 30
0.0
 11
740.5692969248
 21
406.8258014394
 31
0.0
  0
LINE
  5
80
330
1F
100
AcDbEntity
  8
0
  6
SLD-Solid
 62
     7
370
    15
100
AcDbLine
 10
683.9692924902
 20
406.8258014394
 30
0.0
 11
683.9692924902
 21
338.8257828427
 31
0.0
  0
ARC
  5
81
330
1F
100
AcDbEntity
  8
0
  6
SLD-Solid
 62
     7
370
    15
100
AcDbCircle
 10
745.6692907199
 20
499.3257928834
 30
0.0
 40
1.500000000000057
100
AcDbArc
 50
90.0
 51
180.0
  0
ARC
  5
82
330
1F
100
AcDbEntity
  8
0
  6
SLD-Solid
 62
     7
370
    15
100
AcDbCircle
 10
678.8692907199
 20
499.3257928834
 30
0.0
 40
1.500000000000057
100
AcDbArc
 50
0.0
 51
90.0
  0
ARC
  5
83
330
1F
100
AcDbEntity
  8
0
  6
SLD-Solid
 62
     7
370
    15
100
AcDbCircle
 10
739.4692907199
 20
412.8583588291
 30
0.0
 40
4.700000000000045
100
AcDbArc
 50
350.5402980318
 51
0.0
  0
ARC
  5
84
330
1F
100
AcDbEntity
  8
0
  6
SLD-Solid
 62
     7
370
    15
100
AcDbCircle
 10
685.0692907199
 20
412.8583588291
 30
0.0
 40
4.700000000000045
100
AcDbArc
 50
180.0
 51
189.4597019682
  0
LINE
  5
85
330
1F
100
AcDbEntity
  8
0
  6
SLD-Solid
 62
     7
370
    15
100
AcDbLine
 10
744.1692982599
 20
412.8583577347
 30
0.0
 11
744.1692982599
 21
499.3258026314
 31
0.0
  0
LINE
  5
86
330
1F
100
AcDbEntity
  8
0
  6
SLD-Solid
 62
     7
370
    15
100
AcDbLine
 10
680.3692911551
 20
499.3258026314
 30
0.0
 11
680.3692911551
 21
412.8583577347
 31
0.0
  0
LINE
  5
87
330
1F
100
AcDbEntity
  8
0
  6
SLD-Solid
 62
     7
370
    15
100
AcDbLine
 10
680.4332171366
 20
412.0858815385
 30
0.0
 11
681.3096438334
 21
406.8258014394
 31
0.0
  0
LINE
  5
88
330
1F
100
AcDbEntity
  8
0
  6
SLD-Solid
 62
     7
370
    15
100
AcDbLine
 10
743.2289455816
 20
406.8258014394
 30
0.0
 11
744.1053722784
 21
412.0858815385
 31
0.0
  0
ARC
  5
89
330
1F
100
AcDbEntity
  8
0
  6
SLD-Solid
 62
     7
370
    15
100
AcDbCircle
 10
1334.6692907199
 20
499.3257928834
 30
0.0
 40
1.5
100
AcDbArc
 50
90.0
 51
180.0
  0
ARC
  5
8A
330
1F
100
AcDbEntity
  8
0
  6
SLD-Solid
 62
     7
370
    15
100
AcDbCircle
 10
1267.8692907199
 20
499.3257928834
 30
0.0
 40
1.5
100
AcDbArc
 50
0.0
 51
90.0
  0
LINE
  5
8B
330
1F
100
AcDbEntity
  8
0
  6
SLD-Solid
 62
     7
370
    15
100
AcDbLine
 10
1333.1692849085
 20
412.8583577347
 30
0.0
 11
1333.1692849085
 21
499.3258026314
 31
0.0
  0
LINE
  5
8C
330
1F
100
AcDbEntity
  8
0
  6
SLD-Solid
 62
     7
370
    15
100
AcDbLine
 10
1269.3692927048
 20
499.3258026314
 30
0.0
 11
1269.3692927048
 21
412.8583577347
 31
0.0
  0
ARC
  5
8D
330
1F
100
AcDbEntity
  8
0
  6
SLD-Solid
 62
     7
370
    15
100
AcDbCircle
 10
1328.4692907199
 20
412.8583588291
 30
0.0
 40
4.700000000000273
100
AcDbArc
 50
350.5402980318
 51
0.0
  0
ARC
  5
8E
330
1F
100
AcDbEntity
  8
0
  6
SLD-Solid
 62
     7
370
    15
100
AcDbCircle
 10
1274.0692907199
 20
412.8583588291
 30
0.0
 40
4.700000000000273
100
AcDbArc
 50
180.0
 51
189.4597019682
  0
LINE
  5
8F
330
1F
100
AcDbEntity
  8
0
  6
SLD-Solid
 62
     7
370
    15
100
AcDbLine
 10
1269.4332037852
 20
412.0858815385
 30
0.0
 11
1270.3096453831
 21
406.8258014394
 31
0.0
  0
LINE
  5
90
330
1F
100
AcDbEntity
  8
0
  6
SLD-Solid
 62
     7
370
    15
100
AcDbLine
 10
1332.2289322302
 20
406.8258014394
 30
0.0
 11
1333.1053887293
 21
412.0858815385
 31
0.0
  0
LWPOLYLINE
  5
91
330
1F
100
AcDbEntity
  8
0
  6
SLD-Solid
 62
     7
370
    15
100
AcDbPolyline
 90
        7
 70
   128
 43
0.0
 10
1442.6356290266
 20
1384.0670195294
 10
1442.3767064497
 20
1384.0452638341
 10
1442.2325526163
 20
1384.0424624158
 10
1442.372206299
 20
1384.0400186253
 10
1442.6829849169
 20
1384.0379324628
 10
1442.9159794733
 20
1384.0378728581
 10
1444.1217218325
 20
1384.0376344395
  0
LWPOLYLINE
  5
92
330
1F
100
AcDbEntity
  8
0
  6
SLD-Solid
 62
     7
370
    15
100
AcDbPolyline
 90
        5
 70
   128
 43
0.0
 10
1406.5704677984
 20
1384.0520587636
 10
1410.7743237898
 20
1384.0525952054
 10
1426.2231622622
 20
1384.1537442876
 10
1435.7576404497
 20
1384.0794769002
 10
1441.1533211157
 20
1383.8861194325
  0
LWPOLYLINE
  5
93
330
1F
100
AcDbEntity
  8
0
  6
SLD-Solid
 62
     7
370
    15
100
AcDbPolyline
 90
        5
 70
   128
 43
0.0
 10
1441.1492083952
 20
1413.3487549496
 10
1434.9044893667
 20
1413.1556359006
 10
1425.5928133413
 20
1413.0994883252
 10
1414.5733450339
 20
1413.1771531773
 10
1406.5693055079
 20
1413.1880608273
  0
LWPOLYLINE
  5
94
330
1F
100
AcDbEntity
  8
0
  6
SLD-Solid
 62
     7
370
    15
100
AcDbPolyline
 90
       15
 70
   128
 43
0.0
 10
1442.6930581019
 20
1384.0723243428
 10
1442.6769648478
 20
1384.0711918545
 10
1442.8694878504
 20
1384.0667215062
 10
1443.3903430388
 20
1384.0472307873
 10
1443.8868199274
 20
1384.0378132535
 10
1444.1506598875
 20
1384.0376344395
 10
1444.3757568285
 20
1384.0375748349
 10
1447.195294945
 20
1384.0369787884
 10
1449.7007463858
 20
1384.0365019513
 10
1451.8916045115
 20
1384.0361443234
 10
1453.7680779383
 20
1384.0359059048
 10
1455.3300772593
 20
1384.0358463002
 10
1455.5081461355
 20
1384.0358463002
 10
1455.6870494768
 20
1384.037396021
 10
1455.6712244436
 20
1384.0372768117
  0
LWPOLYLINE
  5
95
330
1F
100
AcDbEntity
  8
0
  6
SLD-Solid
 62
     7
370
    15
100
AcDbPolyline
 90
       19
 70
   128
 43
0.0
 10
1455.8666680739
 20
1413.1642189694
 10
1455.8841322348
 20
1413.1629076672
 10
1455.6689892695
 20
1413.1825772
 10
1455.1407431051
 20
1413.2123795224
 10
1454.9210701868
 20
1413.2157173825
 10
1454.8627172396
 20
1413.2157173825
 10
1454.8214112208
 20
1413.2157173825
 10
1453.1485770628
 20
1413.2155981732
 10
1451.1608515665
 20
1413.21530015
 10
1448.858711569
 20
1413.2149425221
 10
1446.2432001517
 20
1413.2144060803
 10
1443.3131848261
 20
1413.2138100339
 10
1442.3222576067
 20
1413.2107105923
 10
1442.2374401972
 20
1413.2091012669
 10
1442.4475167677
 20
1413.2029619885
 10
1442.9798756525
 20
1413.1443706227
 10
1443.32427129
 20
1413.0741563512
 10
1443.4492026255
 20
1413.0403009129
 10
1443.4486363814
 20
1413.0404797269
  0
LINE
  5
96
330
1F
100
AcDbEntity
  8
0
  6
SLD-Solid
 62
     7
370
    15
100
AcDbLine
 10
1446.5655718729
 20
1385.3090611172
 30
0.0
 11
1446.541730015
 21
1385.3146043492
 31
0.0
  0
ARC
  5
97
330
1F
100
AcDbEntity
  8
0
  6
SLD-Solid
 62
     7
370
    15
100
AcDbCircle
 10
1444.7782826643
 20
1762.5846818817
 30
0.0
 40
349.3782801736513
100
AcDbArc
 50
269.441682688
 51
271.7921870218
  0
LWPOLYLINE
  5
98
330
1F
100
AcDbEntity
  8
0
  6
SLD-Solid
 62
     7
370
    15
100
AcDbPolyline
 90
        3
 70
   128
 43
0.0
 10
1437.0542202875
 20
1413.2220950795
 10
1423.2751165316
 20
1413.2223334981
 10
1406.5705572054
 20
1413.222512312
  0
LWPOLYLINE
  5
99
330
1F
100
AcDbEntity
  8
0
  6
SLD-Solid
 62
     7
370
    15
100
AcDbPolyline
 90
        3
 70
   128
 43
0.0
 10
1406.5691862986
 20
1384.0290513707
 10
1430.2847717688
 20
1384.0293493939
 10
1437.2015927717
 20
1384.0277400685
  0
LWPOLYLINE
  5
9A
330
1F
100
AcDbEntity
  8
0
  6
SLD-Solid
 62
     7
370
    15
100
AcDbPolyline
 90
        4
 70
   128
 43
0.0
 10
1441.8779645846
 20
1384.0266075803
 10
1447.6194415972
 20
1384.0252962781
 10
1455.8329914496
 20
1383.869251318
 10
1455.9187327311
 20
1383.8664498997
  0
ARC
  5
9B
330
1F
100
AcDbEntity
  8
0
  6
SLD-Solid
 62
     7
370
    15
100
AcDbCircle
 10
1456.0024001337
 20
1406.4772949588
 30
0.0
 40
6.901591421820429
100
AcDbArc
 50
12.4404712316
 51
93.1641501641
  0
ARC
  5
9C
330
1F
100
AcDbEntity
  8
0
  6
SLD-Solid
 62
     7
370
    15
100
AcDbCircle
 10
1456.002502465
 20
1390.7741563357
 30
0.0
 40
6.901425340488941
100
AcDbArc
 50
266.8349227596
 51
347.5606868137
  0
ARC
  5
9D
330
1F
100
AcDbEntity
  8
0
  6
SLD-Solid
 62
     7
370
    15
100
AcDbCircle
 10
1417.509125341
 20
1398.6257928834
 30
0.0
 40
46.24999970944314
100
AcDbArc
 50
348.5111848764
 51
11.4945663561
  0
LINE
  5
9E
330
1F
100
AcDbEntity
  8
0
  6
SLD-Solid
 62
     7
370
    15
100
AcDbLine
 10
1405.0692950175
 20
924.1257962657
 30
0.0
 11
1404.5693014548
 21
924.6257898284
 31
0.0
  0
LINE
  5
9F
330
1F
100
AcDbEntity
  8
0
  6
SLD-Solid
 62
     7
370
    15
100
AcDbLine
 10
1388.5692988321
 20
924.6257898284
 30
0.0
 11
1388.0693052694
 21
924.1257962657
 31
0.0
  0
LINE
  5
A0
330
1F
100
AcDbEntity
  8
0
  6
SLD-Solid
 62
     7
370
    15
100
AcDbLine
 10
1388.0693052694
 20
924.1257962657
 30
0.0
 11
1388.0693052694
 21
922.6257932258
 31
0.0
  0
LINE
  5
A1
330
1F
100
AcDbEntity
  8
0
  6
SLD-Solid
 62
     7
370
    15
100
AcDbLine
 10
1405.0692950175
 20
922.6257932258
 30
0.0
 11
1405.0692950175
 21
924.1257962657
 31
0.0
  0
LINE
  5
A2
330
1F
100
AcDbEntity
  8
0
  6
SLD-Solid
 62
     7
370
    15
100
AcDbLine
 10
1388.0693052694
 20
922.6257932258
 30
0.0
 11
1388.5692988321
 21
922.1257922126
 31
0.0
  0
LINE
  5
A3
330
1F
100
AcDbEntity
  8
0
  6
SLD-Solid
 62
     7
370
    15
100
AcDbLine
 10
1404.5693014548
 20
922.1257922126
 30
0.0
 11
1405.0692950175
 21
922.6257932258
 31
0.0
  0
LINE
  5
A4
330
1F
100
AcDbEntity
  8
0
  6
SLD-Solid
 62
     7
370
    15
100
AcDbLine
 10
1390.0692795202
 20
925.4965019298
 30
0.0
 11
1390.0692795202
 21
925.42579592
 31
0.0
  0
LINE
  5
A5
330
1F
100
AcDbEntity
  8
0
  6
SLD-Solid
 62
     7
370
    15
100
AcDbLine
 10
1403.0692909643
 20
925.42579592
 30
0.0
 11
1403.0692909643
 21
925.4965019298
 31
0.0
  0
LINE
  5
A6
330
1F
100
AcDbEntity
  8
0
  6
SLD-Solid
 62
     7
370
    15
100
AcDbLine
 10
1388.0693052694
 20
1449.125787325
 30
0.0
 11
1388.5692988321
 21
1448.62576396
 31
0.0
  0
LINE
  5
A7
330
1F
100
AcDbEntity
  8
0
  6
SLD-Solid
 62
     7
370
    15
100
AcDbLine
 10
1404.5693014548
 20
1448.62576396
 30
0.0
 11
1405.0692950175
 21
1449.125787325
 31
0.0
  0
LINE
  5
A8
330
1F
100
AcDbEntity
  8
0
  6
SLD-Solid
 62
     7
370
    15
100
AcDbLine
 10
1405.0692950175
 20
1449.125787325
 30
0.0
 11
1405.0692950175
 21
1450.6257978154
 31
0.0
  0
LINE
  5
A9
330
1F
100
AcDbEntity
  8
0
  6
SLD-Solid
 62
     7
370
    15
100
AcDbLine
 10
1388.0693052694
 20
1450.6257978154
 30
0.0
 11
1388.0693052694
 21
1449.125787325
 31
0.0
  0
LINE
  5
AA
330
1F
100
AcDbEntity
  8
0
  6
SLD-Solid
 62
     7
370
    15
100
AcDbLine
 10
1405.0692950175
 20
1450.6257978154
 30
0.0
 11
1404.5693014548
 21
1451.1258211804
 31
0.0
  0
LINE
  5
AB
330
1F
100
AcDbEntity
  8
0
  6
SLD-Solid
 62
     7
370
    15
100
AcDbLine
 10
1388.5692988321
 20
1451.1258211804
 30
0.0
 11
1388.0693052694
 21
1450.6257978154
 31
0.0
  0
LINE
  5
AC
330
1F
100
AcDbEntity
  8
0
  6
SLD-Solid
 62
     7
370
    15
100
AcDbLine
 10
1403.0692909643
 20
1447.7550593091
 30
0.0
 11
1403.0692909643
 21
1447.8258100224
 31
0.0
  0
LINE
  5
AD
330
1F
100
AcDbEntity
  8
0
  6
SLD-Solid
 62
     7
370
    15
100
AcDbLine
 10
1390.0692795202
 20
1447.8258100224
 30
0.0
 11
1390.0692795202
 21
1447.7550593091
 31
0.0
  0
LINE
  5
AE
330
1F
100
AcDbEntity
  8
0
  6
SLD-Solid
 62
     7
370
    15
100
AcDbLine
 10
1404.5693014548
 20
919.6257945967
 30
0.0
 11
1404.5693014548
 21
922.1257922126
 31
0.0
  0
LINE
  5
AF
330
1F
100
AcDbEntity
  8
0
  6
SLD-Solid
 62
     7
370
    15
100
AcDbLine
 10
1404.5693014548
 20
1451.9257751179
 30
0.0
 11
1404.5693014548
 21
1454.4257727338
 31
0.0
  0
LINE
  5
B0
330
1F
100
AcDbEntity
  8
0
  6
SLD-Solid
 62
     7
370
    15
100
AcDbLine
 10
1400.4692767546
 20
919.1257935835
 30
0.0
 11
1400.4692767546
 21
919.6257945967
 31
0.0
  0
LINE
  5
B1
330
1F
100
AcDbEntity
  8
0
  6
SLD-Solid
 62
     7
370
    15
100
AcDbLine
 10
1392.66929373
 20
919.6257945967
 30
0.0
 11
1392.66929373
 21
919.1257935835
 31
0.0
  0
LINE
  5
B2
330
1F
100
AcDbEntity
  8
0
  6
SLD-Solid
 62
     7
370
    15
100
AcDbLine
 10
1391.5692900107
 20
1451.9257751179
 30
0.0
 11
1391.5692900107
 21
1451.1258211804
 31
0.0
  0
LINE
  5
B3
330
1F
100
AcDbEntity
  8
0
  6
SLD-Solid
 62
     7
370
    15
100
AcDbLine
 10
1401.5692804739
 20
1451.1258211804
 30
0.0
 11
1401.5692804739
 21
1451.9257751179
 31
0.0
  0
LINE
  5
B4
330
1F
100
AcDbEntity
  8
0
  6
SLD-Solid
 62
     7
370
    15
100
AcDbLine
 10
1392.66929373
 20
1454.9257960988
 30
0.0
 11
1392.66929373
 21
1454.4257727338
 31
0.0
  0
LINE
  5
B5
330
1F
100
AcDbEntity
  8
0
  6
SLD-Solid
 62
     7
370
    15
100
AcDbLine
 10
1400.4692767546
 20
1454.4257727338
 30
0.0
 11
1400.4692767546
 21
1454.9257960988
 31
0.0
  0
LINE
  5
B6
330
1F
100
AcDbEntity
  8
0
  6
SLD-Solid
 62
     7
370
    15
100
AcDbLine
 10
689.9693046496
 20
502.8257873727
 30
0.0
 11
689.9693046496
 21
503.3257809354
 31
0.0
  0
LINE
  5
B7
330
1F
100
AcDbEntity
  8
0
  6
SLD-Solid
 62
     7
370
    15
100
AcDbLine
 10
679.5692776129
 20
503.3257809354
 30
0.0
 11
679.5692776129
 21
502.8257873727
 31
0.0
  0
LINE
  5
B8
330
1F
100
AcDbEntity
  8
0
  6
SLD-Solid
 62
     7
370
    15
100
AcDbLine
 10
1333.9692984507
 20
502.8257873727
 30
0.0
 11
1333.9692984507
 21
503.3257809354
 31
0.0
  0
LINE
  5
B9
330
1F
100
AcDbEntity
  8
0
  6
SLD-Solid
 62
     7
370
    15
100
AcDbLine
 10
1323.5692863152
 20
503.3257809354
 30
0.0
 11
1323.5692863152
 21
502.8257873727
 31
0.0
  0
LINE
  5
BA
330
1F
100
AcDbEntity
  8
0
  6
SLD-Solid
 62
     7
370
    15
100
AcDbLine
 10
1278.9692912981
 20
502.8257873727
 30
0.0
 11
1278.9692912981
 21
503.3257809354
 31
0.0
  0
LINE
  5
BB
330
1F
100
AcDbEntity
  8
0
  6
SLD-Solid
 62
     7
370
    15
100
AcDbLine
 10
1268.5692940638
 20
503.3257809354
 30
0.0
 11
1268.5692940638
 21
502.8257873727
 31
0.0
  0
LINE
  5
BC
330
1F
100
AcDbEntity
  8
0
  6
SLD-Solid
 62
     7
370
    15
100
AcDbLine
 10
744.9692819998
 20
502.8257873727
 30
0.0
 11
744.9692819998
 21
503.3257809354
 31
0.0
  0
LINE
  5
BD
330
1F
100
AcDbEntity
  8
0
  6
SLD-Solid
 62
     7
370
    15
100
AcDbLine
 10
734.5692847655
 20
503.3257809354
 30
0.0
 11
734.5692847655
 21
502.8257873727
 31
0.0
  0
LINE
  5
BE
330
1F
100
AcDbEntity
  8
0
  6
SLD-Solid
 62
     7
370
    15
100
AcDbLine
 10
652.2692774222
 20
917.1257895303
 30
0.0
 11
652.2692774222
 21
918.8257959557
 31
0.0
  0
LINE
  5
BF
330
1F
100
AcDbEntity
  8
0
  6
SLD-Solid
 62
     7
370
    15
100
AcDbLine
 10
652.2692774222
 20
917.1257895303
 30
0.0
 11
654.7693048403
 21
917.1257895303
 31
0.0
  0
LINE
  5
C0
330
1F
100
AcDbEntity
  8
0
  6
SLD-Solid
 62
     7
370
    15
100
AcDbLine
 10
654.7693048403
 20
917.1257895303
 30
0.0
 11
670.4692874834
 21
917.1257895303
 31
0.0
  0
LINE
  5
C1
330
1F
100
AcDbEntity
  8
0
  6
SLD-Solid
 62
     7
370
    15
100
AcDbLine
 10
676.4692996428
 20
917.1257895303
 30
0.0
 11
692.3550699637
 21
917.1257895303
 31
0.0
  0
LINE
  5
C2
330
1F
100
AcDbEntity
  8
0
  6
SLD-Solid
 62
     7
370
    15
100
AcDbLine
 10
732.183489649
 20
917.1257895303
 30
0.0
 11
748.0692897722
 21
917.1257895303
 31
0.0
  0
LINE
  5
C3
330
1F
100
AcDbEntity
  8
0
  6
SLD-Solid
 62
     7
370
    15
100
AcDbLine
 10
673.969302027
 20
917.1257895303
 30
0.0
 11
673.969302027
 21
918.8257959557
 31
0.0
  0
LINE
  5
C4
330
1F
100
AcDbEntity
  8
0
  6
SLD-Solid
 62
     7
370
    15
100
AcDbLine
 10
673.969302027
 20
917.1257895303
 30
0.0
 11
676.4692996428
 21
917.1257895303
 31
0.0
  0
LINE
  5
C5
330
1F
100
AcDbEntity
  8
0
  6
SLD-Solid
 62
     7
370
    15
100
AcDbLine
 10
672.9692850992
 20
917.1257895303
 30
0.0
 11
672.9692850992
 21
918.8257959557
 31
0.0
  0
LINE
  5
C6
330
1F
100
AcDbEntity
  8
0
  6
SLD-Solid
 62
     7
370
    15
100
AcDbLine
 10
670.4692874834
 20
917.1257895303
 30
0.0
 11
672.9692850992
 21
917.1257895303
 31
0.0
  0
LINE
  5
C7
330
1F
100
AcDbEntity
  8
0
  6
SLD-Solid
 62
     7
370
    15
100
AcDbLine
 10
750.5692873881
 20
917.1257895303
 30
0.0
 11
750.5692873881
 21
918.8257959557
 31
0.0
  0
LINE
  5
C8
330
1F
100
AcDbEntity
  8
0
  6
SLD-Solid
 62
     7
370
    15
100
AcDbLine
 10
748.0692897722
 20
917.1257895303
 30
0.0
 11
750.5692873881
 21
917.1257895303
 31
0.0
  0
LINE
  5
C9
330
1F
100
AcDbEntity
  8
0
  6
SLD-Solid
 62
     7
370
    15
100
AcDbLine
 10
754.0693019316
 20
917.1257895303
 30
0.0
 11
769.7692845747
 21
917.1257895303
 31
0.0
  0
LINE
  5
CA
330
1F
100
AcDbEntity
  8
0
  6
SLD-Solid
 62
     7
370
    15
100
AcDbLine
 10
751.5693043158
 20
917.1257895303
 30
0.0
 11
751.5693043158
 21
918.8257959557
 31
0.0
  0
LINE
  5
CB
330
1F
100
AcDbEntity
  8
0
  6
SLD-Solid
 62
     7
370
    15
100
AcDbLine
 10
751.5693043158
 20
917.1257895303
 30
0.0
 11
754.0693019316
 21
917.1257895303
 31
0.0
  0
LINE
  5
CC
330
1F
100
AcDbEntity
  8
0
  6
SLD-Solid
 62
     7
370
    15
100
AcDbLine
 10
772.2692821905
 20
917.1257895303
 30
0.0
 11
772.2692821905
 21
918.8257959557
 31
0.0
  0
LINE
  5
CD
330
1F
100
AcDbEntity
  8
0
  6
SLD-Solid
 62
     7
370
    15
100
AcDbLine
 10
769.7692845747
 20
917.1257895303
 30
0.0
 11
772.2692821905
 21
917.1257895303
 31
0.0
  0
LINE
  5
CE
330
1F
100
AcDbEntity
  8
0
  6
SLD-Solid
 62
     7
370
    15
100
AcDbLine
 10
672.9692850992
 20
917.1257895303
 30
0.0
 11
673.969302027
 21
917.1257895303
 31
0.0
  0
LINE
  5
CF
330
1F
100
AcDbEntity
  8
0
  6
SLD-Solid
 62
     7
370
    15
100
AcDbLine
 10
750.5692873881
 20
917.1257895303
 30
0.0
 11
751.5693043158
 21
917.1257895303
 31
0.0
  0
LINE
  5
D0
330
1F
100
AcDbEntity
  8
0
  6
SLD-Solid
 62
     7
370
    15
100
AcDbLine
 10
1241.269293873
 20
917.1257895303
 30
0.0
 11
1243.7692914889
 21
917.1257895303
 31
0.0
  0
LINE
  5
D1
330
1F
100
AcDbEntity
  8
0
  6
SLD-Solid
 62
     7
370
    15
100
AcDbLine
 10
1241.269293873
 20
917.1257895303
 30
0.0
 11
1241.269293873
 21
918.8257959557
 31
0.0
  0
LINE
  5
D2
330
1F
100
AcDbEntity
  8
0
  6
SLD-Solid
 62
     7
370
    15
100
AcDbLine
 10
1243.7692914889
 20
917.1257895303
 30
0.0
 11
1259.4692890331
 21
917.1257895303
 31
0.0
  0
LINE
  5
D3
330
1F
100
AcDbEntity
  8
0
  6
SLD-Solid
 62
     7
370
    15
100
AcDbLine
 10
1261.969286649
 20
917.1257895303
 30
0.0
 11
1261.969286649
 21
918.8257959557
 31
0.0
  0
LINE
  5
D4
330
1F
100
AcDbEntity
  8
0
  6
SLD-Solid
 62
     7
370
    15
100
AcDbLine
 10
1259.4692890331
 20
917.1257895303
 30
0.0
 11
1261.969286649
 21
917.1257895303
 31
0.0
  0
LINE
  5
D5
330
1F
100
AcDbEntity
  8
0
  6
SLD-Solid
 62
     7
370
    15
100
AcDbLine
 10
1262.9692886755
 20
917.1257895303
 30
0.0
 11
1262.9692886755
 21
918.8257959557
 31
0.0
  0
LINE
  5
D6
330
1F
100
AcDbEntity
  8
0
  6
SLD-Solid
 62
     7
370
    15
100
AcDbLine
 10
1262.9692886755
 20
917.1257895303
 30
0.0
 11
1265.4692862913
 21
917.1257895303
 31
0.0
  0
LINE
  5
D7
330
1F
100
AcDbEntity
  8
0
  6
SLD-Solid
 62
     7
370
    15
100
AcDbLine
 10
1265.4692862913
 20
917.1257895303
 30
0.0
 11
1281.3550715134
 21
917.1257895303
 31
0.0
  0
LINE
  5
D8
330
1F
100
AcDbEntity
  8
0
  6
SLD-Solid
 62
     7
370
    15
100
AcDbLine
 10
1321.1835060999
 20
917.1257895303
 30
0.0
 11
1337.0692764208
 21
917.1257895303
 31
0.0
  0
LINE
  5
D9
330
1F
100
AcDbEntity
  8
0
  6
SLD-Solid
 62
     7
370
    15
100
AcDbLine
 10
1347.7293883249
 20
919.6257945967
 30
0.0
 11
1353.0692790434
 21
919.6257945967
 31
0.0
  0
LINE
  5
DA
330
1F
100
AcDbEntity
  8
0
  6
SLD-Solid
 62
     7
370
    15
100
AcDbLine
 10
1343.0692885801
 20
917.1257895303
 30
0.0
 11
1358.7693010256
 21
917.1257895303
 31
0.0
  0
LINE
  5
DB
330
1F
100
AcDbEntity
  8
0
  6
SLD-Solid
 62
     7
370
    15
100
AcDbLine
 10
1340.5692909643
 20
917.1257895303
 30
0.0
 11
1340.5692909643
 21
918.8257959557
 31
0.0
  0
LINE
  5
DC
330
1F
100
AcDbEntity
  8
0
  6
SLD-Solid
 62
     7
370
    15
100
AcDbLine
 10
1340.5692909643
 20
917.1257895303
 30
0.0
 11
1343.0692885801
 21
917.1257895303
 31
0.0
  0
LINE
  5
DD
330
1F
100
AcDbEntity
  8
0
  6
SLD-Solid
 62
     7
370
    15
100
AcDbLine
 10
1339.5693038389
 20
917.1257895303
 30
0.0
 11
1339.5693038389
 21
918.8257959557
 31
0.0
  0
LINE
  5
DE
330
1F
100
AcDbEntity
  8
0
  6
SLD-Solid
 62
     7
370
    15
100
AcDbLine
 10
1337.0692764208
 20
917.1257895303
 30
0.0
 11
1339.5693038389
 21
917.1257895303
 31
0.0
  0
LINE
  5
DF
330
1F
100
AcDbEntity
  8
0
  6
SLD-Solid
 62
     7
370
    15
100
AcDbLine
 10
1361.2692986414
 20
917.1257895303
 30
0.0
 11
1361.2692986414
 21
919.6257945967
 31
0.0
  0
LINE
  5
E0
330
1F
100
AcDbEntity
  8
0
  6
SLD-Solid
 62
     7
370
    15
100
AcDbLine
 10
1358.7693010256
 20
917.1257895303
 30
0.0
 11
1361.2692986414
 21
917.1257895303
 31
0.0
  0
LINE
  5
E1
330
1F
100
AcDbEntity
  8
0
  6
SLD-Solid
 62
     7
370
    15
100
AcDbLine
 10
1261.969286649
 20
917.1257895303
 30
0.0
 11
1262.9692886755
 21
917.1257895303
 31
0.0
  0
LINE
  5
E2
330
1F
100
AcDbEntity
  8
0
  6
SLD-Solid
 62
     7
370
    15
100
AcDbLine
 10
1339.5693038389
 20
917.1257895303
 30
0.0
 11
1340.5692909643
 21
917.1257895303
 31
0.0
  0
LINE
  5
E3
330
1F
100
AcDbEntity
  8
0
  6
SLD-Solid
 62
     7
370
    15
100
AcDbLine
 10
692.2692988798
 20
917.1257895303
 30
0.0
 11
692.2692988798
 21
544.1257861329
 31
0.0
  0
LINE
  5
E4
330
1F
100
AcDbEntity
  8
0
  6
SLD-Solid
 62
     7
370
    15
100
AcDbLine
 10
692.3550699637
 20
917.1257895303
 30
0.0
 11
693.7692795679
 21
917.1257895303
 31
0.0
  0
LINE
  5
E5
330
1F
100
AcDbEntity
  8
0
  6
SLD-Solid
 62
     7
370
    15
100
AcDbLine
 10
730.7692800448
 20
917.1257895303
 30
0.0
 11
732.183489649
 21
917.1257895303
 31
0.0
  0
LINE
  5
E6
330
1F
100
AcDbEntity
  8
0
  6
SLD-Solid
 62
     7
370
    15
100
AcDbLine
 10
732.2692905352
 20
917.1257895303
 30
0.0
 11
732.2692905352
 21
544.1257861329
 31
0.0
  0
LINE
  5
E7
330
1F
100
AcDbEntity
  8
0
  6
SLD-Solid
 62
     7
370
    15
100
AcDbLine
 10
693.7692795679
 20
917.1257895303
 30
0.0
 11
730.7692800448
 21
917.1257895303
 31
0.0
  0
LINE
  5
E8
330
1F
100
AcDbEntity
  8
0
  6
SLD-Solid
 62
     7
370
    15
100
AcDbLine
 10
1282.7692960188
 20
917.1257895303
 30
0.0
 11
1319.7692964956
 21
917.1257895303
 31
0.0
  0
LINE
  5
E9
330
1F
100
AcDbEntity
  8
0
  6
SLD-Solid
 62
     7
370
    15
100
AcDbLine
 10
1319.7692964956
 20
917.1257895303
 30
0.0
 11
1321.1835060999
 21
917.1257895303
 31
0.0
  0
LINE
  5
EA
330
1F
100
AcDbEntity
  8
0
  6
SLD-Solid
 62
     7
370
    15
100
AcDbLine
 10
1321.2692920849
 20
917.1257895303
 30
0.0
 11
1321.2692920849
 21
544.1257861329
 31
0.0
  0
LINE
  5
EB
330
1F
100
AcDbEntity
  8
0
  6
SLD-Solid
 62
     7
370
    15
100
AcDbLine
 10
1281.2692855284
 20
917.1257895303
 30
0.0
 11
1281.2692855284
 21
544.1257861329
 31
0.0
  0
LINE
  5
EC
330
1F
100
AcDbEntity
  8
0
  6
SLD-Solid
 62
     7
370
    15
100
AcDbLine
 10
1281.3550715134
 20
917.1257895303
 30
0.0
 11
1282.7692960188
 21
917.1257895303
 31
0.0
  0
LINE
  5
ED
330
1F
100
AcDbEntity
  8
0
  6
SLD-Solid
 62
     7
370
    15
100
AcDbLine
 10
642.0763765261
 20
509.1257897092
 30
0.0
 11
1400.4622136042
 21
509.1257897092
 31
0.0
  0
LINE
  5
EE
330
1F
100
AcDbEntity
  8
0
  6
SLD-Solid
 62
     7
370
    15
100
AcDbLine
 10
642.0763765261
 20
542.0758035851
 30
0.0
 11
642.0763765261
 21
509.1257897092
 31
0.0
  0
LINE
  5
EF
330
1F
100
AcDbEntity
  8
0
  6
SLD-Solid
 62
     7
370
    15
100
AcDbLine
 10
1400.4622136042
 20
542.0758035851
 30
0.0
 11
1400.4622136042
 21
509.1257897092
 31
0.0
  0
LWPOLYLINE
  5
F0
330
1F
100
AcDbEntity
  8
0
  6
SLD-Solid
 62
     7
370
    15
100
AcDbPolyline
 90
        6
 70
   128
 43
0.0
 10
1399.2192779467
 20
544.1257861329
 10
1399.5054696486
 20
543.9931657983
 10
1399.7917507574
 20
543.6122921181
 10
1400.0780318663
 20
543.0324879361
 10
1400.3643129751
 20
542.3287954999
 10
1400.4622136042
 20
542.0758035851
  0
LWPOLYLINE
  5
F1
330
1F
100
AcDbEntity
  8
0
  6
SLD-Solid
 62
     7
370
    15
100
AcDbPolyline
 90
        6
 70
   128
 43
0.0
 10
642.0763765261
 20
542.0758035851
 10
642.3625384257
 20
542.8011623097
 10
642.6488195345
 20
543.4328821374
 10
642.9351006434
 20
543.8888874722
 10
643.2213817522
 20
544.1101101113
 10
643.3192823813
 20
544.1257861329
  0
LINE
  5
F2
330
1F
100
AcDbEntity
  8
0
  6
SLD-Solid
 62
     7
370
    15
100
AcDbLine
 10
643.3192823813
 20
544.1257861329
 30
0.0
 11
1399.2192779467
 21
544.1257861329
 31
0.0
  0
LINE
  5
F3
330
1F
100
AcDbEntity
  8
0
  6
SLD-Solid
 62
     7
370
    15
100
AcDbLine
 10
1401.2692902968
 20
542.0758035851
 30
0.0
 11
1400.4692767546
 21
542.0758035851
 31
0.0
  0
LWPOLYLINE
  5
F4
330
1F
100
AcDbEntity
  8
0
  6
SLD-Solid
 62
     7
370
    15
100
AcDbPolyline
 90
        3
 70
   128
 43
0.0
 10
1400.4692767546
 20
542.0758035851
 10
1400.3708396837
 20
542.5619986726
 10
1400.1201723501
 20
542.9288652611
  0
ARC
  5
F5
330
1F
100
AcDbEntity
  8
0
  6
SLD-Solid
 62
     7
370
    15
100
AcDbCircle
 10
1399.2192888345
 20
542.0757846706
 30
0.0
 40
2.050001462322772
100
AcDbArc
 50
0.000528645
 51
90.000304306
  0
ARC
  5
F6
330
1F
100
AcDbEntity
  8
0
  6
SLD-Solid
 62
     7
370
    15
100
AcDbCircle
 10
643.3192775018
 20
542.0758084646
 30
0.0
 40
2.049977668250799
100
AcDbArc
 50
89.9998636202
 51
180.0001363798
  0
ARC
  5
F7
330
1F
100
AcDbEntity
  8
0
  6
SLD-Solid
 62
     7
370
    15
100
AcDbCircle
 10
643.1089567687
 20
542.1598781941
 30
0.0
 40
1.043067060643116
100
AcDbArc
 50
130.5199637957
 51
184.6232421653
  0
LINE
  5
F8
330
1F
100
AcDbEntity
  8
0
  6
SLD-Solid
 62
     7
370
    15
100
AcDbLine
 10
641.2692998335
 20
542.0758035851
 30
0.0
 11
642.0692835734
 21
542.0758035851
 31
0.0
  0
LINE
  5
F9
330
1F
100
AcDbEntity
  8
0
  6
SLD-Solid
 62
     7
370
    15
100
AcDbLine
 10
1400.4692767546
 20
542.0758035851
 30
0.0
 11
1400.4692767546
 21
509.1257897092
 31
0.0
  0
LINE
  5
FA
330
1F
100
AcDbEntity
  8
0
  6
SLD-Solid
 62
     7
370
    15
100
AcDbLine
 10
1401.2692902968
 20
542.0758035851
 30
0.0
 11
1401.2692902968
 21
509.1257897092
 31
0.0
  0
LINE
  5
FB
330
1F
100
AcDbEntity
  8
0
  6
SLD-Solid
 62
     7
370
    15
100
AcDbLine
 10
1401.2692902968
 20
509.1257897092
 30
0.0
 11
1400.4692767546
 21
509.1257897092
 31
0.0
  0
LINE
  5
FC
330
1F
100
AcDbEntity
  8
0
  6
SLD-Solid
 62
     7
370
    15
100
AcDbLine
 10
642.0692835734
 20
542.0758035851
 30
0.0
 11
642.0692835734
 21
509.1257897092
 31
0.0
  0
LINE
  5
FD
330
1F
100
AcDbEntity
  8
0
  6
SLD-Solid
 62
     7
370
    15
100
AcDbLine
 10
641.2692998335
 20
509.1257897092
 30
0.0
 11
642.0692835734
 21
509.1257897092
 31
0.0
  0
LINE
  5
FE
330
1F
100
AcDbEntity
  8
0
  6
SLD-Solid
 62
     7
370
    15
100
AcDbLine
 10
641.2692998335
 20
542.0758035851
 30
0.0
 11
641.2692998335
 21
509.1257897092
 31
0.0
  0
LINE
  5
FF
330
1F
100
AcDbEntity
  8
0
  6
SLD-Solid
 62
     7
370
    15
100
AcDbLine
 10
663.7763713286
 20
509.1257897092
 30
0.0
 11
663.7763713286
 21
506.0757902337
 31
0.0
  0
LINE
  5
100
330
1F
100
AcDbEntity
  8
0
  6
SLD-Solid
 62
     7
370
    15
100
AcDbLine
 10
1349.7622345373
 20
509.1257897092
 30
0.0
 11
1349.7622345373
 21
506.0757902337
 31
0.0
  0
LINE
  5
101
330
1F
100
AcDbEntity
  8
0
  6
SLD-Solid
 62
     7
370
    15
100
AcDbLine
 10
1349.7622345373
 20
506.0757902337
 30
0.0
 11
1349.7622345373
 21
503.3257809354
 31
0.0
  0
LINE
  5
102
330
1F
100
AcDbEntity
  8
0
  6
SLD-Solid
 62
     7
370
    15
100
AcDbLine
 10
663.7763713286
 20
503.3257809354
 30
0.0
 11
1349.7622345373
 21
503.3257809354
 31
0.0
  0
LINE
  5
103
330
1F
100
AcDbEntity
  8
0
  6
SLD-Solid
 62
     7
370
    15
100
AcDbLine
 10
663.7763713286
 20
503.3257809354
 30
0.0
 11
663.7763713286
 21
506.0757902337
 31
0.0
  0
LINE
  5
104
330
1F
100
AcDbEntity
  8
0
  6
SLD-Solid
 62
     7
370
    15
100
AcDbLine
 10
662.2692976877
 20
509.1257897092
 30
0.0
 11
662.2692976877
 21
504.8257914258
 31
0.0
  0
LINE
  5
105
330
1F
100
AcDbEntity
  8
0
  6
SLD-Solid
 62
     7
370
    15
100
AcDbLine
 10
663.7692783758
 20
509.1257897092
 30
0.0
 11
663.7692783758
 21
504.8257914258
 31
0.0
  0
LINE
  5
106
330
1F
100
AcDbEntity
  8
0
  6
SLD-Solid
 62
     7
370
    15
100
AcDbLine
 10
663.7692783758
 20
504.8257914258
 30
0.0
 11
662.2692976877
 21
504.8257914258
 31
0.0
  0
LINE
  5
107
330
1F
100
AcDbEntity
  8
0
  6
SLD-Solid
 62
     7
370
    15
100
AcDbLine
 10
1351.2692783758
 20
504.8257914258
 30
0.0
 11
1351.2692783758
 21
509.1257897092
 31
0.0
  0
LINE
  5
108
330
1F
100
AcDbEntity
  8
0
  6
SLD-Solid
 62
     7
370
    15
100
AcDbLine
 10
1349.7692976877
 20
509.1257897092
 30
0.0
 11
1349.7692976877
 21
504.8257914258
 31
0.0
  0
LINE
  5
109
330
1F
100
AcDbEntity
  8
0
  6
SLD-Solid
 62
     7
370
    15
100
AcDbLine
 10
1349.7692976877
 20
504.8257914258
 30
0.0
 11
1351.2692783758
 21
504.8257914258
 31
0.0
  0
ARC
  5
10A
330
1F
100
AcDbEntity
  8
0
  6
SLD-Solid
 62
     7
370
    15
100
AcDbCircle
 10
665.0192907199
 20
506.0757928834
 30
0.0
 40
2.750000000000083
100
AcDbArc
 50
207.0356917894
 51
243.1295854597
  0
LINE
  5
10B
330
1F
100
AcDbEntity
  8
0
  6
SLD-Solid
 62
     7
370
    15
100
AcDbLine
 10
663.7692783758
 20
506.0757902337
 30
0.0
 11
663.7763713286
 21
505.9430208874
 31
0.0
  0
ARC
  5
10C
330
1F
100
AcDbEntity
  8
0
  6
SLD-Solid
 62
     7
370
    15
100
AcDbCircle
 10
1348.5192907199
 20
506.0757928834
 30
0.0
 40
2.749999999999863
100
AcDbArc
 50
296.8704145403
 51
332.9643082106
  0
LINE
  5
10D
330
1F
100
AcDbEntity
  8
0
  6
SLD-Solid
 62
     7
370
    15
100
AcDbLine
 10
1349.7622345373
 20
505.9430208874
 30
0.0
 11
1349.7692976877
 21
506.0757902337
 31
0.0
  0
LWPOLYLINE
  5
10E
330
1F
100
AcDbEntity
  8
0
  6
SLD-Solid
 62
     7
370
    15
100
AcDbPolyline
 90
        7
 70
   128
 43
0.0
 10
1386.7328499243
 20
1553.2242861462
 10
1386.7470060274
 20
1553.1807151509
 10
1386.8585263178
 20
1552.8375712109
 10
1387.0725069925
 20
1552.1789398862
 10
1387.3716329024
 20
1551.2583461476
 10
1387.7316747591
 20
1550.1502958012
 10
1387.7371583864
 20
1550.1333680821
  0
ARC
  5
10F
330
1F
100
AcDbEntity
  8
0
  6
SLD-Solid
 62
     7
370
    15
100
AcDbCircle
 10
1350.7692907199
 20
1431.9640853357
 30
0.0
 40
4.000000000000091
100
AcDbArc
 50
0.0
 51
143.1301023539
  0
ARC
  5
110
330
1F
100
AcDbEntity
  8
0
  6
SLD-Solid
 62
     7
370
    15
100
AcDbCircle
 10
1345.7692907199
 20
1005.2257928831
 30
0.0
 40
9.000000000000187
100
AcDbArc
 50
281.5369590329
 51
360.0
  0
LINE
  5
111
330
1F
100
AcDbEntity
  8
0
  6
SLD-Solid
 62
     7
370
    15
100
AcDbLine
 10
1264.7192959473
 20
1619.6257677746
 30
0.0
 11
1260.2692876742
 21
1619.6257677746
 31
0.0
  0
LINE
  5
112
330
1F
100
AcDbEntity
  8
0
  6
SLD-Solid
 62
     7
370
    15
100
AcDbLine
 10
745.2693019793
 20
1619.6257677746
 30
0.0
 11
741.2192855761
 21
1619.6257677746
 31
0.0
  0
LWPOLYLINE
  5
113
330
1F
100
AcDbEntity
  8
0
  6
SLD-Solid
 62
     7
370
    15
100
AcDbPolyline
 90
        6
 70
   128
 43
0.0
 10
721.3263545916
 20
1619.6257677746
 10
721.038344948
 20
1619.7586265279
 10
720.7502160952
 20
1620.1400366498
 10
720.4620872423
 20
1620.7205858899
 10
720.1739583895
 20
1621.4249935818
 10
720.0763557837
 20
1621.6758099271
  0
LWPOLYLINE
  5
114
330
1F
100
AcDbEntity
  8
0
  6
SLD-Solid
 62
     7
370
    15
100
AcDbPolyline
 90
        6
 70
   128
 43
0.0
 10
1285.4622189686
 20
1621.6758099271
 10
1285.1741944239
 20
1620.949944563
 10
1284.8860804722
 20
1620.3178969098
 10
1284.5979516194
 20
1619.8619213772
 10
1284.3098227665
 20
1619.6412053776
 10
1284.2122201607
 20
1619.6257677746
  0
LINE
  5
115
330
1F
100
AcDbEntity
  8
0
  6
SLD-Solid
 62
     7
370
    15
100
AcDbLine
 10
720.0763557837
 20
1621.6758099271
 30
0.0
 11
720.0763557837
 21
1637.5757661534
 31
0.0
  0
LINE
  5
116
330
1F
100
AcDbEntity
  8
0
  6
SLD-Solid
 62
     7
370
    15
100
AcDbLine
 10
1285.4622189686
 20
1621.6758099271
 30
0.0
 11
1285.4622189686
 21
1637.5757661534
 31
0.0
  0
LWPOLYLINE
  5
117
330
1F
100
AcDbEntity
  8
0
  6
SLD-Solid
 62
     7
370
    15
100
AcDbPolyline
 90
        6
 70
   128
 43
0.0
 10
1284.2192833111
 20
1639.6258083058
 10
1284.505475013
 20
1639.4931879712
 10
1284.7917561218
 20
1639.1123142911
 10
1285.0780372307
 20
1638.5324803067
 10
1285.3643183396
 20
1637.8287878705
 10
1285.4622189686
 20
1637.5757661534
  0
LWPOLYLINE
  5
118
330
1F
100
AcDbEntity
  8
0
  6
SLD-Solid
 62
     7
370
    15
100
AcDbPolyline
 90
        6
 70
   128
 43
0.0
 10
720.0763557837
 20
1637.5757661534
 10
720.3625474856
 20
1638.3011546803
 10
720.6488285944
 20
1638.9328447056
 10
720.9351097033
 20
1639.3888798428
 10
721.2213908121
 20
1639.6101322842
 10
721.3192914412
 20
1639.6258083058
  0
LINE
  5
119
330
1F
100
AcDbEntity
  8
0
  6
SLD-Solid
 62
     7
370
    15
100
AcDbLine
 10
721.3192914412
 20
1639.6258083058
 30
0.0
 11
1284.2192833111
 21
1639.6258083058
 31
0.0
  0
LINE
  5
11A
330
1F
100
AcDbEntity
  8
0
  6
SLD-Solid
 62
     7
370
    15
100
AcDbLine
 10
1285.4692970202
 20
1621.6758099271
 30
0.0
 11
1286.2692956612
 21
1621.6758099271
 31
0.0
  0
ARC
  5
11B
330
1F
100
AcDbEntity
  8
0
  6
SLD-Solid
 62
     7
370
    15
100
AcDbCircle
 10
1284.4285501707
 20
1621.5921854724
 30
0.0
 40
1.04410107467533
100
AcDbArc
 50
310.6814755625
 51
4.593871056
  0
ARC
  5
11C
330
1F
100
AcDbEntity
  8
0
  6
SLD-Solid
 62
     7
370
    15
100
AcDbCircle
 10
1284.219189826
 20
1621.6758736087
 30
0.0
 40
2.050105836214538
100
AcDbArc
 50
270.0026126964
 51
359.9982202424
  0
ARC
  5
11D
330
1F
100
AcDbEntity
  8
0
  6
SLD-Solid
 62
     7
370
    15
100
AcDbCircle
 10
721.3194331397
 20
1621.6759218214
 30
0.0
 40
2.050154051682159
100
AcDbArc
 50
180.003127119
 51
269.9960399421
  0
LINE
  5
11E
330
1F
100
AcDbEntity
  8
0
  6
SLD-Solid
 62
     7
370
    15
100
AcDbLine
 10
720.0692926333
 20
1621.6758099271
 30
0.0
 11
719.2692790911
 21
1621.6758099271
 31
0.0
  0
LWPOLYLINE
  5
11F
330
1F
100
AcDbEntity
  8
0
  6
SLD-Solid
 62
     7
370
    15
100
AcDbPolyline
 90
        3
 70
   128
 43
0.0
 10
720.0692926333
 20
1621.6758099271
 10
720.1680575297
 20
1621.1888399792
 10
720.4226587698
 20
1620.8169666005
  0
ARC
  5
120
330
1F
100
AcDbEntity
  8
0
  6
SLD-Solid
 62
     7
370
    15
100
AcDbCircle
 10
1284.2192623143
 20
1637.575774959
 30
0.0
 40
2.050033346873573
100
AcDbArc
 50
359.9997538938
 51
89.9994131674
  0
LINE
  5
121
330
1F
100
AcDbEntity
  8
0
  6
SLD-Solid
 62
     7
370
    15
100
AcDbLine
 10
1286.2692956612
 20
1637.5757661534
 30
0.0
 11
1285.4692970202
 21
1637.5757661534
 31
0.0
  0
LWPOLYLINE
  5
122
330
1F
100
AcDbEntity
  8
0
  6
SLD-Solid
 62
     7
370
    15
100
AcDbPolyline
 90
        3
 70
   128
 43
0.0
 10
1285.4692970202
 20
1637.5757661534
 10
1285.3708450482
 20
1638.0620208455
 10
1285.1201777146
 20
1638.4288874341
  0
ARC
  5
123
330
1F
100
AcDbEntity
  8
0
  6
SLD-Solid
 62
     7
370
    15
100
AcDbCircle
 10
721.1071598652
 20
1637.6606130937
 30
0.0
 40
1.041329628138449
100
AcDbArc
 50
130.4709709975
 51
184.673608249
  0
LINE
  5
124
330
1F
100
AcDbEntity
  8
0
  6
SLD-Solid
 62
     7
370
    15
100
AcDbLine
 10
719.2692790911
 20
1637.5757661534
 30
0.0
 11
720.0692926333
 21
1637.5757661534
 31
0.0
  0
ARC
  5
125
330
1F
100
AcDbEntity
  8
0
  6
SLD-Solid
 62
     7
370
    15
100
AcDbCircle
 10
721.3193177327
 20
1637.5757696644
 30
0.0
 40
2.050038641594819
100
AcDbArc
 50
90.0007348118
 51
180.0000981271
  0
LINE
  5
126
330
1F
100
AcDbEntity
  8
0
  6
SLD-Solid
 62
     7
370
    15
100
AcDbLine
 10
1285.4692970202
 20
1637.5757661534
 30
0.0
 11
1285.4692970202
 21
1621.6758099271
 31
0.0
  0
LINE
  5
127
330
1F
100
AcDbEntity
  8
0
  6
SLD-Solid
 62
     7
370
    15
100
AcDbLine
 10
1286.2692956612
 20
1621.6758099271
 30
0.0
 11
1286.2692956612
 21
1637.5757661534
 31
0.0
  0
LINE
  5
128
330
1F
100
AcDbEntity
  8
0
  6
SLD-Solid
 62
     7
370
    15
100
AcDbLine
 10
719.2692790911
 20
1621.6758099271
 30
0.0
 11
719.2692790911
 21
1637.5757661534
 31
0.0
  0
LINE
  5
129
330
1F
100
AcDbEntity
  8
0
  6
SLD-Solid
 62
     7
370
    15
100
AcDbLine
 10
720.0692926333
 20
1637.5757661534
 30
0.0
 11
720.0692926333
 21
1621.6758099271
 31
0.0
  0
ARC
  5
12A
330
1F
100
AcDbEntity
  8
0
  6
SLD-Solid
 62
     7
370
    15
100
AcDbCircle
 10
629.3885790269
 20
965.7016924739
 30
0.0
 40
0.4671463712267996
100
AcDbArc
 50
67.2412424909
 51
98.5305809161
  0
LINE
  5
12B
330
1F
100
AcDbEntity
  8
0
  6
SLD-Solid
 62
     7
370
    15
100
AcDbLine
 10
629.5692954943
 20
973.9002046061
 30
0.0
 11
629.5692954943
 21
966.1324676943
 31
0.0
  0
ARC
  5
12C
330
1F
100
AcDbEntity
  8
0
  6
SLD-Solid
 62
     7
370
    15
100
AcDbCircle
 10
628.5495115457
 20
965.7057113879
 30
0.0
 40
0.4632443741558174
100
AcDbArc
 50
81.336960404
 51
112.8928950595
  0
LINE
  5
12D
330
1F
100
AcDbEntity
  8
0
  6
SLD-Solid
 62
     7
370
    15
100
AcDbLine
 10
628.3693049833
 20
966.1324676943
 30
0.0
 11
628.3693049833
 21
973.6225363684
 31
0.0
  0
LINE
  5
12E
330
1F
100
AcDbEntity
  8
0
  6
SLD-Solid
 62
     7
370
    15
100
AcDbLine
 10
628.6192868635
 20
966.1636707259
 30
0.0
 11
629.3192838118
 21
966.1636707259
 31
0.0
  0
ARC
  5
12F
330
1F
100
AcDbEntity
  8
0
  6
SLD-Solid
 62
     7
370
    15
100
AcDbCircle
 10
628.2492437763
 20
962.1338907991
 30
0.0
 40
1.325585563196451
100
AcDbArc
 50
264.3741153191
 51
354.7628085469
  0
ARC
  5
130
330
1F
100
AcDbEntity
  8
0
  6
SLD-Solid
 62
     7
370
    15
100
AcDbCircle
 10
628.2411287121
 20
966.1321416217
 30
0.0
 40
1.35040591210031
100
AcDbArc
 50
264.823660095
 51
349.5873281315
  0
LINE
  5
131
330
1F
100
AcDbEntity
  8
0
  6
SLD-Solid
 62
     7
370
    15
100
AcDbLine
 10
629.5692954943
 20
965.8880737496
 30
0.0
 11
629.5692954943
 21
962.0128926707
 31
0.0
  0
LINE
  5
132
330
1F
100
AcDbEntity
  8
0
  6
SLD-Solid
 62
     7
370
    15
100
AcDbLine
 10
622.7692995951
 20
961.0453528238
 30
0.0
 11
622.7692995951
 21
964.9205339027
 31
0.0
  0
LINE
  5
133
330
1F
100
AcDbEntity
  8
0
  6
SLD-Solid
 62
     7
370
    15
100
AcDbLine
 10
622.7692995951
 20
964.9205339027
 30
0.0
 11
622.7692995951
 21
965.4831793976
 31
0.0
  0
LINE
  5
134
330
1F
100
AcDbEntity
  8
0
  6
SLD-Solid
 62
     7
370
    15
100
AcDbLine
 10
628.3693049833
 20
965.8880737496
 30
0.0
 11
628.3693049833
 21
966.1324676943
 31
0.0
  0
LINE
  5
135
330
1F
100
AcDbEntity
  8
0
  6
SLD-Solid
 62
     7
370
    15
100
AcDbLine
 10
629.5692954943
 20
966.1324676943
 30
0.0
 11
629.5692954943
 21
965.8880737496
 31
0.0
  0
LINE
  5
136
330
1F
100
AcDbEntity
  8
0
  6
SLD-Solid
 62
     7
370
    15
100
AcDbLine
 10
628.1192933008
 20
960.7953560425
 30
0.0
 11
628.1192933008
 21
960.8146902991
 31
0.0
  0
LINE
  5
137
330
1F
100
AcDbEntity
  8
0
  6
SLD-Solid
 62
     7
370
    15
100
AcDbLine
 10
629.5692954943
 20
962.0128926707
 30
0.0
 11
629.5692954943
 21
961.7757928444
 31
0.0
  0
ARC
  5
138
330
1F
100
AcDbEntity
  8
0
  6
SLD-Solid
 62
     7
370
    15
100
AcDbCircle
 10
628.1859908369
 20
978.2073487831
 30
0.0
 40
1.43110464823885
100
AcDbArc
 50
45.4022116933
 51
92.6712736297
  0
LINE
  5
139
330
1F
100
AcDbEntity
  8
0
  6
SLD-Solid
 62
     7
370
    15
100
AcDbLine
 10
622.7692995951
 20
978.8435903264
 30
0.0
 11
622.7692995951
 21
979.4062283707
 31
0.0
  0
LINE
  5
13A
330
1F
100
AcDbEntity
  8
0
  6
SLD-Solid
 62
     7
370
    15
100
AcDbLine
 10
622.7692995951
 20
975.5425062848
 30
0.0
 11
622.7692995951
 21
978.8435903264
 31
0.0
  0
LWPOLYLINE
  5
13B
330
1F
100
AcDbEntity
  8
0
  6
SLD-Solid
 62
     7
370
    15
100
AcDbPolyline
 90
        7
 70
   128
 43
0.0
 10
627.1692846701
 20
973.5591021252
 10
627.1693144724
 20
973.5584613753
 10
627.1884475634
 20
973.5359457207
 10
627.2295151636
 20
973.5195842457
 10
627.2830401346
 20
973.5080060435
 10
627.3469661162
 20
973.5006150675
 10
627.4192963526
 20
973.4979477597
  0
LINE
  5
13C
330
1F
100
AcDbEntity
  8
0
  6
SLD-Solid
 62
     7
370
    15
100
AcDbLine
 10
627.1692846701
 20
965.733176179
 30
0.0
 11
627.1692846701
 21
973.5591021252
 31
0.0
  0
LWPOLYLINE
  5
13D
330
1F
100
AcDbEntity
  8
0
  6
SLD-Solid
 62
     7
370
    15
100
AcDbPolyline
 90
        7
 70
   128
 43
0.0
 10
628.1192933008
 20
973.4979477597
 10
628.1916235373
 20
973.5006150675
 10
628.2555495188
 20
973.5080060435
 10
628.3090744898
 20
973.5195842457
 10
628.3501420901
 20
973.5359457207
 10
628.369275181
 20
973.5584613753
 10
628.3693049833
 20
973.5591021252
  0
LINE
  5
13E
330
1F
100
AcDbEntity
  8
0
  6
SLD-Solid
 62
     7
370
    15
100
AcDbLine
 10
628.3693049833
 20
973.5591021252
 30
0.0
 11
628.3693049833
 21
966.1324676943
 31
0.0
  0
LINE
  5
13F
330
1F
100
AcDbEntity
  8
0
  6
SLD-Solid
 62
     7
370
    15
100
AcDbLine
 10
628.1192933008
 20
973.4979477597
 30
0.0
 11
627.4192963526
 21
973.4979477597
 31
0.0
  0
ARC
  5
140
330
1F
100
AcDbEntity
  8
0
  6
SLD-Solid
 62
     7
370
    15
100
AcDbCircle
 10
628.4464522344
 20
977.9184781551
 30
0.0
 40
1.289384405893275
100
AcDbArc
 50
82.2966400154
 51
172.1065038621
  0
LWPOLYLINE
  5
141
330
1F
100
AcDbEntity
  8
0
  6
SLD-Solid
 62
     7
370
    15
100
AcDbPolyline
 90
        6
 70
   128
 43
0.0
 10
627.1692846701
 20
973.781591363
 10
627.2584234163
 20
974.1235432101
 10
627.5210712835
 20
974.4289425088
 10
627.9154454157
 20
974.6488538457
 10
628.3766959593
 20
974.7598525954
 10
628.6192868635
 20
974.7738745881
  0
LINE
  5
142
330
1F
100
AcDbEntity
  8
0
  6
SLD-Solid
 62
     7
370
    15
100
AcDbLine
 10
627.1692846701
 20
973.781591363
 30
0.0
 11
627.1692846701
 21
978.0955520344
 31
0.0
  0
LINE
  5
143
330
1F
100
AcDbEntity
  8
0
  6
SLD-Solid
 62
     7
370
    15
100
AcDbLine
 10
633.9692805693
 20
978.9763745738
 30
0.0
 11
633.9692805693
 21
974.6623990012
 31
0.0
  0
LINE
  5
144
330
1F
100
AcDbEntity
  8
0
  6
SLD-Solid
 62
     7
370
    15
100
AcDbLine
 10
633.9692805693
 20
974.6623990012
 30
0.0
 11
633.9692805693
 21
974.1502013875
 31
0.0
  0
LINE
  5
145
330
1F
100
AcDbEntity
  8
0
  6
SLD-Solid
 62
     7
370
    15
100
AcDbLine
 10
628.3693049833
 20
973.781591363
 30
0.0
 11
628.3693049833
 21
973.5591021252
 31
0.0
  0
LINE
  5
146
330
1F
100
AcDbEntity
  8
0
  6
SLD-Solid
 62
     7
370
    15
100
AcDbLine
 10
627.1692846701
 20
973.5591021252
 30
0.0
 11
627.1692846701
 21
973.781591363
 31
0.0
  0
LINE
  5
147
330
1F
100
AcDbEntity
  8
0
  6
SLD-Solid
 62
     7
370
    15
100
AcDbLine
 10
628.6192868635
 20
979.2263713551
 30
0.0
 11
628.6192868635
 21
979.196226306
 31
0.0
  0
LINE
  5
148
330
1F
100
AcDbEntity
  8
0
  6
SLD-Solid
 62
     7
370
    15
100
AcDbLine
 10
627.1692846701
 20
978.0955520344
 30
0.0
 11
627.1692846701
 21
978.6757883502
 31
0.0
  0
LINE
  5
149
330
1F
100
AcDbEntity
  8
0
  6
SLD-Solid
 62
     7
370
    15
100
AcDbLine
 10
633.9692805693
 20
961.9874191356
 30
0.0
 11
633.9692805693
 21
961.4752140713
 31
0.0
  0
LINE
  5
14A
330
1F
100
AcDbEntity
  8
0
  6
SLD-Solid
 62
     7
370
    15
100
AcDbLine
 10
633.9692805693
 20
964.7244718743
 30
0.0
 11
633.9692805693
 21
961.9874191356
 31
0.0
  0
LINE
  5
14B
330
1F
100
AcDbEntity
  8
0
  6
SLD-Solid
 62
     7
370
    15
100
AcDbLine
 10
639.7727166102
 20
968.3219549132
 30
0.0
 11
639.9692927286
 21
967.49254138
 31
0.0
  0
LINE
  5
14C
330
1F
100
AcDbEntity
  8
0
  6
SLD-Solid
 62
     7
370
    15
100
AcDbLine
 10
639.9692927286
 20
965.3282147718
 30
0.0
 11
639.7727166102
 21
964.5535406542
 31
0.0
  0
LINE
  5
14D
330
1F
100
AcDbEntity
  8
0
  6
SLD-Solid
 62
     7
370
    15
100
AcDbLine
 10
639.7727166102
 20
964.5535406542
 30
0.0
 11
635.4658637926
 21
964.5535406542
 31
0.0
  0
LWPOLYLINE
  5
14E
330
1F
100
AcDbEntity
  8
0
  6
SLD-Solid
 62
     7
370
    15
100
AcDbPolyline
 90
        3
 70
   128
 43
0.0
 10
635.0192759916
 20
966.4377477837
 10
635.0217197821
 20
966.3038161469
 10
635.4658637926
 20
964.5535406542
  0
LINE
  5
14F
330
1F
100
AcDbEntity
  8
0
  6
SLD-Solid
 62
     7
370
    15
100
AcDbLine
 10
635.4658637926
 20
968.3219549132
 30
0.0
 11
635.0192759916
 21
966.4377477837
 31
0.0
  0
LINE
  5
150
330
1F
100
AcDbEntity
  8
0
  6
SLD-Solid
 62
     7
370
    15
100
AcDbLine
 10
639.7727166102
 20
968.3219549132
 30
0.0
 11
635.4658637926
 21
968.3219549132
 31
0.0
  0
LWPOLYLINE
  5
151
330
1F
100
AcDbEntity
  8
0
  6
SLD-Solid
 62
     7
370
    15
100
AcDbPolyline
 90
        3
 70
   128
 43
0.0
 10
635.4658637926
 20
968.3219549132
 10
635.2765296385
 20
969.038641162
 10
635.0192759916
 20
971.1580929232
  0
LINE
  5
152
330
1F
100
AcDbEntity
  8
0
  6
SLD-Solid
 62
     7
370
    15
100
AcDbLine
 10
635.0192759916
 20
966.4377477837
 30
0.0
 11
635.0192759916
 21
971.1580929232
 31
0.0
  0
LWPOLYLINE
  5
153
330
1F
100
AcDbEntity
  8
0
  6
SLD-Solid
 62
     7
370
    15
100
AcDbPolyline
 90
        3
 70
   128
 43
0.0
 10
639.7727166102
 20
968.3219549132
 10
639.9620507643
 20
969.038641162
 10
639.9692927286
 20
969.0982011033
  0
LWPOLYLINE
  5
154
330
1F
100
AcDbEntity
  8
0
  6
SLD-Solid
 62
     7
370
    15
100
AcDbPolyline
 90
        3
 70
   128
 43
0.0
 10
635.0192759916
 20
971.1580929232
 10
635.054710953
 20
971.9299134684
 10
635.4658637926
 20
973.9942160321
  0
LINE
  5
155
330
1F
100
AcDbEntity
  8
0
  6
SLD-Solid
 62
     7
370
    15
100
AcDbLine
 10
639.7727166102
 20
973.9942160321
 30
0.0
 11
635.4658637926
 21
973.9942160321
 31
0.0
  0
LINE
  5
156
330
1F
100
AcDbEntity
  8
0
  6
SLD-Solid
 62
     7
370
    15
100
AcDbLine
 10
639.9692927286
 20
973.0072525216
 30
0.0
 11
639.7727166102
 21
973.9942160321
 31
0.0
  0
LINE
  5
157
330
1F
100
AcDbEntity
  8
0
  6
SLD-Solid
 62
     7
370
    15
100
AcDbLine
 10
639.9692927286
 20
974.3855801297
 30
0.0
 11
639.7727166102
 21
973.9942160321
 31
0.0
  0
LWPOLYLINE
  5
158
330
1F
100
AcDbEntity
  8
0
  6
SLD-Solid
 62
     7
370
    15
100
AcDbPolyline
 90
        3
 70
   128
 43
0.0
 10
635.0192759916
 20
974.9461320115
 10
635.0217197821
 20
974.8784658385
 10
635.4658637926
 20
973.9942160321
  0
LINE
  5
159
330
1F
100
AcDbEntity
  8
0
  6
SLD-Solid
 62
     7
370
    15
100
AcDbLine
 10
635.0192759916
 20
971.1580929232
 30
0.0
 11
635.0192759916
 21
974.9461320115
 31
0.0
  0
LINE
  5
15A
330
1F
100
AcDbEntity
  8
0
  6
SLD-Solid
 62
     7
370
    15
100
AcDbLine
 10
639.7727166102
 20
975.8980479909
 30
0.0
 11
639.9486397192
 21
975.5230006648
 31
0.0
  0
LINE
  5
15B
330
1F
100
AcDbEntity
  8
0
  6
SLD-Solid
 62
     7
370
    15
100
AcDbLine
 10
635.4658637926
 20
975.8980479909
 30
0.0
 11
635.0192759916
 21
974.9461320115
 31
0.0
  0
LINE
  5
15C
330
1F
100
AcDbEntity
  8
0
  6
SLD-Solid
 62
     7
370
    15
100
AcDbLine
 10
639.7727166102
 20
975.8980479909
 30
0.0
 11
635.4658637926
 21
975.8980479909
 31
0.0
  0
LINE
  5
15D
330
1F
100
AcDbEntity
  8
0
  6
SLD-Solid
 62
     7
370
    15
100
AcDbLine
 10
635.4658637926
 20
964.5535406542
 30
0.0
 11
635.2899406836
 21
964.9285805298
 31
0.0
  0
LINE
  5
15E
330
1F
100
AcDbEntity
  8
0
  6
SLD-Solid
 62
     7
370
    15
100
AcDbLine
 10
635.0192759916
 20
965.2257916403
 30
0.0
 11
635.0192759916
 21
966.4377477837
 31
0.0
  0
LINE
  5
15F
330
1F
100
AcDbEntity
  8
0
  6
SLD-Solid
 62
     7
370
    15
100
AcDbLine
 10
639.7727166102
 20
964.5535406542
 30
0.0
 11
639.9486397192
 21
964.9285805298
 31
0.0
  0
LINE
  5
160
330
1F
100
AcDbEntity
  8
0
  6
SLD-Solid
 62
     7
370
    15
100
AcDbLine
 10
635.0192759916
 20
974.9461320115
 30
0.0
 11
635.0192759916
 21
975.2257970048
 31
0.0
  0
LINE
  5
161
330
1F
100
AcDbEntity
  8
0
  6
SLD-Solid
 62
     7
370
    15
100
AcDbLine
 10
626.7226968691
 20
974.8333749247
 30
0.0
 11
627.1692846701
 21
972.1750226689
 31
0.0
  0
LWPOLYLINE
  5
162
330
1F
100
AcDbEntity
  8
0
  6
SLD-Solid
 62
     7
370
    15
100
AcDbPolyline
 90
        3
 70
   128
 43
0.0
 10
627.1692846701
 20
972.1750226689
 10
627.166870682
 20
971.9860461426
 10
626.7226968691
 20
969.5166704131
  0
LINE
  5
163
330
1F
100
AcDbEntity
  8
0
  6
SLD-Solid
 62
     7
370
    15
100
AcDbLine
 10
626.7226968691
 20
969.5166704131
 30
0.0
 11
622.4158738539
 21
969.5166704131
 31
0.0
  0
LWPOLYLINE
  5
164
330
1F
100
AcDbEntity
  8
0
  6
SLD-Solid
 62
     7
370
    15
100
AcDbPolyline
 90
        3
 70
   128
 43
0.0
 10
621.9692860529
 20
972.1750226689
 10
621.9717298433
 20
971.9860461426
 10
622.4158738539
 20
969.5166704131
  0
LINE
  5
165
330
1F
100
AcDbEntity
  8
0
  6
SLD-Solid
 62
     7
370
    15
100
AcDbLine
 10
622.4158738539
 20
974.8333749247
 30
0.0
 11
621.9692860529
 21
972.1750226689
 31
0.0
  0
LINE
  5
166
330
1F
100
AcDbEntity
  8
0
  6
SLD-Solid
 62
     7
370
    15
100
AcDbLine
 10
626.7226968691
 20
974.8333749247
 30
0.0
 11
622.4158738539
 21
974.8333749247
 31
0.0
  0
LWPOLYLINE
  5
167
330
1F
100
AcDbEntity
  8
0
  6
SLD-Solid
 62
     7
370
    15
100
AcDbPolyline
 90
        3
 70
   128
 43
0.0
 10
627.1692846701
 20
967.2128763867
 10
627.1338795111
 20
967.8398278428
 10
626.7226968691
 20
969.5166704131
  0
LWPOLYLINE
  5
168
330
1F
100
AcDbEntity
  8
0
  6
SLD-Solid
 62
     7
370
    15
100
AcDbPolyline
 90
        3
 70
   128
 43
0.0
 10
621.9692860529
 20
967.2128763867
 10
622.0046912119
 20
967.8398278428
 10
622.4158738539
 20
969.5166704131
  0
LINE
  5
169
330
1F
100
AcDbEntity
  8
0
  6
SLD-Solid
 62
     7
370
    15
100
AcDbLine
 10
621.9692860529
 20
967.2128763867
 30
0.0
 11
621.9692860529
 21
972.1750226689
 31
0.0
  0
LINE
  5
16A
330
1F
100
AcDbEntity
  8
0
  6
SLD-Solid
 62
     7
370
    15
100
AcDbLine
 10
626.9482110426
 20
965.733176179
 30
0.0
 11
627.1692846701
 21
967.2128763867
 31
0.0
  0
LINE
  5
16B
330
1F
100
AcDbEntity
  8
0
  6
SLD-Solid
 62
     7
370
    15
100
AcDbLine
 10
622.7692995951
 20
964.9090898109
 30
0.0
 11
622.4158738539
 21
964.9090898109
 31
0.0
  0
LWPOLYLINE
  5
16C
330
1F
100
AcDbEntity
  8
0
  6
SLD-Solid
 62
     7
370
    15
100
AcDbPolyline
 90
        3
 70
   128
 43
0.0
 10
622.4158738539
 20
964.9090898109
 10
622.2265098974
 20
965.4912409259
 10
621.9692860529
 20
967.2128763867
  0
LWPOLYLINE
  5
16D
330
1F
100
AcDbEntity
  8
0
  6
SLD-Solid
 62
     7
370
    15
100
AcDbPolyline
 90
        3
 70
   128
 43
0.0
 10
621.9692860529
 20
975.1879331542
 10
621.9717298433
 20
975.1627352906
 10
622.4158738539
 20
974.8333749247
  0
LINE
  5
16E
330
1F
100
AcDbEntity
  8
0
  6
SLD-Solid
 62
     7
370
    15
100
AcDbLine
 10
621.9692860529
 20
972.1750226689
 30
0.0
 11
621.9692860529
 21
975.1879331542
 31
0.0
  0
LWPOLYLINE
  5
16F
330
1F
100
AcDbEntity
  8
0
  6
SLD-Solid
 62
     7
370
    15
100
AcDbPolyline
 90
        3
 70
   128
 43
0.0
 10
627.1692846701
 20
975.1879331542
 10
627.166870682
 20
975.1627352906
 10
626.7226968691
 20
974.8333749247
  0
LINE
  5
170
330
1F
100
AcDbEntity
  8
0
  6
SLD-Solid
 62
     7
370
    15
100
AcDbLine
 10
622.4158738539
 20
964.9090898109
 30
0.0
 11
621.9692860529
 21
965.2636480404
 31
0.0
  0
LINE
  5
171
330
1F
100
AcDbEntity
  8
0
  6
SLD-Solid
 62
     7
370
    15
100
AcDbLine
 10
621.9692860529
 20
967.2128763867
 30
0.0
 11
621.9692860529
 21
965.225940652
 31
0.0
  0
LINE
  5
172
330
1F
100
AcDbEntity
  8
0
  6
SLD-Solid
 62
     7
370
    15
100
AcDbLine
 10
626.7226968691
 20
975.5425062848
 30
0.0
 11
627.1692846701
 21
975.1879331542
 31
0.0
  0
LINE
  5
173
330
1F
100
AcDbEntity
  8
0
  6
SLD-Solid
 62
     7
370
    15
100
AcDbLine
 10
622.4158738539
 20
975.5425062848
 30
0.0
 11
621.9692860529
 21
975.1879331542
 31
0.0
  0
LINE
  5
174
330
1F
100
AcDbEntity
  8
0
  6
SLD-Solid
 62
     7
370
    15
100
AcDbLine
 10
626.7226968691
 20
975.5425062848
 30
0.0
 11
622.4158738539
 21
975.5425062848
 31
0.0
  0
LINE
  5
175
330
1F
100
AcDbEntity
  8
0
  6
SLD-Solid
 62
     7
370
    15
100
AcDbLine
 10
634.3227063105
 20
975.7271167708
 30
0.0
 11
634.7692941115
 21
973.5932257844
 31
0.0
  0
LWPOLYLINE
  5
176
330
1F
100
AcDbEntity
  8
0
  6
SLD-Solid
 62
     7
370
    15
100
AcDbPolyline
 90
        3
 70
   128
 43
0.0
 10
634.7692941115
 20
973.5932257844
 10
634.766850321
 20
973.4415468646
 10
634.3227063105
 20
971.4593347979
  0
LINE
  5
177
330
1F
100
AcDbEntity
  8
0
  6
SLD-Solid
 62
     7
370
    15
100
AcDbLine
 10
634.3227063105
 20
971.4593347979
 30
0.0
 11
630.0158832953
 21
971.4593347979
 31
0.0
  0
LWPOLYLINE
  5
178
330
1F
100
AcDbEntity
  8
0
  6
SLD-Solid
 62
     7
370
    15
100
AcDbPolyline
 90
        3
 70
   128
 43
0.0
 10
629.5692954943
 20
973.5932257844
 10
629.5717094824
 20
973.4415468646
 10
630.0158832953
 20
971.4593347979
  0
LINE
  5
179
330
1F
100
AcDbEntity
  8
0
  6
SLD-Solid
 62
     7
370
    15
100
AcDbLine
 10
629.6335493014
 20
973.9002046061
 30
0.0
 11
629.5692954943
 21
973.5932257844
 31
0.0
  0
LINE
  5
17A
330
1F
100
AcDbEntity
  8
0
  6
SLD-Solid
 62
     7
370
    15
100
AcDbLine
 10
634.3227063105
 20
975.7271167708
 30
0.0
 11
633.9692805693
 21
975.7271167708
 31
0.0
  0
LWPOLYLINE
  5
17B
330
1F
100
AcDbEntity
  8
0
  6
SLD-Solid
 62
     7
370
    15
100
AcDbPolyline
 90
        3
 70
   128
 43
0.0
 10
629.5692954943
 20
968.7086847497
 10
629.6047006533
 20
969.4572445822
 10
630.0158832953
 20
971.4593347979
  0
LWPOLYLINE
  5
17C
330
1F
100
AcDbEntity
  8
0
  6
SLD-Solid
 62
     7
370
    15
100
AcDbPolyline
 90
        3
 70
   128
 43
0.0
 10
634.7692941115
 20
968.7086847497
 10
634.7338889525
 20
969.4572445822
 10
634.3227063105
 20
971.4593347979
  0
LINE
  5
17D
330
1F
100
AcDbEntity
  8
0
  6
SLD-Solid
 62
     7
370
    15
100
AcDbLine
 10
634.7692941115
 20
968.7086847497
 30
0.0
 11
634.7692941115
 21
973.5932257844
 31
0.0
  0
LWPOLYLINE
  5
17E
330
1F
100
AcDbEntity
  8
0
  6
SLD-Solid
 62
     7
370
    15
100
AcDbPolyline
 90
        3
 70
   128
 43
0.0
 10
634.3227063105
 20
965.9580198003
 10
634.5120702669
 20
966.6531142665
 10
634.7692941115
 20
968.7086847497
  0
LINE
  5
17F
330
1F
100
AcDbEntity
  8
0
  6
SLD-Solid
 62
     7
370
    15
100
AcDbLine
 10
634.3227063105
 20
965.9580198003
 30
0.0
 11
630.0158832953
 21
965.9580198003
 31
0.0
  0
LWPOLYLINE
  5
180
330
1F
100
AcDbEntity
  8
0
  6
SLD-Solid
 62
     7
370
    15
100
AcDbPolyline
 90
        3
 70
   128
 43
0.0
 10
630.0158832953
 20
965.9580198003
 10
629.8265193388
 20
966.6531142665
 10
629.5692954943
 20
968.7086847497
  0
LINE
  5
181
330
1F
100
AcDbEntity
  8
0
  6
SLD-Solid
 62
     7
370
    15
100
AcDbLine
 10
634.3227063105
 20
965.9580198003
 30
0.0
 11
634.7692941115
 21
965.3412458373
 31
0.0
  0
LINE
  5
182
330
1F
100
AcDbEntity
  8
0
  6
SLD-Solid
 62
     7
370
    15
100
AcDbLine
 10
634.7692941115
 20
968.7086847497
 30
0.0
 11
634.7692941115
 21
965.3412458373
 31
0.0
  0
LINE
  5
183
330
1F
100
AcDbEntity
  8
0
  6
SLD-Solid
 62
     7
370
    15
100
AcDbLine
 10
630.0158832953
 20
965.9580198003
 30
0.0
 11
629.5692954943
 21
965.3412458373
 31
0.0
  0
LINE
  5
184
330
1F
100
AcDbEntity
  8
0
  6
SLD-Solid
 62
     7
370
    15
100
AcDbLine
 10
634.6201632902
 20
975.3433969689
 30
0.0
 11
634.3227063105
 21
975.7271167708
 31
0.0
  0
LINE
  5
185
330
1F
100
AcDbEntity
  8
0
  6
SLD-Solid
 62
     7
370
    15
100
AcDbLine
 10
634.7692941115
 20
975.2257970048
 30
0.0
 11
634.7692941115
 21
973.5932257844
 31
0.0
  0
LWPOLYLINE
  5
186
330
1F
100
AcDbEntity
  8
0
  6
SLD-Solid
 62
     7
370
    15
100
AcDbPolyline
 90
        3
 70
   128
 43
0.0
 10
634.7692941115
 20
965.3412458373
 10
634.766850321
 20
965.297406621
 10
634.3227063105
 20
964.7244718743
  0
LINE
  5
187
330
1F
100
AcDbEntity
  8
0
  6
SLD-Solid
 62
     7
370
    15
100
AcDbLine
 10
634.3227063105
 20
964.7244718743
 30
0.0
 11
630.0158832953
 21
964.7244718743
 31
0.0
  0
LINE
  5
188
330
1F
100
AcDbEntity
  8
0
  6
SLD-Solid
 62
     7
370
    15
100
AcDbLine
 10
629.7183965132
 20
965.1081842256
 30
0.0
 11
630.0158832953
 21
964.7244718743
 31
0.0
  0
LINE
  5
189
330
1F
100
AcDbEntity
  8
0
  6
SLD-Solid
 62
     7
370
    15
100
AcDbLine
 10
634.7692941115
 20
965.3412458373
 30
0.0
 11
634.7692941115
 21
965.2257916403
 31
0.0
  0
LINE
  5
18A
330
1F
100
AcDbEntity
  8
0
  6
SLD-Solid
 62
     7
370
    15
100
AcDbLine
 10
745.2693019793
 20
1622.6257887555
 30
0.0
 11
745.2693019793
 21
1603.8757768346
 31
0.0
  0
LINE
  5
18B
330
1F
100
AcDbEntity
  8
0
  6
SLD-Solid
 62
     7
370
    15
100
AcDbLine
 10
1255.2692924425
 20
1627.6257839871
 30
0.0
 11
750.2692972109
 21
1627.6257839871
 31
0.0
  0
ARC
  5
18C
330
1F
100
AcDbEntity
  8
0
  6
SLD-Solid
 62
     7
370
    15
100
AcDbCircle
 10
1255.2692907199
 20
1622.6257928834
 30
0.0
 40
5.0
100
AcDbArc
 50
0.0
 51
90.0
  0
LINE
  5
18D
330
1F
100
AcDbEntity
  8
0
  6
SLD-Solid
 62
     7
370
    15
100
AcDbLine
 10
1260.2692876742
 20
1603.8757768346
 30
0.0
 11
1260.2692876742
 21
1622.6257887555
 31
0.0
  0
ARC
  5
18E
330
1F
100
AcDbEntity
  8
0
  6
SLD-Solid
 62
     7
370
    15
100
AcDbCircle
 10
750.2692907199
 20
1622.6257928834
 30
0.0
 40
5.0
100
AcDbArc
 50
90.0
 51
180.0
  0
LINE
  5
18F
330
1F
100
AcDbEntity
  8
0
  6
SLD-Solid
 62
     7
370
    15
100
AcDbLine
 10
745.2693019793
 20
1601.8758025838
 30
0.0
 11
745.2693019793
 21
1603.8757768346
 31
0.0
  0
LINE
  5
190
330
1F
100
AcDbEntity
  8
0
  6
SLD-Solid
 62
     7
370
    15
100
AcDbLine
 10
1260.2692876742
 20
1603.8757768346
 30
0.0
 11
1260.2692876742
 21
1601.8758025838
 31
0.0
  0
LWPOLYLINE
  5
191
330
1F
100
AcDbEntity
  8
0
  6
SLD-Solid
 62
     7
370
    15
100
AcDbPolyline
 90
        6
 70
   128
 43
0.0
 10
1381.3695643828
 20
1551.499566145
 10
1381.2999163553
 20
1551.7139044476
 10
1381.0068999216
 20
1552.6157227231
 10
1380.8152411864
 20
1553.2055702878
 10
1380.731824486
 20
1553.4622874928
 10
1380.7283376143
 20
1553.4730163289
  0
LWPOLYLINE
  5
192
330
1F
100
AcDbEntity
  8
0
  6
SLD-Solid
 62
     7
370
    15
100
AcDbPolyline
 90
       10
 70
   128
 43
0.0
 10
1386.8932460234
 20
1534.4994273854
 10
1386.8897591517
 20
1534.5101562215
 10
1386.8063424513
 20
1534.7668734265
 10
1386.614683716
 20
1535.3567209912
 10
1386.3216672823
 20
1536.2585392667
 10
1385.9379325792
 20
1537.4396053029
 10
1385.4772780821
 20
1538.8573017789
 10
1384.9564228937
 20
1540.4603090954
 10
1384.3941424772
 20
1542.1908107472
 10
1384.1559623167
 20
1542.9238286687
  0
LWPOLYLINE
  5
193
330
1F
100
AcDbEntity
  8
0
  6
SLD-Solid
 62
     7
370
    15
100
AcDbPolyline
 90
        7
 70
   128
 43
0.0
 10
1390.3772865221
 20
1538.3389797879
 10
1390.2167116091
 20
1538.8331022931
 10
1390.0045190737
 20
1539.4861903859
 10
1389.7075091288
 20
1540.4002872182
 10
1389.3418644354
 20
1541.5256229115
 10
1388.9322911188
 20
1542.7862015439
 10
1388.4357248232
 20
1544.3144050313
  0
ARC
  5
194
330
1F
100
AcDbEntity
  8
0
  6
SLD-Solid
 62
     7
370
    15
100
AcDbCircle
 10
1348.5692907199
 20
1464.611909063
 30
0.0
 40
1.0
100
AcDbArc
 50
180.0
 51
270.0
  0
ARC
  5
195
330
1F
100
AcDbEntity
  8
0
  6
SLD-Solid
 62
     7
370
    15
100
AcDbCircle
 10
1348.5692907199
 20
1583.2995835902
 30
0.0
 40
0.9999999999997726
100
AcDbArc
 50
90.0
 51
180.0
  0
LINE
  5
196
330
1F
100
AcDbEntity
  8
0
  6
SLD-Solid
 62
     7
370
    15
100
AcDbLine
 10
1347.5692902491
 20
1464.6119085026
 30
0.0
 11
1347.5692902491
 21
1583.299597807
 31
0.0
  0
ARC
  5
197
330
1F
100
AcDbEntity
  8
0
  6
SLD-Solid
 62
     7
370
    15
100
AcDbCircle
 10
1413.9291732899
 20
1485.2863335462
 30
0.0
 40
9.999999999999881
100
AcDbArc
 50
320.0
 51
70.0
  0
ARC
  5
198
330
1F
100
AcDbEntity
  8
0
  6
SLD-Solid
 62
     7
370
    15
100
AcDbCircle
 10
1413.9291732899
 20
1485.2863335462
 30
0.0
 40
10.8000000000001
100
AcDbArc
 50
320.0
 51
70.0
  0
ARC
  5
199
330
1F
100
AcDbEntity
  8
0
  6
SLD-Solid
 62
     7
370
    15
100
AcDbCircle
 10
1401.5927995107
 20
1511.9113040681
 30
0.0
 40
10.79999999999995
100
AcDbArc
 50
198.0
 51
250.0
  0
ARC
  5
19A
330
1F
100
AcDbEntity
  8
0
  6
SLD-Solid
 62
     7
370
    15
100
AcDbCircle
 10
1401.5927995107
 20
1511.9113040681
 30
0.0
 40
9.99999999999996
100
AcDbArc
 50
198.0
 51
250.0
  0
LINE
  5
19B
330
1F
100
AcDbEntity
  8
0
  6
SLD-Solid
 62
     7
370
    15
100
AcDbLine
 10
1417.6229868815
 20
1495.4350200368
 30
0.0
 11
1398.1725905821
 21
1502.514382906
 31
0.0
  0
LINE
  5
19C
330
1F
100
AcDbEntity
  8
0
  6
SLD-Solid
 62
     7
370
    15
100
AcDbLine
 10
1417.3493717596
 20
1494.6832862569
 30
0.0
 11
1397.8989754603
 21
1501.7626491261
 31
0.0
  0
LINE
  5
19D
330
1F
100
AcDbEntity
  8
0
  6
SLD-Solid
 62
     7
370
    15
100
AcDbLine
 10
1392.0822475836
 20
1508.8211503697
 30
0.0
 11
1367.7581284926
 21
1583.6830940915
 31
0.0
  0
LINE
  5
19E
330
1F
100
AcDbEntity
  8
0
  6
SLD-Solid
 62
     7
370
    15
100
AcDbLine
 10
1391.321394293
 20
1508.5739103032
 30
0.0
 11
1366.997275202
 21
1583.435854025
 31
0.0
  0
LINE
  5
19F
330
1F
100
AcDbEntity
  8
0
  6
SLD-Solid
 62
     7
370
    15
100
AcDbLine
 10
1347.5692902491
 20
1462.8119078351
 30
0.0
 11
1408.2133506224
 21
1462.8119078351
 31
0.0
  0
LINE
  5
1A0
330
1F
100
AcDbEntity
  8
0
  6
SLD-Solid
 62
     7
370
    15
100
AcDbLine
 10
1347.5692902491
 20
1463.6119213772
 30
0.0
 11
1347.5692902491
 21
1462.8119078351
 31
0.0
  0
LINE
  5
1A1
330
1F
100
AcDbEntity
  8
0
  6
SLD-Solid
 62
     7
370
    15
100
AcDbLine
 10
1347.5692902491
 20
1463.6119213772
 30
0.0
 11
1408.2133506224
 21
1463.6119213772
 31
0.0
  0
LINE
  5
1A2
330
1F
100
AcDbEntity
  8
0
  6
SLD-Solid
 62
     7
370
    15
100
AcDbLine
 10
1409.170929043
 20
1464.0584197713
 30
0.0
 11
1421.5896163866
 21
1478.8584318829
 31
0.0
  0
LINE
  5
1A3
330
1F
100
AcDbEntity
  8
0
  6
SLD-Solid
 62
     7
370
    15
100
AcDbLine
 10
1409.7837541983
 20
1463.5442105008
 30
0.0
 11
1422.2024415419
 21
1478.3442226124
 31
0.0
  0
ARC
  5
1A4
330
1F
100
AcDbEntity
  8
0
  6
SLD-Solid
 62
     7
370
    15
100
AcDbCircle
 10
1408.2133600207
 20
1464.861909063
 30
0.0
 40
2.050000000000126
100
AcDbArc
 50
270.0
 51
320.0
  0
ARC
  5
1A5
330
1F
100
AcDbEntity
  8
0
  6
SLD-Solid
 62
     7
370
    15
100
AcDbCircle
 10
1408.2133600207
 20
1464.861909063
 30
0.0
 40
1.250000000000227
100
AcDbArc
 50
270.0
 51
320.0
  0
ARC
  5
1A6
330
1F
100
AcDbEntity
  8
0
  6
SLD-Solid
 62
     7
370
    15
100
AcDbCircle
 10
1365.8084515358
 20
1583.0495835902
 30
0.0
 40
1.250000000000227
100
AcDbArc
 50
18.0
 51
90.0
  0
ARC
  5
1A7
330
1F
100
AcDbEntity
  8
0
  6
SLD-Solid
 62
     7
370
    15
100
AcDbCircle
 10
1365.8084515358
 20
1583.0495835902
 30
0.0
 40
2.050000000000182
100
AcDbArc
 50
18.0
 51
90.0
  0
LINE
  5
1A8
330
1F
100
AcDbEntity
  8
0
  6
SLD-Solid
 62
     7
370
    15
100
AcDbLine
 10
1347.5692902491
 20
1584.2995849324
 30
0.0
 11
1365.808460562
 21
1584.2995849324
 31
0.0
  0
LINE
  5
1A9
330
1F
100
AcDbEntity
  8
0
  6
SLD-Solid
 62
     7
370
    15
100
AcDbLine
 10
1347.5692902491
 20
1585.0995984746
 30
0.0
 11
1365.808460562
 21
1585.0995984746
 31
0.0
  0
LINE
  5
1AA
330
1F
100
AcDbEntity
  8
0
  6
SLD-Solid
 62
     7
370
    15
100
AcDbLine
 10
1347.5692902491
 20
1585.0995984746
 30
0.0
 11
1347.5692902491
 21
1584.2995849324
 31
0.0
  0
LINE
  5
1AB
330
1F
100
AcDbEntity
  8
0
  6
SLD-Solid
 62
     7
370
    15
100
AcDbLine
 10
1367.3617576048
 20
1584.9029627515
 30
0.0
 11
1367.7581284926
 21
1583.6830940915
 31
0.0
  0
LWPOLYLINE
  5
1AC
330
1F
100
AcDbEntity
  8
0
  6
SLD-Solid
 62
     7
370
    15
100
AcDbPolyline
 90
        3
 70
   128
 43
0.0
 10
1366.8134544775
 20
1586.3777604771
 10
1366.677794306
 20
1586.12306983
 10
1366.563442795
 20
1585.7930389119
  0
LWPOLYLINE
  5
1AD
330
1F
100
AcDbEntity
  8
0
  6
SLD-Solid
 62
     7
370
    15
100
AcDbPolyline
 90
        3
 70
   128
 43
0.0
 10
1368.0421446249
 20
1586.4311662389
 10
1367.8425584719
 20
1586.3194075299
 10
1367.7118752882
 20
1586.2161126805
  0
ARC
  5
1AE
330
1F
100
AcDbEntity
  8
0
  6
SLD-Solid
 62
     7
370
    15
100
AcDbCircle
 10
1368.550570252
 20
1585.2892342861
 30
0.0
 40
1.250000000000286
100
AcDbArc
 50
165.3068750746
 51
198.0
  0
LINE
  5
1AF
330
1F
100
AcDbEntity
  8
0
  6
SLD-Solid
 62
     7
370
    15
100
AcDbLine
 10
1368.0421446249
 20
1586.4311662389
 30
0.0
 11
1371.650550215
 21
1588.0377498341
 31
0.0
  0
LINE
  5
1B0
330
1F
100
AcDbEntity
  8
0
  6
SLD-Solid
 62
     7
370
    15
100
AcDbLine
 10
1346.3692997381
 20
1586.1429777814
 30
0.0
 11
1346.3692997381
 21
1587.0757904721
 31
0.0
  0
LINE
  5
1B1
330
1F
100
AcDbEntity
  8
0
  6
SLD-Solid
 62
     7
370
    15
100
AcDbLine
 10
1366.563442795
 20
1587.0757904721
 30
0.0
 11
1366.563442795
 21
1584.9554744435
 31
0.0
  0
ARC
  5
1B2
330
1F
100
AcDbEntity
  8
0
  6
SLD-Solid
 62
     7
370
    15
100
AcDbCircle
 10
1264.7192907199
 20
1617.1757928834
 30
0.0
 40
1.240000000000009
100
AcDbArc
 50
90.0
 51
180.0
  0
LINE
  5
1B3
330
1F
100
AcDbEntity
  8
0
  6
SLD-Solid
 62
     7
370
    15
100
AcDbLine
 10
1286.5192924425
 20
1618.4157934857
 30
0.0
 11
1264.7192959473
 21
1618.4157934857
 31
0.0
  0
ARC
  5
1B4
330
1F
100
AcDbEntity
  8
0
  6
SLD-Solid
 62
     7
370
    15
100
AcDbCircle
 10
1286.5192907199
 20
1620.8757928834
 30
0.0
 40
2.459999999999809
100
AcDbArc
 50
270.0
 51
0.0
  0
LINE
  5
1B5
330
1F
100
AcDbEntity
  8
0
  6
SLD-Solid
 62
     7
370
    15
100
AcDbLine
 10
1288.9792953417
 20
1637.12581069
 30
0.0
 11
1288.9792953417
 21
1620.8757963849
 31
0.0
  0
LINE
  5
1B6
330
1F
100
AcDbEntity
  8
0
  6
SLD-Solid
 62
     7
370
    15
100
AcDbLine
 10
1290.2192954704
 20
1637.12581069
 30
0.0
 11
1288.9792953417
 21
1637.12581069
 31
0.0
  0
LINE
  5
1B7
330
1F
100
AcDbEntity
  8
0
  6
SLD-Solid
 62
     7
370
    15
100
AcDbLine
 10
1290.2192954704
 20
1637.175818987
 30
0.0
 11
1290.2192954704
 21
1637.12581069
 31
0.0
  0
LINE
  5
1B8
330
1F
100
AcDbEntity
  8
0
  6
SLD-Solid
 62
     7
370
    15
100
AcDbLine
 10
1381.5360997603
 20
1637.12581069
 30
0.0
 11
1381.5360997603
 21
1637.175818987
 31
0.0
  0
LINE
  5
1B9
330
1F
100
AcDbEntity
  8
0
  6
SLD-Solid
 62
     7
370
    15
100
AcDbLine
 10
1382.036093323
 20
1637.12581069
 30
0.0
 11
1381.5360997603
 21
1637.12581069
 31
0.0
  0
LINE
  5
1BA
330
1F
100
AcDbEntity
  8
0
  6
SLD-Solid
 62
     7
370
    15
100
AcDbLine
 10
1382.036093323
 20
1638.3201089574
 30
0.0
 11
1382.036093323
 21
1637.12581069
 31
0.0
  0
ARC
  5
1BB
330
1F
100
AcDbEntity
  8
0
  6
SLD-Solid
 62
     7
370
    15
100
AcDbCircle
 10
1381.5360992184
 20
1616.3257928834
 30
0.0
 40
22.0000000000001
100
AcDbArc
 50
293.5
 51
88.6977110648
  0
LINE
  5
1BC
330
1F
100
AcDbEntity
  8
0
  6
SLD-Solid
 62
     7
370
    15
100
AcDbLine
 10
1366.8134544775
 20
1585.9344807339
 30
0.0
 11
1390.308592169
 21
1596.1504784299
 31
0.0
  0
LINE
  5
1BD
330
1F
100
AcDbEntity
  8
0
  6
SLD-Solid
 62
     7
370
    15
100
AcDbLine
 10
1346.3692997381
 20
1604.5257654858
 30
0.0
 11
1346.3692997381
 21
1587.0757904721
 31
0.0
  0
LINE
  5
1BE
330
1F
100
AcDbEntity
  8
0
  6
SLD-Solid
 62
     7
370
    15
100
AcDbLine
 10
1346.3588689253
 20
1604.5257654858
 30
0.0
 11
1346.3692997381
 21
1604.5257654858
 31
0.0
  0
ARC
  5
1BF
330
1F
100
AcDbEntity
  8
0
  6
SLD-Solid
 62
     7
370
    15
100
AcDbCircle
 10
1346.2442907199
 20
1604.4757928834
 30
0.0
 40
0.1250000000002396
100
AcDbArc
 50
23.5781784782
 51
156.4218215219
  0
LINE
  5
1C0
330
1F
100
AcDbEntity
  8
0
  6
SLD-Solid
 62
     7
370
    15
100
AcDbLine
 10
1346.1192880556
 20
1604.5257654858
 30
0.0
 11
1346.1297188685
 21
1604.5257654858
 31
0.0
  0
LINE
  5
1C1
330
1F
100
AcDbEntity
  8
0
  6
SLD-Solid
 62
     7
370
    15
100
AcDbLine
 10
1346.1192880556
 20
1604.4758167935
 30
0.0
 11
1346.1192880556
 21
1604.5257654858
 31
0.0
  0
ARC
  5
1C2
330
1F
100
AcDbEntity
  8
0
  6
SLD-Solid
 62
     7
370
    15
100
AcDbCircle
 10
1369.5281623562
 20
1601.0185925221
 30
0.0
 40
0.2500000000001912
100
AcDbArc
 50
99.9421486626
 51
279.9421486627
  0
ARC
  5
1C3
330
1F
100
AcDbEntity
  8
0
  6
SLD-Solid
 62
     7
370
    15
100
AcDbCircle
 10
1369.0360992184
 20
1603.8257928834
 30
0.0
 40
3.100000000000352
100
AcDbArc
 50
279.9421486627
 51
80.0578513373
  0
ARC
  5
1C4
330
1F
100
AcDbEntity
  8
0
  6
SLD-Solid
 62
     7
370
    15
100
AcDbCircle
 10
1369.5281623562
 20
1606.6329932447
 30
0.0
 40
0.250000000000152
100
AcDbArc
 50
80.0578513373
 51
260.0578513374
  0
ARC
  5
1C5
330
1F
100
AcDbEntity
  8
0
  6
SLD-Solid
 62
     7
370
    15
100
AcDbCircle
 10
1369.0360992184
 20
1603.8257928834
 30
0.0
 40
2.600000000000233
100
AcDbArc
 50
279.9421486627
 51
80.0578513373
  0
ARC
  5
1C6
330
1F
100
AcDbEntity
  8
0
  6
SLD-Solid
 62
     7
370
    15
100
AcDbCircle
 10
1368.5440360806
 20
1606.6329932447
 30
0.0
 40
0.2500000000001912
100
AcDbArc
 50
279.9421486627
 51
99.9421486626
  0
ARC
  5
1C7
330
1F
100
AcDbEntity
  8
0
  6
SLD-Solid
 62
     7
370
    15
100
AcDbCircle
 10
1369.0360992184
 20
1603.8257928834
 30
0.0
 40
3.100000000000234
100
AcDbArc
 50
99.9421486627
 51
260.0578513373
  0
ARC
  5
1C8
330
1F
100
AcDbEntity
  8
0
  6
SLD-Solid
 62
     7
370
    15
100
AcDbCircle
 10
1368.5440360806
 20
1601.0185925221
 30
0.0
 40
0.250000000000152
100
AcDbArc
 50
260.0578513374
 51
80.0578513373
  0
ARC
  5
1C9
330
1F
100
AcDbEntity
  8
0
  6
SLD-Solid
 62
     7
370
    15
100
AcDbCircle
 10
1369.0360992184
 20
1603.8257928834
 30
0.0
 40
2.600000000000115
100
AcDbArc
 50
99.9421486627
 51
260.0578513373
  0
LINE
  5
1CA
330
1F
100
AcDbEntity
  8
0
  6
SLD-Solid
 62
     7
370
    15
100
AcDbLine
 10
1263.4792958185
 20
1617.1757784558
 30
0.0
 11
1263.4792958185
 21
1604.4758167935
 31
0.0
  0
LINE
  5
1CB
330
1F
100
AcDbEntity
  8
0
  6
SLD-Solid
 62
     7
370
    15
100
AcDbLine
 10
1366.8134544775
 20
1585.9344807339
 30
0.0
 11
1366.8134544775
 21
1587.0757904721
 31
0.0
  0
ARC
  5
1CC
330
1F
100
AcDbEntity
  8
0
  6
SLD-Solid
 62
     7
370
    15
100
AcDbCircle
 10
1366.6884441478
 20
1587.0757928834
 30
0.0
 40
0.1250000000002274
100
AcDbArc
 50
0.0
 51
180.0
  0
LINE
  5
1CD
330
1F
100
AcDbEntity
  8
0
  6
SLD-Solid
 62
     7
370
    15
100
AcDbLine
 10
1346.1192880556
 20
1604.4758167935
 30
0.0
 11
1346.1192880556
 21
1602.02576787
 31
0.0
  0
LINE
  5
1CE
330
1F
100
AcDbEntity
  8
0
  6
SLD-Solid
 62
     7
370
    15
100
AcDbLine
 10
1346.1192880556
 20
1602.02576787
 30
0.0
 11
1263.4792958185
 21
1602.02576787
 31
0.0
  0
LINE
  5
1CF
330
1F
100
AcDbEntity
  8
0
  6
SLD-Solid
 62
     7
370
    15
100
AcDbLine
 10
1263.4792958185
 20
1602.02576787
 30
0.0
 11
1263.4792958185
 21
1604.4758167935
 31
0.0
  0
LINE
  5
1D0
330
1F
100
AcDbEntity
  8
0
  6
SLD-Solid
 62
     7
370
    15
100
AcDbLine
 10
1290.2192954704
 20
1637.175818987
 30
0.0
 11
1290.2192954704
 21
1639.6258083058
 31
0.0
  0
LINE
  5
1D1
330
1F
100
AcDbEntity
  8
0
  6
SLD-Solid
 62
     7
370
    15
100
AcDbLine
 10
1290.2192954704
 20
1639.6258083058
 30
0.0
 11
1381.5360997603
 21
1639.6258083058
 31
0.0
  0
LINE
  5
1D2
330
1F
100
AcDbEntity
  8
0
  6
SLD-Solid
 62
     7
370
    15
100
AcDbLine
 10
1381.5360997603
 20
1639.6258083058
 30
0.0
 11
1381.5360997603
 21
1637.175818987
 31
0.0
  0
LINE
  5
1D3
330
1F
100
AcDbEntity
  8
0
  6
SLD-Solid
 62
     7
370
    15
100
AcDbLine
 10
1288.9692966625
 20
1637.175818987
 30
0.0
 11
1287.7692912504
 21
1637.175818987
 31
0.0
  0
LINE
  5
1D4
330
1F
100
AcDbEntity
  8
0
  6
SLD-Solid
 62
     7
370
    15
100
AcDbLine
 10
1287.7692912504
 20
1637.175818987
 30
0.0
 11
1287.7692912504
 21
1620.8757963849
 31
0.0
  0
LINE
  5
1D5
330
1F
100
AcDbEntity
  8
0
  6
SLD-Solid
 62
     7
370
    15
100
AcDbLine
 10
1288.9692966625
 20
1637.175818987
 30
0.0
 11
1288.9692966625
 21
1620.8757963849
 31
0.0
  0
LINE
  5
1D6
330
1F
100
AcDbEntity
  8
0
  6
SLD-Solid
 62
     7
370
    15
100
AcDbLine
 10
1368.5729239866
 20
1585.2819886876
 30
0.0
 11
1390.8269439623
 21
1594.9582663251
 31
0.0
  0
LINE
  5
1D7
330
1F
100
AcDbEntity
  8
0
  6
SLD-Solid
 62
     7
370
    15
100
AcDbLine
 10
1368.0944178984
 20
1586.3824096394
 30
0.0
 11
1390.3484676764
 21
1596.0587468816
 31
0.0
  0
LWPOLYLINE
  5
1D8
330
1F
100
AcDbEntity
  8
0
  6
SLD-Solid
 62
     7
370
    15
100
AcDbPolyline
 90
        9
 70
   128
 43
0.0
 10
1368.5729239866
 20
1585.2819886876
 10
1368.393990843
 20
1585.2041450215
 10
1368.2219718382
 20
1585.1293411923
 10
1368.0634234831
 20
1585.060438223
 10
1367.9244552538
 20
1584.9999991131
 10
1367.810401766
 20
1584.9504080487
 10
1367.7256439612
 20
1584.9135723782
 10
1367.6734600947
 20
1584.8908630086
 10
1367.6558469221
 20
1584.883233614
  0
LINE
  5
1D9
330
1F
100
AcDbEntity
  8
0
  6
SLD-Solid
 62
     7
370
    15
100
AcDbLine
 10
1367.6558469221
 20
1584.883233614
 30
0.0
 11
1367.1773408339
 21
1585.9836545659
 31
0.0
  0
LWPOLYLINE
  5
1DA
330
1F
100
AcDbEntity
  8
0
  6
SLD-Solid
 62
     7
370
    15
100
AcDbPolyline
 90
        9
 70
   128
 43
0.0
 10
1367.1773408339
 20
1585.9836545659
 10
1367.1949838087
 20
1585.9913435651
 10
1367.2471676752
 20
1586.0140529347
 10
1367.3318956778
 20
1586.0508886052
 10
1367.4459491656
 20
1586.1004796696
 10
1367.5849173948
 20
1586.1609187794
 10
1367.7434657499
 20
1586.2298217488
 10
1367.9155145571
 20
1586.304625578
 10
1368.0944178984
 20
1586.3824096394
  0
ARC
  5
1DB
330
1F
100
AcDbEntity
  8
0
  6
SLD-Solid
 62
     7
370
    15
100
AcDbCircle
 10
1286.5192907199
 20
1620.8757928834
 30
0.0
 40
2.450000000000045
100
AcDbArc
 50
270.0
 51
0.0
  0
ARC
  5
1DC
330
1F
100
AcDbEntity
  8
0
  6
SLD-Solid
 62
     7
370
    15
100
AcDbCircle
 10
1286.5192907199
 20
1620.8757928834
 30
0.0
 40
1.249999999999773
100
AcDbArc
 50
270.0
 51
0.0
  0
ARC
  5
1DD
330
1F
100
AcDbEntity
  8
0
  6
SLD-Solid
 62
     7
370
    15
100
AcDbCircle
 10
1264.7192907199
 20
1617.1757928834
 30
0.0
 40
1.25
100
AcDbArc
 50
90.0
 51
180.0
  0
ARC
  5
1DE
330
1F
100
AcDbEntity
  8
0
  6
SLD-Solid
 62
     7
370
    15
100
AcDbCircle
 10
1264.7192907199
 20
1617.1757928834
 30
0.0
 40
2.450000000000045
100
AcDbArc
 50
90.0
 51
180.0
  0
LINE
  5
1DF
330
1F
100
AcDbEntity
  8
0
  6
SLD-Solid
 62
     7
370
    15
100
AcDbLine
 10
1286.5192924425
 20
1618.425807066
 30
0.0
 11
1264.7192959473
 21
1618.425807066
 31
0.0
  0
LINE
  5
1E0
330
1F
100
AcDbEntity
  8
0
  6
SLD-Solid
 62
     7
370
    15
100
AcDbLine
 10
1286.5192924425
 20
1619.6257677746
 30
0.0
 11
1264.7192959473
 21
1619.6257677746
 31
0.0
  0
LINE
  5
1E1
330
1F
100
AcDbEntity
  8
0
  6
SLD-Solid
 62
     7
370
    15
100
AcDbLine
 10
1262.2692917273
 20
1617.1757784558
 30
0.0
 11
1262.2692917273
 21
1610.6257644368
 31
0.0
  0
LINE
  5
1E2
330
1F
100
AcDbEntity
  8
0
  6
SLD-Solid
 62
     7
370
    15
100
AcDbLine
 10
1263.4692971394
 20
1617.1757784558
 30
0.0
 11
1263.4692971394
 21
1610.6257644368
 31
0.0
  0
LINE
  5
1E3
330
1F
100
AcDbEntity
  8
0
  6
SLD-Solid
 62
     7
370
    15
100
AcDbLine
 10
1263.4692971394
 20
1609.6257773114
 30
0.0
 11
1262.2692917273
 21
1609.6257773114
 31
0.0
  0
LINE
  5
1E4
330
1F
100
AcDbEntity
  8
0
  6
SLD-Solid
 62
     7
370
    15
100
AcDbLine
 10
1262.2692917273
 20
1609.6257773114
 30
0.0
 11
1262.2692917273
 21
1610.6257644368
 31
0.0
  0
LINE
  5
1E5
330
1F
100
AcDbEntity
  8
0
  6
SLD-Solid
 62
     7
370
    15
100
AcDbLine
 10
1263.4692971394
 20
1610.6257644368
 30
0.0
 11
1263.4692971394
 21
1609.6257773114
 31
0.0
  0
ARC
  5
1E6
330
1F
100
AcDbEntity
  8
0
  6
SLD-Solid
 62
     7
370
    15
100
AcDbCircle
 10
1381.5360992184
 20
1616.3257928834
 30
0.0
 40
22.10000000000023
100
AcDbArc
 50
293.5
 51
88.703604783
  0
ARC
  5
1E7
330
1F
100
AcDbEntity
  8
0
  6
SLD-Solid
 62
     7
370
    15
100
AcDbCircle
 10
1381.5360992184
 20
1616.3257928834
 30
0.0
 40
23.30000000000013
100
AcDbArc
 50
293.5
 51
88.7703824493
  0
LINE
  5
1E8
330
1F
100
AcDbEntity
  8
0
  6
SLD-Solid
 62
     7
370
    15
100
AcDbLine
 10
1382.036093323
 20
1638.4201255513
 30
0.0
 11
1382.036093323
 21
1639.6204438878
 31
0.0
  0
ARC
  5
1E9
330
1F
100
AcDbEntity
  8
0
  6
SLD-Solid
 62
     7
370
    15
100
AcDbCircle
 10
1381.5360992184
 20
1616.3257928834
 30
0.0
 40
22.10000000000023
100
AcDbArc
 50
88.703604783
 51
90.0
  0
ARC
  5
1EA
330
1F
100
AcDbEntity
  8
0
  6
SLD-Solid
 62
     7
370
    15
100
AcDbCircle
 10
1381.5360992184
 20
1616.3257928834
 30
0.0
 40
23.30000000000041
100
AcDbArc
 50
88.7703824493
 51
90.0
  0
ARC
  5
1EB
330
1F
100
AcDbEntity
  8
0
  6
SLD-Solid
 62
     7
370
    15
100
AcDbCircle
 10
1290.2192907199
 20
1637.1757928834
 30
0.0
 40
2.450000000000273
100
AcDbArc
 50
90.0
 51
180.0
  0
ARC
  5
1EC
330
1F
100
AcDbEntity
  8
0
  6
SLD-Solid
 62
     7
370
    15
100
AcDbCircle
 10
1290.2192907199
 20
1637.1757928834
 30
0.0
 40
1.250000000000227
100
AcDbArc
 50
90.0
 51
180.0
  0
LWPOLYLINE
  5
1ED
330
1F
100
AcDbEntity
  8
0
  6
SLD-Solid
 62
     7
370
    15
100
AcDbPolyline
 90
       31
 70
   128
 43
0.0
 10
1400.0686143324
 20
1518.6532345486
 10
1400.0135992453
 20
1518.8225713444
 10
1399.8491500303
 20
1519.3286743832
 10
1399.5770548269
 20
1520.1660600377
 10
1399.2003236696
 20
1521.3254895878
 10
1398.7230990812
 20
1522.794326849
 10
1398.1505368635
 20
1524.5564189625
 10
1397.4889849112
 20
1526.5924540234
 10
1396.7456553862
 20
1528.8801994992
 10
1395.9287141249
 20
1531.3945022298
 10
1395.0470720217
 20
1534.1078844739
 10
1394.1104148314
 20
1536.9906035138
 10
1393.1290243551
 20
1540.0110688878
 10
1392.1136294291
 20
1543.1361404133
 10
1391.0753463194
 20
1546.331664629
 10
1390.0255595133
 20
1549.5625940037
 10
1388.9757727072
 20
1552.7934637738
 10
1387.9374895975
 20
1555.9889879895
 10
1386.9220648691
 20
1559.1140595151
 10
1385.9406743929
 20
1562.1345248891
 10
1385.0040172026
 20
1565.017243929
 10
1384.1224049017
 20
1567.7306261731
 10
1383.3054338381
 20
1570.2449289036
 10
1382.5621043131
 20
1572.5326743794
 10
1381.9005523607
 20
1574.5687690449
 10
1381.3280199454
 20
1576.3308611584
 10
1380.8507655546
 20
1577.799638815
 10
1380.4740343973
 20
1578.9591279698
 10
1380.2019689963
 20
1579.7964540196
 10
1380.0375197813
 20
1580.3025570584
 10
1379.9825046942
 20
1580.4718938542
  0
LWPOLYLINE
  5
1EE
330
1F
100
AcDbEntity
  8
0
  6
SLD-Solid
 62
     7
370
    15
100
AcDbPolyline
 90
        6
 70
   128
 43
0.0
 10
1392.2124837324
 20
1575.1925912572
 10
1391.6884396956
 20
1576.8053737355
 10
1391.2731443331
 20
1578.0835357381
 10
1390.9723196909
 20
1579.0093746854
 10
1390.7901380942
 20
1579.5700755788
 10
1390.7291327402
 20
1579.7578302098
  0
LWPOLYLINE
  5
1EF
330
1F
100
AcDbEntity
  8
0
  6
SLD-Solid
 62
     7
370
    15
100
AcDbPolyline
 90
        6
 70
   128
 43
0.0
 10
1408.3431099341
 20
1525.5476442052
 10
1408.2821045801
 20
1525.7353988362
 10
1408.0999229834
 20
1526.2960997296
 10
1407.7990983412
 20
1527.2219386769
 10
1407.3837731764
 20
1528.5001006795
 10
1406.8597589419
 20
1530.1129427624
  0
LWPOLYLINE
  5
1F0
330
1F
100
AcDbEntity
  8
0
  6
SLD-Solid
 62
     7
370
    15
100
AcDbPolyline
 90
        7
 70
   128
 43
0.0
 10
1402.7255211756
 20
1526.4065471364
 10
1402.7070139334
 20
1526.5403595639
 10
1402.7385149882
 20
1526.703437872
 10
1402.8210376188
 20
1526.8789139462
 10
1402.9553268835
 20
1527.0685759259
 10
1403.2862816736
 20
1527.4051633549
 10
1403.6526118204
 20
1527.6994910908
  0
LINE
  5
1F1
330
1F
100
AcDbEntity
  8
0
  6
SLD-Solid
 62
     7
370
    15
100
AcDbLine
 10
1402.7747844145
 20
1526.3178554249
 30
0.0
 11
1402.7255211756
 21
1526.4065471364
 31
0.0
  0
LWPOLYLINE
  5
1F2
330
1F
100
AcDbEntity
  8
0
  6
SLD-Solid
 62
     7
370
    15
100
AcDbPolyline
 90
        7
 70
   128
 43
0.0
 10
1403.6526118204
 20
1527.6994910908
 10
1404.0279422686
 20
1527.9614535046
 10
1404.4061933443
 20
1528.1588640881
 10
1404.5866762087
 20
1528.2102432919
 10
1404.7361944601
 20
1528.2089915944
 10
1404.8419927046
 20
1528.1492677403
 10
1404.8440192625
 20
1528.1457510663
  0
LINE
  5
1F3
330
1F
100
AcDbEntity
  8
0
  6
SLD-Solid
 62
     7
370
    15
100
AcDbLine
 10
1403.1785164759
 20
1525.2654758168
 30
0.0
 11
1402.9940699026
 21
1525.8131828976
 31
0.0
  0
LWPOLYLINE
  5
1F4
330
1F
100
AcDbEntity
  8
0
  6
SLD-Solid
 62
     7
370
    15
100
AcDbPolyline
 90
        4
 70
   128
 43
0.0
 10
1404.2012427733
 20
1526.2744632435
 10
1404.2244885847
 20
1526.2422171307
 10
1404.2646025107
 20
1526.2266603184
 10
1404.3750797198
 20
1526.234289713
  0
ARC
  5
1F5
330
1F
100
AcDbEntity
  8
0
  6
SLD-Solid
 62
     7
370
    15
100
AcDbCircle
 10
1404.4671737201
 20
1526.7558386653
 30
0.0
 40
0.395943921115383
100
AcDbArc
 50
309.9942123315
 51
1.6982099774
  0
LINE
  5
1F6
330
1F
100
AcDbEntity
  8
0
  6
SLD-Solid
 62
     7
370
    15
100
AcDbLine
 10
1404.791835396
 20
1526.2283292485
 30
0.0
 11
1404.7216509268
 21
1526.4525023175
 31
0.0
  0
LWPOLYLINE
  5
1F7
330
1F
100
AcDbEntity
  8
0
  6
SLD-Solid
 62
     7
370
    15
100
AcDbPolyline
 90
        6
 70
   128
 43
0.0
 10
1404.3782089636
 20
1526.8990603162
 10
1404.6603475496
 20
1527.079125948
 10
1404.7947560236
 20
1527.1353927327
 10
1404.9218331263
 20
1527.1674600316
 10
1405.123147814
 20
1527.1559563351
 10
1405.1741395876
 20
1527.0994511319
  0
ARC
  5
1F8
330
1F
100
AcDbEntity
  8
0
  6
SLD-Solid
 62
     7
370
    15
100
AcDbCircle
 10
1404.8943353411
 20
1525.9669306889
 30
0.0
 40
1.065482087882902
100
AcDbArc
 50
118.9735908254
 51
177.9753595983
  0
LINE
  5
1F9
330
1F
100
AcDbEntity
  8
0
  6
SLD-Solid
 62
     7
370
    15
100
AcDbLine
 10
1403.8733576224
 20
1525.9446111394
 30
0.0
 11
1403.8295184061
 21
1526.004573412
 31
0.0
  0
LINE
  5
1FA
330
1F
100
AcDbEntity
  8
0
  6
SLD-Solid
 62
     7
370
    15
100
AcDbLine
 10
1403.4844671175
 20
1525.7045236302
 30
0.0
 11
1403.8733576224
 21
1525.9446111394
 31
0.0
  0
LINE
  5
1FB
330
1F
100
AcDbEntity
  8
0
  6
SLD-Solid
 62
     7
370
    15
100
AcDbLine
 10
1402.9940699026
 20
1525.8131828976
 30
0.0
 11
1403.3530388758
 21
1526.0893908215
 31
0.0
  0
LINE
  5
1FC
330
1F
100
AcDbEntity
  8
0
  6
SLD-Solid
 62
     7
370
    15
100
AcDbLine
 10
1403.4473036215
 20
1524.3960228635
 30
0.0
 11
1403.352413027
 21
1524.6819463444
 31
0.0
  0
LINE
  5
1FD
330
1F
100
AcDbEntity
  8
0
  6
SLD-Solid
 62
     7
370
    15
100
AcDbLine
 10
1403.352413027
 20
1524.6819463444
 30
0.0
 11
1405.4033790514
 21
1526.2943711949
 31
0.0
  0
LWPOLYLINE
  5
1FE
330
1F
100
AcDbEntity
  8
0
  6
SLD-Solid
 62
     7
370
    15
100
AcDbPolyline
 90
        7
 70
   128
 43
0.0
 10
1398.2245956347
 20
1540.2811375333
 10
1398.1791172907
 20
1540.4997673703
 10
1398.1891606733
 20
1540.7305565549
 10
1398.2582126543
 20
1540.9476366711
 10
1398.3869884894
 20
1541.154047556
 10
1398.7269733832
 20
1541.4623227788
 10
1399.1152380392
 20
1541.6864958478
  0
ARC
  5
1FF
330
1F
100
AcDbEntity
  8
0
  6
SLD-Solid
 62
     7
370
    15
100
AcDbCircle
 10
1398.8427894998
 20
1540.4456277353
 30
0.0
 40
0.6397035887741337
100
AcDbArc
 50
194.900132677
 51
242.6029885191
  0
ARC
  5
200
330
1F
100
AcDbEntity
  8
0
  6
SLD-Solid
 62
     7
370
    15
100
AcDbCircle
 10
1399.8111327361
 20
1540.7999008212
 30
0.0
 40
1.127084810574967
100
AcDbArc
 50
63.0283538932
 51
128.1286188179
  0
LWPOLYLINE
  5
201
330
1F
100
AcDbEntity
  8
0
  6
SLD-Solid
 62
     7
370
    15
100
AcDbPolyline
 90
        7
 70
   128
 43
0.0
 10
1399.2219005511
 20
1538.6303868962
 10
1399.2512558386
 20
1538.5648217869
 10
1399.2950056479
 20
1538.5098663045
 10
1399.3500803396
 20
1538.4716597272
 10
1399.4160030768
 20
1538.4486523343
 10
1399.5573554918
 20
1538.4491291714
 10
1399.6989761278
 20
1538.4993162823
  0
LINE
  5
202
330
1F
100
AcDbEntity
  8
0
  6
SLD-Solid
 62
     7
370
    15
100
AcDbLine
 10
1400.443616955
 20
1540.1643124295
 30
0.0
 11
1400.8294080183
 21
1540.3683987332
 31
0.0
  0
LINE
  5
203
330
1F
100
AcDbEntity
  8
0
  6
SLD-Solid
 62
     7
370
    15
100
AcDbLine
 10
1400.7091854498
 20
1539.3591132832
 30
0.0
 11
1400.443616955
 21
1540.1643124295
 31
0.0
  0
LINE
  5
204
330
1F
100
AcDbEntity
  8
0
  6
SLD-Solid
 62
     7
370
    15
100
AcDbLine
 10
1400.3675018236
 20
1539.4745078755
 30
0.0
 11
1400.7091854498
 21
1539.3591132832
 31
0.0
  0
ARC
  5
205
330
1F
100
AcDbEntity
  8
0
  6
SLD-Solid
 62
     7
370
    15
100
AcDbCircle
 10
1399.7693383482
 20
1538.2730440647
 30
0.0
 40
1.342130706026077
100
AcDbArc
 50
63.5330198588
 51
113.3426675839
  0
ARC
  5
206
330
1F
100
AcDbEntity
  8
0
  6
SLD-Solid
 62
     7
370
    15
100
AcDbCircle
 10
1399.6748768038
 20
1538.7243706733
 30
0.0
 40
0.8950669469378308
100
AcDbArc
 50
119.248628818
 51
197.7649068158
  0
ARC
  5
207
330
1F
100
AcDbEntity
  8
0
  6
SLD-Solid
 62
     7
370
    15
100
AcDbCircle
 10
1399.4302572923
 20
1538.5976069996
 30
0.0
 40
0.6251354770916263
100
AcDbArc
 50
193.5374309909
 51
249.9126121486
  0
LINE
  5
208
330
1F
100
AcDbEntity
  8
0
  6
SLD-Solid
 62
     7
370
    15
100
AcDbLine
 10
1399.582329838
 20
1536.3122430516
 30
0.0
 11
1399.382564871
 21
1536.9296875668
 31
0.0
  0
LINE
  5
209
330
1F
100
AcDbEntity
  8
0
  6
SLD-Solid
 62
     7
370
    15
100
AcDbLine
 10
1399.382564871
 20
1536.9296875668
 30
0.0
 11
1401.5551541731
 21
1538.1460991574
 31
0.0
  0
LWPOLYLINE
  5
20A
330
1F
100
AcDbEntity
  8
0
  6
SLD-Solid
 62
     7
370
    15
100
AcDbPolyline
 90
       10
 70
   128
 43
0.0
 10
1382.4771676943
 20
1580.3061333371
 10
1382.4770782873
 20
1580.3061333371
 10
1382.6664124415
 20
1580.2800265027
 10
1383.2050894186
 20
1580.2113023472
 10
1384.0120170996
 20
1580.1241603566
 10
1384.9653337881
 20
1580.0460186673
 10
1385.920438616
 20
1579.9954739285
 10
1386.731806843
 20
1579.9749699307
 10
1387.2744773314
 20
1579.9730625821
 10
1387.465987055
 20
1579.9746719075
  0
LWPOLYLINE
  5
20B
330
1F
100
AcDbEntity
  8
0
  6
SLD-Solid
 62
     7
370
    15
100
AcDbPolyline
 90
       10
 70
   128
 43
0.0
 10
1397.5815509245
 20
1538.7519803715
 10
1397.4311982081
 20
1538.8438311291
 10
1396.9256316111
 20
1538.8917532635
 10
1396.4167867586
 20
1538.7181249333
 10
1395.9820900843
 20
1538.3514967633
 10
1395.688000767
 20
1537.8461089802
 10
1395.5750499651
 20
1537.2815933896
 10
1395.6594203398
 20
1536.7444363309
 10
1395.9272836134
 20
1536.3177862836
 10
1396.1438868925
 20
1536.1842122746
  0
LWPOLYLINE
  5
20C
330
1F
100
AcDbEntity
  8
0
  6
SLD-Solid
 62
     7
370
    15
100
AcDbPolyline
 90
       12
 70
   128
 43
0.0
 10
1402.0652209208
 20
1523.9991751385
 10
1402.3368094847
 20
1524.422606535
 10
1402.4428759501
 20
1524.7928109837
 10
1402.3598764822
 20
1525.0541177464
 10
1402.1024738238
 20
1525.1676645947
 10
1401.7127786562
 20
1525.1144972516
 10
1401.2529288218
 20
1524.8971787167
 10
1400.7952545569
 20
1524.5480743123
 10
1400.4099403307
 20
1524.1190400792
 10
1400.152239649
 20
1523.6785617543
 10
1400.0588987753
 20
1523.2970920277
 10
1400.1416896269
 20
1523.0364409161
  0
LWPOLYLINE
  5
20D
330
1F
100
AcDbEntity
  8
0
  6
SLD-Solid
 62
     7
370
    15
100
AcDbPolyline
 90
        9
 70
   128
 43
0.0
 10
1399.1292451307
 20
1532.5716343594
 10
1398.9909921572
 20
1532.6552000714
 10
1398.7557922289
 20
1532.667180605
 10
1398.5072408602
 20
1532.5766411496
 10
1398.2834850237
 20
1532.3971715642
 10
1398.1184397623
 20
1532.1561899853
 10
1398.0365131781
 20
1531.8910089207
 10
1398.0495069906
 20
1531.642457552
 10
1398.1551562235
 20
1531.4486828519
  0
LWPOLYLINE
  5
20E
330
1F
100
AcDbEntity
  8
0
  6
SLD-Solid
 62
     7
370
    15
100
AcDbPolyline
 90
        9
 70
   128
 43
0.0
 10
1400.628689377
 20
1528.0945506764
 10
1400.4840885088
 20
1528.1747785283
 10
1400.2680812761
 20
1528.1697121335
 10
1400.0278149531
 20
1528.0717817021
 10
1399.8003636286
 20
1527.8955307675
 10
1399.6202383921
 20
1527.6679006291
 10
1399.5142315314
 20
1527.424117632
 10
1399.4976614401
 20
1527.2020903302
 10
1399.5726440832
 20
1527.0360317898
  0
LWPOLYLINE
  5
20F
330
1F
100
AcDbEntity
  8
0
  6
SLD-Solid
 62
     7
370
    15
100
AcDbPolyline
 90
       12
 70
   128
 43
0.0
 10
1402.3830030844
 20
1521.6366854382
 10
1402.5435183928
 20
1521.8210426045
 10
1402.6294682905
 20
1521.9672527981
 10
1402.6269648955
 20
1522.0539179516
 10
1402.5362764284
 20
1522.0680442525
 10
1402.3716782019
 20
1522.0069494916
 10
1402.1591578409
 20
1521.8787995053
 10
1401.9317065165
 20
1521.7023697568
 10
1401.7241631434
 20
1521.5043035222
 10
1401.5675817415
 20
1521.3153567982
 10
1401.4849399016
 20
1521.1652723027
 10
1401.4881585524
 20
1521.0777130795
  0
LWPOLYLINE
  5
210
330
1F
100
AcDbEntity
  8
0
  6
SLD-Solid
 62
     7
370
    15
100
AcDbPolyline
 90
        3
 70
   128
 43
0.0
 10
1402.6080106184
 20
1520.7997766209
 10
1402.7892385409
 20
1520.9594574643
 10
1402.9047523424
 20
1521.0705009175
  0
LWPOLYLINE
  5
211
330
1F
100
AcDbEntity
  8
0
  6
SLD-Solid
 62
     7
370
    15
100
AcDbPolyline
 90
       10
 70
   128
 43
0.0
 10
1402.9351805136
 20
1521.1156216336
 10
1402.9361043856
 20
1521.1169329358
 10
1402.8782878802
 20
1521.0920777989
 10
1402.7404819414
 20
1520.9991541577
 10
1402.5445316717
 20
1520.8513942433
 10
1402.3210738585
 20
1520.6702557278
 10
1402.1043513701
 20
1520.4830375386
 10
1401.9269679472
 20
1520.3187075329
 10
1401.8151198313
 20
1520.2033129407
 10
1401.785049288
 20
1520.155271597
  0
LWPOLYLINE
  5
212
330
1F
100
AcDbEntity
  8
0
  6
SLD-Solid
 62
     7
370
    15
100
AcDbPolyline
 90
       17
 70
   128
 43
0.0
 10
1398.089471905
 20
1537.058195181
 10
1398.210946171
 20
1537.6154986096
 10
1398.1324468538
 20
1538.1528344823
 10
1397.8585635111
 20
1538.5832396222
 10
1397.4352513239
 20
1538.8416257573
 10
1396.9292376921
 20
1538.8892498685
 10
1396.420333235
 20
1538.7151447011
 10
1395.985666363
 20
1538.3478012753
 10
1395.6919048712
 20
1537.8415790272
 10
1395.5797289297
 20
1537.276825018
 10
1395.6651125834
 20
1536.7393103314
 10
1395.9338699267
 20
1536.3131967259
 10
1396.3457380221
 20
1536.0605326367
 10
1396.8409334109
 20
1536.0206571294
 10
1397.3465000078
 20
1536.1974445058
 10
1397.7862928793
 20
1536.5656223965
 10
1398.089471905
 20
1537.058195181
  0
LWPOLYLINE
  5
213
330
1F
100
AcDbEntity
  8
0
  6
SLD-Solid
 62
     7
370
    15
100
AcDbPolyline
 90
       17
 70
   128
 43
0.0
 10
1392.7793239042
 20
1573.4479633046
 10
1393.4220109865
 20
1571.4699831677
 10
1394.1427205488
 20
1569.2519155217
 10
1394.9322138712
 20
1566.8220725728
 10
1395.7804773733
 20
1564.2113891316
 10
1396.6766332075
 20
1561.4533034039
 10
1397.6092968867
 20
1558.5829225255
 10
1398.5665176794
 20
1555.6368437482
 10
1399.536106436
 20
1552.6527372075
 10
1400.5057249949
 20
1549.6686306668
 10
1401.4629457876
 20
1546.7225518895
 10
1402.3955796644
 20
1543.852171011
 10
1403.291765301
 20
1541.0940852833
 10
1404.1399990008
 20
1538.4834614468
 10
1404.9295221255
 20
1536.0535588933
 10
1405.6502018854
 20
1533.8354912472
 10
1406.2928889677
 20
1531.8575111104
  0
LWPOLYLINE
  5
214
330
1F
100
AcDbEntity
  8
0
  6
SLD-Solid
 62
     7
370
    15
100
AcDbPolyline
 90
        7
 70
   128
 43
0.0
 10
1398.2292149946
 20
1540.278991766
 10
1398.1837068484
 20
1540.4977408124
 10
1398.1937204287
 20
1540.7285299969
 10
1398.2627724096
 20
1540.9456101132
 10
1398.3915184424
 20
1541.1520806027
 10
1398.7315033362
 20
1541.4604154301
 10
1399.1197381899
 20
1541.6845884991
  0
LWPOLYLINE
  5
215
330
1F
100
AcDbEntity
  8
0
  6
SLD-Solid
 62
     7
370
    15
100
AcDbPolyline
 90
        7
 70
   128
 43
0.0
 10
1399.1197381899
 20
1541.6845884991
 10
1399.5237384722
 20
1541.8548193646
 10
1399.9416266367
 20
1541.9261661244
 10
1400.1565907881
 20
1541.8922510815
 10
1400.3268812582
 20
1541.8023672772
 10
1400.4629288599
 20
1541.6448918057
 10
1400.5510543272
 20
1541.4483156872
  0
LWPOLYLINE
  5
216
330
1F
100
AcDbEntity
  8
0
  6
SLD-Solid
 62
     7
370
    15
100
AcDbPolyline
 90
        7
 70
   128
 43
0.0
 10
1400.5510543272
 20
1541.4483156872
 10
1400.596979706
 20
1541.2329641057
 10
1400.5892012999
 20
1541.0061088277
 10
1400.520715563
 20
1540.7933798505
 10
1400.3921185419
 20
1540.5880418492
 10
1400.055173485
 20
1540.281852789
 10
1399.6707533285
 20
1540.0604215337
  0
LWPOLYLINE
  5
217
330
1F
100
AcDbEntity
  8
0
  6
SLD-Solid
 62
     7
370
    15
100
AcDbPolyline
 90
        3
 70
   128
 43
0.0
 10
1399.6707533285
 20
1540.0604215337
 10
1399.2033039019
 20
1539.8686733914
 10
1398.7249766276
 20
1539.8178902341
  0
ARC
  5
218
330
1F
100
AcDbEntity
  8
0
  6
SLD-Solid
 62
     7
370
    15
100
AcDbCircle
 10
1398.8527412744
 20
1540.4523229987
 30
0.0
 40
0.6471697905316117
100
AcDbArc
 50
195.535156728
 51
258.613837014
  0
ARC
  5
219
330
1F
100
AcDbEntity
  8
0
  6
SLD-Solid
 62
     7
370
    15
100
AcDbCircle
 10
1399.9151269973
 20
1541.1760205381
 30
0.0
 40
0.2567813080481231
100
AcDbArc
 50
17.1919522255
 51
87.9635296353
  0
LWPOLYLINE
  5
21A
330
1F
100
AcDbEntity
  8
0
  6
SLD-Solid
 62
     7
370
    15
100
AcDbPolyline
 90
        3
 70
   128
 43
0.0
 10
1399.9242518828
 20
1541.4326396657
 10
1399.5926712439
 20
1541.3797107411
 10
1399.2714916155
 20
1541.2432161046
  0
LWPOLYLINE
  5
21B
330
1F
100
AcDbEntity
  8
0
  6
SLD-Solid
 62
     7
370
    15
100
AcDbPolyline
 90
        7
 70
   128
 43
0.0
 10
1399.2714916155
 20
1541.2432161046
 10
1398.8222812102
 20
1540.9651604367
 10
1398.7256322787
 20
1540.8694353772
 10
1398.6513648913
 20
1540.7526698781
 10
1398.6118470118
 20
1540.6205263806
 10
1398.6118470118
 20
1540.5529943181
 10
1398.6257646963
 20
1540.4889789296
  0
LWPOLYLINE
  5
21C
330
1F
100
AcDbEntity
  8
0
  6
SLD-Solid
 62
     7
370
    15
100
AcDbPolyline
 90
        7
 70
   128
 43
0.0
 10
1398.6257646963
 20
1540.4889789296
 10
1398.6895416662
 20
1540.377160616
 10
1398.7376128123
 20
1540.3360930157
 10
1398.792687504
 20
1540.3089132977
 10
1398.9146088049
 20
1540.2934160901
 10
1399.0444277212
 20
1540.3101053906
 10
1399.5404277727
 20
1540.5057278348
  0
LWPOLYLINE
  5
21D
330
1F
100
AcDbEntity
  8
0
  6
SLD-Solid
 62
     7
370
    15
100
AcDbPolyline
 90
        6
 70
   128
 43
0.0
 10
1399.5404277727
 20
1540.5057278348
 10
1399.9787901327
 20
1540.7808628751
 10
1400.0712071345
 20
1540.8773627949
 10
1400.1408849642
 20
1540.9936514569
 10
1400.1753662512
 20
1541.1236491872
 10
1400.1604352877
 20
1541.2519183827
  0
LWPOLYLINE
  5
21E
330
1F
100
AcDbEntity
  8
0
  6
SLD-Solid
 62
     7
370
    15
100
AcDbPolyline
 90
        3
 70
   128
 43
0.0
 10
1398.2292149946
 20
1540.278991766
 10
1398.2269202158
 20
1540.2800646496
 10
1398.2245956347
 20
1540.2811375333
  0
ARC
  5
21F
330
1F
100
AcDbEntity
  8
0
  6
SLD-Solid
 62
     7
370
    15
100
AcDbCircle
 10
1399.9105749135
 20
1541.1780459658
 30
0.0
 40
0.256781108660886
100
AcDbArc
 50
17.2200754239
 51
87.9718948936
  0
LWPOLYLINE
  5
220
330
1F
100
AcDbEntity
  8
0
  6
SLD-Solid
 62
     7
370
    15
100
AcDbPolyline
 90
        6
 70
   128
 43
0.0
 10
1399.5358084128
 20
1540.5079332066
 10
1399.9741409704
 20
1540.7830682469
 10
1400.0665877745
 20
1540.8795681668
 10
1400.1362656042
 20
1540.9958568288
 10
1400.1707468912
 20
1541.125854559
 10
1400.15584573
 20
1541.2540641499
  0
LWPOLYLINE
  5
221
330
1F
100
AcDbEntity
  8
0
  6
SLD-Solid
 62
     7
370
    15
100
AcDbPolyline
 90
        7
 70
   128
 43
0.0
 10
1398.6211453364
 20
1540.4911246968
 10
1398.6849223063
 20
1540.3793659878
 10
1398.7329934523
 20
1540.3382983876
 10
1398.7880681441
 20
1540.3111186696
 10
1398.9099894449
 20
1540.2956214619
 10
1399.0397785589
 20
1540.3123703671
 10
1399.5358084128
 20
1540.5079332066
  0
LINE
  5
222
330
1F
100
AcDbEntity
  8
0
  6
SLD-Solid
 62
     7
370
    15
100
AcDbLine
 10
1400.15584573
 20
1541.2540641499
 30
0.0
 11
1400.1604352877
 21
1541.2519183827
 31
0.0
  0
LINE
  5
223
330
1F
100
AcDbEntity
  8
0
  6
SLD-Solid
 62
     7
370
    15
100
AcDbLine
 10
1399.7038041041
 20
1538.496514864
 30
0.0
 11
1399.834695904
 21
1538.0809512807
 31
0.0
  0
ARC
  5
224
330
1F
100
AcDbEntity
  8
0
  6
SLD-Solid
 62
     7
370
    15
100
AcDbCircle
 10
1399.4644135288
 20
1538.630424299
 30
0.0
 40
0.662593114383049
100
AcDbArc
 50
195.9277017529
 51
303.975492868
  0
ARC
  5
225
330
1F
100
AcDbEntity
  8
0
  6
SLD-Solid
 62
     7
370
    15
100
AcDbCircle
 10
1399.679707976
 20
1538.7218209479
 30
0.0
 40
0.8951671817500266
100
AcDbArc
 50
119.2540156968
 51
197.7717557468
  0
ARC
  5
226
330
1F
100
AcDbEntity
  8
0
  6
SLD-Solid
 62
     7
370
    15
100
AcDbCircle
 10
1399.773905775
 20
1538.2711682316
 30
0.0
 40
1.341498511130328
100
AcDbArc
 50
63.5099874293
 51
113.3477452719
  0
LINE
  5
227
330
1F
100
AcDbEntity
  8
0
  6
SLD-Solid
 62
     7
370
    15
100
AcDbLine
 10
1400.3722701952
 20
1539.4718256665
 30
0.0
 11
1400.7139836237
 21
1539.3564310742
 31
0.0
  0
LINE
  5
228
330
1F
100
AcDbEntity
  8
0
  6
SLD-Solid
 62
     7
370
    15
100
AcDbLine
 10
1400.7139836237
 20
1539.3564310742
 30
0.0
 11
1400.4483257219
 21
1540.1618686391
 31
0.0
  0
LINE
  5
229
330
1F
100
AcDbEntity
  8
0
  6
SLD-Solid
 62
     7
370
    15
100
AcDbLine
 10
1400.4483257219
 20
1540.1618686391
 30
0.0
 11
1400.8341167853
 21
1540.3659549428
 31
0.0
  0
LINE
  5
22A
330
1F
100
AcDbEntity
  8
0
  6
SLD-Solid
 62
     7
370
    15
100
AcDbLine
 10
1400.8341167853
 20
1540.3659549428
 30
0.0
 11
1401.3388191149
 21
1538.806101389
 31
0.0
  0
LINE
  5
22B
330
1F
100
AcDbEntity
  8
0
  6
SLD-Solid
 62
     7
370
    15
100
AcDbLine
 10
1401.3388191149
 20
1538.806101389
 30
0.0
 11
1401.1389349386
 21
1538.7002435399
 31
0.0
  0
LINE
  5
22C
330
1F
100
AcDbEntity
  8
0
  6
SLD-Solid
 62
     7
370
    15
100
AcDbLine
 10
1401.1389349386
 20
1538.7002435399
 30
0.0
 11
1400.2284143851
 21
1539.0281286908
 31
0.0
  0
ARC
  5
22D
330
1F
100
AcDbEntity
  8
0
  6
SLD-Solid
 62
     7
370
    15
100
AcDbCircle
 10
1399.7538090528
 20
1538.1739709079
 30
0.0
 40
0.9771569676339951
100
AcDbArc
 50
60.9416423639
 51
110.1111499128
  0
ARC
  5
22E
330
1F
100
AcDbEntity
  8
0
  6
SLD-Solid
 62
     7
370
    15
100
AcDbCircle
 10
1399.5935772938
 20
1538.7478325649
 30
0.0
 40
0.3860448047103443
100
AcDbArc
 50
117.0825840779
 51
198.1301159271
  0
LWPOLYLINE
  5
22F
330
1F
100
AcDbEntity
  8
0
  6
SLD-Solid
 62
     7
370
    15
100
AcDbPolyline
 90
        7
 70
   128
 43
0.0
 10
1399.226698725
 20
1538.6277046872
 10
1399.2560242102
 20
1538.5620799733
 10
1399.2998038218
 20
1538.5071244908
 10
1399.3548785135
 20
1538.4688583089
 10
1399.4208012507
 20
1538.445850916
 10
1399.5621536658
 20
1538.4463277531
 10
1399.7038041041
 20
1538.496514864
  0
LINE
  5
230
330
1F
100
AcDbEntity
  8
0
  6
SLD-Solid
 62
     7
370
    15
100
AcDbLine
 10
1399.2422555372
 20
1539.5028200818
 30
0.0
 11
1399.2375467703
 21
1539.5053234769
 31
0.0
  0
LWPOLYLINE
  5
231
330
1F
100
AcDbEntity
  8
0
  6
SLD-Solid
 62
     7
370
    15
100
AcDbPolyline
 90
        3
 70
   128
 43
0.0
 10
1398.827258198
 20
1538.4485927296
 10
1398.8248740122
 20
1538.4499636365
 10
1398.8224898264
 20
1538.4512749386
  0
LWPOLYLINE
  5
232
330
1F
100
AcDbEntity
  8
0
  6
SLD-Solid
 62
     7
370
    15
100
AcDbPolyline
 90
        3
 70
   128
 43
0.0
 10
1399.7038041041
 20
1538.496514864
 10
1399.7013901159
 20
1538.4979453755
 10
1399.6989761278
 20
1538.4993162823
  0
LINE
  5
233
330
1F
100
AcDbEntity
  8
0
  6
SLD-Solid
 62
     7
370
    15
100
AcDbLine
 10
1400.4483257219
 20
1540.1618686391
 30
0.0
 11
1400.443616955
 21
1540.1643124295
 31
0.0
  0
LINE
  5
234
330
1F
100
AcDbEntity
  8
0
  6
SLD-Solid
 62
     7
370
    15
100
AcDbLine
 10
1400.7139836237
 20
1539.3564310742
 30
0.0
 11
1400.7091854498
 21
1539.3591132832
 31
0.0
  0
LINE
  5
235
330
1F
100
AcDbEntity
  8
0
  6
SLD-Solid
 62
     7
370
    15
100
AcDbLine
 10
1400.8341167853
 20
1540.3659549428
 30
0.0
 11
1400.8294080183
 21
1540.3683987332
 31
0.0
  0
LINE
  5
236
330
1F
100
AcDbEntity
  8
0
  6
SLD-Solid
 62
     7
370
    15
100
AcDbLine
 10
1401.5600715563
 20
1538.1429401112
 30
0.0
 11
1401.5551541731
 21
1538.1460991574
 31
0.0
  0
LINE
  5
237
330
1F
100
AcDbEntity
  8
0
  6
SLD-Solid
 62
     7
370
    15
100
AcDbLine
 10
1399.3875120566
 20
1536.9265285206
 30
0.0
 11
1401.5600715563
 21
1538.1429401112
 31
0.0
  0
LINE
  5
238
330
1F
100
AcDbEntity
  8
0
  6
SLD-Solid
 62
     7
370
    15
100
AcDbLine
 10
1399.3875120566
 20
1536.9265285206
 30
0.0
 11
1399.382564871
 21
1536.9296875668
 31
0.0
  0
LINE
  5
239
330
1F
100
AcDbEntity
  8
0
  6
SLD-Solid
 62
     7
370
    15
100
AcDbLine
 10
1399.5873068258
 20
1536.3089051915
 30
0.0
 11
1399.3875120566
 21
1536.9265285206
 31
0.0
  0
LINE
  5
23A
330
1F
100
AcDbEntity
  8
0
  6
SLD-Solid
 62
     7
370
    15
100
AcDbLine
 10
1401.5600715563
 20
1538.1429401112
 30
0.0
 11
1401.6936157629
 21
1537.7324429227
 31
0.0
  0
LINE
  5
23B
330
1F
100
AcDbEntity
  8
0
  6
SLD-Solid
 62
     7
370
    15
100
AcDbLine
 10
1401.6936157629
 20
1537.7324429227
 30
0.0
 11
1399.9095593378
 21
1536.7335286809
 31
0.0
  0
LINE
  5
23C
330
1F
100
AcDbEntity
  8
0
  6
SLD-Solid
 62
     7
370
    15
100
AcDbLine
 10
1399.9095593378
 20
1536.7335286809
 30
0.0
 11
1400.0508223459
 21
1536.2890568448
 31
0.0
  0
LINE
  5
23D
330
1F
100
AcDbEntity
  8
0
  6
SLD-Solid
 62
     7
370
    15
100
AcDbLine
 10
1400.0508223459
 20
1536.2890568448
 30
0.0
 11
1399.5873068258
 21
1536.3089051915
 31
0.0
  0
LINE
  5
23E
330
1F
100
AcDbEntity
  8
0
  6
SLD-Solid
 62
     7
370
    15
100
AcDbLine
 10
1399.5873068258
 20
1536.3089051915
 30
0.0
 11
1399.582329838
 21
1536.3122430516
 31
0.0
  0
LWPOLYLINE
  5
23F
330
1F
100
AcDbEntity
  8
0
  6
SLD-Solid
 62
     7
370
    15
100
AcDbPolyline
 90
       17
 70
   128
 43
0.0
 10
1399.2146287844
 20
1531.8342652989
 10
1399.2997740194
 20
1532.0968833638
 10
1399.2883001253
 20
1532.3442426396
 10
1399.1816376135
 20
1532.5389114094
 10
1398.9962671683
 20
1532.6510277463
 10
1398.7610374376
 20
1532.6630082799
 10
1398.5124860689
 20
1532.5725284291
 10
1398.2887600348
 20
1532.392999239
 10
1398.1236849711
 20
1532.1520176602
 10
1398.0417881891
 20
1531.886776991
 10
1398.054811804
 20
1531.6381660176
 10
1398.1604610369
 20
1531.4443317128
 10
1398.3428512499
 20
1531.3346591664
 10
1398.5748623297
 20
1531.3252416325
 10
1398.8218639776
 20
1531.4170327855
 10
1399.0465734884
 20
1531.5957275105
 10
1399.2146287844
 20
1531.8342652989
  0
LWPOLYLINE
  5
240
330
1F
100
AcDbEntity
  8
0
  6
SLD-Solid
 62
     7
370
    15
100
AcDbPolyline
 90
       17
 70
   128
 43
0.0
 10
1400.5951617644
 20
1527.4545756055
 10
1400.7047747061
 20
1527.6948419285
 10
1400.7234905646
 20
1527.9147830678
 10
1400.6479714796
 20
1528.0814376546
 10
1400.4898105547
 20
1528.1692352963
 10
1400.2737735197
 20
1528.1641689015
 10
1400.0335071966
 20
1528.0662980748
 10
1399.8060558722
 20
1527.8900471402
 10
1399.6259306357
 20
1527.6624170018
 10
1399.5199237749
 20
1527.4185744
 10
1399.503383486
 20
1527.1964874936
 10
1399.5783661291
 20
1527.0304289532
 10
1399.7336064264
 20
1526.9454923344
 10
1399.9460373804
 20
1526.9540754033
 10
1400.184128134
 20
1527.0540323926
 10
1400.4120860979
 20
1527.22980649
 10
1400.5951617644
 20
1527.4545756055
  0
ARC
  5
241
330
1F
100
AcDbEntity
  8
0
  6
SLD-Solid
 62
     7
370
    15
100
AcDbCircle
 10
1405.8616649075
 20
1530.7952737009
 30
0.0
 40
1.195364756528769
100
AcDbArc
 50
326.9491051267
 51
19.2574927188
  0
ARC
  5
242
330
1F
100
AcDbEntity
  8
0
  6
SLD-Solid
 62
     7
370
    15
100
AcDbCircle
 10
1406.8915538903
 20
1530.1243639291
 30
0.0
 40
0.0337840464225701
100
AcDbArc
 50
145.8251125085
 51
199.7589605062
  0
ARC
  5
243
330
1F
100
AcDbEntity
  8
0
  6
SLD-Solid
 62
     7
370
    15
100
AcDbCircle
 10
1391.8058934255
 20
1574.0536039824
 30
0.0
 40
1.195641620704387
100
AcDbArc
 50
16.7498556802
 51
69.0466255783
  0
ARC
  5
244
330
1F
100
AcDbEntity
  8
0
  6
SLD-Solid
 62
     7
370
    15
100
AcDbCircle
 10
1392.2458267555
 20
1575.2027795126
 30
0.0
 40
0.0348648495404131
100
AcDbArc
 50
196.9909953285
 51
249.2326286584
  0
LWPOLYLINE
  5
245
330
1F
100
AcDbEntity
  8
0
  6
SLD-Solid
 62
     7
370
    15
100
AcDbPolyline
 90
        3
 70
   128
 43
0.0
 10
1402.7315114424
 20
1526.400229044
 10
1402.7285014078
 20
1526.4033880902
 10
1402.7255211756
 20
1526.4065471364
  0
LWPOLYLINE
  5
246
330
1F
100
AcDbEntity
  8
0
  6
SLD-Solid
 62
     7
370
    15
100
AcDbPolyline
 90
        7
 70
   128
 43
0.0
 10
1402.7315114424
 20
1526.400229044
 10
1402.7129445955
 20
1526.5340414715
 10
1402.7444754526
 20
1526.6971793843
 10
1402.826968281
 20
1526.8726554585
 10
1402.9612575457
 20
1527.0623770428
 10
1403.2922123358
 20
1527.3989048672
 10
1403.6585424826
 20
1527.6932922078
  0
LWPOLYLINE
  5
247
330
1F
100
AcDbEntity
  8
0
  6
SLD-Solid
 62
     7
370
    15
100
AcDbPolyline
 90
        7
 70
   128
 43
0.0
 10
1403.6585424826
 20
1527.6932922078
 10
1404.0338729307
 20
1527.9552546216
 10
1404.4121240065
 20
1528.1526056004
 10
1404.5926068709
 20
1528.2039848042
 10
1404.7421251223
 20
1528.2027331067
 10
1404.8479531691
 20
1528.1430092526
 10
1404.9068425581
 20
1528.0398336125
  0
LWPOLYLINE
  5
248
330
1F
100
AcDbEntity
  8
0
  6
SLD-Solid
 62
     7
370
    15
100
AcDbPolyline
 90
        7
 70
   128
 43
0.0
 10
1404.9068425581
 20
1528.0398336125
 10
1404.9257670328
 20
1527.909537859
 10
1404.8951004431
 20
1527.7527776433
 10
1404.8123989985
 20
1527.5840964986
 10
1404.6774540827
 20
1527.3995605183
 10
1404.3476913855
 20
1527.0706620885
 10
1403.9847587034
 20
1526.7810431195
  0
LWPOLYLINE
  5
249
330
1F
100
AcDbEntity
  8
0
  6
SLD-Solid
 62
     7
370
    15
100
AcDbPolyline
 90
        3
 70
   128
 43
0.0
 10
1403.9847587034
 20
1526.7810431195
 10
1403.5516713545
 20
1526.4799800587
 10
1403.123620598
 20
1526.2689796162
  0
LWPOLYLINE
  5
24A
330
1F
100
AcDbEntity
  8
0
  6
SLD-Solid
 62
     7
370
    15
100
AcDbPolyline
 90
        6
 70
   128
 43
0.0
 10
1403.123620598
 20
1526.2689796162
 10
1402.982268183
 20
1526.2434092236
 10
1402.8648172304
 20
1526.2567606641
 10
1402.780744879
 20
1526.3114181233
 10
1402.7521644518
 20
1526.3523665143
 10
1402.7315114424
 20
1526.400229044
  0
LWPOLYLINE
  5
24B
330
1F
100
AcDbEntity
  8
0
  6
SLD-Solid
 62
     7
370
    15
100
AcDbPolyline
 90
        5
 70
   128
 43
0.0
 10
1404.5406614229
 20
1527.7642813397
 10
1404.5164917395
 20
1527.8018322659
 10
1404.4732187674
 20
1527.8205481244
 10
1404.4155512736
 20
1527.8201308919
 10
1404.3493007109
 20
1527.8037396146
  0
LWPOLYLINE
  5
24C
330
1F
100
AcDbEntity
  8
0
  6
SLD-Solid
 62
     7
370
    15
100
AcDbPolyline
 90
        3
 70
   128
 43
0.0
 10
1404.3493007109
 20
1527.8037396146
 10
1404.0499363825
 20
1527.6482310963
 10
1403.7515853331
 20
1527.4390187932
  0
LWPOLYLINE
  5
24D
330
1F
100
AcDbEntity
  8
0
  6
SLD-Solid
 62
     7
370
    15
100
AcDbPolyline
 90
        7
 70
   128
 43
0.0
 10
1403.7515853331
 20
1527.4390187932
 10
1403.3261273787
 20
1527.0859804822
 10
1403.2311175749
 20
1526.9851890279
 10
1403.153661339
 20
1526.8781390858
 10
1403.1055603907
 20
1526.7730560971
 10
1403.0987654612
 20
1526.7266836835
 10
1403.104576914
 20
1526.6877618504
  0
LWPOLYLINE
  5
24E
330
1F
100
AcDbEntity
  8
0
  6
SLD-Solid
 62
     7
370
    15
100
AcDbPolyline
 90
        6
 70
   128
 43
0.0
 10
1403.104576914
 20
1526.6877618504
 10
1403.150055258
 20
1526.6345349026
 10
1403.2342766211
 20
1526.6255346013
 10
1403.3277665064
 20
1526.653608389
 10
1403.4570191786
 20
1526.7177429867
 10
1403.9158855364
 20
1527.031144209
  0
LWPOLYLINE
  5
24F
330
1F
100
AcDbEntity
  8
0
  6
SLD-Solid
 62
     7
370
    15
100
AcDbPolyline
 90
        6
 70
   128
 43
0.0
 10
1403.9158855364
 20
1527.031144209
 10
1404.3322537825
 20
1527.3775067998
 10
1404.4241641447
 20
1527.4765697194
 10
1404.4976864741
 20
1527.580997057
 10
1404.5413468764
 20
1527.6821461392
 10
1404.5406614229
 20
1527.7642813397
  0
LWPOLYLINE
  5
250
330
1F
100
AcDbEntity
  8
0
  6
SLD-Solid
 62
     7
370
    15
100
AcDbPolyline
 90
        6
 70
   128
 43
0.0
 10
1403.9098952696
 20
1527.0375815106
 10
1404.3262635157
 20
1527.3839441014
 10
1404.4181738779
 20
1527.4829474164
 10
1404.4916962073
 20
1527.587374754
 10
1404.5353864119
 20
1527.6885238362
 10
1404.5347009585
 20
1527.7705994321
  0
LWPOLYLINE
  5
251
330
1F
100
AcDbEntity
  8
0
  6
SLD-Solid
 62
     7
370
    15
100
AcDbPolyline
 90
        6
 70
   128
 43
0.0
 10
1403.0985866472
 20
1526.6941395474
 10
1403.1440649912
 20
1526.6409125996
 10
1403.2282863543
 20
1526.6319122983
 10
1403.3217762396
 20
1526.659986086
 10
1403.4510289118
 20
1526.7241206837
 10
1403.9098952696
 20
1527.0375815106
  0
LWPOLYLINE
  5
252
330
1F
100
AcDbEntity
  8
0
  6
SLD-Solid
 62
     7
370
    15
100
AcDbPolyline
 90
       17
 70
   128
 43
0.0
 10
1402.0713303969
 20
1523.992380209
 10
1402.3423229143
 20
1524.4146195126
 10
1402.4489556238
 20
1524.7861352635
 10
1402.3657177374
 20
1525.0477400494
 10
1402.108046858
 20
1525.1611676884
 10
1401.7179642603
 20
1525.1077619267
 10
1401.2578760073
 20
1524.890085764
 10
1400.8000229284
 20
1524.5405045224
 10
1400.4147087023
 20
1524.1108742428
 10
1400.1575742647
 20
1523.670395918
 10
1400.0649188444
 20
1523.2888069821
 10
1400.1489017889
 20
1523.0280366612
 10
1400.3955756113
 20
1522.9259935094
 10
1400.7707272455
 20
1522.9976382924
 10
1401.2203548834
 20
1523.2277122212
 10
1401.6791020319
 20
1523.5802140904
 10
1402.0713303969
 20
1523.992380209
  0
ARC
  5
253
330
1F
100
AcDbEntity
  8
0
  6
SLD-Solid
 62
     7
370
    15
100
AcDbCircle
 10
1394.3508407463
 20
1606.1060363668
 30
0.0
 40
26.58670166863205
100
AcDbArc
 50
263.2505790852
 51
263.7545850803
  0
LINE
  5
254
330
1F
100
AcDbEntity
  8
0
  6
SLD-Solid
 62
     7
370
    15
100
AcDbLine
 10
1391.4585445807
 20
1579.6771255208
 30
0.0
 11
1410.4363952563
 21
1577.5565710736
 31
0.0
  0
LINE
  5
255
330
1F
100
AcDbEntity
  8
0
  6
SLD-Solid
 62
     7
370
    15
100
AcDbLine
 10
1410.4363952563
 20
1577.5565710736
 30
0.0
 11
1411.9062457964
 21
1577.3946252537
 31
0.0
  0
LWPOLYLINE
  5
256
330
1F
100
AcDbEntity
  8
0
  6
SLD-Solid
 62
     7
370
    15
100
AcDbPolyline
 90
        3
 70
   128
 43
0.0
 10
1403.0985866472
 20
1526.6941395474
 10
1403.1015966818
 20
1526.6909805012
 10
1403.104576914
 20
1526.6877618504
  0
LINE
  5
257
330
1F
100
AcDbEntity
  8
0
  6
SLD-Solid
 62
     7
370
    15
100
AcDbLine
 10
1404.5347009585
 20
1527.7705994321
 30
0.0
 11
1404.5406614229
 21
1527.7642813397
 31
0.0
  0
LINE
  5
258
330
1F
100
AcDbEntity
  8
0
  6
SLD-Solid
 62
     7
370
    15
100
AcDbLine
 10
1403.3590589449
 20
1526.0828939152
 30
0.0
 11
1403.3530388758
 21
1526.0893908215
 31
0.0
  0
LINE
  5
259
330
1F
100
AcDbEntity
  8
0
  6
SLD-Solid
 62
     7
370
    15
100
AcDbLine
 10
1403.0000899718
 20
1525.8066263867
 30
0.0
 11
1403.3590589449
 21
1526.0828939152
 31
0.0
  0
LINE
  5
25A
330
1F
100
AcDbEntity
  8
0
  6
SLD-Solid
 62
     7
370
    15
100
AcDbLine
 10
1403.0000899718
 20
1525.8066263867
 30
0.0
 11
1402.9940699026
 21
1525.8131828976
 31
0.0
  0
LINE
  5
25B
330
1F
100
AcDbEntity
  8
0
  6
SLD-Solid
 62
     7
370
    15
100
AcDbLine
 10
1403.184625952
 20
1525.2588000966
 30
0.0
 11
1403.0000899718
 21
1525.8066263867
 31
0.0
  0
LINE
  5
25C
330
1F
100
AcDbEntity
  8
0
  6
SLD-Solid
 62
     7
370
    15
100
AcDbLine
 10
1403.3590589449
 20
1526.0828939152
 30
0.0
 11
1403.4905467913
 21
1525.69784791
 31
0.0
  0
LINE
  5
25D
330
1F
100
AcDbEntity
  8
0
  6
SLD-Solid
 62
     7
370
    15
100
AcDbLine
 10
1403.4905467913
 20
1525.69784791
 30
0.0
 11
1403.8794372961
 21
1525.9379354191
 31
0.0
  0
LINE
  5
25E
330
1F
100
AcDbEntity
  8
0
  6
SLD-Solid
 62
     7
370
    15
100
AcDbLine
 10
1403.8794372961
 20
1525.9379354191
 30
0.0
 11
1403.8355682776
 21
1525.9978976918
 31
0.0
  0
ARC
  5
25F
330
1F
100
AcDbEntity
  8
0
  6
SLD-Solid
 62
     7
370
    15
100
AcDbCircle
 10
1404.9005472036
 20
1525.9603419406
 30
0.0
 40
1.065640909161778
100
AcDbArc
 50
118.9788184277
 51
177.9803405621
  0
LWPOLYLINE
  5
260
330
1F
100
AcDbEntity
  8
0
  6
SLD-Solid
 62
     7
370
    15
100
AcDbPolyline
 90
        6
 70
   128
 43
0.0
 10
1404.384258835
 20
1526.8925634099
 10
1404.6663974211
 20
1527.0725694371
 10
1404.8007760927
 20
1527.1288362218
 10
1404.9278829977
 20
1527.1609035206
 10
1405.1291976854
 20
1527.1493402196
 10
1405.2326713488
 20
1527.034660883
  0
ARC
  5
261
330
1F
100
AcDbEntity
  8
0
  6
SLD-Solid
 62
     7
370
    15
100
AcDbCircle
 10
1404.2681460003
 20
1527.0275571267
 30
0.0
 40
0.9645515077630998
100
AcDbArc
 50
303.3169225167
 51
0.4219773956
  0
LINE
  5
262
330
1F
100
AcDbEntity
  8
0
  6
SLD-Solid
 62
     7
370
    15
100
AcDbLine
 10
1404.7979448721
 20
1526.221534319
 30
0.0
 11
1404.7277604029
 21
1526.4457669926
 31
0.0
  0
ARC
  5
263
330
1F
100
AcDbEntity
  8
0
  6
SLD-Solid
 62
     7
370
    15
100
AcDbCircle
 10
1404.4730120763
 20
1526.749189673
 30
0.0
 40
0.396184342049299
100
AcDbArc
 50
310.0162263318
 51
1.6933120777
  0
LWPOLYLINE
  5
264
330
1F
100
AcDbEntity
  8
0
  6
SLD-Solid
 62
     7
370
    15
100
AcDbPolyline
 90
        7
 70
   128
 43
0.0
 10
1404.869023411
 20
1526.7608967496
 10
1404.8207138464
 20
1526.8118587208
 10
1404.7790203974
 20
1526.818713255
 10
1404.7268067286
 20
1526.8130508137
 10
1404.6689306185
 20
1526.7957654668
 10
1404.605749695
 20
1526.7666784001
 10
1404.4768546507
 20
1526.6819801999
  0
LWPOLYLINE
  5
265
330
1F
100
AcDbEntity
  8
0
  6
SLD-Solid
 62
     7
370
    15
100
AcDbPolyline
 90
        7
 70
   128
 43
0.0
 10
1404.4768546507
 20
1526.6819801999
 10
1404.3609236166
 20
1526.5799966527
 10
1404.2671357081
 20
1526.4654961301
 10
1404.2329822466
 20
1526.4073816014
 10
1404.2107497141
 20
1526.3541546536
 10
1404.2021964476
 20
1526.3066497517
 10
1404.207322447
 20
1526.2677875233
  0
LWPOLYLINE
  5
266
330
1F
100
AcDbEntity
  8
0
  6
SLD-Solid
 62
     7
370
    15
100
AcDbPolyline
 90
        4
 70
   128
 43
0.0
 10
1404.207322447
 20
1526.2677875233
 10
1404.2305682585
 20
1526.2355414105
 10
1404.2706523821
 20
1526.2199845982
 10
1404.3811593935
 20
1526.2276139928
  0
LINE
  5
267
330
1F
100
AcDbEntity
  8
0
  6
SLD-Solid
 62
     7
370
    15
100
AcDbLine
 10
1404.3811593935
 20
1526.2276139928
 30
0.0
 11
1404.3658409998
 21
1525.9975996686
 31
0.0
  0
LINE
  5
268
330
1F
100
AcDbEntity
  8
0
  6
SLD-Solid
 62
     7
370
    15
100
AcDbLine
 10
1404.3658409998
 20
1525.9975996686
 30
0.0
 11
1403.184625952
 21
1525.2588000966
 31
0.0
  0
LINE
  5
269
330
1F
100
AcDbEntity
  8
0
  6
SLD-Solid
 62
     7
370
    15
100
AcDbLine
 10
1403.184625952
 20
1525.2588000966
 30
0.0
 11
1403.1785164759
 21
1525.2654758168
 31
0.0
  0
LWPOLYLINE
  5
26A
330
1F
100
AcDbEntity
  8
0
  6
SLD-Solid
 62
     7
370
    15
100
AcDbPolyline
 90
        3
 70
   128
 43
0.0
 10
1404.384258835
 20
1526.8925634099
 10
1404.3812189982
 20
1526.8958416653
 10
1404.3782089636
 20
1526.8990603162
  0
LINE
  5
26B
330
1F
100
AcDbEntity
  8
0
  6
SLD-Solid
 62
     7
370
    15
100
AcDbLine
 10
1403.8355682776
 20
1525.9978976918
 30
0.0
 11
1403.8295184061
 21
1526.004573412
 31
0.0
  0
LINE
  5
26C
330
1F
100
AcDbEntity
  8
0
  6
SLD-Solid
 62
     7
370
    15
100
AcDbLine
 10
1404.869023411
 20
1526.7608967496
 30
0.0
 11
1404.8629437372
 21
1526.7675724698
 31
0.0
  0
LINE
  5
26D
330
1F
100
AcDbEntity
  8
0
  6
SLD-Solid
 62
     7
370
    15
100
AcDbLine
 10
1403.8794372961
 20
1525.9379354191
 30
0.0
 11
1403.8733576224
 21
1525.9446111394
 31
0.0
  0
LINE
  5
26E
330
1F
100
AcDbEntity
  8
0
  6
SLD-Solid
 62
     7
370
    15
100
AcDbLine
 10
1404.3811593935
 20
1526.2276139928
 30
0.0
 11
1404.3750797198
 21
1526.234289713
 31
0.0
  0
LINE
  5
26F
330
1F
100
AcDbEntity
  8
0
  6
SLD-Solid
 62
     7
370
    15
100
AcDbLine
 10
1404.207322447
 20
1526.2677875233
 30
0.0
 11
1404.2012427733
 21
1526.2744632435
 31
0.0
  0
LINE
  5
270
330
1F
100
AcDbEntity
  8
0
  6
SLD-Solid
 62
     7
370
    15
100
AcDbLine
 10
1404.7277604029
 20
1526.4457669926
 30
0.0
 11
1404.7216509268
 21
1526.4525023175
 31
0.0
  0
LWPOLYLINE
  5
271
330
1F
100
AcDbEntity
  8
0
  6
SLD-Solid
 62
     7
370
    15
100
AcDbPolyline
 90
        3
 70
   128
 43
0.0
 10
1404.7979448721
 20
1526.221534319
 10
1404.7949050352
 20
1526.2249317837
 10
1404.791835396
 20
1526.2283292485
  0
LINE
  5
272
330
1F
100
AcDbEntity
  8
0
  6
SLD-Solid
 62
     7
370
    15
100
AcDbLine
 10
1403.4534727022
 20
1524.38904912
 30
0.0
 11
1403.3585523054
 21
1524.6750918103
 31
0.0
  0
LINE
  5
273
330
1F
100
AcDbEntity
  8
0
  6
SLD-Solid
 62
     7
370
    15
100
AcDbLine
 10
1403.3585523054
 20
1524.6750918103
 30
0.0
 11
1405.4095481322
 21
1526.2875166608
 31
0.0
  0
LINE
  5
274
330
1F
100
AcDbEntity
  8
0
  6
SLD-Solid
 62
     7
370
    15
100
AcDbLine
 10
1405.4095481322
 20
1526.2875166608
 30
0.0
 11
1405.4738019392
 21
1526.0961261464
 31
0.0
  0
LINE
  5
275
330
1F
100
AcDbEntity
  8
0
  6
SLD-Solid
 62
     7
370
    15
100
AcDbLine
 10
1405.4738019392
 20
1526.0961261464
 30
0.0
 11
1403.7894342825
 21
1524.7720685673
 31
0.0
  0
LINE
  5
276
330
1F
100
AcDbEntity
  8
0
  6
SLD-Solid
 62
     7
370
    15
100
AcDbLine
 10
1403.7894342825
 20
1524.7720685673
 30
0.0
 11
1403.8539563105
 21
1524.5698300076
 31
0.0
  0
LINE
  5
277
330
1F
100
AcDbEntity
  8
0
  6
SLD-Solid
 62
     7
370
    15
100
AcDbLine
 10
1403.8539563105
 20
1524.5698300076
 30
0.0
 11
1403.4534727022
 21
1524.38904912
 31
0.0
  0
LINE
  5
278
330
1F
100
AcDbEntity
  8
0
  6
SLD-Solid
 62
     7
370
    15
100
AcDbLine
 10
1405.4095481322
 20
1526.2875166608
 30
0.0
 11
1405.4033790514
 21
1526.2943711949
 31
0.0
  0
LINE
  5
279
330
1F
100
AcDbEntity
  8
0
  6
SLD-Solid
 62
     7
370
    15
100
AcDbLine
 10
1403.3585523054
 20
1524.6750918103
 30
0.0
 11
1403.352413027
 21
1524.6819463444
 31
0.0
  0
LINE
  5
27A
330
1F
100
AcDbEntity
  8
0
  6
SLD-Solid
 62
     7
370
    15
100
AcDbLine
 10
1403.4534727022
 20
1524.38904912
 30
0.0
 11
1403.4473036215
 21
1524.3960228635
 31
0.0
  0
LWPOLYLINE
  5
27B
330
1F
100
AcDbEntity
  8
0
  6
SLD-Solid
 62
     7
370
    15
100
AcDbPolyline
 90
        9
 70
   128
 43
0.0
 10
1413.7465690062
 20
1573.6388173772
 10
1414.9324928209
 20
1569.9889269543
 10
1416.1327515528
 20
1566.2949290944
 10
1417.3426066324
 20
1562.5713673306
 10
1418.557259886
 20
1558.8330832196
 10
1419.7718833372
 20
1555.0947991086
 10
1420.9817384169
 20
1551.3712373448
 10
1422.1819971487
 20
1547.6772394849
 10
1423.3679209635
 20
1544.027349062
  0
LWPOLYLINE
  5
27C
330
1F
100
AcDbEntity
  8
0
  6
SLD-Solid
 62
     7
370
    15
100
AcDbPolyline
 90
        5
 70
   128
 43
0.0
 10
1423.3679209635
 20
1544.027349062
 10
1423.8045845911
 20
1542.6835027409
 10
1424.1236482546
 20
1541.7014566136
 10
1424.3179891989
 20
1541.1033240033
 10
1424.3832562849
 20
1540.9023967457
  0
LWPOLYLINE
  5
27D
330
1F
100
AcDbEntity
  8
0
  6
SLD-Solid
 62
     7
370
    15
100
AcDbPolyline
 90
        9
 70
   128
 43
0.0
 10
1412.7496813223
 20
1576.7069068623
 10
1412.7920304224
 20
1576.5766111088
 10
1412.8586684153
 20
1576.3714519215
 10
1412.9493866846
 20
1576.09232337
 10
1413.0637381956
 20
1575.7404175473
 10
1413.2012461111
 20
1575.3171649647
 10
1413.3613739893
 20
1574.8243537617
 10
1413.5434065745
 20
1574.2641297055
 10
1413.7465690062
 20
1573.6388173772
  0
ARC
  5
27E
330
1F
100
AcDbEntity
  8
0
  6
SLD-Solid
 62
     7
370
    15
100
AcDbCircle
 10
1411.795249883
 20
1576.397432302
 30
0.0
 40
1.003351322221215
100
AcDbArc
 50
17.9652955111
 51
83.6486447147
  0
LWPOLYLINE
  5
27F
330
1F
100
AcDbEntity
  8
0
  6
SLD-Solid
 62
     7
370
    15
100
AcDbPolyline
 90
       17
 70
   128
 43
0.0
 10
1402.3893211767
 20
1521.6292944623
 10
1402.5498364851
 20
1521.8135920239
 10
1402.6357565806
 20
1521.9598022175
 10
1402.6332829878
 20
1522.0465269757
 10
1402.5425647185
 20
1522.0607128812
 10
1402.3779664919
 20
1521.9995585156
 10
1402.165446131
 20
1521.871468134
 10
1401.9379948065
 20
1521.6950383855
 10
1401.7304514334
 20
1521.4969125462
 10
1401.5738700316
 20
1521.3079658223
 10
1401.4912579939
 20
1521.1578813267
 10
1401.4944766447
 20
1521.0703221036
 10
1401.5828703329
 20
1521.0588780118
 10
1401.7435048506
 20
1521.124621935
 10
1401.9527469561
 20
1521.2565866185
 10
1402.1794830248
 20
1521.4338508321
 10
1402.3893211767
 20
1521.6292944623
  0
LWPOLYLINE
  5
280
330
1F
100
AcDbEntity
  8
0
  6
SLD-Solid
 62
     7
370
    15
100
AcDbPolyline
 90
        9
 70
   128
 43
0.0
 10
1387.7371583864
 20
1550.1333680821
 10
1387.7393935606
 20
1550.126513548
 10
1387.7459798739
 20
1550.1062479687
 10
1387.7567385122
 20
1550.0731077862
 10
1387.7714012549
 20
1550.0279870701
 10
1387.7894912646
 20
1549.9723163319
 10
1387.8105317042
 20
1549.9075856877
 10
1387.8338967249
 20
1549.8356428815
 10
1387.8589306757
 20
1549.7586336804
  0
LWPOLYLINE
  5
281
330
1F
100
AcDbEntity
  8
0
  6
SLD-Solid
 62
     7
370
    15
100
AcDbPolyline
 90
        9
 70
   128
 43
0.0
 10
1387.7371583864
 20
1550.1333680821
 10
1387.7375458166
 20
1550.1334872914
 10
1387.7390359327
 20
1550.1339641286
 10
1387.7426718161
 20
1550.1351562215
 10
1387.7495561526
 20
1550.1373615933
 10
1387.7638016627
 20
1550.1420107556
 10
1387.8204856798
 20
1550.1604285908
 10
1387.9364465162
 20
1550.1980987263
 10
1389.6392916128
 20
1550.7514086438
  0
LWPOLYLINE
  5
282
330
1F
100
AcDbEntity
  8
0
  6
SLD-Solid
 62
     7
370
    15
100
AcDbPolyline
 90
        9
 70
   128
 43
0.0
 10
1387.8589306757
 20
1549.7586336804
 10
1387.9201744482
 20
1549.570104189
 10
1387.9817460463
 20
1549.3806210232
 10
1388.0435858652
 20
1549.1903033925
 10
1388.1056343004
 20
1548.9993301106
 10
1388.1678615496
 20
1548.8077607823
 10
1388.2302378103
 20
1548.6158338261
 10
1388.2927034781
 20
1548.4236088467
 10
1388.3551989481
 20
1548.231264658
  0
LWPOLYLINE
  5
283
330
1F
100
AcDbEntity
  8
0
  6
SLD-Solid
 62
     7
370
    15
100
AcDbPolyline
 90
        9
 70
   128
 43
0.0
 10
1388.3551989481
 20
1548.231264658
 10
1388.385329096
 20
1548.1384602261
 10
1388.4143267557
 20
1548.0492916775
 10
1388.4410296366
 20
1547.9670372678
 10
1388.464454262
 20
1547.8949752522
 10
1388.4836767599
 20
1547.8358474446
 10
1388.4979520724
 20
1547.7919188214
 10
1388.5067437575
 20
1547.7648583127
 10
1388.5096941874
 20
1547.755738802
  0
LINE
  5
284
330
1F
100
AcDbEntity
  8
0
  6
SLD-Solid
 62
     7
370
    15
100
AcDbLine
 10
1390.4226158545
 20
1548.3405795766
 30
0.0
 11
1388.5096941874
 21
1547.755738802
 31
0.0
  0
LINE
  5
285
330
1F
100
AcDbEntity
  8
0
  6
SLD-Solid
 62
     7
370
    15
100
AcDbLine
 10
1391.342285721
 20
1545.5100742055
 30
0.0
 11
1389.4390200064
 21
1544.8955503178
 31
0.0
  0
LWPOLYLINE
  5
286
330
1F
100
AcDbEntity
  8
0
  6
SLD-Solid
 62
     7
370
    15
100
AcDbPolyline
 90
        9
 70
   128
 43
0.0
 10
1388.5096941874
 20
1547.755738802
 10
1388.6370693133
 20
1547.3637190533
 10
1388.7622688696
 20
1546.9783750249
 10
1388.8847564146
 20
1546.6013756467
 10
1389.0040253088
 20
1546.2343302441
 10
1389.1195689127
 20
1545.8787289334
 10
1389.2309103892
 20
1545.5361214352
 10
1389.3375430987
 20
1545.2079382611
 10
1389.4390200064
 20
1544.8955503178
  0
LWPOLYLINE
  5
287
330
1F
100
AcDbEntity
  8
0
  6
SLD-Solid
 62
     7
370
    15
100
AcDbPolyline
 90
        9
 70
   128
 43
0.0
 10
1389.785084574
 20
1543.8304749203
 10
1389.8074661181
 20
1543.7616315556
 10
1389.8312483713
 20
1543.6883774472
 10
1389.8558650896
 20
1543.612739153
 10
1389.8806010172
 20
1543.5365048123
 10
1389.90488991
 20
1543.4617605878
 10
1389.9281059191
 20
1543.3903542233
 10
1389.9495933935
 20
1543.3241930676
 10
1389.9688456938
 20
1543.2649460507
  0
LINE
  5
288
330
1F
100
AcDbEntity
  8
0
  6
SLD-Solid
 62
     7
370
    15
100
AcDbLine
 10
1389.4390200064
 20
1544.8955503178
 30
0.0
 11
1389.785084574
 21
1543.8304749203
 31
0.0
  0
LWPOLYLINE
  5
289
330
1F
100
AcDbEntity
  8
0
  6
SLD-Solid
 62
     7
370
    15
100
AcDbPolyline
 90
        9
 70
   128
 43
0.0
 10
1389.9688456938
 20
1543.2649460507
 10
1390.0140260145
 20
1543.1259480191
 10
1390.0579844401
 20
1542.9906454755
 10
1390.100691168
 20
1542.8592172337
 10
1390.1421461985
 20
1542.7316632939
 10
1390.1822899267
 20
1542.6081028653
 10
1390.2210925505
 20
1542.4886551572
 10
1390.2585540697
 20
1542.3733797742
 10
1390.2946148798
 20
1542.2623363209
  0
LWPOLYLINE
  5
28A
330
1F
100
AcDbEntity
  8
0
  6
SLD-Solid
 62
     7
370
    15
100
AcDbPolyline
 90
        4
 70
   128
 43
0.0
 10
1390.2946148798
 20
1542.2623363209
 10
1390.3095458433
 20
1542.2163811398
 10
1390.31848654
 20
1542.1888437939
 10
1390.3211091444
 20
1542.1807971669
  0
LWPOLYLINE
  5
28B
330
1F
100
AcDbEntity
  8
0
  6
SLD-Solid
 62
     7
370
    15
100
AcDbPolyline
 90
       17
 70
   128
 43
0.0
 10
1402.6144181177
 20
1520.7920876218
 10
1402.7956460402
 20
1520.9518280698
 10
1402.9111300394
 20
1521.0628119183
 10
1402.9425118849
 20
1521.1093035412
 10
1402.8846953795
 20
1521.0843887997
 10
1402.7468894407
 20
1520.9915247632
 10
1402.550939171
 20
1520.8437052441
 10
1402.3274515555
 20
1520.6625667287
 10
1402.1107290671
 20
1520.4753485394
 10
1401.9333754465
 20
1520.3110185338
 10
1401.8215273306
 20
1520.1956239415
 10
1401.7914567873
 20
1520.1476422024
 10
1401.8474553511
 20
1520.1747027112
 10
1401.9813869879
 20
1520.27221591
 10
1402.1737013743
 20
1520.4243865681
 10
1402.3958776877
 20
1520.6070748044
 10
1402.6144181177
 20
1520.7920876218
  0
ARC
  5
28C
330
1F
100
AcDbEntity
  8
0
  6
SLD-Solid
 62
     7
370
    15
100
AcDbCircle
 10
1387.1641095919
 20
1613.1355821914
 30
0.0
 40
33.15233699864799
100
AcDbArc
 50
261.8735163446
 51
270.5229139297
  0
LINE
  5
28D
330
1F
100
AcDbEntity
  8
0
  6
SLD-Solid
 62
     7
370
    15
100
AcDbLine
 10
639.0692923948
 20
1576.3257947636
 30
0.0
 11
639.0692923948
 21
1544.3257895184
 31
0.0
  0
ARC
  5
28E
330
1F
100
AcDbEntity
  8
0
  6
SLD-Solid
 62
     7
370
    15
100
AcDbCircle
 10
741.4692907199
 20
1603.4257928834
 30
0.0
 40
1.0
100
AcDbArc
 50
270.0
 51
0.0
  0
LINE
  5
28F
330
1F
100
AcDbEntity
  8
0
  6
SLD-Solid
 62
     7
370
    15
100
AcDbLine
 10
742.469284384
 20
1608.8257637692
 30
0.0
 11
742.469284384
 21
1603.4258213711
 31
0.0
  0
LINE
  5
290
330
1F
100
AcDbEntity
  8
0
  6
SLD-Solid
 62
     7
370
    15
100
AcDbLine
 10
639.0692923948
 20
1603.4258213711
 30
0.0
 11
639.0692923948
 21
1638.8257947636
 31
0.0
  0
LINE
  5
291
330
1F
100
AcDbEntity
  8
0
  6
SLD-Solid
 62
     7
370
    15
100
AcDbLine
 10
741.4692972586
 20
1602.4257746411
 30
0.0
 11
640.0692795202
 21
1602.4257746411
 31
0.0
  0
ARC
  5
292
330
1F
100
AcDbEntity
  8
0
  6
SLD-Solid
 62
     7
370
    15
100
AcDbCircle
 10
640.0692907199
 20
1603.4257928834
 30
0.0
 40
1.0
100
AcDbArc
 50
180.0
 51
270.0
  0
LINE
  5
293
330
1F
100
AcDbEntity
  8
0
  6
SLD-Solid
 62
     7
370
    15
100
AcDbLine
 10
640.8498619482
 20
1689.5854082776
 30
0.0
 11
674.1468344614
 21
1680.6634870244
 31
0.0
  0
LINE
  5
294
330
1F
100
AcDbEntity
  8
0
  6
SLD-Solid
 62
     7
370
    15
100
AcDbLine
 10
640.6428252146
 20
1688.8126340581
 30
0.0
 11
673.9397679255
 21
1679.8907724095
 31
0.0
  0
ARC
  5
295
330
1F
100
AcDbEntity
  8
0
  6
SLD-Solid
 62
     7
370
    15
100
AcDbCircle
 10
715.7192907199
 20
1637.5757928834
 30
0.0
 40
2.050000000000182
100
AcDbArc
 50
0.0
 51
90.0
  0
ARC
  5
296
330
1F
100
AcDbEntity
  8
0
  6
SLD-Solid
 62
     7
370
    15
100
AcDbCircle
 10
715.7192907199
 20
1637.5757928834
 30
0.0
 40
1.250000000000227
100
AcDbArc
 50
0.0
 51
90.0
  0
LINE
  5
297
330
1F
100
AcDbEntity
  8
0
  6
SLD-Solid
 62
     7
370
    15
100
AcDbLine
 10
717.769298403
 20
1637.5757661534
 30
0.0
 11
717.769298403
 21
1620.8757963849
 31
0.0
  0
LINE
  5
298
330
1F
100
AcDbEntity
  8
0
  6
SLD-Solid
 62
     7
370
    15
100
AcDbLine
 10
716.9692848608
 20
1637.5757661534
 30
0.0
 11
716.9692848608
 21
1620.8757963849
 31
0.0
  0
LINE
  5
299
330
1F
100
AcDbEntity
  8
0
  6
SLD-Solid
 62
     7
370
    15
100
AcDbLine
 10
693.2692860052
 20
1655.7426062298
 30
0.0
 11
693.2692860052
 21
1640.8757773114
 31
0.0
  0
LINE
  5
29A
330
1F
100
AcDbEntity
  8
0
  6
SLD-Solid
 62
     7
370
    15
100
AcDbLine
 10
692.4693022654
 20
1655.7426062298
 30
0.0
 11
692.4693022654
 21
1640.8757773114
 31
0.0
  0
ARC
  5
29B
330
1F
100
AcDbEntity
  8
0
  6
SLD-Solid
 62
     7
370
    15
100
AcDbCircle
 10
667.4692907199
 20
1655.7426181839
 30
0.0
 40
25.80000000000028
100
AcDbArc
 50
0.0
 51
75.0
  0
ARC
  5
29C
330
1F
100
AcDbEntity
  8
0
  6
SLD-Solid
 62
     7
370
    15
100
AcDbCircle
 10
667.4692907199
 20
1655.7426181839
 30
0.0
 40
25.0
100
AcDbArc
 50
0.0
 51
75.0
  0
LINE
  5
29D
330
1F
100
AcDbEntity
  8
0
  6
SLD-Solid
 62
     7
370
    15
100
AcDbLine
 10
694.5192848131
 20
1639.6258083058
 30
0.0
 11
715.7192860529
 21
1639.6258083058
 31
0.0
  0
LINE
  5
29E
330
1F
100
AcDbEntity
  8
0
  6
SLD-Solid
 62
     7
370
    15
100
AcDbLine
 10
694.5192848131
 20
1638.8257947636
 30
0.0
 11
715.7192860529
 21
1638.8257947636
 31
0.0
  0
LINE
  5
29F
330
1F
100
AcDbEntity
  8
0
  6
SLD-Solid
 62
     7
370
    15
100
AcDbLine
 10
742.469284384
 20
1608.8257637692
 30
0.0
 11
743.2692979262
 21
1608.8257637692
 31
0.0
  0
LINE
  5
2A0
330
1F
100
AcDbEntity
  8
0
  6
SLD-Solid
 62
     7
370
    15
100
AcDbLine
 10
743.2692979262
 20
1617.5757852269
 30
0.0
 11
743.2692979262
 21
1608.8257637692
 31
0.0
  0
LINE
  5
2A1
330
1F
100
AcDbEntity
  8
0
  6
SLD-Solid
 62
     7
370
    15
100
AcDbLine
 10
742.469284384
 20
1617.5757852269
 30
0.0
 11
742.469284384
 21
1608.8257637692
 31
0.0
  0
ARC
  5
2A2
330
1F
100
AcDbEntity
  8
0
  6
SLD-Solid
 62
     7
370
    15
100
AcDbCircle
 10
640.3192907199
 20
1687.6052480432
 30
0.0
 40
2.050000000000324
100
AcDbArc
 50
75.0
 51
180.0
  0
ARC
  5
2A3
330
1F
100
AcDbEntity
  8
0
  6
SLD-Solid
 62
     7
370
    15
100
AcDbCircle
 10
640.3192907199
 20
1687.6052480432
 30
0.0
 40
1.25000000000025
100
AcDbArc
 50
75.0
 51
180.0
  0
ARC
  5
2A4
330
1F
100
AcDbEntity
  8
0
  6
SLD-Solid
 62
     7
370
    15
100
AcDbCircle
 10
719.0192907199
 20
1620.8757928834
 30
0.0
 40
1.250000000000114
100
AcDbArc
 50
180.0
 51
270.0
  0
ARC
  5
2A5
330
1F
100
AcDbEntity
  8
0
  6
SLD-Solid
 62
     7
370
    15
100
AcDbCircle
 10
719.0192907199
 20
1620.8757928834
 30
0.0
 40
2.050000000000068
100
AcDbArc
 50
180.0
 51
270.0
  0
LINE
  5
2A6
330
1F
100
AcDbEntity
  8
0
  6
SLD-Solid
 62
     7
370
    15
100
AcDbLine
 10
639.0692923948
 20
1638.8257947636
 30
0.0
 11
639.0692923948
 21
1687.6052227688
 31
0.0
  0
LINE
  5
2A7
330
1F
100
AcDbEntity
  8
0
  6
SLD-Solid
 62
     7
370
    15
100
AcDbLine
 10
638.2692788527
 20
1638.8257947636
 30
0.0
 11
638.2692788527
 21
1687.6052227688
 31
0.0
  0
LINE
  5
2A8
330
1F
100
AcDbEntity
  8
0
  6
SLD-Solid
 62
     7
370
    15
100
AcDbLine
 10
638.2692788527
 20
1638.8257947636
 30
0.0
 11
639.0692923948
 21
1638.8257947636
 31
0.0
  0
ARC
  5
2A9
330
1F
100
AcDbEntity
  8
0
  6
SLD-Solid
 62
     7
370
    15
100
AcDbCircle
 10
694.5192907199
 20
1640.8757928834
 30
0.0
 40
2.050000000000068
100
AcDbArc
 50
180.0
 51
270.0
  0
ARC
  5
2AA
330
1F
100
AcDbEntity
  8
0
  6
SLD-Solid
 62
     7
370
    15
100
AcDbCircle
 10
694.5192907199
 20
1640.8757928834
 30
0.0
 40
1.250000000000114
100
AcDbArc
 50
180.0
 51
270.0
  0
LINE
  5
2AB
330
1F
100
AcDbEntity
  8
0
  6
SLD-Solid
 62
     7
370
    15
100
AcDbLine
 10
719.0192972109
 20
1619.6257677746
 30
0.0
 11
741.2192855761
 21
1619.6257677746
 31
0.0
  0
LINE
  5
2AC
330
1F
100
AcDbEntity
  8
0
  6
SLD-Solid
 62
     7
370
    15
100
AcDbLine
 10
719.0192972109
 20
1618.8258138371
 30
0.0
 11
741.2192855761
 21
1618.8258138371
 31
0.0
  0
ARC
  5
2AD
330
1F
100
AcDbEntity
  8
0
  6
SLD-Solid
 62
     7
370
    15
100
AcDbCircle
 10
741.2192907199
 20
1617.5757928834
 30
0.0
 40
1.250000000000227
100
AcDbArc
 50
0.0
 51
90.0
  0
ARC
  5
2AE
330
1F
100
AcDbEntity
  8
0
  6
SLD-Solid
 62
     7
370
    15
100
AcDbCircle
 10
741.2192907199
 20
1617.5757928834
 30
0.0
 40
2.049999999999955
100
AcDbArc
 50
0.0
 51
90.0
  0
LINE
  5
2AF
330
1F
100
AcDbEntity
  8
0
  6
SLD-Solid
 62
     7
370
    15
100
AcDbLine
 10
641.5692900107
 20
1602.4257746411
 30
0.0
 11
641.5692900107
 21
1601.9258108807
 31
0.0
  0
LINE
  5
2B0
330
1F
100
AcDbEntity
  8
0
  6
SLD-Solid
 62
     7
370
    15
100
AcDbLine
 10
641.5692900107
 20
1600.5675998402
 30
0.0
 11
641.5692900107
 21
1600.1531687451
 31
0.0
  0
LINE
  5
2B1
330
1F
100
AcDbEntity
  8
0
  6
SLD-Solid
 62
     7
370
    15
100
AcDbLine
 10
640.7692764685
 20
1602.4257746411
 30
0.0
 11
640.7692764685
 21
1602.0859089566
 31
0.0
  0
LINE
  5
2B2
330
1F
100
AcDbEntity
  8
0
  6
SLD-Solid
 62
     7
370
    15
100
AcDbLine
 10
641.5692900107
 20
920.2257898522
 30
0.0
 11
640.7692764685
 21
920.2257898522
 31
0.0
  0
LINE
  5
2B3
330
1F
100
AcDbEntity
  8
0
  6
SLD-Solid
 62
     7
370
    15
100
AcDbLine
 10
641.5692900107
 20
920.5889982057
 30
0.0
 11
641.5692900107
 21
920.2257898522
 31
0.0
  0
LINE
  5
2B4
330
1F
100
AcDbEntity
  8
0
  6
SLD-Solid
 62
     7
370
    15
100
AcDbLine
 10
1329.7692869589
 20
338.8257828427
 30
0.0
 11
1272.7692906544
 21
338.8257828427
 31
0.0
  0
LINE
  5
2B5
330
1F
100
AcDbEntity
  8
0
  6
SLD-Solid
 62
     7
370
    15
100
AcDbLine
 10
1327.7692829058
 20
332.8258004857
 30
0.0
 11
1274.7692947075
 21
332.8258004857
 31
0.0
  0
LINE
  5
2B6
330
1F
100
AcDbEntity
  8
0
  6
SLD-Solid
 62
     7
370
    15
100
AcDbLine
 10
740.7693003103
 20
338.8257828427
 30
0.0
 11
683.7692891047
 21
338.8257828427
 31
0.0
  0
LINE
  5
2B7
330
1F
100
AcDbEntity
  8
0
  6
SLD-Solid
 62
     7
370
    15
100
AcDbLine
 10
738.7692962572
 20
332.8258004857
 30
0.0
 11
685.7692931578
 21
332.8258004857
 31
0.0
  0
LINE
  5
2B8
330
1F
100
AcDbEntity
  8
0
  6
SLD-Solid
 62
     7
370
    15
100
AcDbLine
 10
747.2692762301
 20
500.8257833195
 30
0.0
 11
747.2692762301
 21
502.8257873727
 31
0.0
  0
LINE
  5
2B9
330
1F
100
AcDbEntity
  8
0
  6
SLD-Solid
 62
     7
370
    15
100
AcDbLine
 10
677.2692833826
 20
500.8257833195
 30
0.0
 11
677.2692833826
 21
502.8257873727
 31
0.0
  0
LINE
  5
2BA
330
1F
100
AcDbEntity
  8
0
  6
SLD-Solid
 62
     7
370
    15
100
AcDbLine
 10
677.2692833826
 20
502.8257873727
 30
0.0
 11
747.2692762301
 21
502.8257873727
 31
0.0
  0
LINE
  5
2BB
330
1F
100
AcDbEntity
  8
0
  6
SLD-Solid
 62
     7
370
    15
100
AcDbLine
 10
677.2692833826
 20
500.8257833195
 30
0.0
 11
747.2692762301
 21
500.8257833195
 31
0.0
  0
LINE
  5
2BC
330
1F
100
AcDbEntity
  8
0
  6
SLD-Solid
 62
     7
370
    15
100
AcDbLine
 10
743.2289455816
 20
406.8258014394
 30
0.0
 11
681.3096438334
 21
406.8258014394
 31
0.0
  0
LINE
  5
2BD
330
1F
100
AcDbEntity
  8
0
  6
SLD-Solid
 62
     7
370
    15
100
AcDbLine
 10
1266.2692849323
 20
500.8257833195
 30
0.0
 11
1336.2692926809
 21
500.8257833195
 31
0.0
  0
LINE
  5
2BE
330
1F
100
AcDbEntity
  8
0
  6
SLD-Solid
 62
     7
370
    15
100
AcDbLine
 10
1266.2692849323
 20
500.8257833195
 30
0.0
 11
1266.2692849323
 21
502.8257873727
 31
0.0
  0
LINE
  5
2BF
330
1F
100
AcDbEntity
  8
0
  6
SLD-Solid
 62
     7
370
    15
100
AcDbLine
 10
1336.2692926809
 20
500.8257833195
 30
0.0
 11
1336.2692926809
 21
502.8257873727
 31
0.0
  0
LINE
  5
2C0
330
1F
100
AcDbEntity
  8
0
  6
SLD-Solid
 62
     7
370
    15
100
AcDbLine
 10
1266.2692849323
 20
502.8257873727
 30
0.0
 11
1336.2692926809
 21
502.8257873727
 31
0.0
  0
LINE
  5
2C1
330
1F
100
AcDbEntity
  8
0
  6
SLD-Solid
 62
     7
370
    15
100
AcDbLine
 10
1332.2289322302
 20
406.8258014394
 30
0.0
 11
1270.3096453831
 21
406.8258014394
 31
0.0
  0
LWPOLYLINE
  5
2C2
330
1F
100
AcDbEntity
  8
0
  6
SLD-Solid
 62
     7
370
    15
100
AcDbPolyline
 90
        9
 70
   128
 43
0.0
 10
1404.1486714766
 20
1455.6098190022
 10
1405.0653015063
 20
1455.9434858037
 10
1405.9467051909
 20
1456.2642780019
 10
1406.7589972899
 20
1456.5599170399
 10
1407.471004574
 20
1456.8190780354
 10
1408.0553089068
 20
1457.031747408
 10
1408.4894989416
 20
1457.1897593213
 10
1408.7568555758
 20
1457.2870937062
 10
1408.8471268103
 20
1457.3199358655
  0
LINE
  5
2C3
330
1F
100
AcDbEntity
  8
0
  6
SLD-Solid
 62
     7
370
    15
100
AcDbLine
 10
1408.8471268103
 20
1457.3199358655
 30
0.0
 11
1409.531179516
 21
1455.4405418111
 31
0.0
  0
LWPOLYLINE
  5
2C4
330
1F
100
AcDbEntity
  8
0
  6
SLD-Solid
 62
     7
370
    15
100
AcDbPolyline
 90
        9
 70
   128
 43
0.0
 10
1409.531179516
 20
1455.4405418111
 10
1409.4409082815
 20
1455.4076996518
 10
1409.1735218451
 20
1455.3103652669
 10
1408.7393318102
 20
1455.1523533536
 10
1408.1550274775
 20
1454.939683981
 10
1407.4430499956
 20
1454.6805229855
 10
1406.6307280943
 20
1454.3848839474
 10
1405.749354212
 20
1454.0640917493
 10
1404.8327241823
 20
1453.7304249478
  0
LWPOLYLINE
  5
2C5
330
1F
100
AcDbEntity
  8
0
  6
SLD-Solid
 62
     7
370
    15
100
AcDbPolyline
 90
        3
 70
   128
 43
0.0
 10
1384.5739696905
 20
1454.8508134556
 10
1384.8203454897
 20
1454.4357863141
 10
1384.8272894308
 20
1454.4257727338
  0
ARC
  5
2C6
330
1F
100
AcDbEntity
  8
0
  6
SLD-Solid
 62
     7
370
    15
100
AcDbCircle
 10
1378.7692907199
 20
1451.9257928843
 30
0.0
 40
6.500000000000184
100
AcDbArc
 50
26.7436839504
 51
153.2563160496
  0
LWPOLYLINE
  5
2C7
330
1F
100
AcDbEntity
  8
0
  6
SLD-Solid
 62
     7
370
    15
100
AcDbPolyline
 90
        3
 70
   128
 43
0.0
 10
1372.7112744734
 20
1454.4257727338
 10
1372.7182184145
 20
1454.4357863141
 10
1372.9645942137
 20
1454.8508134556
  0
LINE
  5
2C8
330
1F
100
AcDbEntity
  8
0
  6
SLD-Solid
 62
     7
370
    15
100
AcDbLine
 10
1348.76928076
 20
1441.9257846547
 30
0.0
 11
1348.76928076
 21
1451.4258113576
 31
0.0
  0
LINE
  5
2C9
330
1F
100
AcDbEntity
  8
0
  6
SLD-Solid
 62
     7
370
    15
100
AcDbLine
 10
1347.5692902491
 20
1441.9257846547
 30
0.0
 11
1348.76928076
 21
1441.9257846547
 31
0.0
  0
ARC
  5
2CA
330
1F
100
AcDbEntity
  8
0
  6
SLD-Solid
 62
     7
370
    15
100
AcDbCircle
 10
1350.2692907199
 20
1451.4257928843
 30
0.0
 40
3.50000000000007
100
AcDbArc
 50
121.0987555887
 51
140.4823472025
  0
LINE
  5
2CB
330
1F
100
AcDbEntity
  8
0
  6
SLD-Solid
 62
     7
370
    15
100
AcDbLine
 10
1369.8390160486
 20
1454.9257960988
 30
0.0
 11
1351.4109884188
 21
1454.9257960988
 31
0.0
  0
ARC
  5
2CC
330
1F
100
AcDbEntity
  8
0
  6
SLD-Solid
 62
     7
370
    15
100
AcDbCircle
 10
1369.8390051702
 20
1456.4257928843
 30
0.0
 40
1.5
100
AcDbArc
 50
270.0
 51
333.2563160496
  0
ARC
  5
2CD
330
1F
100
AcDbEntity
  8
0
  6
SLD-Solid
 62
     7
370
    15
100
AcDbCircle
 10
1387.6995762697
 20
1456.4257928843
 30
0.0
 40
1.5
100
AcDbArc
 50
206.7436839504
 51
270.0
  0
LINE
  5
2CE
330
1F
100
AcDbEntity
  8
0
  6
SLD-Solid
 62
     7
370
    15
100
AcDbLine
 10
1402.0048116133
 20
1454.9257960988
 30
0.0
 11
1400.4692767546
 21
1454.9257960988
 31
0.0
  0
LINE
  5
2CF
330
1F
100
AcDbEntity
  8
0
  6
SLD-Solid
 62
     7
370
    15
100
AcDbLine
 10
1392.66929373
 20
1454.9257960988
 30
0.0
 11
1387.6995776579
 21
1454.9257960988
 31
0.0
  0
ARC
  5
2D0
330
1F
100
AcDbEntity
  8
0
  6
SLD-Solid
 62
     7
370
    15
100
AcDbCircle
 10
1402.0048002488
 20
1456.4257928843
 30
0.0
 40
1.5
100
AcDbArc
 50
270.0
 51
290.0
  0
LINE
  5
2D1
330
1F
100
AcDbEntity
  8
0
  6
SLD-Solid
 62
     7
370
    15
100
AcDbLine
 10
1404.1486714766
 20
1455.6098190022
 30
0.0
 11
1402.5178287909
 21
1455.0162759495
 31
0.0
  0
LINE
  5
2D2
330
1F
100
AcDbEntity
  8
0
  6
SLD-Solid
 62
     7
370
    15
100
AcDbLine
 10
1404.5693014548
 20
1453.634580679
 30
0.0
 11
1404.8327241823
 21
1453.7304249478
 31
0.0
  0
ARC
  5
2D3
330
1F
100
AcDbEntity
  8
0
  6
SLD-Solid
 62
     7
370
    15
100
AcDbCircle
 10
1350.2692907199
 20
1451.4257928843
 30
0.0
 40
1.500000000000227
100
AcDbArc
 50
102.0966649146
 51
180.0
  0
ARC
  5
2D4
330
1F
100
AcDbEntity
  8
0
  6
SLD-Solid
 62
     7
370
    15
100
AcDbCircle
 10
1378.7692907199
 20
1451.9257928843
 30
0.0
 40
8.500000000000332
100
AcDbArc
 50
26.7436839504
 51
153.2563160496
  0
LINE
  5
2D5
330
1F
100
AcDbEntity
  8
0
  6
SLD-Solid
 62
     7
370
    15
100
AcDbLine
 10
1408.1693027899
 20
954.6257910205
 30
0.0
 11
1408.1693027899
 21
956.6197750045
 31
0.0
  0
LINE
  5
2D6
330
1F
100
AcDbEntity
  8
0
  6
SLD-Solid
 62
     7
370
    15
100
AcDbLine
 10
1406.5693055079
 20
954.6257910205
 30
0.0
 11
1408.1693027899
 21
954.6257910205
 31
0.0
  0
LINE
  5
2D7
330
1F
100
AcDbEntity
  8
0
  6
SLD-Solid
 62
     7
370
    15
100
AcDbLine
 10
1406.5693055079
 20
1014.6257934046
 30
0.0
 11
1408.1693027899
 21
1014.6257934046
 31
0.0
  0
LINE
  5
2D8
330
1F
100
AcDbEntity
  8
0
  6
SLD-Solid
 62
     7
370
    15
100
AcDbLine
 10
1408.1693027899
 20
1012.6314219905
 30
0.0
 11
1408.1693027899
 21
1014.6257934046
 31
0.0
  0
LINE
  5
2D9
330
1F
100
AcDbEntity
  8
0
  6
SLD-Solid
 62
     7
370
    15
100
AcDbLine
 10
1408.1693027899
 20
956.6197750045
 30
0.0
 11
1408.1693027899
 21
1012.6314219905
 31
0.0
  0
LINE
  5
2DA
330
1F
100
AcDbEntity
  8
0
  6
SLD-Solid
 62
     7
370
    15
100
AcDbLine
 10
1409.5692966864
 20
1012.0880809498
 30
0.0
 11
1409.5692966864
 21
957.1635109258
 31
0.0
  0
ARC
  5
2DB
330
1F
100
AcDbEntity
  8
0
  6
SLD-Solid
 62
     7
370
    15
100
AcDbCircle
 10
1406.5692097377
 20
957.1635506477
 30
0.0
 40
3.000086948986262
100
AcDbArc
 50
302.2320065256
 51
359.9992413903
  0
ARC
  5
2DC
330
1F
100
AcDbEntity
  8
0
  6
SLD-Solid
 62
     7
370
    15
100
AcDbCircle
 10
1406.5692517605
 20
1012.0880569603
 30
0.0
 40
3.000044925967095
100
AcDbArc
 50
0.0004581606
 51
57.7684362187
  0
LINE
  5
2DD
330
1F
100
AcDbEntity
  8
0
  6
SLD-Solid
 62
     7
370
    15
100
AcDbLine
 10
1369.569305031
 20
1451.6257849408
 30
0.0
 11
1391.5692900107
 21
1451.6257849408
 31
0.0
  0
ARC
  5
2DE
330
1F
100
AcDbEntity
  8
0
  6
SLD-Solid
 62
     7
370
    15
100
AcDbCircle
 10
1368.5692907199
 20
1449.6257928834
 30
0.0
 40
2.000000000000227
100
AcDbArc
 50
90.0
 51
180.0
  0
LINE
  5
2DF
330
1F
100
AcDbEntity
  8
0
  6
SLD-Solid
 62
     7
370
    15
100
AcDbLine
 10
1368.5692881033
 20
1451.6257849408
 30
0.0
 11
1369.569305031
 21
1451.6257849408
 31
0.0
  0
LINE
  5
2E0
330
1F
100
AcDbEntity
  8
0
  6
SLD-Solid
 62
     7
370
    15
100
AcDbLine
 10
1366.5692840502
 20
1449.62581069
 30
0.0
 11
1366.5692840502
 21
1448.62576396
 31
0.0
  0
LINE
  5
2E1
330
1F
100
AcDbEntity
  8
0
  6
SLD-Solid
 62
     7
370
    15
100
AcDbLine
 10
1374.4455610201
 20
1451.6257849408
 30
0.0
 11
1374.5767806456
 21
1451.9257751179
 31
0.0
  0
ARC
  5
2E2
330
1F
100
AcDbEntity
  8
0
  6
SLD-Solid
 62
     7
370
    15
100
AcDbCircle
 10
1380.5692907199
 20
1449.1257928834
 30
0.0
 40
6.614378277661713
100
AcDbArc
 50
53.2529562239
 51
126.7470437761
  0
LINE
  5
2E3
330
1F
100
AcDbEntity
  8
0
  6
SLD-Solid
 62
     7
370
    15
100
AcDbLine
 10
1386.5617845938
 20
1451.9257751179
 30
0.0
 11
1386.6930042193
 21
1451.6257849408
 31
0.0
  0
LINE
  5
2E4
330
1F
100
AcDbEntity
  8
0
  6
SLD-Solid
 62
     7
370
    15
100
AcDbLine
 10
1382.1563456938
 20
1451.5503254605
 30
0.0
 11
1382.1255300924
 21
1451.9257751179
 31
0.0
  0
LINE
  5
2E5
330
1F
100
AcDbEntity
  8
0
  6
SLD-Solid
 62
     7
370
    15
100
AcDbLine
 10
1379.0013228342
 20
1451.9257751179
 30
0.0
 11
1378.9932464049
 21
1451.6257849408
 31
0.0
  0
LINE
  5
2E6
330
1F
100
AcDbEntity
  8
0
  6
SLD-Solid
 62
     7
370
    15
100
AcDbLine
 10
1381.5692995474
 20
1451.6257849408
 30
0.0
 11
1381.523225157
 21
1451.9257751179
 31
0.0
  0
LINE
  5
2E7
330
1F
100
AcDbEntity
  8
0
  6
SLD-Solid
 62
     7
370
    15
100
AcDbLine
 10
1379.6153400824
 20
1451.9257751179
 30
0.0
 11
1379.5692954943
 21
1451.6257849408
 31
0.0
  0
ARC
  5
2E8
330
1F
100
AcDbEntity
  8
0
  6
SLD-Solid
 62
     7
370
    15
100
AcDbCircle
 10
1380.5692907199
 20
1451.6257928834
 30
0.0
 40
4.999999999999991
100
AcDbArc
 50
34.0557977339
 51
145.9442022661
  0
LINE
  5
2E9
330
1F
100
AcDbEntity
  8
0
  6
SLD-Solid
 62
     7
370
    15
100
AcDbLine
 10
1387.0692883417
 20
1451.6257849408
 30
0.0
 11
1387.0623742029
 21
1451.9257751179
 31
0.0
  0
ARC
  5
2EA
330
1F
100
AcDbEntity
  8
0
  6
SLD-Solid
 62
     7
370
    15
100
AcDbCircle
 10
1380.5692907199
 20
1451.6257928834
 30
0.0
 40
6.499999999999992
100
AcDbArc
 50
88.6070153778
 51
154.4836126398
  0
LINE
  5
2EB
330
1F
100
AcDbEntity
  8
0
  6
SLD-Solid
 62
     7
370
    15
100
AcDbLine
 10
1374.0762208388
 20
1451.9257751179
 30
0.0
 11
1374.0692768976
 21
1451.6257849408
 31
0.0
  0
LINE
  5
2EC
330
1F
100
AcDbEntity
  8
0
  6
SLD-Solid
 62
     7
370
    15
100
AcDbLine
 10
1441.1539171621
 20
1383.9681354237
 30
0.0
 11
1441.0496388361
 21
1383.9272466374
 31
0.0
  0
LINE
  5
2ED
330
1F
100
AcDbEntity
  8
0
  6
SLD-Solid
 62
     7
370
    15
100
AcDbLine
 10
1442.2945414469
 20
1413.1749478055
 30
0.0
 11
1442.7006278917
 21
1413.1750670148
 31
0.0
  0
LWPOLYLINE
  5
2EE
330
1F
100
AcDbEntity
  8
0
  6
SLD-Solid
 62
     7
370
    15
100
AcDbPolyline
 90
        5
 70
   128
 43
0.0
 10
1447.016510813
 20
1385.1925936413
 10
1446.8745623514
 20
1385.2396813107
 10
1446.5573762343
 20
1385.3163924885
 10
1446.5573762343
 20
1385.3164520932
 10
1446.5573762343
 20
1385.3164520932
  0
LINE
  5
2EF
330
1F
100
AcDbEntity
  8
0
  6
SLD-Solid
 62
     7
370
    15
100
AcDbLine
 10
1447.0259283468
 20
1385.1456251813
 30
0.0
 11
1447.160724251
 21
1385.1447907162
 31
0.0
  0
LINE
  5
2F0
330
1F
100
AcDbEntity
  8
0
  6
SLD-Solid
 62
     7
370
    15
100
AcDbLine
 10
1443.4697960303
 20
1413.0339828206
 30
0.0
 11
1441.0496388361
 21
1413.3243170453
 31
0.0
  0
ARC
  5
2F1
330
1F
100
AcDbEntity
  8
0
  6
SLD-Solid
 62
     7
370
    15
100
AcDbCircle
 10
1441.4400946293
 20
1390.7433214972
 30
0.0
 40
6.827249242636278
100
AcDbArc
 50
266.7214200612
 51
349.571674499
  0
LWPOLYLINE
  5
2F2
330
1F
100
AcDbEntity
  8
0
  6
SLD-Solid
 62
     7
370
    15
100
AcDbPolyline
 90
       10
 70
   128
 43
0.0
 10
1448.154572098
 20
1389.5075526906
 10
1448.7193857119
 20
1389.6675315571
 10
1450.7725869105
 20
1389.684340067
 10
1454.4680152819
 20
1389.6834459973
 10
1457.6238428042
 20
1389.6827903462
 10
1460.6183503554
 20
1389.6823135091
 10
1461.8406926081
 20
1389.6822539044
 10
1462.3830054686
 20
1389.6822539044
 10
1462.6309309885
 20
1389.6517363263
 10
1462.8343914435
 20
1389.4567099286
  0
ARC
  5
2F3
330
1F
100
AcDbEntity
  8
0
  6
SLD-Solid
 62
     7
370
    15
100
AcDbCircle
 10
1455.9827444412
 20
1390.8697637948
 30
0.0
 40
6.995840755180597
100
AcDbArc
 50
267.0397271227
 51
348.3469481179
  0
ARC
  5
2F4
330
1F
100
AcDbEntity
  8
0
  6
SLD-Solid
 62
     7
370
    15
100
AcDbCircle
 10
1455.9826153255
 20
1406.3817075093
 30
0.0
 40
6.99598586900461
100
AcDbArc
 50
11.6535792663
 51
92.9591525743
  0
LWPOLYLINE
  5
2F5
330
1F
100
AcDbEntity
  8
0
  6
SLD-Solid
 62
     7
370
    15
100
AcDbPolyline
 90
        3
 70
   128
 43
0.0
 10
1445.8526705191
 20
1385.5341282559
 10
1446.1416040346
 20
1385.4236808491
 10
1447.160724251
 20
1385.1447907162
  0
LINE
  5
2F6
330
1F
100
AcDbEntity
  8
0
  6
SLD-Solid
 62
     7
370
    15
100
AcDbLine
 10
1462.6554284975
 20
1407.9444614125
 30
0.0
 11
1462.8343914435
 21
1407.7948537541
 31
0.0
  0
LINE
  5
2F7
330
1F
100
AcDbEntity
  8
0
  6
SLD-Solid
 62
     7
370
    15
100
AcDbLine
 10
1462.8343914435
 20
1389.4567099286
 30
0.0
 11
1462.6553986952
 21
1389.3071022702
 31
0.0
  0
LINE
  5
2F8
330
1F
100
AcDbEntity
  8
0
  6
SLD-Solid
 62
     7
370
    15
100
AcDbLine
 10
1403.6852155611
 20
924.1257962657
 30
0.0
 11
1405.0692950175
 21
924.1257962657
 31
0.0
  0
LINE
  5
2F9
330
1F
100
AcDbEntity
  8
0
  6
SLD-Solid
 62
     7
370
    15
100
AcDbLine
 10
1388.0693052694
 20
924.1257962657
 30
0.0
 11
1403.6852155611
 21
924.1257962657
 31
0.0
  0
LINE
  5
2FA
330
1F
100
AcDbEntity
  8
0
  6
SLD-Solid
 62
     7
370
    15
100
AcDbLine
 10
1404.5192931578
 20
924.6257898284
 30
0.0
 11
1404.5693014548
 21
924.6257898284
 31
0.0
  0
LWPOLYLINE
  5
2FB
330
1F
100
AcDbEntity
  8
0
  6
SLD-Solid
 62
     7
370
    15
100
AcDbPolyline
 90
        3
 70
   128
 43
0.0
 10
1392.0276795313
 20
924.6257898284
 10
1391.9232223913
 20
924.4348985029
 10
1391.9182454035
 20
924.4257938934
  0
LINE
  5
2FC
330
1F
100
AcDbEntity
  8
0
  6
SLD-Solid
 62
     7
370
    15
100
AcDbLine
 10
1392.2531042978
 20
924.4257938934
 30
0.0
 11
1391.9182454035
 21
924.4257938934
 31
0.0
  0
LWPOLYLINE
  5
2FD
330
1F
100
AcDbEntity
  8
0
  6
SLD-Solid
 62
     7
370
    15
100
AcDbPolyline
 90
        3
 70
   128
 43
0.0
 10
1392.2531042978
 20
924.4257938934
 10
1392.258111088
 20
924.4348985029
 10
1392.3625384257
 20
924.6257898284
  0
LINE
  5
2FE
330
1F
100
AcDbEntity
  8
0
  6
SLD-Solid
 62
     7
370
    15
100
AcDbLine
 10
1403.6852155611
 20
922.6257932258
 30
0.0
 11
1405.0692950175
 21
922.6257932258
 31
0.0
  0
LINE
  5
2FF
330
1F
100
AcDbEntity
  8
0
  6
SLD-Solid
 62
     7
370
    15
100
AcDbLine
 10
1388.0693052694
 20
922.6257932258
 30
0.0
 11
1403.6852155611
 21
922.6257932258
 31
0.0
  0
LINE
  5
300
330
1F
100
AcDbEntity
  8
0
  6
SLD-Solid
 62
     7
370
    15
100
AcDbLine
 10
1403.2666419432
 20
922.1257922126
 30
0.0
 11
1404.5693014548
 21
922.1257922126
 31
0.0
  0
LINE
  5
301
330
1F
100
AcDbEntity
  8
0
  6
SLD-Solid
 62
     7
370
    15
100
AcDbLine
 10
1396.5692852423
 20
922.1257922126
 30
0.0
 11
1403.2666419432
 21
922.1257922126
 31
0.0
  0
LINE
  5
302
330
1F
100
AcDbEntity
  8
0
  6
SLD-Solid
 62
     7
370
    15
100
AcDbLine
 10
1392.0276795313
 20
924.4257938934
 30
0.0
 11
1392.0276795313
 21
924.6257898284
 31
0.0
  0
LINE
  5
303
330
1F
100
AcDbEntity
  8
0
  6
SLD-Solid
 62
     7
370
    15
100
AcDbLine
 10
1397.8756700442
 20
1449.125787325
 30
0.0
 11
1388.0693052694
 21
1449.125787325
 31
0.0
  0
LINE
  5
304
330
1F
100
AcDbEntity
  8
0
  6
SLD-Solid
 62
     7
370
    15
100
AcDbLine
 10
1405.0692950175
 20
1449.125787325
 30
0.0
 11
1397.8756700442
 21
1449.125787325
 31
0.0
  0
LINE
  5
305
330
1F
100
AcDbEntity
  8
0
  6
SLD-Solid
 62
     7
370
    15
100
AcDbLine
 10
1404.5693014548
 20
1448.62576396
 30
0.0
 11
1404.5192931578
 21
1448.62576396
 31
0.0
  0
LINE
  5
306
330
1F
100
AcDbEntity
  8
0
  6
SLD-Solid
 62
     7
370
    15
100
AcDbLine
 10
1397.8756700442
 20
1450.6257978154
 30
0.0
 11
1388.0693052694
 21
1450.6257978154
 31
0.0
  0
LINE
  5
307
330
1F
100
AcDbEntity
  8
0
  6
SLD-Solid
 62
     7
370
    15
100
AcDbLine
 10
1405.0692950175
 20
1450.6257978154
 30
0.0
 11
1397.8756700442
 21
1450.6257978154
 31
0.0
  0
LINE
  5
308
330
1F
100
AcDbEntity
  8
0
  6
SLD-Solid
 62
     7
370
    15
100
AcDbLine
 10
1397.798839657
 20
1451.1258211804
 30
0.0
 11
1388.5692988321
 21
1451.1258211804
 31
0.0
  0
LINE
  5
309
330
1F
100
AcDbEntity
  8
0
  6
SLD-Solid
 62
     7
370
    15
100
AcDbLine
 10
1404.5693014548
 20
1451.1258211804
 30
0.0
 11
1397.798839657
 21
1451.1258211804
 31
0.0
  0
ARC
  5
30A
330
1F
100
AcDbEntity
  8
0
  6
SLD-Solid
 62
     7
370
    15
100
AcDbCircle
 10
1357.0684341744
 20
1443.1980573418
 30
0.0
 40
2.906280957899976
100
AcDbArc
 50
99.8893198655
 51
142.2878597578
  0
LINE
  5
30B
330
1F
100
AcDbEntity
  8
0
  6
SLD-Solid
 62
     7
370
    15
100
AcDbLine
 10
1354.7692929194
 20
928.2757920099
 30
0.0
 11
1354.7692929194
 21
1444.9758139325
 31
0.0
  0
ARC
  5
30C
330
1F
100
AcDbEntity
  8
0
  6
SLD-Solid
 62
     7
370
    15
100
AcDbCircle
 10
1356.8407517076
 20
929.67504102
 30
0.0
 40
2.499767849940664
100
AcDbArc
 50
214.0386197659
 51
263.7657663114
  0
ARC
  5
30D
330
1F
100
AcDbEntity
  8
0
  6
SLD-Solid
 62
     7
370
    15
100
AcDbCircle
 10
1356.5955819113
 20
1445.3362857781
 30
0.0
 40
0.8400790936793966
100
AcDbArc
 50
91.793231112
 51
146.6890316949
  0
ARC
  5
30E
330
1F
100
AcDbEntity
  8
0
  6
SLD-Solid
 62
     7
370
    15
100
AcDbCircle
 10
1356.7422709784
 20
1445.0146140988
 30
0.0
 40
1.973359540094928
100
AcDbArc
 50
95.0287898773
 51
181.126621376
  0
ARC
  5
30F
330
1F
100
AcDbEntity
  8
0
  6
SLD-Solid
 62
     7
370
    15
100
AcDbCircle
 10
1356.5962093471
 20
927.9153602111
 30
0.0
 40
0.8402730298526387
100
AcDbArc
 50
213.3012908543
 51
268.1643784185
  0
ARC
  5
310
330
1F
100
AcDbEntity
  8
0
  6
SLD-Solid
 62
     7
370
    15
100
AcDbCircle
 10
1356.7289883752
 20
928.2292520167
 30
0.0
 40
1.960248007421711
100
AcDbArc
 50
178.639562059
 51
265.3271276661
  0
LINE
  5
311
330
1F
100
AcDbEntity
  8
0
  6
SLD-Solid
 62
     7
370
    15
100
AcDbLine
 10
1356.5692935869
 20
1447.7550593091
 30
0.0
 11
1356.5692935869
 21
925.4965019298
 31
0.0
  0
LINE
  5
312
330
1F
100
AcDbEntity
  8
0
  6
SLD-Solid
 62
     7
370
    15
100
AcDbLine
 10
1404.5192931578
 20
1447.7550593091
 30
0.0
 11
1356.5692935869
 21
1447.7550593091
 31
0.0
  0
CIRCLE
  5
313
330
1F
100
AcDbEntity
  8
0
  6
SLD-Solid
 62
     7
370
    15
100
AcDbCircle
 10
1376.5692907199
 20
1186.6257928834
 30
0.0
 40
1.599999999999682
  0
CIRCLE
  5
314
330
1F
100
AcDbEntity
  8
0
  6
SLD-Solid
 62
     7
370
    15
100
AcDbCircle
 10
1376.5692907199
 20
954.6257928834
 30
0.0
 40
1.599999999999909
  0
CIRCLE
  5
315
330
1F
100
AcDbEntity
  8
0
  6
SLD-Solid
 62
     7
370
    15
100
AcDbCircle
 10
1376.5692907199
 20
1418.6257928834
 30
0.0
 40
1.599999999999909
  0
LINE
  5
316
330
1F
100
AcDbEntity
  8
0
  6
SLD-Solid
 62
     7
370
    15
100
AcDbLine
 10
1404.5192931578
 20
925.4965019298
 30
0.0
 11
1356.5692935869
 21
925.4965019298
 31
0.0
  0
LWPOLYLINE
  5
317
330
1F
100
AcDbEntity
  8
0
  6
SLD-Solid
 62
     7
370
    15
100
AcDbPolyline
 90
        6
 70
   128
 43
0.0
 10
1406.5693055079
 20
1446.5757814122
 10
1406.3695703432
 20
1447.1039977742
 10
1406.0310159609
 20
1447.4005904866
 10
1405.4778252527
 20
1447.5994315816
 10
1405.0487910196
 20
1447.6826396657
 10
1404.5192931578
 20
1447.7550593091
  0
LINE
  5
318
330
1F
100
AcDbEntity
  8
0
  6
SLD-Solid
 62
     7
370
    15
100
AcDbLine
 10
1406.5693055079
 20
1446.5757814122
 30
0.0
 11
1406.5693055079
 21
926.6757947279
 31
0.0
  0
LWPOLYLINE
  5
319
330
1F
100
AcDbEntity
  8
0
  6
SLD-Solid
 62
     7
370
    15
100
AcDbPolyline
 90
        6
 70
   128
 43
0.0
 10
1404.5192931578
 20
925.4965019298
 10
1405.0153528139
 20
925.5530220342
 10
1405.4349397108
 20
925.6299865318
 10
1406.0222242758
 20
925.8452338052
 10
1406.3855741903
 20
926.1644390298
 10
1406.5693055079
 20
926.6757947279
  0
LINE
  5
31A
330
1F
100
AcDbEntity
  8
0
  6
SLD-Solid
 62
     7
370
    15
100
AcDbLine
 10
1404.5192931578
 20
925.42579592
 30
0.0
 11
1404.5192931578
 21
924.6257898284
 31
0.0
  0
ARC
  5
31B
330
1F
100
AcDbEntity
  8
0
  6
SLD-Solid
 62
     7
370
    15
100
AcDbCircle
 10
1404.521281738
 20
926.66354009
 30
0.0
 40
1.237745767450209
100
AcDbArc
 50
269.9079477359
 51
297.7444491185
  0
ARC
  5
31C
330
1F
100
AcDbEntity
  8
0
  6
SLD-Solid
 62
     7
370
    15
100
AcDbCircle
 10
1404.5192817762
 20
926.6758135601
 30
0.0
 40
2.050023731772951
100
AcDbArc
 50
270.0003181026
 51
359.9994736608
  0
ARC
  5
31D
330
1F
100
AcDbEntity
  8
0
  6
SLD-Solid
 62
     7
370
    15
100
AcDbCircle
 10
1404.5192812788
 20
1446.5757397305
 30
0.0
 40
2.050024229520805
100
AcDbArc
 50
0.0011649555
 51
89.9996679954
  0
LWPOLYLINE
  5
31E
330
1F
100
AcDbEntity
  8
0
  6
SLD-Solid
 62
     7
370
    15
100
AcDbPolyline
 90
        3
 70
   128
 43
0.0
 10
1404.5192931578
 20
1447.8258100224
 10
1404.9988721296
 20
1447.7301445676
 10
1405.0782059118
 20
1447.6769176198
  0
LINE
  5
31F
330
1F
100
AcDbEntity
  8
0
  6
SLD-Solid
 62
     7
370
    15
100
AcDbLine
 10
1404.5192931578
 20
1447.8258100224
 30
0.0
 11
1404.5192931578
 21
1448.62576396
 31
0.0
  0
LINE
  5
320
330
1F
100
AcDbEntity
  8
0
  6
SLD-Solid
 62
     7
370
    15
100
AcDbLine
 10
1404.5192931578
 20
1447.8258100224
 30
0.0
 11
1356.5692935869
 21
1447.8258100224
 31
0.0
  0
LINE
  5
321
330
1F
100
AcDbEntity
  8
0
  6
SLD-Solid
 62
     7
370
    15
100
AcDbLine
 10
1356.5692935869
 20
1448.62576396
 30
0.0
 11
1356.5692935869
 21
1447.8258100224
 31
0.0
  0
LINE
  5
322
330
1F
100
AcDbEntity
  8
0
  6
SLD-Solid
 62
     7
370
    15
100
AcDbLine
 10
1404.5192931578
 20
1448.62576396
 30
0.0
 11
1356.5692935869
 21
1448.62576396
 31
0.0
  0
LINE
  5
323
330
1F
100
AcDbEntity
  8
0
  6
SLD-Solid
 62
     7
370
    15
100
AcDbLine
 10
1404.5192931578
 20
924.6257898284
 30
0.0
 11
1356.5692935869
 21
924.6257898284
 31
0.0
  0
LINE
  5
324
330
1F
100
AcDbEntity
  8
0
  6
SLD-Solid
 62
     7
370
    15
100
AcDbLine
 10
1356.5692935869
 20
924.6257898284
 30
0.0
 11
1356.5692935869
 21
925.42579592
 31
0.0
  0
LINE
  5
325
330
1F
100
AcDbEntity
  8
0
  6
SLD-Solid
 62
     7
370
    15
100
AcDbLine
 10
1404.5192931578
 20
925.42579592
 30
0.0
 11
1356.5692935869
 21
925.42579592
 31
0.0
  0
LINE
  5
326
330
1F
100
AcDbEntity
  8
0
  6
SLD-Solid
 62
     7
370
    15
100
AcDbLine
 10
1355.5192981646
 20
1447.7550593091
 30
0.0
 11
1355.5192981646
 21
1446.5757814122
 31
0.0
  0
LINE
  5
327
330
1F
100
AcDbEntity
  8
0
  6
SLD-Solid
 62
     7
370
    15
100
AcDbLine
 10
1356.5692935869
 20
1447.7550593091
 30
0.0
 11
1355.5192981646
 21
1447.7550593091
 31
0.0
  0
LINE
  5
328
330
1F
100
AcDbEntity
  8
0
  6
SLD-Solid
 62
     7
370
    15
100
AcDbLine
 10
1354.7692929194
 20
1000.1257863713
 30
0.0
 11
1353.4692858145
 21
1000.1257863713
 31
0.0
  0
LINE
  5
329
330
1F
100
AcDbEntity
  8
0
  6
SLD-Solid
 62
     7
370
    15
100
AcDbLine
 10
1353.4692858145
 20
1446.5757814122
 30
0.0
 11
1353.4692858145
 21
1434.9153843594
 31
0.0
  0
LINE
  5
32A
330
1F
100
AcDbEntity
  8
0
  6
SLD-Solid
 62
     7
370
    15
100
AcDbLine
 10
1353.4692858145
 20
1000.5663988066
 30
0.0
 11
1353.4692858145
 21
1000.1257863713
 31
0.0
  0
LINE
  5
32B
330
1F
100
AcDbEntity
  8
0
  6
SLD-Solid
 62
     7
370
    15
100
AcDbLine
 10
1353.4692858145
 20
1446.5757814122
 30
0.0
 11
1355.5192981646
 21
1446.5757814122
 31
0.0
  0
LINE
  5
32C
330
1F
100
AcDbEntity
  8
0
  6
SLD-Solid
 62
     7
370
    15
100
AcDbLine
 10
1396.5692852423
 20
922.1257922126
 30
0.0
 11
1404.5693014548
 21
922.1257922126
 31
0.0
  0
LINE
  5
32D
330
1F
100
AcDbEntity
  8
0
  6
SLD-Solid
 62
     7
370
    15
100
AcDbLine
 10
1396.5692852423
 20
919.6257945967
 30
0.0
 11
1404.5693014548
 21
919.6257945967
 31
0.0
  0
LINE
  5
32E
330
1F
100
AcDbEntity
  8
0
  6
SLD-Solid
 62
     7
370
    15
100
AcDbLine
 10
1353.0692790434
 20
922.1257922126
 30
0.0
 11
1396.5692852423
 21
922.1257922126
 31
0.0
  0
LINE
  5
32F
330
1F
100
AcDbEntity
  8
0
  6
SLD-Solid
 62
     7
370
    15
100
AcDbLine
 10
1353.0692790434
 20
919.6257945967
 30
0.0
 11
1396.5692852423
 21
919.6257945967
 31
0.0
  0
LINE
  5
330
330
1F
100
AcDbEntity
  8
0
  6
SLD-Solid
 62
     7
370
    15
100
AcDbLine
 10
1350.0692878649
 20
925.1257908416
 30
0.0
 11
1350.0692878649
 21
935.1257962061
 31
0.0
  0
LINE
  5
331
330
1F
100
AcDbEntity
  8
0
  6
SLD-Solid
 62
     7
370
    15
100
AcDbLine
 10
1347.5692902491
 20
940.1257914377
 30
0.0
 11
1350.0692878649
 21
940.1257914377
 31
0.0
  0
LINE
  5
332
330
1F
100
AcDbEntity
  8
0
  6
SLD-Solid
 62
     7
370
    15
100
AcDbLine
 10
1350.0692878649
 20
935.1257962061
 30
0.0
 11
1350.0692878649
 21
940.1257914377
 31
0.0
  0
ARC
  5
333
330
1F
100
AcDbEntity
  8
0
  6
SLD-Solid
 62
     7
370
    15
100
AcDbCircle
 10
1353.0692907199
 20
925.1257928834
 30
0.0
 40
3.0
100
AcDbArc
 50
180.0
 51
270.0
  0
ARC
  5
334
330
1F
100
AcDbEntity
  8
0
  6
SLD-Solid
 62
     7
370
    15
100
AcDbCircle
 10
1353.0692907199
 20
925.1257928834
 30
0.0
 40
5.5
100
AcDbArc
 50
180.0
 51
270.0
  0
LINE
  5
335
330
1F
100
AcDbEntity
  8
0
  6
SLD-Solid
 62
     7
370
    15
100
AcDbLine
 10
1350.0692878649
 20
1457.4257937146
 30
0.0
 11
1350.0692878649
 21
1462.8119078351
 31
0.0
  0
LINE
  5
336
330
1F
100
AcDbEntity
  8
0
  6
SLD-Solid
 62
     7
370
    15
100
AcDbLine
 10
1396.5692852423
 20
1451.9257751179
 30
0.0
 11
1404.5693014548
 21
1451.9257751179
 31
0.0
  0
LINE
  5
337
330
1F
100
AcDbEntity
  8
0
  6
SLD-Solid
 62
     7
370
    15
100
AcDbLine
 10
1396.5692852423
 20
1454.4257727338
 30
0.0
 11
1404.5693014548
 21
1454.4257727338
 31
0.0
  0
ARC
  5
338
330
1F
100
AcDbEntity
  8
0
  6
SLD-Solid
 62
     7
370
    15
100
AcDbCircle
 10
1353.0692907199
 20
1457.4257928828
 30
0.0
 40
5.5
100
AcDbArc
 50
180.0
 51
270.0
  0
ARC
  5
339
330
1F
100
AcDbEntity
  8
0
  6
SLD-Solid
 62
     7
370
    15
100
AcDbCircle
 10
1353.0692907199
 20
1457.4257928828
 30
0.0
 40
3.0
100
AcDbArc
 50
180.0
 51
270.0
  0
LINE
  5
33A
330
1F
100
AcDbEntity
  8
0
  6
SLD-Solid
 62
     7
370
    15
100
AcDbLine
 10
1353.0692790434
 20
1451.9257751179
 30
0.0
 11
1396.5692852423
 21
1451.9257751179
 31
0.0
  0
LINE
  5
33B
330
1F
100
AcDbEntity
  8
0
  6
SLD-Solid
 62
     7
370
    15
100
AcDbLine
 10
1353.0692790434
 20
1454.4257727338
 30
0.0
 11
1396.5692852423
 21
1454.4257727338
 31
0.0
  0
LINE
  5
33C
330
1F
100
AcDbEntity
  8
0
  6
SLD-Solid
 62
     7
370
    15
100
AcDbLine
 10
1392.66929373
 20
919.1257935835
 30
0.0
 11
1400.4692767546
 21
919.1257935835
 31
0.0
  0
LINE
  5
33D
330
1F
100
AcDbEntity
  8
0
  6
SLD-Solid
 62
     7
370
    15
100
AcDbLine
 10
1400.4692767546
 20
1454.9257960988
 30
0.0
 11
1392.66929373
 21
1454.9257960988
 31
0.0
  0
ARC
  5
33E
330
1F
100
AcDbEntity
  8
0
  6
SLD-Solid
 62
     7
370
    15
100
AcDbCircle
 10
642.5006037801
 20
917.6676763384
 30
0.0
 40
3.244019659384509
100
AcDbArc
 50
98.5321828727
 51
141.2881222509
  0
LINE
  5
33F
330
1F
100
AcDbEntity
  8
0
  6
SLD-Solid
 62
     7
370
    15
100
AcDbLine
 10
639.9692927286
 20
1601.0551062298
 30
0.0
 11
639.9692927286
 21
919.6965006066
 31
0.0
  0
ARC
  5
340
330
1F
100
AcDbEntity
  8
0
  6
SLD-Solid
 62
     7
370
    15
100
AcDbCircle
 10
642.50078631
 20
1603.0841261786
 30
0.0
 40
3.244284467299291
100
AcDbArc
 50
218.7125582928
 51
261.4652590849
  0
ARC
  5
341
330
1F
100
AcDbEntity
  8
0
  6
SLD-Solid
 62
     7
370
    15
100
AcDbCircle
 10
638.0664555383
 20
1598.9660771122
 30
0.0
 40
4.056175332256667
100
AcDbArc
 50
12.9601462215
 51
46.8600647006
  0
ARC
  5
342
330
1F
100
AcDbEntity
  8
0
  6
SLD-Solid
 62
     7
370
    15
100
AcDbCircle
 10
639.9955951342
 20
1599.1478592843
 30
0.0
 40
2.150640392597069
100
AcDbArc
 50
19.7831813589
 51
66.8818619707
  0
LINE
  5
343
330
1F
100
AcDbEntity
  8
0
  6
SLD-Solid
 62
     7
370
    15
100
AcDbLine
 10
640.8399973795
 20
1601.9258108807
 30
0.0
 11
640.8399973795
 21
1601.1257973386
 31
0.0
  0
LINE
  5
344
330
1F
100
AcDbEntity
  8
0
  6
SLD-Solid
 62
     7
370
    15
100
AcDbLine
 10
1346.3692997381
 20
1601.9258108807
 30
0.0
 11
1260.2692876742
 21
1601.9258108807
 31
0.0
  0
LINE
  5
345
330
1F
100
AcDbEntity
  8
0
  6
SLD-Solid
 62
     7
370
    15
100
AcDbLine
 10
745.2693019793
 20
1601.9258108807
 30
0.0
 11
640.8399973795
 21
1601.9258108807
 31
0.0
  0
ARC
  5
346
330
1F
100
AcDbEntity
  8
0
  6
SLD-Solid
 62
     7
370
    15
100
AcDbCircle
 10
1351.9188399939
 20
1598.03975555
 30
0.0
 40
6.657727795394316
100
AcDbArc
 50
146.4650185275
 51
163.9919899042
  0
LINE
  5
347
330
1F
100
AcDbEntity
  8
0
  6
SLD-Solid
 62
     7
370
    15
100
AcDbLine
 10
640.7692764685
 20
1601.0551062298
 30
0.0
 11
639.9692927286
 21
1601.0551062298
 31
0.0
  0
ARC
  5
348
330
1F
100
AcDbEntity
  8
0
  6
SLD-Solid
 62
     7
370
    15
100
AcDbCircle
 10
642.743840414
 20
1601.8958809775
 30
0.0
 40
2.146113918544118
100
AcDbArc
 50
203.0644379822
 51
250.2690732339
  0
LWPOLYLINE
  5
349
330
1F
100
AcDbEntity
  8
0
  6
SLD-Solid
 62
     7
370
    15
100
AcDbPolyline
 90
        3
 70
   128
 43
0.0
 10
1346.3692997381
 20
1600.1993623448
 10
1345.7914923117
 20
1599.9757853223
 10
1345.519277899
 20
1599.8757687283
  0
LINE
  5
34A
330
1F
100
AcDbEntity
  8
0
  6
SLD-Solid
 62
     7
370
    15
100
AcDbLine
 10
1347.5692902491
 20
919.6965006066
 30
0.0
 11
1347.5692902491
 21
1462.8119078351
 31
0.0
  0
LINE
  5
34B
330
1F
100
AcDbEntity
  8
0
  6
SLD-Solid
 62
     7
370
    15
100
AcDbLine
 10
1347.5692902491
 20
1463.6119213772
 30
0.0
 11
1347.5692902491
 21
1464.6119085026
 31
0.0
  0
LINE
  5
34C
330
1F
100
AcDbEntity
  8
0
  6
SLD-Solid
 62
     7
370
    15
100
AcDbLine
 10
1347.5692902491
 20
1583.299597807
 30
0.0
 11
1347.5692902491
 21
1584.2995849324
 31
0.0
  0
LWPOLYLINE
  5
34D
330
1F
100
AcDbEntity
  8
0
  6
SLD-Solid
 62
     7
370
    15
100
AcDbPolyline
 90
        6
 70
   128
 43
0.0
 10
1345.519277899
 20
920.8757934046
 10
1346.2401364729
 20
920.606030233
 10
1346.8691144869
 20
920.3361851049
 10
1347.3255370543
 20
920.0663325263
 10
1347.5511406347
 20
919.7964873982
 10
1347.5692902491
 20
919.6965006066
  0
LWPOLYLINE
  5
34E
330
1F
100
AcDbEntity
  8
0
  6
SLD-Solid
 62
     7
370
    15
100
AcDbPolyline
 90
        3
 70
   128
 43
0.0
 10
1346.3692997381
 20
1600.4405823422
 10
1345.9934328482
 20
1600.1678910924
 10
1345.519277899
 20
1599.8757687283
  0
ARC
  5
34F
330
1F
100
AcDbEntity
  8
0
  6
SLD-Solid
 62
     7
370
    15
100
AcDbCircle
 10
1348.8515614015
 20
1598.2371612765
 30
0.0
 40
3.713374169448795
100
AcDbArc
 50
131.9487237634
 51
153.8149422892
  0
LWPOLYLINE
  5
350
330
1F
100
AcDbEntity
  8
0
  6
SLD-Solid
 62
     7
370
    15
100
AcDbPolyline
 90
        6
 70
   128
 43
0.0
 10
642.0193050787
 20
920.8757934046
 10
641.7495344565
 20
920.1549348307
 10
641.4796744272
 20
919.5259791685
 10
641.2098442003
 20
919.0695342494
 10
640.9399841711
 20
918.8439455701
 10
640.8399973795
 20
918.8257959557
  0
LINE
  5
351
330
1F
100
AcDbEntity
  8
0
  6
SLD-Solid
 62
     7
370
    15
100
AcDbLine
 10
640.8399973795
 20
918.8257959557
 30
0.0
 11
640.8399973795
 21
919.6257945967
 31
0.0
  0
ARC
  5
352
330
1F
100
AcDbEntity
  8
0
  6
SLD-Solid
 62
     7
370
    15
100
AcDbCircle
 10
640.0022980025
 20
921.5974262047
 30
0.0
 40
2.142211811129401
100
AcDbArc
 50
293.0194845013
 51
340.3141084587
  0
ARC
  5
353
330
1F
100
AcDbEntity
  8
0
  6
SLD-Solid
 62
     7
370
    15
100
AcDbCircle
 10
1348.7275614225
 20
921.3572210113
 30
0.0
 40
3.24420340106037
100
AcDbArc
 50
188.533998106
 51
231.2872928796
  0
LINE
  5
354
330
1F
100
AcDbEntity
  8
0
  6
SLD-Solid
 62
     7
370
    15
100
AcDbLine
 10
640.8399973795
 20
918.8257959557
 30
0.0
 11
1346.6985855982
 21
918.8257959557
 31
0.0
  0
ARC
  5
355
330
1F
100
AcDbEntity
  8
0
  6
SLD-Solid
 62
     7
370
    15
100
AcDbCircle
 10
642.7436572381
 20
918.8558434465
 30
0.0
 40
2.145899318288032
100
AcDbArc
 50
109.7277859926
 51
156.936534597
  0
LINE
  5
356
330
1F
100
AcDbEntity
  8
0
  6
SLD-Solid
 62
     7
370
    15
100
AcDbLine
 10
640.7692764685
 20
919.6965006066
 30
0.0
 11
639.9692927286
 21
919.6965006066
 31
0.0
  0
ARC
  5
357
330
1F
100
AcDbEntity
  8
0
  6
SLD-Solid
 62
     7
370
    15
100
AcDbCircle
 10
1347.5392297651
 20
921.600204458
 30
0.0
 40
2.145920994777716
100
AcDbArc
 50
199.7292489659
 51
246.9371580741
  0
LINE
  5
358
330
1F
100
AcDbEntity
  8
0
  6
SLD-Solid
 62
     7
370
    15
100
AcDbLine
 10
1346.6985855982
 20
919.6257945967
 30
0.0
 11
1346.6985855982
 21
918.8257959557
 31
0.0
  0
LINE
  5
359
330
1F
100
AcDbEntity
  8
0
  6
SLD-Solid
 62
     7
370
    15
100
AcDbLine
 10
1346.7692767069
 20
919.6965006066
 30
0.0
 11
1347.5692902491
 21
919.6965006066
 31
0.0
  0
ARC
  5
35A
330
1F
100
AcDbEntity
  8
0
  6
SLD-Solid
 62
     7
370
    15
100
AcDbCircle
 10
1344.7977739158
 20
918.8589122836
 30
0.0
 40
2.142049825283547
100
AcDbArc
 50
23.0180979332
 51
70.3162177677
  0
LINE
  5
35B
330
1F
100
AcDbEntity
  8
0
  6
SLD-Solid
 62
     7
370
    15
100
AcDbLine
 10
1298.8192920372
 20
1601.9258108807
 30
0.0
 11
1298.8192920372
 21
1602.02576787
 31
0.0
  0
LINE
  5
35C
330
1F
100
AcDbEntity
  8
0
  6
SLD-Solid
 62
     7
370
    15
100
AcDbLine
 10
1384.2972253248
 20
1593.4276190472
 30
0.0
 11
1383.9832578585
 21
1593.400141306
 31
0.0
  0
LINE
  5
35D
330
1F
100
AcDbEntity
  8
0
  6
SLD-Solid
 62
     7
370
    15
100
AcDbLine
 10
1385.0669001028
 20
1593.8713160229
 30
0.0
 11
1385.0760792181
 21
1593.7662926388
 31
0.0
  0
LINE
  5
35E
330
1F
100
AcDbEntity
  8
0
  6
SLD-Solid
 62
     7
370
    15
100
AcDbLine
 10
1265.7692913696
 20
1618.4157934857
 30
0.0
 11
1265.7692913696
 21
1618.425807066
 31
0.0
  0
LINE
  5
35F
330
1F
100
AcDbEntity
  8
0
  6
SLD-Solid
 62
     7
370
    15
100
AcDbLine
 10
1286.7408727095
 20
1618.425807066
 30
0.0
 11
1286.5192924425
 21
1618.425807066
 31
0.0
  0
LINE
  5
360
330
1F
100
AcDbEntity
  8
0
  6
SLD-Solid
 62
     7
370
    15
100
AcDbLine
 10
706.769291012
 20
1601.9258108807
 30
0.0
 11
706.769291012
 21
1602.4257746411
 31
0.0
  0
LINE
  5
361
330
1F
100
AcDbEntity
  8
0
  6
SLD-Solid
 62
     7
370
    15
100
AcDbLine
 10
695.5692802355
 20
1601.9258108807
 30
0.0
 11
695.5692802355
 21
1602.4257746411
 31
0.0
  0
LINE
  5
362
330
1F
100
AcDbEntity
  8
0
  6
SLD-Solid
 62
     7
370
    15
100
AcDbLine
 10
645.5692981169
 20
1602.4257746411
 30
0.0
 11
645.5692981169
 21
1601.9258108807
 31
0.0
  0
LINE
  5
363
330
1F
100
AcDbEntity
  8
0
  6
SLD-Solid
 62
     7
370
    15
100
AcDbLine
 10
1348.2452665255
 20
993.1039270831
 30
0.0
 11
1348.1964205191
 21
984.1040578557
 31
0.0
  0
ARC
  5
364
330
1F
100
AcDbEntity
  8
0
  6
SLD-Solid
 62
     7
370
    15
100
AcDbCircle
 10
1345.5452954107
 20
993.118574022
 30
0.0
 40
2.699999999999951
100
AcDbArc
 50
359.6890354576
 51
41.4418449493
  0
LINE
  5
365
330
1F
100
AcDbEntity
  8
0
  6
SLD-Solid
 62
     7
370
    15
100
AcDbLine
 10
1348.1692706034
 20
979.1041222287
 30
0.0
 11
1347.5692902491
 21
979.107385583
 31
0.0
  0
LWPOLYLINE
  5
366
330
1F
100
AcDbEntity
  8
0
  6
SLD-Solid
 62
     7
370
    15
100
AcDbPolyline
 90
        9
 70
   128
 43
0.0
 10
1348.1964205191
 20
984.1040578557
 10
1348.1911157057
 20
983.1286129428
 10
1348.1860195086
 20
982.1906593514
 10
1348.181340544
 20
981.3262429906
 10
1348.1772278235
 20
980.5685636473
 10
1348.173860161
 20
979.946767993
 10
1348.1713269636
 20
979.4847276879
 10
1348.1698070452
 20
979.2002049161
 10
1348.1692706034
 20
979.1041222287
  0
LWPOLYLINE
  5
367
330
1F
100
AcDbEntity
  8
0
  6
SLD-Solid
 62
     7
370
    15
100
AcDbPolyline
 90
        3
 70
   128
 43
0.0
 10
1345.9370468542
 20
920.2282783461
 10
1346.1638425276
 20
920.4312470627
 10
1346.1796675608
 20
920.4472211075
  0
LINE
  5
368
330
1F
100
AcDbEntity
  8
0
  6
SLD-Solid
 62
     7
370
     0
100
AcDbLine
 10
640.2769429487
 20
1689.6533345693
 30
0.0
 11
638.5644561007
 21
1689.6533345693
 31
0.0
  0
LINE
  5
369
330
1F
100
AcDbEntity
  8
0
  6
SLD-Solid
 62
     7
370
     0
100
AcDbLine
 10
638.2691934538
 20
1687.612353844
 30
0.0
 11
638.2691934538
 21
1688.1425894682
 31
0.0
  0
LINE
  5
36A
330
1F
100
AcDbEntity
  8
0
  6
SLD-Solid
 62
     7
370
     0
100
AcDbLine
 10
640.2692907199
 20
508.6963871259
 30
0.0
 11
640.2692907199
 21
507.99295642
 31
0.0
  0
LINE
  5
36B
330
1F
100
AcDbEntity
  8
0
  6
SLD-Center
 62
     7
370
     0
100
AcDbLine
 10
712.2692907199
 20
501.694075449
 30
0.0
 11
712.2692907199
 21
331.6638578788
 31
0.0
  0
LINE
  5
36C
330
1F
100
AcDbEntity
  8
0
  6
SLD-Center
 62
     7
370
     0
100
AcDbLine
 10
1301.2692907199
 20
500.5374073022
 30
0.0
 11
1301.2692907199
 21
337.4471986125
 31
0.0
  0
LINE
  5
36D
330
1F
100
AcDbEntity
  8
0
  6
SLD-Center
 62
     7
370
     0
100
AcDbLine
 10
1350.7692907199
 20
965.2257928831
 30
0.0
 11
1350.7692907199
 21
1459.9640853357
 31
0.0
  0
LINE
  5
36E
330
1F
100
AcDbEntity
  8
0
  6
SLD-Center
 62
     7
370
     0
100
AcDbLine
 10
599.0692907199
 20
1560.3257928834
 30
0.0
 11
787.0692907199
 21
1560.3257928834
 31
0.0
  0
ENDSEC
  0
SECTION
  2
OBJECTS
  0
DICTIONARY
  5
C
330
0
100
AcDbDictionary
281
     1
  3
ACAD_GROUP
350
D
  3
ACAD_LAYOUT
350
1A
  3
ACAD_MLINESTYLE
350
17
  3
ACAD_PLOTSETTINGS
350
19
  3
ACAD_PLOTSTYLENAME
350
E
  0
DICTIONARY
  5
D
102
{ACAD_REACTORS
330
C
102
}
330
C
100
AcDbDictionary
281
     1
  0
DICTIONARY
  5
1A
102
{ACAD_REACTORS
330
C
102
}
330
C
100
AcDbDictionary
281
     1
  3
Layout1
350
1E
  3
Layout2
350
26
  3
Model
350
22
  0
DICTIONARY
  5
17
102
{ACAD_REACTORS
330
C
102
}
330
C
100
AcDbDictionary
281
     1
  3
Standard
350
18
  0
DICTIONARY
  5
19
102
{ACAD_REACTORS
330
C
102
}
330
C
100
AcDbDictionary
281
     1
  0
ACDBDICTIONARYWDFLT
  5
E
102
{ACAD_REACTORS
330
C
102
}
330
C
100
AcDbDictionary
281
     1
  3
Normal
350
F
100
AcDbDictionaryWithDefault
340
F
  0
LAYOUT
  5
1E
102
{ACAD_REACTORS
330
1A
102
}
330
1A
100
AcDbPlotSettings
  1

  2
none_device
  4

  6

 40
0.0
 41
0.0
 42
0.0
 43
0.0
 44
0.0
 45
0.0
 46
0.0
 47
0.0
 48
0.0
 49
0.0
140
0.0
141
0.0
142
1.0
143
1.0
 70
   688
 72
     0
 73
     0
 74
     5
  7

 75
    16
147
1.0
148
0.0
149
0.0
100
AcDbLayout
  1
Layout1
 70
     1
 71
     1
 10
0.0
 20
0.0
 11
420.0
 21
297.0
 12
0.0
 22
0.0
 32
0.0
 14
1.0000000000E+20
 24
1.0000000000E+20
 34
1.0000000000E+20
 15
-1.0000000000E+20
 25
-1.0000000000E+20
 35
-1.0000000000E+20
146
0.0
 13
0.0
 23
0.0
 33
0.0
 16
1.0
 26
0.0
 36
0.0
 17
0.0
 27
1.0
 37
0.0
 76
     0
330
1B
  0
LAYOUT
  5
26
102
{ACAD_REACTORS
330
1A
102
}
330
1A
100
AcDbPlotSettings
  1

  2
none_device
  4

  6

 40
0.0
 41
0.0
 42
0.0
 43
0.0
 44
0.0
 45
0.0
 46
0.0
 47
0.0
 48
0.0
 49
0.0
140
0.0
141
0.0
142
1.0
143
1.0
 70
   688
 72
     0
 73
     0
 74
     5
  7

 75
    16
147
1.0
148
0.0
149
0.0
100
AcDbLayout
  1
Layout2
 70
     1
 71
     2
 10
0.0
 20
0.0
 11
0.0
 21
0.0
 12
0.0
 22
0.0
 32
0.0
 14
0.0
 24
0.0
 34
0.0
 15
0.0
 25
0.0
 35
0.0
146
0.0
 13
0.0
 23
0.0
 33
0.0
 16
1.0
 26
0.0
 36
0.0
 17
0.0
 27
1.0
 37
0.0
 76
     0
330
23
  0
LAYOUT
  5
22
102
{ACAD_REACTORS
330
1A
102
}
330
1A
100
AcDbPlotSettings
  1

  2
none_device
  4

  6

 40
0.0
 41
0.0
 42
0.0
 43
0.0
 44
0.0
 45
0.0
 46
0.0
 47
0.0
 48
0.0
 49
0.0
140
0.0
141
0.0
142
1.0
143
1.0
 70
  1712
 72
     0
 73
     0
 74
     0
  7

 75
     0
147
1.0
148
0.0
149
0.0
100
AcDbLayout
  1
Model
 70
     1
 71
     0
 10
0.0
 20
0.0
 11
2000.0
 21
2000.0
 12
0.0
 22
0.0
 32
0.0
 14
0.0
 24
0.0
 34
0.0
 15
2000.0
 25
2000.0
 35
0.0
146
0.0
 13
0.0
 23
0.0
 33
0.0
 16
1.0
 26
0.0
 36
0.0
 17
0.0
 27
1.0
 37
0.0
 76
     0
330
1F
331
29
  0
MLINESTYLE
  5
18
102
{ACAD_REACTORS
330
17
102
}
330
17
100
AcDbMlineStyle
  2
Standard
 70
     0
  3

 62
   256
 51
90.0
 52
90.0
 71
     2
 49
0.5
 62
   256
  6
BYLAYER
 49
-0.5
 62
   256
  6
BYLAYER
  0
ACDBPLACEHOLDER
  5
F
102
{ACAD_REACTORS
330
E
102
}
330
E
  0
ENDSEC
  0
EOF
