  0
SECTION
  2
HEADER
  9
$ACADVER
  1
AC1015
  9
$ACADMAINTVER
 70
     6
  9
$DWGCODEPAGE
  3
ANSI_1252
  9
$INSBASE
 10
0.0
 20
0.0
 30
0.0
  9
$EXTMIN
 10
0.0
 20
0.0
 30
0.0
  9
$EXTMAX
 10
2000.0
 20
2000.0
 30
0.0
  9
$LIMMIN
 10
0.0
 20
0.0
  9
$LIMMAX
 10
2000.0
 20
2000.0
  9
$ORTHOMODE
 70
     0
  9
$REGENMODE
 70
     1
  9
$FILLMODE
 70
     1
  9
$QTEXTMODE
 70
     0
  9
$MIRRTEXT
 70
     1
  9
$LTSCALE
 40
1.0
  9
$ATTMODE
 70
     1
  9
$TEXTSIZE
 40
3.5
  9
$TRACEWID
 40
1.0
  9
$TEXTSTYLE
  7
STANDARD
  9
$CLAYER
  8
0
  9
$CELTYPE
  6
ByLayer
  9
$CECOLOR
 62
   256
  9
$CELTSCALE
 40
1.0
  9
$DISPSILH
 70
     0
  9
$DIMSCALE
 40
1.0
  9
$DIMASZ
 40
3.302
  9
$DIMEXO
 40
1.0
  9
$DIMDLI
 40
3.75
  9
$DIMRND
 40
0.0
  9
$DIMDLE
 40
0.0
  9
$DIMEXE
 40
1.0
  9
$DIMTP
 40
0.0
  9
$DIMTM
 40
0.0
  9
$DIMTXT
 40
3.5
  9
$DIMCEN
 40
2.5
  9
$DIMTSZ
 40
0.0
  9
$DIMTOL
 70
     0
  9
$DIMLIM
 70
     0
  9
$DIMTIH
 70
     1
  9
$DIMTOH
 70
     1
  9
$DIMSE1
 70
     0
  9
$DIMSE2
 70
     0
  9
$DIMTAD
 70
     1
  9
$DIMZIN
 70
     0
  9
$DIMBLK
  1

  9
$DIMASO
 70
     1
  9
$DIMSHO
 70
     1
  9
$DIMPOST
  1

  9
$DIMAPOST
  1

  9
$DIMALT
 70
     0
  9
$DIMALTD
 70
     3
  9
$DIMALTF
 40
0.0393700787
  9
$DIMLFAC
 40
1.0
  9
$DIMTOFL
 70
     1
  9
$DIMTVP
 40
0.0
  9
$DIMTIX
 70
     0
  9
$DIMSOXD
 70
     0
  9
$DIMSAH
 70
     0
  9
$DIMBLK1
  1

  9
$DIMBLK2
  1

  9
$DIMSTYLE
  2
ISO-25
  9
$DIMCLRD
 70
     0
  9
$DIMCLRE
 70
     0
  9
$DIMCLRT
 70
     0
  9
$DIMTFAC
 40
1.0
  9
$DIMGAP
 40
1.524
  9
$DIMJUST
 70
     0
  9
$DIMSD1
 70
     0
  9
$DIMSD2
 70
     0
  9
$DIMTOLJ
 70
     0
  9
$DIMTZIN
 70
     0
  9
$DIMALTZ
 70
     0
  9
$DIMALTTZ
 70
     0
  9
$DIMUPT
 70
     0
  9
$DIMDEC
 70
     1
  9
$DIMTDEC
 70
     1
  9
$DIMALTU
 70
     2
  9
$DIMALTTD
 70
     3
  9
$DIMTXSTY
  7
STANDARD
  9
$DIMAUNIT
 70
     0
  9
$DIMADEC
 70
     1
  9
$DIMALTRND
 40
0.0
  9
$DIMAZIN
 70
     0
  9
$DIMDSEP
 70
    44
  9
$DIMATFIT
 70
     3
  9
$DIMFRAC
 70
     0
  9
$DIMLDRBLK
  1

  9
$DIMLUNIT
 70
     2
  9
$DIMLWD
 70
    -2
  9
$DIMLWE
 70
    -2
  9
$DIMTMOVE
 70
     0
  9
$LUNITS
 70
     2
  9
$LUPREC
 70
     1
  9
$SKETCHINC
 40
1.0
  9
$FILLETRAD
 40
10.0
  9
$AUNITS
 70
     0
  9
$AUPREC
 70
     1
  9
$MENU
  1
.
  9
$ELEVATION
 40
0.0
  9
$PELEVATION
 40
0.0
  9
$THICKNESS
 40
0.0
  9
$LIMCHECK
 70
     0
  9
$CHAMFERA
 40
10.0
  9
$CHAMFERB
 40
10.0
  9
$CHAMFERC
 40
20.0
  9
$CHAMFERD
 40
0.0
  9
$SKPOLY
 70
     0
  9
$TDCREATE
 40
2455671.28107765
  9
$TDUCREATE
 40
2455671.239410984
  9
$TDUPDATE
 40
2455671.281077662
  9
$TDUUPDATE
 40
2455671.239410996
  9
$TDINDWG
 40
0.0000000116
  9
$TDUSRTIMER
 40
0.0000000116
  9
$USRTIMER
 70
     1
  9
$ANGBASE
 50
0.0
  9
$ANGDIR
 70
     0
  9
$PDMODE
 70
     0
  9
$PDSIZE
 40
-1.0
  9
$PLINEWID
 40
0.0
  9
$SPLFRAME
 70
     0
  9
$SPLINETYPE
 70
     6
  9
$SPLINESEGS
 70
     8
  9
$HANDSEED
  5
289
  9
$SURFTAB1
 70
     6
  9
$SURFTAB2
 70
     6
  9
$SURFTYPE
 70
     6
  9
$SURFU
 70
     6
  9
$SURFV
 70
     6
  9
$UCSBASE
  2

  9
$UCSNAME
  2

  9
$UCSORG
 10
0.0
 20
0.0
 30
0.0
  9
$UCSXDIR
 10
1.0
 20
0.0
 30
0.0
  9
$UCSYDIR
 10
0.0
 20
1.0
 30
0.0
  9
$UCSORTHOREF
  2

  9
$UCSORTHOVIEW
 70
     0
  9
$UCSORGTOP
 10
0.0
 20
0.0
 30
0.0
  9
$UCSORGBOTTOM
 10
0.0
 20
0.0
 30
0.0
  9
$UCSORGLEFT
 10
0.0
 20
0.0
 30
0.0
  9
$UCSORGRIGHT
 10
0.0
 20
0.0
 30
0.0
  9
$UCSORGFRONT
 10
0.0
 20
0.0
 30
0.0
  9
$UCSORGBACK
 10
0.0
 20
0.0
 30
0.0
  9
$PUCSBASE
  2

  9
$PUCSNAME
  2

  9
$PUCSORG
 10
0.0
 20
0.0
 30
0.0
  9
$PUCSXDIR
 10
1.0
 20
0.0
 30
0.0
  9
$PUCSYDIR
 10
0.0
 20
1.0
 30
0.0
  9
$PUCSORTHOREF
  2

  9
$PUCSORTHOVIEW
 70
     0
  9
$PUCSORGTOP
 10
0.0
 20
0.0
 30
0.0
  9
$PUCSORGBOTTOM
 10
0.0
 20
0.0
 30
0.0
  9
$PUCSORGLEFT
 10
0.0
 20
0.0
 30
0.0
  9
$PUCSORGRIGHT
 10
0.0
 20
0.0
 30
0.0
  9
$PUCSORGFRONT
 10
0.0
 20
0.0
 30
0.0
  9
$PUCSORGBACK
 10
0.0
 20
0.0
 30
0.0
  9
$USERI1
 70
     0
  9
$USERI2
 70
     0
  9
$USERI3
 70
     0
  9
$USERI4
 70
     0
  9
$USERI5
 70
     0
  9
$USERR1
 40
0.0
  9
$USERR2
 40
0.0
  9
$USERR3
 40
0.0
  9
$USERR4
 40
0.0
  9
$USERR5
 40
0.0
  9
$WORLDVIEW
 70
     1
  9
$SHADEDGE
 70
     3
  9
$SHADEDIF
 70
    70
  9
$TILEMODE
 70
     1
  9
$MAXACTVP
 70
    64
  9
$PINSBASE
 10
0.0
 20
0.0
 30
0.0
  9
$PLIMCHECK
 70
     0
  9
$PEXTMIN
 10
1.0000000000E+20
 20
1.0000000000E+20
 30
1.0000000000E+20
  9
$PEXTMAX
 10
-1.0000000000E+20
 20
-1.0000000000E+20
 30
-1.0000000000E+20
  9
$PLIMMIN
 10
0.0
 20
0.0
  9
$PLIMMAX
 10
420.0
 20
297.0
  9
$UNITMODE
 70
     0
  9
$VISRETAIN
 70
     1
  9
$PLINEGEN
 70
     0
  9
$PSLTSCALE
 70
     1
  9
$TREEDEPTH
 70
  3020
  9
$CMLSTYLE
  2
Standard
  9
$CMLJUST
 70
     0
  9
$CMLSCALE
 40
20.0
  9
$PROXYGRAPHICS
 70
     1
  9
$MEASUREMENT
 70
     1
  9
$CELWEIGHT
370
    -1
  9
$ENDCAPS
280
     0
  9
$JOINSTYLE
280
     0
  9
$LWDISPLAY
290
     1
  9
$INSUNITS
 70
     4
  9
$HYPERLINKBASE
  1

  9
$STYLESHEET
  1

  9
$XEDIT
290
     1
  9
$CEPSNTYPE
380
     0
  9
$PSTYLEMODE
290
     1
  9
$FINGERPRINTGUID
  2
{C5A24A9C-9E8A-4C84-A322-8D0AA0D52F75}
  9
$VERSIONGUID
  2
{FAEB1C32-E019-11D5-929B-00C0DF256EC4}
  9
$EXTNAMES
290
     1
  9
$PSVPSCALE
 40
0.0
  9
$OLESTARTUP
290
     0
  0
ENDSEC
  0
SECTION
  2
CLASSES
  0
CLASS
  1
ACDBDICTIONARYWDFLT
  2
AcDbDictionaryWithDefault
  3
ObjectDBX Classes
 90
        0
280
     0
281
     0
  0
CLASS
  1
VISUALSTYLE
  2
AcDbVisualStyle
  3
ObjectDBX Classes
 90
     4095
280
     0
281
     0
  0
CLASS
  1
MATERIAL
  2
AcDbMaterial
  3
ObjectDBX Classes
 90
     1153
280
     0
281
     0
  0
CLASS
  1
ACDBPLACEHOLDER
  2
AcDbPlaceHolder
  3
ObjectDBX Classes
 90
        0
280
     0
281
     0
  0
CLASS
  1
LAYOUT
  2
AcDbLayout
  3
ObjectDBX Classes
 90
        0
280
     0
281
     0
  0
ENDSEC
  0
SECTION
  2
TABLES
  0
TABLE
  2
VPORT
  5
8
330
0
100
AcDbSymbolTable
 70
     1
  0
VPORT
  5
29
330
8
100
AcDbSymbolTableRecord
100
AcDbViewportTableRecord
  2
*Active
 70
     0
 10
0.0
 20
0.0
 11
1.0
 21
1.0
 12
1000.0
 22
1000.0
 13
0.0
 23
0.0
 14
10.0
 24
10.0
 15
10.0
 25
10.0
 16
0.0
 26
0.0
 36
1.0
 17
0.0
 27
0.0
 37
0.0
 40
2000.0
 41
1.0
 42
50.0
 43
0.0
 44
0.0
 50
0.0
 51
0.0
 71
     0
 72
  2000
 73
     1
 74
     3
 75
     0
 76
     0
 77
     0
 78
     0
281
     0
 65
     1
110
0.0
120
0.0
130
0.0
111
1.0
121
0.0
131
0.0
112
0.0
122
1.0
132
0.0
 79
     0
146
0.0
  0
ENDTAB
  0
TABLE
  2
LTYPE
  5
5
330
0
100
AcDbSymbolTable
 70
     8
  0
LTYPE
  5
14
330
5
100
AcDbSymbolTableRecord
100
AcDbLinetypeTableRecord
  2
ByBlock
 70
     0
  3

 72
    65
 73
     0
 40
0.0
  0
LTYPE
  5
15
330
5
100
AcDbSymbolTableRecord
100
AcDbLinetypeTableRecord
  2
ByLayer
 70
     0
  3

 72
    65
 73
     0
 40
0.0
  0
LTYPE
  5
16
330
5
100
AcDbSymbolTableRecord
100
AcDbLinetypeTableRecord
  2
Continuous
 70
     0
  3
Solid line
 72
    65
 73
     0
 40
0.0
  0
LTYPE
  5
3F
330
5
100
AcDbSymbolTableRecord
100
AcDbLinetypeTableRecord
  2
SLD-Solid
 70
     0
  3
SolidWorks Line Style
 72
    65
 73
     0
 40
0.0
  0
LTYPE
  5
40
330
5
100
AcDbSymbolTableRecord
100
AcDbLinetypeTableRecord
  2
SLD-Dashed
 70
     0
  3
SolidWorks Line Style
 72
    65
 73
     2
 40
1.905
 49
1.27
 74
     0
 49
-0.635
 74
     0
  0
LTYPE
  5
41
330
5
100
AcDbSymbolTableRecord
100
AcDbLinetypeTableRecord
  2
SLD-Phantom
 70
     0
  3
SolidWorks Line Style
 72
    65
 73
     6
 40
12.7
 49
6.35
 74
     0
 49
-1.27
 74
     0
 49
1.27
 74
     0
 49
-1.27
 74
     0
 49
1.27
 74
     0
 49
-1.27
 74
     0
  0
LTYPE
  5
42
330
5
100
AcDbSymbolTableRecord
100
AcDbLinetypeTableRecord
  2
SLD-Chain
 70
     0
  3
SolidWorks Line Style
 72
    65
 73
     4
 40
10.16
 49
6.35
 74
     0
 49
-1.27
 74
     0
 49
1.27
 74
     0
 49
-1.27
 74
     0
  0
LTYPE
  5
43
330
5
100
AcDbSymbolTableRecord
100
AcDbLinetypeTableRecord
  2
SLD-Center
 70
     0
  3
SolidWorks Line Style
 72
    65
 73
     4
 40
19.05
 49
15.24
 74
     0
 49
-1.27
 74
     0
 49
1.27
 74
     0
 49
-1.27
 74
     0
  0
LTYPE
  5
44
330
5
100
AcDbSymbolTableRecord
100
AcDbLinetypeTableRecord
  2
SLD-Stitch
 70
     0
  3
SolidWorks Line Style
 72
    65
 73
     2
 40
0.635
 49
0.0
 74
     0
 49
-0.635
 74
     0
  0
LTYPE
  5
45
330
5
100
AcDbSymbolTableRecord
100
AcDbLinetypeTableRecord
  2
SLD-Thin-Thick-Chain
 70
     0
  3
SolidWorks Line Style
 72
    65
 73
     4
 40
10.16
 49
6.35
 74
     0
 49
-1.27
 74
     0
 49
1.27
 74
     0
 49
-1.27
 74
     0
  0
ENDTAB
  0
TABLE
  2
LAYER
  5
2
330
0
100
AcDbSymbolTable
 70
     4
  0
LAYER
  5
10
330
2
100
AcDbSymbolTableRecord
100
AcDbLayerTableRecord
  2
0
 70
     0
 62
     7
  6
Continuous
370
    -3
390
F
  0
LAYER
  5
46
330
2
100
AcDbSymbolTableRecord
100
AcDbLayerTableRecord
  2
FORMAT
 70
     0
 62
     7
  6
SLD-Solid
370
    -3
390
F
  0
LAYER
  5
47
330
2
100
AcDbSymbolTableRecord
100
AcDbLayerTableRecord
  2
SLD-0
 70
     0
 62
     1
  6
SLD-Solid
370
    -3
390
F
  0
LAYER
  5
48
330
2
100
AcDbSymbolTableRecord
100
AcDbLayerTableRecord
  2
WATERMARK
 70
     0
 62
    20
  6
SLD-Solid
370
    -3
390
F
  0
ENDTAB
  0
TABLE
  2
STYLE
  5
3
330
0
100
AcDbSymbolTable
 70
     1
  0
STYLE
  5
11
330
3
100
AcDbSymbolTableRecord
100
AcDbTextStyleTableRecord
  2
STANDARD
 70
     0
 40
0.0
 41
1.0
 50
0.0
 71
     0
 42
2.5
  3
GOTHIC.TTF
  4

1001
ACAD
1000
CENTURY GOTHIC
1071
       34
  0
ENDTAB
  0
TABLE
  2
VIEW
  5
6
330
0
100
AcDbSymbolTable
 70
     0
  0
ENDTAB
  0
TABLE
  2
UCS
  5
7
330
0
100
AcDbSymbolTable
 70
     0
  0
ENDTAB
  0
TABLE
  2
APPID
  5
9
330
0
100
AcDbSymbolTable
 70
     1
  0
APPID
  5
12
330
9
100
AcDbSymbolTableRecord
100
AcDbRegAppTableRecord
  2
ACAD
 70
     0
  0
ENDTAB
  0
TABLE
  2
DIMSTYLE
  5
A
330
0
100
AcDbSymbolTable
 70
     1
100
AcDbDimStyleTable
  0
DIMSTYLE
105
27
330
A
100
AcDbSymbolTableRecord
100
AcDbDimStyleTableRecord
  2
ISO-25
 70
     0
 41
2.5
 42
0.625
 43
3.75
 44
1.25
 73
     0
 74
     0
 77
     1
 78
     8
140
2.5
141
2.5
143
0.0393700787
147
0.625
171
     3
172
     1
271
     2
272
     2
274
     3
278
    44
283
     0
284
     8
340
11
  0
ENDTAB
  0
TABLE
  2
BLOCK_RECORD
  5
1
330
0
100
AcDbSymbolTable
 70
     1
  0
BLOCK_RECORD
  5
1F
330
1
100
AcDbSymbolTableRecord
100
AcDbBlockTableRecord
  2
*Model_Space
340
22
  0
BLOCK_RECORD
  5
1B
330
1
100
AcDbSymbolTableRecord
100
AcDbBlockTableRecord
  2
*Paper_Space
340
1E
  0
BLOCK_RECORD
  5
23
330
1
100
AcDbSymbolTableRecord
100
AcDbBlockTableRecord
  2
*Paper_Space0
340
26
  0
ENDTAB
  0
ENDSEC
  0
SECTION
  2
BLOCKS
  0
BLOCK
  5
20
330
1F
100
AcDbEntity
  8
0
100
AcDbBlockBegin
  2
*Model_Space
 70
     0
 10
0.0
 20
0.0
 30
0.0
  3
*Model_Space
  1

  0
ENDBLK
  5
21
330
1F
100
AcDbEntity
  8
0
100
AcDbBlockEnd
  0
BLOCK
  5
1C
330
1B
100
AcDbEntity
 67
     1
  8
0
100
AcDbBlockBegin
  2
*Paper_Space
 70
     0
 10
0.0
 20
0.0
 30
0.0
  3
*Paper_Space
  1

  0
ENDBLK
  5
1D
330
1B
100
AcDbEntity
 67
     1
  8
0
100
AcDbBlockEnd
  0
BLOCK
  5
24
330
23
100
AcDbEntity
  8
0
100
AcDbBlockBegin
  2
*Paper_Space0
 70
     0
 10
0.0
 20
0.0
 30
0.0
  3
*Paper_Space0
  1

  0
ENDBLK
  5
25
330
23
100
AcDbEntity
  8
0
100
AcDbBlockEnd
  0
ENDSEC
  0
SECTION
  2
ENTITIES
  0
ARC
  5
49
330
1F
100
AcDbEntity
  8
0
  6
SLD-Solid
 62
     7
370
    15
100
AcDbCircle
 10
391.7670560085
 20
1336.9987145251
 30
0.0
 40
0.2500000000002274
100
AcDbArc
 50
90.0
 51
119.4734267878
  0
ARC
  5
4A
330
1F
100
AcDbEntity
  8
0
  6
SLD-Solid
 62
     7
370
    15
100
AcDbCircle
 10
392.4670560085
 20
1336.9987145251
 30
0.0
 40
0.2500000000002274
100
AcDbArc
 50
42.7847355091
 51
90.0
  0
LINE
  5
4B
330
1F
100
AcDbEntity
  8
0
  6
SLD-Solid
 62
     7
370
    15
100
AcDbLine
 10
392.4670585894
 20
1337.2487119194
 30
0.0
 11
391.7670616412
 21
1337.2487119194
 31
0.0
  0
LWPOLYLINE
  5
4C
330
1F
100
AcDbEntity
  8
0
  6
SLD-Solid
 62
     7
370
    15
100
AcDbPolyline
 90
        7
 70
   128
 43
0.0
 10
392.9669627451
 20
1324.5944372174
 10
392.938292911
 20
1324.5936027523
 10
392.8591081404
 20
1324.6074608322
 10
392.7937516474
 20
1324.6341935154
 10
392.7481540942
 20
1324.6672740933
 10
392.7232989573
 20
1324.6999374386
 10
392.7175471091
 20
1324.7237494942
  0
LINE
  5
4D
330
1F
100
AcDbEntity
  8
0
  6
SLD-Solid
 62
     7
370
    15
100
AcDbLine
 10
398.0670639777
 20
1324.592559671
 30
0.0
 11
392.9670521521
 21
1324.592559671
 31
0.0
  0
ARC
  5
4E
330
1F
100
AcDbEntity
  8
0
  6
SLD-Solid
 62
     7
370
    15
100
AcDbCircle
 10
398.0670560085
 20
1324.3425647754
 30
0.0
 40
0.2499999999999432
100
AcDbArc
 50
0.0
 51
90.0
  0
ARC
  5
4F
330
1F
100
AcDbEntity
  8
0
  6
SLD-Solid
 62
     7
370
    15
100
AcDbCircle
 10
398.0670560085
 20
1319.6425943762
 30
0.0
 40
0.25
100
AcDbArc
 50
270.0
 51
0.0
  0
LINE
  5
50
330
1F
100
AcDbEntity
  8
0
  6
SLD-Solid
 62
     7
370
    15
100
AcDbLine
 10
392.9670521521
 20
1319.3925908562
 30
0.0
 11
398.0670639777
 21
1319.3925908562
 31
0.0
  0
ARC
  5
51
330
1F
100
AcDbEntity
  8
0
  6
SLD-Solid
 62
     7
370
    15
100
AcDbCircle
 10
391.7670560085
 20
1320.0987145251
 30
0.0
 40
0.25
100
AcDbArc
 50
180.0
 51
270.0
  0
LINE
  5
52
330
1F
100
AcDbEntity
  8
0
  6
SLD-Solid
 62
     7
370
    15
100
AcDbLine
 10
398.0670639777
 20
1337.7048364636
 30
0.0
 11
392.9670521521
 21
1337.7048364636
 31
0.0
  0
ARC
  5
53
330
1F
100
AcDbEntity
  8
0
  6
SLD-Solid
 62
     7
370
    15
100
AcDbCircle
 10
398.0670560085
 20
1337.454834674
 30
0.0
 40
0.2499999999999432
100
AcDbArc
 50
0.0
 51
90.0
  0
ARC
  5
54
330
1F
100
AcDbEntity
  8
0
  6
SLD-Solid
 62
     7
370
    15
100
AcDbCircle
 10
392.5098650354
 20
1331.3879876304
 30
0.0
 40
0.2732528851627046
100
AcDbArc
 50
40.9252813261
 51
98.9874892437
  0
ARC
  5
55
330
1F
100
AcDbEntity
  8
0
  6
SLD-Solid
 62
     7
370
    15
100
AcDbCircle
 10
387.3670560085
 20
1331.9096663487
 30
0.0
 40
0.2500000000002274
100
AcDbArc
 50
180.0
 51
270.0
  0
LINE
  5
56
330
1F
100
AcDbEntity
  8
0
  6
SLD-Solid
 62
     7
370
    15
100
AcDbLine
 10
387.3670467639
 20
1331.6596737858
 30
0.0
 11
392.4670585894
 21
1331.6596737858
 31
0.0
  0
ARC
  5
57
330
1F
100
AcDbEntity
  8
0
  6
SLD-Solid
 62
     7
370
    15
100
AcDbCircle
 10
387.3670560085
 20
1336.966360521
 30
0.0
 40
0.2500000000002274
100
AcDbArc
 50
90.0
 51
180.0
  0
LINE
  5
58
330
1F
100
AcDbEntity
  8
0
  6
SLD-Solid
 62
     7
370
    15
100
AcDbLine
 10
392.4670585894
 20
1337.2163465973
 30
0.0
 11
387.3670467639
 21
1337.2163465973
 31
0.0
  0
ARC
  5
59
330
1F
100
AcDbEntity
  8
0
  6
SLD-Solid
 62
     7
370
    15
100
AcDbCircle
 10
392.9670560085
 20
1336.9987145251
 30
0.0
 40
0.2500000000002274
100
AcDbArc
 50
90.0
 51
142.7089330722
  0
ARC
  5
5A
330
1F
100
AcDbEntity
  8
0
  6
SLD-Solid
 62
     7
370
    15
100
AcDbCircle
 10
393.6670560085
 20
1336.9987145251
 30
0.0
 40
0.2500000000002274
100
AcDbArc
 50
0.0
 51
90.0
  0
LINE
  5
5B
330
1F
100
AcDbEntity
  8
0
  6
SLD-Solid
 62
     7
370
    15
100
AcDbLine
 10
393.6670491004
 20
1337.2487119194
 30
0.0
 11
392.9670521521
 21
1337.2487119194
 31
0.0
  0
ARC
  5
5C
330
1F
100
AcDbEntity
  8
0
  6
SLD-Solid
 62
     7
370
    15
100
AcDbCircle
 10
387.3670560085
 20
1320.1310685292
 30
0.0
 40
0.2500000000000568
100
AcDbArc
 50
180.0
 51
270.0
  0
LINE
  5
5D
330
1F
100
AcDbEntity
  8
0
  6
SLD-Solid
 62
     7
370
    15
100
AcDbLine
 10
387.3670467639
 20
1319.8810807225
 30
0.0
 11
391.6440376544
 21
1319.8810807225
 31
0.0
  0
LINE
  5
5E
330
1F
100
AcDbEntity
  8
0
  6
SLD-Solid
 62
     7
370
    15
100
AcDbLine
 10
386.5836033129
 20
1334.0103915688
 30
0.0
 11
386.3170513415
 21
1333.5487237927
 31
0.0
  0
LINE
  5
5F
330
1F
100
AcDbEntity
  8
0
  6
SLD-Solid
 62
     7
370
    15
100
AcDbLine
 10
386.3170513415
 20
1323.5487035271
 30
0.0
 11
386.5836033129
 21
1323.087035751
 31
0.0
  0
LINE
  5
60
330
1F
100
AcDbEntity
  8
0
  6
SLD-Solid
 62
     7
370
    15
100
AcDbLine
 10
391.2504979872
 20
1323.087035751
 30
0.0
 11
391.5170499587
 21
1323.5487035271
 31
0.0
  0
LINE
  5
61
330
1F
100
AcDbEntity
  8
0
  6
SLD-Solid
 62
     7
370
    15
100
AcDbLine
 10
399.418599298
 20
1333.6379519459
 30
0.0
 11
399.3670412802
 21
1333.5487237927
 31
0.0
  0
LINE
  5
62
330
1F
100
AcDbEntity
  8
0
  6
SLD-Solid
 62
     7
370
    15
100
AcDbLine
 10
399.3670412802
 20
1323.5487035271
 30
0.0
 11
399.418599298
 21
1323.4594753739
 31
0.0
  0
LINE
  5
63
330
1F
100
AcDbEntity
  8
0
  6
SLD-Solid
 62
     7
370
    15
100
AcDbLine
 10
398.9742168688
 20
1323.3013442513
 30
0.0
 11
399.1170594
 21
1323.5487035271
 31
0.0
  0
LINE
  5
64
330
1F
100
AcDbEntity
  8
0
  6
SLD-Solid
 62
     7
370
    15
100
AcDbLine
 10
394.0598735117
 20
1333.7960830685
 30
0.0
 11
393.9170607829
 21
1333.5487237927
 31
0.0
  0
LINE
  5
65
330
1F
100
AcDbEntity
  8
0
  6
SLD-Solid
 62
     7
370
    15
100
AcDbLine
 10
399.1170594
 20
1333.5487237927
 30
0.0
 11
398.9742168688
 21
1333.7960830685
 31
0.0
  0
LINE
  5
66
330
1F
100
AcDbEntity
  8
0
  6
SLD-Solid
 62
     7
370
    15
100
AcDbLine
 10
399.3670412802
 20
1331.5487197396
 30
0.0
 11
399.1170594
 21
1331.5487197396
 31
0.0
  0
LINE
  5
67
330
1F
100
AcDbEntity
  8
0
  6
SLD-Solid
 62
     7
370
    15
100
AcDbLine
 10
399.1170594
 20
1325.5487075802
 30
0.0
 11
399.3670412802
 21
1325.5487075802
 31
0.0
  0
LINE
  5
68
330
1F
100
AcDbEntity
  8
0
  6
SLD-Solid
 62
     7
370
    15
100
AcDbLine
 10
1176.0002741122
 20
1084.0487173554
 30
0.0
 11
1176.0037013793
 21
1084.0487173554
 31
0.0
  0
LINE
  5
69
330
1F
100
AcDbEntity
  8
0
  6
SLD-Solid
 62
     7
370
    15
100
AcDbLine
 10
1176.0037013793
 20
1090.0487146136
 30
0.0
 11
1176.0002741122
 21
1090.0487146136
 31
0.0
  0
LINE
  5
6A
330
1F
100
AcDbEntity
  8
0
  6
SLD-Solid
 62
     7
370
    15
100
AcDbLine
 10
1176.0002741122
 20
1085.0487119313
 30
0.0
 11
1176.0037013793
 21
1085.0487119313
 31
0.0
  0
LINE
  5
6B
330
1F
100
AcDbEntity
  8
0
  6
SLD-Solid
 62
     7
370
    15
100
AcDbLine
 10
1189.0769371295
 20
510.5487099644
 30
0.0
 11
1189.0769371295
 21
1410.5487159249
 31
0.0
  0
LINE
  5
6C
330
1F
100
AcDbEntity
  8
0
  6
SLD-Solid
 62
     7
370
    15
100
AcDbLine
 10
1169.1838571333
 20
511.7487004753
 30
0.0
 11
1169.1838571333
 21
1409.3487254139
 31
0.0
  0
LINE
  5
6D
330
1F
100
AcDbEntity
  8
0
  6
SLD-Solid
 62
     7
370
    15
100
AcDbLine
 10
1167.8838500285
 20
1409.3487254139
 30
0.0
 11
1167.8838500285
 21
1410.5487159249
 31
0.0
  0
LINE
  5
6E
330
1F
100
AcDbEntity
  8
0
  6
SLD-Solid
 62
     7
370
    15
100
AcDbLine
 10
1167.8838500285
 20
510.5487099644
 30
0.0
 11
1167.8838500285
 21
511.7487004753
 31
0.0
  0
ARC
  5
6F
330
1F
100
AcDbEntity
  8
0
  6
SLD-Solid
 62
     7
370
    15
100
AcDbCircle
 10
1177.1432814473
 20
1073.1835177855
 30
0.0
 40
1.00000000000004
100
AcDbArc
 50
50.2453421196
 51
82.9728344126
  0
ARC
  5
70
330
1F
100
AcDbEntity
  8
0
  6
SLD-Solid
 62
     7
370
    15
100
AcDbCircle
 10
1177.1432814473
 20
1051.9139112647
 30
0.0
 40
1.00000000000004
100
AcDbArc
 50
277.0271655874
 51
309.7546578804
  0
ARC
  5
71
330
1F
100
AcDbEntity
  8
0
  6
SLD-Solid
 62
     7
370
    15
100
AcDbCircle
 10
1137.8311815689
 20
1072.3427127203
 30
0.0
 40
33.70905509285937
100
AcDbArc
 50
13.1128448697
 51
21.5501309393
  0
ARC
  5
72
330
1F
100
AcDbEntity
  8
0
  6
SLD-Solid
 62
     7
370
    15
100
AcDbCircle
 10
1138.7788106286
 20
1052.3986543813
 30
0.0
 40
32.70562110829839
100
AcDbArc
 50
338.3815860186
 51
347.1180335947
  0
ARC
  5
73
330
1F
100
AcDbEntity
  8
0
  6
SLD-Solid
 62
     7
370
    15
100
AcDbCircle
 10
1182.2791764063
 20
1078.9139115227
 30
0.0
 40
6.695899760411362
100
AcDbArc
 50
227.8159165781
 51
264.9341823261
  0
ARC
  5
74
330
1F
100
AcDbEntity
  8
0
  6
SLD-Solid
 62
     7
370
    15
100
AcDbCircle
 10
1181.9818633524
 20
1046.9240760852
 30
0.0
 40
5.953949185987852
100
AcDbArc
 50
89.4521692725
 51
134.8505574037
  0
ARC
  5
75
330
1F
100
AcDbEntity
  8
0
  6
SLD-Solid
 62
     7
370
    15
100
AcDbCircle
 10
1186.7646275471
 20
1073.1835177855
 30
0.0
 40
0.9999999999998825
100
AcDbArc
 50
11.9201320981
 51
80.5845175716
  0
ARC
  5
76
330
1F
100
AcDbEntity
  8
0
  6
SLD-Solid
 62
     7
370
    15
100
AcDbCircle
 10
1186.7646275471
 20
1051.9139112647
 30
0.0
 40
1.000000000000072
100
AcDbArc
 50
279.4154824284
 51
348.0798679019
  0
LWPOLYLINE
  5
77
330
1F
100
AcDbEntity
  8
0
  6
SLD-Solid
 62
     7
370
    15
100
AcDbPolyline
 90
        3
 70
   128
 43
0.0
 10
1186.9278320574
 20
1074.1711771842
 10
1180.1484891676
 20
1075.3881997224
 10
1173.839695146
 20
1076.7035699245
  0
LINE
  5
78
330
1F
100
AcDbEntity
  8
0
  6
SLD-Solid
 62
     7
370
    15
100
AcDbLine
 10
1186.3741049075
 20
1050.8064693567
 30
0.0
 11
1186.9147488379
 21
1050.8958465215
 31
0.0
  0
ARC
  5
79
330
1F
100
AcDbEntity
  8
0
  6
SLD-Solid
 62
     7
370
    15
100
AcDbCircle
 10
1216.3021815641
 20
861.0721563166
 30
0.0
 40
192.0801898092217
100
AcDbArc
 50
98.9637954156
 51
102.7710223737
  0
ARC
  5
7A
330
1F
100
AcDbEntity
  8
0
  6
SLD-Solid
 62
     7
370
    15
100
AcDbCircle
 10
1143.4249982884
 20
1064.1040651671
 30
0.0
 40
45.28047806568976
100
AcDbArc
 50
3.0863855948
 51
11.8340272737
  0
ARC
  5
7B
330
1F
100
AcDbEntity
  8
0
  6
SLD-Solid
 62
     7
370
    15
100
AcDbCircle
 10
1133.8260375847
 20
1062.4729106235
 30
0.0
 40
54.96458828719839
100
AcDbArc
 50
353.6508893248
 51
4.2455917209
  0
ARC
  5
7C
330
1F
100
AcDbEntity
  8
0
  6
SLD-Solid
 62
     7
370
    15
100
AcDbCircle
 10
1147.8441008843
 20
1060.1521793556
 30
0.0
 40
40.78287646699668
100
AcDbArc
 50
348.0494341094
 51
354.7134636817
  0
ARC
  5
7D
330
1F
100
AcDbEntity
  8
0
  6
SLD-Solid
 62
     7
370
    15
100
AcDbCircle
 10
1174.9662779292
 20
1044.3098787841
 30
0.0
 40
4.239542141249247
100
AcDbArc
 50
105.4225798879
 51
147.0846998099
  0
ARC
  5
7E
330
1F
100
AcDbEntity
  8
0
  6
SLD-Solid
 62
     7
370
    15
100
AcDbCircle
 10
1174.8389165697
 20
1080.5772060813
 30
0.0
 40
4.009005303033753
100
AcDbArc
 50
211.4051147709
 51
255.57468272
  0
ARC
  5
7F
330
1F
100
AcDbEntity
  8
0
  6
SLD-Solid
 62
     7
370
    15
100
AcDbCircle
 10
1174.5946258286
 20
1080.9910125343
 30
0.0
 40
4.05657850863767
100
AcDbArc
 50
194.3041865032
 51
218.1867754345
  0
ARC
  5
80
330
1F
100
AcDbEntity
  8
0
  6
SLD-Solid
 62
     7
370
    15
100
AcDbCircle
 10
1174.3474253332
 20
1044.2235114375
 30
0.0
 40
3.785492618561649
100
AcDbArc
 50
140.8686413959
 51
166.4327625298
  0
LINE
  5
81
330
1F
100
AcDbEntity
  8
0
  6
SLD-Solid
 62
     7
370
    15
100
AcDbLine
 10
410.0272723937
 20
1361.2487009522
 30
0.0
 11
438.287533214
 21
1361.2487009522
 31
0.0
  0
LINE
  5
82
330
1F
100
AcDbEntity
  8
0
  6
SLD-Solid
 62
     7
370
    15
100
AcDbLine
 10
1189.0769371295
 20
735.7658735272
 30
0.0
 11
1207.9485425257
 21
739.8802331444
 31
0.0
  0
ARC
  5
83
330
1F
100
AcDbEntity
  8
0
  6
SLD-Solid
 62
     7
370
    15
100
AcDbCircle
 10
-973.3643866006
 20
1020.1174840904
 30
0.0
 40
2203.900000016601
100
AcDbArc
 50
352.8511702807
 51
357.3056035116
  0
ARC
  5
84
330
1F
100
AcDbEntity
  8
0
  6
SLD-Solid
 62
     7
370
    15
100
AcDbCircle
 10
-1097.3049729758
 20
1033.0456786364
 30
0.0
 40
2306.499999710804
100
AcDbArc
 50
353.3030611363
 51
356.664596036
  0
LINE
  5
85
330
1F
100
AcDbEntity
  8
0
  6
SLD-Solid
 62
     7
370
    15
100
AcDbLine
 10
1222.5760289931
 20
923.6880345997
 30
0.0
 11
1189.0769371295
 21
930.878940111
 31
0.0
  0
ARC
  5
86
330
1F
100
AcDbEntity
  8
0
  6
SLD-Solid
 62
     7
370
    15
100
AcDbCircle
 10
1221.1068903224
 20
916.8439407224
 30
0.0
 40
7.000000016603432
100
AcDbArc
 50
357.3056035116
 51
77.8847581975
  0
ARC
  5
87
330
1F
100
AcDbEntity
  8
0
  6
SLD-Solid
 62
     7
370
    15
100
AcDbCircle
 10
1206.4574389167
 20
746.7195707874
 30
0.0
 40
7.000000016602843
100
AcDbArc
 50
282.2990746699
 51
352.8511702807
  0
ARC
  5
88
330
1F
100
AcDbEntity
  8
0
  6
SLD-Solid
 62
     7
370
    15
100
AcDbCircle
 10
1198.2998034966
 20
899.2586828658
 30
0.0
 40
6.999999710807657
100
AcDbArc
 50
356.664596036
 51
77.8847581975
  0
ARC
  5
89
330
1F
100
AcDbEntity
  8
0
  6
SLD-Solid
 62
     7
370
    15
100
AcDbCircle
 10
1186.5052659821
 20
764.8833352112
 30
0.0
 40
6.999999710807572
100
AcDbArc
 50
291.5542373556
 51
353.3030611363
  0
LINE
  5
8A
330
1F
100
AcDbEntity
  8
0
  6
SLD-Solid
 62
     7
370
    15
100
AcDbLine
 10
1189.0769371295
 20
908.397919571
 30
0.0
 11
1199.7689673209
 21
906.1027756687
 31
0.0
  0
LINE
  5
8B
330
1F
100
AcDbEntity
  8
0
  6
SLD-Solid
 62
     7
370
    15
100
AcDbLine
 10
1207.9485425257
 20
1181.2036624905
 30
0.0
 11
1189.0769371295
 21
1185.3180072066
 31
0.0
  0
ARC
  5
8C
330
1F
100
AcDbEntity
  8
0
  6
SLD-Solid
 62
     7
370
    15
100
AcDbCircle
 10
-973.3643866006
 20
900.9663992356
 30
0.0
 40
2203.900000016601
100
AcDbArc
 50
2.6943964884
 51
7.1488297193
  0
ARC
  5
8D
330
1F
100
AcDbEntity
  8
0
  6
SLD-Solid
 62
     7
370
    15
100
AcDbCircle
 10
-1097.3049729758
 20
888.0382046897
 30
0.0
 40
2306.499999710804
100
AcDbArc
 50
3.335403964
 51
6.6969388637
  0
LINE
  5
8E
330
1F
100
AcDbEntity
  8
0
  6
SLD-Solid
 62
     7
370
    15
100
AcDbLine
 10
1189.0769371295
 20
990.204944348
 30
0.0
 11
1222.5760289931
 21
997.3958498594
 31
0.0
  0
ARC
  5
8F
330
1F
100
AcDbEntity
  8
0
  6
SLD-Solid
 62
     7
370
    15
100
AcDbCircle
 10
1221.1068903224
 20
1004.2399426036
 30
0.0
 40
7.000000016603425
100
AcDbArc
 50
282.1152418025
 51
2.6943964884
  0
ARC
  5
90
330
1F
100
AcDbEntity
  8
0
  6
SLD-Solid
 62
     7
370
    15
100
AcDbCircle
 10
1206.4574389167
 20
1174.3643125386
 30
0.0
 40
7.000000016603068
100
AcDbArc
 50
7.1488297193
 51
77.7009253301
  0
ARC
  5
91
330
1F
100
AcDbEntity
  8
0
  6
SLD-Solid
 62
     7
370
    15
100
AcDbCircle
 10
1198.2998034966
 20
1021.8252004602
 30
0.0
 40
6.999999710807705
100
AcDbArc
 50
282.1152418025
 51
3.335403964
  0
ARC
  5
92
330
1F
100
AcDbEntity
  8
0
  6
SLD-Solid
 62
     7
370
    15
100
AcDbCircle
 10
1186.5052659821
 20
1156.2005481148
 30
0.0
 40
6.999999710807785
100
AcDbArc
 50
6.6969388637
 51
68.4457626444
  0
LINE
  5
93
330
1F
100
AcDbEntity
  8
0
  6
SLD-Solid
 62
     7
370
    15
100
AcDbLine
 10
1199.7689673209
 20
1014.9811087903
 30
0.0
 11
1189.0769371295
 21
1012.685964888
 31
0.0
  0
LWPOLYLINE
  5
94
330
1F
100
AcDbEntity
  8
0
  6
SLD-Solid
 62
     7
370
    15
100
AcDbPolyline
 90
        6
 70
   128
 43
0.0
 10
485.6670567297
 20
1407.4987164494
 10
485.3808650279
 20
1408.224075174
 10
485.094583919
 20
1408.8557950016
 10
484.8083028101
 20
1409.3118003365
 10
484.5220217013
 20
1409.5330527779
 10
484.4241210722
 20
1409.5487287995
  0
ARC
  5
95
330
1F
100
AcDbEntity
  8
0
  6
SLD-Solid
 62
     7
370
    15
100
AcDbCircle
 10
483.6292699032
 20
1406.7153998024
 30
0.0
 40
2.183153709656388
100
AcDbArc
 50
21.0265490089
 51
68.6487833104
  0
LINE
  5
96
330
1F
100
AcDbEntity
  8
0
  6
SLD-Solid
 62
     7
370
    15
100
AcDbLine
 10
484.4241210722
 20
1409.5487287995
 30
0.0
 11
484.4241210722
 21
1408.7487152573
 31
0.0
  0
LWPOLYLINE
  5
97
330
1F
100
AcDbEntity
  8
0
  6
SLD-Solid
 62
     7
370
    15
100
AcDbPolyline
 90
        6
 70
   128
 43
0.0
 10
483.6170443797
 20
1408.7416521069
 10
483.7496647143
 20
1408.455460405
 10
484.1305383944
 20
1408.1691792961
 10
484.7103723788
 20
1407.8828981873
 10
485.414064815
 20
1407.5966170784
 10
485.6670567297
 20
1407.4987164494
  0
LINE
  5
98
330
1F
100
AcDbEntity
  8
0
  6
SLD-Solid
 62
     7
370
    15
100
AcDbLine
 10
483.6170443797
 20
1408.7416521069
 30
0.0
 11
484.4170579218
 21
1408.7416521069
 31
0.0
  0
ARC
  5
99
330
1F
100
AcDbEntity
  8
0
  6
SLD-Solid
 62
     7
370
    15
100
AcDbCircle
 10
486.4885911651
 20
1409.5749382421
 30
0.0
 40
2.232849247260129
100
AcDbArc
 50
201.9127402598
 51
248.4119274208
  0
LWPOLYLINE
  5
9A
330
1F
100
AcDbEntity
  8
0
  6
SLD-Solid
 62
     7
370
    15
100
AcDbPolyline
 90
        6
 70
   128
 43
0.0
 10
1048.5670485997
 20
1407.4987164494
 10
1049.2924222254
 20
1407.7848783489
 10
1049.9241271519
 20
1408.0711594578
 10
1050.3801324868
 20
1408.357470369
 10
1050.6013849282
 20
1408.6437514778
 10
1050.6170609498
 20
1408.7416521069
  0
LINE
  5
9B
330
1F
100
AcDbEntity
  8
0
  6
SLD-Solid
 62
     7
370
    15
100
AcDbLine
 10
1050.6170609498
 20
1408.7416521069
 30
0.0
 11
1050.6170609498
 21
512.3557737824
 31
0.0
  0
LWPOLYLINE
  5
9C
330
1F
100
AcDbEntity
  8
0
  6
SLD-Solid
 62
     7
370
    15
100
AcDbPolyline
 90
        6
 70
   128
 43
0.0
 10
1050.6170609498
 20
512.3557737824
 10
1050.4844406151
 20
512.6419654843
 10
1050.103566935
 20
512.9282465931
 10
1049.5237329506
 20
513.214527702
 10
1048.8200554156
 20
513.5008088108
 10
1048.5670485997
 20
513.5987094399
  0
LWPOLYLINE
  5
9D
330
1F
100
AcDbEntity
  8
0
  6
SLD-Solid
 62
     7
370
    15
100
AcDbPolyline
 90
        6
 70
   128
 43
0.0
 10
485.6670567297
 20
513.5987094399
 10
484.9416980052
 20
513.3125475403
 10
484.3099781775
 20
513.0262664315
 10
483.8539728426
 20
512.7399853226
 10
483.6327204012
 20
512.4536744114
 10
483.6170443797
 20
512.3557737824
  0
LINE
  5
9E
330
1F
100
AcDbEntity
  8
0
  6
SLD-Solid
 62
     7
370
    15
100
AcDbLine
 10
483.6170443797
 20
512.3557737824
 30
0.0
 11
483.6170443797
 21
1408.7416521069
 31
0.0
  0
ARC
  5
9F
330
1F
100
AcDbEntity
  8
0
  6
SLD-Solid
 62
     7
370
    15
100
AcDbCircle
 10
1047.7836657655
 20
1409.5365942169
 30
0.0
 40
2.18326234346746
100
AcDbArc
 50
291.027314009
 51
338.6473353059
  0
LINE
  5
A0
330
1F
100
AcDbEntity
  8
0
  6
SLD-Solid
 62
     7
370
    15
100
AcDbLine
 10
1050.6170609498
 20
1408.7416521069
 30
0.0
 11
1049.8170623087
 21
1408.7416521069
 31
0.0
  0
LINE
  5
A1
330
1F
100
AcDbEntity
  8
0
  6
SLD-Solid
 62
     7
370
    15
100
AcDbLine
 10
484.4241210722
 20
1409.5487287995
 30
0.0
 11
1049.8099842572
 21
1409.5487287995
 31
0.0
  0
LWPOLYLINE
  5
A2
330
1F
100
AcDbEntity
  8
0
  6
SLD-Solid
 62
     7
370
    15
100
AcDbPolyline
 90
        6
 70
   128
 43
0.0
 10
1049.8099842572
 20
1409.5487287995
 10
1049.5238074564
 20
1409.4161084648
 10
1049.2375263476
 20
1409.0352049824
 10
1048.9512452387
 20
1408.4554008003
 10
1048.6649641299
 20
1407.7517083641
 10
1048.5670485997
 20
1407.4987164494
  0
LINE
  5
A3
330
1F
100
AcDbEntity
  8
0
  6
SLD-Solid
 62
     7
370
    15
100
AcDbLine
 10
1049.8099842572
 20
1409.5487287995
 30
0.0
 11
1049.8099842572
 21
1408.7487152573
 31
0.0
  0
ARC
  5
A4
330
1F
100
AcDbEntity
  8
0
  6
SLD-Solid
 62
     7
370
    15
100
AcDbCircle
 10
1050.6433392651
 20
1406.6771135305
 30
0.0
 40
2.232938486355337
100
AcDbArc
 50
111.9137240205
 51
158.4109436601
  0
ARC
  5
A5
330
1F
100
AcDbEntity
  8
0
  6
SLD-Solid
 62
     7
370
    15
100
AcDbCircle
 10
486.4503733767
 20
511.5609226133
 30
0.0
 40
2.183153709656409
100
AcDbArc
 50
111.0265490089
 51
158.6487833104
  0
LINE
  5
A6
330
1F
100
AcDbEntity
  8
0
  6
SLD-Solid
 62
     7
370
    15
100
AcDbLine
 10
483.6170443797
 20
512.3557737824
 30
0.0
 11
484.4170579218
 21
512.3557737824
 31
0.0
  0
LWPOLYLINE
  5
A7
330
1F
100
AcDbEntity
  8
0
  6
SLD-Solid
 62
     7
370
    15
100
AcDbPolyline
 90
        6
 70
   128
 43
0.0
 10
1048.5670485997
 20
513.5987094399
 10
1048.8532403016
 20
512.8733507153
 10
1049.1395214104
 20
512.2416308876
 10
1049.4258025193
 20
511.7856255528
 10
1049.7120836281
 20
511.5643731114
 10
1049.8099842572
 20
511.5487268921
  0
ARC
  5
A8
330
1F
100
AcDbEntity
  8
0
  6
SLD-Solid
 62
     7
370
    15
100
AcDbCircle
 10
1050.6049430082
 20
514.3821330609
 30
0.0
 40
2.183292511361086
100
AcDbArc
 50
201.0281563992
 51
248.6471759201
  0
LINE
  5
A9
330
1F
100
AcDbEntity
  8
0
  6
SLD-Solid
 62
     7
370
    15
100
AcDbLine
 10
1049.8099842572
 20
511.5487268921
 30
0.0
 11
1049.8099842572
 21
512.348710632
 31
0.0
  0
LINE
  5
AA
330
1F
100
AcDbEntity
  8
0
  6
SLD-Solid
 62
     7
370
    15
100
AcDbLine
 10
1050.6170609498
 20
512.3557737824
 30
0.0
 11
1049.8170623087
 21
512.3557737824
 31
0.0
  0
ARC
  5
AB
330
1F
100
AcDbEntity
  8
0
  6
SLD-Solid
 62
     7
370
    15
100
AcDbCircle
 10
1047.7455074245
 20
511.5224560339
 30
0.0
 40
2.232881122723854
100
AcDbArc
 50
21.9132856124
 51
68.4120650728
  0
LINE
  5
AC
330
1F
100
AcDbEntity
  8
0
  6
SLD-Solid
 62
     7
370
    15
100
AcDbLine
 10
1049.8099842572
 20
511.5487268921
 30
0.0
 11
484.4241210722
 21
511.5487268921
 31
0.0
  0
LWPOLYLINE
  5
AD
330
1F
100
AcDbEntity
  8
0
  6
SLD-Solid
 62
     7
370
    15
100
AcDbPolyline
 90
        6
 70
   128
 43
0.0
 10
484.4241210722
 20
511.5487268921
 10
484.7103127741
 20
511.6813472267
 10
484.996593883
 20
512.0622209069
 10
485.2828749918
 20
512.6420250889
 10
485.5691561007
 20
513.3457175251
 10
485.6670567297
 20
513.5987094399
  0
LINE
  5
AE
330
1F
100
AcDbEntity
  8
0
  6
SLD-Solid
 62
     7
370
    15
100
AcDbLine
 10
484.4241210722
 20
511.5487268921
 30
0.0
 11
484.4241210722
 21
512.348710632
 31
0.0
  0
ARC
  5
AF
330
1F
100
AcDbEntity
  8
0
  6
SLD-Solid
 62
     7
370
    15
100
AcDbCircle
 10
483.5907803012
 20
514.4202982023
 30
0.0
 40
2.232920039377633
100
AcDbArc
 50
291.9135206704
 51
338.4111470103
  0
LWPOLYLINE
  5
B0
330
1F
100
AcDbEntity
  8
0
  6
SLD-Solid
 62
     7
370
    15
100
AcDbPolyline
 90
        7
 70
   128
 43
0.0
 10
391.7670616412
 20
1325.0051132199
 10
391.6947314047
 20
1325.0028780457
 10
391.6308054232
 20
1324.9966791626
 10
391.5772804522
 20
1324.9869934078
 10
391.536212852
 20
1324.9733439442
 10
391.517079761
 20
1324.9545982834
 10
391.5170499587
 20
1324.9540618416
  0
LINE
  5
B1
330
1F
100
AcDbEntity
  8
0
  6
SLD-Solid
 62
     7
370
    15
100
AcDbLine
 10
391.5170499587
 20
1324.9540618416
 30
0.0
 11
391.5170499587
 21
1331.6596737858
 31
0.0
  0
LWPOLYLINE
  5
B2
330
1F
100
AcDbEntity
  8
0
  6
SLD-Solid
 62
     7
370
    15
100
AcDbPolyline
 90
        7
 70
   128
 43
0.0
 10
392.7170702719
 20
1324.9540618416
 10
392.7170404696
 20
1324.9545982834
 10
392.6979073786
 20
1324.9733439442
 10
392.6568397784
 20
1324.9869934078
 10
392.6033148074
 20
1324.9966791626
 10
392.5393888258
 20
1325.0028780457
 10
392.4670585894
 20
1325.0051132199
  0
LINE
  5
B3
330
1F
100
AcDbEntity
  8
0
  6
SLD-Solid
 62
     7
370
    15
100
AcDbLine
 10
392.7170702719
 20
1331.3719621655
 30
0.0
 11
392.7170702719
 21
1324.9540618416
 31
0.0
  0
LINE
  5
B4
330
1F
100
AcDbEntity
  8
0
  6
SLD-Solid
 62
     7
370
    15
100
AcDbLine
 10
392.4670585894
 20
1325.0051132199
 30
0.0
 11
391.7670616412
 21
1325.0051132199
 31
0.0
  0
ARC
  5
B5
330
1F
100
AcDbEntity
  8
0
  6
SLD-Solid
 62
     7
370
    15
100
AcDbCircle
 10
392.8531860408
 20
1320.7670703863
 30
0.0
 40
1.353053197328108
100
AcDbArc
 50
189.0697827532
 51
274.8274324157
  0
LINE
  5
B6
330
1F
100
AcDbEntity
  8
0
  6
SLD-Solid
 62
     7
370
    15
100
AcDbLine
 10
391.5170499587
 20
1320.5537787434
 30
0.0
 11
391.5170499587
 21
1324.7238985058
 31
0.0
  0
LINE
  5
B7
330
1F
100
AcDbEntity
  8
0
  6
SLD-Solid
 62
     7
370
    15
100
AcDbLine
 10
398.3170458579
 20
1323.8126924988
 30
0.0
 11
398.3170458579
 21
1319.6426025387
 31
0.0
  0
LINE
  5
B8
330
1F
100
AcDbEntity
  8
0
  6
SLD-Solid
 62
     7
370
    15
100
AcDbLine
 10
398.3170458579
 20
1324.3425777909
 30
0.0
 11
398.3170458579
 21
1323.8126924988
 31
0.0
  0
LINE
  5
B9
330
1F
100
AcDbEntity
  8
0
  6
SLD-Solid
 62
     7
370
    15
100
AcDbLine
 10
392.7170702719
 20
1324.9540618416
 30
0.0
 11
392.7170702719
 21
1324.7238985058
 31
0.0
  0
LINE
  5
BA
330
1F
100
AcDbEntity
  8
0
  6
SLD-Solid
 62
     7
370
    15
100
AcDbLine
 10
391.5170499587
 20
1324.7238985058
 30
0.0
 11
391.5170499587
 21
1324.9540618416
 31
0.0
  0
LINE
  5
BB
330
1F
100
AcDbEntity
  8
0
  6
SLD-Solid
 62
     7
370
    15
100
AcDbLine
 10
392.9670521521
 20
1319.4188168999
 30
0.0
 11
392.9670521521
 21
1319.3925908562
 31
0.0
  0
LINE
  5
BC
330
1F
100
AcDbEntity
  8
0
  6
SLD-Solid
 62
     7
370
    15
100
AcDbLine
 10
391.5170499587
 20
1320.0987270828
 30
0.0
 11
391.5170499587
 21
1320.5537787434
 31
0.0
  0
ARC
  5
BD
330
1F
100
AcDbEntity
  8
0
  6
SLD-Solid
 62
     7
370
    15
100
AcDbCircle
 10
392.8656836215
 20
1336.2657885847
 30
0.0
 40
1.416453711515571
100
AcDbArc
 50
85.896118562
 51
137.8492932624
  0
ARC
  5
BE
330
1F
100
AcDbEntity
  8
0
  6
SLD-Solid
 62
     7
370
    15
100
AcDbCircle
 10
398.0783409744
 20
1336.9373504444
 30
0.0
 40
0.2390257607986407
100
AcDbArc
 50
267.2958385126
 51
357.0308412852
  0
LINE
  5
BF
330
1F
100
AcDbEntity
  8
0
  6
SLD-Solid
 62
     7
370
    15
100
AcDbLine
 10
398.3170458579
 20
1337.4548247811
 30
0.0
 11
398.3170458579
 21
1336.9249692913
 31
0.0
  0
LINE
  5
C0
330
1F
100
AcDbEntity
  8
0
  6
SLD-Solid
 62
     7
370
    15
100
AcDbLine
 10
398.3170458579
 20
1336.9249692913
 30
0.0
 11
398.3170458579
 21
1334.1889074799
 31
0.0
  0
LWPOLYLINE
  5
C1
330
1F
100
AcDbEntity
  8
0
  6
SLD-Solid
 62
     7
370
    15
100
AcDbPolyline
 90
        7
 70
   128
 43
0.0
 10
393.9170607829
 20
1331.3603690621
 10
393.9170309805
 20
1331.3595047947
 10
393.8979276919
 20
1331.3297024723
 10
393.8568302893
 20
1331.3081553932
 10
393.8033053183
 20
1331.2928966042
 10
393.7394091391
 20
1331.2832108494
 10
393.6670491004
 20
1331.2797239777
  0
LINE
  5
C2
330
1F
100
AcDbEntity
  8
0
  6
SLD-Solid
 62
     7
370
    15
100
AcDbLine
 10
393.9170607829
 20
1331.3603690621
 30
0.0
 11
393.9170607829
 21
1324.592559671
 31
0.0
  0
LWPOLYLINE
  5
C3
330
1F
100
AcDbEntity
  8
0
  6
SLD-Solid
 62
     7
370
    15
100
AcDbPolyline
 90
        7
 70
   128
 43
0.0
 10
392.9670521521
 20
1331.2797239777
 10
392.8947219157
 20
1331.2832108494
 10
392.8307959342
 20
1331.2928966042
 10
392.7772709631
 20
1331.3081553932
 10
392.7362033629
 20
1331.3297024723
 10
392.7170702719
 20
1331.3595047947
 10
392.7170702719
 20
1331.3603690621
  0
LINE
  5
C4
330
1F
100
AcDbEntity
  8
0
  6
SLD-Solid
 62
     7
370
    15
100
AcDbLine
 10
392.7170702719
 20
1324.9540618416
 30
0.0
 11
392.7170702719
 21
1331.3603690621
 31
0.0
  0
LINE
  5
C5
330
1F
100
AcDbEntity
  8
0
  6
SLD-Solid
 62
     7
370
    15
100
AcDbLine
 10
392.9670521521
 20
1331.2797239777
 30
0.0
 11
393.6670491004
 21
1331.2797239777
 31
0.0
  0
LWPOLYLINE
  5
C6
330
1F
100
AcDbEntity
  8
0
  6
SLD-Solid
 62
     7
370
    15
100
AcDbPolyline
 90
        6
 70
   128
 43
0.0
 10
393.9170607829
 20
1336.1478439327
 10
393.8279220366
 20
1336.5060380455
 10
393.5652741694
 20
1336.8229559418
 10
393.1709000372
 20
1337.0495728012
 10
392.7096494936
 20
1337.1634772774
 10
392.4670585894
 20
1337.1778717991
  0
LINE
  5
C7
330
1F
100
AcDbEntity
  8
0
  6
SLD-Solid
 62
     7
370
    15
100
AcDbLine
 10
393.9170607829
 20
1336.1478439327
 30
0.0
 11
393.9170607829
 21
1331.5671375748
 31
0.0
  0
LINE
  5
C8
330
1F
100
AcDbEntity
  8
0
  6
SLD-Solid
 62
     7
370
    15
100
AcDbLine
 10
387.1170648837
 20
1332.3856583592
 30
0.0
 11
387.1170648837
 21
1336.9663647171
 31
0.0
  0
LINE
  5
C9
330
1F
100
AcDbEntity
  8
0
  6
SLD-Solid
 62
     7
370
    15
100
AcDbLine
 10
387.1170648837
 20
1331.909655666
 30
0.0
 11
387.1170648837
 21
1332.3856583592
 31
0.0
  0
LINE
  5
CA
330
1F
100
AcDbEntity
  8
0
  6
SLD-Solid
 62
     7
370
    15
100
AcDbLine
 10
392.7170702719
 20
1331.3603690621
 30
0.0
 11
392.7170702719
 21
1331.5671375748
 31
0.0
  0
LINE
  5
CB
330
1F
100
AcDbEntity
  8
0
  6
SLD-Solid
 62
     7
370
    15
100
AcDbLine
 10
393.9170607829
 20
1331.5671375748
 30
0.0
 11
393.9170607829
 21
1331.3603690621
 31
0.0
  0
LINE
  5
CC
330
1F
100
AcDbEntity
  8
0
  6
SLD-Solid
 62
     7
370
    15
100
AcDbLine
 10
392.4670585894
 20
1337.1778717991
 30
0.0
 11
392.4670585894
 21
1337.2163465973
 31
0.0
  0
LINE
  5
CD
330
1F
100
AcDbEntity
  8
0
  6
SLD-Solid
 62
     7
370
    15
100
AcDbLine
 10
393.9170607829
 20
1336.9987002369
 30
0.0
 11
393.9170607829
 21
1336.1478439327
 31
0.0
  0
ARC
  5
CE
330
1F
100
AcDbEntity
  8
0
  6
SLD-Solid
 62
     7
370
    15
100
AcDbCircle
 10
387.3506448658
 20
1320.5879150126
 30
0.0
 40
0.2343612613461042
100
AcDbArc
 50
85.9868436413
 51
175.3202938076
  0
LINE
  5
CF
330
1F
100
AcDbEntity
  8
0
  6
SLD-Solid
 62
     7
370
    15
100
AcDbLine
 10
387.1170648837
 20
1320.6070354935
 30
0.0
 11
387.1170648837
 21
1322.8189340588
 31
0.0
  0
LINE
  5
D0
330
1F
100
AcDbEntity
  8
0
  6
SLD-Solid
 62
     7
370
    15
100
AcDbLine
 10
387.1170648837
 20
1320.1310626026
 30
0.0
 11
387.1170648837
 21
1320.6070354935
 31
0.0
  0
LINE
  5
D1
330
1F
100
AcDbEntity
  8
0
  6
SLD-Solid
 62
     7
370
    15
100
AcDbLine
 10
391.0704621577
 20
1330.7994893547
 30
0.0
 11
391.5170499587
 21
1327.9345921036
 31
0.0
  0
LWPOLYLINE
  5
D2
330
1F
100
AcDbEntity
  8
0
  6
SLD-Solid
 62
     7
370
    15
100
AcDbPolyline
 90
        3
 70
   128
 43
0.0
 10
391.5170499587
 20
1327.9345921036
 10
391.5146359705
 20
1327.7309528347
 10
391.0704621577
 20
1325.0696948525
  0
LINE
  5
D3
330
1F
100
AcDbEntity
  8
0
  6
SLD-Solid
 62
     7
370
    15
100
AcDbLine
 10
391.0704621577
 20
1325.0696948525
 30
0.0
 11
386.7636391425
 21
1325.0696948525
 31
0.0
  0
LWPOLYLINE
  5
D4
330
1F
100
AcDbEntity
  8
0
  6
SLD-Solid
 62
     7
370
    15
100
AcDbPolyline
 90
        3
 70
   128
 43
0.0
 10
386.3170513415
 20
1327.9345921036
 10
386.3194951319
 20
1327.7309528347
 10
386.7636391425
 20
1325.0696948525
  0
LINE
  5
D5
330
1F
100
AcDbEntity
  8
0
  6
SLD-Solid
 62
     7
370
    15
100
AcDbLine
 10
386.7636391425
 20
1330.7994893547
 30
0.0
 11
386.3170513415
 21
1327.9345921036
 31
0.0
  0
LINE
  5
D6
330
1F
100
AcDbEntity
  8
0
  6
SLD-Solid
 62
     7
370
    15
100
AcDbLine
 10
391.0704621577
 20
1330.7994893547
 30
0.0
 11
386.7636391425
 21
1330.7994893547
 31
0.0
  0
LWPOLYLINE
  5
D7
330
1F
100
AcDbEntity
  8
0
  6
SLD-Solid
 62
     7
370
    15
100
AcDbPolyline
 90
        3
 70
   128
 43
0.0
 10
386.3170513415
 20
1332.5389913079
 10
386.3524565005
 20
1332.065611219
 10
386.7636391425
 20
1330.7994893547
  0
LINE
  5
D8
330
1F
100
AcDbEntity
  8
0
  6
SLD-Solid
 62
     7
370
    15
100
AcDbLine
 10
386.3170513415
 20
1327.9345921036
 30
0.0
 11
386.3170513415
 21
1332.5389913079
 31
0.0
  0
LINE
  5
D9
330
1F
100
AcDbEntity
  8
0
  6
SLD-Solid
 62
     7
370
    15
100
AcDbLine
 10
391.3498291277
 20
1331.6596737858
 30
0.0
 11
391.0704621577
 21
1330.7994893547
 31
0.0
  0
LINE
  5
DA
330
1F
100
AcDbEntity
  8
0
  6
SLD-Solid
 62
     7
370
    15
100
AcDbLine
 10
386.7636391425
 20
1325.0696948525
 30
0.0
 11
386.3170513415
 21
1323.9442995545
 31
0.0
  0
LINE
  5
DB
330
1F
100
AcDbEntity
  8
0
  6
SLD-Solid
 62
     7
370
    15
100
AcDbLine
 10
386.3170513415
 20
1323.9442995545
 30
0.0
 11
386.3170513415
 21
1327.9345921036
 31
0.0
  0
LINE
  5
DC
330
1F
100
AcDbEntity
  8
0
  6
SLD-Solid
 62
     7
370
    15
100
AcDbLine
 10
391.0704621577
 20
1325.0696948525
 30
0.0
 11
391.5170499587
 21
1323.9442995545
 31
0.0
  0
LWPOLYLINE
  5
DD
330
1F
100
AcDbEntity
  8
0
  6
SLD-Solid
 62
     7
370
    15
100
AcDbPolyline
 90
        3
 70
   128
 43
0.0
 10
386.7636391425
 20
1334.278493261
 10
386.574275186
 20
1333.8389388081
 10
386.3170513415
 20
1332.5389913079
  0
LINE
  5
DE
330
1F
100
AcDbEntity
  8
0
  6
SLD-Solid
 62
     7
370
    15
100
AcDbLine
 10
387.1170648837
 20
1334.278493261
 30
0.0
 11
386.7636391425
 21
1334.278493261
 31
0.0
  0
LINE
  5
DF
330
1F
100
AcDbEntity
  8
0
  6
SLD-Solid
 62
     7
370
    15
100
AcDbLine
 10
391.0704621577
 20
1322.8189340588
 30
0.0
 11
386.7636391425
 21
1322.8189340588
 31
0.0
  0
LWPOLYLINE
  5
E0
330
1F
100
AcDbEntity
  8
0
  6
SLD-Solid
 62
     7
370
    15
100
AcDbPolyline
 90
        3
 70
   128
 43
0.0
 10
386.3170513415
 20
1323.9442995545
 10
386.3194951319
 20
1323.8643101212
 10
386.7636391425
 20
1322.8189340588
  0
LINE
  5
E1
330
1F
100
AcDbEntity
  8
0
  6
SLD-Solid
 62
     7
370
    15
100
AcDbLine
 10
386.6367110514
 20
1333.9797547814
 30
0.0
 11
386.7636391425
 21
1334.278493261
 31
0.0
  0
LINE
  5
E2
330
1F
100
AcDbEntity
  8
0
  6
SLD-Solid
 62
     7
370
    15
100
AcDbLine
 10
386.3170513415
 20
1332.5389913079
 30
0.0
 11
386.3170513415
 21
1333.5487237927
 31
0.0
  0
LINE
  5
E3
330
1F
100
AcDbEntity
  8
0
  6
SLD-Solid
 62
     7
370
    15
100
AcDbLine
 10
386.3170513415
 20
1323.5487035271
 30
0.0
 11
386.3170513415
 21
1323.9442995545
 31
0.0
  0
LINE
  5
E4
330
1F
100
AcDbEntity
  8
0
  6
SLD-Solid
 62
     7
370
    15
100
AcDbLine
 10
402.6170441412
 20
1324.1746715065
 30
0.0
 11
399.8136290812
 21
1324.1746715065
 31
0.0
  0
LWPOLYLINE
  5
E5
330
1F
100
AcDbEntity
  8
0
  6
SLD-Solid
 62
     7
370
    15
100
AcDbPolyline
 90
        3
 70
   128
 43
0.0
 10
399.3670412802
 20
1326.8999448773
 10
399.3694850707
 20
1326.7062297817
 10
399.8136290812
 20
1324.1746715065
  0
LINE
  5
E6
330
1F
100
AcDbEntity
  8
0
  6
SLD-Solid
 62
     7
370
    15
100
AcDbLine
 10
399.8136290812
 20
1329.6252480503
 30
0.0
 11
399.3670412802
 21
1326.8999448773
 31
0.0
  0
LINE
  5
E7
330
1F
100
AcDbEntity
  8
0
  6
SLD-Solid
 62
     7
370
    15
100
AcDbLine
 10
402.6170441412
 20
1329.6252480503
 30
0.0
 11
399.8136290812
 21
1329.6252480503
 31
0.0
  0
LWPOLYLINE
  5
E8
330
1F
100
AcDbEntity
  8
0
  6
SLD-Solid
 62
     7
370
    15
100
AcDbPolyline
 90
        3
 70
   128
 43
0.0
 10
399.3670412802
 20
1331.8122616764
 10
399.3694850707
 20
1331.6567829605
 10
399.8136290812
 20
1329.6252480503
  0
LINE
  5
E9
330
1F
100
AcDbEntity
  8
0
  6
SLD-Solid
 62
     7
370
    15
100
AcDbLine
 10
399.3670412802
 20
1326.8999448773
 30
0.0
 11
399.3670412802
 21
1331.8122616764
 31
0.0
  0
LINE
  5
EA
330
1F
100
AcDbEntity
  8
0
  6
SLD-Solid
 62
     7
370
    15
100
AcDbLine
 10
399.8136290812
 20
1333.9992753025
 30
0.0
 11
399.3670412802
 21
1331.8122616764
 31
0.0
  0
LINE
  5
EB
330
1F
100
AcDbEntity
  8
0
  6
SLD-Solid
 62
     7
370
    15
100
AcDbLine
 10
402.6170441412
 20
1333.9992753025
 30
0.0
 11
399.8136290812
 21
1333.9992753025
 31
0.0
  0
LWPOLYLINE
  5
EC
330
1F
100
AcDbEntity
  8
0
  6
SLD-Solid
 62
     7
370
    15
100
AcDbPolyline
 90
        3
 70
   128
 43
0.0
 10
399.3670412802
 20
1323.6364117619
 10
399.4024762415
 20
1323.7828901764
 10
399.8136290812
 20
1324.1746715065
  0
LINE
  5
ED
330
1F
100
AcDbEntity
  8
0
  6
SLD-Solid
 62
     7
370
    15
100
AcDbLine
 10
399.3670412802
 20
1323.6364117619
 30
0.0
 11
399.3670412802
 21
1326.8999448773
 31
0.0
  0
LWPOLYLINE
  5
EE
330
1F
100
AcDbEntity
  8
0
  6
SLD-Solid
 62
     7
370
    15
100
AcDbPolyline
 90
        3
 70
   128
 43
0.0
 10
399.3670412802
 20
1333.4610155579
 10
399.4024762415
 20
1333.6075237747
 10
399.8136290812
 20
1333.9992753025
  0
LINE
  5
EF
330
1F
100
AcDbEntity
  8
0
  6
SLD-Solid
 62
     7
370
    15
100
AcDbLine
 10
399.3670412802
 20
1331.8122616764
 30
0.0
 11
399.3670412802
 21
1333.5406771656
 31
0.0
  0
LINE
  5
F0
330
1F
100
AcDbEntity
  8
0
  6
SLD-Solid
 62
     7
370
    15
100
AcDbLine
 10
402.6170441412
 20
1323.0981520172
 30
0.0
 11
399.8136290812
 21
1323.0981520172
 31
0.0
  0
LWPOLYLINE
  5
F1
330
1F
100
AcDbEntity
  8
0
  6
SLD-Solid
 62
     7
370
    15
100
AcDbPolyline
 90
        3
 70
   128
 43
0.0
 10
399.8136290812
 20
1323.0981520172
 10
399.6242949271
 20
1323.2341698166
 10
399.3670412802
 20
1323.6364117619
  0
LINE
  5
F2
330
1F
100
AcDbEntity
  8
0
  6
SLD-Solid
 62
     7
370
    15
100
AcDbLine
 10
399.8136290812
 20
1323.0981520172
 30
0.0
 11
399.3670412802
 21
1325.2851656433
 31
0.0
  0
LINE
  5
F3
330
1F
100
AcDbEntity
  8
0
  6
SLD-Solid
 62
     7
370
    15
100
AcDbLine
 10
398.6704715991
 20
1332.4370971676
 30
0.0
 11
399.1170594
 21
1329.616992807
 31
0.0
  0
LWPOLYLINE
  5
F4
330
1F
100
AcDbEntity
  8
0
  6
SLD-Solid
 62
     7
370
    15
100
AcDbPolyline
 90
        3
 70
   128
 43
0.0
 10
399.1170594
 20
1329.616992807
 10
399.1146156096
 20
1329.4165423867
 10
398.6704715991
 20
1326.7969182488
  0
LINE
  5
F5
330
1F
100
AcDbEntity
  8
0
  6
SLD-Solid
 62
     7
370
    15
100
AcDbLine
 10
398.6704715991
 20
1326.7969182488
 30
0.0
 11
394.3636485838
 21
1326.7969182488
 31
0.0
  0
LWPOLYLINE
  5
F6
330
1F
100
AcDbEntity
  8
0
  6
SLD-Solid
 62
     7
370
    15
100
AcDbPolyline
 90
        3
 70
   128
 43
0.0
 10
393.9170607829
 20
1329.616992807
 10
393.919474771
 20
1329.4165423867
 10
394.3636485838
 20
1326.7969182488
  0
LINE
  5
F7
330
1F
100
AcDbEntity
  8
0
  6
SLD-Solid
 62
     7
370
    15
100
AcDbLine
 10
394.3636485838
 20
1332.4370971676
 30
0.0
 11
393.9170607829
 21
1329.616992807
 31
0.0
  0
LINE
  5
F8
330
1F
100
AcDbEntity
  8
0
  6
SLD-Solid
 62
     7
370
    15
100
AcDbLine
 10
398.6704715991
 20
1332.4370971676
 30
0.0
 11
394.3636485838
 21
1332.4370971676
 31
0.0
  0
LINE
  5
F9
330
1F
100
AcDbEntity
  8
0
  6
SLD-Solid
 62
     7
370
    15
100
AcDbLine
 10
394.3636485838
 20
1326.7969182488
 30
0.0
 11
393.9170607829
 21
1324.8527041432
 31
0.0
  0
LINE
  5
FA
330
1F
100
AcDbEntity
  8
0
  6
SLD-Solid
 62
     7
370
    15
100
AcDbLine
 10
398.6704715991
 20
1326.7969182488
 30
0.0
 11
399.1170594
 21
1324.8527041432
 31
0.0
  0
LINE
  5
FB
330
1F
100
AcDbEntity
  8
0
  6
SLD-Solid
 62
     7
370
    15
100
AcDbLine
 10
399.1170594
 20
1329.616992807
 30
0.0
 11
399.1170594
 21
1324.8527041432
 31
0.0
  0
LWPOLYLINE
  5
FC
330
1F
100
AcDbEntity
  8
0
  6
SLD-Solid
 62
     7
370
    15
100
AcDbPolyline
 90
        3
 70
   128
 43
0.0
 10
399.1170594
 20
1333.3129874226
 10
399.081654241
 20
1333.0746284481
 10
398.6704715991
 20
1332.4370971676
  0
LINE
  5
FD
330
1F
100
AcDbEntity
  8
0
  6
SLD-Solid
 62
     7
370
    15
100
AcDbLine
 10
399.1170594
 20
1333.3129874226
 30
0.0
 11
399.1170594
 21
1329.616992807
 31
0.0
  0
LWPOLYLINE
  5
FE
330
1F
100
AcDbEntity
  8
0
  6
SLD-Solid
 62
     7
370
    15
100
AcDbPolyline
 90
        3
 70
   128
 43
0.0
 10
393.9170607829
 20
1333.3129874226
 10
393.9524659419
 20
1333.0746284481
 10
394.3636485838
 20
1332.4370971676
  0
LWPOLYLINE
  5
FF
330
1F
100
AcDbEntity
  8
0
  6
SLD-Solid
 62
     7
370
    15
100
AcDbPolyline
 90
        3
 70
   128
 43
0.0
 10
399.1170594
 20
1324.8527041432
 10
399.1146156096
 20
1324.7145107743
 10
398.6704715991
 20
1322.9085198399
  0
LINE
  5
100
330
1F
100
AcDbEntity
  8
0
  6
SLD-Solid
 62
     7
370
    15
100
AcDbLine
 10
398.6704715991
 20
1322.9085198399
 30
0.0
 11
398.3170458579
 21
1322.9085198399
 31
0.0
  0
LWPOLYLINE
  5
101
330
1F
100
AcDbEntity
  8
0
  6
SLD-Solid
 62
     7
370
    15
100
AcDbPolyline
 90
        3
 70
   128
 43
0.0
 10
393.9170607829
 20
1324.8527041432
 10
393.919474771
 20
1324.7145107743
 10
393.9494857096
 20
1324.592559671
  0
LWPOLYLINE
  5
102
330
1F
100
AcDbEntity
  8
0
  6
SLD-Solid
 62
     7
370
    15
100
AcDbPolyline
 90
        3
 70
   128
 43
0.0
 10
398.6704715991
 20
1334.1889074799
 10
398.8598355555
 20
1333.9675656315
 10
399.1170594
 20
1333.3129874226
  0
LWPOLYLINE
  5
103
330
1F
100
AcDbEntity
  8
0
  6
SLD-Solid
 62
     7
370
    15
100
AcDbPolyline
 90
        3
 70
   128
 43
0.0
 10
394.3636485838
 20
1334.1889074799
 10
394.1742846274
 20
1333.9675656315
 10
394.1032954955
 20
1333.7869337555
  0
LINE
  5
104
330
1F
100
AcDbEntity
  8
0
  6
SLD-Solid
 62
     7
370
    15
100
AcDbLine
 10
398.6704715991
 20
1334.1889074799
 30
0.0
 11
394.3636485838
 21
1334.1889074799
 31
0.0
  0
LINE
  5
105
330
1F
100
AcDbEntity
  8
0
  6
SLD-Solid
 62
     7
370
    15
100
AcDbLine
 10
398.930973699
 20
1323.3124605175
 30
0.0
 11
398.6704715991
 21
1322.9085198399
 31
0.0
  0
LINE
  5
106
330
1F
100
AcDbEntity
  8
0
  6
SLD-Solid
 62
     7
370
    15
100
AcDbLine
 10
399.1170594
 20
1323.5487035271
 30
0.0
 11
399.1170594
 21
1324.8527041432
 31
0.0
  0
LINE
  5
107
330
1F
100
AcDbEntity
  8
0
  6
SLD-Solid
 62
     7
370
    15
100
AcDbLine
 10
399.1170594
 20
1333.5487237927
 30
0.0
 11
399.1170594
 21
1333.3129874226
 31
0.0
  0
LINE
  5
108
330
1F
100
AcDbEntity
  8
0
  6
SLD-Solid
 62
     7
370
    15
100
AcDbLine
 10
1019.6170577311
 20
511.3487235066
 30
0.0
 11
514.6170624995
 21
511.3487235066
 31
0.0
  0
LINE
  5
109
330
1F
100
AcDbEntity
  8
0
  6
SLD-Solid
 62
     7
370
    15
100
AcDbLine
 10
1019.6170577311
 20
510.5487099644
 30
0.0
 11
514.6170624995
 21
510.5487099644
 31
0.0
  0
LINE
  5
10A
330
1F
100
AcDbEntity
  8
0
  6
SLD-Solid
 62
     7
370
    15
100
AcDbLine
 10
1024.6170529627
 20
510.5487099644
 30
0.0
 11
1024.6170529627
 21
511.3487235066
 31
0.0
  0
LINE
  5
10B
330
1F
100
AcDbEntity
  8
0
  6
SLD-Solid
 62
     7
370
    15
100
AcDbLine
 10
1024.6170529627
 20
511.3487235066
 30
0.0
 11
1019.6170577311
 21
511.3487235066
 31
0.0
  0
LINE
  5
10C
330
1F
100
AcDbEntity
  8
0
  6
SLD-Solid
 62
     7
370
    15
100
AcDbLine
 10
1024.6170529627
 20
510.5487099644
 30
0.0
 11
1019.6170577311
 21
510.5487099644
 31
0.0
  0
LINE
  5
10D
330
1F
100
AcDbEntity
  8
0
  6
SLD-Solid
 62
     7
370
    15
100
AcDbLine
 10
509.6170672679
 20
510.5487099644
 30
0.0
 11
509.6170672679
 21
511.3487235066
 31
0.0
  0
LINE
  5
10E
330
1F
100
AcDbEntity
  8
0
  6
SLD-Solid
 62
     7
370
    15
100
AcDbLine
 10
514.6170624995
 20
511.3487235066
 30
0.0
 11
509.6170672679
 21
511.3487235066
 31
0.0
  0
LINE
  5
10F
330
1F
100
AcDbEntity
  8
0
  6
SLD-Solid
 62
     7
370
    15
100
AcDbLine
 10
514.6170624995
 20
510.5487099644
 30
0.0
 11
509.6170672679
 21
510.5487099644
 31
0.0
  0
LINE
  5
110
330
1F
100
AcDbEntity
  8
0
  6
SLD-Solid
 62
     7
370
    15
100
AcDbLine
 10
509.6170672679
 20
511.5487268921
 30
0.0
 11
509.6170672679
 21
511.3487235066
 31
0.0
  0
LINE
  5
111
330
1F
100
AcDbEntity
  8
0
  6
SLD-Solid
 62
     7
370
    15
100
AcDbLine
 10
1024.6170529627
 20
511.3487235066
 30
0.0
 11
1024.6170529627
 21
511.5487268921
 31
0.0
  0
LINE
  5
112
330
1F
100
AcDbEntity
  8
0
  6
SLD-Solid
 62
     7
370
    15
100
AcDbLine
 10
514.6170624995
 20
1410.5487159249
 30
0.0
 11
1019.6170577311
 21
1410.5487159249
 31
0.0
  0
LINE
  5
113
330
1F
100
AcDbEntity
  8
0
  6
SLD-Solid
 62
     7
370
    15
100
AcDbLine
 10
514.6170624995
 20
1409.7487023827
 30
0.0
 11
1019.6170577311
 21
1409.7487023827
 31
0.0
  0
LINE
  5
114
330
1F
100
AcDbEntity
  8
0
  6
SLD-Solid
 62
     7
370
    15
100
AcDbLine
 10
1024.6170529627
 20
1410.5487159249
 30
0.0
 11
1024.6170529627
 21
1409.7487023827
 31
0.0
  0
LINE
  5
115
330
1F
100
AcDbEntity
  8
0
  6
SLD-Solid
 62
     7
370
    15
100
AcDbLine
 10
1019.6170577311
 20
1410.5487159249
 30
0.0
 11
1024.6170529627
 21
1410.5487159249
 31
0.0
  0
LINE
  5
116
330
1F
100
AcDbEntity
  8
0
  6
SLD-Solid
 62
     7
370
    15
100
AcDbLine
 10
1019.6170577311
 20
1409.7487023827
 30
0.0
 11
1024.6170529627
 21
1409.7487023827
 31
0.0
  0
LINE
  5
117
330
1F
100
AcDbEntity
  8
0
  6
SLD-Solid
 62
     7
370
    15
100
AcDbLine
 10
509.6170672679
 20
1410.5487159249
 30
0.0
 11
509.6170672679
 21
1409.7487023827
 31
0.0
  0
LINE
  5
118
330
1F
100
AcDbEntity
  8
0
  6
SLD-Solid
 62
     7
370
    15
100
AcDbLine
 10
509.6170672679
 20
1410.5487159249
 30
0.0
 11
514.6170624995
 21
1410.5487159249
 31
0.0
  0
LINE
  5
119
330
1F
100
AcDbEntity
  8
0
  6
SLD-Solid
 62
     7
370
    15
100
AcDbLine
 10
509.6170672679
 20
1409.7487023827
 30
0.0
 11
514.6170624995
 21
1409.7487023827
 31
0.0
  0
LINE
  5
11A
330
1F
100
AcDbEntity
  8
0
  6
SLD-Solid
 62
     7
370
    15
100
AcDbLine
 10
1024.6170529627
 20
1409.5487287995
 30
0.0
 11
1024.6170529627
 21
1409.7487023827
 31
0.0
  0
LINE
  5
11B
330
1F
100
AcDbEntity
  8
0
  6
SLD-Solid
 62
     7
370
    15
100
AcDbLine
 10
509.6170672679
 20
1409.7487023827
 30
0.0
 11
509.6170672679
 21
1409.5487287995
 31
0.0
  0
LWPOLYLINE
  5
11C
330
1F
100
AcDbEntity
  8
0
  6
SLD-Solid
 62
     7
370
    15
100
AcDbPolyline
 90
       17
 70
   128
 43
0.0
 10
1173.0321416163
 20
1089.048712587
 10
1173.6661264205
 20
1090.0108060595
 10
1174.5636233592
 20
1090.6953654047
 10
1175.6234535479
 20
1091.0252473112
 10
1176.7261096739
 20
1090.9632435795
 10
1177.7473756575
 20
1090.5163577553
 10
1178.5720655226
 20
1089.7349557635
 10
1179.1072556281
 20
1088.7071183678
 10
1179.2926260733
 20
1087.5487169977
 10
1179.1072556281
 20
1086.3903007265
 10
1178.5720655226
 20
1085.362478232
 10
1177.7473756575
 20
1084.5810762402
 10
1176.7261096739
 20
1084.134190416
 10
1175.6234535479
 20
1084.0721866843
 10
1174.5636233592
 20
1084.4020611402
 10
1173.6661264205
 20
1085.086627936
 10
1173.0321416163
 20
1086.0487214085
  0
LINE
  5
11D
330
1F
100
AcDbEntity
  8
0
  6
SLD-Solid
 62
     7
370
    15
100
AcDbLine
 10
1173.0321416163
 20
1089.048712587
 30
0.0
 11
1169.1838571333
 21
1089.048712587
 31
0.0
  0
LINE
  5
11E
330
1F
100
AcDbEntity
  8
0
  6
SLD-Solid
 62
     7
370
    15
100
AcDbLine
 10
1173.0321416163
 20
1086.0487214085
 30
0.0
 11
1169.1838571333
 21
1086.0487214085
 31
0.0
  0
LINE
  5
11F
330
1F
100
AcDbEntity
  8
0
  6
SLD-Solid
 62
     7
370
    15
100
AcDbLine
 10
1181.97075217
 20
1410.5487159249
 30
0.0
 11
1167.8838500285
 21
1410.5487159249
 31
0.0
  0
LINE
  5
120
330
1F
100
AcDbEntity
  8
0
  6
SLD-Solid
 62
     7
370
    15
100
AcDbLine
 10
1181.97075217
 20
510.5487099644
 30
0.0
 11
1167.8838500285
 21
510.5487099644
 31
0.0
  0
LINE
  5
121
330
1F
100
AcDbEntity
  8
0
  6
SLD-Solid
 62
     7
370
    15
100
AcDbLine
 10
1175.3945419097
 20
1383.4902039524
 30
0.0
 11
1172.2455689215
 21
1381.1763814446
 31
0.0
  0
LINE
  5
122
330
1F
100
AcDbEntity
  8
0
  6
SLD-Solid
 62
     7
370
    15
100
AcDbLine
 10
1169.1838571333
 20
1383.3894721028
 30
0.0
 11
1172.2455689215
 21
1381.1763814446
 31
0.0
  0
LINE
  5
123
330
1F
100
AcDbEntity
  8
0
  6
SLD-Solid
 62
     7
370
    15
100
AcDbLine
 10
1169.6214148306
 20
1379.5806458946
 30
0.0
 11
1169.1838571333
 21
1381.0292771813
 31
0.0
  0
LINE
  5
124
330
1F
100
AcDbEntity
  8
0
  6
SLD-Solid
 62
     7
370
    15
100
AcDbLine
 10
1169.6214148306
 20
1379.5806458946
 30
0.0
 11
1169.1838571333
 21
1379.3157032486
 31
0.0
  0
LINE
  5
125
330
1F
100
AcDbEntity
  8
0
  6
SLD-Solid
 62
     7
370
    15
100
AcDbLine
 10
1170.0712808871
 20
1375.3519049641
 30
0.0
 11
1169.1838571333
 21
1375.6470373627
 31
0.0
  0
LINE
  5
126
330
1F
100
AcDbEntity
  8
0
  6
SLD-Solid
 62
     7
370
    15
100
AcDbLine
 10
1170.0712808871
 20
1375.3519049641
 30
0.0
 11
1169.6214148306
 21
1371.5221277233
 31
0.0
  0
LINE
  5
127
330
1F
100
AcDbEntity
  8
0
  6
SLD-Solid
 62
     7
370
    15
100
AcDbLine
 10
1172.2455689215
 20
1374.2348841187
 30
0.0
 11
1169.6214148306
 21
1371.5221277233
 31
0.0
  0
LINE
  5
128
330
1F
100
AcDbEntity
  8
0
  6
SLD-Solid
 62
     7
370
    15
100
AcDbLine
 10
1178.3185669684
 20
1367.4529782292
 30
0.0
 11
1172.2455689215
 21
1374.2348841187
 31
0.0
  0
LINE
  5
129
330
1F
100
AcDbEntity
  8
0
  6
SLD-Solid
 62
     7
370
    15
100
AcDbLine
 10
1178.3185669684
 20
1367.4529782292
 30
0.0
 11
1174.4948097968
 21
1376.2295833584
 31
0.0
  0
LINE
  5
12A
330
1F
100
AcDbEntity
  8
0
  6
SLD-Solid
 62
     7
370
    15
100
AcDbLine
 10
1174.4948097968
 20
1376.2295833584
 30
0.0
 11
1179.3682345652
 21
1378.4636250492
 31
0.0
  0
LINE
  5
12B
330
1F
100
AcDbEntity
  8
0
  6
SLD-Solid
 62
     7
370
    15
100
AcDbLine
 10
1174.4948097968
 20
1378.7827483174
 30
0.0
 11
1179.3682345652
 21
1378.4636250492
 31
0.0
  0
LINE
  5
12C
330
1F
100
AcDbEntity
  8
0
  6
SLD-Solid
 62
     7
370
    15
100
AcDbLine
 10
1174.4948097968
 20
1378.7827483174
 30
0.0
 11
1175.3945419097
 21
1383.4902039524
 31
0.0
  0
ARC
  5
12D
330
1F
100
AcDbEntity
  8
0
  6
SLD-Solid
 62
     7
370
    15
100
AcDbCircle
 10
1175.8506739367
 20
1087.5487169977
 30
0.0
 40
3.503195356971542
100
AcDbArc
 50
272.4474986757
 51
87.5525013243
  0
ARC
  5
12E
330
1F
100
AcDbEntity
  8
0
  6
SLD-Solid
 62
     7
370
    15
100
AcDbCircle
 10
1176.0488268532
 20
1087.668320966
 30
0.0
 40
2.380888759688608
100
AcDbArc
 50
91.168496421
 51
170.8065754998
  0
ARC
  5
12F
330
1F
100
AcDbEntity
  8
0
  6
SLD-Solid
 62
     7
370
    15
100
AcDbCircle
 10
1176.0488530912
 20
1087.4291371927
 30
0.0
 40
2.380920902139564
100
AcDbArc
 50
189.1942516135
 51
268.8308878188
  0
LINE
  5
130
330
1F
100
AcDbEntity
  8
0
  6
SLD-Solid
 62
     7
370
    15
100
AcDbLine
 10
1174.491412332
 20
1376.2295833584
 30
0.0
 11
1179.3648072981
 21
1378.4636250492
 31
0.0
  0
LINE
  5
131
330
1F
100
AcDbEntity
  8
0
  6
SLD-Solid
 62
     7
370
    15
100
AcDbLine
 10
1178.3119210505
 20
1367.4604288098
 30
0.0
 11
1174.491412332
 21
1376.2295833584
 31
0.0
  0
LINE
  5
132
330
1F
100
AcDbEntity
  8
0
  6
SLD-Solid
 62
     7
370
    15
100
AcDbLine
 10
1172.2421416544
 20
1374.2348841187
 30
0.0
 11
1169.6218916678
 21
1371.5261510369
 31
0.0
  0
LINE
  5
133
330
1F
100
AcDbEntity
  8
0
  6
SLD-Solid
 62
     7
370
    15
100
AcDbLine
 10
1169.1838571333
 20
1383.38699851
 30
0.0
 11
1172.2421416544
 21
1381.1763814446
 31
0.0
  0
LINE
  5
134
330
1F
100
AcDbEntity
  8
0
  6
SLD-Solid
 62
     7
370
    15
100
AcDbLine
 10
1174.491412332
 20
1378.7827483174
 30
0.0
 11
1175.3905483985
 21
1383.4872833248
 31
0.0
  0
LINE
  5
135
330
1F
100
AcDbEntity
  8
0
  6
SLD-Solid
 62
     7
370
    15
100
AcDbLine
 10
1174.491412332
 20
1378.7827483174
 30
0.0
 11
1179.3648072981
 21
1378.4636250492
 31
0.0
  0
LINE
  5
136
330
1F
100
AcDbEntity
  8
0
  6
SLD-Solid
 62
     7
370
    15
100
AcDbLine
 10
1174.0053066515
 20
1381.2566987034
 30
0.0
 11
1172.2481915259
 21
1379.9656024929
 31
0.0
  0
LINE
  5
137
330
1F
100
AcDbEntity
  8
0
  6
SLD-Solid
 62
     7
370
    15
100
AcDbLine
 10
1170.7462140822
 20
1379.1132262703
 30
0.0
 11
1169.9982949996
 21
1381.5894416329
 31
0.0
  0
LINE
  5
138
330
1F
100
AcDbEntity
  8
0
  6
SLD-Solid
 62
     7
370
    15
100
AcDbLine
 10
1170.7462140822
 20
1379.1132262703
 30
0.0
 11
1169.1838571333
 21
1378.1672409531
 31
0.0
  0
LINE
  5
139
330
1F
100
AcDbEntity
  8
0
  6
SLD-Solid
 62
     7
370
    15
100
AcDbLine
 10
1171.0977026724
 20
1376.0571173187
 30
0.0
 11
1169.1838571333
 21
1376.6935757157
 31
0.0
  0
LINE
  5
13A
330
1F
100
AcDbEntity
  8
0
  6
SLD-Solid
 62
     7
370
    15
100
AcDbLine
 10
1171.0977026724
 20
1376.0571173187
 30
0.0
 11
1170.8822914862
 21
1374.2232612129
 31
0.0
  0
LINE
  5
13B
330
1F
100
AcDbEntity
  8
0
  6
SLD-Solid
 62
     7
370
    15
100
AcDbLine
 10
1175.0679978632
 20
1372.5287309643
 30
0.0
 11
1172.2695299887
 21
1375.6538322922
 31
0.0
  0
LINE
  5
13C
330
1F
100
AcDbEntity
  8
0
  6
SLD-Solid
 62
     7
370
    15
100
AcDbLine
 10
1170.7439491057
 20
1088.4487173315
 30
0.0
 11
1169.1838571333
 21
1088.4487173315
 31
0.0
  0
LINE
  5
13D
330
1F
100
AcDbEntity
  8
0
  6
SLD-Solid
 62
     7
370
    15
100
AcDbLine
 10
1170.7439491057
 20
1088.0487105604
 30
0.0
 11
1170.7439491057
 21
1088.4487173315
 31
0.0
  0
LINE
  5
13E
330
1F
100
AcDbEntity
  8
0
  6
SLD-Solid
 62
     7
370
    15
100
AcDbLine
 10
1173.701948812
 20
1088.0487105604
 30
0.0
 11
1170.7439491057
 21
1088.0487105604
 31
0.0
  0
LWPOLYLINE
  5
13F
330
1F
100
AcDbEntity
  8
0
  6
SLD-Solid
 62
     7
370
    15
100
AcDbPolyline
 90
       16
 70
   128
 43
0.0
 10
1173.701948812
 20
1088.0487105604
 10
1174.0560898089
 20
1088.946654534
 10
1174.7057208323
 20
1089.6324804779
 10
1175.5523154044
 20
1090.0021335837
 10
1176.4673957133
 20
1089.9995258805
 10
1177.3121425414
 20
1089.6250746008
 10
1177.9583164954
 20
1088.9355531689
 10
1178.3079573416
 20
1088.0356273409
 10
1178.3079573416
 20
1087.0618066546
 10
1177.9583164954
 20
1086.1618659254
 10
1177.3121425414
 20
1085.4723593947
 10
1176.4673957133
 20
1085.0979006644
 10
1175.5523154044
 20
1085.0953004118
 10
1174.7057208323
 20
1085.4649535176
 10
1174.0560898089
 20
1086.1507794615
 10
1173.701948812
 20
1087.0487085339
  0
LINE
  5
140
330
1F
100
AcDbEntity
  8
0
  6
SLD-Solid
 62
     7
370
    15
100
AcDbLine
 10
1173.701948812
 20
1087.0487085339
 30
0.0
 11
1170.7439491057
 21
1087.0487085339
 31
0.0
  0
LINE
  5
141
330
1F
100
AcDbEntity
  8
0
  6
SLD-Solid
 62
     7
370
    15
100
AcDbLine
 10
1170.7439491057
 20
1086.648716664
 30
0.0
 11
1170.7439491057
 21
1087.0487085339
 31
0.0
  0
LINE
  5
142
330
1F
100
AcDbEntity
  8
0
  6
SLD-Solid
 62
     7
370
    15
100
AcDbLine
 10
1170.7439491057
 20
1086.648716664
 30
0.0
 11
1169.1838571333
 21
1086.648716664
 31
0.0
  0
LINE
  5
143
330
1F
100
AcDbEntity
  8
0
  6
SLD-Solid
 62
     7
370
    15
100
AcDbLine
 10
1171.0977026724
 20
1376.0571173187
 30
0.0
 11
1171.1011001372
 21
1376.0571173187
 31
0.0
  0
LINE
  5
144
330
1F
100
AcDbEntity
  8
0
  6
SLD-Solid
 62
     7
370
    15
100
AcDbLine
 10
1171.1011001372
 20
1376.0571173187
 30
0.0
 11
1169.1838571333
 21
1376.6947082039
 31
0.0
  0
LINE
  5
145
330
1F
100
AcDbEntity
  8
0
  6
SLD-Solid
 62
     7
370
    15
100
AcDbLine
 10
1173.2360789084
 20
1376.7413786408
 30
0.0
 11
1175.3775545859
 21
1377.7230671402
 31
0.0
  0
LINE
  5
146
330
1F
100
AcDbEntity
  8
0
  6
SLD-Solid
 62
     7
370
    15
100
AcDbLine
 10
1175.0714251303
 20
1372.5287309643
 30
0.0
 11
1173.2360789084
 21
1376.7413786408
 31
0.0
  0
LINE
  5
147
330
1F
100
AcDbEntity
  8
0
  6
SLD-Solid
 62
     7
370
    15
100
AcDbLine
 10
1175.0714251303
 20
1372.5287309643
 30
0.0
 11
1172.2713181281
 21
1375.6556800362
 31
0.0
  0
LINE
  5
148
330
1F
100
AcDbEntity
  8
0
  6
SLD-Solid
 62
     7
370
    15
100
AcDbLine
 10
1172.2713181281
 20
1375.6556800362
 30
0.0
 11
1170.8857187533
 21
1374.2232612129
 31
0.0
  0
LINE
  5
149
330
1F
100
AcDbEntity
  8
0
  6
SLD-Solid
 62
     7
370
    15
100
AcDbLine
 10
1171.1011001372
 20
1376.0571173187
 30
0.0
 11
1170.8857187533
 21
1374.2232612129
 31
0.0
  0
LINE
  5
14A
330
1F
100
AcDbEntity
  8
0
  6
SLD-Solid
 62
     7
370
    15
100
AcDbLine
 10
1170.7496413493
 20
1379.1132262703
 30
0.0
 11
1169.1838571333
 21
1378.1651547905
 31
0.0
  0
LINE
  5
14B
330
1F
100
AcDbEntity
  8
0
  6
SLD-Solid
 62
     7
370
    15
100
AcDbLine
 10
1170.7496413493
 20
1379.1132262703
 30
0.0
 11
1170.0017222666
 21
1381.5894416329
 31
0.0
  0
LINE
  5
14C
330
1F
100
AcDbEntity
  8
0
  6
SLD-Solid
 62
     7
370
    15
100
AcDbLine
 10
1170.0017222666
 20
1381.5894416329
 30
0.0
 11
1172.2499200606
 21
1379.9643507954
 31
0.0
  0
LINE
  5
14D
330
1F
100
AcDbEntity
  8
0
  6
SLD-Solid
 62
     7
370
    15
100
AcDbLine
 10
1174.0087339186
 20
1381.2566987034
 30
0.0
 11
1172.2499200606
 21
1379.9643507954
 31
0.0
  0
LINE
  5
14E
330
1F
100
AcDbEntity
  8
0
  6
SLD-Solid
 62
     7
370
    15
100
AcDbLine
 10
1173.3586260581
 20
1377.8552702423
 30
0.0
 11
1174.0087339186
 21
1381.2566987034
 31
0.0
  0
LINE
  5
14F
330
1F
100
AcDbEntity
  8
0
  6
SLD-Solid
 62
     7
370
    15
100
AcDbLine
 10
1173.3586260581
 20
1377.8552702423
 30
0.0
 11
1175.3775545859
 21
1377.7230671402
 31
0.0
  0
LINE
  5
150
330
1F
100
AcDbEntity
  8
0
  6
SLD-Solid
 62
     7
370
    15
100
AcDbLine
 10
1170.7462140822
 20
1379.1132262703
 30
0.0
 11
1170.7496413493
 21
1379.1132262703
 31
0.0
  0
LINE
  5
151
330
1F
100
AcDbEntity
  8
0
  6
SLD-Solid
 62
     7
370
    15
100
AcDbLine
 10
1172.2421416544
 20
1381.1763814446
 30
0.0
 11
1172.2455689215
 21
1381.1763814446
 31
0.0
  0
LINE
  5
152
330
1F
100
AcDbEntity
  8
0
  6
SLD-Solid
 62
     7
370
    15
100
AcDbLine
 10
1172.2421416544
 20
1374.2348841187
 30
0.0
 11
1172.2455689215
 21
1374.2348841187
 31
0.0
  0
LINE
  5
153
330
1F
100
AcDbEntity
  8
0
  6
SLD-Solid
 62
     7
370
    15
100
AcDbLine
 10
1169.9982949996
 20
1381.5894416329
 30
0.0
 11
1170.0017222666
 21
1381.5894416329
 31
0.0
  0
LINE
  5
154
330
1F
100
AcDbEntity
  8
0
  6
SLD-Solid
 62
     7
370
    15
100
AcDbLine
 10
1170.8822914862
 20
1374.2232612129
 30
0.0
 11
1170.8857187533
 21
1374.2232612129
 31
0.0
  0
LINE
  5
155
330
1F
100
AcDbEntity
  8
0
  6
SLD-Solid
 62
     7
370
    15
100
AcDbLine
 10
1174.0053066515
 20
1381.2566987034
 30
0.0
 11
1174.0087339186
 21
1381.2566987034
 31
0.0
  0
LINE
  5
156
330
1F
100
AcDbEntity
  8
0
  6
SLD-Solid
 62
     7
370
    15
100
AcDbLine
 10
1175.0679978632
 20
1372.5287309643
 30
0.0
 11
1175.0714251303
 21
1372.5287309643
 31
0.0
  0
LINE
  5
157
330
1F
100
AcDbEntity
  8
0
  6
SLD-Solid
 62
     7
370
    15
100
AcDbLine
 10
1174.491412332
 20
1376.2295833584
 30
0.0
 11
1174.4948097968
 21
1376.2295833584
 31
0.0
  0
LINE
  5
158
330
1F
100
AcDbEntity
  8
0
  6
SLD-Solid
 62
     7
370
    15
100
AcDbLine
 10
1179.3648072981
 20
1378.4636250492
 30
0.0
 11
1179.3682345652
 21
1378.4636250492
 31
0.0
  0
LINE
  5
159
330
1F
100
AcDbEntity
  8
0
  6
SLD-Solid
 62
     7
370
    15
100
AcDbLine
 10
1174.491412332
 20
1378.7827483174
 30
0.0
 11
1174.4948097968
 21
1378.7827483174
 31
0.0
  0
LINE
  5
15A
330
1F
100
AcDbEntity
  8
0
  6
SLD-Solid
 62
     7
370
    15
100
AcDbLine
 10
1189.0769371295
 20
510.5487099644
 30
0.0
 11
1181.97075217
 21
510.5487099644
 31
0.0
  0
LINE
  5
15B
330
1F
100
AcDbEntity
  8
0
  6
SLD-Solid
 62
     7
370
    15
100
AcDbLine
 10
1189.0769371295
 20
1410.5487159249
 30
0.0
 11
1181.97075217
 21
1410.5487159249
 31
0.0
  0
LINE
  5
15C
330
1F
100
AcDbEntity
  8
0
  6
SLD-Solid
 62
     7
370
    15
100
AcDbLine
 10
1054.567060759
 20
1408.098726606
 30
0.0
 11
1054.567060759
 21
1410.5487159249
 31
0.0
  0
LINE
  5
15D
330
1F
100
AcDbEntity
  8
0
  6
SLD-Solid
 62
     7
370
    15
100
AcDbLine
 10
1145.8838650488
 20
1410.5487159249
 30
0.0
 11
1054.567060759
 21
1410.5487159249
 31
0.0
  0
LINE
  5
15E
330
1F
100
AcDbEntity
  8
0
  6
SLD-Solid
 62
     7
370
    15
100
AcDbLine
 10
1145.8838650488
 20
1410.5487159249
 30
0.0
 11
1145.8838650488
 21
1408.098726606
 31
0.0
  0
LINE
  5
15F
330
1F
100
AcDbEntity
  8
0
  6
SLD-Solid
 62
     7
370
    15
100
AcDbLine
 10
1054.567060759
 20
512.9987290856
 30
0.0
 11
1052.117056539
 21
512.9987290856
 31
0.0
  0
LINE
  5
160
330
1F
100
AcDbEntity
  8
0
  6
SLD-Solid
 62
     7
370
    15
100
AcDbLine
 10
1052.117056539
 20
1408.098726606
 30
0.0
 11
1052.117056539
 21
512.9987290856
 31
0.0
  0
LINE
  5
161
330
1F
100
AcDbEntity
  8
0
  6
SLD-Solid
 62
     7
370
    15
100
AcDbLine
 10
1052.117056539
 20
1408.098726606
 30
0.0
 11
1054.567060759
 21
1408.098726606
 31
0.0
  0
LINE
  5
162
330
1F
100
AcDbEntity
  8
0
  6
SLD-Solid
 62
     7
370
    15
100
AcDbLine
 10
1169.1838571333
 20
1409.3487254139
 30
0.0
 11
1146.3838586115
 21
1409.3487254139
 31
0.0
  0
LINE
  5
163
330
1F
100
AcDbEntity
  8
0
  6
SLD-Solid
 62
     7
370
    15
100
AcDbLine
 10
1169.1838571333
 20
511.7487004753
 30
0.0
 11
1146.3838586115
 21
511.7487004753
 31
0.0
  0
LINE
  5
164
330
1F
100
AcDbEntity
  8
0
  6
SLD-Solid
 62
     7
370
    15
100
AcDbLine
 10
1146.3838586115
 20
511.7487004753
 30
0.0
 11
1146.3838586115
 21
512.9987290856
 31
0.0
  0
LINE
  5
165
330
1F
100
AcDbEntity
  8
0
  6
SLD-Solid
 62
     7
370
    15
100
AcDbLine
 10
1146.3838586115
 20
512.9987290856
 30
0.0
 11
1145.8838650488
 21
512.9987290856
 31
0.0
  0
LINE
  5
166
330
1F
100
AcDbEntity
  8
0
  6
SLD-Solid
 62
     7
370
    15
100
AcDbLine
 10
1145.8838650488
 20
1408.098726606
 30
0.0
 11
1146.3838586115
 21
1408.098726606
 31
0.0
  0
LINE
  5
167
330
1F
100
AcDbEntity
  8
0
  6
SLD-Solid
 62
     7
370
    15
100
AcDbLine
 10
1146.3838586115
 20
1408.098726606
 30
0.0
 11
1146.3838586115
 21
1409.3487254139
 31
0.0
  0
LINE
  5
168
330
1F
100
AcDbEntity
  8
0
  6
SLD-Solid
 62
     7
370
    15
100
AcDbLine
 10
1145.8838650488
 20
512.9987290856
 30
0.0
 11
1145.8838650488
 21
510.5487099644
 31
0.0
  0
LINE
  5
169
330
1F
100
AcDbEntity
  8
0
  6
SLD-Solid
 62
     7
370
    15
100
AcDbLine
 10
1054.567060759
 20
510.5487099644
 30
0.0
 11
1145.8838650488
 21
510.5487099644
 31
0.0
  0
LINE
  5
16A
330
1F
100
AcDbEntity
  8
0
  6
SLD-Solid
 62
     7
370
    15
100
AcDbLine
 10
1054.567060759
 20
510.5487099644
 30
0.0
 11
1054.567060759
 21
512.9987290856
 31
0.0
  0
LINE
  5
16B
330
1F
100
AcDbEntity
  8
0
  6
SLD-Solid
 62
     7
370
    15
100
AcDbLine
 10
1146.3838586115
 20
1410.5487159249
 30
0.0
 11
1146.3838586115
 21
1409.3487254139
 31
0.0
  0
LINE
  5
16C
330
1F
100
AcDbEntity
  8
0
  6
SLD-Solid
 62
     7
370
    15
100
AcDbLine
 10
1146.3838586115
 20
1410.5487159249
 30
0.0
 11
1167.8838500285
 21
1410.5487159249
 31
0.0
  0
LINE
  5
16D
330
1F
100
AcDbEntity
  8
0
  6
SLD-Solid
 62
     7
370
    15
100
AcDbLine
 10
1146.3838586115
 20
510.5487099644
 30
0.0
 11
1146.3838586115
 21
511.7487004753
 31
0.0
  0
LINE
  5
16E
330
1F
100
AcDbEntity
  8
0
  6
SLD-Solid
 62
     7
370
    15
100
AcDbLine
 10
1146.3838586115
 20
510.5487099644
 30
0.0
 11
1167.8838500285
 21
510.5487099644
 31
0.0
  0
LINE
  5
16F
330
1F
100
AcDbEntity
  8
0
  6
SLD-Solid
 62
     7
370
    15
100
AcDbLine
 10
1053.3170619511
 20
1409.3487254139
 30
0.0
 11
1053.3170619511
 21
1408.098726606
 31
0.0
  0
LINE
  5
170
330
1F
100
AcDbEntity
  8
0
  6
SLD-Solid
 62
     7
370
    15
100
AcDbLine
 10
1052.117056539
 20
1409.3487254139
 30
0.0
 11
1052.117056539
 21
1408.098726606
 31
0.0
  0
LINE
  5
171
330
1F
100
AcDbEntity
  8
0
  6
SLD-Solid
 62
     7
370
    15
100
AcDbLine
 10
1052.117056539
 20
1409.3487254139
 30
0.0
 11
1053.3170619511
 21
1409.3487254139
 31
0.0
  0
LINE
  5
172
330
1F
100
AcDbEntity
  8
0
  6
SLD-Solid
 62
     7
370
    15
100
AcDbLine
 10
1053.3170619511
 20
511.7487004753
 30
0.0
 11
1052.117056539
 21
511.7487004753
 31
0.0
  0
LINE
  5
173
330
1F
100
AcDbEntity
  8
0
  6
SLD-Solid
 62
     7
370
    15
100
AcDbLine
 10
1052.117056539
 20
512.9987290856
 30
0.0
 11
1052.117056539
 21
511.7487004753
 31
0.0
  0
LINE
  5
174
330
1F
100
AcDbEntity
  8
0
  6
SLD-Solid
 62
     7
370
    15
100
AcDbLine
 10
1053.3170619511
 20
512.9987290856
 30
0.0
 11
1053.3170619511
 21
511.7487004753
 31
0.0
  0
LINE
  5
175
330
1F
100
AcDbEntity
  8
0
  6
SLD-Solid
 62
     7
370
    15
100
AcDbLine
 10
1053.3270606303
 20
1410.5487159249
 30
0.0
 11
1053.3270606303
 21
1409.3487254139
 31
0.0
  0
LINE
  5
176
330
1F
100
AcDbEntity
  8
0
  6
SLD-Solid
 62
     7
370
    15
100
AcDbLine
 10
1054.567060759
 20
1410.5487159249
 30
0.0
 11
1053.3270606303
 21
1410.5487159249
 31
0.0
  0
LINE
  5
177
330
1F
100
AcDbEntity
  8
0
  6
SLD-Solid
 62
     7
370
    15
100
AcDbLine
 10
1054.567060759
 20
1409.3487254139
 30
0.0
 11
1053.3270606303
 21
1409.3487254139
 31
0.0
  0
LINE
  5
178
330
1F
100
AcDbEntity
  8
0
  6
SLD-Solid
 62
     7
370
    15
100
AcDbLine
 10
1146.3838586115
 20
1410.5487159249
 30
0.0
 11
1145.8838650488
 21
1410.5487159249
 31
0.0
  0
LINE
  5
179
330
1F
100
AcDbEntity
  8
0
  6
SLD-Solid
 62
     7
370
    15
100
AcDbLine
 10
1146.3838586115
 20
1409.3487254139
 30
0.0
 11
1145.8838650488
 21
1409.3487254139
 31
0.0
  0
LINE
  5
17A
330
1F
100
AcDbEntity
  8
0
  6
SLD-Solid
 62
     7
370
    15
100
AcDbLine
 10
1146.3838586115
 20
511.7487004753
 30
0.0
 11
1145.8838650488
 21
511.7487004753
 31
0.0
  0
LINE
  5
17B
330
1F
100
AcDbEntity
  8
0
  6
SLD-Solid
 62
     7
370
    15
100
AcDbLine
 10
1146.3838586115
 20
510.5487099644
 30
0.0
 11
1145.8838650488
 21
510.5487099644
 31
0.0
  0
LINE
  5
17C
330
1F
100
AcDbEntity
  8
0
  6
SLD-Solid
 62
     7
370
    15
100
AcDbLine
 10
1053.3270606303
 20
510.5487099644
 30
0.0
 11
1053.3270606303
 21
511.7487004753
 31
0.0
  0
LINE
  5
17D
330
1F
100
AcDbEntity
  8
0
  6
SLD-Solid
 62
     7
370
    15
100
AcDbLine
 10
1054.567060759
 20
511.7487004753
 30
0.0
 11
1053.3270606303
 21
511.7487004753
 31
0.0
  0
LINE
  5
17E
330
1F
100
AcDbEntity
  8
0
  6
SLD-Solid
 62
     7
370
    15
100
AcDbLine
 10
1054.567060759
 20
510.5487099644
 30
0.0
 11
1053.3270606303
 21
510.5487099644
 31
0.0
  0
LINE
  5
17F
330
1F
100
AcDbEntity
  8
0
  6
SLD-Solid
 62
     7
370
    15
100
AcDbLine
 10
1053.3270606303
 20
1410.5487159249
 30
0.0
 11
1050.8670577311
 21
1410.5487159249
 31
0.0
  0
LINE
  5
180
330
1F
100
AcDbEntity
  8
0
  6
SLD-Solid
 62
     7
370
    15
100
AcDbLine
 10
1053.3270606303
 20
1409.3487254139
 30
0.0
 11
1053.3170619511
 21
1409.3487254139
 31
0.0
  0
LINE
  5
181
330
1F
100
AcDbEntity
  8
0
  6
SLD-Solid
 62
     7
370
    15
100
AcDbLine
 10
1052.117056539
 20
1409.3487254139
 30
0.0
 11
1050.8670577311
 21
1409.3487254139
 31
0.0
  0
LINE
  5
182
330
1F
100
AcDbEntity
  8
0
  6
SLD-Solid
 62
     7
370
    15
100
AcDbLine
 10
1052.117056539
 20
511.7487004753
 30
0.0
 11
1050.8670577311
 21
511.7487004753
 31
0.0
  0
LINE
  5
183
330
1F
100
AcDbEntity
  8
0
  6
SLD-Solid
 62
     7
370
    15
100
AcDbLine
 10
1053.3270606303
 20
511.7487004753
 30
0.0
 11
1053.3170619511
 21
511.7487004753
 31
0.0
  0
LINE
  5
184
330
1F
100
AcDbEntity
  8
0
  6
SLD-Solid
 62
     7
370
    15
100
AcDbLine
 10
1053.3270606303
 20
510.5487099644
 30
0.0
 11
1050.8670577311
 21
510.5487099644
 31
0.0
  0
LINE
  5
185
330
1F
100
AcDbEntity
  8
0
  6
SLD-Solid
 62
     7
370
    15
100
AcDbLine
 10
1050.8670577311
 20
1409.3487254139
 30
0.0
 11
1049.8099842572
 21
1409.3487254139
 31
0.0
  0
LINE
  5
186
330
1F
100
AcDbEntity
  8
0
  6
SLD-Solid
 62
     7
370
    15
100
AcDbLine
 10
1050.8670577311
 20
511.7487004753
 30
0.0
 11
1049.8099842572
 21
511.7487004753
 31
0.0
  0
LINE
  5
187
330
1F
100
AcDbEntity
  8
0
  6
SLD-Solid
 62
     7
370
    15
100
AcDbLine
 10
1050.8670577311
 20
1410.5487159249
 30
0.0
 11
1029.0670612359
 21
1410.5487159249
 31
0.0
  0
LINE
  5
188
330
1F
100
AcDbEntity
  8
0
  6
SLD-Solid
 62
     7
370
    15
100
AcDbLine
 10
1027.8270611071
 20
1410.5487159249
 30
0.0
 11
1027.8270611071
 21
1409.5487287995
 31
0.0
  0
LINE
  5
189
330
1F
100
AcDbEntity
  8
0
  6
SLD-Solid
 62
     7
370
    15
100
AcDbLine
 10
1029.0670612359
 20
1410.5487159249
 30
0.0
 11
1027.8270611071
 21
1410.5487159249
 31
0.0
  0
LINE
  5
18A
330
1F
100
AcDbEntity
  8
0
  6
SLD-Solid
 62
     7
370
    15
100
AcDbLine
 10
1027.8270611071
 20
510.5487099644
 30
0.0
 11
1027.8270611071
 21
511.5487268921
 31
0.0
  0
LINE
  5
18B
330
1F
100
AcDbEntity
  8
0
  6
SLD-Solid
 62
     7
370
    15
100
AcDbLine
 10
1029.0670612359
 20
510.5487099644
 30
0.0
 11
1027.8270611071
 21
510.5487099644
 31
0.0
  0
LINE
  5
18C
330
1F
100
AcDbEntity
  8
0
  6
SLD-Solid
 62
     7
370
    15
100
AcDbLine
 10
1050.8670577311
 20
510.5487099644
 30
0.0
 11
1029.0670612359
 21
510.5487099644
 31
0.0
  0
LINE
  5
18D
330
1F
100
AcDbEntity
  8
0
  6
SLD-Solid
 62
     7
370
    15
100
AcDbLine
 10
1176.254011085
 20
1064.0487140771
 30
0.0
 11
1174.7841605448
 21
1064.0487140771
 31
0.0
  0
LINE
  5
18E
330
1F
100
AcDbEntity
  8
0
  6
SLD-Solid
 62
     7
370
    15
100
AcDbLine
 10
1169.1838571333
 20
1063.6843061801
 30
0.0
 11
1174.7841605448
 21
1064.0487140771
 31
0.0
  0
LINE
  5
18F
330
1F
100
AcDbEntity
  8
0
  6
SLD-Solid
 62
     7
370
    15
100
AcDbLine
 10
1169.1838571333
 20
1061.413123345
 30
0.0
 11
1174.7841605448
 21
1061.048715448
 31
0.0
  0
LINE
  5
190
330
1F
100
AcDbEntity
  8
0
  6
SLD-Solid
 62
     7
370
    15
100
AcDbLine
 10
1174.7841605448
 20
1061.048715448
 30
0.0
 11
1176.254011085
 21
1061.048715448
 31
0.0
  0
ARC
  5
191
330
1F
100
AcDbEntity
  8
0
  6
SLD-Solid
 62
     7
370
    15
100
AcDbCircle
 10
1170.1444310036
 20
1063.2456418589
 30
0.0
 40
5.120432722174386
100
AcDbArc
 50
334.5926552854
 51
346.1063497255
  0
LWPOLYLINE
  5
192
330
1F
100
AcDbEntity
  8
0
  6
SLD-Solid
 62
     7
370
    15
100
AcDbPolyline
 90
        9
 70
   128
 43
0.0
 10
1174.7696170115
 20
1064.0487140771
 10
1174.8341986441
 20
1064.0421650168
 10
1174.9009260439
 20
1063.989914095
 10
1174.9498614573
 20
1063.8302183505
 10
1174.987919023
 20
1063.5843566414
 10
1175.0406691336
 20
1063.2735184189
 10
1175.0744351649
 20
1063.1545251962
 10
1175.1045653128
 20
1063.0939296242
 10
1175.1150557303
 20
1063.0813083407
  0
LWPOLYLINE
  5
193
330
1F
100
AcDbEntity
  8
0
  6
SLD-Solid
 62
     7
370
    15
100
AcDbPolyline
 90
        3
 70
   128
 43
0.0
 10
1175.1472422385
 20
1063.0487120506
 10
1175.1428314948
 20
1063.0531898495
 10
1175.1150557303
 20
1063.0813083407
  0
LWPOLYLINE
  5
194
330
1F
100
AcDbEntity
  8
0
  6
SLD-Solid
 62
     7
370
    15
100
AcDbPolyline
 90
        3
 70
   128
 43
0.0
 10
1175.1150557303
 20
1062.0161211845
 10
1175.1428314948
 20
1062.0442396756
 10
1175.1472422385
 20
1062.0487174746
  0
LINE
  5
195
330
1F
100
AcDbEntity
  8
0
  6
SLD-Solid
 62
     7
370
    15
100
AcDbLine
 10
1169.1838571333
 20
1075.3052822109
 30
0.0
 11
1177.2368022704
 21
1074.1518876311
 31
0.0
  0
LWPOLYLINE
  5
196
330
1F
100
AcDbEntity
  8
0
  6
SLD-Solid
 62
     7
370
    15
100
AcDbPolyline
 90
        3
 70
   128
 43
0.0
 10
1177.2368022704
 20
1074.1518876311
 10
1177.2566208148
 20
1074.1739711519
 10
1177.2656211161
 20
1074.1760051605
  0
LINE
  5
197
330
1F
100
AcDbEntity
  8
0
  6
SLD-Solid
 62
     7
370
    15
100
AcDbLine
 10
1177.2368022704
 20
1050.9455418941
 30
0.0
 11
1169.1838571333
 21
1049.7921473142
 31
0.0
  0
LWPOLYLINE
  5
198
330
1F
100
AcDbEntity
  8
0
  6
SLD-Solid
 62
     7
370
    15
100
AcDbPolyline
 90
        3
 70
   128
 43
0.0
 10
1177.2656211161
 20
1050.9214243647
 10
1177.2566208148
 20
1050.9234509226
 10
1177.2368022704
 20
1050.9455418941
  0
LINE
  5
199
330
1F
100
AcDbEntity
  8
0
  6
SLD-Solid
 62
     7
370
    15
100
AcDbLine
 10
1181.6575297617
 20
1072.2228801605
 30
0.0
 11
1181.8627187514
 21
1072.2155264374
 31
0.0
  0
LWPOLYLINE
  5
19A
330
1F
100
AcDbEntity
  8
0
  6
SLD-Solid
 62
     7
370
    15
100
AcDbPolyline
 90
        3
 70
   128
 43
0.0
 10
1182.0702919268
 20
1052.8820446488
 10
1181.9705435538
 20
1052.8828865644
 10
1181.8627187514
 20
1052.8819030877
  0
LINE
  5
19B
330
1F
100
AcDbEntity
  8
0
  6
SLD-Solid
 62
     7
370
    15
100
AcDbLine
 10
1177.0974466109
 20
1064.0487140771
 30
0.0
 11
1176.254011085
 21
1064.0487140771
 31
0.0
  0
LINE
  5
19C
330
1F
100
AcDbEntity
  8
0
  6
SLD-Solid
 62
     7
370
    15
100
AcDbLine
 10
1176.254011085
 20
1061.048715448
 30
0.0
 11
1177.0974466109
 21
1061.048715448
 31
0.0
  0
LWPOLYLINE
  5
19D
330
1F
100
AcDbEntity
  8
0
  6
SLD-Solid
 62
     7
370
    15
100
AcDbPolyline
 90
        9
 70
   128
 43
0.0
 10
1188.1583103442
 20
1061.048715448
 10
1188.335693767
 20
1061.1628955957
 10
1188.4860762858
 20
1061.4880538341
 10
1188.5865399146
 20
1061.9746885058
 10
1188.6218258643
 20
1062.5487110373
 10
1188.5865399146
 20
1063.1227410194
 10
1188.4860762858
 20
1063.6093756911
 10
1188.335693767
 20
1063.9345339295
 10
1188.1583103442
 20
1064.0487140771
  0
LINE
  5
19E
330
1F
100
AcDbEntity
  8
0
  6
SLD-Solid
 62
     7
370
    15
100
AcDbLine
 10
1177.0974466109
 20
1061.048715448
 30
0.0
 11
1188.1583103442
 21
1061.048715448
 31
0.0
  0
LINE
  5
19F
330
1F
100
AcDbEntity
  8
0
  6
SLD-Solid
 62
     7
370
    15
100
AcDbLine
 10
1188.1583103442
 20
1064.0487140771
 30
0.0
 11
1177.0974466109
 21
1064.0487140771
 31
0.0
  0
LWPOLYLINE
  5
1A0
330
1F
100
AcDbEntity
  8
0
  6
SLD-Solid
 62
     7
370
    15
100
AcDbPolyline
 90
        3
 70
   128
 43
0.0
 10
1186.9282194876
 20
1050.9273848292
 10
1186.9150170588
 20
1050.9253955241
 10
1186.9119176173
 20
1050.9249857422
  0
LWPOLYLINE
  5
1A1
330
1F
100
AcDbEntity
  8
0
  6
SLD-Solid
 62
     7
370
    15
100
AcDbPolyline
 90
        5
 70
   128
 43
0.0
 10
1171.3379093909
 20
1046.7148787137
 10
1171.3482805991
 20
1046.7039114591
 10
1171.3657149577
 20
1046.6845101472
 10
1171.4035341048
 20
1046.6198167559
 10
1171.3996001982
 20
1046.6199136134
  0
LWPOLYLINE
  5
1A2
330
1F
100
AcDbEntity
  8
0
  6
SLD-Solid
 62
     7
370
    15
100
AcDbPolyline
 90
        5
 70
   128
 43
0.0
 10
1171.4030572676
 20
1078.4775978681
 10
1171.4035341048
 20
1078.4776127692
 10
1171.3657149577
 20
1078.4129193779
 10
1171.3482805991
 20
1078.393518066
 10
1171.3379093909
 20
1078.3825508114
  0
LINE
  5
1A3
330
1F
100
AcDbEntity
  8
0
  6
SLD-Solid
 62
     7
370
    15
100
AcDbLine
 10
402.6170441412
 20
1410.5487159249
 30
0.0
 11
402.6170441412
 21
510.5487099644
 31
0.0
  0
LINE
  5
1A4
330
1F
100
AcDbEntity
  8
0
  6
SLD-Solid
 62
     7
370
    15
100
AcDbLine
 10
402.6170441412
 20
510.5487099644
 30
0.0
 11
405.1976272368
 21
510.5487099644
 31
0.0
  0
LINE
  5
1A5
330
1F
100
AcDbEntity
  8
0
  6
SLD-Solid
 62
     7
370
    15
100
AcDbLine
 10
402.6170441412
 20
1410.5487159249
 30
0.0
 11
405.1976272368
 21
1410.5487159249
 31
0.0
  0
ARC
  5
1A6
330
1F
100
AcDbEntity
  8
0
  6
SLD-Solid
 62
     7
370
    15
100
AcDbCircle
 10
433.5170843288
 20
995.0321789877
 30
0.0
 40
5.000833578336908
100
AcDbArc
 50
5.5351888234
 51
61.7838724164
  0
LINE
  5
1A7
330
1F
100
AcDbEntity
  8
0
  6
SLD-Solid
 62
     7
370
    15
100
AcDbLine
 10
435.8814725184
 20
999.4387655314
 30
0.0
 11
417.0458981299
 21
1009.3540205415
 31
0.0
  0
ARC
  5
1A8
330
1F
100
AcDbEntity
  8
0
  6
SLD-Solid
 62
     7
370
    15
100
AcDbCircle
 10
414.8666909019
 20
1005.0309493528
 30
0.0
 40
4.841269321723049
100
AcDbArc
 50
63.2478867028
 51
181.584357444
  0
LINE
  5
1A9
330
1F
100
AcDbEntity
  8
0
  6
SLD-Solid
 62
     7
370
    15
100
AcDbLine
 10
410.0272723937
 20
1004.8970944043
 30
0.0
 11
410.0272723937
 21
926.1155902203
 31
0.0
  0
ARC
  5
1AA
330
1F
100
AcDbEntity
  8
0
  6
SLD-Solid
 62
     7
370
    15
100
AcDbCircle
 10
415.0481467429
 20
926.07961322
 30
0.0
 40
5.021003243901442
100
AcDbArc
 50
179.5894549723
 51
241.7016726277
  0
LINE
  5
1AB
330
1F
100
AcDbEntity
  8
0
  6
SLD-Solid
 62
     7
370
    15
100
AcDbLine
 10
412.6678773665
 20
921.6586640831
 30
0.0
 11
431.5034219527
 21
911.743409073
 31
0.0
  0
ARC
  5
1AC
330
1F
100
AcDbEntity
  8
0
  6
SLD-Solid
 62
     7
370
    15
100
AcDbCircle
 10
433.6871806354
 20
916.0426046541
 30
0.0
 40
4.82202080350169
100
AcDbArc
 50
243.0718952987
 51
355.5400058527
  0
ARC
  5
1AD
330
1F
100
AcDbEntity
  8
0
  6
SLD-Solid
 62
     7
370
    15
100
AcDbCircle
 10
433.5170916304
 20
895.0321819017
 30
0.0
 40
5.000826245361415
100
AcDbArc
 50
5.5351891508
 51
61.783922274
  0
LINE
  5
1AE
330
1F
100
AcDbEntity
  8
0
  6
SLD-Solid
 62
     7
370
    15
100
AcDbLine
 10
435.8814725184
 20
899.4387640413
 30
0.0
 11
417.0458981299
 21
909.3540190514
 31
0.0
  0
ARC
  5
1AF
330
1F
100
AcDbEntity
  8
0
  6
SLD-Solid
 62
     7
370
    15
100
AcDbCircle
 10
414.8666878943
 20
905.030952599
 30
0.0
 40
4.841266446184392
100
AcDbArc
 50
63.2478296861
 51
181.5844144607
  0
LINE
  5
1B0
330
1F
100
AcDbEntity
  8
0
  6
SLD-Solid
 62
     7
370
    15
100
AcDbLine
 10
410.0272723937
 20
904.8970929142
 30
0.0
 11
410.0272723937
 21
826.1155924555
 31
0.0
  0
ARC
  5
1B1
330
1F
100
AcDbEntity
  8
0
  6
SLD-Solid
 62
     7
370
    15
100
AcDbCircle
 10
415.0481336664
 20
826.079611403
 30
0.0
 40
5.020990196794678
100
AcDbArc
 50
179.5894076632
 51
241.70176194
  0
LINE
  5
1B2
330
1F
100
AcDbEntity
  8
0
  6
SLD-Solid
 62
     7
370
    15
100
AcDbLine
 10
412.6678773665
 20
821.6586700436
 30
0.0
 11
431.5034219527
 21
811.7434075829
 31
0.0
  0
ARC
  5
1B3
330
1F
100
AcDbEntity
  8
0
  6
SLD-Solid
 62
     7
370
    15
100
AcDbCircle
 10
433.687181446
 20
816.04260172
 30
0.0
 40
4.822019883111552
100
AcDbArc
 50
243.0718789414
 51
355.54002221
  0
ARC
  5
1B4
330
1F
100
AcDbEntity
  8
0
  6
SLD-Solid
 62
     7
370
    15
100
AcDbCircle
 10
433.5171203093
 20
795.0321962415
 30
0.0
 40
5.000795454633803
100
AcDbArc
 50
5.5349553573
 51
61.7841058825
  0
LINE
  5
1B5
330
1F
100
AcDbEntity
  8
0
  6
SLD-Solid
 62
     7
370
    15
100
AcDbLine
 10
435.8814725184
 20
799.4387588259
 30
0.0
 11
417.0458981299
 21
809.3540212866
 31
0.0
  0
ARC
  5
1B6
330
1F
100
AcDbEntity
  8
0
  6
SLD-Solid
 62
     7
370
    15
100
AcDbCircle
 10
414.866689985
 20
805.0309516537
 30
0.0
 40
4.841268345163488
100
AcDbArc
 50
63.2478687244
 51
181.5843320786
  0
LINE
  5
1B7
330
1F
100
AcDbEntity
  8
0
  6
SLD-Solid
 62
     7
370
    15
100
AcDbLine
 10
410.0272723937
 20
804.8970988747
 30
0.0
 11
410.0272723937
 21
726.1155835148
 31
0.0
  0
ARC
  5
1B8
330
1F
100
AcDbEntity
  8
0
  6
SLD-Solid
 62
     7
370
    15
100
AcDbCircle
 10
415.0481596937
 20
726.0796178828
 30
0.0
 40
5.021016112986332
100
AcDbArc
 50
179.5895857532
 51
241.70158385
  0
LINE
  5
1B9
330
1F
100
AcDbEntity
  8
0
  6
SLD-Solid
 62
     7
370
    15
100
AcDbLine
 10
412.6678773665
 20
721.6586611029
 30
0.0
 11
431.5034219527
 21
711.7434135433
 31
0.0
  0
ARC
  5
1BA
330
1F
100
AcDbEntity
  8
0
  6
SLD-Solid
 62
     7
370
    15
100
AcDbCircle
 10
433.6871855899
 20
716.0426002979
 30
0.0
 40
4.822015177700691
100
AcDbArc
 50
243.071795316
 51
355.5401058354
  0
ARC
  5
1BB
330
1F
100
AcDbEntity
  8
0
  6
SLD-Solid
 62
     7
370
    15
100
AcDbCircle
 10
433.5170340342
 20
695.0321596527
 30
0.0
 40
5.00088686901567
100
AcDbArc
 50
5.5355151639
 51
61.7835460759
  0
LINE
  5
1BC
330
1F
100
AcDbEntity
  8
0
  6
SLD-Solid
 62
     7
370
    15
100
AcDbLine
 10
435.8814725184
 20
699.4387796875
 30
0.0
 11
417.0458981299
 21
709.3540123459
 31
0.0
  0
ARC
  5
1BD
330
1F
100
AcDbEntity
  8
0
  6
SLD-Solid
 62
     7
370
    15
100
AcDbCircle
 10
414.8666899662
 20
705.0309431902
 30
0.0
 40
4.841267927545275
100
AcDbArc
 50
63.2478659831
 51
181.584161444
  0
LINE
  5
1BE
330
1F
100
AcDbEntity
  8
0
  6
SLD-Solid
 62
     7
370
    15
100
AcDbLine
 10
410.0272723937
 20
704.8971048352
 30
0.0
 11
410.0272723937
 21
626.1155894753
 31
0.0
  0
ARC
  5
1BF
330
1F
100
AcDbEntity
  8
0
  6
SLD-Solid
 62
     7
370
    15
100
AcDbCircle
 10
415.0482040932
 20
626.0796353677
 30
0.0
 40
5.021060428746376
100
AcDbArc
 50
179.5897208858
 51
241.7012807048
  0
LINE
  5
1C0
330
1F
100
AcDbEntity
  8
0
  6
SLD-Solid
 62
     7
370
    15
100
AcDbLine
 10
412.6678773665
 20
621.6586521622
 30
0.0
 11
431.5034219527
 21
611.7434195038
 31
0.0
  0
ARC
  5
1C1
330
1F
100
AcDbEntity
  8
0
  6
SLD-Solid
 62
     7
370
    15
100
AcDbCircle
 10
433.687181446
 20
616.0426136409
 30
0.0
 40
4.822019883111552
100
AcDbArc
 50
243.0718789414
 51
355.54002221
  0
ARC
  5
1C2
330
1F
100
AcDbEntity
  8
0
  6
SLD-Solid
 62
     7
370
    15
100
AcDbCircle
 10
433.5171354223
 20
595.0322033249
 30
0.0
 40
5.000779441422387
100
AcDbArc
 50
5.5348572926
 51
61.7842039472
  0
LINE
  5
1C3
330
1F
100
AcDbEntity
  8
0
  6
SLD-Solid
 62
     7
370
    15
100
AcDbLine
 10
435.8814725184
 20
599.4387558457
 30
0.0
 11
417.0458981299
 21
609.3540183064
 31
0.0
  0
ARC
  5
1C4
330
1F
100
AcDbEntity
  8
0
  6
SLD-Solid
 62
     7
370
    15
100
AcDbCircle
 10
414.8666900039
 20
605.0309481962
 30
0.0
 40
4.84126876283077
100
AcDbArc
 50
63.247871466
 51
181.5845027124
  0
LINE
  5
1C5
330
1F
100
AcDbEntity
  8
0
  6
SLD-Solid
 62
     7
370
    15
100
AcDbLine
 10
410.0272723937
 20
604.8970809933
 30
0.0
 11
410.0272723937
 21
535.5487159249
 31
0.0
  0
ARC
  5
1C6
330
1F
100
AcDbEntity
  8
0
  6
SLD-Solid
 62
     7
370
    15
100
AcDbCircle
 10
414.9435522312
 20
535.4649502841
 30
0.0
 40
4.916993402795832
100
AcDbArc
 50
179.0238648969
 51
268.9900807602
  0
LINE
  5
1C7
330
1F
100
AcDbEntity
  8
0
  6
SLD-Solid
 62
     7
370
    15
100
AcDbLine
 10
414.8568877482
 20
530.5487206932
 30
0.0
 11
433.6924323344
 21
530.5487206932
 31
0.0
  0
ARC
  5
1C8
330
1F
100
AcDbEntity
  8
0
  6
SLD-Solid
 62
     7
370
    15
100
AcDbCircle
 10
433.6180487888
 20
535.4434002363
 30
0.0
 40
4.895244706984244
100
AcDbArc
 50
270.8706464131
 51
354.9911630343
  0
LINE
  5
1C9
330
1F
100
AcDbEntity
  8
0
  6
SLD-Solid
 62
     7
370
    15
100
AcDbLine
 10
405.1976272368
 20
510.5487099644
 30
0.0
 11
438.49459975
 21
510.5487099644
 31
0.0
  0
LINE
  5
1CA
330
1F
100
AcDbEntity
  8
0
  6
SLD-Solid
 62
     7
370
    15
100
AcDbLine
 10
405.1976272368
 20
1410.5487159249
 30
0.0
 11
438.49459975
 21
1410.5487159249
 31
0.0
  0
ARC
  5
1CB
330
1F
100
AcDbEntity
  8
0
  6
SLD-Solid
 62
     7
370
    15
100
AcDbCircle
 10
433.6180487888
 20
1385.6540256529
 30
0.0
 40
4.895244706984244
100
AcDbArc
 50
5.0088369657
 51
89.1293535869
  0
LINE
  5
1CC
330
1F
100
AcDbEntity
  8
0
  6
SLD-Solid
 62
     7
370
    15
100
AcDbLine
 10
433.6924323344
 20
1390.548705196
 30
0.0
 11
414.8568877482
 21
1390.548705196
 31
0.0
  0
ARC
  5
1CD
330
1F
100
AcDbEntity
  8
0
  6
SLD-Solid
 62
     7
370
    15
100
AcDbCircle
 10
414.9435522312
 20
1385.6324756051
 30
0.0
 40
4.916993402795545
100
AcDbArc
 50
91.0099192398
 51
180.9761351031
  0
LINE
  5
1CE
330
1F
100
AcDbEntity
  8
0
  6
SLD-Solid
 62
     7
370
    15
100
AcDbLine
 10
410.0272723937
 20
1385.5487099644
 30
0.0
 11
410.0272723937
 21
1326.1155775543
 31
0.0
  0
ARC
  5
1CF
330
1F
100
AcDbEntity
  8
0
  6
SLD-Solid
 62
     7
370
    15
100
AcDbCircle
 10
415.0481152951
 20
1326.0796003982
 30
0.0
 40
5.020971798051594
100
AcDbArc
 50
179.5894506222
 51
241.7018869944
  0
LINE
  5
1D0
330
1F
100
AcDbEntity
  8
0
  6
SLD-Solid
 62
     7
370
    15
100
AcDbLine
 10
412.6678773665
 20
1321.6586700436
 30
0.0
 11
431.5034219527
 21
1311.7434075829
 31
0.0
  0
ARC
  5
1D1
330
1F
100
AcDbEntity
  8
0
  6
SLD-Solid
 62
     7
370
    15
100
AcDbCircle
 10
433.687181446
 20
1316.04260172
 30
0.0
 40
4.82201988311157
100
AcDbArc
 50
243.0718789414
 51
355.54002221
  0
ARC
  5
1D2
330
1F
100
AcDbEntity
  8
0
  6
SLD-Solid
 62
     7
370
    15
100
AcDbCircle
 10
433.517066138
 20
1295.0321750701
 30
0.0
 40
5.000852852736337
100
AcDbArc
 50
5.5353068565
 51
61.7837543833
  0
LINE
  5
1D3
330
1F
100
AcDbEntity
  8
0
  6
SLD-Solid
 62
     7
370
    15
100
AcDbLine
 10
435.8814725184
 20
1299.4387737271
 30
0.0
 11
417.0458981299
 21
1309.3540063854
 31
0.0
  0
ARC
  5
1D4
330
1F
100
AcDbEntity
  8
0
  6
SLD-Solid
 62
     7
370
    15
100
AcDbCircle
 10
414.8666806737
 20
1305.0309518633
 30
0.0
 40
4.841259043181529
100
AcDbArc
 50
63.2476898222
 51
181.5843376049
  0
LINE
  5
1D5
330
1F
100
AcDbEntity
  8
0
  6
SLD-Solid
 62
     7
370
    15
100
AcDbLine
 10
410.0272723937
 20
1304.8970988747
 30
0.0
 11
410.0272723937
 21
1226.1155835148
 31
0.0
  0
ARC
  5
1D6
330
1F
100
AcDbEntity
  8
0
  6
SLD-Solid
 62
     7
370
    15
100
AcDbCircle
 10
415.0480938857
 20
1226.0795936741
 30
0.0
 40
5.020950480123783
100
AcDbArc
 50
179.589304128
 51
241.7020334886
  0
LINE
  5
1D7
330
1F
100
AcDbEntity
  8
0
  6
SLD-Solid
 62
     7
370
    15
100
AcDbLine
 10
412.6678773665
 20
1221.6586760041
 30
0.0
 11
431.5034219527
 21
1211.7434135433
 31
0.0
  0
ARC
  5
1D8
330
1F
100
AcDbEntity
  8
0
  6
SLD-Solid
 62
     7
370
    15
100
AcDbCircle
 10
433.687181446
 20
1216.0426076805
 30
0.0
 40
4.82201988311157
100
AcDbArc
 50
243.0718789414
 51
355.54002221
  0
ARC
  5
1D9
330
1F
100
AcDbEntity
  8
0
  6
SLD-Solid
 62
     7
370
    15
100
AcDbCircle
 10
433.5171007808
 20
1195.0321891979
 30
0.0
 40
5.000816146426699
100
AcDbArc
 50
5.5350820725
 51
61.7839791673
  0
LINE
  5
1DA
330
1F
100
AcDbEntity
  8
0
  6
SLD-Solid
 62
     7
370
    15
100
AcDbLine
 10
435.8814725184
 20
1199.4387647864
 30
0.0
 11
417.0458981299
 21
1209.3540123459
 31
0.0
  0
ARC
  5
1DB
330
1F
100
AcDbEntity
  8
0
  6
SLD-Solid
 62
     7
370
    15
100
AcDbCircle
 10
414.8666779545
 20
1205.0309616583
 30
0.0
 40
4.84125684307236
100
AcDbArc
 50
63.2476406576
 51
181.5845601453
  0
LINE
  5
1DC
330
1F
100
AcDbEntity
  8
0
  6
SLD-Solid
 62
     7
370
    15
100
AcDbLine
 10
410.0272723937
 20
1204.897089934
 30
0.0
 11
410.0272723937
 21
1126.1155894753
 31
0.0
  0
ARC
  5
1DD
330
1F
100
AcDbEntity
  8
0
  6
SLD-Solid
 62
     7
370
    15
100
AcDbCircle
 10
415.0481336664
 20
1126.0796084227
 30
0.0
 40
5.020990196794794
100
AcDbArc
 50
179.5894076632
 51
241.70176194
  0
LINE
  5
1DE
330
1F
100
AcDbEntity
  8
0
  6
SLD-Solid
 62
     7
370
    15
100
AcDbLine
 10
412.6678773665
 20
1121.6586670634
 30
0.0
 11
431.5034219527
 21
1111.7434046026
 31
0.0
  0
ARC
  5
1DF
330
1F
100
AcDbEntity
  8
0
  6
SLD-Solid
 62
     7
370
    15
100
AcDbCircle
 10
433.6871740598
 20
1116.0426118985
 30
0.0
 40
4.822028270165172
100
AcDbArc
 50
243.0720279967
 51
355.5398731546
  0
ARC
  5
1E0
330
1F
100
AcDbEntity
  8
0
  6
SLD-Solid
 62
     7
370
    15
100
AcDbCircle
 10
433.5170500863
 20
1095.0321614011
 30
0.0
 40
5.000869860622847
100
AcDbArc
 50
5.5354110091
 51
61.7836502307
  0
LINE
  5
1E1
330
1F
100
AcDbEntity
  8
0
  6
SLD-Solid
 62
     7
370
    15
100
AcDbLine
 10
435.8814725184
 20
1099.4387707468
 30
0.0
 11
417.0458981299
 21
1109.3540183064
 31
0.0
  0
ARC
  5
1E2
330
1F
100
AcDbEntity
  8
0
  6
SLD-Solid
 62
     7
370
    15
100
AcDbCircle
 10
414.866689985
 20
1105.0309486734
 30
0.0
 40
4.841268345163286
100
AcDbArc
 50
63.2478687244
 51
181.5843320786
  0
LINE
  5
1E3
330
1F
100
AcDbEntity
  8
0
  6
SLD-Solid
 62
     7
370
    15
100
AcDbLine
 10
410.0272723937
 20
1104.8970958945
 30
0.0
 11
410.0272723937
 21
1026.1155879852
 31
0.0
  0
ARC
  5
1E4
330
1F
100
AcDbEntity
  8
0
  6
SLD-Solid
 62
     7
370
    15
100
AcDbCircle
 10
415.0481532497
 20
1026.07961484
 30
0.0
 40
5.021009722950668
100
AcDbArc
 50
179.5894994948
 51
241.7016281052
  0
LINE
  5
1E5
330
1F
100
AcDbEntity
  8
0
  6
SLD-Solid
 62
     7
370
    15
100
AcDbLine
 10
412.6678773665
 20
1021.6586618479
 30
0.0
 11
431.5034219527
 21
1011.7434105631
 31
0.0
  0
ARC
  5
1E6
330
1F
100
AcDbEntity
  8
0
  6
SLD-Solid
 62
     7
370
    15
100
AcDbCircle
 10
433.6871824819
 20
1016.0426028546
 30
0.0
 40
4.822018706753107
100
AcDbArc
 50
243.071858035
 51
355.5400431164
  0
LWPOLYLINE
  5
1E7
330
1F
100
AcDbEntity
  8
0
  6
SLD-Solid
 62
     7
370
    15
100
AcDbPolyline
 90
        3
 70
   128
 43
0.0
 10
416.8388613963
 20
1309.3540063854
 10
415.6814286017
 20
1309.781699514
 10
414.7533544802
 20
1309.8959318157
  0
LWPOLYLINE
  5
1E8
330
1F
100
AcDbEntity
  8
0
  6
SLD-Solid
 62
     7
370
    15
100
AcDbPolyline
 90
        3
 70
   128
 43
0.0
 10
416.8388613963
 20
1209.3540123459
 10
415.6814286017
 20
1209.7817054745
 10
414.7533544802
 20
1209.8959377762
  0
LWPOLYLINE
  5
1E9
330
1F
100
AcDbEntity
  8
0
  6
SLD-Solid
 62
     7
370
    15
100
AcDbPolyline
 90
        3
 70
   128
 43
0.0
 10
416.8388613963
 20
1109.3540183064
 10
415.6814286017
 20
1109.781711435
 10
414.7533544802
 20
1109.8959437367
  0
LWPOLYLINE
  5
1EA
330
1F
100
AcDbEntity
  8
0
  6
SLD-Solid
 62
     7
370
    15
100
AcDbPolyline
 90
        3
 70
   128
 43
0.0
 10
416.8388613963
 20
1009.3540205415
 10
415.6814286017
 20
1009.7817062196
 10
414.7533544802
 20
1009.8959459718
  0
LWPOLYLINE
  5
1EB
330
1F
100
AcDbEntity
  8
0
  6
SLD-Solid
 62
     7
370
    15
100
AcDbPolyline
 90
        3
 70
   128
 43
0.0
 10
416.8388613963
 20
909.3540190514
 10
415.6814286017
 20
909.7817047294
 10
414.7533544802
 20
909.8959444817
  0
LWPOLYLINE
  5
1EC
330
1F
100
AcDbEntity
  8
0
  6
SLD-Solid
 62
     7
370
    15
100
AcDbPolyline
 90
        3
 70
   128
 43
0.0
 10
416.8388613963
 20
809.3540212866
 10
415.6814286017
 20
809.781699514
 10
414.7533544802
 20
809.8959467169
  0
LWPOLYLINE
  5
1ED
330
1F
100
AcDbEntity
  8
0
  6
SLD-Solid
 62
     7
370
    15
100
AcDbPolyline
 90
        3
 70
   128
 43
0.0
 10
416.8388613963
 20
709.3540123459
 10
415.6814286017
 20
709.7817054745
 10
414.7533544802
 20
709.8959377762
  0
LWPOLYLINE
  5
1EE
330
1F
100
AcDbEntity
  8
0
  6
SLD-Solid
 62
     7
370
    15
100
AcDbPolyline
 90
        3
 70
   128
 43
0.0
 10
416.8388613963
 20
609.3540183064
 10
415.6814286017
 20
609.781711435
 10
414.7533544802
 20
609.8959437367
  0
LINE
  5
1EF
330
1F
100
AcDbEntity
  8
0
  6
SLD-Solid
 62
     7
370
    15
100
AcDbLine
 10
435.6744059824
 20
1299.4387737271
 30
0.0
 11
416.8388613963
 21
1309.3540063854
 31
0.0
  0
LINE
  5
1F0
330
1F
100
AcDbEntity
  8
0
  6
SLD-Solid
 62
     7
370
    15
100
AcDbLine
 10
435.6744059824
 20
1199.4387647864
 30
0.0
 11
416.8388613963
 21
1209.3540123459
 31
0.0
  0
LINE
  5
1F1
330
1F
100
AcDbEntity
  8
0
  6
SLD-Solid
 62
     7
370
    15
100
AcDbLine
 10
435.6744059824
 20
1099.4387707468
 30
0.0
 11
416.8388613963
 21
1109.3540183064
 31
0.0
  0
LINE
  5
1F2
330
1F
100
AcDbEntity
  8
0
  6
SLD-Solid
 62
     7
370
    15
100
AcDbLine
 10
435.6744059824
 20
999.4387655314
 30
0.0
 11
416.8388613963
 21
1009.3540205415
 31
0.0
  0
LINE
  5
1F3
330
1F
100
AcDbEntity
  8
0
  6
SLD-Solid
 62
     7
370
    15
100
AcDbLine
 10
435.6744059824
 20
899.4387640413
 30
0.0
 11
416.8388613963
 21
909.3540190514
 31
0.0
  0
LINE
  5
1F4
330
1F
100
AcDbEntity
  8
0
  6
SLD-Solid
 62
     7
370
    15
100
AcDbLine
 10
435.6744059824
 20
799.4387588259
 30
0.0
 11
416.8388613963
 21
809.3540212866
 31
0.0
  0
LINE
  5
1F5
330
1F
100
AcDbEntity
  8
0
  6
SLD-Solid
 62
     7
370
    15
100
AcDbLine
 10
435.6744059824
 20
699.4387796875
 30
0.0
 11
416.8388613963
 21
709.3540123459
 31
0.0
  0
LINE
  5
1F6
330
1F
100
AcDbEntity
  8
0
  6
SLD-Solid
 62
     7
370
    15
100
AcDbLine
 10
435.6744059824
 20
599.4387558457
 30
0.0
 11
416.8388613963
 21
609.3540183064
 31
0.0
  0
LINE
  5
1F7
330
1F
100
AcDbEntity
  8
0
  6
SLD-Solid
 62
     7
370
    15
100
AcDbLine
 10
438.5220774912
 20
1216.2003210541
 30
0.0
 11
438.49459975
 21
1215.6676343437
 31
0.0
  0
ARC
  5
1F8
330
1F
100
AcDbEntity
  8
0
  6
SLD-Solid
 62
     7
370
    15
100
AcDbCircle
 10
433.1490111344
 20
1216.1997483488
 30
0.0
 40
5.165999852606966
100
AcDbArc
 50
354.0878711733
 51
0.0063518384
  0
ARC
  5
1F9
330
1F
100
AcDbEntity
  8
0
  6
SLD-Solid
 62
     7
370
    15
100
AcDbCircle
 10
433.407049121
 20
1216.0974884492
 30
0.0
 40
4.899377464000094
100
AcDbArc
 50
272.1274819174
 51
354.9665985736
  0
LINE
  5
1FA
330
1F
100
AcDbEntity
  8
0
  6
SLD-Solid
 62
     7
370
    15
100
AcDbLine
 10
438.5220774912
 20
1316.200344896
 30
0.0
 11
438.49459975
 21
1315.6676283833
 31
0.0
  0
ARC
  5
1FB
330
1F
100
AcDbEntity
  8
0
  6
SLD-Solid
 62
     7
370
    15
100
AcDbCircle
 10
433.1478560322
 20
1316.1998020019
 30
0.0
 40
5.167154951605837
100
AcDbArc
 50
354.0885329619
 51
0.0060198581
  0
ARC
  5
1FC
330
1F
100
AcDbEntity
  8
0
  6
SLD-Solid
 62
     7
370
    15
100
AcDbCircle
 10
433.4070290497
 20
1316.0975036048
 30
0.0
 40
4.899399310559159
100
AcDbArc
 50
272.127707311
 51
354.96637318
  0
LINE
  5
1FD
330
1F
100
AcDbEntity
  8
0
  6
SLD-Solid
 62
     7
370
    15
100
AcDbLine
 10
438.5220774912
 20
1116.2003419157
 30
0.0
 11
438.49459975
 21
1115.667625403
 31
0.0
  0
ARC
  5
1FE
330
1F
100
AcDbEntity
  8
0
  6
SLD-Solid
 62
     7
370
    15
100
AcDbCircle
 10
433.1484326246
 20
1116.1997692808
 30
0.0
 40
5.166578362417336
100
AcDbArc
 50
354.0882024729
 51
0.0063503472
  0
ARC
  5
1FF
330
1F
100
AcDbEntity
  8
0
  6
SLD-Solid
 62
     7
370
    15
100
AcDbCircle
 10
433.4070060315
 20
1116.0975248408
 30
0.0
 40
4.899424364749601
100
AcDbArc
 50
272.1279657948
 51
354.9661146963
  0
LINE
  5
200
330
1F
100
AcDbEntity
  8
0
  6
SLD-Solid
 62
     7
370
    15
100
AcDbLine
 10
438.5220774912
 20
1016.2003367003
 30
0.0
 11
438.49459975
 21
1015.6676313635
 31
0.0
  0
ARC
  5
201
330
1F
100
AcDbEntity
  8
0
  6
SLD-Solid
 62
     7
370
    15
100
AcDbCircle
 10
433.1484333837
 20
1016.1997751902
 30
0.0
 40
5.166577602135721
100
AcDbArc
 50
354.088202169
 51
0.0062269772
  0
ARC
  5
202
330
1F
100
AcDbEntity
  8
0
  6
SLD-Solid
 62
     7
370
    15
100
AcDbCircle
 10
433.407016804
 20
1016.0975194681
 30
0.0
 40
4.89941263942018
100
AcDbArc
 50
272.1278448252
 51
354.9662356659
  0
LINE
  5
203
330
1F
100
AcDbEntity
  8
0
  6
SLD-Solid
 62
     7
370
    15
100
AcDbLine
 10
438.5220774912
 20
916.2003352102
 30
0.0
 11
438.49459975
 21
915.6676298734
 31
0.0
  0
ARC
  5
204
330
1F
100
AcDbEntity
  8
0
  6
SLD-Solid
 62
     7
370
    15
100
AcDbCircle
 10
433.1483855528
 20
916.1997761673
 30
0.0
 40
5.166625432709418
100
AcDbArc
 50
354.0882295867
 51
0.0061995595
  0
ARC
  5
205
330
1F
100
AcDbEntity
  8
0
  6
SLD-Solid
 62
     7
370
    15
100
AcDbCircle
 10
433.4070142951
 20
916.0975206174
 30
0.0
 40
4.899415370246568
100
AcDbArc
 50
272.127872999
 51
354.966207492
  0
LINE
  5
206
330
1F
100
AcDbEntity
  8
0
  6
SLD-Solid
 62
     7
370
    15
100
AcDbLine
 10
438.5220774912
 20
816.2003299948
 30
0.0
 11
438.49459975
 21
815.6676283833
 31
0.0
  0
ARC
  5
207
330
1F
100
AcDbEntity
  8
0
  6
SLD-Solid
 62
     7
370
    15
100
AcDbCircle
 10
433.1484336343
 20
816.1997721931
 30
0.0
 40
5.166577351136265
100
AcDbArc
 50
354.0882020685
 51
0.006185852
  0
ARC
  5
208
330
1F
100
AcDbEntity
  8
0
  6
SLD-Solid
 62
     7
370
    15
100
AcDbCircle
 10
433.4070060315
 20
816.097527821
 30
0.0
 40
4.899424364749253
100
AcDbArc
 50
272.1279657948
 51
354.9661146963
  0
LINE
  5
209
330
1F
100
AcDbEntity
  8
0
  6
SLD-Solid
 62
     7
370
    15
100
AcDbLine
 10
438.5220774912
 20
716.2003359553
 30
0.0
 11
438.49459975
 21
715.6676343437
 31
0.0
  0
ARC
  5
20A
330
1F
100
AcDbEntity
  8
0
  6
SLD-Solid
 62
     7
370
    15
100
AcDbCircle
 10
433.1484336343
 20
716.1997781536
 30
0.0
 40
5.166577351136265
100
AcDbArc
 50
354.0882020685
 51
0.006185852
  0
ARC
  5
20B
330
1F
100
AcDbEntity
  8
0
  6
SLD-Solid
 62
     7
370
    15
100
AcDbCircle
 10
433.407030601
 20
716.0975079331
 30
0.0
 40
4.899397621999655
100
AcDbArc
 50
272.1276898901
 51
354.966390601
  0
LINE
  5
20C
330
1F
100
AcDbEntity
  8
0
  6
SLD-Solid
 62
     7
370
    15
100
AcDbLine
 10
438.5220774912
 20
616.2003270146
 30
0.0
 11
438.49459975
 21
615.6676403042
 31
0.0
  0
ARC
  5
20D
330
1F
100
AcDbEntity
  8
0
  6
SLD-Solid
 62
     7
370
    15
100
AcDbCircle
 10
433.1490111344
 20
616.1997543093
 30
0.0
 40
5.165999852606973
100
AcDbArc
 50
354.0878711733
 51
0.0063518384
  0
ARC
  5
20E
330
1F
100
AcDbEntity
  8
0
  6
SLD-Solid
 62
     7
370
    15
100
AcDbCircle
 10
433.407049121
 20
616.0974944097
 30
0.0
 40
4.899377464000084
100
AcDbArc
 50
272.1274819174
 51
354.9665985737
  0
LINE
  5
20F
330
1F
100
AcDbEntity
  8
0
  6
SLD-Solid
 62
     7
370
    15
100
AcDbLine
 10
438.49459975
 20
1386.0814264771
 30
0.0
 11
438.5220774912
 21
1385.5487099644
 31
0.0
  0
ARC
  5
210
330
1F
100
AcDbEntity
  8
0
  6
SLD-Solid
 62
     7
370
    15
100
AcDbCircle
 10
433.1478560322
 20
1385.5492528585
 30
0.0
 40
5.167154951605837
100
AcDbArc
 50
359.9939801419
 51
5.9114670381
  0
ARC
  5
211
330
1F
100
AcDbEntity
  8
0
  6
SLD-Solid
 62
     7
370
    15
100
AcDbCircle
 10
433.4110261334
 20
1385.6540733189
 30
0.0
 40
4.895196832583542
100
AcDbArc
 50
5.0083260319
 51
89.1295098681
  0
LINE
  5
212
330
1F
100
AcDbEntity
  8
0
  6
SLD-Solid
 62
     7
370
    15
100
AcDbLine
 10
438.5220774912
 20
535.5487159249
 30
0.0
 11
438.49459975
 21
535.0159994122
 31
0.0
  0
ARC
  5
213
330
1F
100
AcDbEntity
  8
0
  6
SLD-Solid
 62
     7
370
    15
100
AcDbCircle
 10
433.1478560322
 20
535.5481730308
 30
0.0
 40
5.167154951605837
100
AcDbArc
 50
354.0885329619
 51
0.0060198581
  0
ARC
  5
214
330
1F
100
AcDbEntity
  8
0
  6
SLD-Solid
 62
     7
370
    15
100
AcDbCircle
 10
433.4110261334
 20
535.4433525703
 30
0.0
 40
4.89519683258349
100
AcDbArc
 50
270.8704901319
 51
354.9916739681
  0
LINE
  5
215
330
1F
100
AcDbEntity
  8
0
  6
SLD-Solid
 62
     7
370
    15
100
AcDbLine
 10
438.49459975
 20
1295.5145529267
 30
0.0
 11
438.5220774912
 21
1294.981836414
 31
0.0
  0
ARC
  5
216
330
1F
100
AcDbEntity
  8
0
  6
SLD-Solid
 62
     7
370
    15
100
AcDbCircle
 10
433.1478560322
 20
1294.9823793081
 30
0.0
 40
5.167154951605837
100
AcDbArc
 50
359.9939801419
 51
5.9114670381
  0
ARC
  5
217
330
1F
100
AcDbEntity
  8
0
  6
SLD-Solid
 62
     7
370
    15
100
AcDbCircle
 10
433.3101466819
 20
1295.0322730101
 30
0.0
 40
5.000697012294452
100
AcDbArc
 50
5.5343524865
 51
61.7847087533
  0
LINE
  5
218
330
1F
100
AcDbEntity
  8
0
  6
SLD-Solid
 62
     7
370
    15
100
AcDbLine
 10
438.49459975
 20
1195.514543986
 30
0.0
 11
438.5220774912
 21
1194.9818423744
 31
0.0
  0
ARC
  5
219
330
1F
100
AcDbEntity
  8
0
  6
SLD-Solid
 62
     7
370
    15
100
AcDbCircle
 10
433.1484336343
 20
1194.9824001761
 30
0.0
 40
5.166577351136265
100
AcDbArc
 50
359.993814148
 51
5.9117979315
  0
ARC
  5
21A
330
1F
100
AcDbEntity
  8
0
  6
SLD-Solid
 62
     7
370
    15
100
AcDbCircle
 10
433.3101813246
 20
1195.0322871379
 30
0.0
 40
5.000660306311436
100
AcDbArc
 50
5.5341276884
 51
61.7849335514
  0
LINE
  5
21B
330
1F
100
AcDbEntity
  8
0
  6
SLD-Solid
 62
     7
370
    15
100
AcDbLine
 10
438.49459975
 20
1095.5145499464
 30
0.0
 11
438.5220774912
 21
1094.9818334337
 31
0.0
  0
ARC
  5
21C
330
1F
100
AcDbEntity
  8
0
  6
SLD-Solid
 62
     7
370
    15
100
AcDbCircle
 10
433.1484326246
 20
1094.9824060687
 30
0.0
 40
5.166578362417323
100
AcDbArc
 50
359.9936496528
 51
5.9117975271
  0
ARC
  5
21D
330
1F
100
AcDbEntity
  8
0
  6
SLD-Solid
 62
     7
370
    15
100
AcDbCircle
 10
433.3101306327
 20
1095.0322593428
 30
0.0
 40
5.000714017305003
100
AcDbArc
 50
5.5344566288
 51
61.784604611
  0
LINE
  5
21E
330
1F
100
AcDbEntity
  8
0
  6
SLD-Solid
 62
     7
370
    15
100
AcDbLine
 10
438.49459975
 20
995.514544731
 30
0.0
 11
438.5220774912
 21
994.9818393942
 31
0.0
  0
ARC
  5
21F
330
1F
100
AcDbEntity
  8
0
  6
SLD-Solid
 62
     7
370
    15
100
AcDbCircle
 10
433.1483855528
 20
994.9823984372
 30
0.0
 40
5.166625432709373
100
AcDbArc
 50
359.9938004405
 51
5.9117704133
  0
ARC
  5
220
330
1F
100
AcDbEntity
  8
0
  6
SLD-Solid
 62
     7
370
    15
100
AcDbCircle
 10
433.3101648729
 20
995.0322769279
 30
0.0
 40
5.000677737818533
100
AcDbArc
 50
5.5342344445
 51
61.7848267953
  0
LINE
  5
221
330
1F
100
AcDbEntity
  8
0
  6
SLD-Solid
 62
     7
370
    15
100
AcDbLine
 10
438.49459975
 20
895.5145469662
 30
0.0
 11
438.5220774912
 21
894.9818379041
 31
0.0
  0
ARC
  5
222
330
1F
100
AcDbEntity
  8
0
  6
SLD-Solid
 62
     7
370
    15
100
AcDbCircle
 10
433.1483374695
 20
894.9823981882
 30
0.0
 40
5.166673516163371
100
AcDbArc
 50
359.9937867342
 51
5.9117428944
  0
ARC
  5
223
330
1F
100
AcDbEntity
  8
0
  6
SLD-Solid
 62
     7
370
    15
100
AcDbCircle
 10
433.3101721749
 20
895.0322798423
 30
0.0
 40
5.00067040437426
100
AcDbArc
 50
5.5342347666
 51
61.7848766582
  0
LINE
  5
224
330
1F
100
AcDbEntity
  8
0
  6
SLD-Solid
 62
     7
370
    15
100
AcDbLine
 10
438.49459975
 20
795.5145380255
 30
0.0
 11
438.5220774912
 21
794.981836414
 31
0.0
  0
ARC
  5
225
330
1F
100
AcDbEntity
  8
0
  6
SLD-Solid
 62
     7
370
    15
100
AcDbCircle
 10
433.1484336343
 20
794.9823942157
 30
0.0
 40
5.166577351136283
100
AcDbArc
 50
359.9938141481
 51
5.9117979315
  0
ARC
  5
226
330
1F
100
AcDbEntity
  8
0
  6
SLD-Solid
 62
     7
370
    15
100
AcDbCircle
 10
433.3102008515
 20
795.0322941804
 30
0.0
 40
5.000639616434656
100
AcDbArc
 50
5.5340009759
 51
61.7850602639
  0
LINE
  5
227
330
1F
100
AcDbEntity
  8
0
  6
SLD-Solid
 62
     7
370
    15
100
AcDbLine
 10
438.49459975
 20
695.5145588871
 30
0.0
 11
438.5220774912
 21
694.9818423744
 31
0.0
  0
ARC
  5
228
330
1F
100
AcDbEntity
  8
0
  6
SLD-Solid
 62
     7
370
    15
100
AcDbCircle
 10
433.1478560322
 20
694.9823852685
 30
0.0
 40
5.167154951605851
100
AcDbArc
 50
359.9939801419
 51
5.9114670381
  0
ARC
  5
229
330
1F
100
AcDbEntity
  8
0
  6
SLD-Solid
 62
     7
370
    15
100
AcDbCircle
 10
433.3101145831
 20
695.0322575962
 30
0.0
 40
5.000731022821735
100
AcDbArc
 50
5.5345607734
 51
61.7845004663
  0
LINE
  5
22A
330
1F
100
AcDbEntity
  8
0
  6
SLD-Solid
 62
     7
370
    15
100
AcDbLine
 10
438.49459975
 20
595.5145350453
 30
0.0
 11
438.5220774912
 21
594.9818483349
 31
0.0
  0
ARC
  5
22B
330
1F
100
AcDbEntity
  8
0
  6
SLD-Solid
 62
     7
370
    15
100
AcDbCircle
 10
433.1490111344
 20
594.9824210402
 30
0.0
 40
5.165999852606973
100
AcDbArc
 50
359.9936481616
 51
5.9121288267
  0
ARC
  5
22C
330
1F
100
AcDbEntity
  8
0
  6
SLD-Solid
 62
     7
370
    15
100
AcDbCircle
 10
433.3102159661
 20
595.0323012649
 30
0.0
 40
5.000623601634056
100
AcDbArc
 50
5.5339028946
 51
61.7851583452
  0
LINE
  5
22D
330
1F
100
AcDbEntity
  8
0
  6
SLD-Solid
 62
     7
370
    15
100
AcDbLine
 10
438.5220774912
 20
1194.9818423744
 30
0.0
 11
438.5220774912
 21
1116.2003419157
 31
0.0
  0
LINE
  5
22E
330
1F
100
AcDbEntity
  8
0
  6
SLD-Solid
 62
     7
370
    15
100
AcDbLine
 10
438.5220774912
 20
1294.981836414
 30
0.0
 11
438.5220774912
 21
1216.2003210541
 31
0.0
  0
LINE
  5
22F
330
1F
100
AcDbEntity
  8
0
  6
SLD-Solid
 62
     7
370
    15
100
AcDbLine
 10
438.5220774912
 20
1385.5487099644
 30
0.0
 11
438.5220774912
 21
1316.200344896
 31
0.0
  0
LINE
  5
230
330
1F
100
AcDbEntity
  8
0
  6
SLD-Solid
 62
     7
370
    15
100
AcDbLine
 10
438.49459975
 20
1410.5487159249
 30
0.0
 11
457.6170512938
 21
1410.5487159249
 31
0.0
  0
LINE
  5
231
330
1F
100
AcDbEntity
  8
0
  6
SLD-Solid
 62
     7
370
    15
100
AcDbLine
 10
457.6170512938
 20
1410.5487159249
 30
0.0
 11
457.6170512938
 21
510.5487099644
 31
0.0
  0
LINE
  5
232
330
1F
100
AcDbEntity
  8
0
  6
SLD-Solid
 62
     7
370
    15
100
AcDbLine
 10
438.49459975
 20
510.5487099644
 30
0.0
 11
457.6170512938
 21
510.5487099644
 31
0.0
  0
LINE
  5
233
330
1F
100
AcDbEntity
  8
0
  6
SLD-Solid
 62
     7
370
    15
100
AcDbLine
 10
438.5220774912
 20
594.9818483349
 30
0.0
 11
438.5220774912
 21
535.5487159249
 31
0.0
  0
LINE
  5
234
330
1F
100
AcDbEntity
  8
0
  6
SLD-Solid
 62
     7
370
    15
100
AcDbLine
 10
438.5220774912
 20
694.9818423744
 30
0.0
 11
438.5220774912
 21
616.2003270146
 31
0.0
  0
LINE
  5
235
330
1F
100
AcDbEntity
  8
0
  6
SLD-Solid
 62
     7
370
    15
100
AcDbLine
 10
438.5220774912
 20
794.981836414
 30
0.0
 11
438.5220774912
 21
716.2003359553
 31
0.0
  0
LINE
  5
236
330
1F
100
AcDbEntity
  8
0
  6
SLD-Solid
 62
     7
370
    15
100
AcDbLine
 10
438.5220774912
 20
894.9818379041
 30
0.0
 11
438.5220774912
 21
816.2003299948
 31
0.0
  0
LINE
  5
237
330
1F
100
AcDbEntity
  8
0
  6
SLD-Solid
 62
     7
370
    15
100
AcDbLine
 10
438.5220774912
 20
994.9818393942
 30
0.0
 11
438.5220774912
 21
916.2003352102
 31
0.0
  0
LINE
  5
238
330
1F
100
AcDbEntity
  8
0
  6
SLD-Solid
 62
     7
370
    15
100
AcDbLine
 10
438.5220774912
 20
1094.9818334337
 30
0.0
 11
438.5220774912
 21
1016.2003367003
 31
0.0
  0
LINE
  5
239
330
1F
100
AcDbEntity
  8
0
  6
SLD-Solid
 62
     7
370
    15
100
AcDbLine
 10
438.3150109553
 20
1216.2003210541
 30
0.0
 11
438.3150109553
 21
1294.981836414
 31
0.0
  0
LINE
  5
23A
330
1F
100
AcDbEntity
  8
0
  6
SLD-Solid
 62
     7
370
    15
100
AcDbLine
 10
438.3150109553
 20
1316.200344896
 30
0.0
 11
438.3150109553
 21
1385.5487099644
 31
0.0
  0
LINE
  5
23B
330
1F
100
AcDbEntity
  8
0
  6
SLD-Solid
 62
     7
370
    15
100
AcDbLine
 10
438.3150109553
 20
1116.2003419157
 30
0.0
 11
438.3150109553
 21
1194.9818423744
 31
0.0
  0
LINE
  5
23C
330
1F
100
AcDbEntity
  8
0
  6
SLD-Solid
 62
     7
370
    15
100
AcDbLine
 10
438.3150109553
 20
1016.2003367003
 30
0.0
 11
438.3150109553
 21
1094.9818334337
 31
0.0
  0
LINE
  5
23D
330
1F
100
AcDbEntity
  8
0
  6
SLD-Solid
 62
     7
370
    15
100
AcDbLine
 10
438.3150109553
 20
916.2003352102
 30
0.0
 11
438.3150109553
 21
994.9818393942
 31
0.0
  0
LINE
  5
23E
330
1F
100
AcDbEntity
  8
0
  6
SLD-Solid
 62
     7
370
    15
100
AcDbLine
 10
438.3150109553
 20
816.2003299948
 30
0.0
 11
438.3150109553
 21
894.9818379041
 31
0.0
  0
LINE
  5
23F
330
1F
100
AcDbEntity
  8
0
  6
SLD-Solid
 62
     7
370
    15
100
AcDbLine
 10
438.3150109553
 20
716.2003359553
 30
0.0
 11
438.3150109553
 21
794.981836414
 31
0.0
  0
LINE
  5
240
330
1F
100
AcDbEntity
  8
0
  6
SLD-Solid
 62
     7
370
    15
100
AcDbLine
 10
438.3150109553
 20
616.2003270146
 30
0.0
 11
438.3150109553
 21
694.9818423744
 31
0.0
  0
LINE
  5
241
330
1F
100
AcDbEntity
  8
0
  6
SLD-Solid
 62
     7
370
    15
100
AcDbLine
 10
438.3150109553
 20
535.5487159249
 30
0.0
 11
438.3150109553
 21
594.9818483349
 31
0.0
  0
LINE
  5
242
330
1F
100
AcDbEntity
  8
0
  6
SLD-Solid
 62
     7
370
    15
100
AcDbLine
 10
438.287533214
 20
1386.0814264771
 30
0.0
 11
438.287533214
 21
1315.6676283833
 31
0.0
  0
LINE
  5
243
330
1F
100
AcDbEntity
  8
0
  6
SLD-Solid
 62
     7
370
    15
100
AcDbLine
 10
438.287533214
 20
1295.5145529267
 30
0.0
 11
438.287533214
 21
1215.6676343437
 31
0.0
  0
LINE
  5
244
330
1F
100
AcDbEntity
  8
0
  6
SLD-Solid
 62
     7
370
    15
100
AcDbLine
 10
438.287533214
 20
1195.514543986
 30
0.0
 11
438.287533214
 21
1115.667625403
 31
0.0
  0
LINE
  5
245
330
1F
100
AcDbEntity
  8
0
  6
SLD-Solid
 62
     7
370
    15
100
AcDbLine
 10
438.287533214
 20
1095.5145499464
 30
0.0
 11
438.287533214
 21
1015.6676313635
 31
0.0
  0
LINE
  5
246
330
1F
100
AcDbEntity
  8
0
  6
SLD-Solid
 62
     7
370
    15
100
AcDbLine
 10
438.287533214
 20
995.514544731
 30
0.0
 11
438.287533214
 21
915.6676298734
 31
0.0
  0
LINE
  5
247
330
1F
100
AcDbEntity
  8
0
  6
SLD-Solid
 62
     7
370
    15
100
AcDbLine
 10
438.287533214
 20
895.5145469662
 30
0.0
 11
438.287533214
 21
815.6676283833
 31
0.0
  0
LINE
  5
248
330
1F
100
AcDbEntity
  8
0
  6
SLD-Solid
 62
     7
370
    15
100
AcDbLine
 10
438.287533214
 20
795.5145380255
 30
0.0
 11
438.287533214
 21
715.6676343437
 31
0.0
  0
LINE
  5
249
330
1F
100
AcDbEntity
  8
0
  6
SLD-Solid
 62
     7
370
    15
100
AcDbLine
 10
438.287533214
 20
695.5145588871
 30
0.0
 11
438.287533214
 21
615.6676403042
 31
0.0
  0
LINE
  5
24A
330
1F
100
AcDbEntity
  8
0
  6
SLD-Solid
 62
     7
370
    15
100
AcDbLine
 10
438.287533214
 20
595.5145350453
 30
0.0
 11
438.287533214
 21
535.0159994122
 31
0.0
  0
LINE
  5
24B
330
1F
100
AcDbEntity
  8
0
  6
SLD-Solid
 62
     7
370
    15
100
AcDbLine
 10
457.6170512938
 20
1410.5487159249
 30
0.0
 11
458.8670501017
 21
1410.5487159249
 31
0.0
  0
LINE
  5
24C
330
1F
100
AcDbEntity
  8
0
  6
SLD-Solid
 62
     7
370
    15
100
AcDbLine
 10
457.6170512938
 20
510.5487099644
 30
0.0
 11
458.8670501017
 21
510.5487099644
 31
0.0
  0
LINE
  5
24D
330
1F
100
AcDbEntity
  8
0
  6
SLD-Solid
 62
     7
370
    15
100
AcDbLine
 10
480.0670513415
 20
1410.5487159249
 30
0.0
 11
482.1170636916
 21
1410.5487159249
 31
0.0
  0
LINE
  5
24E
330
1F
100
AcDbEntity
  8
0
  6
SLD-Solid
 62
     7
370
    15
100
AcDbLine
 10
482.1170636916
 20
1410.5487159249
 30
0.0
 11
482.1170636916
 21
510.5487099644
 31
0.0
  0
LINE
  5
24F
330
1F
100
AcDbEntity
  8
0
  6
SLD-Solid
 62
     7
370
    15
100
AcDbLine
 10
480.0670513415
 20
510.5487099644
 30
0.0
 11
482.1170636916
 21
510.5487099644
 31
0.0
  0
LINE
  5
250
330
1F
100
AcDbEntity
  8
0
  6
SLD-Solid
 62
     7
370
    15
100
AcDbLine
 10
458.8670501017
 20
510.5487099644
 30
0.0
 11
480.0670513415
 21
510.5487099644
 31
0.0
  0
LINE
  5
251
330
1F
100
AcDbEntity
  8
0
  6
SLD-Solid
 62
     7
370
    15
100
AcDbLine
 10
458.8670501017
 20
1410.5487159249
 30
0.0
 11
480.0670513415
 21
1410.5487159249
 31
0.0
  0
LINE
  5
252
330
1F
100
AcDbEntity
  8
0
  6
SLD-Solid
 62
     7
370
    15
100
AcDbLine
 10
482.1170636916
 20
1410.5487159249
 30
0.0
 11
483.3670624995
 21
1410.5487159249
 31
0.0
  0
LINE
  5
253
330
1F
100
AcDbEntity
  8
0
  6
SLD-Solid
 62
     7
370
    15
100
AcDbLine
 10
482.1170636916
 20
510.5487099644
 30
0.0
 11
483.3670624995
 21
510.5487099644
 31
0.0
  0
LINE
  5
254
330
1F
100
AcDbEntity
  8
0
  6
SLD-Solid
 62
     7
370
    15
100
AcDbLine
 10
483.3670624995
 20
1410.5487159249
 30
0.0
 11
505.5670508647
 21
1410.5487159249
 31
0.0
  0
LINE
  5
255
330
1F
100
AcDbEntity
  8
0
  6
SLD-Solid
 62
     7
370
    15
100
AcDbLine
 10
483.3670624995
 20
510.5487099644
 30
0.0
 11
505.5670508647
 21
510.5487099644
 31
0.0
  0
LINE
  5
256
330
1F
100
AcDbEntity
  8
0
  6
SLD-Solid
 62
     7
370
    15
100
AcDbLine
 10
505.5670508647
 20
1410.5487159249
 30
0.0
 11
507.6170632147
 21
1410.5487159249
 31
0.0
  0
LINE
  5
257
330
1F
100
AcDbEntity
  8
0
  6
SLD-Solid
 62
     7
370
    15
100
AcDbLine
 10
507.6170632147
 20
1410.5487159249
 30
0.0
 11
507.6170632147
 21
1409.5487287995
 31
0.0
  0
LINE
  5
258
330
1F
100
AcDbEntity
  8
0
  6
SLD-Solid
 62
     7
370
    15
100
AcDbLine
 10
507.6170632147
 20
511.5487268921
 30
0.0
 11
507.6170632147
 21
510.5487099644
 31
0.0
  0
LINE
  5
259
330
1F
100
AcDbEntity
  8
0
  6
SLD-Solid
 62
     7
370
    15
100
AcDbLine
 10
505.5670508647
 20
510.5487099644
 30
0.0
 11
507.6170632147
 21
510.5487099644
 31
0.0
  0
LINE
  5
25A
330
1F
100
AcDbEntity
  8
0
  6
SLD-Solid
 62
     7
370
    15
100
AcDbLine
 10
1027.8270611071
 20
510.5487099644
 30
0.0
 11
1024.6170529627
 21
510.5487099644
 31
0.0
  0
LINE
  5
25B
330
1F
100
AcDbEntity
  8
0
  6
SLD-Solid
 62
     7
370
    15
100
AcDbLine
 10
509.6170672679
 20
510.5487099644
 30
0.0
 11
507.6170632147
 21
510.5487099644
 31
0.0
  0
LINE
  5
25C
330
1F
100
AcDbEntity
  8
0
  6
SLD-Solid
 62
     7
370
    15
100
AcDbLine
 10
507.6170632147
 20
1410.5487159249
 30
0.0
 11
509.6170672679
 21
1410.5487159249
 31
0.0
  0
LINE
  5
25D
330
1F
100
AcDbEntity
  8
0
  6
SLD-Solid
 62
     7
370
    15
100
AcDbLine
 10
1024.6170529627
 20
1410.5487159249
 30
0.0
 11
1027.8270611071
 21
1410.5487159249
 31
0.0
  0
LINE
  5
25E
330
1F
100
AcDbEntity
  8
0
  6
SLD-Solid
 62
     7
370
    15
100
AcDbLine
 10
438.287533214
 20
1359.2487267014
 30
0.0
 11
412.3670527243
 21
1359.2487267014
 31
0.0
  0
LINE
  5
25F
330
1F
100
AcDbEntity
  8
0
  6
SLD-Solid
 62
     7
370
    15
100
AcDbLine
 10
438.287533214
 20
1358.0487063881
 30
0.0
 11
412.3670527243
 21
1358.0487063881
 31
0.0
  0
LINE
  5
260
330
1F
100
AcDbEntity
  8
0
  6
SLD-Solid
 62
     7
370
    15
100
AcDbLine
 10
438.287533214
 20
1331.0487261769
 30
0.0
 11
412.3670527243
 21
1331.0487261769
 31
0.0
  0
LINE
  5
261
330
1F
100
AcDbEntity
  8
0
  6
SLD-Solid
 62
     7
370
    15
100
AcDbLine
 10
438.287533214
 20
1329.8487058636
 30
0.0
 11
412.3670527243
 21
1329.8487058636
 31
0.0
  0
ARC
  5
262
330
1F
100
AcDbEntity
  8
0
  6
SLD-Solid
 62
     7
370
    15
100
AcDbCircle
 10
412.3670560085
 20
1356.7987145251
 30
0.0
 40
2.450000000000045
100
AcDbArc
 50
90.0
 51
162.7494449906
  0
ARC
  5
263
330
1F
100
AcDbEntity
  8
0
  6
SLD-Solid
 62
     7
370
    15
100
AcDbCircle
 10
412.3670560085
 20
1356.7987145251
 30
0.0
 40
1.25
100
AcDbArc
 50
90.0
 51
180.0
  0
LINE
  5
264
330
1F
100
AcDbEntity
  8
0
  6
SLD-Solid
 62
     7
370
    15
100
AcDbLine
 10
411.1170539164
 20
1356.7987075802
 30
0.0
 11
411.1170539164
 21
1332.2987249848
 31
0.0
  0
ARC
  5
265
330
1F
100
AcDbEntity
  8
0
  6
SLD-Solid
 62
     7
370
    15
100
AcDbCircle
 10
412.3670560085
 20
1332.2987145251
 30
0.0
 40
1.250000000000057
100
AcDbArc
 50
180.0
 51
270.0
  0
ARC
  5
266
330
1F
100
AcDbEntity
  8
0
  6
SLD-Solid
 62
     7
370
    15
100
AcDbCircle
 10
412.3670560085
 20
1332.2987145251
 30
0.0
 40
2.450000000000045
100
AcDbArc
 50
197.2505550097
 51
270.0
  0
LINE
  5
267
330
1F
100
AcDbEntity
  8
0
  6
SLD-Solid
 62
     7
370
    15
100
AcDbLine
 10
438.287533214
 20
563.0487195011
 30
0.0
 11
412.3670527243
 21
563.0487195011
 31
0.0
  0
LINE
  5
268
330
1F
100
AcDbEntity
  8
0
  6
SLD-Solid
 62
     7
370
    15
100
AcDbLine
 10
438.287533214
 20
561.8487289902
 30
0.0
 11
412.3670527243
 21
561.8487289902
 31
0.0
  0
LINE
  5
269
330
1F
100
AcDbEntity
  8
0
  6
SLD-Solid
 62
     7
370
    15
100
AcDbLine
 10
411.1170539164
 20
564.298718309
 30
0.0
 11
411.1170539164
 21
588.7987009045
 31
0.0
  0
ARC
  5
26A
330
1F
100
AcDbEntity
  8
0
  6
SLD-Solid
 62
     7
370
    15
100
AcDbCircle
 10
412.3670560085
 20
564.2987145251
 30
0.0
 40
1.25
100
AcDbArc
 50
180.0
 51
270.0
  0
ARC
  5
26B
330
1F
100
AcDbEntity
  8
0
  6
SLD-Solid
 62
     7
370
    15
100
AcDbCircle
 10
412.3670560085
 20
564.2987145251
 30
0.0
 40
2.449999999999932
100
AcDbArc
 50
197.2505550125
 51
270.0
  0
ARC
  5
26C
330
1F
100
AcDbEntity
  8
0
  6
SLD-Solid
 62
     7
370
    15
100
AcDbCircle
 10
412.3670560085
 20
588.7987145251
 30
0.0
 40
2.450000000000017
100
AcDbArc
 50
90.0
 51
162.7494449874
  0
ARC
  5
26D
330
1F
100
AcDbEntity
  8
0
  6
SLD-Solid
 62
     7
370
    15
100
AcDbCircle
 10
412.3670560085
 20
588.7987145251
 30
0.0
 40
1.250000000000114
100
AcDbArc
 50
90.0
 51
180.0
  0
LINE
  5
26E
330
1F
100
AcDbEntity
  8
0
  6
SLD-Solid
 62
     7
370
    15
100
AcDbLine
 10
412.3670527243
 20
591.2487200257
 30
0.0
 11
438.287533214
 21
591.2487200257
 31
0.0
  0
LINE
  5
26F
330
1F
100
AcDbEntity
  8
0
  6
SLD-Solid
 62
     7
370
    15
100
AcDbLine
 10
412.3670527243
 20
590.0486997124
 30
0.0
 11
438.287533214
 21
590.0486997124
 31
0.0
  0
LINE
  5
270
330
1F
100
AcDbEntity
  8
0
  6
SLD-Solid
 62
     7
370
    15
100
AcDbLine
 10
417.3170694613
 20
1145.5487153288
 30
0.0
 11
417.3170694613
 21
1119.2112854477
 31
0.0
  0
LINE
  5
271
330
1F
100
AcDbEntity
  8
0
  6
SLD-Solid
 62
     7
370
    15
100
AcDbLine
 10
417.3170694613
 20
1109.1022929903
 30
0.0
 11
417.3170694613
 21
1060.5487144347
 31
0.0
  0
LINE
  5
272
330
1F
100
AcDbEntity
  8
0
  6
SLD-Solid
 62
     7
370
    15
100
AcDbLine
 10
417.3170694613
 20
1009.1022877749
 30
0.0
 11
417.3170694613
 21
919.2112824675
 31
0.0
  0
LINE
  5
273
330
1F
100
AcDbEntity
  8
0
  6
SLD-Solid
 62
     7
370
    15
100
AcDbLine
 10
417.3170694613
 20
860.5487114545
 30
0.0
 11
417.3170694613
 21
819.2112884279
 31
0.0
  0
LINE
  5
274
330
1F
100
AcDbEntity
  8
0
  6
SLD-Solid
 62
     7
370
    15
100
AcDbLine
 10
417.3170694613
 20
809.1022810694
 30
0.0
 11
417.3170694613
 21
775.5487105604
 31
0.0
  0
LINE
  5
275
330
1F
100
AcDbEntity
  8
0
  6
SLD-Solid
 62
     7
370
    15
100
AcDbLine
 10
412.1170708441
 20
1009.0146577712
 30
0.0
 11
412.1170708441
 21
921.9980268534
 31
0.0
  0
LINE
  5
276
330
1F
100
AcDbEntity
  8
0
  6
SLD-Solid
 62
     7
370
    15
100
AcDbLine
 10
438.287533214
 20
860.5487114545
 30
0.0
 11
412.1170708441
 21
860.5487114545
 31
0.0
  0
LINE
  5
277
330
1F
100
AcDbEntity
  8
0
  6
SLD-Solid
 62
     7
370
    15
100
AcDbLine
 10
412.1170708441
 20
860.5487114545
 30
0.0
 11
412.1170708441
 21
821.9980290886
 31
0.0
  0
LINE
  5
278
330
1F
100
AcDbEntity
  8
0
  6
SLD-Solid
 62
     7
370
    15
100
AcDbLine
 10
412.1170708441
 20
809.0146622416
 30
0.0
 11
412.1170708441
 21
775.5487105604
 31
0.0
  0
LINE
  5
279
330
1F
100
AcDbEntity
  8
0
  6
SLD-Solid
 62
     7
370
    15
100
AcDbLine
 10
412.1170708441
 20
775.5487105604
 30
0.0
 11
438.287533214
 21
775.5487105604
 31
0.0
  0
ARC
  5
27A
330
1F
100
AcDbEntity
  8
0
  6
SLD-Solid
 62
     7
370
    15
100
AcDbCircle
 10
428.1170560085
 20
1297.5487145251
 30
0.0
 40
10.50000000000006
100
AcDbArc
 50
122.5970190441
 51
345.607746137
  0
LINE
  5
27B
330
1F
100
AcDbEntity
  8
0
  6
SLD-Solid
 62
     7
370
    15
100
AcDbLine
 10
412.1170708441
 20
1060.5487144347
 30
0.0
 11
438.287533214
 21
1060.5487144347
 31
0.0
  0
LINE
  5
27C
330
1F
100
AcDbEntity
  8
0
  6
SLD-Solid
 62
     7
370
    15
100
AcDbLine
 10
438.287533214
 20
1145.5487153288
 30
0.0
 11
412.1170708441
 21
1145.5487153288
 31
0.0
  0
LINE
  5
27D
330
1F
100
AcDbEntity
  8
0
  6
SLD-Solid
 62
     7
370
    15
100
AcDbLine
 10
412.1170708441
 20
1145.5487153288
 30
0.0
 11
412.1170708441
 21
1121.9980261084
 31
0.0
  0
LINE
  5
27E
330
1F
100
AcDbEntity
  8
0
  6
SLD-Solid
 62
     7
370
    15
100
AcDbLine
 10
412.1170708441
 20
1109.0146592613
 30
0.0
 11
412.1170708441
 21
1060.5487144347
 31
0.0
  0
LINE
  5
27F
330
1F
100
AcDbEntity
  8
0
  6
SLD-Solid
 62
     7
370
    15
100
AcDbLine
 10
434.1170558238
 20
1288.9318755623
 30
0.0
 11
434.1170558238
 21
1300.2585760113
 31
0.0
  0
LINE
  5
280
330
1F
100
AcDbEntity
  8
0
  6
SLD-Center
 62
     7
370
     0
100
AcDbLine
 10
339.5023892635
 20
1376.5487145251
 30
0.0
 11
512.9672780861
 21
1376.5487145251
 31
0.0
  0
LINE
  5
281
330
1F
100
AcDbEntity
  8
0
  6
SLD-Center
 62
     7
370
     0
100
AcDbLine
 10
1189.5404434476
 20
516.5487145251
 30
0.0
 11
1591.4170560085
 21
516.5487145251
 31
0.0
  0
LINE
  5
282
330
1F
100
AcDbEntity
  8
0
  6
SLD-Center
 62
     7
370
     0
100
AcDbLine
 10
1189.5404434476
 20
1404.5487145251
 30
0.0
 11
1591.4170560085
 21
1404.5487145251
 31
0.0
  0
LINE
  5
283
330
1F
100
AcDbEntity
  8
0
  6
SLD-Solid
 62
     7
370
     0
100
AcDbLine
 10
1591.4170560085
 20
1404.5487145251
 30
0.0
 11
1591.4170560085
 21
1352.7487145251
 31
0.0
  0
LINE
  5
284
330
1F
100
AcDbEntity
  8
0
  6
SLD-Center
 62
     7
370
     0
100
AcDbLine
 10
1591.4170560085
 20
1352.7487145251
 30
0.0
 11
1200.0807371854
 21
1352.7487145251
 31
0.0
  0
LINE
  5
285
330
1F
100
AcDbEntity
  8
0
  6
SLD-Solid
 62
     7
370
     0
100
AcDbLine
 10
1591.4170560085
 20
516.5487145251
 30
0.0
 11
1591.4170560085
 21
568.3487145251
 31
0.0
  0
LINE
  5
286
330
1F
100
AcDbEntity
  8
0
  6
SLD-Center
 62
     7
370
     0
100
AcDbLine
 10
1591.4170560085
 20
568.3487145251
 30
0.0
 11
1200.0807371854
 21
568.3487145251
 31
0.0
  0
ARC
  5
287
330
1F
100
AcDbEntity
  8
0
  6
SLD-Center
 62
     7
370
     0
100
AcDbCircle
 10
1161.4170560085
 20
1394.5487145251
 30
0.0
 40
432.0268973108041
100
AcDbArc
 50
273.518659395
 51
354.4477622919
  0
ARC
  5
288
330
1F
100
AcDbEntity
  8
0
  6
SLD-Center
 62
     7
370
     0
100
AcDbCircle
 10
1161.4170560085
 20
526.5487145251
 30
0.0
 40
432.0268973108042
100
AcDbArc
 50
5.5522377081
 51
86.481340605
  0
ENDSEC
  0
SECTION
  2
OBJECTS
  0
DICTIONARY
  5
C
330
0
100
AcDbDictionary
281
     1
  3
ACAD_GROUP
350
D
  3
ACAD_LAYOUT
350
1A
  3
ACAD_MLINESTYLE
350
17
  3
ACAD_PLOTSETTINGS
350
19
  3
ACAD_PLOTSTYLENAME
350
E
  0
DICTIONARY
  5
D
102
{ACAD_REACTORS
330
C
102
}
330
C
100
AcDbDictionary
281
     1
  0
DICTIONARY
  5
1A
102
{ACAD_REACTORS
330
C
102
}
330
C
100
AcDbDictionary
281
     1
  3
Layout1
350
1E
  3
Layout2
350
26
  3
Model
350
22
  0
DICTIONARY
  5
17
102
{ACAD_REACTORS
330
C
102
}
330
C
100
AcDbDictionary
281
     1
  3
Standard
350
18
  0
DICTIONARY
  5
19
102
{ACAD_REACTORS
330
C
102
}
330
C
100
AcDbDictionary
281
     1
  0
ACDBDICTIONARYWDFLT
  5
E
102
{ACAD_REACTORS
330
C
102
}
330
C
100
AcDbDictionary
281
     1
  3
Normal
350
F
100
AcDbDictionaryWithDefault
340
F
  0
LAYOUT
  5
1E
102
{ACAD_REACTORS
330
1A
102
}
330
1A
100
AcDbPlotSettings
  1

  2
none_device
  4

  6

 40
0.0
 41
0.0
 42
0.0
 43
0.0
 44
0.0
 45
0.0
 46
0.0
 47
0.0
 48
0.0
 49
0.0
140
0.0
141
0.0
142
1.0
143
1.0
 70
   688
 72
     0
 73
     0
 74
     5
  7

 75
    16
147
1.0
148
0.0
149
0.0
100
AcDbLayout
  1
Layout1
 70
     1
 71
     1
 10
0.0
 20
0.0
 11
420.0
 21
297.0
 12
0.0
 22
0.0
 32
0.0
 14
1.0000000000E+20
 24
1.0000000000E+20
 34
1.0000000000E+20
 15
-1.0000000000E+20
 25
-1.0000000000E+20
 35
-1.0000000000E+20
146
0.0
 13
0.0
 23
0.0
 33
0.0
 16
1.0
 26
0.0
 36
0.0
 17
0.0
 27
1.0
 37
0.0
 76
     0
330
1B
  0
LAYOUT
  5
26
102
{ACAD_REACTORS
330
1A
102
}
330
1A
100
AcDbPlotSettings
  1

  2
none_device
  4

  6

 40
0.0
 41
0.0
 42
0.0
 43
0.0
 44
0.0
 45
0.0
 46
0.0
 47
0.0
 48
0.0
 49
0.0
140
0.0
141
0.0
142
1.0
143
1.0
 70
   688
 72
     0
 73
     0
 74
     5
  7

 75
    16
147
1.0
148
0.0
149
0.0
100
AcDbLayout
  1
Layout2
 70
     1
 71
     2
 10
0.0
 20
0.0
 11
0.0
 21
0.0
 12
0.0
 22
0.0
 32
0.0
 14
0.0
 24
0.0
 34
0.0
 15
0.0
 25
0.0
 35
0.0
146
0.0
 13
0.0
 23
0.0
 33
0.0
 16
1.0
 26
0.0
 36
0.0
 17
0.0
 27
1.0
 37
0.0
 76
     0
330
23
  0
LAYOUT
  5
22
102
{ACAD_REACTORS
330
1A
102
}
330
1A
100
AcDbPlotSettings
  1

  2
none_device
  4

  6

 40
0.0
 41
0.0
 42
0.0
 43
0.0
 44
0.0
 45
0.0
 46
0.0
 47
0.0
 48
0.0
 49
0.0
140
0.0
141
0.0
142
1.0
143
1.0
 70
  1712
 72
     0
 73
     0
 74
     0
  7

 75
     0
147
1.0
148
0.0
149
0.0
100
AcDbLayout
  1
Model
 70
     1
 71
     0
 10
0.0
 20
0.0
 11
2000.0
 21
2000.0
 12
0.0
 22
0.0
 32
0.0
 14
0.0
 24
0.0
 34
0.0
 15
2000.0
 25
2000.0
 35
0.0
146
0.0
 13
0.0
 23
0.0
 33
0.0
 16
1.0
 26
0.0
 36
0.0
 17
0.0
 27
1.0
 37
0.0
 76
     0
330
1F
331
29
  0
MLINESTYLE
  5
18
102
{ACAD_REACTORS
330
17
102
}
330
17
100
AcDbMlineStyle
  2
Standard
 70
     0
  3

 62
   256
 51
90.0
 52
90.0
 71
     2
 49
0.5
 62
   256
  6
BYLAYER
 49
-0.5
 62
   256
  6
BYLAYER
  0
ACDBPLACEHOLDER
  5
F
102
{ACAD_REACTORS
330
E
102
}
330
E
  0
ENDSEC
  0
EOF
