  0
SECTION
  2
HEADER
  9
$ACADVER
  1
AC1015
  9
$ACADMAINTVER
 70
     6
  9
$DWGCODEPAGE
  3
ANSI_1252
  9
$INSBASE
 10
0.0
 20
0.0
 30
0.0
  9
$EXTMIN
 10
0.0
 20
0.0
 30
0.0
  9
$EXTMAX
 10
1500.0
 20
1500.0
 30
0.0
  9
$LIMMIN
 10
0.0
 20
0.0
  9
$LIMMAX
 10
1500.0
 20
1500.0
  9
$ORTHOMODE
 70
     0
  9
$REGENMODE
 70
     1
  9
$FILLMODE
 70
     1
  9
$QTEXTMODE
 70
     0
  9
$MIRRTEXT
 70
     1
  9
$LTSCALE
 40
1.0
  9
$ATTMODE
 70
     1
  9
$TEXTSIZE
 40
3.5
  9
$TRACEWID
 40
1.0
  9
$TEXTSTYLE
  7
STANDARD
  9
$CLAYER
  8
0
  9
$CELTYPE
  6
ByLayer
  9
$CECOLOR
 62
   256
  9
$CELTSCALE
 40
1.0
  9
$DISPSILH
 70
     0
  9
$DIMSCALE
 40
1.0
  9
$DIMASZ
 40
3.302
  9
$DIMEXO
 40
1.0
  9
$DIMDLI
 40
3.75
  9
$DIMRND
 40
0.0
  9
$DIMDLE
 40
0.0
  9
$DIMEXE
 40
1.0
  9
$DIMTP
 40
0.0
  9
$DIMTM
 40
0.0
  9
$DIMTXT
 40
3.5
  9
$DIMCEN
 40
2.5
  9
$DIMTSZ
 40
0.0
  9
$DIMTOL
 70
     0
  9
$DIMLIM
 70
     0
  9
$DIMTIH
 70
     1
  9
$DIMTOH
 70
     1
  9
$DIMSE1
 70
     0
  9
$DIMSE2
 70
     0
  9
$DIMTAD
 70
     1
  9
$DIMZIN
 70
     0
  9
$DIMBLK
  1

  9
$DIMASO
 70
     1
  9
$DIMSHO
 70
     1
  9
$DIMPOST
  1

  9
$DIMAPOST
  1

  9
$DIMALT
 70
     0
  9
$DIMALTD
 70
     3
  9
$DIMALTF
 40
0.0393700787
  9
$DIMLFAC
 40
1.0
  9
$DIMTOFL
 70
     1
  9
$DIMTVP
 40
0.0
  9
$DIMTIX
 70
     0
  9
$DIMSOXD
 70
     0
  9
$DIMSAH
 70
     0
  9
$DIMBLK1
  1

  9
$DIMBLK2
  1

  9
$DIMSTYLE
  2
ISO-25
  9
$DIMCLRD
 70
     0
  9
$DIMCLRE
 70
     0
  9
$DIMCLRT
 70
     0
  9
$DIMTFAC
 40
1.0
  9
$DIMGAP
 40
1.524
  9
$DIMJUST
 70
     0
  9
$DIMSD1
 70
     0
  9
$DIMSD2
 70
     0
  9
$DIMTOLJ
 70
     0
  9
$DIMTZIN
 70
     0
  9
$DIMALTZ
 70
     0
  9
$DIMALTTZ
 70
     0
  9
$DIMUPT
 70
     0
  9
$DIMDEC
 70
     1
  9
$DIMTDEC
 70
     1
  9
$DIMALTU
 70
     2
  9
$DIMALTTD
 70
     3
  9
$DIMTXSTY
  7
STANDARD
  9
$DIMAUNIT
 70
     0
  9
$DIMADEC
 70
     1
  9
$DIMALTRND
 40
0.0
  9
$DIMAZIN
 70
     0
  9
$DIMDSEP
 70
    44
  9
$DIMATFIT
 70
     3
  9
$DIMFRAC
 70
     0
  9
$DIMLDRBLK
  1

  9
$DIMLUNIT
 70
     2
  9
$DIMLWD
 70
    -2
  9
$DIMLWE
 70
    -2
  9
$DIMTMOVE
 70
     0
  9
$LUNITS
 70
     2
  9
$LUPREC
 70
     1
  9
$SKETCHINC
 40
1.0
  9
$FILLETRAD
 40
10.0
  9
$AUNITS
 70
     0
  9
$AUPREC
 70
     1
  9
$MENU
  1
.
  9
$ELEVATION
 40
0.0
  9
$PELEVATION
 40
0.0
  9
$THICKNESS
 40
0.0
  9
$LIMCHECK
 70
     0
  9
$CHAMFERA
 40
10.0
  9
$CHAMFERB
 40
10.0
  9
$CHAMFERC
 40
20.0
  9
$CHAMFERD
 40
0.0
  9
$SKPOLY
 70
     0
  9
$TDCREATE
 40
2455642.297183912
  9
$TDUCREATE
 40
2455642.297183912
  9
$TDUPDATE
 40
2455642.297183923
  9
$TDUUPDATE
 40
2455642.297183923
  9
$TDINDWG
 40
0.0000000116
  9
$TDUSRTIMER
 40
0.0000000116
  9
$USRTIMER
 70
     1
  9
$ANGBASE
 50
0.0
  9
$ANGDIR
 70
     0
  9
$PDMODE
 70
     0
  9
$PDSIZE
 40
-1.0
  9
$PLINEWID
 40
0.0
  9
$SPLFRAME
 70
     0
  9
$SPLINETYPE
 70
     6
  9
$SPLINESEGS
 70
     8
  9
$HANDSEED
  5
3AB
  9
$SURFTAB1
 70
     6
  9
$SURFTAB2
 70
     6
  9
$SURFTYPE
 70
     6
  9
$SURFU
 70
     6
  9
$SURFV
 70
     6
  9
$UCSBASE
  2

  9
$UCSNAME
  2

  9
$UCSORG
 10
0.0
 20
0.0
 30
0.0
  9
$UCSXDIR
 10
1.0
 20
0.0
 30
0.0
  9
$UCSYDIR
 10
0.0
 20
1.0
 30
0.0
  9
$UCSORTHOREF
  2

  9
$UCSORTHOVIEW
 70
     0
  9
$UCSORGTOP
 10
0.0
 20
0.0
 30
0.0
  9
$UCSORGBOTTOM
 10
0.0
 20
0.0
 30
0.0
  9
$UCSORGLEFT
 10
0.0
 20
0.0
 30
0.0
  9
$UCSORGRIGHT
 10
0.0
 20
0.0
 30
0.0
  9
$UCSORGFRONT
 10
0.0
 20
0.0
 30
0.0
  9
$UCSORGBACK
 10
0.0
 20
0.0
 30
0.0
  9
$PUCSBASE
  2

  9
$PUCSNAME
  2

  9
$PUCSORG
 10
0.0
 20
0.0
 30
0.0
  9
$PUCSXDIR
 10
1.0
 20
0.0
 30
0.0
  9
$PUCSYDIR
 10
0.0
 20
1.0
 30
0.0
  9
$PUCSORTHOREF
  2

  9
$PUCSORTHOVIEW
 70
     0
  9
$PUCSORGTOP
 10
0.0
 20
0.0
 30
0.0
  9
$PUCSORGBOTTOM
 10
0.0
 20
0.0
 30
0.0
  9
$PUCSORGLEFT
 10
0.0
 20
0.0
 30
0.0
  9
$PUCSORGRIGHT
 10
0.0
 20
0.0
 30
0.0
  9
$PUCSORGFRONT
 10
0.0
 20
0.0
 30
0.0
  9
$PUCSORGBACK
 10
0.0
 20
0.0
 30
0.0
  9
$USERI1
 70
     0
  9
$USERI2
 70
     0
  9
$USERI3
 70
     0
  9
$USERI4
 70
     0
  9
$USERI5
 70
     0
  9
$USERR1
 40
0.0
  9
$USERR2
 40
0.0
  9
$USERR3
 40
0.0
  9
$USERR4
 40
0.0
  9
$USERR5
 40
0.0
  9
$WORLDVIEW
 70
     1
  9
$SHADEDGE
 70
     3
  9
$SHADEDIF
 70
    70
  9
$TILEMODE
 70
     1
  9
$MAXACTVP
 70
    64
  9
$PINSBASE
 10
0.0
 20
0.0
 30
0.0
  9
$PLIMCHECK
 70
     0
  9
$PEXTMIN
 10
1.0000000000E+20
 20
1.0000000000E+20
 30
1.0000000000E+20
  9
$PEXTMAX
 10
-1.0000000000E+20
 20
-1.0000000000E+20
 30
-1.0000000000E+20
  9
$PLIMMIN
 10
0.0
 20
0.0
  9
$PLIMMAX
 10
420.0
 20
297.0
  9
$UNITMODE
 70
     0
  9
$VISRETAIN
 70
     1
  9
$PLINEGEN
 70
     0
  9
$PSLTSCALE
 70
     1
  9
$TREEDEPTH
 70
  3020
  9
$CMLSTYLE
  2
Standard
  9
$CMLJUST
 70
     0
  9
$CMLSCALE
 40
20.0
  9
$PROXYGRAPHICS
 70
     1
  9
$MEASUREMENT
 70
     1
  9
$CELWEIGHT
370
    -1
  9
$ENDCAPS
280
     0
  9
$JOINSTYLE
280
     0
  9
$LWDISPLAY
290
     1
  9
$INSUNITS
 70
     4
  9
$HYPERLINKBASE
  1

  9
$STYLESHEET
  1

  9
$XEDIT
290
     1
  9
$CEPSNTYPE
380
     0
  9
$PSTYLEMODE
290
     1
  9
$FINGERPRINTGUID
  2
{64379F55-2C12-4F68-9DD0-F7A3D4B5EFF1}
  9
$VERSIONGUID
  2
{FAEB1C32-E019-11D5-929B-00C0DF256EC4}
  9
$EXTNAMES
290
     1
  9
$PSVPSCALE
 40
0.0
  9
$OLESTARTUP
290
     0
  0
ENDSEC
  0
SECTION
  2
CLASSES
  0
CLASS
  1
ACDBDICTIONARYWDFLT
  2
AcDbDictionaryWithDefault
  3
ObjectDBX Classes
 90
        0
280
     0
281
     0
  0
CLASS
  1
VISUALSTYLE
  2
AcDbVisualStyle
  3
ObjectDBX Classes
 90
     4095
280
     0
281
     0
  0
CLASS
  1
MATERIAL
  2
AcDbMaterial
  3
ObjectDBX Classes
 90
     1153
280
     0
281
     0
  0
CLASS
  1
ACDBPLACEHOLDER
  2
AcDbPlaceHolder
  3
ObjectDBX Classes
 90
        0
280
     0
281
     0
  0
CLASS
  1
LAYOUT
  2
AcDbLayout
  3
ObjectDBX Classes
 90
        0
280
     0
281
     0
  0
ENDSEC
  0
SECTION
  2
TABLES
  0
TABLE
  2
VPORT
  5
8
330
0
100
AcDbSymbolTable
 70
     1
  0
VPORT
  5
29
330
8
100
AcDbSymbolTableRecord
100
AcDbViewportTableRecord
  2
*Active
 70
     0
 10
0.0
 20
0.0
 11
1.0
 21
1.0
 12
750.0
 22
750.0
 13
0.0
 23
0.0
 14
10.0
 24
10.0
 15
10.0
 25
10.0
 16
0.0
 26
0.0
 36
1.0
 17
0.0
 27
0.0
 37
0.0
 40
1500.0
 41
1.0
 42
50.0
 43
0.0
 44
0.0
 50
0.0
 51
0.0
 71
     0
 72
  2000
 73
     1
 74
     3
 75
     0
 76
     0
 77
     0
 78
     0
281
     0
 65
     1
110
0.0
120
0.0
130
0.0
111
1.0
121
0.0
131
0.0
112
0.0
122
1.0
132
0.0
 79
     0
146
0.0
  0
ENDTAB
  0
TABLE
  2
LTYPE
  5
5
330
0
100
AcDbSymbolTable
 70
     8
  0
LTYPE
  5
14
330
5
100
AcDbSymbolTableRecord
100
AcDbLinetypeTableRecord
  2
ByBlock
 70
     0
  3

 72
    65
 73
     0
 40
0.0
  0
LTYPE
  5
15
330
5
100
AcDbSymbolTableRecord
100
AcDbLinetypeTableRecord
  2
ByLayer
 70
     0
  3

 72
    65
 73
     0
 40
0.0
  0
LTYPE
  5
16
330
5
100
AcDbSymbolTableRecord
100
AcDbLinetypeTableRecord
  2
Continuous
 70
     0
  3
Solid line
 72
    65
 73
     0
 40
0.0
  0
LTYPE
  5
3F
330
5
100
AcDbSymbolTableRecord
100
AcDbLinetypeTableRecord
  2
SLD-Solid
 70
     0
  3
SolidWorks Line Style
 72
    65
 73
     0
 40
0.0
  0
LTYPE
  5
40
330
5
100
AcDbSymbolTableRecord
100
AcDbLinetypeTableRecord
  2
SLD-Dashed
 70
     0
  3
SolidWorks Line Style
 72
    65
 73
     2
 40
1.905
 49
1.27
 74
     0
 49
-0.635
 74
     0
  0
LTYPE
  5
41
330
5
100
AcDbSymbolTableRecord
100
AcDbLinetypeTableRecord
  2
SLD-Phantom
 70
     0
  3
SolidWorks Line Style
 72
    65
 73
     6
 40
12.7
 49
6.35
 74
     0
 49
-1.27
 74
     0
 49
1.27
 74
     0
 49
-1.27
 74
     0
 49
1.27
 74
     0
 49
-1.27
 74
     0
  0
LTYPE
  5
42
330
5
100
AcDbSymbolTableRecord
100
AcDbLinetypeTableRecord
  2
SLD-Chain
 70
     0
  3
SolidWorks Line Style
 72
    65
 73
     4
 40
10.16
 49
6.35
 74
     0
 49
-1.27
 74
     0
 49
1.27
 74
     0
 49
-1.27
 74
     0
  0
LTYPE
  5
43
330
5
100
AcDbSymbolTableRecord
100
AcDbLinetypeTableRecord
  2
SLD-Center
 70
     0
  3
SolidWorks Line Style
 72
    65
 73
     4
 40
19.05
 49
15.24
 74
     0
 49
-1.27
 74
     0
 49
1.27
 74
     0
 49
-1.27
 74
     0
  0
LTYPE
  5
44
330
5
100
AcDbSymbolTableRecord
100
AcDbLinetypeTableRecord
  2
SLD-Stitch
 70
     0
  3
SolidWorks Line Style
 72
    65
 73
     2
 40
0.635
 49
0.0
 74
     0
 49
-0.635
 74
     0
  0
LTYPE
  5
45
330
5
100
AcDbSymbolTableRecord
100
AcDbLinetypeTableRecord
  2
SLD-Thin-Thick-Chain
 70
     0
  3
SolidWorks Line Style
 72
    65
 73
     4
 40
10.16
 49
6.35
 74
     0
 49
-1.27
 74
     0
 49
1.27
 74
     0
 49
-1.27
 74
     0
  0
ENDTAB
  0
TABLE
  2
LAYER
  5
2
330
0
100
AcDbSymbolTable
 70
     4
  0
LAYER
  5
10
330
2
100
AcDbSymbolTableRecord
100
AcDbLayerTableRecord
  2
0
 70
     0
 62
     7
  6
Continuous
370
    -3
390
F
  0
LAYER
  5
46
330
2
100
AcDbSymbolTableRecord
100
AcDbLayerTableRecord
  2
FORMAT
 70
     0
 62
     7
  6
SLD-Solid
370
    -3
390
F
  0
LAYER
  5
47
330
2
100
AcDbSymbolTableRecord
100
AcDbLayerTableRecord
  2
SLD-0
 70
     0
 62
     1
  6
SLD-Solid
370
    -3
390
F
  0
LAYER
  5
48
330
2
100
AcDbSymbolTableRecord
100
AcDbLayerTableRecord
  2
WATERMARK
 70
     0
 62
    20
  6
SLD-Solid
370
    -3
390
F
  0
ENDTAB
  0
TABLE
  2
STYLE
  5
3
330
0
100
AcDbSymbolTable
 70
     1
  0
STYLE
  5
11
330
3
100
AcDbSymbolTableRecord
100
AcDbTextStyleTableRecord
  2
STANDARD
 70
     0
 40
0.0
 41
1.0
 50
0.0
 71
     0
 42
2.5
  3
GOTHIC.TTF
  4

1001
ACAD
1000
CENTURY GOTHIC
1071
       34
  0
ENDTAB
  0
TABLE
  2
VIEW
  5
6
330
0
100
AcDbSymbolTable
 70
     0
  0
ENDTAB
  0
TABLE
  2
UCS
  5
7
330
0
100
AcDbSymbolTable
 70
     0
  0
ENDTAB
  0
TABLE
  2
APPID
  5
9
330
0
100
AcDbSymbolTable
 70
     1
  0
APPID
  5
12
330
9
100
AcDbSymbolTableRecord
100
AcDbRegAppTableRecord
  2
ACAD
 70
     0
  0
ENDTAB
  0
TABLE
  2
DIMSTYLE
  5
A
330
0
100
AcDbSymbolTable
 70
     1
100
AcDbDimStyleTable
  0
DIMSTYLE
105
27
330
A
100
AcDbSymbolTableRecord
100
AcDbDimStyleTableRecord
  2
ISO-25
 70
     0
 41
2.5
 42
0.625
 43
3.75
 44
1.25
 73
     0
 74
     0
 77
     1
 78
     8
140
2.5
141
2.5
143
0.0393700787
147
0.625
171
     3
172
     1
271
     2
272
     2
274
     3
278
    44
283
     0
284
     8
340
11
  0
ENDTAB
  0
TABLE
  2
BLOCK_RECORD
  5
1
330
0
100
AcDbSymbolTable
 70
     1
  0
BLOCK_RECORD
  5
1F
330
1
100
AcDbSymbolTableRecord
100
AcDbBlockTableRecord
  2
*Model_Space
340
22
  0
BLOCK_RECORD
  5
1B
330
1
100
AcDbSymbolTableRecord
100
AcDbBlockTableRecord
  2
*Paper_Space
340
1E
  0
BLOCK_RECORD
  5
23
330
1
100
AcDbSymbolTableRecord
100
AcDbBlockTableRecord
  2
*Paper_Space0
340
26
  0
ENDTAB
  0
ENDSEC
  0
SECTION
  2
BLOCKS
  0
BLOCK
  5
20
330
1F
100
AcDbEntity
  8
0
100
AcDbBlockBegin
  2
*Model_Space
 70
     0
 10
0.0
 20
0.0
 30
0.0
  3
*Model_Space
  1

  0
ENDBLK
  5
21
330
1F
100
AcDbEntity
  8
0
100
AcDbBlockEnd
  0
BLOCK
  5
1C
330
1B
100
AcDbEntity
 67
     1
  8
0
100
AcDbBlockBegin
  2
*Paper_Space
 70
     0
 10
0.0
 20
0.0
 30
0.0
  3
*Paper_Space
  1

  0
ENDBLK
  5
1D
330
1B
100
AcDbEntity
 67
     1
  8
0
100
AcDbBlockEnd
  0
BLOCK
  5
24
330
23
100
AcDbEntity
  8
0
100
AcDbBlockBegin
  2
*Paper_Space0
 70
     0
 10
0.0
 20
0.0
 30
0.0
  3
*Paper_Space0
  1

  0
ENDBLK
  5
25
330
23
100
AcDbEntity
  8
0
100
AcDbBlockEnd
  0
ENDSEC
  0
SECTION
  2
ENTITIES
  0
SPLINE
  5
49
330
1F
100
AcDbEntity
  8
0
  6
SLD-Solid
 62
     7
370
    15
100
AcDbSpline
210
0.0
220
0.0
230
1.0
 70
     8
 71
     3
 72
    13
 73
     9
 74
     0
 42
0.00000001
 43
0.00000001
 40
0.0
 40
0.0
 40
0.0
 40
0.0
 40
0.1537005146057311
 40
0.4677837651292939
 40
0.652264762024313
 40
0.8142558356571928
 40
0.9817880838868628
 40
1.0
 40
1.0
 40
1.0
 40
1.0
 10
285.1140348727992
 20
903.0357543788414
 30
0.0
 10
285.1143988129343
 20
903.028675661215
 30
0.0
 10
285.1155064558535
 20
903.0071317568751
 30
0.0
 10
285.0932393271661
 20
902.966544128685
 30
0.0
 10
285.0311018835292
 20
902.9184407093921
 30
0.0
 10
284.9596317500793
 20
902.890829177852
 30
0.0
 10
284.9009204372957
 20
902.8796586172969
 30
0.0
 10
284.86977598839
 20
902.8815374665255
 30
0.0
 10
284.8667223253432
 20
902.8817216846659
 30
0.0
  0
LINE
  5
4A
330
1F
100
AcDbEntity
  8
0
  6
SLD-Solid
 62
     7
370
    15
100
AcDbLine
 10
284.8664208101
 20
902.8810832251
 30
0.0
 11
279.7664208101
 21
902.8810832251
 31
0.0
  0
ARC
  5
4B
330
1F
100
AcDbEntity
  8
0
  6
SLD-Solid
 62
     7
370
    15
100
AcDbCircle
 10
279.7664208101
 20
902.6310832251
 30
0.0
 40
0.25
100
AcDbArc
 50
90.0
 51
180.0
  0
ARC
  5
4C
330
1F
100
AcDbEntity
  8
0
  6
SLD-Solid
 62
     7
370
    15
100
AcDbCircle
 10
279.7664208101
 20
898.1932620105
 30
0.0
 40
0.2500000000001137
100
AcDbArc
 50
180.0
 51
270.0
  0
LINE
  5
4D
330
1F
100
AcDbEntity
  8
0
  6
SLD-Solid
 62
     7
370
    15
100
AcDbLine
 10
279.7664208101
 20
897.9432620105
 30
0.0
 11
284.8664208101
 21
897.9432620105
 31
0.0
  0
ARC
  5
4E
330
1F
100
AcDbEntity
  8
0
  6
SLD-Solid
 62
     7
370
    15
100
AcDbCircle
 10
286.0664208101
 20
898.9237011205
 30
0.0
 40
0.2500000000001137
100
AcDbArc
 50
301.0756875734
 51
0.0
  0
LINE
  5
4F
330
1F
100
AcDbEntity
  8
0
  6
SLD-Solid
 62
     7
370
    15
100
AcDbLine
 10
284.8664208101
 20
916.8041402306
 30
0.0
 11
279.7664208101
 21
916.8041402306
 31
0.0
  0
ARC
  5
50
330
1F
100
AcDbEntity
  8
0
  6
SLD-Solid
 62
     7
370
    15
100
AcDbCircle
 10
279.7664208101
 20
916.5541402306
 30
0.0
 40
0.2500000000000568
100
AcDbArc
 50
90.0
 51
180.0
  0
SPLINE
  5
51
330
1F
100
AcDbEntity
  8
0
  6
SLD-Solid
 62
     7
370
    15
100
AcDbSpline
210
0.0
220
0.0
230
1.0
 70
     8
 71
     3
 72
    13
 73
     9
 74
     0
 42
0.00000001
 43
0.00000001
 40
0.0
 40
0.0
 40
0.0
 40
0.0
 40
0.1560186113412411
 40
0.4086735129025889
 40
0.5953335874230419
 40
0.7561090603057058
 40
0.924910380960017
 40
1.0
 40
1.0
 40
1.0
 40
1.0
 10
285.1174668641873
 20
910.9297477770377
 30
0.0
 10
285.1172104233688
 20
910.9319660460384
 30
0.0
 10
285.1165387049801
 20
910.9377765565747
 30
0.0
 10
285.1268975475865
 20
910.9608270682317
 30
0.0
 10
285.1726180247076
 20
911.0005835717967
 30
0.0
 10
285.2403925030742
 20
911.0311211722812
 30
0.0
 10
285.3092478637254
 20
911.0477183212735
 30
0.0
 10
285.3529617853508
 20
911.0465720156719
 30
0.0
 10
285.3664205129514
 20
911.0462190888635
 30
0.0
  0
ARC
  5
52
330
1F
100
AcDbEntity
  8
0
  6
SLD-Solid
 62
     7
370
    15
100
AcDbCircle
 10
290.4664208101
 20
911.2981104565
 30
0.0
 40
0.2500000000001137
100
AcDbArc
 50
270.0
 51
0.0
  0
LINE
  5
53
330
1F
100
AcDbEntity
  8
0
  6
SLD-Solid
 62
     7
370
    15
100
AcDbLine
 10
285.3664208101
 20
911.0481104565
 30
0.0
 11
290.4664208101
 21
911.0481104565
 31
0.0
  0
ARC
  5
54
330
1F
100
AcDbEntity
  8
0
  6
SLD-Solid
 62
     7
370
    15
100
AcDbCircle
 10
290.4664208101
 20
916.1242774286
 30
0.0
 40
0.2500000000001137
100
AcDbArc
 50
0.0
 51
90.0
  0
LINE
  5
55
330
1F
100
AcDbEntity
  8
0
  6
SLD-Solid
 62
     7
370
    15
100
AcDbLine
 10
290.4664208101
 20
916.3742774286
 30
0.0
 11
285.3664208101
 21
916.3742774286
 31
0.0
  0
ARC
  5
56
330
1F
100
AcDbEntity
  8
0
  6
SLD-Solid
 62
     7
370
    15
100
AcDbCircle
 10
284.1664208101
 20
915.8237011205
 30
0.0
 40
0.2500000000001137
100
AcDbArc
 50
90.0
 51
180.0
  0
LINE
  5
57
330
1F
100
AcDbEntity
  8
0
  6
SLD-Solid
 62
     7
370
    15
100
AcDbLine
 10
284.4296412228
 20
916.0737011205
 30
0.0
 11
284.1664208101
 21
916.0737011205
 31
0.0
  0
LINE
  5
58
330
1F
100
AcDbEntity
  8
0
  6
SLD-Solid
 62
     7
370
    15
100
AcDbLine
 10
285.9379418269
 20
898.3731248124
 30
0.0
 11
290.4664208101
 21
898.3731248124
 31
0.0
  0
ARC
  5
59
330
1F
100
AcDbEntity
  8
0
  6
SLD-Solid
 62
     7
370
    15
100
AcDbCircle
 10
290.4664208101
 20
898.6231248124
 30
0.0
 40
0.2500000000001137
100
AcDbArc
 50
270.0
 51
0.0
  0
LINE
  5
5A
330
1F
100
AcDbEntity
  8
0
  6
SLD-Solid
 62
     7
370
    15
100
AcDbLine
 10
291.5164208101
 20
912.3737011205
 30
0.0
 11
291.4282146931
 21
912.5264785966
 31
0.0
  0
LINE
  5
5B
330
1F
100
AcDbEntity
  8
0
  6
SLD-Solid
 62
     7
370
    15
100
AcDbLine
 10
286.3164208101
 20
902.3737011205
 30
0.0
 11
286.404626927
 21
902.2209236444
 31
0.0
  0
LINE
  5
5C
330
1F
100
AcDbEntity
  8
0
  6
SLD-Solid
 62
     7
370
    15
100
AcDbLine
 10
291.4282146931
 20
902.2209236444
 30
0.0
 11
291.5164208101
 21
902.3737011205
 31
0.0
  0
LINE
  5
5D
330
1F
100
AcDbEntity
  8
0
  6
SLD-Solid
 62
     7
370
    15
100
AcDbLine
 10
291.7664208101
 20
902.3737011205
 30
0.0
 11
291.962777744
 21
902.0336009346
 31
0.0
  0
LINE
  5
5E
330
1F
100
AcDbEntity
  8
0
  6
SLD-Solid
 62
     7
370
    15
100
AcDbLine
 10
291.962777744
 20
912.7138013065
 30
0.0
 11
291.7664208101
 21
912.3737011205
 31
0.0
  0
LINE
  5
5F
330
1F
100
AcDbEntity
  8
0
  6
SLD-Solid
 62
     7
370
    15
100
AcDbLine
 10
291.7664208101
 20
910.3737011205
 30
0.0
 11
291.5164208101
 21
910.3737011205
 31
0.0
  0
LINE
  5
60
330
1F
100
AcDbEntity
  8
0
  6
SLD-Solid
 62
     7
370
    15
100
AcDbLine
 10
291.5164208101
 20
904.3737011205
 30
0.0
 11
291.7664208101
 21
904.3737011205
 31
0.0
  0
SPLINE
  5
61
330
1F
100
AcDbEntity
  8
0
  6
SLD-Solid
 62
     7
370
    15
100
AcDbSpline
210
0.0
220
0.0
230
1.0
 70
     8
 71
     3
 72
    15
 73
    11
 74
     0
 42
0.00000001
 43
0.00000001
 40
0.0
 40
0.0
 40
0.0
 40
0.0
 40
0.0669649299130055
 40
0.1596954388850796
 40
0.271697163503638
 40
0.417249375013822
 40
0.5763884185975611
 40
0.7432793526488769
 40
0.9132543269727972
 40
0.9999999999999999
 40
0.9999999999999999
 40
0.9999999999999999
 40
0.9999999999999999
 10
579.3800139055173
 20
1163.672185990757
 30
0.0
 10
579.3778101835767
 20
1163.672033802404
 30
0.0
 10
579.3725548306188
 20
1163.671670869359
 30
0.0
 10
579.0657298958334
 20
1163.721516010511
 30
0.0
 10
578.4823220328924
 20
1163.910768887698
 30
0.0
 10
577.720672166514
 20
1164.326585405687
 30
0.0
 10
576.9379329990941
 20
1165.016851628229
 30
0.0
 10
576.3064621116661
 20
1165.940502542918
 30
0.0
 10
575.9271154003019
 20
1166.843074649847
 30
0.0
 10
575.8824185517083
 20
1167.41976072763
 30
0.0
 10
575.8673155272595
 20
1167.614622428311
 30
0.0
  0
SPLINE
  5
62
330
1F
100
AcDbEntity
  8
0
  6
SLD-Solid
 62
     7
370
    15
100
AcDbSpline
210
0.0
220
0.0
230
1.0
 70
     8
 71
     3
 72
    15
 73
    11
 74
     0
 42
0.00000001
 43
0.00000001
 40
0.0
 40
0.0
 40
0.0
 40
0.0
 40
0.1406067393660874
 40
0.3206317628554636
 40
0.4810228084604787
 40
0.625359451228622
 40
0.7542633327016863
 40
0.8626671817777481
 40
0.9533278545182603
 40
1.0
 40
1.0
 40
1.0
 40
1.0
 10
746.5726450364425
 20
1167.544825722711
 30
0.0
 10
746.5224718692583
 20
1167.233698813105
 30
0.0
 10
746.4080597783811
 20
1166.524222368744
 30
0.0
 10
745.9018471082472
 20
1165.552493588928
 30
0.0
 10
745.2069910351612
 20
1164.730977296337
 30
0.0
 10
744.4627280251311
 20
1164.172183470795
 30
0.0
 10
743.7719984944002
 20
1163.843063879221
 30
0.0
 10
743.269155455727
 20
1163.700746414101
 30
0.0
 10
743.0387619614056
 20
1163.670354765463
 30
0.0
 10
743.0489789842711
 20
1163.671352739068
 30
0.0
 10
743.052451208782
 20
1163.671691897398
 30
0.0
  0
SPLINE
  5
63
330
1F
100
AcDbEntity
  8
0
  6
SLD-Solid
 62
     7
370
    15
100
AcDbSpline
210
0.0
220
0.0
230
1.0
 70
     8
 71
     3
 72
    15
 73
    11
 74
     0
 42
0.00000001
 43
0.00000001
 40
0.0
 40
0.0
 40
0.0
 40
0.0
 40
0.1129173009835578
 40
0.29613728250304
 40
0.4591198900334441
 40
0.6054995994085187
 40
0.7362472457873174
 40
0.8500105417096129
 40
0.9432487829849187
 40
1.0
 40
1.0
 40
1.0
 40
1.0
 10
566.5536184712847
 20
1167.489299272828
 30
0.0
 10
566.5185165061275
 20
1167.240725510032
 30
0.0
 10
566.4264579776153
 20
1166.58881514754
 30
0.0
 10
565.960728704111
 20
1165.657054887296
 30
0.0
 10
565.2800457744207
 20
1164.809995985911
 30
0.0
 10
564.5356134997008
 20
1164.226947800948
 30
0.0
 10
563.8399588717267
 20
1163.875999789925
 30
0.0
 10
563.2945259050937
 20
1163.711198616581
 30
0.0
 10
563.0171331784204
 20
1163.671207797736
 30
0.0
 10
563.015591253502
 20
1163.671613372616
 30
0.0
 10
563.0150078383962
 20
1163.671766829187
 30
0.0
  0
SPLINE
  5
64
330
1F
100
AcDbEntity
  8
0
  6
SLD-Solid
 62
     7
370
    15
100
AcDbSpline
210
0.0
220
0.0
230
1.0
 70
     8
 71
     3
 72
    16
 73
    12
 74
     0
 42
0.00000001
 43
0.00000001
 40
0.0
 40
0.0
 40
0.0
 40
0.0
 40
0.0013614003733499
 40
0.0878459547929355
 40
0.1823071859183134
 40
0.3120992794383515
 40
0.459415029260164
 40
0.6200132942863203
 40
0.7870656639583825
 40
0.9723651154105956
 40
1.0
 40
1.0
 40
1.0
 40
1.0
 10
759.4356056801764
 20
1163.669982914515
 30
0.0
 10
759.4361761492055
 20
1163.669967129834
 30
0.0
 10
759.4729863319504
 20
1163.668948604776
 30
0.0
 10
759.3437092614872
 20
1163.675174329635
 30
0.0
 10
758.965175570798
 20
1163.754310844513
 30
0.0
 10
758.2916371978454
 20
1164.000719554647
 30
0.0
 10
757.5051440126886
 20
1164.498013242237
 30
0.0
 10
756.745417477472
 20
1165.254680763249
 30
0.0
 10
756.1584928534224
 20
1166.260153147236
 30
0.0
 10
755.8546364112748
 20
1167.102611714295
 30
0.0
 10
755.8470927342946
 20
1167.582092467091
 30
0.0
 10
755.8461137064563
 20
1167.644320079193
 30
0.0
  0
SPLINE
  5
65
330
1F
100
AcDbEntity
  8
0
  6
SLD-Solid
 62
     7
370
    15
100
AcDbSpline
210
0.0
220
0.0
230
1.0
 70
     8
 71
     3
 72
    15
 73
    11
 74
     0
 42
0.00000001
 43
0.00000001
 40
0.0
 40
0.0
 40
0.0
 40
0.0
 40
0.0204181831568488
 40
0.1289781268425175
 40
0.2366653030210293
 40
0.3640259544734009
 40
0.513002216169919
 40
0.6761085796167169
 40
0.8429387605128028
 40
1.0
 40
1.0
 40
1.0
 40
1.0
 10
529.4353885279173
 20
1163.671943087198
 30
0.0
 10
529.4418376345749
 20
1163.671739996875
 30
0.0
 10
529.4825755244299
 20
1163.670457110478
 30
0.0
 10
529.2540390068741
 20
1163.688296476779
 30
0.0
 10
528.7605570324936
 20
1163.817260516613
 30
0.0
 10
528.0471775208524
 20
1164.132744618413
 30
0.0
 10
527.2578973188957
 20
1164.70503882621
 30
0.0
 10
526.5433450047136
 20
1165.54092424888
 30
0.0
 10
526.0174369330788
 20
1166.549412168959
 30
0.0
 10
525.8977335867258
 20
1167.283377467313
 30
0.0
 10
525.8396871095243
 20
1167.639291493574
 30
0.0
  0
SPLINE
  5
66
330
1F
100
AcDbEntity
  8
0
  6
SLD-Solid
 62
     7
370
    15
100
AcDbSpline
210
0.0
220
0.0
230
1.0
 70
     8
 71
     3
 72
    16
 73
    12
 74
     0
 42
0.00000001
 43
0.00000001
 40
0.0
 40
0.0
 40
0.0
 40
0.0
 40
0.0329308133515956
 40
0.2022201126291996
 40
0.3774357540568036
 40
0.5337419716085267
 40
0.6681356047161197
 40
0.7846275560171763
 40
0.8853729316013812
 40
0.9806309543536961
 40
1.0
 40
1.0
 40
1.0
 40
1.0
 10
796.5714550268783
 20
1167.535421722941
 30
0.0
 10
796.5685099797091
 20
1167.461928320347
 30
0.0
 10
796.550425161581
 20
1167.010623216174
 30
0.0
 10
796.2407881144258
 20
1166.187520684639
 30
0.0
 10
795.6586316004422
 20
1165.214830483862
 30
0.0
 10
794.9032202489004
 20
1164.483452724456
 30
0.0
 10
794.1692350134064
 20
1164.022473618263
 30
0.0
 10
793.542332196715
 20
1163.778453498755
 30
0.0
 10
793.1389216447212
 20
1163.684482942056
 30
0.0
 10
792.9529816568455
 20
1163.670547805644
 30
0.0
 10
792.9900338799048
 20
1163.671681693878
 30
0.0
 10
792.9962947588556
 20
1163.671873292017
 30
0.0
  0
SPLINE
  5
67
330
1F
100
AcDbEntity
  8
0
  6
SLD-Solid
 62
     7
370
    15
100
AcDbSpline
210
0.0
220
0.0
230
1.0
 70
     8
 71
     3
 72
    16
 73
    12
 74
     0
 42
0.00000001
 43
0.00000001
 40
0.0
 40
0.0
 40
0.0
 40
0.0
 40
0.0187506172055771
 40
0.186460968241239
 40
0.3603724677029843
 40
0.5161230479811586
 40
0.6559116341400868
 40
0.7730820228642598
 40
0.8725942626191463
 40
0.9652409836290345
 40
1.0
 40
1.0
 40
1.0
 40
1.0
 10
516.5830394445596
 20
1167.568357984609
 30
0.0
 10
516.582089097788
 20
1167.52607781357
 30
0.0
 10
516.5726386046497
 20
1167.105632900049
 30
0.0
 10
516.2861521061186
 20
1166.305033497134
 30
0.0
 10
515.7288000009834
 20
1165.314509445004
 30
0.0
 10
514.980145730327
 20
1164.552974686432
 30
0.0
 10
514.2265056428386
 20
1164.059044823091
 30
0.0
 10
513.5734595712746
 20
1163.79420279597
 30
0.0
 10
513.1385327714905
 20
1163.689647403388
 30
0.0
 10
512.943479116577
 20
1163.67171435507
 30
0.0
 10
512.969283365666
 20
1163.672765429588
 30
0.0
 10
512.9763233179867
 20
1163.673052185249
 30
0.0
  0
SPLINE
  5
68
330
1F
100
AcDbEntity
  8
0
  6
SLD-Solid
 62
     7
370
    15
100
AcDbSpline
210
0.0
220
0.0
230
1.0
 70
     8
 71
     3
 72
    15
 73
    11
 74
     0
 42
0.00000001
 43
0.00000001
 40
0.0
 40
0.0
 40
0.0
 40
0.0
 40
0.0911646030410337
 40
0.1923032960493025
 40
0.308283555843843
 40
0.4497101994032197
 40
0.6095756564774963
 40
0.7742796244367501
 40
0.955018237507174
 40
1.0
 40
1.0
 40
1.0
 40
1.0
 10
809.475617466411
 20
1163.672650915342
 30
0.0
 10
809.4578778322974
 20
1163.673249588466
 30
0.0
 10
809.4204577153115
 20
1163.674512434037
 30
0.0
 10
809.0197350166022
 20
1163.745830720749
 30
0.0
 10
808.3864905852747
 20
1163.970136001737
 30
0.0
 10
807.6001902571694
 20
1164.432685327014
 30
0.0
 10
806.8242407500162
 20
1165.165147978355
 30
0.0
 10
806.2064349052597
 20
1166.155250034398
 30
0.0
 10
805.8758272842208
 20
1167.02487563636
 30
0.0
 10
805.8576837301397
 20
1167.540449213083
 30
0.0
 10
805.8540680661199
 20
1167.643193186097
 30
0.0
  0
SPLINE
  5
69
330
1F
100
AcDbEntity
  8
0
  6
SLD-Solid
 62
     7
370
    15
100
AcDbSpline
210
0.0
220
0.0
230
1.0
 70
     8
 71
     3
 72
    16
 73
    12
 74
     0
 42
0.00000001
 43
0.00000001
 40
0.0
 40
0.0
 40
0.0
 40
0.0
 40
0.0089161444753001
 40
0.0950894472928382
 40
0.1884886603449909
 40
0.3242457724822665
 40
0.4709793917773638
 40
0.6287428356079482
 40
0.7924077492454734
 40
0.9732548958671682
 40
1.0
 40
1.0
 40
1.0
 40
1.0
 10
479.5669389643844
 20
1163.672580250192
 30
0.0
 10
479.5704044625297
 20
1163.672543139242
 30
0.0
 10
479.6073635208036
 20
1163.672147356093
 30
0.0
 10
479.4647808879138
 20
1163.678086849465
 30
0.0
 10
479.053942363199
 20
1163.757104168652
 30
0.0
 10
478.3313184190796
 20
1164.015008333422
 30
0.0
 10
477.5112925499827
 20
1164.534839587413
 30
0.0
 10
476.7415984464465
 20
1165.304364447937
 30
0.0
 10
476.1530986042406
 20
1166.316448878395
 30
0.0
 10
475.8486837871414
 20
1167.159792440662
 30
0.0
 10
475.8404545682076
 20
1167.640269232162
 30
0.0
 10
475.8393943585104
 20
1167.702171358929
 30
0.0
  0
SPLINE
  5
6A
330
1F
100
AcDbEntity
  8
0
  6
SLD-Solid
 62
     7
370
    15
100
AcDbSpline
210
0.0
220
0.0
230
1.0
 70
     8
 71
     3
 72
    15
 73
    11
 74
     0
 42
0.00000001
 43
0.00000001
 40
0.0
 40
0.0
 40
0.0
 40
0.0
 40
0.0899064948359983
 40
0.2721958050955022
 40
0.4343472598476049
 40
0.5800827826050543
 40
0.7109425735625466
 40
0.8250654058319619
 40
0.9175203180419349
 40
1.0
 40
1.0
 40
1.0
 40
1.0
 10
846.5518506249991
 20
1167.513670116633
 30
0.0
 10
846.5266997950308
 20
1167.311073961326
 30
0.0
 10
846.4505545685425
 20
1166.697705330913
 30
0.0
 10
846.0124164778305
 20
1165.787847994256
 30
0.0
 10
845.3366437233138
 20
1164.909259987626
 30
0.0
 10
844.5806761491044
 20
1164.295756954927
 30
0.0
 10
843.8581478293363
 20
1163.916716430188
 30
0.0
 10
843.2663607695301
 20
1163.730280718399
 30
0.0
 10
842.9091782130065
 20
1163.674619827716
 30
0.0
 10
842.8728006026971
 20
1163.673155918917
 30
0.0
 10
842.8556489710088
 20
1163.672465702481
 30
0.0
  0
SPLINE
  5
6B
330
1F
100
AcDbEntity
  8
0
  6
SLD-Solid
 62
     7
370
    15
100
AcDbSpline
210
0.0
220
0.0
230
1.0
 70
     8
 71
     3
 72
    15
 73
    11
 74
     0
 42
0.00000001
 43
0.00000001
 40
0.0
 40
0.0
 40
0.0
 40
0.0
 40
0.1972246671515169
 40
0.3744393895851811
 40
0.5335055472258918
 40
0.6761825857000632
 40
0.8012321447798546
 40
0.909617005633567
 40
0.9983237116293877
 40
1.0
 40
1.0
 40
1.0
 40
1.0
 10
466.4597615747053
 20
1166.943022212826
 30
0.0
 10
466.317589047949
 20
1166.554795532831
 30
0.0
 10
466.0476684801862
 20
1165.817730726599
 30
0.0
 10
465.3523571219504
 20
1164.941055525367
 30
0.0
 10
464.6033770390241
 20
1164.319154194774
 30
0.0
 10
463.8802130695663
 20
1163.932926362833
 30
0.0
 10
463.2650211893567
 20
1163.736346429547
 30
0.0
 10
462.9040914299434
 20
1163.675052363905
 30
0.0
 10
462.7916510833292
 20
1163.672172251031
 30
0.0
 10
462.820130321274
 20
1163.672480543806
 30
0.0
 10
462.8206585115126
 20
1163.672486261559
 30
0.0
  0
SPLINE
  5
6C
330
1F
100
AcDbEntity
  8
0
  6
SLD-Solid
 62
     7
370
    15
100
AcDbSpline
210
0.0
220
0.0
230
1.0
 70
     8
 71
     3
 72
    15
 73
    11
 74
     0
 42
0.00000001
 43
0.00000001
 40
0.0
 40
0.0
 40
0.0
 40
0.0
 40
0.0335864261406667
 40
0.1155039979181117
 40
0.2251660332679855
 40
0.3554490467565659
 40
0.503383678898885
 40
0.6616744657260971
 40
0.8249793358364218
 40
0.9999999999999999
 40
0.9999999999999999
 40
0.9999999999999999
 40
0.9999999999999999
 10
859.5860862067998
 20
1163.673537603969
 30
0.0
 10
859.5934022820932
 20
1163.673294145943
 30
0.0
 10
859.6185623256748
 20
1163.672456891775
 30
0.0
 10
859.4090215411936
 20
1163.689306771363
 30
0.0
 10
858.8947311843295
 20
1163.806532449489
 30
0.0
 10
858.1493898638861
 20
1164.120623988179
 30
0.0
 10
857.3379077326477
 20
1164.68684534093
 30
0.0
 10
856.6072297707669
 20
1165.506302585184
 30
0.0
 10
856.0355039418291
 20
1166.544854528827
 30
0.0
 10
855.8919655577702
 20
1167.331321334597
 30
0.0
 10
855.8177110875455
 20
1167.738171922992
 30
0.0
  0
SPLINE
  5
6D
330
1F
100
AcDbEntity
  8
0
  6
SLD-Solid
 62
     7
370
    15
100
AcDbSpline
210
0.0
220
0.0
230
1.0
 70
     8
 71
     3
 72
     9
 73
     5
 74
     0
 42
0.00000001
 43
0.00000001
 40
0.0
 40
0.0
 40
0.0
 40
0.0
 40
0.1606383188137802
 40
1.0
 40
1.0
 40
1.0
 40
1.0
 10
391.8635084041497
 20
1163.734483042566
 30
0.0
 10
392.0075777203102
 20
1163.739710104604
 30
0.0
 10
392.9044329490283
 20
1163.772249426956
 30
0.0
 10
393.8319498682858
 20
1163.742019629691
 30
0.0
 10
394.6104720289622
 20
1163.716645896237
 30
0.0
  0
SPLINE
  5
6E
330
1F
100
AcDbEntity
  8
0
  6
SLD-Solid
 62
     7
370
    15
100
AcDbSpline
210
0.0
220
0.0
230
1.0
 70
     8
 71
     3
 72
     9
 73
     5
 74
     0
 42
0.00000001
 43
0.00000001
 40
0.0
 40
0.0
 40
0.0
 40
0.0
 40
0.7175286564153583
 40
0.9999999999999999
 40
0.9999999999999999
 40
0.9999999999999999
 40
0.9999999999999999
 10
927.8207502922128
 20
1163.718143678674
 30
0.0
 10
928.4447047378359
 20
1163.739379702695
 30
0.0
 10
929.3142929278606
 20
1163.768975766673
 30
0.0
 10
930.1512035484058
 20
1163.741237819366
 30
0.0
 10
930.3876068158514
 20
1163.733402644123
 30
0.0
  0
ARC
  5
6F
330
1F
100
AcDbEntity
  8
0
  6
SLD-Solid
 62
     7
370
    15
100
AcDbCircle
 10
388.8654511058
 20
1168.6737009731
 30
0.0
 40
4.999999848688311
100
AcDbArc
 50
270.0000590045
 51
336.65132703
  0
ARC
  5
70
330
1F
100
AcDbEntity
  8
0
  6
SLD-Solid
 62
     7
370
    15
100
AcDbCircle
 10
933.5673905143
 20
1168.6737009729
 30
0.0
 40
4.999999848488565
100
AcDbArc
 50
203.4071792443
 51
269.9999409964
  0
ARC
  5
71
330
1F
100
AcDbEntity
  8
0
  6
SLD-Solid
 62
     7
370
    15
100
AcDbCircle
 10
652.5067300674
 20
1168.6737007198
 30
0.0
 40
4.99999959542952
100
AcDbArc
 50
203.2536477345
 51
269.9873896756
  0
ARC
  5
72
330
1F
100
AcDbEntity
  8
0
  6
SLD-Solid
 62
     7
370
    15
100
AcDbCircle
 10
669.9261115523
 20
1168.6737007209
 30
0.0
 40
4.999999596565587
100
AcDbArc
 50
270.0126103297
 51
336.8698176015
  0
SPLINE
  5
73
330
1F
100
AcDbEntity
  8
0
  6
SLD-Solid
 62
     7
370
    15
100
AcDbSpline
210
0.0
220
0.0
230
1.0
 70
     8
 71
     3
 72
    20
 73
    16
 74
     0
 42
0.00000001
 43
0.00000001
 40
0.0
 40
0.0
 40
0.0
 40
0.0
 40
0.0465868844696855
 40
0.1303859211133524
 40
0.2144070518007168
 40
0.2988504375686192
 40
0.3837755090218049
 40
0.4691693649056755
 40
0.5549695825852556
 40
0.6410917671182363
 40
0.7274519196378582
 40
0.8139793870553239
 40
0.900621219407149
 40
0.9873410769666919
 40
1.0
 40
1.0
 40
1.0
 40
1.0
 10
417.6469334779618
 20
1186.173701124392
 30
0.0
 10
417.1994463342228
 20
1186.163961564702
 30
0.0
 10
415.947033255156
 20
1186.136702788422
 30
0.0
 10
413.8812229221125
 20
1185.843182914708
 30
0.0
 10
411.4721202001041
 20
1185.205433849318
 30
0.0
 10
409.0949345606903
 20
1184.258346499978
 30
0.0
 10
406.7694536574433
 20
1183.014161642929
 30
0.0
 10
404.5161288983851
 20
1181.480950363239
 30
0.0
 10
402.3558107881655
 20
1179.671960946956
 30
0.0
 10
400.3086677084611
 20
1177.603308686201
 30
0.0
 10
398.3943516086262
 20
1175.293824776334
 30
0.0
 10
396.6288459735961
 20
1172.766160700842
 30
0.0
 10
395.0344852826739
 20
1170.039706900577
 30
0.0
 10
394.0099213512358
 20
1167.976927586611
 30
0.0
 10
393.5202490480223
 20
1166.833875417813
 30
0.0
 10
393.457874324153
 20
1166.688272811889
 30
0.0
  0
SPLINE
  5
74
330
1F
100
AcDbEntity
  8
0
  6
SLD-Solid
 62
     7
370
    15
100
AcDbSpline
210
0.0
220
0.0
230
1.0
 70
     8
 71
     3
 72
    20
 73
    16
 74
     0
 42
0.00000001
 43
0.00000001
 40
0.0
 40
0.0
 40
0.0
 40
0.0
 40
0.0296691240336865
 40
0.1164975448065786
 40
0.2033418079526339
 40
0.2901572954291415
 40
0.3769212842515878
 40
0.4635956032190705
 40
0.5501221340999006
 40
0.6364211177545824
 40
0.7223959883842773
 40
0.8079485979574476
 40
0.8930056203009599
 40
0.9775501674373843
 40
1.0
 40
1.0
 40
1.0
 40
1.0
 10
928.9704740896797
 20
1166.687668121081
 30
0.0
 10
928.8231053028784
 20
1167.028107497998
 30
0.0
 10
928.2444531719971
 20
1168.364862554238
 30
0.0
 10
927.0950354919187
 20
1170.594464197945
 30
0.0
 10
925.4625759026193
 20
1173.290861073539
 30
0.0
 10
923.6585543322607
 20
1175.78526803683
 30
0.0
 10
921.7051441818578
 20
1178.058639319928
 30
0.0
 10
919.617339779452
 20
1180.08802080179
 30
0.0
 10
917.4141590730495
 20
1181.853804983943
 30
0.0
 10
915.1158266174381
 20
1183.338237639428
 30
0.0
 10
912.744600315149
 20
1184.526078185078
 30
0.0
 10
910.3241207691161
 20
1185.406607668202
 30
0.0
 10
907.8795475535245
 20
1185.96867725474
 30
0.0
 10
906.0282849346668
 20
1186.160107226204
 30
0.0
 10
905.0013766477731
 20
1186.171343500726
 30
0.0
 10
904.7859081422051
 20
1186.173701124392
 30
0.0
  0
SPLINE
  5
75
330
1F
100
AcDbEntity
  8
0
  6
SLD-Solid
 62
     7
370
    15
100
AcDbSpline
210
0.0
220
0.0
230
1.0
 70
     8
 71
     3
 72
    20
 73
    16
 74
     0
 42
0.00000001
 43
0.00000001
 40
0.0
 40
0.0
 40
0.0
 40
0.0
 40
0.0292059272608339
 40
0.1160818765489796
 40
0.2029736735886589
 40
0.2898366661986635
 40
0.3766481087565335
 40
0.463369795111385
 40
0.5499435583357037
 40
0.6362895794223521
 40
0.7223112309551851
 40
0.8079103189947591
 40
0.8930135090936927
 40
0.9776039596457979
 40
1.0
 40
1.0
 40
1.0
 40
1.0
 10
647.9015747532276
 20
1166.706442168893
 30
0.0
 10
647.7565491630608
 20
1167.041356352008
 30
0.0
 10
647.1801304620266
 20
1168.372506241949
 30
0.0
 10
646.0331074254233
 20
1170.596604573758
 30
0.0
 10
644.4005813263245
 20
1173.292907211636
 30
0.0
 10
642.596416991581
 20
1175.787135313823
 30
0.0
 10
640.6429000365495
 20
1178.06032770773
 30
0.0
 10
638.554996378786
 20
1180.089509225631
 30
0.0
 10
636.3517333153545
 20
1181.855079934393
 30
0.0
 10
634.0533347364144
 20
1183.339285755498
 30
0.0
 10
631.6820604709244
 20
1184.526889479856
 30
0.0
 10
629.2615520722164
 20
1185.407172822501
 30
0.0
 10
626.8169693535892
 20
1185.968998033641
 30
0.0
 10
624.9663508177179
 20
1186.160159212891
 30
0.0
 10
623.9400821461091
 20
1186.171357027446
 30
0.0
 10
623.7252479704212
 20
1186.173701124392
 30
0.0
  0
SPLINE
  5
76
330
1F
100
AcDbEntity
  8
0
  6
SLD-Solid
 62
     7
370
    15
100
AcDbSpline
210
0.0
220
0.0
230
1.0
 70
     8
 71
     3
 72
    20
 73
    16
 74
     0
 42
0.00000001
 43
0.00000001
 40
0.0
 40
0.0
 40
0.0
 40
0.0
 40
0.0466115332274657
 40
0.1304549072888397
 40
0.2145204929021423
 40
0.2990085570078566
 40
0.3839785616549982
 40
0.4694175987630155
 40
0.555263212669604
 40
0.6414309637797507
 40
0.7278368087835454
 40
0.8144100572101931
 40
0.9010977310808009
 40
0.9878634714416504
 40
1.0
 40
1.0
 40
1.0
 40
1.0
 10
698.7075936497457
 20
1186.173701124392
 30
0.0
 10
698.2601065060205
 20
1186.163961564692
 30
0.0
 10
697.0076934269929
 20
1186.136702788384
 30
0.0
 10
694.9418830934758
 20
1185.843182915008
 30
0.0
 10
692.5327803734433
 20
1185.20543384821
 30
0.0
 10
690.1555947266307
 20
1184.258346504143
 30
0.0
 10
687.8301138512195
 20
1183.014161627253
 30
0.0
 10
685.5767889874415
 20
1181.480950422205
 30
0.0
 10
683.4164712707598
 20
1179.671960725421
 30
0.0
 10
681.36932671428
 20
1177.603309517263
 30
0.0
 10
679.4550161482144
 20
1175.293821663104
 30
0.0
 10
677.689489801889
 20
1172.766172349959
 30
0.0
 10
676.095206557815
 20
1170.039663348064
 30
0.0
 10
675.0733488437841
 20
1167.982895122904
 30
0.0
 10
674.5861634532282
 20
1166.84600957015
 30
0.0
 10
674.5263797953779
 20
1166.706499687017
 30
0.0
  0
SPLINE
  5
77
330
1F
100
AcDbEntity
  8
0
  6
SLD-Solid
 62
     7
370
    15
100
AcDbSpline
210
0.0
220
0.0
230
1.0
 70
     8
 71
     3
 72
     9
 73
     5
 74
     0
 42
0.00000001
 43
0.00000001
 40
0.0
 40
0.0
 40
0.0
 40
0.0
 40
0.4999858778303415
 40
1.0
 40
1.0
 40
1.0
 40
1.0
 10
451.6722730708753
 20
1175.941950856062
 30
0.0
 10
451.5721869383003
 20
1177.360812577968
 30
0.0
 10
451.372009019257
 20
1180.198616173667
 30
0.0
 10
451.1751828815895
 20
1183.036654008989
 30
0.0
 10
451.0767670331437
 20
1184.455713005901
 30
0.0
  0
SPLINE
  5
78
330
1F
100
AcDbEntity
  8
0
  6
SLD-Solid
 62
     7
370
    15
100
AcDbSpline
210
0.0
220
0.0
230
1.0
 70
     8
 71
     3
 72
     9
 73
     5
 74
     0
 42
0.00000001
 43
0.00000001
 40
0.0
 40
0.0
 40
0.0
 40
0.0
 40
0.5000141221696587
 40
1.0
 40
1.0
 40
1.0
 40
1.0
 10
871.3560745870234
 20
1184.455713005901
 30
0.0
 10
871.2576587385776
 20
1183.036654008989
 30
0.0
 10
871.0608326009101
 20
1180.198616173667
 30
0.0
 10
870.8606546818668
 20
1177.360812577968
 30
0.0
 10
870.7605685492917
 20
1175.941950856062
 30
0.0
  0
SPLINE
  5
79
330
1F
100
AcDbEntity
  8
0
  6
SLD-Solid
 62
     7
370
    15
100
AcDbSpline
210
0.0
220
0.0
230
1.0
 70
     8
 71
     3
 72
     9
 73
     5
 74
     0
 42
0.00000001
 43
0.00000001
 40
0.0
 40
0.0
 40
0.0
 40
0.0
 40
0.4999855089136128
 40
1.0
 40
1.0
 40
1.0
 40
1.0
 10
590.7374363144581
 20
1184.455713005901
 30
0.0
 10
590.6388157503546
 20
1183.0472378057
 30
0.0
 10
590.4415689055054
 20
1180.230205761587
 30
0.0
 10
590.247711169905
 20
1177.412938236658
 30
0.0
 10
590.1507794928954
 20
1176.004263648927
 30
0.0
  0
SPLINE
  5
7A
330
1F
100
AcDbEntity
  8
0
  6
SLD-Solid
 62
     7
370
    15
100
AcDbSpline
210
0.0
220
0.0
230
1.0
 70
     8
 71
     3
 72
     9
 73
     5
 74
     0
 42
0.00000001
 43
0.00000001
 40
0.0
 40
0.0
 40
0.0
 40
0.0
 40
0.5000144910863873
 40
1.0
 40
1.0
 40
1.0
 40
1.0
 10
732.2820621272715
 20
1176.004263648927
 30
0.0
 10
732.185130450262
 20
1177.412938236658
 30
0.0
 10
731.9912727146616
 20
1180.230205761587
 30
0.0
 10
731.7940258698123
 20
1183.0472378057
 30
0.0
 10
731.6954053057087
 20
1184.455713005901
 30
0.0
  0
ARC
  5
7B
330
1F
100
AcDbEntity
  8
0
  6
SLD-Solid
 62
     7
370
    15
100
AcDbCircle
 10
449.0967495343
 20
1184.1737011244
 30
0.0
 40
2.000000000000227
100
AcDbArc
 50
8.1460564929
 51
90.0
  0
ARC
  5
7C
330
1F
100
AcDbEntity
  8
0
  6
SLD-Solid
 62
     7
370
    15
100
AcDbCircle
 10
873.3360920859
 20
1184.1737011244
 30
0.0
 40
2.000000000000227
100
AcDbArc
 50
90.0
 51
171.8968628339
  0
ARC
  5
7D
330
1F
100
AcDbEntity
  8
0
  6
SLD-Solid
 62
     7
370
    15
100
AcDbCircle
 10
592.7174538133
 20
1184.1737011244
 30
0.0
 40
2.000000000000227
100
AcDbArc
 50
90.0
 51
171.8973955384
  0
ARC
  5
7E
330
1F
100
AcDbEntity
  8
0
  6
SLD-Solid
 62
     7
370
    15
100
AcDbCircle
 10
729.7153878069
 20
1184.1737011244
 30
0.0
 40
2.000000000000227
100
AcDbArc
 50
8.1447798754
 51
90.0
  0
LINE
  5
7F
330
1F
100
AcDbEntity
  8
0
  6
SLD-Solid
 62
     7
370
    15
100
AcDbLine
 10
405.3874627305
 20
1182.0174342293
 30
0.0
 11
405.1632381117
 21
1184.3651176989
 31
0.0
  0
LINE
  5
80
330
1F
100
AcDbEntity
  8
0
  6
SLD-Solid
 62
     7
370
    15
100
AcDbLine
 10
917.2768067247
 20
1184.3644492077
 30
0.0
 11
917.0526990982
 21
1182.0302315531
 31
0.0
  0
LINE
  5
81
330
1F
100
AcDbEntity
  8
0
  6
SLD-Solid
 62
     7
370
    15
100
AcDbLine
 10
637.2246082963
 20
1184.725131422
 30
0.0
 11
636.902388246
 21
1181.3541271382
 31
0.0
  0
LINE
  5
82
330
1F
100
AcDbEntity
  8
0
  6
SLD-Solid
 62
     7
370
    15
100
AcDbLine
 10
685.5300201024
 20
1181.3824279408
 30
0.0
 11
685.2095863999
 21
1184.7252640803
 31
0.0
  0
ARC
  5
83
330
1F
100
AcDbEntity
  8
0
  6
SLD-Solid
 62
     7
370
    15
100
AcDbCircle
 10
403.15809277
 20
1184.1737011244
 30
0.0
 40
2.000000000000227
100
AcDbArc
 50
5.4535414403
 51
90.0
  0
ARC
  5
84
330
1F
100
AcDbEntity
  8
0
  6
SLD-Solid
 62
     7
370
    15
100
AcDbCircle
 10
919.2747488501
 20
1184.1737011244
 30
0.0
 40
2.000000000000227
100
AcDbArc
 50
90.0
 51
174.5464585597
  0
LINE
  5
85
330
1F
100
AcDbEntity
  8
0
  6
SLD-Solid
 62
     7
370
    15
100
AcDbLine
 10
927.2164208101
 20
1153.6737011244
 30
0.0
 11
928.6988732185
 21
1142.9902423647
 31
0.0
  0
LINE
  5
86
330
1F
100
AcDbEntity
  8
0
  6
SLD-Solid
 62
     7
370
    15
100
AcDbLine
 10
935.7339684017
 20
1142.9902423648
 30
0.0
 11
937.0704875769
 21
1152.6220169899
 31
0.0
  0
LINE
  5
87
330
1F
100
AcDbEntity
  8
0
  6
SLD-Solid
 62
     7
370
    15
100
AcDbLine
 10
385.3623540432
 20
1152.6220169899
 30
0.0
 11
386.6988732185
 21
1142.9902423647
 31
0.0
  0
LINE
  5
88
330
1F
100
AcDbEntity
  8
0
  6
SLD-Solid
 62
     7
370
    15
100
AcDbLine
 10
393.7339684017
 20
1142.9902423648
 30
0.0
 11
395.2164208101
 21
1153.6737011244
 31
0.0
  0
LINE
  5
89
330
1F
100
AcDbEntity
  8
0
  6
SLD-Solid
 62
     7
370
    15
100
AcDbLine
 10
685.5300186299
 20
1181.3824267082
 30
0.0
 11
685.2095850304
 21
1184.7252622266
 31
0.0
  0
LINE
  5
8A
330
1F
100
AcDbEntity
  8
0
  6
SLD-Solid
 62
     7
370
    15
100
AcDbLine
 10
466.4191785456
 20
1166.8520183714
 30
0.0
 11
466.1726272799
 21
1166.2762764734
 31
0.0
  0
ARC
  5
8B
330
1F
100
AcDbEntity
  8
0
  6
SLD-Solid
 62
     7
370
    15
100
AcDbCircle
 10
395.9664208101
 20
1141.4237011207
 30
0.0
 40
0.2500000000000224
100
AcDbArc
 50
270.0
 51
52.629836736
  0
ARC
  5
8C
330
1F
100
AcDbEntity
  8
0
  6
SLD-Solid
 62
     7
370
    15
100
AcDbCircle
 10
384.4664208101
 20
1141.4237011207
 30
0.0
 40
0.2500000000000224
100
AcDbArc
 50
127.370163264
 51
270.0
  0
ARC
  5
8D
330
1F
100
AcDbEntity
  8
0
  6
SLD-Solid
 62
     7
370
    15
100
AcDbCircle
 10
390.4114130978
 20
1134.7192463338
 30
0.0
 40
8.956577612210577
100
AcDbArc
 50
50.4198331668
 51
56.3345247097
  0
ARC
  5
8E
330
1F
100
AcDbEntity
  8
0
  6
SLD-Solid
 62
     7
370
    15
100
AcDbCircle
 10
390.0214285224
 20
1134.7192463338
 30
0.0
 40
8.956577612210431
100
AcDbArc
 50
123.6654752903
 51
129.5801668332
  0
ARC
  5
8F
330
1F
100
AcDbEntity
  8
0
  6
SLD-Solid
 62
     7
370
    15
100
AcDbCircle
 10
937.9664208101
 20
1141.4237011207
 30
0.0
 40
0.2500000000000568
100
AcDbArc
 50
270.0
 51
52.6298367359
  0
ARC
  5
90
330
1F
100
AcDbEntity
  8
0
  6
SLD-Solid
 62
     7
370
    15
100
AcDbCircle
 10
926.4664208101
 20
1141.4237011207
 30
0.0
 40
0.25
100
AcDbArc
 50
127.370163264
 51
270.0
  0
ARC
  5
91
330
1F
100
AcDbEntity
  8
0
  6
SLD-Solid
 62
     7
370
    15
100
AcDbCircle
 10
932.4114130978
 20
1134.7192463338
 30
0.0
 40
8.956577612210504
100
AcDbArc
 50
50.4198331668
 51
56.3345247097
  0
ARC
  5
92
330
1F
100
AcDbEntity
  8
0
  6
SLD-Solid
 62
     7
370
    15
100
AcDbCircle
 10
932.0214285224
 20
1134.7192463338
 30
0.0
 40
8.956577612210507
100
AcDbArc
 50
123.6654752903
 51
129.5801668332
  0
LINE
  5
93
330
1F
100
AcDbEntity
  8
0
  6
SLD-Solid
 62
     7
370
    15
100
AcDbLine
 10
935.867495804
 20
1122.5737011205
 30
0.0
 11
935.8008291373
 21
1122.7737011206
 31
0.0
  0
LINE
  5
94
330
1F
100
AcDbEntity
  8
0
  6
SLD-Solid
 62
     7
370
    15
100
AcDbLine
 10
928.6320124829
 20
1122.7737011206
 30
0.0
 11
928.5653458162
 21
1122.5737011205
 31
0.0
  0
LINE
  5
95
330
1F
100
AcDbEntity
  8
0
  6
SLD-Solid
 62
     7
370
    15
100
AcDbLine
 10
393.867495804
 20
1122.5737011205
 30
0.0
 11
393.6674958028
 21
1123.1737011244
 31
0.0
  0
LINE
  5
96
330
1F
100
AcDbEntity
  8
0
  6
SLD-Solid
 62
     7
370
    15
100
AcDbLine
 10
386.7653458175
 20
1123.1737011244
 30
0.0
 11
386.5653458162
 21
1122.5737011205
 31
0.0
  0
ARC
  5
97
330
1F
100
AcDbEntity
  8
0
  6
SLD-Solid
 62
     7
370
    15
100
AcDbCircle
 10
853.1769610037
 20
1145.8181411093
 30
0.0
 40
0.5248999999998887
100
AcDbArc
 50
290.140195206
 51
0.0
  0
ARC
  5
98
330
1F
100
AcDbEntity
  8
0
  6
SLD-Solid
 62
     7
370
    15
100
AcDbCircle
 10
749.2558806163
 20
1145.8181411093
 30
0.0
 40
0.5249000000000431
100
AcDbArc
 50
180.0
 51
249.859804794
  0
LINE
  5
99
330
1F
100
AcDbEntity
  8
0
  6
SLD-Solid
 62
     7
370
    15
100
AcDbLine
 10
853.7018610037
 20
1145.8181411093
 30
0.0
 11
853.7018610037
 21
1146.9931199306
 31
0.0
  0
LINE
  5
9A
330
1F
100
AcDbEntity
  8
0
  6
SLD-Solid
 62
     7
370
    15
100
AcDbLine
 10
748.7309806163
 20
1146.9931199306
 30
0.0
 11
748.7309806163
 21
1145.8181411093
 31
0.0
  0
ARC
  5
9B
330
1F
100
AcDbEntity
  8
0
  6
SLD-Solid
 62
     7
370
    15
100
AcDbCircle
 10
851.6022610037
 20
1146.9931199306
 30
0.0
 40
2.099600000000009
100
AcDbArc
 50
0.0
 51
87.0082842346
  0
ARC
  5
9C
330
1F
100
AcDbEntity
  8
0
  6
SLD-Solid
 62
     7
370
    15
100
AcDbCircle
 10
750.8305806163
 20
1146.9931199306
 30
0.0
 40
2.099600000000009
100
AcDbArc
 50
92.9917157654
 51
180.0
  0
LINE
  5
9D
330
1F
100
AcDbEntity
  8
0
  6
SLD-Solid
 62
     7
370
    15
100
AcDbLine
 10
749.0751478772
 20
1145.3253372061
 30
0.0
 11
749.7309875525
 21
1145.0848121206
 31
0.0
  0
LINE
  5
9E
330
1F
100
AcDbEntity
  8
0
  6
SLD-Solid
 62
     7
370
    15
100
AcDbLine
 10
852.7018540675
 20
1145.0848121206
 30
0.0
 11
853.3576937429
 21
1145.3253372061
 31
0.0
  0
LINE
  5
9F
330
1F
100
AcDbEntity
  8
0
  6
SLD-Solid
 62
     7
370
    15
100
AcDbLine
 10
851.7118424171
 20
1149.0898583678
 30
0.0
 11
801.21642081
 21
1151.7288902908
 31
0.0
  0
LINE
  5
A0
330
1F
100
AcDbEntity
  8
0
  6
SLD-Solid
 62
     7
370
    15
100
AcDbLine
 10
801.21642081
 20
1151.7288902908
 30
0.0
 11
750.7209992029
 21
1149.0898583678
 31
0.0
  0
ARC
  5
A1
330
1F
100
AcDbEntity
  8
0
  6
SLD-Solid
 62
     7
370
    15
100
AcDbCircle
 10
850.7380388738
 20
1144.5599121206
 30
0.0
 40
0.5249000000000024
100
AcDbArc
 50
90.0
 51
180.0
  0
ARC
  5
A2
330
1F
100
AcDbEntity
  8
0
  6
SLD-Solid
 62
     7
370
    15
100
AcDbCircle
 10
751.6948027462
 20
1144.5599121206
 30
0.0
 40
0.524900000000116
100
AcDbArc
 50
0.0
 51
90.0
  0
ARC
  5
A3
330
1F
100
AcDbEntity
  8
0
  6
SLD-Solid
 62
     7
370
    15
100
AcDbCircle
 10
849.7932188738
 20
1143.9891207615
 30
0.0
 40
0.4199199999999337
100
AcDbArc
 50
289.9336222061
 51
0.0
  0
ARC
  5
A4
330
1F
100
AcDbEntity
  8
0
  6
SLD-Solid
 62
     7
370
    15
100
AcDbCircle
 10
752.6396227462
 20
1143.9891207615
 30
0.0
 40
0.4199200000000474
100
AcDbArc
 50
180.0
 51
250.0663777939
  0
LINE
  5
A5
330
1F
100
AcDbEntity
  8
0
  6
SLD-Solid
 62
     7
370
    15
100
AcDbLine
 10
850.2131388738
 20
1143.9891207615
 30
0.0
 11
850.2131388738
 21
1144.5599121206
 31
0.0
  0
LINE
  5
A6
330
1F
100
AcDbEntity
  8
0
  6
SLD-Solid
 62
     7
370
    15
100
AcDbLine
 10
752.2197027462
 20
1144.5599121206
 30
0.0
 11
752.2197027462
 21
1143.9891207615
 31
0.0
  0
LINE
  5
A7
330
1F
100
AcDbEntity
  8
0
  6
SLD-Solid
 62
     7
370
    15
100
AcDbLine
 10
752.4964588874
 20
1143.5943589144
 30
0.0
 11
752.5654683171
 21
1143.5693320373
 31
0.0
  0
LINE
  5
A8
330
1F
100
AcDbEntity
  8
0
  6
SLD-Solid
 62
     7
370
    15
100
AcDbLine
 10
849.867373303
 20
1143.5693320373
 30
0.0
 11
849.9363827326
 21
1143.5943589144
 31
0.0
  0
ARC
  5
A9
330
1F
100
AcDbEntity
  8
0
  6
SLD-Solid
 62
     7
370
    15
100
AcDbCircle
 10
573.1769610038
 20
1145.8181411092
 30
0.0
 40
0.5248999999999648
100
AcDbArc
 50
290.140195206
 51
0.0
  0
ARC
  5
AA
330
1F
100
AcDbEntity
  8
0
  6
SLD-Solid
 62
     7
370
    15
100
AcDbCircle
 10
469.2558806164
 20
1145.8181411092
 30
0.0
 40
0.5249000000000592
100
AcDbArc
 50
180.0
 51
249.859804794
  0
LINE
  5
AB
330
1F
100
AcDbEntity
  8
0
  6
SLD-Solid
 62
     7
370
    15
100
AcDbLine
 10
573.7018610038
 20
1145.8181411092
 30
0.0
 11
573.7018610038
 21
1146.9931199305
 31
0.0
  0
LINE
  5
AC
330
1F
100
AcDbEntity
  8
0
  6
SLD-Solid
 62
     7
370
    15
100
AcDbLine
 10
468.7309806164
 20
1146.9931199305
 30
0.0
 11
468.7309806164
 21
1145.8181411092
 31
0.0
  0
ARC
  5
AD
330
1F
100
AcDbEntity
  8
0
  6
SLD-Solid
 62
     7
370
    15
100
AcDbCircle
 10
571.6022610038
 20
1146.9931199305
 30
0.0
 40
2.099600000000009
100
AcDbArc
 50
0.0
 51
87.0082842346
  0
ARC
  5
AE
330
1F
100
AcDbEntity
  8
0
  6
SLD-Solid
 62
     7
370
    15
100
AcDbCircle
 10
470.8305806164
 20
1146.9931199305
 30
0.0
 40
2.099600000000009
100
AcDbArc
 50
92.9917157654
 51
180.0
  0
LINE
  5
AF
330
1F
100
AcDbEntity
  8
0
  6
SLD-Solid
 62
     7
370
    15
100
AcDbLine
 10
469.0751478772
 20
1145.325337206
 30
0.0
 11
469.7309875526
 21
1145.0848121205
 31
0.0
  0
LINE
  5
B0
330
1F
100
AcDbEntity
  8
0
  6
SLD-Solid
 62
     7
370
    15
100
AcDbLine
 10
572.7018540676
 20
1145.0848121205
 30
0.0
 11
573.3576937429
 21
1145.325337206
 31
0.0
  0
LINE
  5
B1
330
1F
100
AcDbEntity
  8
0
  6
SLD-Solid
 62
     7
370
    15
100
AcDbLine
 10
571.7118424172
 20
1149.0898583677
 30
0.0
 11
521.2164208101
 21
1151.7288902907
 31
0.0
  0
LINE
  5
B2
330
1F
100
AcDbEntity
  8
0
  6
SLD-Solid
 62
     7
370
    15
100
AcDbLine
 10
521.2164208101
 20
1151.7288902907
 30
0.0
 11
470.720999203
 21
1149.0898583677
 31
0.0
  0
ARC
  5
B3
330
1F
100
AcDbEntity
  8
0
  6
SLD-Solid
 62
     7
370
    15
100
AcDbCircle
 10
570.7380388739
 20
1144.5599121205
 30
0.0
 40
0.524900000000116
100
AcDbArc
 50
90.0
 51
180.0
  0
ARC
  5
B4
330
1F
100
AcDbEntity
  8
0
  6
SLD-Solid
 62
     7
370
    15
100
AcDbCircle
 10
471.6948027463
 20
1144.5599121205
 30
0.0
 40
0.5249000000000592
100
AcDbArc
 50
0.0
 51
90.0
  0
LINE
  5
B5
330
1F
100
AcDbEntity
  8
0
  6
SLD-Solid
 62
     7
370
    15
100
AcDbLine
 10
570.2131388739
 20
1143.9891207614
 30
0.0
 11
570.2131388739
 21
1144.5599121205
 31
0.0
  0
LINE
  5
B6
330
1F
100
AcDbEntity
  8
0
  6
SLD-Solid
 62
     7
370
    15
100
AcDbLine
 10
472.2197027463
 20
1144.5599121205
 30
0.0
 11
472.2197027463
 21
1143.9891207614
 31
0.0
  0
ARC
  5
B7
330
1F
100
AcDbEntity
  8
0
  6
SLD-Solid
 62
     7
370
    15
100
AcDbCircle
 10
569.7932188739
 20
1143.9891207614
 30
0.0
 40
0.4199200000000474
100
AcDbArc
 50
289.9336222061
 51
0.0
  0
ARC
  5
B8
330
1F
100
AcDbEntity
  8
0
  6
SLD-Solid
 62
     7
370
    15
100
AcDbCircle
 10
472.6396227463
 20
1143.9891207614
 30
0.0
 40
0.4199199999998768
100
AcDbArc
 50
180.0
 51
250.0663777939
  0
LINE
  5
B9
330
1F
100
AcDbEntity
  8
0
  6
SLD-Solid
 62
     7
370
    15
100
AcDbLine
 10
472.4964588875
 20
1143.5943589143
 30
0.0
 11
472.5654683171
 21
1143.5693320372
 31
0.0
  0
LINE
  5
BA
330
1F
100
AcDbEntity
  8
0
  6
SLD-Solid
 62
     7
370
    15
100
AcDbLine
 10
569.867373303
 20
1143.5693320372
 30
0.0
 11
569.9363827327
 21
1143.5943589143
 31
0.0
  0
LINE
  5
BB
330
1F
100
AcDbEntity
  8
0
  6
SLD-Solid
 62
     7
370
    15
100
AcDbLine
 10
472.1823768101
 20
1143.2693320372
 30
0.0
 11
472.1823768101
 21
1141.1737011244
 31
0.0
  0
LINE
  5
BC
330
1F
100
AcDbEntity
  8
0
  6
SLD-Solid
 62
     7
370
    15
100
AcDbLine
 10
570.2504648101
 20
1141.1737011244
 30
0.0
 11
570.2504648101
 21
1143.2693320372
 31
0.0
  0
ARC
  5
BD
330
1F
100
AcDbEntity
  8
0
  6
SLD-Solid
 62
     7
370
    15
100
AcDbCircle
 10
472.4823768101
 20
1143.2693320372
 30
0.0
 40
0.3000000000001819
100
AcDbArc
 50
90.0
 51
180.0
  0
ARC
  5
BE
330
1F
100
AcDbEntity
  8
0
  6
SLD-Solid
 62
     7
370
    15
100
AcDbCircle
 10
569.9504648101
 20
1143.2693320372
 30
0.0
 40
0.2999999999999545
100
AcDbArc
 50
0.0
 51
90.0
  0
LINE
  5
BF
330
1F
100
AcDbEntity
  8
0
  6
SLD-Solid
 62
     7
370
    15
100
AcDbLine
 10
569.9504648101
 20
1143.5693320372
 30
0.0
 11
472.4823768101
 21
1143.5693320372
 31
0.0
  0
LINE
  5
C0
330
1F
100
AcDbEntity
  8
0
  6
SLD-Solid
 62
     7
370
    15
100
AcDbLine
 10
752.18237681
 20
1143.2693320373
 30
0.0
 11
752.18237681
 21
1141.1737011244
 31
0.0
  0
LINE
  5
C1
330
1F
100
AcDbEntity
  8
0
  6
SLD-Solid
 62
     7
370
    15
100
AcDbLine
 10
850.25046481
 20
1141.1737011244
 30
0.0
 11
850.25046481
 21
1143.2693320373
 31
0.0
  0
ARC
  5
C2
330
1F
100
AcDbEntity
  8
0
  6
SLD-Solid
 62
     7
370
    15
100
AcDbCircle
 10
752.48237681
 20
1143.2693320373
 30
0.0
 40
0.3000000000001819
100
AcDbArc
 50
90.0
 51
180.0
  0
ARC
  5
C3
330
1F
100
AcDbEntity
  8
0
  6
SLD-Solid
 62
     7
370
    15
100
AcDbCircle
 10
849.95046481
 20
1143.2693320373
 30
0.0
 40
0.3000000000001819
100
AcDbArc
 50
0.0
 51
90.0
  0
LINE
  5
C4
330
1F
100
AcDbEntity
  8
0
  6
SLD-Solid
 62
     7
370
    15
100
AcDbLine
 10
849.95046481
 20
1143.5693320373
 30
0.0
 11
752.48237681
 21
1143.5693320373
 31
0.0
  0
LINE
  5
C5
330
1F
100
AcDbEntity
  8
0
  6
SLD-Solid
 62
     7
370
    15
100
AcDbLine
 10
1058.5157326455
 20
1036.2511460286
 30
0.0
 11
1066.7902298309
 21
1043.1455420376
 31
0.0
  0
LINE
  5
C6
330
1F
100
AcDbEntity
  8
0
  6
SLD-Solid
 62
     7
370
    15
100
AcDbLine
 10
1040.9242902709
 20
1097.9040626634
 30
0.0
 11
1038.4296280111
 21
1098.0698195878
 31
0.0
  0
LINE
  5
C7
330
1F
100
AcDbEntity
  8
0
  6
SLD-Solid
 62
     7
370
    15
100
AcDbLine
 10
1049.1762611515
 20
1097.3557634664
 30
0.0
 11
1045.9131267934
 21
1097.5725812393
 31
0.0
  0
LINE
  5
C8
330
1F
100
AcDbEntity
  8
0
  6
SLD-Solid
 62
     7
370
    15
100
AcDbLine
 10
1066.7902298309
 20
1043.1455420376
 30
0.0
 11
1082.5514239924
 21
1057.4508338044
 31
0.0
  0
LINE
  5
C9
330
1F
100
AcDbEntity
  8
0
  6
SLD-Solid
 62
     7
370
    15
100
AcDbLine
 10
1049.6733104261
 20
1097.3015230875
 30
0.0
 11
1049.1762611515
 21
1097.3557634664
 31
0.0
  0
ARC
  5
CA
330
1F
100
AcDbEntity
  8
0
  6
SLD-Solid
 62
     7
370
    15
100
AcDbCircle
 10
1081.8793447494
 20
1058.191313035
 30
0.0
 40
1.000000000000179
100
AcDbArc
 50
312.2277453179
 51
18.0
  0
LINE
  5
CB
330
1F
100
AcDbEntity
  8
0
  6
SLD-Solid
 62
     7
370
    15
100
AcDbLine
 10
1048.7682373775
 20
1059.7787157884
 30
0.0
 11
1050.6811382335
 21
1060.3635482707
 31
0.0
  0
LINE
  5
CC
330
1F
100
AcDbEntity
  8
0
  6
SLD-Solid
 62
     7
370
    15
100
AcDbLine
 10
1045.9166179895
 20
1097.5823713181
 30
0.0
 11
1040.9221704176
 21
1097.9142255664
 31
0.0
  0
LINE
  5
CD
330
1F
100
AcDbEntity
  8
0
  6
SLD-Solid
 62
     7
370
    15
100
AcDbLine
 10
1045.3344993182
 20
1070.3466748847
 30
0.0
 11
1036.3685230446
 21
1067.4334525974
 31
0.0
  0
LINE
  5
CE
330
1F
100
AcDbEntity
  8
0
  6
SLD-Solid
 62
     7
370
    15
100
AcDbLine
 10
1038.8406589996
 20
1059.825000467
 30
0.0
 11
1047.8066352732
 21
1062.7382227543
 31
0.0
  0
LINE
  5
CF
330
1F
100
AcDbEntity
  8
0
  6
SLD-Solid
 62
     7
370
    15
100
AcDbLine
 10
1065.5406544281
 20
947.302756942
 30
0.0
 11
1065.5405844847
 21
947.302852715
 31
0.0
  0
LINE
  5
D0
330
1F
100
AcDbEntity
  8
0
  6
SLD-Solid
 62
     7
370
    15
100
AcDbLine
 10
402.3164206105
 20
440.0737011205
 30
0.0
 11
402.3164206105
 21
440.5737011205
 31
0.0
  0
LINE
  5
D1
330
1F
100
AcDbEntity
  8
0
  6
SLD-Solid
 62
     7
370
    15
100
AcDbLine
 10
391.9164206105
 20
440.5737011205
 30
0.0
 11
391.9164206105
 21
440.0737011205
 31
0.0
  0
LINE
  5
D2
330
1F
100
AcDbEntity
  8
0
  6
SLD-Solid
 62
     7
370
    15
100
AcDbLine
 10
347.3164206105
 20
440.0737011205
 30
0.0
 11
347.3164206105
 21
440.5737011205
 31
0.0
  0
LINE
  5
D3
330
1F
100
AcDbEntity
  8
0
  6
SLD-Solid
 62
     7
370
    15
100
AcDbLine
 10
336.9164206105
 20
440.5737011205
 30
0.0
 11
336.9164206105
 21
440.0737011205
 31
0.0
  0
LINE
  5
D4
330
1F
100
AcDbEntity
  8
0
  6
SLD-Solid
 62
     7
370
    15
100
AcDbLine
 10
936.3164206105
 20
440.0737011205
 30
0.0
 11
936.3164206105
 21
440.5737011205
 31
0.0
  0
LINE
  5
D5
330
1F
100
AcDbEntity
  8
0
  6
SLD-Solid
 62
     7
370
    15
100
AcDbLine
 10
925.9164206105
 20
440.5737011205
 30
0.0
 11
925.9164206105
 21
440.0737011205
 31
0.0
  0
LINE
  5
D6
330
1F
100
AcDbEntity
  8
0
  6
SLD-Solid
 62
     7
370
    15
100
AcDbLine
 10
991.3164206105
 20
440.0737011205
 30
0.0
 11
991.3164206105
 21
440.5737011205
 31
0.0
  0
LINE
  5
D7
330
1F
100
AcDbEntity
  8
0
  6
SLD-Solid
 62
     7
370
    15
100
AcDbLine
 10
980.9164206105
 20
440.5737011205
 30
0.0
 11
980.9164206105
 21
440.0737011205
 31
0.0
  0
LINE
  5
D8
330
1F
100
AcDbEntity
  8
0
  6
SLD-Solid
 62
     7
370
    15
100
AcDbLine
 10
1013.8164208067
 20
856.8737011205
 30
0.0
 11
1013.8164208067
 21
857.3737011205
 31
0.0
  0
LINE
  5
D9
330
1F
100
AcDbEntity
  8
0
  6
SLD-Solid
 62
     7
370
    15
100
AcDbLine
 10
1003.4164208067
 20
857.3737011205
 30
0.0
 11
1003.4164208067
 21
856.8737011205
 31
0.0
  0
LINE
  5
DA
330
1F
100
AcDbEntity
  8
0
  6
SLD-Solid
 62
     7
370
    15
100
AcDbLine
 10
324.8164208067
 20
856.8737011205
 30
0.0
 11
324.8164208067
 21
857.3737011205
 31
0.0
  0
LINE
  5
DB
330
1F
100
AcDbEntity
  8
0
  6
SLD-Solid
 62
     7
370
    15
100
AcDbLine
 10
314.4164208067
 20
857.3737011205
 30
0.0
 11
314.4164208067
 21
856.8737011205
 31
0.0
  0
LINE
  5
DC
330
1F
100
AcDbEntity
  8
0
  6
SLD-Solid
 62
     7
370
    15
100
AcDbLine
 10
424.8164208067
 20
856.8737011205
 30
0.0
 11
424.8164208067
 21
857.3737011205
 31
0.0
  0
LINE
  5
DD
330
1F
100
AcDbEntity
  8
0
  6
SLD-Solid
 62
     7
370
    15
100
AcDbLine
 10
414.4164208067
 20
857.3737011205
 30
0.0
 11
414.4164208067
 21
856.8737011205
 31
0.0
  0
LINE
  5
DE
330
1F
100
AcDbEntity
  8
0
  6
SLD-Solid
 62
     7
370
    15
100
AcDbLine
 10
913.8164208067
 20
856.8737011205
 30
0.0
 11
913.8164208067
 21
857.3737011205
 31
0.0
  0
LINE
  5
DF
330
1F
100
AcDbEntity
  8
0
  6
SLD-Solid
 62
     7
370
    15
100
AcDbLine
 10
903.4164208067
 20
857.3737011205
 30
0.0
 11
903.4164208067
 21
856.8737011205
 31
0.0
  0
LINE
  5
E0
330
1F
100
AcDbEntity
  8
0
  6
SLD-Solid
 62
     7
370
    15
100
AcDbLine
 10
987.1164206105
 20
272.0737011205
 30
0.0
 11
987.1164206105
 21
276.0737011205
 31
0.0
  0
LINE
  5
E1
330
1F
100
AcDbEntity
  8
0
  6
SLD-Solid
 62
     7
370
    15
100
AcDbLine
 10
930.1164206105
 20
276.0737011205
 30
0.0
 11
930.1164206105
 21
272.0737011205
 31
0.0
  0
ARC
  5
E2
330
1F
100
AcDbEntity
  8
0
  6
SLD-Solid
 62
     7
370
    15
100
AcDbCircle
 10
985.1164206105
 20
272.0737011205
 30
0.0
 40
2.0
100
AcDbArc
 50
270.0
 51
0.0
  0
ARC
  5
E3
330
1F
100
AcDbEntity
  8
0
  6
SLD-Solid
 62
     7
370
    15
100
AcDbCircle
 10
932.1164206105
 20
272.0737011205
 30
0.0
 40
2.0
100
AcDbArc
 50
180.0
 51
270.0
  0
LINE
  5
E4
330
1F
100
AcDbEntity
  8
0
  6
SLD-Solid
 62
     7
370
    15
100
AcDbLine
 10
398.1164207568
 20
272.0737011205
 30
0.0
 11
398.1164207568
 21
276.0737011205
 31
0.0
  0
LINE
  5
E5
330
1F
100
AcDbEntity
  8
0
  6
SLD-Solid
 62
     7
370
    15
100
AcDbLine
 10
341.1164207568
 20
276.0737011205
 30
0.0
 11
341.1164207568
 21
272.0737011205
 31
0.0
  0
ARC
  5
E6
330
1F
100
AcDbEntity
  8
0
  6
SLD-Solid
 62
     7
370
    15
100
AcDbCircle
 10
396.1164207568
 20
272.0737011205
 30
0.0
 40
2.0
100
AcDbArc
 50
270.0
 51
0.0
  0
ARC
  5
E7
330
1F
100
AcDbEntity
  8
0
  6
SLD-Solid
 62
     7
370
    15
100
AcDbCircle
 10
343.1164207568
 20
272.0737011205
 30
0.0
 40
2.0
100
AcDbArc
 50
180.0
 51
270.0
  0
LINE
  5
E8
330
1F
100
AcDbEntity
  8
0
  6
SLD-Solid
 62
     7
370
    15
100
AcDbLine
 10
397.9164207568
 20
276.0737011205
 30
0.0
 11
397.9164207568
 21
344.0737011205
 31
0.0
  0
LINE
  5
E9
330
1F
100
AcDbEntity
  8
0
  6
SLD-Solid
 62
     7
370
    15
100
AcDbLine
 10
341.3164207568
 20
344.0737011205
 30
0.0
 11
341.3164207568
 21
276.0737011205
 31
0.0
  0
LINE
  5
EA
330
1F
100
AcDbEntity
  8
0
  6
SLD-Solid
 62
     7
370
    15
100
AcDbLine
 10
986.9164206105
 20
276.0737011205
 30
0.0
 11
986.9164206105
 21
344.0737011205
 31
0.0
  0
LINE
  5
EB
330
1F
100
AcDbEntity
  8
0
  6
SLD-Solid
 62
     7
370
    15
100
AcDbLine
 10
930.3164206105
 20
344.0737011205
 30
0.0
 11
930.3164206105
 21
276.0737011205
 31
0.0
  0
ARC
  5
EC
330
1F
100
AcDbEntity
  8
0
  6
SLD-Solid
 62
     7
370
    15
100
AcDbCircle
 10
403.0164207568
 20
436.5737011205
 30
0.0
 40
1.500000000000057
100
AcDbArc
 50
90.0
 51
180.0
  0
ARC
  5
ED
330
1F
100
AcDbEntity
  8
0
  6
SLD-Solid
 62
     7
370
    15
100
AcDbCircle
 10
336.2164207568
 20
436.5737011205
 30
0.0
 40
1.5
100
AcDbArc
 50
0.0
 51
90.0
  0
ARC
  5
EE
330
1F
100
AcDbEntity
  8
0
  6
SLD-Solid
 62
     7
370
    15
100
AcDbCircle
 10
396.8164207568
 20
350.1062670662
 30
0.0
 40
4.699999999999954
100
AcDbArc
 50
350.5402980318
 51
0.0
  0
ARC
  5
EF
330
1F
100
AcDbEntity
  8
0
  6
SLD-Solid
 62
     7
370
    15
100
AcDbCircle
 10
342.4164207568
 20
350.1062670662
 30
0.0
 40
4.700000000000159
100
AcDbArc
 50
180.0
 51
189.4597019682
  0
LINE
  5
F0
330
1F
100
AcDbEntity
  8
0
  6
SLD-Solid
 62
     7
370
    15
100
AcDbLine
 10
401.5164207568
 20
350.1062670662
 30
0.0
 11
401.5164207568
 21
436.5737011205
 31
0.0
  0
LINE
  5
F1
330
1F
100
AcDbEntity
  8
0
  6
SLD-Solid
 62
     7
370
    15
100
AcDbLine
 10
337.7164207568
 20
436.5737011205
 30
0.0
 11
337.7164207568
 21
350.1062670662
 31
0.0
  0
LINE
  5
F2
330
1F
100
AcDbEntity
  8
0
  6
SLD-Solid
 62
     7
370
    15
100
AcDbLine
 10
337.7803339838
 20
349.3338038417
 30
0.0
 11
338.6567705365
 21
344.0737011205
 31
0.0
  0
LINE
  5
F3
330
1F
100
AcDbEntity
  8
0
  6
SLD-Solid
 62
     7
370
    15
100
AcDbLine
 10
400.5760709772
 20
344.0737011205
 30
0.0
 11
401.4525075298
 21
349.3338038417
 31
0.0
  0
ARC
  5
F4
330
1F
100
AcDbEntity
  8
0
  6
SLD-Solid
 62
     7
370
    15
100
AcDbCircle
 10
992.0164206105
 20
436.5737011205
 30
0.0
 40
1.5
100
AcDbArc
 50
90.0
 51
180.0
  0
ARC
  5
F5
330
1F
100
AcDbEntity
  8
0
  6
SLD-Solid
 62
     7
370
    15
100
AcDbCircle
 10
925.2164206105
 20
436.5737011205
 30
0.0
 40
1.500000000000114
100
AcDbArc
 50
0.0
 51
90.0
  0
ARC
  5
F6
330
1F
100
AcDbEntity
  8
0
  6
SLD-Solid
 62
     7
370
    15
100
AcDbCircle
 10
985.8164206105
 20
350.1062670662
 30
0.0
 40
4.700000000000132
100
AcDbArc
 50
350.5402980318
 51
0.0
  0
ARC
  5
F7
330
1F
100
AcDbEntity
  8
0
  6
SLD-Solid
 62
     7
370
    15
100
AcDbCircle
 10
931.4164206105
 20
350.1062670662
 30
0.0
 40
4.699999999999932
100
AcDbArc
 50
180.0
 51
189.4597019682
  0
LINE
  5
F8
330
1F
100
AcDbEntity
  8
0
  6
SLD-Solid
 62
     7
370
    15
100
AcDbLine
 10
990.5164206105
 20
350.1062670662
 30
0.0
 11
990.5164206105
 21
436.5737011205
 31
0.0
  0
LINE
  5
F9
330
1F
100
AcDbEntity
  8
0
  6
SLD-Solid
 62
     7
370
    15
100
AcDbLine
 10
926.7164206105
 20
436.5737011205
 30
0.0
 11
926.7164206105
 21
350.1062670662
 31
0.0
  0
LINE
  5
FA
330
1F
100
AcDbEntity
  8
0
  6
SLD-Solid
 62
     7
370
    15
100
AcDbLine
 10
926.7803338375
 20
349.3338038417
 30
0.0
 11
927.6567703901
 21
344.0737011205
 31
0.0
  0
LINE
  5
FB
330
1F
100
AcDbEntity
  8
0
  6
SLD-Solid
 62
     7
370
    15
100
AcDbLine
 10
989.5760708308
 20
344.0737011205
 30
0.0
 11
990.4525073835
 21
349.3338038417
 31
0.0
  0
LINE
  5
FC
330
1F
100
AcDbEntity
  8
0
  6
SLD-Solid
 62
     7
370
    15
100
AcDbLine
 10
978.8164206105
 20
795.3737011205
 30
0.0
 11
978.8164206105
 21
794.3737011205
 31
0.0
  0
LINE
  5
FD
330
1F
100
AcDbEntity
  8
0
  6
SLD-Solid
 62
     7
370
    15
100
AcDbLine
 10
978.8164206105
 20
794.3737011205
 30
0.0
 11
978.6164206105
 21
794.3737011205
 31
0.0
  0
LINE
  5
FE
330
1F
100
AcDbEntity
  8
0
  6
SLD-Solid
 62
     7
370
    15
100
AcDbLine
 10
978.8164206105
 20
834.3737011205
 30
0.0
 11
978.6164206105
 21
834.3737011205
 31
0.0
  0
LINE
  5
FF
330
1F
100
AcDbEntity
  8
0
  6
SLD-Solid
 62
     7
370
    15
100
AcDbLine
 10
978.8164206105
 20
834.3737011205
 30
0.0
 11
978.8164206105
 21
833.3737011205
 31
0.0
  0
LINE
  5
100
330
1F
100
AcDbEntity
  8
0
  6
SLD-Solid
 62
     7
370
    15
100
AcDbLine
 10
978.8164206105
 20
833.3737011205
 30
0.0
 11
978.8164206105
 21
795.3737011205
 31
0.0
  0
LINE
  5
101
330
1F
100
AcDbEntity
  8
0
  6
SLD-Solid
 62
     7
370
    15
100
AcDbLine
 10
297.4164208101
 20
1127.5737011205
 30
0.0
 11
297.4164208101
 21
1146.5737011205
 31
0.0
  0
LINE
  5
102
330
1F
100
AcDbEntity
  8
0
  6
SLD-Solid
 62
     7
370
    15
100
AcDbLine
 10
297.5164208101
 20
1149.5737011205
 30
0.0
 11
297.4164208101
 21
1149.5737011205
 31
0.0
  0
LINE
  5
103
330
1F
100
AcDbEntity
  8
0
  6
SLD-Solid
 62
     7
370
    15
100
AcDbLine
 10
297.4164208101
 20
1146.5737011205
 30
0.0
 11
297.4164208101
 21
1149.5737011205
 31
0.0
  0
LINE
  5
104
330
1F
100
AcDbEntity
  8
0
  6
SLD-Solid
 62
     7
370
    15
100
AcDbLine
 10
297.5164208101
 20
1124.5737011205
 30
0.0
 11
297.4164208101
 21
1124.5737011205
 31
0.0
  0
LINE
  5
105
330
1F
100
AcDbEntity
  8
0
  6
SLD-Solid
 62
     7
370
    15
100
AcDbLine
 10
297.4164208101
 20
1124.5737011205
 30
0.0
 11
297.4164208101
 21
1127.5737011205
 31
0.0
  0
LINE
  5
106
330
1F
100
AcDbEntity
  8
0
  6
SLD-Solid
 62
     7
370
    15
100
AcDbLine
 10
297.4064208101
 20
1127.7421839823
 30
0.0
 11
297.4164208101
 21
1127.7421839823
 31
0.0
  0
LINE
  5
107
330
1F
100
AcDbEntity
  8
0
  6
SLD-Solid
 62
     7
370
    15
100
AcDbLine
 10
297.4064208101
 20
1127.7421839823
 30
0.0
 11
297.4064208101
 21
1128.121061992
 31
0.0
  0
LINE
  5
108
330
1F
100
AcDbEntity
  8
0
  6
SLD-Solid
 62
     7
370
    15
100
AcDbLine
 10
297.4064208101
 20
1128.121061992
 30
0.0
 11
297.4164208101
 21
1128.121061992
 31
0.0
  0
LINE
  5
109
330
1F
100
AcDbEntity
  8
0
  6
SLD-Solid
 62
     7
370
    15
100
AcDbLine
 10
297.4064208101
 20
1134.915872129
 30
0.0
 11
297.4164208101
 21
1134.915872129
 31
0.0
  0
LINE
  5
10A
330
1F
100
AcDbEntity
  8
0
  6
SLD-Solid
 62
     7
370
    15
100
AcDbLine
 10
297.4064208101
 20
1135.2179544568
 30
0.0
 11
297.4164208101
 21
1135.2179544568
 31
0.0
  0
LINE
  5
10B
330
1F
100
AcDbEntity
  8
0
  6
SLD-Solid
 62
     7
370
    15
100
AcDbLine
 10
297.4064208101
 20
1134.915872129
 30
0.0
 11
297.4064208101
 21
1135.2179544568
 31
0.0
  0
LINE
  5
10C
330
1F
100
AcDbEntity
  8
0
  6
SLD-Solid
 62
     7
370
    15
100
AcDbLine
 10
297.4064208101
 20
1133.0456801479
 30
0.0
 11
297.4164208101
 21
1133.0456801479
 31
0.0
  0
LINE
  5
10D
330
1F
100
AcDbEntity
  8
0
  6
SLD-Solid
 62
     7
370
    15
100
AcDbLine
 10
297.4064208101
 20
1129.5456801479
 30
0.0
 11
297.4164208101
 21
1129.5456801479
 31
0.0
  0
LINE
  5
10E
330
1F
100
AcDbEntity
  8
0
  6
SLD-Solid
 62
     7
370
    15
100
AcDbLine
 10
297.4064208101
 20
1133.0456801479
 30
0.0
 11
297.4064208101
 21
1129.5456801479
 31
0.0
  0
LINE
  5
10F
330
1F
100
AcDbEntity
  8
0
  6
SLD-Solid
 62
     7
370
    15
100
AcDbLine
 10
297.4064208101
 20
1133.1354237377
 30
0.0
 11
297.4164208101
 21
1133.1354237377
 31
0.0
  0
LINE
  5
110
330
1F
100
AcDbEntity
  8
0
  6
SLD-Solid
 62
     7
370
    15
100
AcDbLine
 10
297.4064208101
 20
1129.4559365582
 30
0.0
 11
297.4164208101
 21
1129.4559365582
 31
0.0
  0
LINE
  5
111
330
1F
100
AcDbEntity
  8
0
  6
SLD-Solid
 62
     7
370
    15
100
AcDbLine
 10
297.4064208101
 20
1141.4957553981
 30
0.0
 11
297.4164208101
 21
1141.4957553981
 31
0.0
  0
LINE
  5
112
330
1F
100
AcDbEntity
  8
0
  6
SLD-Solid
 62
     7
370
    15
100
AcDbLine
 10
297.4064208101
 20
1141.7008836032
 30
0.0
 11
297.4064208101
 21
1141.4957553981
 31
0.0
  0
LINE
  5
113
330
1F
100
AcDbEntity
  8
0
  6
SLD-Solid
 62
     7
370
    15
100
AcDbLine
 10
297.4064208101
 20
1141.7008836032
 30
0.0
 11
297.4164208101
 21
1141.7008836032
 31
0.0
  0
LINE
  5
114
330
1F
100
AcDbEntity
  8
0
  6
SLD-Solid
 62
     7
370
    15
100
AcDbLine
 10
297.4064208101
 20
1143.4957553981
 30
0.0
 11
297.4064208101
 21
1143.290627193
 31
0.0
  0
LINE
  5
115
330
1F
100
AcDbEntity
  8
0
  6
SLD-Solid
 62
     7
370
    15
100
AcDbLine
 10
297.4064208101
 20
1143.4957553981
 30
0.0
 11
297.4164208101
 21
1143.4957553981
 31
0.0
  0
LINE
  5
116
330
1F
100
AcDbEntity
  8
0
  6
SLD-Solid
 62
     7
370
    15
100
AcDbLine
 10
297.4064208101
 20
1143.290627193
 30
0.0
 11
297.4164208101
 21
1143.290627193
 31
0.0
  0
LINE
  5
117
330
1F
100
AcDbEntity
  8
0
  6
SLD-Solid
 62
     7
370
    15
100
AcDbLine
 10
297.4064208101
 20
1142.6752425776
 30
0.0
 11
297.4164208101
 21
1142.6752425776
 31
0.0
  0
LINE
  5
118
330
1F
100
AcDbEntity
  8
0
  6
SLD-Solid
 62
     7
370
    15
100
AcDbLine
 10
297.4064208101
 20
1142.6752425776
 30
0.0
 11
297.4064208101
 21
1142.4701143725
 31
0.0
  0
LINE
  5
119
330
1F
100
AcDbEntity
  8
0
  6
SLD-Solid
 62
     7
370
    15
100
AcDbLine
 10
297.4064208101
 20
1142.4701143725
 30
0.0
 11
297.4164208101
 21
1142.4701143725
 31
0.0
  0
LINE
  5
11A
330
1F
100
AcDbEntity
  8
0
  6
SLD-Solid
 62
     7
370
    15
100
AcDbLine
 10
297.4064208101
 20
1142.4701143725
 30
0.0
 11
297.4064208101
 21
1141.7008836032
 31
0.0
  0
LINE
  5
11B
330
1F
100
AcDbEntity
  8
0
  6
SLD-Solid
 62
     7
370
    15
100
AcDbLine
 10
297.4064208101
 20
1143.290627193
 30
0.0
 11
297.4064208101
 21
1142.6752425776
 31
0.0
  0
LINE
  5
11C
330
1F
100
AcDbEntity
  8
0
  6
SLD-Solid
 62
     7
370
    15
100
AcDbLine
 10
297.4064208101
 20
1148.7605588542
 30
0.0
 11
297.4164208101
 21
1148.7605588542
 31
0.0
  0
LINE
  5
11D
330
1F
100
AcDbEntity
  8
0
  6
SLD-Solid
 62
     7
370
    15
100
AcDbLine
 10
297.4064208101
 20
1135.2179544568
 30
0.0
 11
297.4064208101
 21
1141.3207453981
 31
0.0
  0
LINE
  5
11E
330
1F
100
AcDbEntity
  8
0
  6
SLD-Solid
 62
     7
370
    15
100
AcDbLine
 10
297.4064208101
 20
1143.5397370163
 30
0.0
 11
297.4064208101
 21
1148.7605588542
 31
0.0
  0
LINE
  5
11F
330
1F
100
AcDbEntity
  8
0
  6
SLD-Solid
 62
     7
370
    15
100
AcDbLine
 10
297.4064208101
 20
1134.272839604
 30
0.0
 11
297.4164208101
 21
1134.272839604
 31
0.0
  0
LINE
  5
120
330
1F
100
AcDbEntity
  8
0
  6
SLD-Solid
 62
     7
370
    15
100
AcDbLine
 10
297.4064208101
 20
1134.3369421681
 30
0.0
 11
297.4164208101
 21
1134.3369421681
 31
0.0
  0
SPLINE
  5
121
330
1F
100
AcDbEntity
  8
0
  6
SLD-Solid
 62
     7
370
    15
100
AcDbSpline
210
0.0
220
0.0
230
1.0
 70
     8
 71
     3
 72
    13
 73
     9
 74
     0
 42
0.00000001
 43
0.00000001
 40
0.0
 40
0.0
 40
0.0
 40
0.0
 40
0.0075462231143759
 40
0.2722763788513296
 40
0.4815195415731168
 40
0.6613541616921619
 40
0.8304588949397443
 40
1.0
 40
1.0
 40
1.0
 40
1.0
 10
286.3164208100817
 20
903.2803802911302
 30
0.0
 10
286.3164176260393
 20
903.2804872403995
 30
0.0
 10
286.3163027421382
 20
903.2843460926094
 30
0.0
 10
286.3047170825233
 20
903.2913612456709
 30
0.0
 10
286.2619983032513
 20
903.3002305125013
 30
0.0
 10
286.2063267001473
 20
903.3065147223657
 30
0.0
 10
286.1401909067669
 20
903.3107343706356
 30
0.0
 10
286.0910319573682
 20
903.3112938503805
 30
0.0
 10
286.0664208100816
 20
903.3115739507195
 30
0.0
  0
LINE
  5
122
330
1F
100
AcDbEntity
  8
0
  6
SLD-Solid
 62
     7
370
    15
100
AcDbLine
 10
286.3164208101
 20
911.0481104565
 30
0.0
 11
286.3164208101
 21
903.2803802911
 31
0.0
  0
SPLINE
  5
123
330
1F
100
AcDbEntity
  8
0
  6
SLD-Solid
 62
     7
370
    15
100
AcDbSpline
210
0.0
220
0.0
230
1.0
 70
     8
 71
     3
 72
    13
 73
     9
 74
     0
 42
0.00000001
 43
0.00000001
 40
0.0
 40
0.0
 40
0.0
 40
0.0
 40
0.1695411050602336
 40
0.3386458383078761
 40
0.5184804584270015
 40
0.7277236211486722
 40
0.9924537768854841
 40
0.9999999999999999
 40
0.9999999999999999
 40
0.9999999999999999
 40
0.9999999999999999
 10
285.3664208100816
 20
903.3115739507195
 30
0.0
 10
285.3418096627949
 20
903.3112938503806
 30
0.0
 10
285.2926507133964
 20
903.3107343706358
 30
0.0
 10
285.2265149200161
 20
903.3065147223656
 30
0.0
 10
285.1708433169115
 20
903.3002305125016
 30
0.0
 10
285.1281245376396
 20
903.2913612456706
 30
0.0
 10
285.1165388780273
 20
903.284346092612
 30
0.0
 10
285.1164239941242
 20
903.2804872403995
 30
0.0
 10
285.1164208100816
 20
903.2803802911302
 30
0.0
  0
LINE
  5
124
330
1F
100
AcDbEntity
  8
0
  6
SLD-Solid
 62
     7
370
    15
100
AcDbLine
 10
285.1164208101
 20
903.2803802911
 30
0.0
 11
285.1164208101
 21
910.7704391391
 31
0.0
  0
LINE
  5
125
330
1F
100
AcDbEntity
  8
0
  6
SLD-Solid
 62
     7
370
    15
100
AcDbLine
 10
285.3664208101
 20
903.3115739507
 30
0.0
 11
286.0664208101
 21
903.3115739507
 31
0.0
  0
SPLINE
  5
126
330
1F
100
AcDbEntity
  8
0
  6
SLD-Solid
 62
     7
370
    15
100
AcDbSpline
210
0.0
220
0.0
230
1.0
 70
     8
 71
     3
 72
    12
 73
     8
 74
     0
 42
0.00000001
 43
0.00000001
 40
0.0
 40
0.0
 40
0.0
 40
0.0
 40
0.2028202020467096
 40
0.4049472449426264
 40
0.6098312030740498
 40
0.8226939241827073
 40
1.0
 40
1.0
 40
1.0
 40
1.0
 10
284.8664208100815
 20
897.9625977112295
 30
0.0
 10
285.023561650617
 20
897.9748207304177
 30
0.0
 10
285.3373062865094
 20
897.9992249953539
 30
0.0
 10
285.7577025369791
 20
898.1888762016847
 30
0.0
 10
286.0847810724185
 20
898.4710063574546
 30
0.0
 10
286.2829903386848
 20
898.8106518199819
 30
0.0
 10
286.3059755446067
 20
899.0513994676578
 30
0.0
 10
286.3164208100817
 20
899.1608034512873
 30
0.0
  0
SPLINE
  5
127
330
1F
100
AcDbEntity
  8
0
  6
SLD-Solid
 62
     7
370
    15
100
AcDbSpline
210
0.0
220
0.0
230
1.0
 70
     8
 71
     3
 72
    12
 73
     8
 74
     0
 42
0.00000001
 43
0.00000001
 40
0.0
 40
0.0
 40
0.0
 40
0.0
 40
0.2289440738516327
 40
0.4594214300241516
 40
0.6825355698158191
 40
0.8947175231628828
 40
1.0
 40
1.0
 40
1.0
 40
1.0
 10
286.3164208100815
 20
903.0359870643516
 30
0.0
 10
286.2990863255039
 20
902.9071074880237
 30
0.0
 10
286.2643012639845
 20
902.648485204156
 30
0.0
 10
285.9904314181729
 20
902.3058743506616
 30
0.0
 10
285.5933948836893
 20
902.0588140437176
 30
0.0
 10
285.192518894337
 20
901.9477296879653
 30
0.0
 10
284.9476335012498
 20
901.9382812006133
 30
0.0
 10
284.8664208100817
 20
901.9351477467326
 30
0.0
  0
LINE
  5
128
330
1F
100
AcDbEntity
  8
0
  6
SLD-Solid
 62
     7
370
    15
100
AcDbLine
 10
286.3164208101
 20
903.0359870644
 30
0.0
 11
286.3164208101
 21
899.1608034513
 31
0.0
  0
LINE
  5
129
330
1F
100
AcDbEntity
  8
0
  6
SLD-Solid
 62
     7
370
    15
100
AcDbLine
 10
279.5164208101
 20
898.1932620105
 30
0.0
 11
279.5164208101
 21
902.0684456235
 31
0.0
  0
LINE
  5
12A
330
1F
100
AcDbEntity
  8
0
  6
SLD-Solid
 62
     7
370
    15
100
AcDbLine
 10
279.5164208101
 20
902.0684456235
 30
0.0
 11
279.5164208101
 21
902.6310832251
 31
0.0
  0
LINE
  5
12B
330
1F
100
AcDbEntity
  8
0
  6
SLD-Solid
 62
     7
370
    15
100
AcDbLine
 10
286.3164208101
 20
903.2803802911
 30
0.0
 11
286.3164208101
 21
903.0359870644
 31
0.0
  0
LINE
  5
12C
330
1F
100
AcDbEntity
  8
0
  6
SLD-Solid
 62
     7
370
    15
100
AcDbLine
 10
285.1164208101
 20
903.0359870644
 30
0.0
 11
285.1164208101
 21
903.2803802911
 31
0.0
  0
LINE
  5
12D
330
1F
100
AcDbEntity
  8
0
  6
SLD-Solid
 62
     7
370
    15
100
AcDbLine
 10
284.8664208101
 20
897.9432620105
 30
0.0
 11
284.8664208101
 21
897.9625977112
 31
0.0
  0
LINE
  5
12E
330
1F
100
AcDbEntity
  8
0
  6
SLD-Solid
 62
     7
370
    15
100
AcDbLine
 10
286.3164208101
 20
899.1608034513
 30
0.0
 11
286.3164208101
 21
898.9237011205
 31
0.0
  0
SPLINE
  5
12F
330
1F
100
AcDbEntity
  8
0
  6
SLD-Solid
 62
     7
370
    15
100
AcDbSpline
210
0.0
220
0.0
230
1.0
 70
     8
 71
     3
 72
    10
 73
     6
 74
     0
 42
0.00000001
 43
0.00000001
 40
0.0
 40
0.0
 40
0.0
 40
0.0
 40
0.3816828359347281
 40
0.7620612310505779
 40
1.0
 40
1.0
 40
1.0
 40
1.0
 10
284.8664208100815
 20
916.7848045298185
 30
0.0
 10
285.0226717827269
 20
916.7719481494995
 30
0.0
 10
285.3346397240557
 20
916.7462793268791
 30
0.0
 10
285.7125905736937
 20
916.5893042923306
 30
0.0
 10
285.8753205968754
 20
916.4340296887436
 30
0.0
 10
285.9379418269452
 20
916.3742774286194
 30
0.0
  0
LINE
  5
130
330
1F
100
AcDbEntity
  8
0
  6
SLD-Solid
 62
     7
370
    15
100
AcDbLine
 10
279.5164208101
 20
915.991502629
 30
0.0
 11
279.5164208101
 21
916.5541402306
 31
0.0
  0
LINE
  5
131
330
1F
100
AcDbEntity
  8
0
  6
SLD-Solid
 62
     7
370
    15
100
AcDbLine
 10
279.5164208101
 20
912.6904070728
 30
0.0
 11
279.5164208101
 21
915.991502629
 31
0.0
  0
SPLINE
  5
132
330
1F
100
AcDbEntity
  8
0
  6
SLD-Solid
 62
     7
370
    15
100
AcDbSpline
210
0.0
220
0.0
230
1.0
 70
     8
 71
     3
 72
    13
 73
     9
 74
     0
 42
0.00000001
 43
0.00000001
 40
0.0
 40
0.0
 40
0.0
 40
0.0
 40
0.007546223114325
 40
0.272276378851205
 40
0.4815195415730053
 40
0.6613541616921383
 40
0.8304588949397433
 40
0.9999999999999999
 40
0.9999999999999999
 40
0.9999999999999999
 40
0.9999999999999999
 10
283.9164208100817
 20
910.7070167773308
 30
0.0
 10
283.9164239941243
 20
910.7068018423356
 30
0.0
 10
283.9165388780285
 20
910.6990467413691
 30
0.0
 10
283.9281245376391
 20
910.6850970858974
 30
0.0
 10
283.9708433169119
 20
910.6677433586624
 30
0.0
 10
284.0265149200159
 20
910.6555779817754
 30
0.0
 10
284.0926507133969
 20
910.6474700660067
 30
0.0
 10
284.141809662795
 20
910.6463990738425
 30
0.0
 10
284.1664208100816
 20
910.6458628877314
 30
0.0
  0
LINE
  5
133
330
1F
100
AcDbEntity
  8
0
  6
SLD-Solid
 62
     7
370
    15
100
AcDbLine
 10
283.9164208101
 20
902.8810832251
 30
0.0
 11
283.9164208101
 21
910.7070167773
 31
0.0
  0
SPLINE
  5
134
330
1F
100
AcDbEntity
  8
0
  6
SLD-Solid
 62
     7
370
    15
100
AcDbSpline
210
0.0
220
0.0
230
1.0
 70
     8
 71
     3
 72
    13
 73
     9
 74
     0
 42
0.00000001
 43
0.00000001
 40
0.0
 40
0.0
 40
0.0
 40
0.0
 40
0.1695411050602361
 40
0.3386458383078031
 40
0.5184804584269285
 40
0.7277236211485858
 40
0.9924537768855253
 40
1.0
 40
1.0
 40
1.0
 40
1.0
 10
284.8664208100817
 20
910.6458628877314
 30
0.0
 10
284.8910319573683
 20
910.6463990738425
 30
0.0
 10
284.9401909067668
 20
910.6474700660066
 30
0.0
 10
285.006326700147
 20
910.6555779817753
 30
0.0
 10
285.0619983032516
 20
910.6677433586625
 30
0.0
 10
285.1047170825234
 20
910.6850970858973
 30
0.0
 10
285.1163027421366
 20
910.6990467413696
 30
0.0
 10
285.116417626039
 20
910.7068018423356
 30
0.0
 10
285.1164208100816
 20
910.7070167773309
 30
0.0
  0
LINE
  5
135
330
1F
100
AcDbEntity
  8
0
  6
SLD-Solid
 62
     7
370
    15
100
AcDbLine
 10
285.1164208101
 20
910.7070167773
 30
0.0
 11
285.1164208101
 21
903.2803802911
 31
0.0
  0
LINE
  5
136
330
1F
100
AcDbEntity
  8
0
  6
SLD-Solid
 62
     7
370
    15
100
AcDbLine
 10
284.8664208101
 20
910.6458628877
 30
0.0
 11
284.1664208101
 21
910.6458628877
 31
0.0
  0
SPLINE
  5
137
330
1F
100
AcDbEntity
  8
0
  6
SLD-Solid
 62
     7
370
    15
100
AcDbSpline
210
0.0
220
0.0
230
1.0
 70
     8
 71
     3
 72
    12
 73
     8
 74
     0
 42
0.00000001
 43
0.00000001
 40
0.0
 40
0.0
 40
0.0
 40
0.0
 40
0.2028202020467127
 40
0.4049472449426293
 40
0.609831203074044
 40
0.8226939241827155
 40
1.0
 40
1.0
 40
1.0
 40
1.0
 10
285.3664208100816
 20
916.3441411549535
 30
0.0
 10
285.2092799695463
 20
916.3329249124209
 30
0.0
 10
284.895535333654
 20
916.3105307600321
 30
0.0
 10
284.4751390831843
 20
916.136470092259
 30
0.0
 10
284.1480605477446
 20
915.8774256289739
 30
0.0
 10
283.9498512814784
 20
915.5654148474187
 30
0.0
 10
283.9268660755565
 20
915.3440587801864
 30
0.0
 10
283.9164208100817
 20
915.2434669954295
 30
0.0
  0
SPLINE
  5
138
330
1F
100
AcDbEntity
  8
0
  6
SLD-Solid
 62
     7
370
    15
100
AcDbSpline
210
0.0
220
0.0
230
1.0
 70
     8
 71
     3
 72
    12
 73
     8
 74
     0
 42
0.00000001
 43
0.00000001
 40
0.0
 40
0.0
 40
0.0
 40
0.0
 40
0.2289440738516392
 40
0.4594214300241614
 40
0.6825355698158142
 40
0.8947175231628812
 40
1.0
 40
1.0
 40
1.0
 40
1.0
 10
283.9164208100815
 20
910.9295024455078
 30
0.0
 10
283.9337552946592
 20
911.0455506041819
 30
0.0
 10
283.9685403561785
 20
911.2784241182799
 30
0.0
 10
284.2424102019907
 20
911.5873123056623
 30
0.0
 10
284.6394467364735
 20
911.8101814274138
 30
0.0
 10
285.0403227258265
 20
911.9104307024788
 30
0.0
 10
285.2852081189132
 20
911.9189576855842
 30
0.0
 10
285.3664208100816
 20
911.9217855359383
 30
0.0
  0
LINE
  5
139
330
1F
100
AcDbEntity
  8
0
  6
SLD-Solid
 62
     7
370
    15
100
AcDbLine
 10
283.9164208101
 20
910.9295024455
 30
0.0
 11
283.9164208101
 21
915.2434669954
 31
0.0
  0
LINE
  5
13A
330
1F
100
AcDbEntity
  8
0
  6
SLD-Solid
 62
     7
370
    15
100
AcDbLine
 10
290.7164208101
 20
916.1242774286
 30
0.0
 11
290.7164208101
 21
911.8103128787
 31
0.0
  0
LINE
  5
13B
330
1F
100
AcDbEntity
  8
0
  6
SLD-Solid
 62
     7
370
    15
100
AcDbLine
 10
290.7164208101
 20
911.8103128787
 30
0.0
 11
290.7164208101
 21
911.2981104565
 31
0.0
  0
LINE
  5
13C
330
1F
100
AcDbEntity
  8
0
  6
SLD-Solid
 62
     7
370
    15
100
AcDbLine
 10
285.1164208101
 20
910.9295024455
 30
0.0
 11
285.1164208101
 21
910.7070167773
 31
0.0
  0
LINE
  5
13D
330
1F
100
AcDbEntity
  8
0
  6
SLD-Solid
 62
     7
370
    15
100
AcDbLine
 10
283.9164208101
 20
910.7070167773
 30
0.0
 11
283.9164208101
 21
910.9295024455
 31
0.0
  0
LINE
  5
13E
330
1F
100
AcDbEntity
  8
0
  6
SLD-Solid
 62
     7
370
    15
100
AcDbLine
 10
285.3664208101
 20
916.3742774286
 30
0.0
 11
285.3664208101
 21
916.344141155
 31
0.0
  0
LINE
  5
13F
330
1F
100
AcDbEntity
  8
0
  6
SLD-Solid
 62
     7
370
    15
100
AcDbLine
 10
283.9164208101
 20
915.2434669954
 30
0.0
 11
283.9164208101
 21
915.8237011205
 31
0.0
  0
LINE
  5
140
330
1F
100
AcDbEntity
  8
0
  6
SLD-Solid
 62
     7
370
    15
100
AcDbLine
 10
290.7164208101
 20
899.1353272346
 30
0.0
 11
290.7164208101
 21
898.6231248124
 31
0.0
  0
LINE
  5
141
330
1F
100
AcDbEntity
  8
0
  6
SLD-Solid
 62
     7
370
    15
100
AcDbLine
 10
290.7164208101
 20
901.8723828124
 30
0.0
 11
290.7164208101
 21
899.1353272346
 31
0.0
  0
LINE
  5
142
330
1F
100
AcDbEntity
  8
0
  6
SLD-Solid
 62
     7
370
    15
100
AcDbLine
 10
283.4698388227
 20
911.9812791639
 30
0.0
 11
283.9164208101
 21
909.3229261878
 31
0.0
  0
SPLINE
  5
143
330
1F
100
AcDbEntity
  8
0
  6
SLD-Solid
 62
     7
370
    15
100
AcDbSpline
210
0.0
220
0.0
230
1.0
 70
     8
 71
     3
 72
     9
 73
     5
 74
     0
 42
0.00000001
 43
0.00000001
 40
0.0
 40
0.0
 40
0.0
 40
0.0
 40
0.0702005767034113
 40
1.0
 40
1.0
 40
1.0
 40
1.0
 10
283.9164208100817
 20
909.322926187776
 30
0.0
 10
283.915974693814
 20
909.2599074929319
 30
0.0
 10
283.9096198134339
 20
908.362212661872
 30
0.0
 10
283.6817303315384
 20
907.4825153058989
 30
0.0
 10
283.4698388226964
 20
906.6645732116399
 30
0.0
  0
LINE
  5
144
330
1F
100
AcDbEntity
  8
0
  6
SLD-Solid
 62
     7
370
    15
100
AcDbLine
 10
283.4698388227
 20
906.6645732116
 30
0.0
 11
279.1630027975
 21
906.6645732116
 31
0.0
  0
SPLINE
  5
145
330
1F
100
AcDbEntity
  8
0
  6
SLD-Solid
 62
     7
370
    15
100
AcDbSpline
210
0.0
220
0.0
230
1.0
 70
     8
 71
     3
 72
     9
 73
     5
 74
     0
 42
0.00000001
 43
0.00000001
 40
0.0
 40
0.0
 40
0.0
 40
0.0
 40
0.0702005767034113
 40
1.0
 40
1.0
 40
1.0
 40
1.0
 10
278.7164208100816
 20
909.322926187776
 30
0.0
 10
278.7168669263493
 20
909.2599074929319
 30
0.0
 10
278.72322180673
 20
908.362212661872
 30
0.0
 10
278.9511112886254
 20
907.4825153058989
 30
0.0
 10
279.163002797467
 20
906.6645732116399
 30
0.0
  0
LINE
  5
146
330
1F
100
AcDbEntity
  8
0
  6
SLD-Solid
 62
     7
370
    15
100
AcDbLine
 10
279.1630027975
 20
911.9812791639
 30
0.0
 11
278.7164208101
 21
909.3229261878
 31
0.0
  0
LINE
  5
147
330
1F
100
AcDbEntity
  8
0
  6
SLD-Solid
 62
     7
370
    15
100
AcDbLine
 10
283.4698388227
 20
911.9812791639
 30
0.0
 11
279.1630027975
 21
911.9812791639
 31
0.0
  0
SPLINE
  5
148
330
1F
100
AcDbEntity
  8
0
  6
SLD-Solid
 62
     7
370
    15
100
AcDbSpline
210
0.0
220
0.0
230
1.0
 70
     8
 71
     3
 72
     9
 73
     5
 74
     0
 42
0.00000001
 43
0.00000001
 40
0.0
 40
0.0
 40
0.0
 40
0.0
 40
0.2686336050555678
 40
1.0
 40
1.0
 40
1.0
 40
1.0
 10
278.7164208100816
 20
904.3607841899457
 30
0.0
 10
278.7230497626663
 20
904.5702630762725
 30
0.0
 10
278.7477263201026
 20
905.3500571243154
 30
0.0
 10
278.9875810837026
 20
906.1092933502019
 30
0.0
 10
279.163002797467
 20
906.6645732116399
 30
0.0
  0
LINE
  5
149
330
1F
100
AcDbEntity
  8
0
  6
SLD-Solid
 62
     7
370
    15
100
AcDbLine
 10
278.7164208101
 20
904.3607841899
 30
0.0
 11
278.7164208101
 21
909.3229261878
 31
0.0
  0
SPLINE
  5
14A
330
1F
100
AcDbEntity
  8
0
  6
SLD-Solid
 62
     7
370
    15
100
AcDbSpline
210
0.0
220
0.0
230
1.0
 70
     8
 71
     3
 72
     9
 73
     5
 74
     0
 42
0.00000001
 43
0.00000001
 40
0.0
 40
0.0
 40
0.0
 40
0.0
 40
0.2686336050555678
 40
1.0
 40
1.0
 40
1.0
 40
1.0
 10
283.9164208100817
 20
904.3607841899457
 30
0.0
 10
283.9097918574973
 20
904.5702630762725
 30
0.0
 10
283.8851153000612
 20
905.3500571243154
 30
0.0
 10
283.645260536461
 20
906.1092933502019
 30
0.0
 10
283.4698388226964
 20
906.6645732116399
 30
0.0
  0
LINE
  5
14B
330
1F
100
AcDbEntity
  8
0
  6
SLD-Solid
 62
     7
370
    15
100
AcDbLine
 10
283.6953378123
 20
902.8810832251
 30
0.0
 11
283.9164208101
 21
904.3607841899
 31
0.0
  0
LINE
  5
14C
330
1F
100
AcDbEntity
  8
0
  6
SLD-Solid
 62
     7
370
    15
100
AcDbLine
 10
279.5164208101
 20
902.0569951683
 30
0.0
 11
279.1630027975
 21
902.0569951683
 31
0.0
  0
SPLINE
  5
14D
330
1F
100
AcDbEntity
  8
0
  6
SLD-Solid
 62
     7
370
    15
100
AcDbSpline
210
0.0
220
0.0
230
1.0
 70
     8
 71
     3
 72
     9
 73
     5
 74
     0
 42
0.00000001
 43
0.00000001
 40
0.0
 40
0.0
 40
0.0
 40
0.0
 40
0.2575513451038032
 40
1.0
 40
1.0
 40
1.0
 40
1.0
 10
279.163002797467
 20
902.0569951682515
 30
0.0
 10
279.0955875746919
 20
902.250402259289
 30
0.0
 10
278.8338330777482
 20
903.001348021034
 30
0.0
 10
278.7664495899555
 20
903.7815352392294
 30
0.0
 10
278.7164208100816
 20
904.3607841899457
 30
0.0
  0
SPLINE
  5
14E
330
1F
100
AcDbEntity
  8
0
  6
SLD-Solid
 62
     7
370
    15
100
AcDbSpline
210
0.0
220
0.0
230
1.0
 70
     8
 71
     3
 72
     9
 73
     5
 74
     0
 42
0.00000001
 43
0.00000001
 40
0.0
 40
0.0
 40
0.0
 40
0.0
 40
0.0702005767034222
 40
1.0
 40
1.0
 40
1.0
 40
1.0
 10
278.7164208100816
 20
912.3358431183542
 30
0.0
 10
278.7168669263493
 20
912.3274378547011
 30
0.0
 10
278.723221806729
 20
912.2077057378457
 30
0.0
 10
278.9511112886249
 20
912.090374075705
 30
0.0
 10
279.1630027974667
 20
911.9812791639123
 30
0.0
  0
LINE
  5
14F
330
1F
100
AcDbEntity
  8
0
  6
SLD-Solid
 62
     7
370
    15
100
AcDbLine
 10
278.7164208101
 20
909.3229261878
 30
0.0
 11
278.7164208101
 21
912.3358431184
 31
0.0
  0
SPLINE
  5
150
330
1F
100
AcDbEntity
  8
0
  6
SLD-Solid
 62
     7
370
    15
100
AcDbSpline
210
0.0
220
0.0
230
1.0
 70
     8
 71
     3
 72
     9
 73
     5
 74
     0
 42
0.00000001
 43
0.00000001
 40
0.0
 40
0.0
 40
0.0
 40
0.0
 40
0.0702005767034222
 40
1.0
 40
1.0
 40
1.0
 40
1.0
 10
283.9164208100817
 20
912.3358431183542
 30
0.0
 10
283.915974693814
 20
912.3274378547011
 30
0.0
 10
283.9096198134328
 20
912.2077057378457
 30
0.0
 10
283.6817303315378
 20
912.090374075705
 30
0.0
 10
283.4698388226964
 20
911.9812791639123
 30
0.0
  0
LINE
  5
151
330
1F
100
AcDbEntity
  8
0
  6
SLD-Solid
 62
     7
370
    15
100
AcDbLine
 10
279.1630027975
 20
902.0569951683
 30
0.0
 11
278.7164208101
 21
902.4115591227
 31
0.0
  0
LINE
  5
152
330
1F
100
AcDbEntity
  8
0
  6
SLD-Solid
 62
     7
370
    15
100
AcDbLine
 10
278.7164208101
 20
904.3607841899
 30
0.0
 11
278.7164208101
 21
902.3738518269
 31
0.0
  0
LINE
  5
153
330
1F
100
AcDbEntity
  8
0
  6
SLD-Solid
 62
     7
370
    15
100
AcDbLine
 10
283.4698388227
 20
912.6904070728
 30
0.0
 11
283.9164208101
 21
912.3358431184
 31
0.0
  0
LINE
  5
154
330
1F
100
AcDbEntity
  8
0
  6
SLD-Solid
 62
     7
370
    15
100
AcDbLine
 10
279.1630027975
 20
912.6904070728
 30
0.0
 11
278.7164208101
 21
912.3358431184
 31
0.0
  0
LINE
  5
155
330
1F
100
AcDbEntity
  8
0
  6
SLD-Solid
 62
     7
370
    15
100
AcDbLine
 10
283.4698388227
 20
912.6904070728
 30
0.0
 11
279.1630027975
 21
912.6904070728
 31
0.0
  0
LINE
  5
156
330
1F
100
AcDbEntity
  8
0
  6
SLD-Solid
 62
     7
370
    15
100
AcDbLine
 10
291.0698388227
 20
912.8750194287
 30
0.0
 11
291.5164208101
 21
910.7411348678
 31
0.0
  0
SPLINE
  5
157
330
1F
100
AcDbEntity
  8
0
  6
SLD-Solid
 62
     7
370
    15
100
AcDbSpline
210
0.0
220
0.0
230
1.0
 70
     8
 71
     3
 72
     9
 73
     5
 74
     0
 42
0.00000001
 43
0.00000001
 40
0.0
 40
0.0
 40
0.0
 40
0.0
 40
0.0702005767034188
 40
1.0
 40
1.0
 40
1.0
 40
1.0
 10
291.5164208100816
 20
910.7411348677938
 30
0.0
 10
291.5159746938141
 20
910.6905491776378
 30
0.0
 10
291.5096198134333
 20
909.9699612205103
 30
0.0
 10
291.281730331538
 20
909.263820003363
 30
0.0
 10
291.0698388226965
 20
908.6072503068933
 30
0.0
  0
LINE
  5
158
330
1F
100
AcDbEntity
  8
0
  6
SLD-Solid
 62
     7
370
    15
100
AcDbLine
 10
291.0698388227
 20
908.6072503069
 30
0.0
 11
286.7630027975
 21
908.6072503069
 31
0.0
  0
SPLINE
  5
159
330
1F
100
AcDbEntity
  8
0
  6
SLD-Solid
 62
     7
370
    15
100
AcDbSpline
210
0.0
220
0.0
230
1.0
 70
     8
 71
     3
 72
     9
 73
     5
 74
     0
 42
0.00000001
 43
0.00000001
 40
0.0
 40
0.0
 40
0.0
 40
0.0
 40
0.0702005767034319
 40
1.0
 40
1.0
 40
1.0
 40
1.0
 10
286.3164208100817
 20
910.7411348677938
 30
0.0
 10
286.3168669263492
 20
910.6905491776379
 30
0.0
 10
286.3232218067291
 20
909.9699612205104
 30
0.0
 10
286.5511112886248
 20
909.263820003363
 30
0.0
 10
286.7630027974668
 20
908.6072503068933
 30
0.0
  0
LINE
  5
15A
330
1F
100
AcDbEntity
  8
0
  6
SLD-Solid
 62
     7
370
    15
100
AcDbLine
 10
286.3806650391
 20
911.0481104565
 30
0.0
 11
286.3164208101
 21
910.7411348678
 31
0.0
  0
LINE
  5
15B
330
1F
100
AcDbEntity
  8
0
  6
SLD-Solid
 62
     7
370
    15
100
AcDbLine
 10
291.0698388227
 20
912.8750194287
 30
0.0
 11
290.7164208101
 21
912.8750194287
 31
0.0
  0
SPLINE
  5
15C
330
1F
100
AcDbEntity
  8
0
  6
SLD-Solid
 62
     7
370
    15
100
AcDbSpline
210
0.0
220
0.0
230
1.0
 70
     8
 71
     3
 72
     9
 73
     5
 74
     0
 42
0.00000001
 43
0.00000001
 40
0.0
 40
0.0
 40
0.0
 40
0.0
 40
0.268633605055573
 40
0.9999999999999999
 40
0.9999999999999999
 40
0.9999999999999999
 40
0.9999999999999999
 10
286.3164208100817
 20
905.8565911528083
 30
0.0
 10
286.3230497626661
 20
906.1067030384177
 30
0.0
 10
286.3477263201027
 20
907.0377551514159
 30
0.0
 10
286.5875810837024
 20
907.944261804231
 30
0.0
 10
286.7630027974668
 20
908.6072503068933
 30
0.0
  0
SPLINE
  5
15D
330
1F
100
AcDbEntity
  8
0
  6
SLD-Solid
 62
     7
370
    15
100
AcDbSpline
210
0.0
220
0.0
230
1.0
 70
     8
 71
     3
 72
     9
 73
     5
 74
     0
 42
0.00000001
 43
0.00000001
 40
0.0
 40
0.0
 40
0.0
 40
0.0
 40
0.268633605055573
 40
0.9999999999999999
 40
0.9999999999999999
 40
0.9999999999999999
 40
0.9999999999999999
 10
291.5164208100816
 20
905.8565911528083
 30
0.0
 10
291.5097918574971
 20
906.1067030384177
 30
0.0
 10
291.4851153000611
 20
907.0377551514159
 30
0.0
 10
291.2452605364608
 20
907.944261804231
 30
0.0
 10
291.0698388226965
 20
908.6072503068933
 30
0.0
  0
LINE
  5
15E
330
1F
100
AcDbEntity
  8
0
  6
SLD-Solid
 62
     7
370
    15
100
AcDbLine
 10
291.5164208101
 20
905.8565911528
 30
0.0
 11
291.5164208101
 21
910.7411348678
 31
0.0
  0
SPLINE
  5
15F
330
1F
100
AcDbEntity
  8
0
  6
SLD-Solid
 62
     7
370
    15
100
AcDbSpline
210
0.0
220
0.0
230
1.0
 70
     8
 71
     3
 72
     9
 73
     5
 74
     0
 42
0.00000001
 43
0.00000001
 40
0.0
 40
0.0
 40
0.0
 40
0.0
 40
0.2575513451038056
 40
1.0
 40
1.0
 40
1.0
 40
1.0
 10
291.0698388226965
 20
903.1059319987231
 30
0.0
 10
291.1372540454713
 20
903.3368546137791
 30
0.0
 10
291.3990085424152
 20
904.2334626860959
 30
0.0
 10
291.4663920302081
 20
905.1649842331736
 30
0.0
 10
291.5164208100816
 20
905.8565911528083
 30
0.0
  0
LINE
  5
160
330
1F
100
AcDbEntity
  8
0
  6
SLD-Solid
 62
     7
370
    15
100
AcDbLine
 10
291.0698388227
 20
903.1059319987
 30
0.0
 11
286.7630027975
 21
903.1059319987
 31
0.0
  0
SPLINE
  5
161
330
1F
100
AcDbEntity
  8
0
  6
SLD-Solid
 62
     7
370
    15
100
AcDbSpline
210
0.0
220
0.0
230
1.0
 70
     8
 71
     3
 72
     9
 73
     5
 74
     0
 42
0.00000001
 43
0.00000001
 40
0.0
 40
0.0
 40
0.0
 40
0.0
 40
0.2575513451038056
 40
1.0
 40
1.0
 40
1.0
 40
1.0
 10
286.7630027974668
 20
903.1059319987231
 30
0.0
 10
286.695587574692
 20
903.3368546137791
 30
0.0
 10
286.433833077748
 20
904.2334626860959
 30
0.0
 10
286.3664495899554
 20
905.1649842331736
 30
0.0
 10
286.3164208100817
 20
905.8565911528083
 30
0.0
  0
LINE
  5
162
330
1F
100
AcDbEntity
  8
0
  6
SLD-Solid
 62
     7
370
    15
100
AcDbLine
 10
286.7630027975
 20
903.1059319987
 30
0.0
 11
286.3164208101
 21
902.4891574055
 31
0.0
  0
LINE
  5
163
330
1F
100
AcDbEntity
  8
0
  6
SLD-Solid
 62
     7
370
    15
100
AcDbLine
 10
291.0698388227
 20
903.1059319987
 30
0.0
 11
291.5164208101
 21
902.4891574055
 31
0.0
  0
LINE
  5
164
330
1F
100
AcDbEntity
  8
0
  6
SLD-Solid
 62
     7
370
    15
100
AcDbLine
 10
291.5164208101
 20
905.8565911528
 30
0.0
 11
291.5164208101
 21
902.4891574055
 31
0.0
  0
LINE
  5
165
330
1F
100
AcDbEntity
  8
0
  6
SLD-Solid
 62
     7
370
    15
100
AcDbLine
 10
291.3673007288
 20
912.4913099029
 30
0.0
 11
291.0698388227
 21
912.8750194287
 31
0.0
  0
LINE
  5
166
330
1F
100
AcDbEntity
  8
0
  6
SLD-Solid
 62
     7
370
    15
100
AcDbLine
 10
291.5164208101
 20
912.3737011205
 30
0.0
 11
291.5164208101
 21
910.7411348678
 31
0.0
  0
SPLINE
  5
167
330
1F
100
AcDbEntity
  8
0
  6
SLD-Solid
 62
     7
370
    15
100
AcDbSpline
210
0.0
220
0.0
230
1.0
 70
     8
 71
     3
 72
     9
 73
     5
 74
     0
 42
0.00000001
 43
0.00000001
 40
0.0
 40
0.0
 40
0.0
 40
0.0
 40
0.0702005767034244
 40
1.0
 40
1.0
 40
1.0
 40
1.0
 10
291.5164208100816
 20
902.4891574055383
 30
0.0
 10
291.5159746938141
 20
902.4745361982629
 30
0.0
 10
291.5096198134337
 20
902.2662586033755
 30
0.0
 10
291.281730331538
 20
902.0621566711917
 30
0.0
 10
291.0698388226962
 20
901.8723828123536
 30
0.0
  0
LINE
  5
168
330
1F
100
AcDbEntity
  8
0
  6
SLD-Solid
 62
     7
370
    15
100
AcDbLine
 10
291.0698388227
 20
901.8723828124
 30
0.0
 11
286.7630027975
 21
901.8723828124
 31
0.0
  0
LINE
  5
169
330
1F
100
AcDbEntity
  8
0
  6
SLD-Solid
 62
     7
370
    15
100
AcDbLine
 10
286.4655408914
 20
902.2560923381
 30
0.0
 11
286.7630027975
 21
901.8723828124
 31
0.0
  0
LINE
  5
16A
330
1F
100
AcDbEntity
  8
0
  6
SLD-Solid
 62
     7
370
    15
100
AcDbLine
 10
291.5164208101
 20
902.4891574055
 30
0.0
 11
291.5164208101
 21
902.3737011205
 31
0.0
  0
LINE
  5
16B
330
1F
100
AcDbEntity
  8
0
  6
SLD-Solid
 62
     7
370
    15
100
AcDbLine
 10
296.5198388227
 20
905.4698684317
 30
0.0
 11
296.7164208101
 21
904.6404537683
 31
0.0
  0
LINE
  5
16C
330
1F
100
AcDbEntity
  8
0
  6
SLD-Solid
 62
     7
370
    15
100
AcDbLine
 10
296.7164208101
 20
902.4761210709
 30
0.0
 11
296.5198388227
 21
901.7014494258
 31
0.0
  0
LINE
  5
16D
330
1F
100
AcDbEntity
  8
0
  6
SLD-Solid
 62
     7
370
    15
100
AcDbLine
 10
296.5198388227
 20
901.7014494258
 30
0.0
 11
292.2130027975
 21
901.7014494258
 31
0.0
  0
SPLINE
  5
16E
330
1F
100
AcDbEntity
  8
0
  6
SLD-Solid
 62
     7
370
    15
100
AcDbSpline
210
0.0
220
0.0
230
1.0
 70
     8
 71
     3
 72
     9
 73
     5
 74
     0
 42
0.00000001
 43
0.00000001
 40
0.0
 40
0.0
 40
0.0
 40
0.0
 40
0.0702005767034225
 40
1.0
 40
1.0
 40
1.0
 40
1.0
 10
291.7664208100816
 20
903.5856589287059
 30
0.0
 10
291.7668669263493
 20
903.5409920147351
 30
0.0
 10
291.7732218067297
 20
902.9047164160411
 30
0.0
 10
292.0011112886252
 20
902.281197217228
 30
0.0
 10
292.213002797467
 20
901.7014494257571
 30
0.0
  0
LINE
  5
16F
330
1F
100
AcDbEntity
  8
0
  6
SLD-Solid
 62
     7
370
    15
100
AcDbLine
 10
292.2130027975
 20
905.4698684317
 30
0.0
 11
291.7664208101
 21
903.5856589287
 31
0.0
  0
LINE
  5
170
330
1F
100
AcDbEntity
  8
0
  6
SLD-Solid
 62
     7
370
    15
100
AcDbLine
 10
296.5198388227
 20
905.4698684317
 30
0.0
 11
292.2130027975
 21
905.4698684317
 31
0.0
  0
SPLINE
  5
171
330
1F
100
AcDbEntity
  8
0
  6
SLD-Solid
 62
     7
370
    15
100
AcDbSpline
210
0.0
220
0.0
230
1.0
 70
     8
 71
     3
 72
     9
 73
     5
 74
     0
 42
0.00000001
 43
0.00000001
 40
0.0
 40
0.0
 40
0.0
 40
0.0
 40
0.2575513451038124
 40
1.0
 40
1.0
 40
1.0
 40
1.0
 10
292.213002797467
 20
905.4698684316545
 30
0.0
 10
292.1455875746921
 20
905.7079661241052
 30
0.0
 10
291.8838330777478
 20
906.6324330196469
 30
0.0
 10
291.8164495899554
 20
907.5928981987432
 30
0.0
 10
291.7664208100816
 20
908.3059942790379
 30
0.0
  0
LINE
  5
172
330
1F
100
AcDbEntity
  8
0
  6
SLD-Solid
 62
     7
370
    15
100
AcDbLine
 10
291.7664208101
 20
903.5856589287
 30
0.0
 11
291.7664208101
 21
908.305994279
 31
0.0
  0
SPLINE
  5
173
330
1F
100
AcDbEntity
  8
0
  6
SLD-Solid
 62
     7
370
    15
100
AcDbSpline
210
0.0
220
0.0
230
1.0
 70
     8
 71
     3
 72
     9
 73
     5
 74
     0
 42
0.00000001
 43
0.00000001
 40
0.0
 40
0.0
 40
0.0
 40
0.0
 40
0.9250528693065805
 40
1.0
 40
1.0
 40
1.0
 40
1.0
 10
296.5198388226964
 20
905.4698684316545
 30
0.0
 10
296.5983925354607
 20
905.7059032314817
 30
0.0
 10
296.6833106146005
 20
905.9610614042293
 30
0.0
 10
296.7141123112973
 20
906.2262421461276
 30
0.0
 10
296.7164208100852
 20
906.2461166818481
 30
0.0
  0
SPLINE
  5
174
330
1F
100
AcDbEntity
  8
0
  6
SLD-Solid
 62
     7
370
    15
100
AcDbSpline
210
0.0
220
0.0
230
1.0
 70
     8
 71
     3
 72
     9
 73
     5
 74
     0
 42
0.00000001
 43
0.00000001
 40
0.0
 40
0.0
 40
0.0
 40
0.0
 40
0.2686336050555705
 40
1.0
 40
1.0
 40
1.0
 40
1.0
 10
291.7664208100816
 20
908.3059942790379
 30
0.0
 10
291.7730497626663
 20
908.5638774785833
 30
0.0
 10
291.7977263201026
 20
909.5238586376499
 30
0.0
 10
292.0375810837026
 20
910.4585316759488
 30
0.0
 10
292.213002797467
 20
911.1421201264213
 30
0.0
  0
LINE
  5
175
330
1F
100
AcDbEntity
  8
0
  6
SLD-Solid
 62
     7
370
    15
100
AcDbLine
 10
296.5198388227
 20
911.1421201264
 30
0.0
 11
292.2130027975
 21
911.1421201264
 31
0.0
  0
LINE
  5
176
330
1F
100
AcDbEntity
  8
0
  6
SLD-Solid
 62
     7
370
    15
100
AcDbLine
 10
296.7164208101
 20
910.1551617906
 30
0.0
 11
296.5198388227
 21
911.1421201264
 31
0.0
  0
LINE
  5
177
330
1F
100
AcDbEntity
  8
0
  6
SLD-Solid
 62
     7
370
    15
100
AcDbLine
 10
296.7164208101
 20
911.5334898756
 30
0.0
 11
296.5198388227
 21
911.1421201264
 31
0.0
  0
SPLINE
  5
178
330
1F
100
AcDbEntity
  8
0
  6
SLD-Solid
 62
     7
370
    15
100
AcDbSpline
210
0.0
220
0.0
230
1.0
 70
     8
 71
     3
 72
     9
 73
     5
 74
     0
 42
0.00000001
 43
0.00000001
 40
0.0
 40
0.0
 40
0.0
 40
0.0
 40
0.0702005767034197
 40
1.0
 40
1.0
 40
1.0
 40
1.0
 10
291.7664208100816
 20
912.094036470856
 30
0.0
 10
291.7668669263491
 20
912.0714704210629
 30
0.0
 10
291.7732218067297
 20
911.750019361075
 30
0.0
 10
292.0011112886252
 20
911.4350129270825
 30
0.0
 10
292.213002797467
 20
911.1421201264213
 30
0.0
  0
LINE
  5
179
330
1F
100
AcDbEntity
  8
0
  6
SLD-Solid
 62
     7
370
    15
100
AcDbLine
 10
291.7664208101
 20
908.305994279
 30
0.0
 11
291.7664208101
 21
912.0940364709
 31
0.0
  0
LINE
  5
17A
330
1F
100
AcDbEntity
  8
0
  6
SLD-Solid
 62
     7
370
    15
100
AcDbLine
 10
296.5198388227
 20
913.0459528153
 30
0.0
 11
296.6957837401
 21
912.67091565
 31
0.0
  0
LINE
  5
17B
330
1F
100
AcDbEntity
  8
0
  6
SLD-Solid
 62
     7
370
    15
100
AcDbLine
 10
292.2130027975
 20
913.0459528153
 30
0.0
 11
291.7664208101
 21
912.0940364709
 31
0.0
  0
LINE
  5
17C
330
1F
100
AcDbEntity
  8
0
  6
SLD-Solid
 62
     7
370
    15
100
AcDbLine
 10
296.5198388227
 20
913.0459528153
 30
0.0
 11
292.2130027975
 21
913.0459528153
 31
0.0
  0
LINE
  5
17D
330
1F
100
AcDbEntity
  8
0
  6
SLD-Solid
 62
     7
370
    15
100
AcDbLine
 10
292.2130027975
 20
901.7014494258
 30
0.0
 11
292.03705788
 21
902.0764865911
 31
0.0
  0
LINE
  5
17E
330
1F
100
AcDbEntity
  8
0
  6
SLD-Solid
 62
     7
370
    15
100
AcDbLine
 10
291.7664208101
 20
902.3737011205
 30
0.0
 11
291.7664208101
 21
903.5856589287
 31
0.0
  0
LINE
  5
17F
330
1F
100
AcDbEntity
  8
0
  6
SLD-Solid
 62
     7
370
    15
100
AcDbLine
 10
296.5198388227
 20
901.7014494258
 30
0.0
 11
296.6957837401
 21
902.0764865911
 31
0.0
  0
LINE
  5
180
330
1F
100
AcDbEntity
  8
0
  6
SLD-Solid
 62
     7
370
    15
100
AcDbLine
 10
291.7664208101
 20
912.0940364709
 30
0.0
 11
291.7664208101
 21
912.3737011205
 31
0.0
  0
LINE
  5
181
330
1F
100
AcDbEntity
  8
0
  6
SLD-Solid
 62
     7
370
    15
100
AcDbLine
 10
381.2164208101
 20
1153.6737011244
 30
0.0
 11
381.8517168731
 21
1160.9351683526
 31
0.0
  0
LINE
  5
182
330
1F
100
AcDbEntity
  8
0
  6
SLD-Solid
 62
     7
370
    15
100
AcDbLine
 10
384.2050049044
 20
1153.6737011244
 30
0.0
 11
381.2164208101
 21
1153.6737011244
 31
0.0
  0
LINE
  5
183
330
1F
100
AcDbEntity
  8
0
  6
SLD-Solid
 62
     7
370
    15
100
AcDbLine
 10
384.2050049044
 20
1153.6737011244
 30
0.0
 11
938.2278367158
 21
1153.6737011244
 31
0.0
  0
LINE
  5
184
330
1F
100
AcDbEntity
  8
0
  6
SLD-Solid
 62
     7
370
    15
100
AcDbLine
 10
941.2164208101
 20
1153.6737011244
 30
0.0
 11
940.581124747
 21
1160.9351683526
 31
0.0
  0
LINE
  5
185
330
1F
100
AcDbEntity
  8
0
  6
SLD-Solid
 62
     7
370
    15
100
AcDbLine
 10
938.2278367158
 20
1153.6737011244
 30
0.0
 11
941.2164208101
 21
1153.6737011244
 31
0.0
  0
LINE
  5
186
330
1F
100
AcDbEntity
  8
0
  6
SLD-Solid
 62
     7
370
    15
100
AcDbLine
 10
384.8403009674
 20
1163.6737011244
 30
0.0
 11
937.5925406528
 21
1163.6737011244
 31
0.0
  0
ARC
  5
187
330
1F
100
AcDbEntity
  8
0
  6
SLD-Solid
 62
     7
370
    15
100
AcDbCircle
 10
384.8403009674
 20
1160.6737011244
 30
0.0
 40
3.0
100
AcDbArc
 50
90.0
 51
175.0
  0
ARC
  5
188
330
1F
100
AcDbEntity
  8
0
  6
SLD-Solid
 62
     7
370
    15
100
AcDbCircle
 10
937.5925406528
 20
1160.6737011244
 30
0.0
 40
3.0
100
AcDbArc
 50
5.0
 51
90.0
  0
SPLINE
  5
189
330
1F
100
AcDbEntity
  8
0
  6
SLD-Solid
 62
     7
370
    15
100
AcDbSpline
210
0.0
220
0.0
230
1.0
 70
     8
 71
     3
 72
     9
 73
     5
 74
     0
 42
0.00000001
 43
0.00000001
 40
0.0
 40
0.0
 40
0.0
 40
0.0
 40
0.7433199394798399
 40
1.0
 40
1.0
 40
1.0
 40
1.0
 10
393.2461190047578
 20
1153.509067003823
 30
0.0
 10
393.2582709636123
 20
1153.574082722525
 30
0.0
 10
393.2746191848948
 20
1153.661549390979
 30
0.0
 10
393.3224610716335
 20
1153.671219102304
 30
0.0
 10
393.334741130017
 20
1153.673701124392
 30
0.0
  0
SPLINE
  5
18A
330
1F
100
AcDbEntity
  8
0
  6
SLD-Solid
 62
     7
370
    15
100
AcDbSpline
210
0.0
220
0.0
230
1.0
 70
     8
 71
     3
 72
     9
 73
     5
 74
     0
 42
0.00000001
 43
0.00000001
 40
0.0
 40
0.0
 40
0.0
 40
0.0
 40
0.7522132075888408
 40
1.0
 40
1.0
 40
1.0
 40
1.0
 10
929.0981004901499
 20
1153.673701124392
 30
0.0
 10
929.1303471708266
 20
1153.653246960118
 30
0.0
 10
929.1732162408604
 20
1153.626054983072
 30
0.0
 10
929.1840405055752
 20
1153.532298597798
 30
0.0
 10
929.1867226154092
 20
1153.509067003823
 30
0.0
  0
ARC
  5
18B
330
1F
100
AcDbEntity
  8
0
  6
SLD-Solid
 62
     7
370
    15
100
AcDbCircle
 10
384.2905684656
 20
1152.6737011244
 30
0.0
 40
1.000000000000124
100
AcDbArc
 50
18.5
 51
90.0
  0
SPLINE
  5
18C
330
1F
100
AcDbEntity
  8
0
  6
SLD-Solid
 62
     7
370
    15
100
AcDbSpline
210
0.0
220
0.0
230
1.0
 70
    24
 71
     3
 72
    10
 73
     6
 74
     0
 42
0.00000001
 43
0.00000001
 40
0.0
 40
0.0
 40
0.0
 40
0.0
 40
0.3994138303566935
 40
0.9948553453313108
 40
1.0
 40
1.0
 40
1.0
 40
1.0
 10
393.2461190047578
 20
1153.509067003823
 30
0.0
 10
393.2390922212292
 20
1153.428750500585
 30
0.0
 10
393.2215899901535
 20
1153.228699084006
 30
0.0
 10
393.1960106975994
 20
1152.936326432028
 30
0.0
 10
393.1807894856145
 20
1152.762347183102
 30
0.0
 10
393.1806590998628
 20
1152.76085686714
 30
0.0
  0
SPLINE
  5
18D
330
1F
100
AcDbEntity
  8
0
  6
SLD-Solid
 62
     7
370
    15
100
AcDbSpline
210
0.0
220
0.0
230
1.0
 70
    24
 71
     3
 72
    10
 73
     6
 74
     0
 42
0.00000001
 43
0.00000001
 40
0.0
 40
0.0
 40
0.0
 40
0.0
 40
0.0051446546679014
 40
0.6005861696431299
 40
1.0
 40
1.0
 40
1.0
 40
1.0
 10
929.2521825203041
 20
1152.76085686714
 30
0.0
 10
929.2520521345525
 20
1152.7623471831
 30
0.0
 10
929.2368309226
 20
1152.936326431841
 30
0.0
 10
929.2112516300047
 20
1153.228699084057
 30
0.0
 10
929.1937493989351
 20
1153.4287505006
 30
0.0
 10
929.1867226154092
 20
1153.509067003823
 30
0.0
  0
ARC
  5
18E
330
1F
100
AcDbEntity
  8
0
  6
SLD-Solid
 62
     7
370
    15
100
AcDbCircle
 10
938.1422731545
 20
1152.6737011244
 30
0.0
 40
0.9999999999999624
100
AcDbArc
 50
90.0
 51
161.5
  0
ARC
  5
18F
330
1F
100
AcDbEntity
  8
0
  6
SLD-Solid
 62
     7
370
    15
100
AcDbCircle
 10
649.4000896361
 20
1152.6737011244
 30
0.0
 40
0.9999999999998402
100
AcDbArc
 50
5.0
 51
90.0
  0
ARC
  5
190
330
1F
100
AcDbEntity
  8
0
  6
SLD-Solid
 62
     7
370
    15
100
AcDbCircle
 10
673.0327519841
 20
1152.6737011244
 30
0.0
 40
0.9999999999999535
100
AcDbArc
 50
90.0
 51
175.0
  0
LINE
  5
191
330
1F
100
AcDbEntity
  8
0
  6
SLD-Solid
 62
     7
370
    15
100
AcDbLine
 10
388.9644802814
 20
1141.856396468
 30
0.0
 11
385.2388921208
 21
1152.9910057808
 31
0.0
  0
LINE
  5
192
330
1F
100
AcDbEntity
  8
0
  6
SLD-Solid
 62
     7
370
    15
100
AcDbLine
 10
937.1939494993
 20
1152.9910057808
 30
0.0
 11
933.4683613388
 21
1141.856396468
 31
0.0
  0
LINE
  5
193
330
1F
100
AcDbEntity
  8
0
  6
SLD-Solid
 62
     7
370
    15
100
AcDbLine
 10
393.1806590999
 20
1152.7608568671
 30
0.0
 11
392.2467778539
 21
1142.0865453816
 31
0.0
  0
LINE
  5
194
330
1F
100
AcDbEntity
  8
0
  6
SLD-Solid
 62
     7
370
    15
100
AcDbLine
 10
930.1860637662
 20
1142.0865453816
 30
0.0
 11
929.2521825203
 21
1152.7608568671
 31
0.0
  0
LINE
  5
195
330
1F
100
AcDbEntity
  8
0
  6
SLD-Solid
 62
     7
370
    15
100
AcDbLine
 10
651.1989325848
 20
1143.5865453816
 30
0.0
 11
650.3962843342
 21
1152.7608568671
 31
0.0
  0
LINE
  5
196
330
1F
100
AcDbEntity
  8
0
  6
SLD-Solid
 62
     7
370
    15
100
AcDbLine
 10
672.036557286
 20
1152.7608568671
 30
0.0
 11
671.2339090354
 21
1143.5865453816
 31
0.0
  0
ARC
  5
197
330
1F
100
AcDbEntity
  8
0
  6
SLD-Solid
 62
     7
370
    15
100
AcDbCircle
 10
389.9128039366
 20
1142.1737011244
 30
0.0
 40
1.0
100
AcDbArc
 50
198.5
 51
270.0
  0
ARC
  5
198
330
1F
100
AcDbEntity
  8
0
  6
SLD-Solid
 62
     7
370
    15
100
AcDbCircle
 10
391.2505831558
 20
1142.1737011244
 30
0.0
 40
1.0
100
AcDbArc
 50
270.0
 51
355.0
  0
ARC
  5
199
330
1F
100
AcDbEntity
  8
0
  6
SLD-Solid
 62
     7
370
    15
100
AcDbCircle
 10
932.5200376836
 20
1142.1737011244
 30
0.0
 40
1.000000000000034
100
AcDbArc
 50
270.0
 51
341.5
  0
ARC
  5
19A
330
1F
100
AcDbEntity
  8
0
  6
SLD-Solid
 62
     7
370
    15
100
AcDbCircle
 10
931.1822584643
 20
1142.1737011244
 30
0.0
 40
1.0
100
AcDbArc
 50
185.0
 51
270.0
  0
LINE
  5
19B
330
1F
100
AcDbEntity
  8
0
  6
SLD-Solid
 62
     7
370
    15
100
AcDbLine
 10
670.2377143373
 20
1142.6737011244
 30
0.0
 11
652.1951272829
 21
1142.6737011244
 31
0.0
  0
ARC
  5
19C
330
1F
100
AcDbEntity
  8
0
  6
SLD-Solid
 62
     7
370
    15
100
AcDbCircle
 10
652.1951272829
 20
1143.6737011244
 30
0.0
 40
1.000000000000067
100
AcDbArc
 50
185.0
 51
270.0
  0
ARC
  5
19D
330
1F
100
AcDbEntity
  8
0
  6
SLD-Solid
 62
     7
370
    15
100
AcDbCircle
 10
670.2377143373
 20
1143.6737011244
 30
0.0
 40
1.0
100
AcDbArc
 50
270.0
 51
355.0
  0
LINE
  5
19E
330
1F
100
AcDbEntity
  8
0
  6
SLD-Solid
 62
     7
370
    15
100
AcDbLine
 10
466.4588060943
 20
1166.9292179676
 30
0.0
 11
466.6117585435
 21
1167.7013174865
 31
0.0
  0
ARC
  5
19F
330
1F
100
AcDbEntity
  8
0
  6
SLD-Solid
 62
     7
370
    15
100
AcDbCircle
 10
520.5014890589
 20
1184.1737011244
 30
0.0
 40
2.000000000000227
100
AcDbArc
 50
90.0
 51
173.5
  0
LINE
  5
1A0
330
1F
100
AcDbEntity
  8
0
  6
SLD-Solid
 62
     7
370
    15
100
AcDbLine
 10
516.6035114607
 20
1167.6289337694
 30
0.0
 11
518.5143453475
 21
1184.4001075519
 31
0.0
  0
ARC
  5
1A1
330
1F
100
AcDbEntity
  8
0
  6
SLD-Solid
 62
     7
370
    15
100
AcDbCircle
 10
801.9313525613
 20
1184.1737011244
 30
0.0
 40
2.000000000000227
100
AcDbArc
 50
6.5
 51
90.0
  0
LINE
  5
1A2
330
1F
100
AcDbEntity
  8
0
  6
SLD-Solid
 62
     7
370
    15
100
AcDbLine
 10
805.8293301595
 20
1167.6289337694
 30
0.0
 11
803.9184962726
 21
1184.4001075519
 31
0.0
  0
ARC
  5
1A3
330
1F
100
AcDbEntity
  8
0
  6
SLD-Solid
 62
     7
370
    15
100
AcDbCircle
 10
521.9313525613
 20
1184.1737011244
 30
0.0
 40
2.000000000000227
100
AcDbArc
 50
6.5
 51
90.0
  0
LINE
  5
1A4
330
1F
100
AcDbEntity
  8
0
  6
SLD-Solid
 62
     7
370
    15
100
AcDbLine
 10
523.9184962726
 20
1184.4001075519
 30
0.0
 11
525.831080165
 21
1167.6135741682
 31
0.0
  0
LINE
  5
1A5
330
1F
100
AcDbEntity
  8
0
  6
SLD-Solid
 62
     7
370
    15
100
AcDbLine
 10
798.5143453475
 20
1184.4001075519
 30
0.0
 11
796.6017614552
 21
1167.6135741682
 31
0.0
  0
ARC
  5
1A6
330
1F
100
AcDbEntity
  8
0
  6
SLD-Solid
 62
     7
370
    15
100
AcDbCircle
 10
800.5014890589
 20
1184.1737011244
 30
0.0
 40
2.000000000000227
100
AcDbArc
 50
90.0
 51
173.5
  0
LINE
  5
1A7
330
1F
100
AcDbEntity
  8
0
  6
SLD-Solid
 62
     7
370
    15
100
AcDbLine
 10
521.9313525613
 20
1186.1737011244
 30
0.0
 11
520.5014890589
 21
1186.1737011244
 31
0.0
  0
LINE
  5
1A8
330
1F
100
AcDbEntity
  8
0
  6
SLD-Solid
 62
     7
370
    15
100
AcDbLine
 10
800.5014890589
 20
1186.1737011244
 30
0.0
 11
801.9313525613
 21
1186.1737011244
 31
0.0
  0
LINE
  5
1A9
330
1F
100
AcDbEntity
  8
0
  6
SLD-Solid
 62
     7
370
    15
100
AcDbLine
 10
473.9184962726
 20
1184.4001075519
 30
0.0
 11
475.8227974657
 21
1167.6862704871
 31
0.0
  0
LINE
  5
1AA
330
1F
100
AcDbEntity
  8
0
  6
SLD-Solid
 62
     7
370
    15
100
AcDbLine
 10
466.6117585435
 20
1167.7013174865
 30
0.0
 11
468.5143453475
 21
1184.4001075519
 31
0.0
  0
LINE
  5
1AB
330
1F
100
AcDbEntity
  8
0
  6
SLD-Solid
 62
     7
370
    15
100
AcDbLine
 10
566.6027032989
 20
1167.6218406241
 30
0.0
 11
568.5143453475
 21
1184.4001075519
 31
0.0
  0
LINE
  5
1AC
330
1F
100
AcDbEntity
  8
0
  6
SLD-Solid
 62
     7
370
    15
100
AcDbLine
 10
573.9184962726
 20
1184.4001075519
 30
0.0
 11
575.8319471081
 21
1167.6059651062
 31
0.0
  0
LINE
  5
1AD
330
1F
100
AcDbEntity
  8
0
  6
SLD-Solid
 62
     7
370
    15
100
AcDbLine
 10
755.8301383213
 20
1167.6218406241
 30
0.0
 11
753.9184962726
 21
1184.4001075519
 31
0.0
  0
LINE
  5
1AE
330
1F
100
AcDbEntity
  8
0
  6
SLD-Solid
 62
     7
370
    15
100
AcDbLine
 10
748.5143453475
 20
1184.4001075519
 30
0.0
 11
746.6008945121
 21
1167.6059651062
 31
0.0
  0
LINE
  5
1AF
330
1F
100
AcDbEntity
  8
0
  6
SLD-Solid
 62
     7
370
    15
100
AcDbLine
 10
855.8210830766
 20
1167.7013174865
 30
0.0
 11
853.9184962726
 21
1184.4001075519
 31
0.0
  0
LINE
  5
1B0
330
1F
100
AcDbEntity
  8
0
  6
SLD-Solid
 62
     7
370
    15
100
AcDbLine
 10
848.5143453475
 20
1184.4001075519
 30
0.0
 11
846.6100441545
 21
1167.6862704871
 31
0.0
  0
LINE
  5
1B1
330
1F
100
AcDbEntity
  8
0
  6
SLD-Solid
 62
     7
370
    15
100
AcDbLine
 10
470.5014890589
 20
1186.1737011244
 30
0.0
 11
471.9313525613
 21
1186.1737011244
 31
0.0
  0
ARC
  5
1B2
330
1F
100
AcDbEntity
  8
0
  6
SLD-Solid
 62
     7
370
    15
100
AcDbCircle
 10
470.5014890589
 20
1184.1737011244
 30
0.0
 40
2.000000000000227
100
AcDbArc
 50
90.0
 51
173.5
  0
ARC
  5
1B3
330
1F
100
AcDbEntity
  8
0
  6
SLD-Solid
 62
     7
370
    15
100
AcDbCircle
 10
471.9313525613
 20
1184.1737011244
 30
0.0
 40
2.000000000000227
100
AcDbArc
 50
6.5
 51
90.0
  0
ARC
  5
1B4
330
1F
100
AcDbEntity
  8
0
  6
SLD-Solid
 62
     7
370
    15
100
AcDbCircle
 10
570.5014890589
 20
1184.1737011244
 30
0.0
 40
2.000000000000227
100
AcDbArc
 50
90.0
 51
173.5
  0
ARC
  5
1B5
330
1F
100
AcDbEntity
  8
0
  6
SLD-Solid
 62
     7
370
    15
100
AcDbCircle
 10
571.9313525613
 20
1184.1737011244
 30
0.0
 40
2.000000000000227
100
AcDbArc
 50
6.5
 51
90.0
  0
LINE
  5
1B6
330
1F
100
AcDbEntity
  8
0
  6
SLD-Solid
 62
     7
370
    15
100
AcDbLine
 10
570.5014890589
 20
1186.1737011244
 30
0.0
 11
571.9313525613
 21
1186.1737011244
 31
0.0
  0
ARC
  5
1B7
330
1F
100
AcDbEntity
  8
0
  6
SLD-Solid
 62
     7
370
    15
100
AcDbCircle
 10
750.5014890589
 20
1184.1737011244
 30
0.0
 40
2.000000000000227
100
AcDbArc
 50
90.0
 51
173.5
  0
ARC
  5
1B8
330
1F
100
AcDbEntity
  8
0
  6
SLD-Solid
 62
     7
370
    15
100
AcDbCircle
 10
751.9313525613
 20
1184.1737011244
 30
0.0
 40
2.000000000000227
100
AcDbArc
 50
6.5
 51
90.0
  0
LINE
  5
1B9
330
1F
100
AcDbEntity
  8
0
  6
SLD-Solid
 62
     7
370
    15
100
AcDbLine
 10
751.9313525613
 20
1186.1737011244
 30
0.0
 11
750.5014890589
 21
1186.1737011244
 31
0.0
  0
ARC
  5
1BA
330
1F
100
AcDbEntity
  8
0
  6
SLD-Solid
 62
     7
370
    15
100
AcDbCircle
 10
850.5014890589
 20
1184.1737011244
 30
0.0
 40
2.000000000000227
100
AcDbArc
 50
90.0
 51
173.5
  0
ARC
  5
1BB
330
1F
100
AcDbEntity
  8
0
  6
SLD-Solid
 62
     7
370
    15
100
AcDbCircle
 10
851.9313525613
 20
1184.1737011244
 30
0.0
 40
2.000000000000227
100
AcDbArc
 50
6.5
 51
90.0
  0
LINE
  5
1BC
330
1F
100
AcDbEntity
  8
0
  6
SLD-Solid
 62
     7
370
    15
100
AcDbLine
 10
851.9313525613
 20
1186.1737011244
 30
0.0
 11
850.5014890589
 21
1186.1737011244
 31
0.0
  0
ELLIPSE
  5
1BD
330
1F
100
AcDbEntity
  8
0
  6
SLD-Solid
 62
     7
370
    15
100
AcDbEllipse
 10
414.9883003168
 20
1151.1737011244
 30
0.0
 11
5.229180776432542
 21
34.80854219515594
 31
0.0
210
0.0
220
0.0
230
0.9999999999999999
 40
0.6991287568
 41
0.1046443262353223
 42
1.222624058285291
  0
LINE
  5
1BE
330
1F
100
AcDbEntity
  8
0
  6
SLD-Solid
 62
     7
370
    15
100
AcDbLine
 10
418.6579996567
 20
1186.1737011244
 30
0.0
 11
417.646933478
 21
1186.1737011244
 31
0.0
  0
LINE
  5
1BF
330
1F
100
AcDbEntity
  8
0
  6
SLD-Solid
 62
     7
370
    15
100
AcDbLine
 10
903.7748419635
 20
1186.1737011244
 30
0.0
 11
904.7859081422
 21
1186.1737011244
 31
0.0
  0
ELLIPSE
  5
1C0
330
1F
100
AcDbEntity
  8
0
  6
SLD-Solid
 62
     7
370
    15
100
AcDbEllipse
 10
458.7244218869
 20
1126.2262992034
 30
0.0
 11
-7.907130209246362
 21
49.69431533888179
 31
0.0
210
0.0
220
0.0
230
1.0
 40
0.6981570542
 41
0.0045629715855923
 42
0.6136893060893002
  0
ELLIPSE
  5
1C1
330
1F
100
AcDbEntity
  8
0
  6
SLD-Solid
 62
     7
370
    15
100
AcDbEllipse
 10
863.7084197333
 20
1126.2262992034
 30
0.0
 11
7.907130209246362
 21
49.69431533888179
 31
0.0
210
0.0
220
0.0
230
1.0
 40
0.6981570542
 41
5.669496001090305
 42
6.278622335594012
  0
LINE
  5
1C2
330
1F
100
AcDbEntity
  8
0
  6
SLD-Solid
 62
     7
370
    15
100
AcDbLine
 10
622.7141817917
 20
1186.1737011244
 30
0.0
 11
623.7252479704
 21
1186.1737011244
 31
0.0
  0
ELLIPSE
  5
1C3
330
1F
100
AcDbEntity
  8
0
  6
SLD-Solid
 62
     7
370
    15
100
AcDbEllipse
 10
696.0489604885
 20
1151.1737011244
 30
0.0
 11
5.229180776432599
 21
34.80854219515594
 31
0.0
210
0.0
220
0.0
230
1.0
 40
0.6991287568
 41
0.1046443262353178
 42
1.222891578588119
  0
LINE
  5
1C4
330
1F
100
AcDbEntity
  8
0
  6
SLD-Solid
 62
     7
370
    15
100
AcDbLine
 10
699.7186598285
 20
1186.1737011244
 30
0.0
 11
698.7075936497
 21
1186.1737011244
 31
0.0
  0
ELLIPSE
  5
1C5
330
1F
100
AcDbEntity
  8
0
  6
SLD-Solid
 62
     7
370
    15
100
AcDbEllipse
 10
583.7211381117
 20
1126.1931980934
 30
0.0
 11
7.907130209246247
 21
49.69431533888201
 31
0.0
210
0.0
220
0.0
230
0.9999999999999999
 40
0.6981570542
 41
5.670495650653995
 42
6.296555982904367
  0
ELLIPSE
  5
1C6
330
1F
100
AcDbEntity
  8
0
  6
SLD-Solid
 62
     7
370
    15
100
AcDbEllipse
 10
738.7117035085
 20
1126.1931980934
 30
0.0
 11
-7.907130209246362
 21
49.69431533888201
 31
0.0
210
0.0
220
0.0
230
1.0
 40
0.6981570542
 41
6.269814631454845
 42
6.895874963705208
  0
LINE
  5
1C7
330
1F
100
AcDbEntity
  8
0
  6
SLD-Solid
 62
     7
370
    15
100
AcDbLine
 10
418.6579996567
 20
1186.1737011244
 30
0.0
 11
449.0967495343
 21
1186.1737011244
 31
0.0
  0
LINE
  5
1C8
330
1F
100
AcDbEntity
  8
0
  6
SLD-Solid
 62
     7
370
    15
100
AcDbLine
 10
903.7748419635
 20
1186.1737011244
 30
0.0
 11
873.3360920859
 21
1186.1737011244
 31
0.0
  0
LINE
  5
1C9
330
1F
100
AcDbEntity
  8
0
  6
SLD-Solid
 62
     7
370
    15
100
AcDbLine
 10
592.7174538133
 20
1186.1737011244
 30
0.0
 11
622.7141817917
 21
1186.1737011244
 31
0.0
  0
LINE
  5
1CA
330
1F
100
AcDbEntity
  8
0
  6
SLD-Solid
 62
     7
370
    15
100
AcDbLine
 10
729.7153878069
 20
1186.1737011244
 30
0.0
 11
699.7186598285
 21
1186.1737011244
 31
0.0
  0
SPLINE
  5
1CB
330
1F
100
AcDbEntity
  8
0
  6
SLD-Solid
 62
     7
370
    15
100
AcDbSpline
210
0.0
220
0.0
230
1.0
 70
     8
 71
     3
 72
    13
 73
     9
 74
     0
 42
0.00000001
 43
0.00000001
 40
0.0
 40
0.0
 40
0.0
 40
0.0
 40
0.0333692510767038
 40
0.2535588098818571
 40
0.4674397107072615
 40
0.6875387443018514
 40
0.8426098064501699
 40
1.0
 40
1.0
 40
1.0
 40
1.0
 10
451.6415513473289
 20
1176.116233472567
 30
0.0
 10
451.6437582011552
 20
1176.114981008902
 30
0.0
 10
451.6605271489662
 20
1176.105464067825
 30
0.0
 10
451.5958709203323
 20
1176.080127585016
 30
0.0
 10
451.4422674764229
 20
1176.038321068782
 30
0.0
 10
451.20995790745
 20
1175.991326742189
 30
0.0
 10
450.9445399000731
 20
1175.942942086444
 30
0.0
 10
450.7546928661988
 20
1175.910998246895
 30
0.0
 10
450.6590648135635
 20
1175.894907781284
 30
0.0
  0
SPLINE
  5
1CC
330
1F
100
AcDbEntity
  8
0
  6
SLD-Solid
 62
     7
370
    15
100
AcDbSpline
210
0.0
220
0.0
230
1.0
 70
     8
 71
     3
 72
    10
 73
     6
 74
     0
 42
0.00000001
 43
0.00000001
 40
0.0
 40
0.0
 40
0.0
 40
0.0
 40
0.2538629332738796
 40
0.6873541159757095
 40
1.0
 40
1.0
 40
1.0
 40
1.0
 10
870.8331923941454
 20
1176.112807854451
 30
0.0
 10
870.8263935701341
 20
1176.102506124792
 30
0.0
 10
870.8079852124914
 20
1176.074613371044
 30
0.0
 10
871.1632903541723
 20
1175.999892771728
 30
0.0
 10
871.5935074922271
 20
1175.925908587562
 30
0.0
 10
871.7737768066035
 20
1175.894907781284
 30
0.0
  0
SPLINE
  5
1CD
330
1F
100
AcDbEntity
  8
0
  6
SLD-Solid
 62
     7
370
    15
100
AcDbSpline
210
0.0
220
0.0
230
1.0
 70
     8
 71
     3
 72
    10
 73
     6
 74
     0
 42
0.00000001
 43
0.00000001
 40
0.0
 40
0.0
 40
0.0
 40
0.0
 40
0.3720608602732768
 40
0.8045487224112519
 40
1.0
 40
1.0
 40
1.0
 40
1.0
 10
591.1636872908003
 20
1175.956880978061
 30
0.0
 10
590.9522671447203
 20
1175.98739440318
 30
0.0
 10
590.4950897670844
 20
1176.0533769878
 30
0.0
 10
590.1696800427561
 20
1176.109158407326
 30
0.0
 10
590.2063842326825
 20
1176.126274378065
 30
0.0
 10
590.217808716936
 20
1176.13160186625
 30
0.0
  0
SPLINE
  5
1CE
330
1F
100
AcDbEntity
  8
0
  6
SLD-Solid
 62
     7
370
    15
100
AcDbSpline
210
0.0
220
0.0
230
1.0
 70
     8
 71
     3
 72
    10
 73
     6
 74
     0
 42
0.00000001
 43
0.00000001
 40
0.0
 40
0.0
 40
0.0
 40
0.0
 40
0.3720608602732769
 40
0.8045487224112521
 40
1.0
 40
1.0
 40
1.0
 40
1.0
 10
731.2691543293665
 20
1175.95688097806
 30
0.0
 10
731.4805744754466
 20
1175.98739440318
 30
0.0
 10
731.9377518530822
 20
1176.0533769878
 30
0.0
 10
732.2631615774109
 20
1176.109158407326
 30
0.0
 10
732.2264573874844
 20
1176.126274378065
 30
0.0
 10
732.215032903231
 20
1176.13160186625
 30
0.0
  0
ARC
  5
1CF
330
1F
100
AcDbEntity
  8
0
  6
SLD-Solid
 62
     7
370
    15
100
AcDbCircle
 10
387.9670553646
 20
1168.6737011244
 30
0.0
 40
5.0
100
AcDbArc
 50
270.0
 51
336.0375110254
  0
ARC
  5
1D0
330
1F
100
AcDbEntity
  8
0
  6
SLD-Solid
 62
     7
370
    15
100
AcDbCircle
 10
934.4657862555
 20
1168.6737011244
 30
0.0
 40
5.000000000000084
100
AcDbArc
 50
203.9624889746
 51
270.0
  0
ARC
  5
1D1
330
1F
100
AcDbEntity
  8
0
  6
SLD-Solid
 62
     7
370
    15
100
AcDbCircle
 10
653.4657862555
 20
1168.6737011244
 30
0.0
 40
5.000000000000084
100
AcDbArc
 50
203.9624889746
 51
270.0
  0
ARC
  5
1D2
330
1F
100
AcDbEntity
  8
0
  6
SLD-Solid
 62
     7
370
    15
100
AcDbCircle
 10
668.9670553646
 20
1168.6737011244
 30
0.0
 40
5.0
100
AcDbArc
 50
270.0
 51
336.0375110254
  0
SPLINE
  5
1D3
330
1F
100
AcDbEntity
  8
0
  6
SLD-Solid
 62
     7
370
    15
100
AcDbSpline
210
0.0
220
0.0
230
1.0
 70
    24
 71
     3
 72
     9
 73
     5
 74
     0
 42
0.00000001
 43
0.00000001
 40
0.0
 40
0.0
 40
0.0
 40
0.0
 40
0.5599684211443223
 40
1.0
 40
1.0
 40
1.0
 40
1.0
 10
640.6517416898804
 20
1185.194229144849
 30
0.0
 10
642.1902036981459
 20
1181.732689626252
 30
0.0
 10
644.9376122129355
 20
1175.551020467975
 30
0.0
 10
647.6869382399628
 20
1169.365036907164
 30
0.0
 10
648.8967285124245
 20
1166.643008794125
 30
0.0
  0
SPLINE
  5
1D4
330
1F
100
AcDbEntity
  8
0
  6
SLD-Solid
 62
     7
370
    15
100
AcDbSpline
210
0.0
220
0.0
230
1.0
 70
    24
 71
     3
 72
     9
 73
     5
 74
     0
 42
0.00000001
 43
0.00000001
 40
0.0
 40
0.0
 40
0.0
 40
0.0
 40
0.5599684211443223
 40
1.0
 40
1.0
 40
1.0
 40
1.0
 10
681.7810999302866
 20
1185.194229144849
 30
0.0
 10
680.2426379220212
 20
1181.732689626252
 30
0.0
 10
677.4952294072314
 20
1175.551020467975
 30
0.0
 10
674.7459033802041
 20
1169.365036907164
 30
0.0
 10
673.5361131077424
 20
1166.643008794125
 30
0.0
  0
LINE
  5
1D5
330
1F
100
AcDbEntity
  8
0
  6
SLD-Solid
 62
     7
370
    15
100
AcDbLine
 10
392.5361131077
 20
1166.6430087941
 30
0.0
 11
400.688543891
 21
1184.9859780565
 31
0.0
  0
LINE
  5
1D6
330
1F
100
AcDbEntity
  8
0
  6
SLD-Solid
 62
     7
370
    15
100
AcDbLine
 10
929.8967285124
 20
1166.6430087941
 30
0.0
 11
921.7442977291
 21
1184.9859780565
 31
0.0
  0
ARC
  5
1D7
330
1F
100
AcDbEntity
  8
0
  6
SLD-Solid
 62
     7
370
    15
100
AcDbCircle
 10
402.5161669883
 20
1184.1737011244
 30
0.0
 40
2.000000000000227
100
AcDbArc
 50
90.0
 51
156.0375110254
  0
LINE
  5
1D8
330
1F
100
AcDbEntity
  8
0
  6
SLD-Solid
 62
     7
370
    15
100
AcDbLine
 10
402.5161669883
 20
1186.1737011244
 30
0.0
 11
403.15809277
 21
1186.1737011244
 31
0.0
  0
ARC
  5
1D9
330
1F
100
AcDbEntity
  8
0
  6
SLD-Solid
 62
     7
370
    15
100
AcDbCircle
 10
919.9166746319
 20
1184.1737011244
 30
0.0
 40
2.000000000000227
100
AcDbArc
 50
23.9624889746
 51
90.0
  0
LINE
  5
1DA
330
1F
100
AcDbEntity
  8
0
  6
SLD-Solid
 62
     7
370
    15
100
AcDbLine
 10
919.9166746319
 20
1186.1737011244
 30
0.0
 11
919.2747488501
 21
1186.1737011244
 31
0.0
  0
LINE
  5
1DB
330
1F
100
AcDbEntity
  8
0
  6
SLD-Solid
 62
     7
370
    15
100
AcDbLine
 10
638.8249526633
 20
1186.1737011244
 30
0.0
 11
639.1766238675
 21
1186.1737011244
 31
0.0
  0
SPLINE
  5
1DC
330
1F
100
AcDbEntity
  8
0
  6
SLD-Solid
 62
     7
370
    15
100
AcDbSpline
210
0.0
220
0.0
230
1.0
 70
     8
 71
     3
 72
    14
 73
    10
 74
     0
 42
0.00000001
 43
0.00000001
 40
0.0
 40
0.0
 40
0.0
 40
0.0
 40
0.1883847816317232
 40
0.3596802553594183
 40
0.600342177364747
 40
0.7898499004772008
 40
0.9055956218147745
 40
0.9965044171559081
 40
1.0
 40
1.0
 40
1.0
 40
1.0
 10
637.2316889386958
 20
1184.754826266421
 30
0.0
 10
637.2599589782226
 20
1184.899192191586
 30
0.0
 10
637.3139345432759
 20
1185.174827900472
 30
0.0
 10
637.5516384936393
 20
1185.583546150795
 30
0.0
 10
637.8964440997535
 20
1185.911126634526
 30
0.0
 10
638.2847134050518
 20
1186.094387803473
 30
0.0
 10
638.585830936715
 20
1186.161897583879
 30
0.0
 10
638.7490038029813
 20
1186.173574471361
 30
0.0
 10
638.8222408590251
 20
1186.173696602162
 30
0.0
 10
638.8249526633034
 20
1186.173701124392
 30
0.0
  0
LINE
  5
1DD
330
1F
100
AcDbEntity
  8
0
  6
SLD-Solid
 62
     7
370
    15
100
AcDbLine
 10
637.2316889387
 20
1184.7548262664
 30
0.0
 11
637.2295621946
 21
1184.7666967317
 31
0.0
  0
SPLINE
  5
1DE
330
1F
100
AcDbEntity
  8
0
  6
SLD-Solid
 62
     7
370
    15
100
AcDbSpline
210
0.0
220
0.0
230
1.0
 70
     8
 71
     3
 72
    14
 73
    10
 74
     0
 42
0.00000001
 43
0.00000001
 40
0.0
 40
0.0
 40
0.0
 40
0.0
 40
0.1883847816317232
 40
0.3596802553594183
 40
0.600342177364747
 40
0.7898499004772008
 40
0.9055956218147745
 40
0.9965044171559081
 40
1.0
 40
1.0
 40
1.0
 40
1.0
 10
685.2011526814711
 20
1184.754826266421
 30
0.0
 10
685.1728826419443
 20
1184.899192191586
 30
0.0
 10
685.118907076891
 20
1185.174827900472
 30
0.0
 10
684.8812031265279
 20
1185.583546150795
 30
0.0
 10
684.5363975204131
 20
1185.911126634526
 30
0.0
 10
684.1481282151157
 20
1186.094387803473
 30
0.0
 10
683.8470106834516
 20
1186.161897583879
 30
0.0
 10
683.6838378171857
 20
1186.173574471361
 30
0.0
 10
683.6106007611418
 20
1186.173696602162
 30
0.0
 10
683.6078889568636
 20
1186.173701124392
 30
0.0
  0
LINE
  5
1DF
330
1F
100
AcDbEntity
  8
0
  6
SLD-Solid
 62
     7
370
    15
100
AcDbLine
 10
685.2011526815
 20
1184.7548262664
 30
0.0
 11
685.2032804447
 21
1184.7666881229
 31
0.0
  0
LINE
  5
1E0
330
1F
100
AcDbEntity
  8
0
  6
SLD-Solid
 62
     7
370
    15
100
AcDbLine
 10
683.6078889569
 20
1186.1737011244
 30
0.0
 11
683.2562177526
 21
1186.1737011244
 31
0.0
  0
LINE
  5
1E1
330
1F
100
AcDbEntity
  8
0
  6
SLD-Solid
 62
     7
370
    15
100
AcDbLine
 10
640.6387223453
 20
1185.2235226701
 30
0.0
 11
640.6517416899
 21
1185.1942291448
 31
0.0
  0
LINE
  5
1E2
330
1F
100
AcDbEntity
  8
0
  6
SLD-Solid
 62
     7
370
    15
100
AcDbLine
 10
681.7941192748
 20
1185.2235226701
 30
0.0
 11
681.7810999303
 21
1185.1942291448
 31
0.0
  0
ARC
  5
1E3
330
1F
100
AcDbEntity
  8
0
  6
SLD-Solid
 62
     7
370
    15
100
AcDbCircle
 10
639.1766238675
 20
1184.5737011244
 30
0.0
 40
1.599999999999988
100
AcDbArc
 50
23.9624889746
 51
90.0
  0
ARC
  5
1E4
330
1F
100
AcDbEntity
  8
0
  6
SLD-Solid
 62
     7
370
    15
100
AcDbCircle
 10
683.2562177526
 20
1184.5737011244
 30
0.0
 40
1.599999999999988
100
AcDbArc
 50
90.0
 51
156.0375110254
  0
ARC
  5
1E5
330
1F
100
AcDbEntity
  8
0
  6
SLD-Solid
 62
     7
370
    15
100
AcDbCircle
 10
485.9663390126
 20
1041.2572889387
 30
0.0
 40
134.9999999999999
100
AcDbArc
 50
93.487847246
 51
94.7028122098
  0
ARC
  5
1E6
330
1F
100
AcDbEntity
  8
0
  6
SLD-Solid
 62
     7
370
    15
100
AcDbCircle
 10
485.9663390126
 20
1041.2572889387
 30
0.0
 40
134.9999999999998
100
AcDbArc
 50
97.9001814258
 51
112.6591189244
  0
ARC
  5
1E7
330
1F
100
AcDbEntity
  8
0
  6
SLD-Solid
 62
     7
370
    15
100
AcDbCircle
 10
836.4665026075
 20
1041.2572889387
 30
0.0
 40
135.0
100
AcDbArc
 50
85.2971877902
 51
86.512152754
  0
ARC
  5
1E8
330
1F
100
AcDbEntity
  8
0
  6
SLD-Solid
 62
     7
370
    15
100
AcDbCircle
 10
836.4665026075
 20
1041.2572889387
 30
0.0
 40
135.0000000000001
100
AcDbArc
 50
67.3408810757
 51
82.0998185742
  0
ARC
  5
1E9
330
1F
100
AcDbEntity
  8
0
  6
SLD-Solid
 62
     7
370
    15
100
AcDbCircle
 10
556.4665026075
 20
1041.2572889387
 30
0.0
 40
135.0000000000002
100
AcDbArc
 50
67.3515265346
 51
82.1127497541
  0
ARC
  5
1EA
330
1F
100
AcDbEntity
  8
0
  6
SLD-Solid
 62
     7
370
    15
100
AcDbCircle
 10
556.4665026075
 20
1041.2572889387
 30
0.0
 40
135.0000000000001
100
AcDbArc
 50
85.2971877902
 51
86.512152754
  0
ARC
  5
1EB
330
1F
100
AcDbEntity
  8
0
  6
SLD-Solid
 62
     7
370
    15
100
AcDbCircle
 10
765.9663390126
 20
1041.2572889387
 30
0.0
 40
135.0
100
AcDbArc
 50
97.8872502459
 51
112.6484734654
  0
ARC
  5
1EC
330
1F
100
AcDbEntity
  8
0
  6
SLD-Solid
 62
     7
370
    15
100
AcDbCircle
 10
765.9663390126
 20
1041.2572889387
 30
0.0
 40
135.0
100
AcDbArc
 50
93.487847246
 51
94.7028122098
  0
SPLINE
  5
1ED
330
1F
100
AcDbEntity
  8
0
  6
SLD-Solid
 62
     7
370
    15
100
AcDbSpline
210
0.0
220
0.0
230
1.0
 70
    24
 71
     3
 72
    11
 73
     7
 74
     0
 42
0.00000001
 43
0.00000001
 40
0.0
 40
0.0
 40
0.0
 40
0.0
 40
0.2779885514217564
 40
0.5616472137281912
 40
0.7829861327419739
 40
1.0
 40
1.0
 40
1.0
 40
1.0
 10
561.2164208100676
 20
1176.173701124392
 30
0.0
 10
561.2830813325245
 20
1176.935634382603
 30
0.0
 10
561.4177620469354
 20
1178.475041992494
 30
0.0
 10
561.6027364444709
 20
1180.589309030998
 30
0.0
 10
561.7745733480206
 20
1182.553413826116
 30
0.0
 10
561.8795901002338
 20
1183.753760796578
 30
0.0
 10
561.9315803971781
 20
1184.348012609887
 30
0.0
  0
SPLINE
  5
1EE
330
1F
100
AcDbEntity
  8
0
  6
SLD-Solid
 62
     7
370
    15
100
AcDbSpline
210
0.0
220
0.0
230
1.0
 70
     8
 71
     3
 72
    12
 73
     8
 74
     0
 42
0.00000001
 43
0.00000001
 40
0.0
 40
0.0
 40
0.0
 40
0.0
 40
0.1949242463861416
 40
0.4099385120109052
 40
0.6250663629368454
 40
0.8407019596851064
 40
1.0
 40
1.0
 40
1.0
 40
1.0
 10
564.6794744160817
 20
1176.007231773798
 30
0.0
 10
564.3255064963175
 20
1176.027968838101
 30
0.0
 10
563.5810886775088
 20
1176.071580248386
 30
0.0
 10
562.5563425437115
 20
1176.120847123215
 30
0.0
 10
561.7461756411799
 20
1176.154574641595
 30
0.0
 10
561.2877033144555
 20
1176.17120963373
 30
0.0
 10
561.2376759391409
 20
1176.172958207795
 30
0.0
 10
561.2164208100676
 20
1176.173701124392
 30
0.0
  0
SPLINE
  5
1EF
330
1F
100
AcDbEntity
  8
0
  6
SLD-Solid
 62
     7
370
    15
100
AcDbSpline
210
0.0
220
0.0
230
1.0
 70
    24
 71
     3
 72
    11
 73
     7
 74
     0
 42
0.00000001
 43
0.00000001
 40
0.0
 40
0.0
 40
0.0
 40
0.0
 40
0.2779885514217567
 40
0.561647213728191
 40
0.7829861327419743
 40
1.0
 40
1.0
 40
1.0
 40
1.0
 10
761.2164208100994
 20
1176.173701124392
 30
0.0
 10
761.1497602876427
 20
1176.935634382603
 30
0.0
 10
761.0150795732316
 20
1178.475041992494
 30
0.0
 10
760.8301051756961
 20
1180.589309030998
 30
0.0
 10
760.6582682721461
 20
1182.553413826116
 30
0.0
 10
760.5532515199332
 20
1183.753760796578
 30
0.0
 10
760.5012612229888
 20
1184.348012609887
 30
0.0
  0
SPLINE
  5
1F0
330
1F
100
AcDbEntity
  8
0
  6
SLD-Solid
 62
     7
370
    15
100
AcDbSpline
210
0.0
220
0.0
230
1.0
 70
     8
 71
     3
 72
    12
 73
     8
 74
     0
 42
0.00000001
 43
0.00000001
 40
0.0
 40
0.0
 40
0.0
 40
0.0
 40
0.1949242463861335
 40
0.4099385120108992
 40
0.6250663629368415
 40
0.8407019596851046
 40
0.9999999999999999
 40
0.9999999999999999
 40
0.9999999999999999
 40
0.9999999999999999
 10
757.7533672040852
 20
1176.007231773798
 30
0.0
 10
758.1073351238492
 20
1176.027968838101
 30
0.0
 10
758.851752942658
 20
1176.071580248386
 30
0.0
 10
759.8764990764556
 20
1176.120847123215
 30
0.0
 10
760.6866659789871
 20
1176.154574641594
 30
0.0
 10
761.1451383057116
 20
1176.17120963373
 30
0.0
 10
761.1951656810261
 20
1176.172958207794
 30
0.0
 10
761.2164208100993
 20
1176.173701124392
 30
0.0
  0
SPLINE
  5
1F1
330
1F
100
AcDbEntity
  8
0
  6
SLD-Solid
 62
     7
370
    15
100
AcDbSpline
210
0.0
220
0.0
230
1.0
 70
    24
 71
     3
 72
    11
 73
     7
 74
     0
 42
0.00000001
 43
0.00000001
 40
0.0
 40
0.0
 40
0.0
 40
0.0
 40
0.2768032429862398
 40
0.5599832085138403
 40
0.7820988278563586
 40
1.0
 40
1.0
 40
1.0
 40
1.0
 10
480.5012612229586
 20
1184.348012609887
 30
0.0
 10
480.5676514972606
 20
1183.589168302222
 30
0.0
 10
480.7019614801085
 20
1182.053998173488
 30
0.0
 10
480.8871381337265
 20
1179.937419337382
 30
0.0
 10
481.0587096719914
 20
1177.976347681347
 30
0.0
 10
481.1641871825547
 20
1176.770734218844
 30
0.0
 10
481.2164208100689
 20
1176.173701124392
 30
0.0
  0
SPLINE
  5
1F2
330
1F
100
AcDbEntity
  8
0
  6
SLD-Solid
 62
     7
370
    15
100
AcDbSpline
210
0.0
220
0.0
230
1.0
 70
     8
 71
     3
 72
    12
 73
     8
 74
     0
 42
0.00000001
 43
0.00000001
 40
0.0
 40
0.0
 40
0.0
 40
0.0
 40
0.1857061433232794
 40
0.4017214544205497
 40
0.6178907781413769
 40
0.8334746541485226
 40
1.0
 40
1.0
 40
1.0
 40
1.0
 10
481.2164208100691
 20
1176.173701124392
 30
0.0
 10
481.1876904166248
 20
1176.172702609163
 30
0.0
 10
481.1255405316828
 20
1176.17054261067
 30
0.0
 10
480.6006539393022
 20
1176.151258179334
 30
0.0
 10
479.7517188835987
 20
1176.115249924043
 30
0.0
 10
478.7484891130698
 20
1176.065877357983
 30
0.0
 10
478.0554134654757
 20
1176.025032285767
 30
0.0
 10
477.7533672040548
 20
1176.007231773797
 30
0.0
  0
SPLINE
  5
1F3
330
1F
100
AcDbEntity
  8
0
  6
SLD-Solid
 62
     7
370
    15
100
AcDbSpline
210
0.0
220
0.0
230
1.0
 70
    24
 71
     3
 72
    11
 73
     7
 74
     0
 42
0.00000001
 43
0.00000001
 40
0.0
 40
0.0
 40
0.0
 40
0.0
 40
0.2768032429862395
 40
0.5599832085138402
 40
0.7820988278563583
 40
1.0
 40
1.0
 40
1.0
 40
1.0
 10
841.9315803972083
 20
1184.348012609887
 30
0.0
 10
841.8651901229065
 20
1183.589168302222
 30
0.0
 10
841.7308801400587
 20
1182.053998173488
 30
0.0
 10
841.5457034864406
 20
1179.937419337382
 30
0.0
 10
841.3741319481754
 20
1177.976347681347
 30
0.0
 10
841.2686544376121
 20
1176.770734218844
 30
0.0
 10
841.2164208100978
 20
1176.173701124392
 30
0.0
  0
SPLINE
  5
1F4
330
1F
100
AcDbEntity
  8
0
  6
SLD-Solid
 62
     7
370
    15
100
AcDbSpline
210
0.0
220
0.0
230
1.0
 70
     8
 71
     3
 72
    12
 73
     8
 74
     0
 42
0.00000001
 43
0.00000001
 40
0.0
 40
0.0
 40
0.0
 40
0.0
 40
0.1857061433232819
 40
0.4017214544205547
 40
0.6178907781413714
 40
0.8334746541485173
 40
0.9999999999999999
 40
0.9999999999999999
 40
0.9999999999999999
 40
0.9999999999999999
 10
841.2164208100978
 20
1176.173701124392
 30
0.0
 10
841.2451512035423
 20
1176.172702609163
 30
0.0
 10
841.3073010884842
 20
1176.17054261067
 30
0.0
 10
841.832187680865
 20
1176.151258179334
 30
0.0
 10
842.6811227365682
 20
1176.115249924043
 30
0.0
 10
843.6843525070972
 20
1176.065877357983
 30
0.0
 10
844.3774281546912
 20
1176.025032285767
 30
0.0
 10
844.6794744161122
 20
1176.007231773797
 30
0.0
  0
LINE
  5
1F5
330
1F
100
AcDbEntity
  8
0
  6
SLD-Solid
 62
     7
370
    15
100
AcDbLine
 10
449.0967495343
 20
1186.1737011244
 30
0.0
 11
470.5014890589
 21
1186.1737011244
 31
0.0
  0
LINE
  5
1F6
330
1F
100
AcDbEntity
  8
0
  6
SLD-Solid
 62
     7
370
    15
100
AcDbLine
 10
471.9313525613
 20
1186.1737011244
 30
0.0
 11
478.5088718268
 21
1186.1737011244
 31
0.0
  0
ARC
  5
1F7
330
1F
100
AcDbEntity
  8
0
  6
SLD-Solid
 62
     7
370
    15
100
AcDbCircle
 10
478.5088718268
 20
1184.1737011244
 30
0.0
 40
2.000000000000227
100
AcDbArc
 50
5.0
 51
90.0
  0
LINE
  5
1F8
330
1F
100
AcDbEntity
  8
0
  6
SLD-Solid
 62
     7
370
    15
100
AcDbLine
 10
563.9239697934
 20
1186.1737011244
 30
0.0
 11
570.5014890589
 21
1186.1737011244
 31
0.0
  0
LINE
  5
1F9
330
1F
100
AcDbEntity
  8
0
  6
SLD-Solid
 62
     7
370
    15
100
AcDbLine
 10
571.9313525613
 20
1186.1737011244
 30
0.0
 11
592.7174538133
 21
1186.1737011244
 31
0.0
  0
ARC
  5
1FA
330
1F
100
AcDbEntity
  8
0
  6
SLD-Solid
 62
     7
370
    15
100
AcDbCircle
 10
563.9239697934
 20
1184.1737011244
 30
0.0
 40
2.000000000000227
100
AcDbArc
 50
90.0
 51
175.0
  0
LINE
  5
1FB
330
1F
100
AcDbEntity
  8
0
  6
SLD-Solid
 62
     7
370
    15
100
AcDbLine
 10
758.5088718268
 20
1186.1737011244
 30
0.0
 11
751.9313525613
 21
1186.1737011244
 31
0.0
  0
LINE
  5
1FC
330
1F
100
AcDbEntity
  8
0
  6
SLD-Solid
 62
     7
370
    15
100
AcDbLine
 10
750.5014890589
 20
1186.1737011244
 30
0.0
 11
729.7153878069
 21
1186.1737011244
 31
0.0
  0
ARC
  5
1FD
330
1F
100
AcDbEntity
  8
0
  6
SLD-Solid
 62
     7
370
    15
100
AcDbCircle
 10
758.5088718268
 20
1184.1737011244
 30
0.0
 40
2.000000000000227
100
AcDbArc
 50
5.0
 51
90.0
  0
ARC
  5
1FE
330
1F
100
AcDbEntity
  8
0
  6
SLD-Solid
 62
     7
370
    15
100
AcDbCircle
 10
843.9239697934
 20
1184.1737011244
 30
0.0
 40
2.000000000000227
100
AcDbArc
 50
90.0
 51
175.0
  0
LINE
  5
1FF
330
1F
100
AcDbEntity
  8
0
  6
SLD-Solid
 62
     7
370
    15
100
AcDbLine
 10
873.3360920859
 20
1186.1737011244
 30
0.0
 11
851.9313525613
 21
1186.1737011244
 31
0.0
  0
LINE
  5
200
330
1F
100
AcDbEntity
  8
0
  6
SLD-Solid
 62
     7
370
    15
100
AcDbLine
 10
850.5014890589
 20
1186.1737011244
 30
0.0
 11
843.9239697934
 21
1186.1737011244
 31
0.0
  0
LINE
  5
201
330
1F
100
AcDbEntity
  8
0
  6
SLD-Solid
 62
     7
370
    15
100
AcDbLine
 10
566.551120991
 20
1167.1691085186
 30
0.0
 11
566.6592831722
 21
1168.1184357995
 31
0.0
  0
LINE
  5
202
330
1F
100
AcDbEntity
  8
0
  6
SLD-Solid
 62
     7
370
    15
100
AcDbLine
 10
755.8301383213
 20
1167.6218406241
 30
0.0
 11
755.7735584479
 21
1168.1184357995
 31
0.0
  0
LINE
  5
203
330
1F
100
AcDbEntity
  8
0
  6
SLD-Solid
 62
     7
370
    15
100
AcDbLine
 10
796.6017614552
 20
1167.6135741682
 30
0.0
 11
796.589352224
 21
1167.5140140631
 31
0.0
  0
LINE
  5
204
330
1F
100
AcDbEntity
  8
0
  6
SLD-Solid
 62
     7
370
    15
100
AcDbLine
 10
466.6117585435
 20
1167.7013174865
 30
0.0
 11
466.430355832
 21
1166.8332015624
 31
0.0
  0
LINE
  5
205
330
1F
100
AcDbEntity
  8
0
  6
SLD-Solid
 62
     7
370
    15
100
AcDbLine
 10
381.41642081
 20
1123.1737011244
 30
0.0
 11
381.41642081
 21
1123.123849882
 31
0.0
  0
LINE
  5
206
330
1F
100
AcDbEntity
  8
0
  6
SLD-Solid
 62
     7
370
    15
100
AcDbLine
 10
399.01642081
 20
1123.1737011244
 30
0.0
 11
399.01642081
 21
1123.123849882
 31
0.0
  0
LINE
  5
207
330
1F
100
AcDbEntity
  8
0
  6
SLD-Solid
 62
     7
370
    15
100
AcDbLine
 10
395.06642081
 20
1123.1737011244
 30
0.0
 11
395.06642081
 21
1123.123849882
 31
0.0
  0
LINE
  5
208
330
1F
100
AcDbEntity
  8
0
  6
SLD-Solid
 62
     7
370
    15
100
AcDbLine
 10
385.36642081
 20
1123.123849882
 30
0.0
 11
385.36642081
 21
1123.1737011244
 31
0.0
  0
LINE
  5
209
330
1F
100
AcDbEntity
  8
0
  6
SLD-Solid
 62
     7
370
    15
100
AcDbLine
 10
381.41642081
 20
1123.123849882
 30
0.0
 11
381.41642081
 21
1122.5737011205
 31
0.0
  0
LINE
  5
20A
330
1F
100
AcDbEntity
  8
0
  6
SLD-Solid
 62
     7
370
    15
100
AcDbLine
 10
385.36642081
 20
1122.5737011205
 30
0.0
 11
385.36642081
 21
1123.123849882
 31
0.0
  0
LINE
  5
20B
330
1F
100
AcDbEntity
  8
0
  6
SLD-Solid
 62
     7
370
    15
100
AcDbLine
 10
399.01642081
 20
1123.123849882
 30
0.0
 11
399.01642081
 21
1122.5737011205
 31
0.0
  0
LINE
  5
20C
330
1F
100
AcDbEntity
  8
0
  6
SLD-Solid
 62
     7
370
    15
100
AcDbLine
 10
395.06642081
 20
1123.123849882
 30
0.0
 11
395.06642081
 21
1122.5737011205
 31
0.0
  0
LINE
  5
20D
330
1F
100
AcDbEntity
  8
0
  6
SLD-Solid
 62
     7
370
    15
100
AcDbLine
 10
941.0164208101
 20
1122.7737011206
 30
0.0
 11
941.0164208101
 21
1122.723849882
 31
0.0
  0
LINE
  5
20E
330
1F
100
AcDbEntity
  8
0
  6
SLD-Solid
 62
     7
370
    15
100
AcDbLine
 10
937.0664208101
 20
1122.7737011206
 30
0.0
 11
937.0664208101
 21
1122.723849882
 31
0.0
  0
LINE
  5
20F
330
1F
100
AcDbEntity
  8
0
  6
SLD-Solid
 62
     7
370
    15
100
AcDbLine
 10
927.3664208101
 20
1122.723849882
 30
0.0
 11
927.3664208101
 21
1122.7737011206
 31
0.0
  0
LINE
  5
210
330
1F
100
AcDbEntity
  8
0
  6
SLD-Solid
 62
     7
370
    15
100
AcDbLine
 10
923.4164208101
 20
1122.7737011206
 30
0.0
 11
923.4164208101
 21
1122.723849882
 31
0.0
  0
LINE
  5
211
330
1F
100
AcDbEntity
  8
0
  6
SLD-Solid
 62
     7
370
    15
100
AcDbLine
 10
923.4164208101
 20
1122.723849882
 30
0.0
 11
923.4164208101
 21
1122.5737011205
 31
0.0
  0
LINE
  5
212
330
1F
100
AcDbEntity
  8
0
  6
SLD-Solid
 62
     7
370
    15
100
AcDbLine
 10
927.3664208101
 20
1122.5737011205
 30
0.0
 11
927.3664208101
 21
1122.723849882
 31
0.0
  0
LINE
  5
213
330
1F
100
AcDbEntity
  8
0
  6
SLD-Solid
 62
     7
370
    15
100
AcDbLine
 10
941.0164208101
 20
1122.723849882
 30
0.0
 11
941.0164208101
 21
1122.5737011205
 31
0.0
  0
LINE
  5
214
330
1F
100
AcDbEntity
  8
0
  6
SLD-Solid
 62
     7
370
    15
100
AcDbLine
 10
937.0664208101
 20
1122.723849882
 30
0.0
 11
937.0664208101
 21
1122.5737011205
 31
0.0
  0
LINE
  5
215
330
1F
100
AcDbEntity
  8
0
  6
SLD-Solid
 62
     7
370
    15
100
AcDbLine
 10
396.1181613268
 20
1141.6223838215
 30
0.0
 11
392.0848788058
 21
1141.6223838215
 31
0.0
  0
LINE
  5
216
330
1F
100
AcDbEntity
  8
0
  6
SLD-Solid
 62
     7
370
    15
100
AcDbLine
 10
389.0785082866
 20
1141.6223838215
 30
0.0
 11
384.3146802935
 21
1141.6223838215
 31
0.0
  0
SPLINE
  5
217
330
1F
100
AcDbEntity
  8
0
  6
SLD-Solid
 62
     7
370
    15
100
AcDbSpline
210
0.0
220
0.0
230
1.0
 70
     8
 71
     3
 72
     9
 73
     5
 74
     0
 42
0.00000001
 43
0.00000001
 40
0.0
 40
0.0
 40
0.0
 40
0.0
 40
0.0972190605621532
 40
1.0
 40
1.0
 40
1.0
 40
1.0
 10
395.3320892023447
 20
1142.173701120704
 30
0.0
 10
395.2443060828874
 20
1142.230593290587
 30
0.0
 10
394.3413646334444
 20
1142.815788925619
 30
0.0
 10
393.301963737154
 20
1143.134365614705
 30
0.0
 10
392.3636124195486
 20
1143.421970577361
 30
0.0
  0
SPLINE
  5
218
330
1F
100
AcDbEntity
  8
0
  6
SLD-Solid
 62
     7
370
    15
100
AcDbSpline
210
0.0
220
0.0
230
1.0
 70
     8
 71
     3
 72
     9
 73
     5
 74
     0
 42
0.00000001
 43
0.00000001
 40
0.0
 40
0.0
 40
0.0
 40
0.0
 40
0.448039574735854
 40
1.0
 40
1.0
 40
1.0
 40
1.0
 10
388.444321472911
 20
1143.410987277152
 30
0.0
 10
387.9084021150776
 20
1143.329365823924
 30
0.0
 10
386.7122592115197
 20
1143.147191172775
 30
0.0
 10
385.6738907277797
 20
1142.519926433138
 30
0.0
 10
385.1007524179136
 20
1142.173701120694
 30
0.0
  0
LINE
  5
219
330
1F
100
AcDbEntity
  8
0
  6
SLD-Solid
 62
     7
370
    15
100
AcDbLine
 10
395.3764293469
 20
1142.1737011207
 30
0.0
 11
395.3320892023
 21
1142.1737011207
 31
0.0
  0
LINE
  5
21A
330
1F
100
AcDbEntity
  8
0
  6
SLD-Solid
 62
     7
370
    15
100
AcDbLine
 10
385.1007524179
 20
1142.1737011207
 30
0.0
 11
385.0564122734
 21
1142.1737011207
 31
0.0
  0
LINE
  5
21B
330
1F
100
AcDbEntity
  8
0
  6
SLD-Solid
 62
     7
370
    15
100
AcDbLine
 10
938.1181613268
 20
1141.6223838215
 30
0.0
 11
933.3543333335
 21
1141.6223838215
 31
0.0
  0
LINE
  5
21C
330
1F
100
AcDbEntity
  8
0
  6
SLD-Solid
 62
     7
370
    15
100
AcDbLine
 10
930.3479628143
 20
1141.6223838215
 30
0.0
 11
926.3146802935
 21
1141.6223838215
 31
0.0
  0
SPLINE
  5
21D
330
1F
100
AcDbEntity
  8
0
  6
SLD-Solid
 62
     7
370
    15
100
AcDbSpline
210
0.0
220
0.0
230
1.0
 70
     8
 71
     3
 72
    10
 73
     6
 74
     0
 42
0.00000001
 43
0.00000001
 40
0.0
 40
0.0
 40
0.0
 40
0.0
 40
0.0874804178315103
 40
0.9244930301506564
 40
1.0
 40
1.0
 40
1.0
 40
1.0
 10
937.3320892023447
 20
1142.173701120704
 30
0.0
 10
937.2442144624868
 20
1142.230010431814
 30
0.0
 10
936.315554237275
 20
1142.825087215211
 30
0.0
 10
935.1884435604752
 20
1143.375579742768
 30
0.0
 10
934.1021379101867
 20
1143.473784998786
 30
0.0
 10
934.0122509098568
 20
1143.48191105049
 30
0.0
  0
SPLINE
  5
21E
330
1F
100
AcDbEntity
  8
0
  6
SLD-Solid
 62
     7
370
    15
100
AcDbSpline
210
0.0
220
0.0
230
1.0
 70
     8
 71
     3
 72
     9
 73
     5
 74
     0
 42
0.00000001
 43
0.00000001
 40
0.0
 40
0.0
 40
0.0
 40
0.0
 40
0.3836849180387144
 40
1.0
 40
1.0
 40
1.0
 40
1.0
 10
930.0770046146714
 20
1143.333097188041
 30
0.0
 10
929.6671476154639
 20
1143.267217275799
 30
0.0
 10
928.5989351840177
 20
1143.09551411744
 30
0.0
 10
927.6720226142938
 20
1142.525196481335
 30
0.0
 10
927.1007524179136
 20
1142.173701120694
 30
0.0
  0
LINE
  5
21F
330
1F
100
AcDbEntity
  8
0
  6
SLD-Solid
 62
     7
370
    15
100
AcDbLine
 10
937.3764293469
 20
1142.1737011207
 30
0.0
 11
937.3320892023
 21
1142.1737011207
 31
0.0
  0
LINE
  5
220
330
1F
100
AcDbEntity
  8
0
  6
SLD-Solid
 62
     7
370
    15
100
AcDbLine
 10
927.1007524179
 20
1142.1737011207
 30
0.0
 11
927.0564122734
 21
1142.1737011207
 31
0.0
  0
LINE
  5
221
330
1F
100
AcDbEntity
  8
0
  6
SLD-Solid
 62
     7
370
    15
100
AcDbLine
 10
942.1185382085
 20
1144.0348519766
 30
0.0
 11
943.622067206
 21
1148.8034367304
 31
0.0
  0
LINE
  5
222
330
1F
100
AcDbEntity
  8
0
  6
SLD-Solid
 62
     7
370
    15
100
AcDbLine
 10
943.622067206
 20
1148.8034367304
 30
0.0
 11
944.3850407666
 21
1148.5628720908
 31
0.0
  0
LINE
  5
223
330
1F
100
AcDbEntity
  8
0
  6
SLD-Solid
 62
     7
370
    15
100
AcDbLine
 10
944.3850407666
 20
1148.5628720908
 30
0.0
 11
942.8815117691
 21
1143.794287337
 31
0.0
  0
LINE
  5
224
330
1F
100
AcDbEntity
  8
0
  6
SLD-Solid
 62
     7
370
    15
100
AcDbLine
 10
942.1185382085
 20
1144.0348519766
 30
0.0
 11
941.5471507317
 21
1142.2226424251
 31
0.0
  0
LINE
  5
225
330
1F
100
AcDbEntity
  8
0
  6
SLD-Solid
 62
     7
370
    15
100
AcDbLine
 10
942.8815117691
 20
1143.794287337
 30
0.0
 11
942.3101242923
 21
1141.9820777855
 31
0.0
  0
ARC
  5
226
330
1F
100
AcDbEntity
  8
0
  6
SLD-Solid
 62
     7
370
    15
100
AcDbCircle
 10
940.1165753056
 20
1142.6737011244
 30
0.0
 40
1.500000000000021
100
AcDbArc
 50
270.0
 51
342.5
  0
ARC
  5
227
330
1F
100
AcDbEntity
  8
0
  6
SLD-Solid
 62
     7
370
    15
100
AcDbCircle
 10
940.1165753056
 20
1142.6737011244
 30
0.0
 40
2.300000000000102
100
AcDbArc
 50
270.0
 51
342.5
  0
LINE
  5
228
330
1F
100
AcDbEntity
  8
0
  6
SLD-Solid
 62
     7
370
    15
100
AcDbLine
 10
919.1162663143
 20
1140.3737011244
 30
0.0
 11
919.1162663143
 21
1141.1737011244
 31
0.0
  0
LINE
  5
229
330
1F
100
AcDbEntity
  8
0
  6
SLD-Solid
 62
     7
370
    15
100
AcDbLine
 10
919.1162663143
 20
1141.1737011244
 30
0.0
 11
940.1165753056
 21
1141.1737011244
 31
0.0
  0
LINE
  5
22A
330
1F
100
AcDbEntity
  8
0
  6
SLD-Solid
 62
     7
370
    15
100
AcDbLine
 10
919.1162663143
 20
1140.3737011244
 30
0.0
 11
940.1165753056
 21
1140.3737011244
 31
0.0
  0
ARC
  5
22B
330
1F
100
AcDbEntity
  8
0
  6
SLD-Solid
 62
     7
370
    15
100
AcDbCircle
 10
408.7162663143
 20
1129.3737011244
 30
0.0
 40
5.000000000000114
100
AcDbArc
 50
180.0
 51
270.0
  0
LINE
  5
22C
330
1F
100
AcDbEntity
  8
0
  6
SLD-Solid
 62
     7
370
    15
100
AcDbLine
 10
403.7162663143
 20
1129.3737011244
 30
0.0
 11
403.7162663143
 21
1138.8737011244
 31
0.0
  0
LINE
  5
22D
330
1F
100
AcDbEntity
  8
0
  6
SLD-Solid
 62
     7
370
    15
100
AcDbLine
 10
918.7162663143
 20
1138.8737011244
 30
0.0
 11
918.7162663143
 21
1129.3737011244
 31
0.0
  0
ARC
  5
22E
330
1F
100
AcDbEntity
  8
0
  6
SLD-Solid
 62
     7
370
    15
100
AcDbCircle
 10
913.7162663143
 20
1129.3737011244
 30
0.0
 40
5.000000000000114
100
AcDbArc
 50
270.0
 51
0.0
  0
LINE
  5
22F
330
1F
100
AcDbEntity
  8
0
  6
SLD-Solid
 62
     7
370
    15
100
AcDbLine
 10
913.7162663143
 20
1124.3737011244
 30
0.0
 11
408.7162663143
 21
1124.3737011244
 31
0.0
  0
LINE
  5
230
330
1F
100
AcDbEntity
  8
0
  6
SLD-Solid
 62
     7
370
    15
100
AcDbLine
 10
403.7162663143
 20
1138.8737011244
 30
0.0
 11
403.7162663143
 21
1141.1737011244
 31
0.0
  0
LINE
  5
231
330
1F
100
AcDbEntity
  8
0
  6
SLD-Solid
 62
     7
370
    15
100
AcDbLine
 10
918.7162663143
 20
1141.1737011244
 30
0.0
 11
918.7162663143
 21
1138.8737011244
 31
0.0
  0
LINE
  5
232
330
1F
100
AcDbEntity
  8
0
  6
SLD-Solid
 62
     7
370
    15
100
AcDbLine
 10
403.7162663143
 20
1141.1737011244
 30
0.0
 11
918.7162663143
 21
1141.1737011244
 31
0.0
  0
LINE
  5
233
330
1F
100
AcDbEntity
  8
0
  6
SLD-Solid
 62
     7
370
    15
100
AcDbLine
 10
403.3162663143
 20
1140.3737011244
 30
0.0
 11
403.3162663143
 21
1141.1737011244
 31
0.0
  0
LINE
  5
234
330
1F
100
AcDbEntity
  8
0
  6
SLD-Solid
 62
     7
370
    15
100
AcDbLine
 10
382.3162663143
 20
1141.1737011244
 30
0.0
 11
403.3162663143
 21
1141.1737011244
 31
0.0
  0
LINE
  5
235
330
1F
100
AcDbEntity
  8
0
  6
SLD-Solid
 62
     7
370
    15
100
AcDbLine
 10
382.3162663143
 20
1140.3737011244
 30
0.0
 11
403.3162663143
 21
1140.3737011244
 31
0.0
  0
ARC
  5
236
330
1F
100
AcDbEntity
  8
0
  6
SLD-Solid
 62
     7
370
    15
100
AcDbCircle
 10
382.3162663143
 20
1142.6737011244
 30
0.0
 40
2.299999999999994
100
AcDbArc
 50
197.5
 51
270.0
  0
ARC
  5
237
330
1F
100
AcDbEntity
  8
0
  6
SLD-Solid
 62
     7
370
    15
100
AcDbCircle
 10
382.3162663143
 20
1142.6737011244
 30
0.0
 40
1.500000000000021
100
AcDbArc
 50
197.5
 51
270.0
  0
LINE
  5
238
330
1F
100
AcDbEntity
  8
0
  6
SLD-Solid
 62
     7
370
    15
100
AcDbLine
 10
380.1227173276
 20
1141.9820777855
 30
0.0
 11
379.5513298508
 21
1143.794287337
 31
0.0
  0
LINE
  5
239
330
1F
100
AcDbEntity
  8
0
  6
SLD-Solid
 62
     7
370
    15
100
AcDbLine
 10
380.8856908882
 20
1142.2226424251
 30
0.0
 11
380.3143034114
 21
1144.0348519766
 31
0.0
  0
LINE
  5
23A
330
1F
100
AcDbEntity
  8
0
  6
SLD-Solid
 62
     7
370
    15
100
AcDbLine
 10
378.0478008533
 20
1148.5628720908
 30
0.0
 11
378.8107744139
 21
1148.8034367304
 31
0.0
  0
LINE
  5
23B
330
1F
100
AcDbEntity
  8
0
  6
SLD-Solid
 62
     7
370
    15
100
AcDbLine
 10
379.5513298508
 20
1143.794287337
 30
0.0
 11
378.0478008533
 21
1148.5628720908
 31
0.0
  0
LINE
  5
23C
330
1F
100
AcDbEntity
  8
0
  6
SLD-Solid
 62
     7
370
    15
100
AcDbLine
 10
378.8107744139
 20
1148.8034367304
 30
0.0
 11
380.3143034114
 21
1144.0348519766
 31
0.0
  0
LINE
  5
23D
330
1F
100
AcDbEntity
  8
0
  6
SLD-Solid
 62
     7
370
    15
100
AcDbLine
 10
918.7162663143
 20
1141.1737011244
 30
0.0
 11
919.1162663143
 21
1141.1737011244
 31
0.0
  0
LINE
  5
23E
330
1F
100
AcDbEntity
  8
0
  6
SLD-Solid
 62
     7
370
    15
100
AcDbLine
 10
918.7162663143
 20
1140.3737011244
 30
0.0
 11
919.1162663143
 21
1140.3737011244
 31
0.0
  0
LINE
  5
23F
330
1F
100
AcDbEntity
  8
0
  6
SLD-Solid
 62
     7
370
    15
100
AcDbLine
 10
403.3162663143
 20
1141.1737011244
 30
0.0
 11
403.7162663143
 21
1141.1737011244
 31
0.0
  0
LINE
  5
240
330
1F
100
AcDbEntity
  8
0
  6
SLD-Solid
 62
     7
370
    15
100
AcDbLine
 10
403.3162663143
 20
1140.3737011244
 30
0.0
 11
403.7162663143
 21
1140.3737011244
 31
0.0
  0
ARC
  5
241
330
1F
100
AcDbEntity
  8
0
  6
SLD-Solid
 62
     7
370
    15
100
AcDbCircle
 10
920.21642081
 20
1137.1737011244
 30
0.0
 40
3.200000000000045
100
AcDbArc
 50
90.0
 51
117.9500553353
  0
ARC
  5
242
330
1F
100
AcDbEntity
  8
0
  6
SLD-Solid
 62
     7
370
    15
100
AcDbCircle
 10
402.21642081
 20
1137.1737011244
 30
0.0
 40
3.200000000000045
100
AcDbArc
 50
62.0436814777
 51
90.0
  0
LWPOLYLINE
  5
243
330
1F
100
AcDbEntity
  8
0
  6
SLD-Solid
 62
     7
370
    15
100
AcDbPolyline
 90
        3
 70
   128
 43
0.0
 10
910.0525385121
 20
1124.3737011244
 10
909.6247064733
 20
1123.8363466549
 10
908.5212424565
 20
1122.5737011205
  0
LWPOLYLINE
  5
244
330
1F
100
AcDbEntity
  8
0
  6
SLD-Solid
 62
     7
370
    15
100
AcDbPolyline
 90
        3
 70
   128
 43
0.0
 10
412.3803031079
 20
1124.3737011244
 10
412.8081351467
 20
1123.8363466549
 10
413.9115991634
 20
1122.5737011205
  0
LINE
  5
245
330
1F
100
AcDbEntity
  8
0
  6
SLD-Solid
 62
     7
370
    15
100
AcDbLine
 10
918.7165753059
 20
1138.8737011244
 30
0.0
 11
918.7165753059
 21
1140.0004419089
 31
0.0
  0
ARC
  5
246
330
1F
100
AcDbEntity
  8
0
  6
SLD-Solid
 62
     7
370
    15
100
AcDbCircle
 10
913.7165753059
 20
1129.3737011244
 30
0.0
 40
5.000000000000227
100
AcDbArc
 50
270.0
 51
0.0
  0
LINE
  5
247
330
1F
100
AcDbEntity
  8
0
  6
SLD-Solid
 62
     7
370
    15
100
AcDbLine
 10
918.7165753059
 20
1129.3737011244
 30
0.0
 11
918.7165753059
 21
1138.8737011244
 31
0.0
  0
LINE
  5
248
330
1F
100
AcDbEntity
  8
0
  6
SLD-Solid
 62
     7
370
    15
100
AcDbLine
 10
852.7018540675
 20
1145.0848121206
 30
0.0
 11
749.7309875525
 21
1145.0848121206
 31
0.0
  0
LINE
  5
249
330
1F
100
AcDbEntity
  8
0
  6
SLD-Solid
 62
     7
370
    15
100
AcDbLine
 10
572.7018540676
 20
1145.0848121205
 30
0.0
 11
469.7309875526
 21
1145.0848121205
 31
0.0
  0
LINE
  5
24A
330
1F
100
AcDbEntity
  8
0
  6
SLD-Solid
 62
     7
370
    15
100
AcDbLine
 10
1050.6596112291
 20
1092.7904813528
 30
0.0
 11
1049.1762611515
 21
1097.3557634664
 31
0.0
  0
LINE
  5
24B
330
1F
100
AcDbEntity
  8
0
  6
SLD-Solid
 62
     7
370
    15
100
AcDbLine
 10
1066.7902298309
 20
1043.1455420376
 30
0.0
 11
1065.3068797534
 21
1047.7108241511
 31
0.0
  0
SPLINE
  5
24C
330
1F
100
AcDbEntity
  8
0
  6
SLD-Solid
 62
     7
370
    15
100
AcDbSpline
210
0.0
220
0.0
230
1.0
 70
     8
 71
     3
 72
    16
 73
    12
 74
     0
 42
0.00000001
 43
0.00000001
 40
0.0
 40
0.0
 40
0.0
 40
0.0
 40
0.0000597702847642
 40
0.1251210323923125
 40
0.2500906799919103
 40
0.3750581956784605
 40
0.5000239897294981
 40
0.6249879290177736
 40
0.7499516896828745
 40
0.8749147384303048
 40
1.0
 40
1.0
 40
1.0
 40
1.0
 10
1040.924289843164
 20
1097.904056226263
 30
0.0
 10
1040.92425971298
 20
1097.904060383372
 30
0.0
 10
1040.861186235315
 20
1097.912762732034
 30
0.0
 10
1041.082933405205
 20
1097.881468659406
 30
0.0
 10
1041.598504368521
 20
1097.813496002201
 30
0.0
 10
1042.436266726231
 20
1097.719983964746
 30
0.0
 10
1043.411237629982
 20
1097.638892146836
 30
0.0
 10
1044.393486736195
 20
1097.587954880519
 30
0.0
 10
1045.22024453028
 20
1097.569592209449
 30
0.0
 10
1045.799284431431
 20
1097.570949742509
 30
0.0
 10
1045.875166976706
 20
1097.572037229841
 30
0.0
 10
1045.9131267934
 20
1097.572581239265
 30
0.0
  0
LINE
  5
24D
330
1F
100
AcDbEntity
  8
0
  6
SLD-Solid
 62
     7
370
    15
100
AcDbLine
 10
1058.5157326455
 20
1036.2511460286
 30
0.0
 11
1038.4296280111
 21
1098.0698195878
 31
0.0
  0
LINE
  5
24E
330
1F
100
AcDbEntity
  8
0
  6
SLD-Solid
 62
     7
370
    15
100
AcDbLine
 10
1051.2264655336
 20
1091.0458831919
 30
0.0
 11
1064.7400254489
 21
1049.455422312
 31
0.0
  0
SPLINE
  5
24F
330
1F
100
AcDbEntity
  8
0
  6
SLD-Solid
 62
     7
370
    15
100
AcDbSpline
210
0.0
220
0.0
230
1.0
 70
     8
 71
     3
 72
    12
 73
     8
 74
     0
 42
0.00000001
 43
0.00000001
 40
0.0
 40
0.0
 40
0.0
 40
0.0
 40
0.030471745945955
 40
0.0888135668586238
 40
0.3925556175487885
 40
0.6962774394174083
 40
1.0
 40
1.0
 40
1.0
 40
1.0
 10
1065.437274712609
 20
1048.787455217314
 30
0.0
 10
1065.44078381866
 20
1048.777446953772
 30
0.0
 10
1065.451011530109
 20
1048.748276666487
 30
0.0
 10
1065.489985839396
 20
1048.615794614255
 30
0.0
 10
1065.517628398548
 20
1048.372465480232
 30
0.0
 10
1065.467065583669
 20
1048.030898570142
 30
0.0
 10
1065.362836093809
 20
1047.837805146831
 30
0.0
 10
1065.310721285503
 20
1047.741258317764
 30
0.0
  0
SPLINE
  5
250
330
1F
100
AcDbEntity
  8
0
  6
SLD-Solid
 62
     7
370
    15
100
AcDbSpline
210
0.0
220
0.0
230
1.0
 70
     8
 71
     3
 72
    10
 73
     6
 74
     0
 42
0.00000001
 43
0.00000001
 40
0.0
 40
0.0
 40
0.0
 40
0.0
 40
0.2117958997113376
 40
0.4880069094710092
 40
0.9999999999999999
 40
0.9999999999999999
 40
0.9999999999999999
 40
0.9999999999999999
 10
1065.310721285503
 20
1047.741258317764
 30
0.0
 10
1065.30928064404
 20
1047.738674408984
 30
0.0
 10
1065.305961207788
 20
1047.732720727442
 30
0.0
 10
1065.304199378523
 20
1047.721686635813
 30
0.0
 10
1065.305824272389
 20
1047.71510159238
 30
0.0
 10
1065.306879753363
 20
1047.710824151122
 30
0.0
  0
SPLINE
  5
251
330
1F
100
AcDbEntity
  8
0
  6
SLD-Solid
 62
     7
370
    15
100
AcDbSpline
210
0.0
220
0.0
230
1.0
 70
     8
 71
     3
 72
    12
 73
     8
 74
     0
 42
0.00000001
 43
0.00000001
 40
0.0
 40
0.0
 40
0.0
 40
0.0
 40
0.0304717459515746
 40
0.0888135668586491
 40
0.3925556175487822
 40
0.69627743941741
 40
1.0
 40
1.0
 40
1.0
 40
1.0
 10
1051.397930829982
 20
1091.996112757616
 30
0.0
 10
1051.3948870467
 20
1092.006272213693
 30
0.0
 10
1051.386015574402
 20
1092.03588316979
 30
0.0
 10
1051.339675456472
 20
1092.165971925721
 30
0.0
 10
1051.219013480156
 20
1092.379077218967
 30
0.0
 10
1050.977339311215
 20
1092.625690577048
 30
0.0
 10
1050.779518416066
 20
1092.720641881016
 30
0.0
 10
1050.680607848207
 20
1092.768117590734
 30
0.0
  0
SPLINE
  5
252
330
1F
100
AcDbEntity
  8
0
  6
SLD-Solid
 62
     7
370
    15
100
AcDbSpline
210
0.0
220
0.0
230
1.0
 70
     8
 71
     3
 72
    11
 73
     7
 74
     0
 42
0.00000001
 43
0.00000001
 40
0.0
 40
0.0
 40
0.0
 40
0.0
 40
0.3704320937886121
 40
0.7442498469288501
 40
0.9442480537682792
 40
1.0
 40
1.0
 40
1.0
 40
1.0
 10
1050.659611229104
 20
1092.79048135282
 30
0.0
 10
1050.660750034658
 20
1092.787533531162
 30
0.0
 10
1050.663038054171
 20
1092.781610945472
 30
0.0
 10
1050.66943431091
 20
1092.774073362316
 30
0.0
 10
1050.676485138911
 20
1092.769767089275
 30
0.0
 10
1050.679869974955
 20
1092.768412814279
 30
0.0
 10
1050.680607848207
 20
1092.768117590734
 30
0.0
  0
SPLINE
  5
253
330
1F
100
AcDbEntity
  8
0
  6
SLD-Solid
 62
     7
370
    15
100
AcDbSpline
210
0.0
220
0.0
230
1.0
 70
     8
 71
     3
 72
    12
 73
     8
 74
     0
 42
0.00000001
 43
0.00000001
 40
0.0
 40
0.0
 40
0.0
 40
0.0
 40
0.223892557185064
 40
0.4477848984198384
 40
0.6716824862031483
 40
0.8955821585468603
 40
0.9999999999999999
 40
0.9999999999999999
 40
0.9999999999999999
 40
0.9999999999999999
 10
1049.905673898074
 20
1097.275023156791
 30
0.0
 10
1049.877972972605
 20
1097.278086389509
 30
0.0
 10
1049.822571148386
 20
1097.284212851989
 30
0.0
 10
1049.751072534743
 20
1097.29238383396
 30
0.0
 10
1049.699030535289
 20
1097.298442628796
 30
0.0
 10
1049.675857650475
 20
1097.301193005462
 30
0.0
 10
1049.673924739633
 20
1097.30144046486
 30
0.0
 10
1049.673309998204
 20
1097.301519166651
 30
0.0
  0
LINE
  5
254
330
1F
100
AcDbEntity
  8
0
  6
SLD-Solid
 62
     7
370
    15
100
AcDbLine
 10
1049.9056738981
 20
1097.2750231568
 30
0.0
 11
1068.8835339449
 21
1095.1544851869
 31
0.0
  0
LINE
  5
255
330
1F
100
AcDbEntity
  8
0
  6
SLD-Solid
 62
     7
370
    15
100
AcDbLine
 10
1068.8835339449
 20
1095.1544851869
 30
0.0
 11
1070.3533885844
 21
1094.9925265657
 31
0.0
  0
LINE
  5
256
330
1F
100
AcDbEntity
  8
0
  6
SLD-Solid
 62
     7
370
    15
100
AcDbLine
 10
1072.1937027672
 20
1091.236721888
 30
0.0
 11
1081.8150488671
 21
1061.6252633909
 31
0.0
  0
LINE
  5
257
330
1F
100
AcDbEntity
  8
0
  6
SLD-Solid
 62
     7
370
    15
100
AcDbLine
 10
1081.8150488671
 20
1061.6252633909
 30
0.0
 11
1082.8304012656
 21
1058.5003300294
 31
0.0
  0
LINE
  5
258
330
1F
100
AcDbEntity
  8
0
  6
SLD-Solid
 62
     7
370
    15
100
AcDbLine
 10
1071.1968189603
 20
1094.304814769
 30
0.0
 11
1072.1937027672
 21
1091.236721888
 31
0.0
  0
SPLINE
  5
259
330
1F
100
AcDbEntity
  8
0
  6
SLD-Solid
 62
     7
370
    15
100
AcDbSpline
210
0.0
220
0.0
230
1.0
 70
     8
 71
     3
 72
    11
 73
     7
 74
     0
 42
0.00000001
 43
0.00000001
 40
0.0
 40
0.0
 40
0.0
 40
0.0
 40
0.2933118760927149
 40
0.5865991201419724
 40
0.8805021461502595
 40
1.0
 40
1.0
 40
1.0
 40
1.0
 10
1070.353388584356
 20
1094.992526565665
 30
0.0
 10
1070.464070869588
 20
1094.969193442312
 30
0.0
 10
1070.685426145064
 20
1094.922529155098
 30
0.0
 10
1070.963320005761
 20
1094.717933011307
 30
0.0
 10
1071.125916353667
 20
1094.49586173846
 30
0.0
 10
1071.180919674397
 20
1094.347655371492
 30
0.0
 10
1071.196818960302
 20
1094.304814768962
 30
0.0
  0
LINE
  5
25A
330
1F
100
AcDbEntity
  8
0
  6
SLD-Solid
 62
     7
370
    15
100
AcDbLine
 10
1046.1842960527
 20
1067.7312694648
 30
0.0
 11
1046.3060465646
 21
1067.3565599187
 31
0.0
  0
SPLINE
  5
25B
330
1F
100
AcDbEntity
  8
0
  6
SLD-Solid
 62
     7
370
    15
100
AcDbSpline
210
0.0
220
0.0
230
1.0
 70
    24
 71
     3
 72
    15
 73
    11
 74
     0
 42
0.00000001
 43
0.00000001
 40
0.0
 40
0.0
 40
0.0
 40
0.0
 40
0.0013073418575373
 40
0.0031095021670799
 40
0.005897756042307
 40
0.0102696093432908
 40
0.0184674105906655
 40
0.0491723679949542
 40
0.1105064211958479
 40
1.0
 40
1.0
 40
1.0
 40
1.0
 10
1046.184296052724
 20
1067.731269464841
 30
0.0
 10
1046.184373753116
 20
1067.731294711228
 30
0.0
 10
1046.184558562878
 20
1067.73135475956
 30
0.0
 10
1046.186390526188
 20
1067.731950000523
 30
0.0
 10
1046.190396352704
 20
1067.733251572457
 30
0.0
 10
1046.198664975523
 20
1067.735938210872
 30
0.0
 10
1046.224078350517
 20
1067.744195516955
 30
0.0
 10
1046.286650113937
 20
1067.764526315319
 30
0.0
 10
1046.906707220267
 20
1067.965995081951
 30
0.0
 10
1047.516216649505
 20
1068.164036700552
 30
0.0
 10
1048.086409085314
 20
1068.349303453591
 30
0.0
  0
LINE
  5
25C
330
1F
100
AcDbEntity
  8
0
  6
SLD-Solid
 62
     7
370
    15
100
AcDbLine
 10
1046.3060465646
 20
1067.3565599187
 30
0.0
 11
1046.8023300415
 21
1065.8291564323
 31
0.0
  0
LINE
  5
25D
330
1F
100
AcDbEntity
  8
0
  6
SLD-Solid
 62
     7
370
    15
100
AcDbLine
 10
1046.8023300415
 20
1065.8291564323
 30
0.0
 11
1046.9568385387
 21
1065.3536281741
 31
0.0
  0
LINE
  5
25E
330
1F
100
AcDbEntity
  8
0
  6
SLD-Solid
 62
     7
370
    15
100
AcDbLine
 10
1048.8697393947
 20
1065.9384606564
 30
0.0
 11
1046.9568385387
 21
1065.3536281741
 31
0.0
  0
LINE
  5
25F
330
1F
100
AcDbEntity
  8
0
  6
SLD-Solid
 62
     7
370
    15
100
AcDbLine
 10
1049.7894149971
 20
1063.1079901952
 30
0.0
 11
1047.8861601353
 21
1062.4934703954
 31
0.0
  0
LINE
  5
260
330
1F
100
AcDbEntity
  8
0
  6
SLD-Solid
 62
     7
370
    15
100
AcDbLine
 10
1046.9568385387
 20
1065.3536281741
 30
0.0
 11
1047.8861601353
 21
1062.4934703954
 31
0.0
  0
LINE
  5
261
330
1F
100
AcDbEntity
  8
0
  6
SLD-Solid
 62
     7
370
    15
100
AcDbLine
 10
1048.2322197587
 20
1061.4284083897
 30
0.0
 11
1048.4159859483
 21
1060.8628342132
 31
0.0
  0
LINE
  5
262
330
1F
100
AcDbEntity
  8
0
  6
SLD-Solid
 62
     7
370
    15
100
AcDbLine
 10
1047.8861601353
 20
1062.4934703954
 30
0.0
 11
1048.2322197587
 21
1061.4284083897
 31
0.0
  0
LINE
  5
263
330
1F
100
AcDbEntity
  8
0
  6
SLD-Solid
 62
     7
370
    15
100
AcDbLine
 10
1048.4159859483
 20
1060.8628342132
 30
0.0
 11
1048.7417429326
 21
1059.8602573055
 31
0.0
  0
LINE
  5
264
330
1F
100
AcDbEntity
  8
0
  6
SLD-Solid
 62
     7
370
    15
100
AcDbLine
 10
1048.7417429326
 20
1059.8602573055
 30
0.0
 11
1048.7682373775
 21
1059.7787157884
 31
0.0
  0
SPLINE
  5
265
330
1F
100
AcDbEntity
  8
0
  6
SLD-Solid
 62
     7
370
    15
100
AcDbSpline
210
0.0
220
0.0
230
1.0
 70
     8
 71
     3
 72
    16
 73
    12
 74
     0
 42
0.00000001
 43
0.00000001
 40
0.0
 40
0.0
 40
0.0
 40
0.0
 40
0.0001752464039402
 40
0.125214421006559
 40
0.2502435855708354
 40
0.3752580360337608
 40
0.5002621062641094
 40
0.6252646105096211
 40
0.7502654112533406
 40
0.8753601771999037
 40
1.0
 40
1.0
 40
1.0
 40
1.0
 10
1040.925126527622
 20
1097.914010215071
 30
0.0
 10
1040.925038336736
 20
1097.914022385621
 30
0.0
 10
1040.86202551323
 20
1097.92271830328
 30
0.0
 10
1041.083837734841
 20
1097.891409239507
 30
0.0
 10
1041.599830080535
 20
1097.823376281613
 30
0.0
 10
1042.438226719948
 20
1097.729805301889
 30
0.0
 10
1043.413833228963
 20
1097.648703607394
 30
0.0
 10
1044.396398176302
 20
1097.597821373367
 30
0.0
 10
1045.223131708017
 20
1097.579533245689
 30
0.0
 10
1045.800621046355
 20
1097.580937292115
 30
0.0
 10
1045.876112708581
 20
1097.582019246133
 30
0.0
 10
1045.913789777864
 20
1097.582559237641
 30
0.0
  0
LINE
  5
266
330
1F
100
AcDbEntity
  8
0
  6
SLD-Solid
 62
     7
370
    15
100
AcDbLine
 10
1046.1842960527
 20
1067.7312694648
 30
0.0
 11
1045.3344993182
 21
1070.3466748847
 31
0.0
  0
LINE
  5
267
330
1F
100
AcDbEntity
  8
0
  6
SLD-Solid
 62
     7
370
    15
100
AcDbLine
 10
1047.9319005881
 20
1068.8248317117
 30
0.0
 11
1046.0297875555
 21
1068.206797723
 31
0.0
  0
LINE
  5
268
330
1F
100
AcDbEntity
  8
0
  6
SLD-Solid
 62
     7
370
    15
100
AcDbLine
 10
400.2164208101
 20
1122.5737011205
 30
0.0
 11
400.2164208101
 21
1123.219761923
 31
0.0
  0
LINE
  5
269
330
1F
100
AcDbEntity
  8
0
  6
SLD-Solid
 62
     7
370
    15
100
AcDbLine
 10
922.2164208101
 20
1122.7737011206
 30
0.0
 11
922.2164208101
 21
1122.5737011205
 31
0.0
  0
SPLINE
  5
26A
330
1F
100
AcDbEntity
  8
0
  6
SLD-Solid
 62
     7
370
    15
100
AcDbSpline
210
0.0
220
0.0
230
1.0
 70
    24
 71
     3
 72
    11
 73
     7
 74
     0
 42
0.00000001
 43
0.00000001
 40
0.0
 40
0.0
 40
0.0
 40
0.0
 40
0.2832771686238245
 40
0.558002248900511
 40
0.7754022428539121
 40
1.0
 40
1.0
 40
1.0
 40
1.0
 10
1064.716420810069
 20
888.0737011205202
 30
0.0
 10
1064.716420810069
 20
888.111984952697
 30
0.0
 10
1064.716420810069
 20
888.18739683483
 30
0.0
 10
1064.716420810069
 20
888.7203355009509
 30
0.0
 10
1064.716420810069
 20
889.3707599308481
 30
0.0
 10
1064.716420810069
 20
889.8328678606641
 30
0.0
 10
1064.716420810069
 20
890.0676844504271
 30
0.0
  0
LINE
  5
26B
330
1F
100
AcDbEntity
  8
0
  6
SLD-Solid
 62
     7
370
    15
100
AcDbLine
 10
1063.1164208101
 20
888.0737011205
 30
0.0
 11
1064.7164208101
 21
888.0737011205
 31
0.0
  0
LINE
  5
26C
330
1F
100
AcDbEntity
  8
0
  6
SLD-Solid
 62
     7
370
    15
100
AcDbLine
 10
1063.1164208101
 20
948.0737011205
 30
0.0
 11
1064.7164208101
 21
948.0737011205
 31
0.0
  0
SPLINE
  5
26D
330
1F
100
AcDbEntity
  8
0
  6
SLD-Solid
 62
     7
370
    15
100
AcDbSpline
210
0.0
220
0.0
230
1.0
 70
    24
 71
     3
 72
    11
 73
     7
 74
     0
 42
0.00000001
 43
0.00000001
 40
0.0
 40
0.0
 40
0.0
 40
0.0
 40
0.2833534124411319
 40
0.5581116990962682
 40
0.7754835424211831
 40
1.0
 40
1.0
 40
1.0
 40
1.0
 10
1064.716420810069
 20
946.0793232407937
 30
0.0
 10
1064.716420810069
 20
946.3763718156004
 30
0.0
 10
1064.716420810069
 20
946.9614584160091
 30
0.0
 10
1064.716420810069
 20
947.6095681864165
 30
0.0
 10
1064.716420810069
 20
948.0034735885287
 30
0.0
 10
1064.716420810069
 20
948.0500409702788
 30
0.0
 10
1064.716420810069
 20
948.0737011205202
 30
0.0
  0
LINE
  5
26E
330
1F
100
AcDbEntity
  8
0
  6
SLD-Solid
 62
     7
370
    15
100
AcDbLine
 10
1064.7164208101
 20
890.0676844504
 30
0.0
 11
1064.7164208101
 21
946.0793232408
 31
0.0
  0
LINE
  5
26F
330
1F
100
AcDbEntity
  8
0
  6
SLD-Solid
 62
     7
370
    15
100
AcDbLine
 10
1066.1164208101
 20
945.5359856124
 30
0.0
 11
1066.1164208101
 21
890.6114166286
 31
0.0
  0
SPLINE
  5
270
330
1F
100
AcDbEntity
  8
0
  6
SLD-Solid
 62
     7
370
    15
100
AcDbSpline
210
0.0
220
0.0
230
1.0
 70
     8
 71
     3
 72
    11
 73
     7
 74
     0
 42
0.00000001
 43
0.00000001
 40
0.0
 40
0.0
 40
0.0
 40
0.0
 40
0.2514201137491276
 40
0.5021380165204696
 40
0.7627995894819117
 40
1.0
 40
1.0
 40
1.0
 40
1.0
 10
1066.116420810069
 20
890.6114166286101
 30
0.0
 10
1066.098109438417
 20
890.3592723513829
 30
0.0
 10
1066.06153783838
 20
889.8556880304793
 30
0.0
 10
1065.764271769181
 20
889.1399773607192
 30
0.0
 10
1065.320659136996
 20
888.516605433896
 30
0.0
 10
1064.911405045922
 20
888.2166237973037
 30
0.0
 10
1064.716420810069
 20
888.0737011205202
 30
0.0
  0
SPLINE
  5
271
330
1F
100
AcDbEntity
  8
0
  6
SLD-Solid
 62
     7
370
    15
100
AcDbSpline
210
0.0
220
0.0
230
1.0
 70
    24
 71
     3
 72
    13
 73
     9
 74
     0
 42
0.00000001
 43
0.00000001
 40
0.0
 40
0.0
 40
0.0
 40
0.0
 40
0.1275872441294517
 40
0.2546759233236707
 40
0.5000487292309156
 40
0.7453982611490174
 40
0.8725397565424724
 40
1.0
 40
1.0
 40
1.0
 40
1.0
 10
1064.716420810069
 20
890.0676844504271
 30
0.0
 10
1064.716420810069
 20
889.9345129489753
 30
0.0
 10
1064.716420810069
 20
889.6686903322704
 30
0.0
 10
1064.716420810069
 20
889.1689464991313
 30
0.0
 10
1064.716420810069
 20
888.6215431239098
 30
0.0
 10
1064.716420810069
 20
888.2557903477315
 30
0.0
 10
1064.716420810069
 20
888.0955300095503
 30
0.0
 10
1064.716420810069
 20
888.0809834873585
 30
0.0
 10
1064.716420810069
 20
888.0737011205202
 30
0.0
  0
SPLINE
  5
272
330
1F
100
AcDbEntity
  8
0
  6
SLD-Solid
 62
     7
370
    15
100
AcDbSpline
210
0.0
220
0.0
230
1.0
 70
     8
 71
     3
 72
    11
 73
     7
 74
     0
 42
0.00000001
 43
0.00000001
 40
0.0
 40
0.0
 40
0.0
 40
0.0
 40
0.2371941589275822
 40
0.4978619749471078
 40
0.7485798819786866
 40
1.0
 40
1.0
 40
1.0
 40
1.0
 10
1064.716420810069
 20
948.0737011205201
 30
0.0
 10
1064.911400051124
 20
947.9307826167831
 30
0.0
 10
1065.320654437757
 20
947.6308018379615
 30
0.0
 10
1065.764269450801
 20
947.0074306926367
 30
0.0
 10
1066.061537810539
 20
946.2917142207247
 30
0.0
 10
1066.098109429128
 20
945.7881298930483
 30
0.0
 10
1066.116420810069
 20
945.5359856124303
 30
0.0
  0
SPLINE
  5
273
330
1F
100
AcDbEntity
  8
0
  6
SLD-Solid
 62
     7
370
    15
100
AcDbSpline
210
0.0
220
0.0
230
1.0
 70
    24
 71
     3
 72
    13
 73
     9
 74
     0
 42
0.00000001
 43
0.00000001
 40
0.0
 40
0.0
 40
0.0
 40
0.0
 40
0.1275360740474263
 40
0.2545887198592403
 40
0.4999418984797871
 40
0.745329982864981
 40
0.8725055605771398
 40
1.0
 40
1.0
 40
1.0
 40
1.0
 10
1064.716420810069
 20
948.0737011205201
 30
0.0
 10
1064.716420810069
 20
948.066433876649
 30
0.0
 10
1064.716420810069
 20
948.051926935551
 30
0.0
 10
1064.716420810069
 20
947.8914358105743
 30
0.0
 10
1064.716420810069
 20
947.5256564052041
 30
0.0
 10
1064.716420810069
 20
946.9780814149643
 30
0.0
 10
1064.716420810069
 20
946.4782344310281
 30
0.0
 10
1064.716420810069
 20
946.212404582362
 30
0.0
 10
1064.716420810069
 20
946.0793232407937
 30
0.0
  0
LINE
  5
274
330
1F
100
AcDbEntity
  8
0
  6
SLD-Solid
 62
     7
370
    15
100
AcDbLine
 10
1061.0664208101
 20
858.8807721883
 30
0.0
 11
1004.3164208101
 21
858.8807721883
 31
0.0
  0
LINE
  5
275
330
1F
100
AcDbEntity
  8
0
  6
SLD-Solid
 62
     7
370
    15
100
AcDbLine
 10
1004.3164208101
 20
981.0237011205
 30
0.0
 11
1004.3164208101
 21
858.8807721883
 31
0.0
  0
LINE
  5
276
330
1F
100
AcDbEntity
  8
0
  6
SLD-Solid
 62
     7
370
    15
100
AcDbLine
 10
1061.0664208101
 20
981.0237011205
 30
0.0
 11
1060.995710132
 21
983.0737011205
 31
0.0
  0
LINE
  5
277
330
1F
100
AcDbEntity
  8
0
  6
SLD-Solid
 62
     7
370
    15
100
AcDbLine
 10
1004.3164208101
 20
983.0737011205
 30
0.0
 11
1004.3164208101
 21
981.0237011205
 31
0.0
  0
LINE
  5
278
330
1F
100
AcDbEntity
  8
0
  6
SLD-Solid
 62
     7
370
    15
100
AcDbLine
 10
1063.1164208101
 20
981.0237011205
 30
0.0
 11
1063.1164208101
 21
860.1237011205
 31
0.0
  0
LINE
  5
279
330
1F
100
AcDbEntity
  8
0
  6
SLD-Solid
 62
     7
370
    15
100
AcDbLine
 10
1061.0664208101
 20
981.0237011205
 30
0.0
 11
1063.1164208101
 21
981.0237011205
 31
0.0
  0
SPLINE
  5
27A
330
1F
100
AcDbEntity
  8
0
  6
SLD-Solid
 62
     7
370
    15
100
AcDbSpline
210
0.0
220
0.0
230
1.0
 70
     8
 71
     3
 72
    12
 73
     8
 74
     0
 42
0.00000001
 43
0.00000001
 40
0.0
 40
0.0
 40
0.0
 40
0.0
 40
0.2301693782020175
 40
0.460422164295724
 40
0.6906753391241908
 40
0.92092836142229
 40
0.9999999999999999
 40
0.9999999999999999
 40
0.9999999999999999
 40
0.9999999999999999
 10
1063.116420810072
 20
860.1237011205203
 30
0.0
 10
1063.090343501778
 20
860.0283115557663
 30
0.0
 10
1063.038179435395
 20
859.837497859356
 30
0.0
 10
1062.633469450686
 20
859.5512061167578
 30
0.0
 10
1062.045441594929
 20
859.2650909867219
 30
0.0
 10
1061.481416949097
 20
859.0409761793121
 30
0.0
 10
1061.150907775479
 20
858.9133873087422
 30
0.0
 10
1061.066420810072
 20
858.880772188332
 30
0.0
  0
SPLINE
  5
27B
330
1F
100
AcDbEntity
  8
0
  6
SLD-Solid
 62
     7
370
    15
100
AcDbSpline
210
0.0
220
0.0
230
1.0
 70
     8
 71
     3
 72
    12
 73
     8
 74
     0
 42
0.00000001
 43
0.00000001
 40
0.0
 40
0.0
 40
0.0
 40
0.0
 40
0.230169378202
 40
0.4604221642956532
 40
0.6906753391241395
 40
0.920928361422205
 40
0.9999999999999999
 40
0.9999999999999999
 40
0.9999999999999999
 40
0.9999999999999999
 10
1061.066420810072
 20
858.0737011205201
 30
0.0
 10
1061.313499499133
 20
858.0997784288143
 30
0.0
 10
1061.807746412678
 20
858.1519424951969
 30
0.0
 10
1062.45387358378
 20
858.5566524799059
 30
0.0
 10
1062.917819879968
 20
859.1446803356628
 30
0.0
 10
1063.100629560726
 20
859.7087049814949
 30
0.0
 10
1063.113205949471
 20
860.0392141551132
 30
0.0
 10
1063.116420810072
 20
860.1237011205203
 30
0.0
  0
LINE
  5
27C
330
1F
100
AcDbEntity
  8
0
  6
SLD-Solid
 62
     7
370
    15
100
AcDbLine
 10
1061.0664208101
 20
858.0737011205
 30
0.0
 11
1061.0664208101
 21
858.8737011205
 31
0.0
  0
SPLINE
  5
27D
330
1F
100
AcDbEntity
  8
0
  6
SLD-Solid
 62
     7
370
    15
100
AcDbSpline
210
0.0
220
0.0
230
1.0
 70
     8
 71
     3
 72
     9
 73
     5
 74
     0
 42
0.00000001
 43
0.00000001
 40
0.0
 40
0.0
 40
0.0
 40
0.0
 40
0.5275152947319446
 40
1.0
 40
1.0
 40
1.0
 40
1.0
 10
1061.066420810072
 20
858.8737011205201
 30
0.0
 10
1061.235229505068
 20
858.8905629884414
 30
0.0
 10
1061.555236709942
 20
858.9225276880237
 30
0.0
 10
1061.802620589099
 20
859.1264579857192
 30
0.0
 10
1061.919505688331
 20
859.2228119323212
 30
0.0
  0
LINE
  5
27E
330
1F
100
AcDbEntity
  8
0
  6
SLD-Solid
 62
     7
370
    15
100
AcDbLine
 10
1061.0664208101
 20
858.8737011205
 30
0.0
 11
1004.3164208101
 21
858.8737011205
 31
0.0
  0
LINE
  5
27F
330
1F
100
AcDbEntity
  8
0
  6
SLD-Solid
 62
     7
370
    15
100
AcDbLine
 10
1061.0664208101
 20
858.0737011205
 30
0.0
 11
1004.3164208101
 21
858.0737011205
 31
0.0
  0
LINE
  5
280
330
1F
100
AcDbEntity
  8
0
  6
SLD-Solid
 62
     7
370
    15
100
AcDbLine
 10
1004.3164208101
 20
858.0737011205
 30
0.0
 11
1004.3164208101
 21
858.8737011205
 31
0.0
  0
ARC
  5
281
330
1F
100
AcDbEntity
  8
0
  6
SLD-Solid
 62
     7
370
    15
100
AcDbCircle
 10
1061.0664208101
 20
981.0237011205
 30
0.0
 40
2.049999999999955
100
AcDbArc
 50
0.0
 51
90.0
  0
LINE
  5
282
330
1F
100
AcDbEntity
  8
0
  6
SLD-Solid
 62
     7
370
    15
100
AcDbLine
 10
1061.0664208101
 20
982.2737011205
 30
0.0
 11
1061.0664208101
 21
983.0737011205
 31
0.0
  0
ARC
  5
283
330
1F
100
AcDbEntity
  8
0
  6
SLD-Solid
 62
     7
370
    15
100
AcDbCircle
 10
1061.0664208101
 20
981.0237011205
 30
0.0
 40
1.250000000000114
100
AcDbArc
 50
0.0
 51
90.0
  0
LINE
  5
284
330
1F
100
AcDbEntity
  8
0
  6
SLD-Solid
 62
     7
370
    15
100
AcDbLine
 10
1061.023304543
 20
982.2737011205
 30
0.0
 11
1061.0664208101
 21
982.2737011205
 31
0.0
  0
LINE
  5
285
330
1F
100
AcDbEntity
  8
0
  6
SLD-Solid
 62
     7
370
    15
100
AcDbLine
 10
1061.023304543
 20
982.2737011205
 30
0.0
 11
1061.0664208101
 21
981.0237011205
 31
0.0
  0
LINE
  5
286
330
1F
100
AcDbEntity
  8
0
  6
SLD-Solid
 62
     7
370
    15
100
AcDbLine
 10
1004.3164208101
 20
984.8737011205
 30
0.0
 11
1004.3164208101
 21
1103.5613756477
 31
0.0
  0
ARC
  5
287
330
1F
100
AcDbEntity
  8
0
  6
SLD-Solid
 62
     7
370
    15
100
AcDbCircle
 10
1005.3164208101
 20
1103.5613756477
 30
0.0
 40
1.000000000000114
100
AcDbArc
 50
90.0
 51
180.0
  0
ARC
  5
288
330
1F
100
AcDbEntity
  8
0
  6
SLD-Solid
 62
     7
370
    15
100
AcDbCircle
 10
1005.3164208101
 20
984.8737011205
 30
0.0
 40
1.000000000000114
100
AcDbArc
 50
180.0
 51
270.0
  0
LINE
  5
289
330
1F
100
AcDbEntity
  8
0
  6
SLD-Solid
 62
     7
370
    15
100
AcDbLine
 10
1004.3164208101
 20
1105.3613756477
 30
0.0
 11
1004.3164208101
 21
1104.5613756477
 31
0.0
  0
LINE
  5
28A
330
1F
100
AcDbEntity
  8
0
  6
SLD-Solid
 62
     7
370
    15
100
AcDbLine
 10
1004.3164208101
 20
1105.3613756477
 30
0.0
 11
1022.5555816259
 21
1105.3613756477
 31
0.0
  0
LINE
  5
28B
330
1F
100
AcDbEntity
  8
0
  6
SLD-Solid
 62
     7
370
    15
100
AcDbLine
 10
1004.3164208101
 20
1104.5613756477
 30
0.0
 11
1022.5555816259
 21
1104.5613756477
 31
0.0
  0
LINE
  5
28C
330
1F
100
AcDbEntity
  8
0
  6
SLD-Solid
 62
     7
370
    15
100
AcDbLine
 10
1004.3164208101
 20
983.8737011205
 30
0.0
 11
1004.3164208101
 21
983.0737011205
 31
0.0
  0
LINE
  5
28D
330
1F
100
AcDbEntity
  8
0
  6
SLD-Solid
 62
     7
370
    15
100
AcDbLine
 10
1004.3164208101
 20
983.0737011205
 30
0.0
 11
1064.9604901109
 21
983.0737011205
 31
0.0
  0
LINE
  5
28E
330
1F
100
AcDbEntity
  8
0
  6
SLD-Solid
 62
     7
370
    15
100
AcDbLine
 10
1004.3164208101
 20
983.8737011205
 30
0.0
 11
1064.9604901109
 21
983.8737011205
 31
0.0
  0
LINE
  5
28F
330
1F
100
AcDbEntity
  8
0
  6
SLD-Solid
 62
     7
370
    15
100
AcDbLine
 10
1048.0685192248
 20
1028.8357125864
 30
0.0
 11
1023.7444022713
 21
1103.6976468906
 31
0.0
  0
LINE
  5
290
330
1F
100
AcDbEntity
  8
0
  6
SLD-Solid
 62
     7
370
    15
100
AcDbLine
 10
1048.8293644379
 20
1029.0829261819
 30
0.0
 11
1024.5052474843
 21
1103.9448604861
 31
0.0
  0
ARC
  5
291
330
1F
100
AcDbEntity
  8
0
  6
SLD-Solid
 62
     7
370
    15
100
AcDbCircle
 10
1022.5555816259
 20
1103.3113756477
 30
0.0
 40
1.249999999999773
100
AcDbArc
 50
18.0
 51
90.0
  0
ARC
  5
292
330
1F
100
AcDbEntity
  8
0
  6
SLD-Solid
 62
     7
370
    15
100
AcDbCircle
 10
1022.5555816259
 20
1103.3113756477
 30
0.0
 40
2.050000000000092
100
AcDbArc
 50
18.0
 51
90.0
  0
ARC
  5
293
330
1F
100
AcDbEntity
  8
0
  6
SLD-Solid
 62
     7
370
    15
100
AcDbCircle
 10
1058.3399296008
 20
1032.1730961256
 30
0.0
 40
10.80000000000002
100
AcDbArc
 50
198.0
 51
250.0
  0
ARC
  5
294
330
1F
100
AcDbEntity
  8
0
  6
SLD-Solid
 62
     7
370
    15
100
AcDbCircle
 10
1058.3399296008
 20
1032.1730961256
 30
0.0
 40
10.00000000000009
100
AcDbArc
 50
198.0
 51
250.0
  0
LINE
  5
295
330
1F
100
AcDbEntity
  8
0
  6
SLD-Solid
 62
     7
370
    15
100
AcDbLine
 10
1074.370120928
 20
1015.6968059082
 30
0.0
 11
1054.9197281676
 21
1022.7761699178
 31
0.0
  0
LINE
  5
296
330
1F
100
AcDbEntity
  8
0
  6
SLD-Solid
 62
     7
370
    15
100
AcDbLine
 10
1074.0965048133
 20
1014.9450518116
 30
0.0
 11
1054.6461120529
 21
1022.0244158211
 31
0.0
  0
ARC
  5
297
330
1F
100
AcDbEntity
  8
0
  6
SLD-Solid
 62
     7
370
    15
100
AcDbCircle
 10
1070.67630338
 20
1005.5481256037
 30
0.0
 40
10.00000000000017
100
AcDbArc
 50
320.0
 51
70.0
  0
ARC
  5
298
330
1F
100
AcDbEntity
  8
0
  6
SLD-Solid
 62
     7
370
    15
100
AcDbCircle
 10
1070.67630338
 20
1005.5481256037
 30
0.0
 40
10.80000000000007
100
AcDbArc
 50
320.0
 51
70.0
  0
LINE
  5
299
330
1F
100
AcDbEntity
  8
0
  6
SLD-Solid
 62
     7
370
    15
100
AcDbLine
 10
1066.5308812192
 20
983.8059865207
 30
0.0
 11
1078.9495833657
 21
998.6060194191
 31
0.0
  0
LINE
  5
29A
330
1F
100
AcDbEntity
  8
0
  6
SLD-Solid
 62
     7
370
    15
100
AcDbLine
 10
1065.9180456648
 20
984.3202166084
 30
0.0
 11
1078.3367478112
 21
999.1202495068
 31
0.0
  0
ARC
  5
29B
330
1F
100
AcDbEntity
  8
0
  6
SLD-Solid
 62
     7
370
    15
100
AcDbCircle
 10
1064.9604901109
 20
985.1237011205
 30
0.0
 40
2.050000000000068
100
AcDbArc
 50
270.0
 51
320.0
  0
ARC
  5
29C
330
1F
100
AcDbEntity
  8
0
  6
SLD-Solid
 62
     7
370
    15
100
AcDbCircle
 10
1064.9604901109
 20
985.1237011205
 30
0.0
 40
1.25
100
AcDbArc
 50
270.0
 51
320.0
  0
LINE
  5
29D
330
1F
100
AcDbEntity
  8
0
  6
SLD-Solid
 62
     7
370
    15
100
AcDbLine
 10
1025.0105742379
 20
1107.6671939366
 30
0.0
 11
1025.2605742379
 21
1107.7785011079
 31
0.0
  0
LINE
  5
29E
330
1F
100
AcDbEntity
  8
0
  6
SLD-Solid
 62
     7
370
    15
100
AcDbLine
 10
1025.0105742379
 20
1106.7914849138
 30
0.0
 11
1025.2605742379
 21
1106.9027920851
 31
0.0
  0
LWPOLYLINE
  5
29F
330
1F
100
AcDbEntity
  8
0
  6
SLD-Solid
 62
     7
370
    15
100
AcDbPolyline
 90
        3
 70
   128
 43
0.0
 10
1023.2553840676
 20
1105.3737011206
 10
1023.2652383763
 20
1105.2834476495
 10
1023.2726991298
 20
1105.2318554016
  0
LINE
  5
2A0
330
1F
100
AcDbEntity
  8
0
  6
SLD-Solid
 62
     7
370
    15
100
AcDbLine
 10
1024.0603419602
 20
1105.3737011206
 30
0.0
 11
1024.1088796968
 21
1105.1647551006
 31
0.0
  0
LINE
  5
2A1
330
1F
100
AcDbEntity
  8
0
  6
SLD-Solid
 62
     7
370
    15
100
AcDbLine
 10
1024.1088796968
 20
1105.1647551006
 30
0.0
 11
1024.5052474843
 21
1103.9448604861
 31
0.0
  0
LINE
  5
2A2
330
1F
100
AcDbEntity
  8
0
  6
SLD-Solid
 62
     7
370
    15
100
AcDbLine
 10
297.5164208101
 20
857.3737011205
 30
0.0
 11
298.3164208101
 21
857.3737011205
 31
0.0
  0
LINE
  5
2A3
330
1F
100
AcDbEntity
  8
0
  6
SLD-Solid
 62
     7
370
    15
100
AcDbLine
 10
298.3164208101
 20
1123.1939052273
 30
0.0
 11
298.3164208101
 21
1121.6737011205
 31
0.0
  0
LINE
  5
2A4
330
1F
100
AcDbEntity
  8
0
  6
SLD-Solid
 62
     7
370
    15
100
AcDbLine
 10
298.3164208101
 20
1120.2833721089
 30
0.0
 11
298.3164208101
 21
1119.915225605
 31
0.0
  0
LINE
  5
2A5
330
1F
100
AcDbEntity
  8
0
  6
SLD-Solid
 62
     7
370
    15
100
AcDbLine
 10
298.3164208101
 20
859.8311213372
 30
0.0
 11
298.3164208101
 21
859.4639678959
 31
0.0
  0
LINE
  5
2A6
330
1F
100
AcDbEntity
  8
0
  6
SLD-Solid
 62
     7
370
    15
100
AcDbLine
 10
298.3164208101
 20
858.0737011205
 30
0.0
 11
298.3164208101
 21
857.3737011205
 31
0.0
  0
LINE
  5
2A7
330
1F
100
AcDbEntity
  8
0
  6
SLD-Solid
 62
     7
370
    15
100
AcDbLine
 10
297.5164208101
 20
1124.1737011244
 30
0.0
 11
297.5164208101
 21
1120.820614866
 31
0.0
  0
LINE
  5
2A8
330
1F
100
AcDbEntity
  8
0
  6
SLD-Solid
 62
     7
370
    15
100
AcDbLine
 10
297.5164208101
 20
858.9269605535
 30
0.0
 11
297.5164208101
 21
857.3737011205
 31
0.0
  0
LINE
  5
2A9
330
1F
100
AcDbEntity
  8
0
  6
SLD-Solid
 62
     7
370
    15
100
AcDbLine
 10
309.6164206105
 20
854.3737011205
 30
0.0
 11
312.1164206105
 21
854.3737011205
 31
0.0
  0
LINE
  5
2AA
330
1F
100
AcDbEntity
  8
0
  6
SLD-Solid
 62
     7
370
    15
100
AcDbLine
 10
309.6164206105
 20
854.3737011205
 30
0.0
 11
309.6164206105
 21
856.8737011205
 31
0.0
  0
LINE
  5
2AB
330
1F
100
AcDbEntity
  8
0
  6
SLD-Solid
 62
     7
370
    15
100
AcDbLine
 10
309.6164206105
 20
856.8737011205
 30
0.0
 11
312.1164206105
 21
856.8737011205
 31
0.0
  0
LINE
  5
2AC
330
1F
100
AcDbEntity
  8
0
  6
SLD-Solid
 62
     7
370
    15
100
AcDbLine
 10
312.1164206105
 20
854.3737011205
 30
0.0
 11
327.8164206105
 21
854.3737011205
 31
0.0
  0
LINE
  5
2AD
330
1F
100
AcDbEntity
  8
0
  6
SLD-Solid
 62
     7
370
    15
100
AcDbLine
 10
312.1164206105
 20
856.8737011205
 30
0.0
 11
327.8164206105
 21
856.8737011205
 31
0.0
  0
LINE
  5
2AE
330
1F
100
AcDbEntity
  8
0
  6
SLD-Solid
 62
     7
370
    15
100
AcDbLine
 10
330.3164206105
 20
854.3737011205
 30
0.0
 11
330.3164206105
 21
856.8737011205
 31
0.0
  0
LINE
  5
2AF
330
1F
100
AcDbEntity
  8
0
  6
SLD-Solid
 62
     7
370
    15
100
AcDbLine
 10
327.8164206105
 20
854.3737011205
 30
0.0
 11
330.3164206105
 21
854.3737011205
 31
0.0
  0
LINE
  5
2B0
330
1F
100
AcDbEntity
  8
0
  6
SLD-Solid
 62
     7
370
    15
100
AcDbLine
 10
327.8164206105
 20
856.8737011205
 30
0.0
 11
330.3164206105
 21
856.8737011205
 31
0.0
  0
LINE
  5
2B1
330
1F
100
AcDbEntity
  8
0
  6
SLD-Solid
 62
     7
370
    15
100
AcDbLine
 10
333.8164206105
 20
854.3737011205
 30
0.0
 11
349.7022070481
 21
854.3737011205
 31
0.0
  0
LINE
  5
2B2
330
1F
100
AcDbEntity
  8
0
  6
SLD-Solid
 62
     7
370
    15
100
AcDbLine
 10
389.5306341729
 20
854.3737011205
 30
0.0
 11
405.4164206105
 21
854.3737011205
 31
0.0
  0
LINE
  5
2B3
330
1F
100
AcDbEntity
  8
0
  6
SLD-Solid
 62
     7
370
    15
100
AcDbLine
 10
333.8164206105
 20
856.8737011205
 30
0.0
 11
405.4164206105
 21
856.8737011205
 31
0.0
  0
LINE
  5
2B4
330
1F
100
AcDbEntity
  8
0
  6
SLD-Solid
 62
     7
370
    15
100
AcDbLine
 10
331.3164206105
 20
854.3737011205
 30
0.0
 11
331.3164206105
 21
856.8737011205
 31
0.0
  0
LINE
  5
2B5
330
1F
100
AcDbEntity
  8
0
  6
SLD-Solid
 62
     7
370
    15
100
AcDbLine
 10
331.3164206105
 20
854.3737011205
 30
0.0
 11
333.8164206105
 21
854.3737011205
 31
0.0
  0
LINE
  5
2B6
330
1F
100
AcDbEntity
  8
0
  6
SLD-Solid
 62
     7
370
    15
100
AcDbLine
 10
331.3164206105
 20
856.8737011205
 30
0.0
 11
333.8164206105
 21
856.8737011205
 31
0.0
  0
LINE
  5
2B7
330
1F
100
AcDbEntity
  8
0
  6
SLD-Solid
 62
     7
370
    15
100
AcDbLine
 10
407.9164206105
 20
854.3737011205
 30
0.0
 11
407.9164206105
 21
856.8737011205
 31
0.0
  0
LINE
  5
2B8
330
1F
100
AcDbEntity
  8
0
  6
SLD-Solid
 62
     7
370
    15
100
AcDbLine
 10
405.4164206105
 20
854.3737011205
 30
0.0
 11
407.9164206105
 21
854.3737011205
 31
0.0
  0
LINE
  5
2B9
330
1F
100
AcDbEntity
  8
0
  6
SLD-Solid
 62
     7
370
    15
100
AcDbLine
 10
405.4164206105
 20
856.8737011205
 30
0.0
 11
407.9164206105
 21
856.8737011205
 31
0.0
  0
LINE
  5
2BA
330
1F
100
AcDbEntity
  8
0
  6
SLD-Solid
 62
     7
370
    15
100
AcDbLine
 10
408.9164206105
 20
854.3737011205
 30
0.0
 11
408.9164206105
 21
856.8737011205
 31
0.0
  0
LINE
  5
2BB
330
1F
100
AcDbEntity
  8
0
  6
SLD-Solid
 62
     7
370
    15
100
AcDbLine
 10
408.9164206105
 20
854.3737011205
 30
0.0
 11
411.4164206105
 21
854.3737011205
 31
0.0
  0
LINE
  5
2BC
330
1F
100
AcDbEntity
  8
0
  6
SLD-Solid
 62
     7
370
    15
100
AcDbLine
 10
408.9164206105
 20
856.8737011205
 30
0.0
 11
411.4164206105
 21
856.8737011205
 31
0.0
  0
LINE
  5
2BD
330
1F
100
AcDbEntity
  8
0
  6
SLD-Solid
 62
     7
370
    15
100
AcDbLine
 10
411.4164206105
 20
854.3737011205
 30
0.0
 11
427.1164206105
 21
854.3737011205
 31
0.0
  0
LINE
  5
2BE
330
1F
100
AcDbEntity
  8
0
  6
SLD-Solid
 62
     7
370
    15
100
AcDbLine
 10
411.4164206105
 20
856.8737011205
 30
0.0
 11
427.1164206105
 21
856.8737011205
 31
0.0
  0
LINE
  5
2BF
330
1F
100
AcDbEntity
  8
0
  6
SLD-Solid
 62
     7
370
    15
100
AcDbLine
 10
429.6164206105
 20
854.3737011205
 30
0.0
 11
429.6164206105
 21
856.8737011205
 31
0.0
  0
LINE
  5
2C0
330
1F
100
AcDbEntity
  8
0
  6
SLD-Solid
 62
     7
370
    15
100
AcDbLine
 10
427.1164206105
 20
854.3737011205
 30
0.0
 11
429.6164206105
 21
854.3737011205
 31
0.0
  0
LINE
  5
2C1
330
1F
100
AcDbEntity
  8
0
  6
SLD-Solid
 62
     7
370
    15
100
AcDbLine
 10
427.1164206105
 20
856.8737011205
 30
0.0
 11
429.6164206105
 21
856.8737011205
 31
0.0
  0
LINE
  5
2C2
330
1F
100
AcDbEntity
  8
0
  6
SLD-Solid
 62
     7
370
    15
100
AcDbLine
 10
330.3164206105
 20
854.3737011205
 30
0.0
 11
331.3164206105
 21
854.3737011205
 31
0.0
  0
LINE
  5
2C3
330
1F
100
AcDbEntity
  8
0
  6
SLD-Solid
 62
     7
370
    15
100
AcDbLine
 10
330.3164206105
 20
856.8737011205
 30
0.0
 11
331.3164206105
 21
856.8737011205
 31
0.0
  0
LINE
  5
2C4
330
1F
100
AcDbEntity
  8
0
  6
SLD-Solid
 62
     7
370
    15
100
AcDbLine
 10
407.9164206105
 20
854.3737011205
 30
0.0
 11
408.9164206105
 21
854.3737011205
 31
0.0
  0
LINE
  5
2C5
330
1F
100
AcDbEntity
  8
0
  6
SLD-Solid
 62
     7
370
    15
100
AcDbLine
 10
407.9164206105
 20
856.8737011205
 30
0.0
 11
408.9164206105
 21
856.8737011205
 31
0.0
  0
LINE
  5
2C6
330
1F
100
AcDbEntity
  8
0
  6
SLD-Solid
 62
     7
370
    15
100
AcDbLine
 10
898.6164206105
 20
854.3737011205
 30
0.0
 11
898.6164206105
 21
856.8737011205
 31
0.0
  0
LINE
  5
2C7
330
1F
100
AcDbEntity
  8
0
  6
SLD-Solid
 62
     7
370
    15
100
AcDbLine
 10
898.6164206105
 20
856.8737011205
 30
0.0
 11
901.1164206105
 21
856.8737011205
 31
0.0
  0
LINE
  5
2C8
330
1F
100
AcDbEntity
  8
0
  6
SLD-Solid
 62
     7
370
    15
100
AcDbLine
 10
898.6164206105
 20
854.3737011205
 30
0.0
 11
901.1164206105
 21
854.3737011205
 31
0.0
  0
LINE
  5
2C9
330
1F
100
AcDbEntity
  8
0
  6
SLD-Solid
 62
     7
370
    15
100
AcDbLine
 10
901.1164206105
 20
856.8737011205
 30
0.0
 11
916.8164206105
 21
856.8737011205
 31
0.0
  0
LINE
  5
2CA
330
1F
100
AcDbEntity
  8
0
  6
SLD-Solid
 62
     7
370
    15
100
AcDbLine
 10
901.1164206105
 20
854.3737011205
 30
0.0
 11
916.8164206105
 21
854.3737011205
 31
0.0
  0
LINE
  5
2CB
330
1F
100
AcDbEntity
  8
0
  6
SLD-Solid
 62
     7
370
    15
100
AcDbLine
 10
919.3164206105
 20
854.3737011205
 30
0.0
 11
919.3164206105
 21
856.8737011205
 31
0.0
  0
LINE
  5
2CC
330
1F
100
AcDbEntity
  8
0
  6
SLD-Solid
 62
     7
370
    15
100
AcDbLine
 10
916.8164206105
 20
856.8737011205
 30
0.0
 11
919.3164206105
 21
856.8737011205
 31
0.0
  0
LINE
  5
2CD
330
1F
100
AcDbEntity
  8
0
  6
SLD-Solid
 62
     7
370
    15
100
AcDbLine
 10
916.8164206105
 20
854.3737011205
 30
0.0
 11
919.3164206105
 21
854.3737011205
 31
0.0
  0
LINE
  5
2CE
330
1F
100
AcDbEntity
  8
0
  6
SLD-Solid
 62
     7
370
    15
100
AcDbLine
 10
920.3164206105
 20
854.3737011205
 30
0.0
 11
920.3164206105
 21
856.8737011205
 31
0.0
  0
LINE
  5
2CF
330
1F
100
AcDbEntity
  8
0
  6
SLD-Solid
 62
     7
370
    15
100
AcDbLine
 10
920.3164206105
 20
856.8737011205
 30
0.0
 11
922.8164206105
 21
856.8737011205
 31
0.0
  0
LINE
  5
2D0
330
1F
100
AcDbEntity
  8
0
  6
SLD-Solid
 62
     7
370
    15
100
AcDbLine
 10
920.3164206105
 20
854.3737011205
 30
0.0
 11
922.8164206105
 21
854.3737011205
 31
0.0
  0
LINE
  5
2D1
330
1F
100
AcDbEntity
  8
0
  6
SLD-Solid
 62
     7
370
    15
100
AcDbLine
 10
922.8164206105
 20
856.8737011205
 30
0.0
 11
994.4164206105
 21
856.8737011205
 31
0.0
  0
LINE
  5
2D2
330
1F
100
AcDbEntity
  8
0
  6
SLD-Solid
 62
     7
370
    15
100
AcDbLine
 10
922.8164206105
 20
854.3737011205
 30
0.0
 11
938.7022070481
 21
854.3737011205
 31
0.0
  0
LINE
  5
2D3
330
1F
100
AcDbEntity
  8
0
  6
SLD-Solid
 62
     7
370
    15
100
AcDbLine
 10
978.5306341729
 20
854.3737011205
 30
0.0
 11
994.4164206105
 21
854.3737011205
 31
0.0
  0
LINE
  5
2D4
330
1F
100
AcDbEntity
  8
0
  6
SLD-Solid
 62
     7
370
    15
100
AcDbLine
 10
996.9164206105
 20
854.3737011205
 30
0.0
 11
996.9164206105
 21
856.8737011205
 31
0.0
  0
LINE
  5
2D5
330
1F
100
AcDbEntity
  8
0
  6
SLD-Solid
 62
     7
370
    15
100
AcDbLine
 10
994.4164206105
 20
856.8737011205
 30
0.0
 11
996.9164206105
 21
856.8737011205
 31
0.0
  0
LINE
  5
2D6
330
1F
100
AcDbEntity
  8
0
  6
SLD-Solid
 62
     7
370
    15
100
AcDbLine
 10
994.4164206105
 20
854.3737011205
 30
0.0
 11
996.9164206105
 21
854.3737011205
 31
0.0
  0
LINE
  5
2D7
330
1F
100
AcDbEntity
  8
0
  6
SLD-Solid
 62
     7
370
    15
100
AcDbLine
 10
997.9164206105
 20
854.3737011205
 30
0.0
 11
997.9164206105
 21
856.8737011205
 31
0.0
  0
LINE
  5
2D8
330
1F
100
AcDbEntity
  8
0
  6
SLD-Solid
 62
     7
370
    15
100
AcDbLine
 10
997.9164206105
 20
856.8737011205
 30
0.0
 11
1000.4164206105
 21
856.8737011205
 31
0.0
  0
LINE
  5
2D9
330
1F
100
AcDbEntity
  8
0
  6
SLD-Solid
 62
     7
370
    15
100
AcDbLine
 10
997.9164206105
 20
854.3737011205
 30
0.0
 11
1000.4164206105
 21
854.3737011205
 31
0.0
  0
LINE
  5
2DA
330
1F
100
AcDbEntity
  8
0
  6
SLD-Solid
 62
     7
370
    15
100
AcDbLine
 10
1000.4164206105
 20
856.8737011205
 30
0.0
 11
1016.1164206105
 21
856.8737011205
 31
0.0
  0
LINE
  5
2DB
330
1F
100
AcDbEntity
  8
0
  6
SLD-Solid
 62
     7
370
    15
100
AcDbLine
 10
1000.4164206105
 20
854.3737011205
 30
0.0
 11
1016.1164206105
 21
854.3737011205
 31
0.0
  0
LINE
  5
2DC
330
1F
100
AcDbEntity
  8
0
  6
SLD-Solid
 62
     7
370
    15
100
AcDbLine
 10
1018.6164206105
 20
854.3737011205
 30
0.0
 11
1018.6164206105
 21
856.8737011205
 31
0.0
  0
LINE
  5
2DD
330
1F
100
AcDbEntity
  8
0
  6
SLD-Solid
 62
     7
370
    15
100
AcDbLine
 10
1016.1164206105
 20
856.8737011205
 30
0.0
 11
1018.6164206105
 21
856.8737011205
 31
0.0
  0
LINE
  5
2DE
330
1F
100
AcDbEntity
  8
0
  6
SLD-Solid
 62
     7
370
    15
100
AcDbLine
 10
1016.1164206105
 20
854.3737011205
 30
0.0
 11
1018.6164206105
 21
854.3737011205
 31
0.0
  0
LINE
  5
2DF
330
1F
100
AcDbEntity
  8
0
  6
SLD-Solid
 62
     7
370
    15
100
AcDbLine
 10
919.3164206105
 20
856.8737011205
 30
0.0
 11
920.3164206105
 21
856.8737011205
 31
0.0
  0
LINE
  5
2E0
330
1F
100
AcDbEntity
  8
0
  6
SLD-Solid
 62
     7
370
    15
100
AcDbLine
 10
919.3164206105
 20
854.3737011205
 30
0.0
 11
920.3164206105
 21
854.3737011205
 31
0.0
  0
LINE
  5
2E1
330
1F
100
AcDbEntity
  8
0
  6
SLD-Solid
 62
     7
370
    15
100
AcDbLine
 10
996.9164206105
 20
856.8737011205
 30
0.0
 11
997.9164206105
 21
856.8737011205
 31
0.0
  0
LINE
  5
2E2
330
1F
100
AcDbEntity
  8
0
  6
SLD-Solid
 62
     7
370
    15
100
AcDbLine
 10
996.9164206105
 20
854.3737011205
 30
0.0
 11
997.9164206105
 21
854.3737011205
 31
0.0
  0
LINE
  5
2E3
330
1F
100
AcDbEntity
  8
0
  6
SLD-Solid
 62
     7
370
    15
100
AcDbLine
 10
940.1164206105
 20
854.3737011205
 30
0.0
 11
977.1164206105
 21
854.3737011205
 31
0.0
  0
LINE
  5
2E4
330
1F
100
AcDbEntity
  8
0
  6
SLD-Solid
 62
     7
370
    15
100
AcDbLine
 10
938.6164206105
 20
854.3737011205
 30
0.0
 11
938.6164206105
 21
481.3737011205
 31
0.0
  0
LINE
  5
2E5
330
1F
100
AcDbEntity
  8
0
  6
SLD-Solid
 62
     7
370
    15
100
AcDbLine
 10
938.7022070481
 20
854.3737011205
 30
0.0
 11
940.1164206105
 21
854.3737011205
 31
0.0
  0
LINE
  5
2E6
330
1F
100
AcDbEntity
  8
0
  6
SLD-Solid
 62
     7
370
    15
100
AcDbLine
 10
978.6164206105
 20
854.3737011205
 30
0.0
 11
978.6164206105
 21
481.3737011205
 31
0.0
  0
LINE
  5
2E7
330
1F
100
AcDbEntity
  8
0
  6
SLD-Solid
 62
     7
370
    15
100
AcDbLine
 10
977.1164206105
 20
854.3737011205
 30
0.0
 11
978.5306341729
 21
854.3737011205
 31
0.0
  0
LINE
  5
2E8
330
1F
100
AcDbEntity
  8
0
  6
SLD-Solid
 62
     7
370
    15
100
AcDbLine
 10
349.6164206105
 20
854.3737011205
 30
0.0
 11
349.6164206105
 21
481.3737011205
 31
0.0
  0
LINE
  5
2E9
330
1F
100
AcDbEntity
  8
0
  6
SLD-Solid
 62
     7
370
    15
100
AcDbLine
 10
349.7022070481
 20
854.3737011205
 30
0.0
 11
351.1164206105
 21
854.3737011205
 31
0.0
  0
LINE
  5
2EA
330
1F
100
AcDbEntity
  8
0
  6
SLD-Solid
 62
     7
370
    15
100
AcDbLine
 10
351.1164206105
 20
854.3737011205
 30
0.0
 11
388.1164206105
 21
854.3737011205
 31
0.0
  0
LINE
  5
2EB
330
1F
100
AcDbEntity
  8
0
  6
SLD-Solid
 62
     7
370
    15
100
AcDbLine
 10
389.6164206105
 20
854.3737011205
 30
0.0
 11
389.6164206105
 21
481.3737011205
 31
0.0
  0
LINE
  5
2EC
330
1F
100
AcDbEntity
  8
0
  6
SLD-Solid
 62
     7
370
    15
100
AcDbLine
 10
388.1164206105
 20
854.3737011205
 30
0.0
 11
389.5306341729
 21
854.3737011205
 31
0.0
  0
LINE
  5
2ED
330
1F
100
AcDbEntity
  8
0
  6
SLD-Solid
 62
     7
370
    15
100
AcDbLine
 10
299.4234916783
 20
446.3737011205
 30
0.0
 11
1057.8093495427
 21
446.3737011205
 31
0.0
  0
LINE
  5
2EE
330
1F
100
AcDbEntity
  8
0
  6
SLD-Solid
 62
     7
370
    15
100
AcDbLine
 10
299.4234916783
 20
479.3237011205
 30
0.0
 11
299.4234916783
 21
446.3737011205
 31
0.0
  0
LINE
  5
2EF
330
1F
100
AcDbEntity
  8
0
  6
SLD-Solid
 62
     7
370
    15
100
AcDbLine
 10
1057.8093495427
 20
479.3237011205
 30
0.0
 11
1057.8093495427
 21
446.3737011205
 31
0.0
  0
SPLINE
  5
2F0
330
1F
100
AcDbEntity
  8
0
  6
SLD-Solid
 62
     7
370
    15
100
AcDbSpline
210
0.0
220
0.0
230
1.0
 70
     8
 71
     3
 72
    12
 73
     8
 74
     0
 42
0.00000001
 43
0.00000001
 40
0.0
 40
0.0
 40
0.0
 40
0.0
 40
0.2301693782019777
 40
0.4604221642956536
 40
0.690675339124164
 40
0.9209283614222482
 40
1.0
 40
1.0
 40
1.0
 40
1.0
 10
1056.56642061048
 20
481.3737011205176
 30
0.0
 10
1056.661810175234
 20
481.3476238122235
 30
0.0
 10
1056.852623871644
 20
481.2954597458408
 30
0.0
 10
1057.138915614242
 20
480.890749761132
 30
0.0
 10
1057.425030744278
 20
480.3027219053751
 30
0.0
 10
1057.649145551688
 20
479.738697259543
 30
0.0
 10
1057.776734422258
 20
479.4081880859248
 30
0.0
 10
1057.809349542668
 20
479.3237011205177
 30
0.0
  0
SPLINE
  5
2F1
330
1F
100
AcDbEntity
  8
0
  6
SLD-Solid
 62
     7
370
    15
100
AcDbSpline
210
0.0
220
0.0
230
1.0
 70
     8
 71
     3
 72
    12
 73
     8
 74
     0
 42
0.00000001
 43
0.00000001
 40
0.0
 40
0.0
 40
0.0
 40
0.0
 40
0.2301693782020349
 40
0.4604221642957497
 40
0.6906753391242106
 40
0.9209283614223227
 40
0.9999999999999999
 40
0.9999999999999999
 40
0.9999999999999999
 40
0.9999999999999999
 10
299.4234916782916
 20
479.3237011205177
 30
0.0
 10
299.5188812430456
 20
479.5707798095789
 30
0.0
 10
299.7096949394557
 20
480.0650267231239
 30
0.0
 10
299.9959866820545
 20
480.7111538942262
 30
0.0
 10
300.28210181209
 20
481.1751001904138
 30
0.0
 10
300.5062166194994
 20
481.3579098711718
 30
0.0
 10
300.6338054900697
 20
481.3704862599159
 30
0.0
 10
300.6664206104799
 20
481.3737011205176
 30
0.0
  0
LINE
  5
2F2
330
1F
100
AcDbEntity
  8
0
  6
SLD-Solid
 62
     7
370
    15
100
AcDbLine
 10
300.6664206105
 20
481.3737011205
 30
0.0
 11
1056.5664206105
 21
481.3737011205
 31
0.0
  0
SPLINE
  5
2F3
330
1F
100
AcDbEntity
  8
0
  6
SLD-Solid
 62
     7
370
    15
100
AcDbSpline
210
0.0
220
0.0
230
1.0
 70
     8
 71
     3
 72
    12
 73
     8
 74
     0
 42
0.00000001
 43
0.00000001
 40
0.0
 40
0.0
 40
0.0
 40
0.0
 40
0.2301693782020139
 40
0.4604221642956502
 40
0.6906753391241944
 40
0.9209283614222785
 40
1.0
 40
1.0
 40
1.0
 40
1.0
 10
300.6664206104799
 20
481.3737011205176
 30
0.0
 10
300.4193419214187
 20
481.3476238122236
 30
0.0
 10
299.9250950078736
 20
481.295459745841
 30
0.0
 10
299.2789678367718
 20
480.8907497611318
 30
0.0
 10
298.8150215405836
 20
480.3027219053752
 30
0.0
 10
298.6322118598257
 20
479.7386972595429
 30
0.0
 10
298.6196354710817
 20
479.4081880859247
 30
0.0
 10
298.61642061048
 20
479.3237011205177
 30
0.0
  0
SPLINE
  5
2F4
330
1F
100
AcDbEntity
  8
0
  6
SLD-Solid
 62
     7
370
    15
100
AcDbSpline
210
0.0
220
0.0
230
1.0
 70
     8
 71
     3
 72
    10
 73
     6
 74
     0
 42
0.00000001
 43
0.00000001
 40
0.0
 40
0.0
 40
0.0
 40
0.0
 40
0.0100960544487616
 40
0.5229169126794184
 40
1.0
 40
1.0
 40
1.0
 40
1.0
 10
299.7783965984844
 20
480.2007172441062
 30
0.0
 10
299.7756998694796
 20
480.1988880209598
 30
0.0
 10
299.6360249883083
 20
480.104144898764
 30
0.0
 10
299.4756157266165
 20
479.7898427443404
 30
0.0
 10
299.4356716250612
 20
479.4752963834878
 30
0.0
 10
299.4164206104799
 20
479.3237011205177
 30
0.0
  0
LINE
  5
2F5
330
1F
100
AcDbEntity
  8
0
  6
SLD-Solid
 62
     7
370
    15
100
AcDbLine
 10
298.6164206105
 20
479.3237011205
 30
0.0
 11
299.4164206105
 21
479.3237011205
 31
0.0
  0
LINE
  5
2F6
330
1F
100
AcDbEntity
  8
0
  6
SLD-Solid
 62
     7
370
    15
100
AcDbLine
 10
1058.6164206105
 20
479.3237011205
 30
0.0
 11
1057.8164206105
 21
479.3237011205
 31
0.0
  0
SPLINE
  5
2F7
330
1F
100
AcDbEntity
  8
0
  6
SLD-Solid
 62
     7
370
    15
100
AcDbSpline
210
0.0
220
0.0
230
1.0
 70
     8
 71
     3
 72
     9
 73
     5
 74
     0
 42
0.00000001
 43
0.00000001
 40
0.0
 40
0.0
 40
0.0
 40
0.0
 40
0.5275152947321207
 40
1.0
 40
1.0
 40
1.0
 40
1.0
 10
1057.81642061048
 20
479.3237011205177
 30
0.0
 10
1057.799558742559
 20
479.4925098155131
 30
0.0
 10
1057.767594042976
 20
479.812517020387
 30
0.0
 10
1057.563663745281
 20
480.0599008995441
 30
0.0
 10
1057.467309798679
 20
480.1767859987756
 30
0.0
  0
SPLINE
  5
2F8
330
1F
100
AcDbEntity
  8
0
  6
SLD-Solid
 62
     7
370
    15
100
AcDbSpline
210
0.0
220
0.0
230
1.0
 70
     8
 71
     3
 72
    12
 73
     8
 74
     0
 42
0.00000001
 43
0.00000001
 40
0.0
 40
0.0
 40
0.0
 40
0.0
 40
0.230169378202035
 40
0.4604221642957295
 40
0.6906753391241977
 40
0.9209283614223192
 40
1.0
 40
1.0
 40
1.0
 40
1.0
 10
1058.61642061048
 20
479.3237011205177
 30
0.0
 10
1058.590343302186
 20
479.5707798095789
 30
0.0
 10
1058.538179235803
 20
480.0650267231238
 30
0.0
 10
1058.133469251094
 20
480.7111538942262
 30
0.0
 10
1057.545441395337
 20
481.1751001904138
 30
0.0
 10
1056.981416749505
 20
481.3579098711718
 30
0.0
 10
1056.650907575887
 20
481.370486259916
 30
0.0
 10
1056.56642061048
 20
481.3737011205177
 30
0.0
  0
LINE
  5
2F9
330
1F
100
AcDbEntity
  8
0
  6
SLD-Solid
 62
     7
370
    15
100
AcDbLine
 10
299.4164206105
 20
479.3237011205
 30
0.0
 11
299.4164206105
 21
446.3737011205
 31
0.0
  0
LINE
  5
2FA
330
1F
100
AcDbEntity
  8
0
  6
SLD-Solid
 62
     7
370
    15
100
AcDbLine
 10
298.6164206105
 20
446.3737011205
 30
0.0
 11
299.4164206105
 21
446.3737011205
 31
0.0
  0
LINE
  5
2FB
330
1F
100
AcDbEntity
  8
0
  6
SLD-Solid
 62
     7
370
    15
100
AcDbLine
 10
298.6164206105
 20
479.3237011205
 30
0.0
 11
298.6164206105
 21
446.3737011205
 31
0.0
  0
LINE
  5
2FC
330
1F
100
AcDbEntity
  8
0
  6
SLD-Solid
 62
     7
370
    15
100
AcDbLine
 10
1057.8164206105
 20
479.3237011205
 30
0.0
 11
1057.8164206105
 21
446.3737011205
 31
0.0
  0
LINE
  5
2FD
330
1F
100
AcDbEntity
  8
0
  6
SLD-Solid
 62
     7
370
    15
100
AcDbLine
 10
1058.6164206105
 20
479.3237011205
 30
0.0
 11
1058.6164206105
 21
446.3737011205
 31
0.0
  0
LINE
  5
2FE
330
1F
100
AcDbEntity
  8
0
  6
SLD-Solid
 62
     7
370
    15
100
AcDbLine
 10
1058.6164206105
 20
446.3737011205
 30
0.0
 11
1057.8164206105
 21
446.3737011205
 31
0.0
  0
LINE
  5
2FF
330
1F
100
AcDbEntity
  8
0
  6
SLD-Solid
 62
     7
370
    15
100
AcDbLine
 10
1007.1093495427
 20
443.3237011205
 30
0.0
 11
1007.1093495427
 21
440.5737011205
 31
0.0
  0
LINE
  5
300
330
1F
100
AcDbEntity
  8
0
  6
SLD-Solid
 62
     7
370
    15
100
AcDbLine
 10
321.1234916783
 20
440.5737011205
 30
0.0
 11
1007.1093495427
 21
440.5737011205
 31
0.0
  0
LINE
  5
301
330
1F
100
AcDbEntity
  8
0
  6
SLD-Solid
 62
     7
370
    15
100
AcDbLine
 10
321.1234916783
 20
440.5737011205
 30
0.0
 11
321.1234916783
 21
443.3237011205
 31
0.0
  0
LINE
  5
302
330
1F
100
AcDbEntity
  8
0
  6
SLD-Solid
 62
     7
370
    15
100
AcDbLine
 10
1007.1093495427
 20
446.3737011205
 30
0.0
 11
1007.1093495427
 21
443.3237011205
 31
0.0
  0
LINE
  5
303
330
1F
100
AcDbEntity
  8
0
  6
SLD-Solid
 62
     7
370
    15
100
AcDbLine
 10
321.1234916783
 20
446.3737011205
 30
0.0
 11
321.1234916783
 21
443.3237011205
 31
0.0
  0
LINE
  5
304
330
1F
100
AcDbEntity
  8
0
  6
SLD-Solid
 62
     7
370
    15
100
AcDbLine
 10
319.6164206105
 20
446.3737011205
 30
0.0
 11
319.6164206105
 21
442.0737011205
 31
0.0
  0
LINE
  5
305
330
1F
100
AcDbEntity
  8
0
  6
SLD-Solid
 62
     7
370
    15
100
AcDbLine
 10
321.1164206105
 20
446.3737011205
 30
0.0
 11
321.1164206105
 21
442.0737011205
 31
0.0
  0
LINE
  5
306
330
1F
100
AcDbEntity
  8
0
  6
SLD-Solid
 62
     7
370
    15
100
AcDbLine
 10
321.1164206105
 20
442.0737011205
 30
0.0
 11
319.6164206105
 21
442.0737011205
 31
0.0
  0
LINE
  5
307
330
1F
100
AcDbEntity
  8
0
  6
SLD-Solid
 62
     7
370
    15
100
AcDbLine
 10
1008.6164206105
 20
442.0737011205
 30
0.0
 11
1008.6164206105
 21
446.3737011205
 31
0.0
  0
LINE
  5
308
330
1F
100
AcDbEntity
  8
0
  6
SLD-Solid
 62
     7
370
    15
100
AcDbLine
 10
1007.1164206105
 20
442.0737011205
 30
0.0
 11
1008.6164206105
 21
442.0737011205
 31
0.0
  0
LINE
  5
309
330
1F
100
AcDbEntity
  8
0
  6
SLD-Solid
 62
     7
370
    15
100
AcDbLine
 10
1007.1164206105
 20
446.3737011205
 30
0.0
 11
1007.1164206105
 21
442.0737011205
 31
0.0
  0
ARC
  5
30A
330
1F
100
AcDbEntity
  8
0
  6
SLD-Solid
 62
     7
370
    15
100
AcDbCircle
 10
322.3664206105
 20
443.3237011205
 30
0.0
 40
2.749999999999982
100
AcDbArc
 50
207.0356917894
 51
243.1295854596
  0
LINE
  5
30B
330
1F
100
AcDbEntity
  8
0
  6
SLD-Solid
 62
     7
370
    15
100
AcDbLine
 10
321.1164206105
 20
443.3237011205
 30
0.0
 11
321.1234916783
 21
443.1909318864
 31
0.0
  0
ARC
  5
30C
330
1F
100
AcDbEntity
  8
0
  6
SLD-Solid
 62
     7
370
    15
100
AcDbCircle
 10
1005.8664206105
 20
443.3237011205
 30
0.0
 40
2.74999999999993
100
AcDbArc
 50
296.8704145402
 51
332.9643082106
  0
LINE
  5
30D
330
1F
100
AcDbEntity
  8
0
  6
SLD-Solid
 62
     7
370
    15
100
AcDbLine
 10
1007.1093495427
 20
443.1909318864
 30
0.0
 11
1007.1164206105
 21
443.3237011205
 31
0.0
  0
SPLINE
  5
30E
330
1F
100
AcDbEntity
  8
0
  6
SLD-Solid
 62
     7
370
    15
100
AcDbSpline
210
0.0
220
0.0
230
1.0
 70
     8
 71
     3
 72
    12
 73
     8
 74
     0
 42
0.00000001
 43
0.00000001
 40
0.0
 40
0.0
 40
0.0
 40
0.0
 40
0.2301693782019785
 40
0.4604221642956958
 40
0.6906753391242023
 40
0.9209283614223145
 40
1.0
 40
1.0
 40
1.0
 40
1.0
 10
298.7664208100824
 20
1119.623701120518
 30
0.0
 10
298.6710312453287
 20
1119.870779809579
 30
0.0
 10
298.4802175489185
 20
1120.365026723124
 30
0.0
 10
298.19392580632
 20
1121.011153894226
 30
0.0
 10
297.9078106762836
 20
1121.475100190414
 30
0.0
 10
297.6836958688742
 20
1121.657909871172
 30
0.0
 10
297.5561069983044
 20
1121.670486259916
 30
0.0
 10
297.5234918778942
 20
1121.673701120518
 30
0.0
  0
LINE
  5
30F
330
1F
100
AcDbEntity
  8
0
  6
SLD-Solid
 62
     7
370
    15
100
AcDbLine
 10
297.5234918779
 20
1121.6737011205
 30
0.0
 11
1003.5093497423
 21
1121.6737011205
 31
0.0
  0
SPLINE
  5
310
330
1F
100
AcDbEntity
  8
0
  6
SLD-Solid
 62
     7
370
    15
100
AcDbSpline
210
0.0
220
0.0
230
1.0
 70
     8
 71
     3
 72
    12
 73
     8
 74
     0
 42
0.00000001
 43
0.00000001
 40
0.0
 40
0.0
 40
0.0
 40
0.0
 40
0.2301693782020423
 40
0.4604221642957283
 40
0.6906753391242046
 40
0.9209283614222886
 40
1.0
 40
1.0
 40
1.0
 40
1.0
 10
1003.509349742271
 20
1121.673701120518
 30
0.0
 10
1003.413960177517
 20
1121.647623812223
 30
0.0
 10
1003.223146481106
 20
1121.595459745841
 30
0.0
 10
1002.936854738508
 20
1121.190749761132
 30
0.0
 10
1002.650739608472
 20
1120.602721905375
 30
0.0
 10
1002.426624801063
 20
1120.038697259543
 30
0.0
 10
1002.299035930492
 20
1119.708188085925
 30
0.0
 10
1002.266420810082
 20
1119.623701120518
 30
0.0
  0
SPLINE
  5
311
330
1F
100
AcDbEntity
  8
0
  6
SLD-Solid
 62
     7
370
    15
100
AcDbSpline
210
0.0
220
0.0
230
1.0
 70
     8
 71
     3
 72
    12
 73
     8
 74
     0
 42
0.00000001
 43
0.00000001
 40
0.0
 40
0.0
 40
0.0
 40
0.0
 40
0.2301693782019584
 40
0.4604221642956993
 40
0.6906753391241732
 40
0.9209283614222663
 40
1.0
 40
1.0
 40
1.0
 40
1.0
 10
298.766420810082
 20
860.1237011205178
 30
0.0
 10
298.5193421210211
 20
860.0283115557638
 30
0.0
 10
298.0250952074761
 20
859.8374978593537
 30
0.0
 10
297.3789680363736
 20
859.5512061167553
 30
0.0
 10
296.9150217401859
 20
859.2650909867192
 30
0.0
 10
296.732212059428
 20
859.0409761793101
 30
0.0
 10
296.7196356706841
 20
858.9133873087395
 30
0.0
 10
296.7164208100823
 20
858.8807721883296
 30
0.0
  0
SPLINE
  5
312
330
1F
100
AcDbEntity
  8
0
  6
SLD-Solid
 62
     7
370
    15
100
AcDbSpline
210
0.0
220
0.0
230
1.0
 70
     8
 71
     3
 72
    11
 73
     7
 74
     0
 42
0.00000001
 43
0.00000001
 40
0.0
 40
0.0
 40
0.0
 40
0.0
 40
0.2543030279684326
 40
0.5087793961833506
 40
0.7632567853905171
 40
1.0
 40
1.0
 40
1.0
 40
1.0
 10
298.7664208100822
 20
860.1237011205177
 30
0.0
 10
298.5997866224219
 20
860.0183242919769
 30
0.0
 10
298.2664046644539
 20
859.807498807023
 30
0.0
 10
297.8484529538326
 20
859.4912435713316
 30
0.0
 10
297.5683120714343
 20
859.1821763319263
 30
0.0
 10
297.533296516967
 20
858.9787926998516
 30
0.0
 10
297.5164208100823
 20
858.8807721883296
 30
0.0
  0
LINE
  5
313
330
1F
100
AcDbEntity
  8
0
  6
SLD-Solid
 62
     7
370
    15
100
AcDbLine
 10
296.7164208101
 20
858.8807721883
 30
0.0
 11
297.5164208101
 21
858.8807721883
 31
0.0
  0
LINE
  5
314
330
1F
100
AcDbEntity
  8
0
  6
SLD-Solid
 62
     7
370
    15
100
AcDbLine
 10
296.7164208101
 20
1120.8666300527
 30
0.0
 11
296.7164208101
 21
858.8807721883
 31
0.0
  0
SPLINE
  5
315
330
1F
100
AcDbEntity
  8
0
  6
SLD-Solid
 62
     7
370
    15
100
AcDbSpline
210
0.0
220
0.0
230
1.0
 70
     8
 71
     3
 72
    12
 73
     8
 74
     0
 42
0.00000001
 43
0.00000001
 40
0.0
 40
0.0
 40
0.0
 40
0.0
 40
0.2301693782020068
 40
0.4604221642957071
 40
0.6906753391241743
 40
0.9209283614222655
 40
1.0
 40
1.0
 40
1.0
 40
1.0
 10
296.7164208100823
 20
1120.866630052706
 30
0.0
 10
296.7424981183764
 20
1120.771240487952
 30
0.0
 10
296.7946621847593
 20
1120.580426791542
 30
0.0
 10
297.1993721694681
 20
1120.294135048943
 30
0.0
 10
297.787400025225
 20
1120.008019918908
 30
0.0
 10
298.351424671057
 20
1119.783905111498
 30
0.0
 10
298.6819338446753
 20
1119.656316240928
 30
0.0
 10
298.7664208100824
 20
1119.623701120518
 30
0.0
  0
LINE
  5
316
330
1F
100
AcDbEntity
  8
0
  6
SLD-Solid
 62
     7
370
    15
100
AcDbLine
 10
296.7164208101
 20
1120.8666300527
 30
0.0
 11
297.5164208101
 21
1120.8666300527
 31
0.0
  0
SPLINE
  5
317
330
1F
100
AcDbEntity
  8
0
  6
SLD-Solid
 62
     7
370
    15
100
AcDbSpline
210
0.0
220
0.0
230
1.0
 70
     8
 71
     3
 72
    11
 73
     7
 74
     0
 42
0.00000001
 43
0.00000001
 40
0.0
 40
0.0
 40
0.0
 40
0.0
 40
0.2543030279684122
 40
0.5087793961833089
 40
0.7632567853904291
 40
1.0
 40
1.0
 40
1.0
 40
1.0
 10
297.5164208100823
 20
1120.866630052706
 30
0.0
 10
297.5358794816725
 20
1120.761253224165
 30
0.0
 10
297.5748100884423
 20
1120.550427739211
 30
0.0
 10
297.8737814214691
 20
1120.23417250352
 30
0.0
 10
298.2897527101138
 20
1119.925105264115
 30
0.0
 10
298.6114022014208
 20
1119.72172163204
 30
0.0
 10
298.7664208100822
 20
1119.623701120518
 30
0.0
  0
SPLINE
  5
318
330
1F
100
AcDbEntity
  8
0
  6
SLD-Solid
 62
     7
370
    15
100
AcDbSpline
210
0.0
220
0.0
230
1.0
 70
     8
 71
     3
 72
    11
 73
     7
 74
     0
 42
0.00000001
 43
0.00000001
 40
0.0
 40
0.0
 40
0.0
 40
0.0
 40
0.2543030279684701
 40
0.5087793961834534
 40
0.763256785390554
 40
1.0
 40
1.0
 40
1.0
 40
1.0
 10
298.7664208100824
 20
1119.623701120518
 30
0.0
 10
298.6610439815416
 20
1119.790335308178
 30
0.0
 10
298.4502184965874
 20
1120.123717266146
 30
0.0
 10
298.1339632608962
 20
1120.541668976768
 30
0.0
 10
297.8248960214911
 20
1120.821809859166
 30
0.0
 10
297.6215123894161
 20
1120.856825413633
 30
0.0
 10
297.5234918778939
 20
1120.873701120518
 30
0.0
  0
LINE
  5
319
330
1F
100
AcDbEntity
  8
0
  6
SLD-Solid
 62
     7
370
    15
100
AcDbLine
 10
297.5234918779
 20
1121.6737011205
 30
0.0
 11
297.5234918779
 21
1120.8737011205
 31
0.0
  0
SPLINE
  5
31A
330
1F
100
AcDbEntity
  8
0
  6
SLD-Solid
 62
     7
370
    15
100
AcDbSpline
210
0.0
220
0.0
230
1.0
 70
     8
 71
     3
 72
    12
 73
     8
 74
     0
 42
0.00000001
 43
0.00000001
 40
0.0
 40
0.0
 40
0.0
 40
0.0
 40
0.2301693782020021
 40
0.4604221642956899
 40
0.690675339124143
 40
0.9209283614222554
 40
1.0
 40
1.0
 40
1.0
 40
1.0
 10
297.5234918778942
 20
858.0737011205176
 30
0.0
 10
297.6188814426479
 20
858.0997784288118
 30
0.0
 10
297.8096951390581
 20
858.1519424951945
 30
0.0
 10
298.0959868816566
 20
858.5566524799033
 30
0.0
 10
298.3821020116923
 20
859.1446803356604
 30
0.0
 10
298.6062168191017
 20
859.7087049814925
 30
0.0
 10
298.7338056896722
 20
860.0392141551107
 30
0.0
 10
298.7664208100824
 20
860.1237011205177
 30
0.0
  0
LINE
  5
31B
330
1F
100
AcDbEntity
  8
0
  6
SLD-Solid
 62
     7
370
    15
100
AcDbLine
 10
297.5234918779
 20
858.0737011205
 30
0.0
 11
297.5234918779
 21
858.8737011205
 31
0.0
  0
SPLINE
  5
31C
330
1F
100
AcDbEntity
  8
0
  6
SLD-Solid
 62
     7
370
    15
100
AcDbSpline
210
0.0
220
0.0
230
1.0
 70
     8
 71
     3
 72
    11
 73
     7
 74
     0
 42
0.00000001
 43
0.00000001
 40
0.0
 40
0.0
 40
0.0
 40
0.0
 40
0.2543030279683968
 40
0.5087793961833156
 40
0.763256785390454
 40
1.0
 40
1.0
 40
1.0
 40
1.0
 10
297.5234918778942
 20
858.8737011205177
 30
0.0
 10
297.6288687064348
 20
858.8931597921079
 30
0.0
 10
297.8396941913888
 20
858.9320903988777
 30
0.0
 10
298.1559494270805
 20
859.2310617319048
 30
0.0
 10
298.4650166664855
 20
859.647033020549
 30
0.0
 10
298.6684002985605
 20
859.9686825118562
 30
0.0
 10
298.7664208100824
 20
860.1237011205177
 30
0.0
  0
SPLINE
  5
31D
330
1F
100
AcDbEntity
  8
0
  6
SLD-Solid
 62
     7
370
    15
100
AcDbSpline
210
0.0
220
0.0
230
1.0
 70
     8
 71
     3
 72
    12
 73
     8
 74
     0
 42
0.00000001
 43
0.00000001
 40
0.0
 40
0.0
 40
0.0
 40
0.0
 40
0.2301693782019542
 40
0.4604221642956163
 40
0.6906753391241108
 40
0.9209283614222338
 40
1.0
 40
1.0
 40
1.0
 40
1.0
 10
1002.266420810082
 20
860.1237011205176
 30
0.0
 10
1002.361810374836
 20
859.8766224314564
 30
0.0
 10
1002.552624071246
 20
859.3823755179116
 30
0.0
 10
1002.838915813845
 20
858.7362483468096
 30
0.0
 10
1003.125030943881
 20
858.2723020506215
 30
0.0
 10
1003.34914575129
 20
858.0894923698636
 30
0.0
 10
1003.47673462186
 20
858.0769159811194
 30
0.0
 10
1003.509349742271
 20
858.0737011205176
 30
0.0
  0
LINE
  5
31E
330
1F
100
AcDbEntity
  8
0
  6
SLD-Solid
 62
     7
370
    15
100
AcDbLine
 10
1003.5093497423
 20
858.0737011205
 30
0.0
 11
297.5234918779
 21
858.0737011205
 31
0.0
  0
LINE
  5
31F
330
1F
100
AcDbEntity
  8
0
  6
SLD-Solid
 62
     7
370
    15
100
AcDbLine
 10
1003.5093497423
 20
1121.6737011205
 30
0.0
 11
1003.5093497423
 21
1120.8737011205
 31
0.0
  0
SPLINE
  5
320
330
1F
100
AcDbEntity
  8
0
  6
SLD-Solid
 62
     7
370
    15
100
AcDbSpline
210
0.0
220
0.0
230
1.0
 70
     8
 71
     3
 72
    11
 73
     7
 74
     0
 42
0.00000001
 43
0.00000001
 40
0.0
 40
0.0
 40
0.0
 40
0.0
 40
0.2543030279684114
 40
0.508779396183343
 40
0.7632567853904605
 40
1.0
 40
1.0
 40
1.0
 40
1.0
 10
1003.509349742271
 20
1120.873701120518
 30
0.0
 10
1003.40397291373
 20
1120.854242448928
 30
0.0
 10
1003.193147428776
 20
1120.815311842158
 30
0.0
 10
1002.876892193084
 20
1120.516340509131
 30
0.0
 10
1002.567824953679
 20
1120.100369220486
 30
0.0
 10
1002.364441321604
 20
1119.778719729179
 30
0.0
 10
1002.266420810082
 20
1119.623701120518
 30
0.0
  0
SPLINE
  5
321
330
1F
100
AcDbEntity
  8
0
  6
SLD-Solid
 62
     7
370
    15
100
AcDbSpline
210
0.0
220
0.0
230
1.0
 70
     8
 71
     3
 72
    12
 73
     8
 74
     0
 42
0.00000001
 43
0.00000001
 40
0.0
 40
0.0
 40
0.0
 40
0.0
 40
0.2301693782019465
 40
0.4604221642956356
 40
0.6906753391241375
 40
0.9209283614222212
 40
1.0
 40
1.0
 40
1.0
 40
1.0
 10
1002.266420810082
 20
1119.623701120518
 30
0.0
 10
1002.513499499143
 20
1119.719090685271
 30
0.0
 10
1003.007746412688
 20
1119.909904381682
 30
0.0
 10
1003.653873583791
 20
1120.19619612428
 30
0.0
 10
1004.117819879978
 20
1120.482311254316
 30
0.0
 10
1004.300629560736
 20
1120.706426061726
 30
0.0
 10
1004.313205949481
 20
1120.834014932296
 30
0.0
 10
1004.316420810082
 20
1120.866630052706
 30
0.0
  0
LINE
  5
322
330
1F
100
AcDbEntity
  8
0
  6
SLD-Solid
 62
     7
370
    15
100
AcDbLine
 10
1004.3164208101
 20
983.8737011205
 30
0.0
 11
1004.3164208101
 21
984.8737011205
 31
0.0
  0
LINE
  5
323
330
1F
100
AcDbEntity
  8
0
  6
SLD-Solid
 62
     7
370
    15
100
AcDbLine
 10
1004.3164208101
 20
1103.5613756477
 30
0.0
 11
1004.3164208101
 21
1104.5613756477
 31
0.0
  0
LINE
  5
324
330
1F
100
AcDbEntity
  8
0
  6
SLD-Solid
 62
     7
370
    15
100
AcDbLine
 10
1004.3164208101
 20
1105.3613756477
 30
0.0
 11
1004.3164208101
 21
1120.8666300527
 31
0.0
  0
SPLINE
  5
325
330
1F
100
AcDbEntity
  8
0
  6
SLD-Solid
 62
     7
370
    15
100
AcDbSpline
210
0.0
220
0.0
230
1.0
 70
     8
 71
     3
 72
    12
 73
     8
 74
     0
 42
0.00000001
 43
0.00000001
 40
0.0
 40
0.0
 40
0.0
 40
0.0
 40
0.2301693782020184
 40
0.4604221642957018
 40
0.6906753391241859
 40
0.9209283614222737
 40
1.0
 40
1.0
 40
1.0
 40
1.0
 10
1004.316420810082
 20
858.8807721883296
 30
0.0
 10
1004.290343501788
 20
858.9761617530834
 30
0.0
 10
1004.238179435406
 20
859.1669754494937
 30
0.0
 10
1003.833469450696
 20
859.4532671920919
 30
0.0
 10
1003.24544159494
 20
859.739382322128
 30
0.0
 10
1002.681416949108
 20
859.9634971295375
 30
0.0
 10
1002.350907775489
 20
860.0910860001077
 30
0.0
 10
1002.266420810082
 20
860.1237011205176
 30
0.0
  0
SPLINE
  5
326
330
1F
100
AcDbEntity
  8
0
  6
SLD-Solid
 62
     7
370
    15
100
AcDbSpline
210
0.0
220
0.0
230
1.0
 70
     8
 71
     3
 72
    11
 73
     7
 74
     0
 42
0.00000001
 43
0.00000001
 40
0.0
 40
0.0
 40
0.0
 40
0.0
 40
0.2543030279684927
 40
0.5087793961833517
 40
0.7632567853904898
 40
1.0
 40
1.0
 40
1.0
 40
1.0
 10
1002.266420810082
 20
1119.623701120518
 30
0.0
 10
1002.433054997743
 20
1119.729077949058
 30
0.0
 10
1002.766436955711
 20
1119.939903434012
 30
0.0
 10
1003.184388666332
 20
1120.256158669704
 30
0.0
 10
1003.464529548731
 20
1120.565225909109
 30
0.0
 10
1003.499545103197
 20
1120.768609541184
 30
0.0
 10
1003.516420810082
 20
1120.866630052706
 30
0.0
  0
LINE
  5
327
330
1F
100
AcDbEntity
  8
0
  6
SLD-Solid
 62
     7
370
    15
100
AcDbLine
 10
1004.3164208101
 20
1120.8666300527
 30
0.0
 11
1003.5164208101
 21
1120.8666300527
 31
0.0
  0
SPLINE
  5
328
330
1F
100
AcDbEntity
  8
0
  6
SLD-Solid
 62
     7
370
    15
100
AcDbSpline
210
0.0
220
0.0
230
1.0
 70
     8
 71
     3
 72
    11
 73
     7
 74
     0
 42
0.00000001
 43
0.00000001
 40
0.0
 40
0.0
 40
0.0
 40
0.0
 40
0.2543030279683752
 40
0.5087793961832588
 40
0.7632567853905021
 40
1.0
 40
1.0
 40
1.0
 40
1.0
 10
1002.266420810082
 20
860.1237011205176
 30
0.0
 10
1002.371797638623
 20
859.9570669328573
 30
0.0
 10
1002.582623123577
 20
859.6236849748892
 30
0.0
 10
1002.898878359268
 20
859.2057332642684
 30
0.0
 10
1003.207945598674
 20
858.9255923818695
 30
0.0
 10
1003.411329230748
 20
858.8905768274025
 30
0.0
 10
1003.509349742271
 20
858.8737011205177
 30
0.0
  0
LINE
  5
329
330
1F
100
AcDbEntity
  8
0
  6
SLD-Solid
 62
     7
370
    15
100
AcDbLine
 10
1003.5093497423
 20
858.0737011205
 30
0.0
 11
1003.5093497423
 21
858.8737011205
 31
0.0
  0
LINE
  5
32A
330
1F
100
AcDbEntity
  8
0
  6
SLD-Solid
 62
     7
370
    15
100
AcDbLine
 10
1004.3164208101
 20
858.8807721883
 30
0.0
 11
1003.5164208101
 21
858.8807721883
 31
0.0
  0
SPLINE
  5
32B
330
1F
100
AcDbEntity
  8
0
  6
SLD-Solid
 62
     7
370
    15
100
AcDbSpline
210
0.0
220
0.0
230
1.0
 70
     8
 71
     3
 72
    11
 73
     7
 74
     0
 42
0.00000001
 43
0.00000001
 40
0.0
 40
0.0
 40
0.0
 40
0.0
 40
0.2543030279684628
 40
0.5087793961833607
 40
0.7632567853905045
 40
1.0
 40
1.0
 40
1.0
 40
1.0
 10
1003.516420810082
 20
858.8807721883295
 30
0.0
 10
1003.496962138492
 20
858.9861490168702
 30
0.0
 10
1003.458031531722
 20
859.1969745018242
 30
0.0
 10
1003.159060198695
 20
859.5132297375159
 30
0.0
 10
1002.743088910051
 20
859.8222969769209
 30
0.0
 10
1002.421439418744
 20
860.0256806089955
 30
0.0
 10
1002.266420810082
 20
860.1237011205176
 30
0.0
  0
LINE
  5
32C
330
1F
100
AcDbEntity
  8
0
  6
SLD-Solid
 62
     7
370
    15
100
AcDbLine
 10
1024.1164208067
 20
858.0737011205
 30
0.0
 11
1024.1164208067
 21
857.3737011205
 31
0.0
  0
LINE
  5
32D
330
1F
100
AcDbEntity
  8
0
  6
SLD-Solid
 62
     7
370
    15
100
AcDbLine
 10
1024.1164208067
 20
857.3737011205
 30
0.0
 11
301.6234918745
 21
857.3737011205
 31
0.0
  0
LINE
  5
32E
330
1F
100
AcDbEntity
  8
0
  6
SLD-Solid
 62
     7
370
    15
100
AcDbLine
 10
301.6234918745
 20
857.3737011205
 30
0.0
 11
301.6234918745
 21
858.0737011205
 31
0.0
  0
LINE
  5
32F
330
1F
100
AcDbEntity
  8
0
  6
SLD-Solid
 62
     7
370
    15
100
AcDbLine
 10
1004.5664208101
 20
1125.2237011206
 30
0.0
 11
1004.5664208101
 21
1122.7737011206
 31
0.0
  0
LINE
  5
330
330
1F
100
AcDbEntity
  8
0
  6
SLD-Solid
 62
     7
370
    15
100
AcDbLine
 10
1004.5664208101
 20
1122.7737011206
 30
0.0
 11
921.9264208101
 21
1122.7737011206
 31
0.0
  0
LINE
  5
331
330
1F
100
AcDbEntity
  8
0
  6
SLD-Solid
 62
     7
370
    15
100
AcDbLine
 10
921.9264208101
 20
1122.7737011206
 30
0.0
 11
921.9264208101
 21
1125.2237011206
 31
0.0
  0
ARC
  5
332
330
1F
100
AcDbEntity
  8
0
  6
SLD-Solid
 62
     7
370
    15
100
AcDbCircle
 10
923.1664208101
 20
1137.9237011206
 30
0.0
 40
1.240000000000009
100
AcDbArc
 50
90.0
 51
180.0
  0
LINE
  5
333
330
1F
100
AcDbEntity
  8
0
  6
SLD-Solid
 62
     7
370
    15
100
AcDbLine
 10
944.9664208101
 20
1139.1637011206
 30
0.0
 11
923.1664208101
 21
1139.1637011206
 31
0.0
  0
ARC
  5
334
330
1F
100
AcDbEntity
  8
0
  6
SLD-Solid
 62
     7
370
    15
100
AcDbCircle
 10
944.9664208101
 20
1141.6237011206
 30
0.0
 40
2.460000000000036
100
AcDbArc
 50
270.0
 51
0.0
  0
LINE
  5
335
330
1F
100
AcDbEntity
  8
0
  6
SLD-Solid
 62
     7
370
    15
100
AcDbLine
 10
947.4264208101
 20
1157.8737011206
 30
0.0
 11
947.4264208101
 21
1141.6237011206
 31
0.0
  0
LINE
  5
336
330
1F
100
AcDbEntity
  8
0
  6
SLD-Solid
 62
     7
370
    15
100
AcDbLine
 10
948.6664208101
 20
1157.8737011206
 30
0.0
 11
947.4264208101
 21
1157.8737011206
 31
0.0
  0
LINE
  5
337
330
1F
100
AcDbEntity
  8
0
  6
SLD-Solid
 62
     7
370
    15
100
AcDbLine
 10
948.6664208101
 20
1157.9237011206
 30
0.0
 11
948.6664208101
 21
1157.8737011206
 31
0.0
  0
LINE
  5
338
330
1F
100
AcDbEntity
  8
0
  6
SLD-Solid
 62
     7
370
    15
100
AcDbLine
 10
1039.9832293086
 20
1157.8737011206
 30
0.0
 11
1039.9832293086
 21
1157.9237011206
 31
0.0
  0
LINE
  5
339
330
1F
100
AcDbEntity
  8
0
  6
SLD-Solid
 62
     7
370
    15
100
AcDbLine
 10
1040.4832293086
 20
1157.8737011206
 30
0.0
 11
1039.9832293086
 21
1157.8737011206
 31
0.0
  0
LINE
  5
33A
330
1F
100
AcDbEntity
  8
0
  6
SLD-Solid
 62
     7
370
    15
100
AcDbLine
 10
1040.4832293086
 20
1159.0680185685
 30
0.0
 11
1040.4832293086
 21
1157.8737011206
 31
0.0
  0
ARC
  5
33B
330
1F
100
AcDbEntity
  8
0
  6
SLD-Solid
 62
     7
370
    15
100
AcDbCircle
 10
1039.9832293086
 20
1137.0737011206
 30
0.0
 40
22.0000000000001
100
AcDbArc
 50
293.5
 51
88.6977110648
  0
LINE
  5
33C
330
1F
100
AcDbEntity
  8
0
  6
SLD-Solid
 62
     7
370
    15
100
AcDbLine
 10
1025.2605742379
 20
1106.6824042144
 30
0.0
 11
1048.7557088249
 21
1116.8983794841
 31
0.0
  0
LINE
  5
33D
330
1F
100
AcDbEntity
  8
0
  6
SLD-Solid
 62
     7
370
    15
100
AcDbLine
 10
1025.2605742379
 20
1106.6824042144
 30
0.0
 11
1025.2605742379
 21
1107.8237011206
 31
0.0
  0
ARC
  5
33E
330
1F
100
AcDbEntity
  8
0
  6
SLD-Solid
 62
     7
370
    15
100
AcDbCircle
 10
1025.1355742379
 20
1107.8237011206
 30
0.0
 40
0.125
100
AcDbArc
 50
0.0
 51
180.0
  0
LINE
  5
33F
330
1F
100
AcDbEntity
  8
0
  6
SLD-Solid
 62
     7
370
    15
100
AcDbLine
 10
1004.8164208101
 20
1125.2737011206
 30
0.0
 11
1004.8164208101
 21
1107.8237011206
 31
0.0
  0
LINE
  5
340
330
1F
100
AcDbEntity
  8
0
  6
SLD-Solid
 62
     7
370
    15
100
AcDbLine
 10
1004.8059852025
 20
1125.2737011206
 30
0.0
 11
1004.8164208101
 21
1125.2737011206
 31
0.0
  0
ARC
  5
341
330
1F
100
AcDbEntity
  8
0
  6
SLD-Solid
 62
     7
370
    15
100
AcDbCircle
 10
1004.6914208101
 20
1125.2237011206
 30
0.0
 40
0.1250000000002263
100
AcDbArc
 50
23.5781784783
 51
156.4218215218
  0
LINE
  5
342
330
1F
100
AcDbEntity
  8
0
  6
SLD-Solid
 62
     7
370
    15
100
AcDbLine
 10
1004.5664208101
 20
1125.2737011206
 30
0.0
 11
1004.5768564177
 21
1125.2737011206
 31
0.0
  0
LINE
  5
343
330
1F
100
AcDbEntity
  8
0
  6
SLD-Solid
 62
     7
370
    15
100
AcDbLine
 10
1004.5664208101
 20
1125.2237011206
 30
0.0
 11
1004.5664208101
 21
1125.2737011206
 31
0.0
  0
ARC
  5
344
330
1F
100
AcDbEntity
  8
0
  6
SLD-Solid
 62
     7
370
    15
100
AcDbCircle
 10
1027.9752924464
 20
1121.7665007593
 30
0.0
 40
0.2500000000000066
100
AcDbArc
 50
99.9421486626
 51
279.9421486628
  0
ARC
  5
345
330
1F
100
AcDbEntity
  8
0
  6
SLD-Solid
 62
     7
370
    15
100
AcDbCircle
 10
1027.4832293086
 20
1124.5737011206
 30
0.0
 40
3.100000000000089
100
AcDbArc
 50
279.9421486627
 51
80.0578513373
  0
ARC
  5
346
330
1F
100
AcDbEntity
  8
0
  6
SLD-Solid
 62
     7
370
    15
100
AcDbCircle
 10
1027.9752924464
 20
1127.3809014819
 30
0.0
 40
0.2499999999999673
100
AcDbArc
 50
80.0578513373
 51
260.0578513373
  0
ARC
  5
347
330
1F
100
AcDbEntity
  8
0
  6
SLD-Solid
 62
     7
370
    15
100
AcDbCircle
 10
1027.4832293086
 20
1124.5737011206
 30
0.0
 40
2.600000000000154
100
AcDbArc
 50
279.9421486627
 51
80.0578513373
  0
ARC
  5
348
330
1F
100
AcDbEntity
  8
0
  6
SLD-Solid
 62
     7
370
    15
100
AcDbCircle
 10
1026.9911661708
 20
1127.3809014819
 30
0.0
 40
0.2499999999999673
100
AcDbArc
 50
279.9421486627
 51
99.9421486626
  0
ARC
  5
349
330
1F
100
AcDbEntity
  8
0
  6
SLD-Solid
 62
     7
370
    15
100
AcDbCircle
 10
1027.4832293086
 20
1124.5737011206
 30
0.0
 40
3.100000000000049
100
AcDbArc
 50
99.9421486627
 51
260.0578513373
  0
ARC
  5
34A
330
1F
100
AcDbEntity
  8
0
  6
SLD-Solid
 62
     7
370
    15
100
AcDbCircle
 10
1026.9911661708
 20
1121.7665007593
 30
0.0
 40
0.2499999999999673
100
AcDbArc
 50
260.0578513374
 51
80.0578513373
  0
ARC
  5
34B
330
1F
100
AcDbEntity
  8
0
  6
SLD-Solid
 62
     7
370
    15
100
AcDbCircle
 10
1027.4832293086
 20
1124.5737011206
 30
0.0
 40
2.600000000000154
100
AcDbArc
 50
99.9421486627
 51
260.0578513373
  0
LINE
  5
34C
330
1F
100
AcDbEntity
  8
0
  6
SLD-Solid
 62
     7
370
    15
100
AcDbLine
 10
921.9264208101
 20
1137.9237011206
 30
0.0
 11
921.9264208101
 21
1125.2237011206
 31
0.0
  0
LINE
  5
34D
330
1F
100
AcDbEntity
  8
0
  6
SLD-Solid
 62
     7
370
    15
100
AcDbLine
 10
1039.9832293086
 20
1160.3737011206
 30
0.0
 11
1039.9832293086
 21
1157.9237011206
 31
0.0
  0
LINE
  5
34E
330
1F
100
AcDbEntity
  8
0
  6
SLD-Solid
 62
     7
370
    15
100
AcDbLine
 10
948.6664208101
 20
1157.9237011206
 30
0.0
 11
948.6664208101
 21
1160.3737011206
 31
0.0
  0
LINE
  5
34F
330
1F
100
AcDbEntity
  8
0
  6
SLD-Solid
 62
     7
370
    15
100
AcDbLine
 10
948.6664208101
 20
1160.3737011206
 30
0.0
 11
1039.9832293086
 21
1160.3737011206
 31
0.0
  0
LINE
  5
350
330
1F
100
AcDbEntity
  8
0
  6
SLD-Solid
 62
     7
370
    15
100
AcDbLine
 10
1025.0105742379
 20
1107.8237011206
 30
0.0
 11
1025.0105742379
 21
1105.3737011206
 31
0.0
  0
LINE
  5
351
330
1F
100
AcDbEntity
  8
0
  6
SLD-Solid
 62
     7
370
    15
100
AcDbLine
 10
1004.8164208101
 20
1105.3737011206
 30
0.0
 11
1025.0105742379
 21
1105.3737011206
 31
0.0
  0
LINE
  5
352
330
1F
100
AcDbEntity
  8
0
  6
SLD-Solid
 62
     7
370
    15
100
AcDbLine
 10
1004.8164208101
 20
1105.3737011206
 30
0.0
 11
1004.8164208101
 21
1107.8237011206
 31
0.0
  0
LINE
  5
353
330
1F
100
AcDbEntity
  8
0
  6
SLD-Solid
 62
     7
370
    15
100
AcDbLine
 10
921.9164208101
 20
1131.3737011206
 30
0.0
 11
921.9164208101
 21
1130.3737011206
 31
0.0
  0
LINE
  5
354
330
1F
100
AcDbEntity
  8
0
  6
SLD-Solid
 62
     7
370
    15
100
AcDbLine
 10
921.9164208101
 20
1130.3737011206
 30
0.0
 11
920.7164208101
 21
1130.3737011206
 31
0.0
  0
LINE
  5
355
330
1F
100
AcDbEntity
  8
0
  6
SLD-Solid
 62
     7
370
    15
100
AcDbLine
 10
920.7164208101
 20
1130.3737011206
 30
0.0
 11
920.7164208101
 21
1131.3737011206
 31
0.0
  0
ARC
  5
356
330
1F
100
AcDbEntity
  8
0
  6
SLD-Solid
 62
     7
370
    15
100
AcDbCircle
 10
923.1664208101
 20
1137.9237011206
 30
0.0
 40
1.25
100
AcDbArc
 50
90.0
 51
180.0
  0
ARC
  5
357
330
1F
100
AcDbEntity
  8
0
  6
SLD-Solid
 62
     7
370
    15
100
AcDbCircle
 10
923.1664208101
 20
1137.9237011206
 30
0.0
 40
2.450000000000045
100
AcDbArc
 50
90.0
 51
180.0
  0
LINE
  5
358
330
1F
100
AcDbEntity
  8
0
  6
SLD-Solid
 62
     7
370
    15
100
AcDbLine
 10
944.9664208101
 20
1140.3737011206
 30
0.0
 11
940.1165753056
 21
1140.3737011206
 31
0.0
  0
LINE
  5
359
330
1F
100
AcDbEntity
  8
0
  6
SLD-Solid
 62
     7
370
    15
100
AcDbLine
 10
944.9664208101
 20
1139.1737011206
 30
0.0
 11
923.1664208101
 21
1139.1737011206
 31
0.0
  0
LINE
  5
35A
330
1F
100
AcDbEntity
  8
0
  6
SLD-Solid
 62
     7
370
    15
100
AcDbLine
 10
921.9164208101
 20
1137.9237011206
 30
0.0
 11
921.9164208101
 21
1131.3737011206
 31
0.0
  0
LINE
  5
35B
330
1F
100
AcDbEntity
  8
0
  6
SLD-Solid
 62
     7
370
    15
100
AcDbLine
 10
920.7164208101
 20
1137.9237011206
 30
0.0
 11
920.7164208101
 21
1131.3737011206
 31
0.0
  0
ARC
  5
35C
330
1F
100
AcDbEntity
  8
0
  6
SLD-Solid
 62
     7
370
    15
100
AcDbCircle
 10
944.9664208101
 20
1141.6237011206
 30
0.0
 40
2.450000000000045
100
AcDbArc
 50
270.0
 51
0.0
  0
ARC
  5
35D
330
1F
100
AcDbEntity
  8
0
  6
SLD-Solid
 62
     7
370
    15
100
AcDbCircle
 10
944.9664208101
 20
1141.6237011206
 30
0.0
 40
1.250000000000114
100
AcDbArc
 50
270.0
 51
0.0
  0
LINE
  5
35E
330
1F
100
AcDbEntity
  8
0
  6
SLD-Solid
 62
     7
370
    15
100
AcDbLine
 10
947.4164208101
 20
1157.9237011206
 30
0.0
 11
947.4164208101
 21
1141.6237011206
 31
0.0
  0
LINE
  5
35F
330
1F
100
AcDbEntity
  8
0
  6
SLD-Solid
 62
     7
370
    15
100
AcDbLine
 10
946.2164208101
 20
1157.9237011206
 30
0.0
 11
946.2164208101
 21
1141.6237011206
 31
0.0
  0
LINE
  5
360
330
1F
100
AcDbEntity
  8
0
  6
SLD-Solid
 62
     7
370
    15
100
AcDbLine
 10
947.4164208101
 20
1157.9237011206
 30
0.0
 11
946.2164208101
 21
1157.9237011206
 31
0.0
  0
LINE
  5
361
330
1F
100
AcDbEntity
  8
0
  6
SLD-Solid
 62
     7
370
    15
100
AcDbLine
 10
1026.1029798615
 20
1105.631119169
 30
0.0
 11
1025.6244809788
 21
1106.7315912582
 31
0.0
  0
LINE
  5
362
330
1F
100
AcDbEntity
  8
0
  6
SLD-Solid
 62
     7
370
    15
100
AcDbLine
 10
1025.6244809788
 20
1106.7315912582
 30
0.0
 11
1026.5415410532
 21
1107.1303403271
 31
0.0
  0
LINE
  5
363
330
1F
100
AcDbEntity
  8
0
  6
SLD-Solid
 62
     7
370
    15
100
AcDbLine
 10
1027.0200399359
 20
1106.0298682379
 30
0.0
 11
1026.1029798615
 21
1105.631119169
 31
0.0
  0
LINE
  5
364
330
1F
100
AcDbEntity
  8
0
  6
SLD-Solid
 62
     7
370
    15
100
AcDbLine
 10
1026.5415410532
 20
1107.1303403271
 30
0.0
 11
1048.7955837318
 21
1116.8066734767
 31
0.0
  0
LINE
  5
365
330
1F
100
AcDbEntity
  8
0
  6
SLD-Solid
 62
     7
370
    15
100
AcDbLine
 10
1027.0200399359
 20
1106.0298682379
 30
0.0
 11
1049.2740826145
 21
1115.7062013874
 31
0.0
  0
ARC
  5
366
330
1F
100
AcDbEntity
  8
0
  6
SLD-Solid
 62
     7
370
    15
100
AcDbCircle
 10
1039.9832293086
 20
1137.0737011206
 30
0.0
 40
23.29999999999996
100
AcDbArc
 50
293.5
 51
88.7703824493
  0
ARC
  5
367
330
1F
100
AcDbEntity
  8
0
  6
SLD-Solid
 62
     7
370
    15
100
AcDbCircle
 10
1039.9832293086
 20
1137.0737011206
 30
0.0
 40
22.10000000000001
100
AcDbArc
 50
293.5
 51
88.703604783
  0
LINE
  5
368
330
1F
100
AcDbEntity
  8
0
  6
SLD-Solid
 62
     7
370
    15
100
AcDbLine
 10
1040.4832293086
 20
1159.168044288
 30
0.0
 11
1040.4832293086
 21
1160.368335696
 31
0.0
  0
ARC
  5
369
330
1F
100
AcDbEntity
  8
0
  6
SLD-Solid
 62
     7
370
    15
100
AcDbCircle
 10
948.6664208101
 20
1157.9237011206
 30
0.0
 40
2.450000000000045
100
AcDbArc
 50
90.0
 51
180.0
  0
ARC
  5
36A
330
1F
100
AcDbEntity
  8
0
  6
SLD-Solid
 62
     7
370
    15
100
AcDbCircle
 10
948.6664208101
 20
1157.9237011206
 30
0.0
 40
1.25
100
AcDbArc
 50
90.0
 51
180.0
  0
ARC
  5
36B
330
1F
100
AcDbEntity
  8
0
  6
SLD-Solid
 62
     7
370
    15
100
AcDbCircle
 10
1039.9832293086
 20
1137.0737011206
 30
0.0
 40
22.1
100
AcDbArc
 50
88.703604783
 51
90.0
  0
ARC
  5
36C
330
1F
100
AcDbEntity
  8
0
  6
SLD-Solid
 62
     7
370
    15
100
AcDbCircle
 10
1039.9832293086
 20
1137.0737011206
 30
0.0
 40
23.29999999999995
100
AcDbArc
 50
88.7703824493
 51
90.0
  0
LINE
  5
36D
330
1F
100
AcDbEntity
  8
0
  6
SLD-Solid
 62
     7
370
    15
100
AcDbLine
 10
297.5164208101
 20
1124.1737011244
 30
0.0
 11
297.5164208101
 21
1159.5737011244
 31
0.0
  0
LINE
  5
36E
330
1F
100
AcDbEntity
  8
0
  6
SLD-Solid
 62
     7
370
    15
100
AcDbLine
 10
399.9164208101
 20
1123.1737011244
 30
0.0
 11
298.5164208101
 21
1123.1737011244
 31
0.0
  0
ARC
  5
36F
330
1F
100
AcDbEntity
  8
0
  6
SLD-Solid
 62
     7
370
    15
100
AcDbCircle
 10
298.5164208101
 20
1124.1737011244
 30
0.0
 40
0.9999999999999432
100
AcDbArc
 50
180.0
 51
270.0
  0
ARC
  5
370
330
1F
100
AcDbEntity
  8
0
  6
SLD-Solid
 62
     7
370
    15
100
AcDbCircle
 10
399.9164208101
 20
1124.1737011244
 30
0.0
 40
0.9999999999998863
100
AcDbArc
 50
270.0
 51
0.0
  0
LINE
  5
371
330
1F
100
AcDbEntity
  8
0
  6
SLD-Solid
 62
     7
370
    15
100
AcDbLine
 10
400.9164208101
 20
1129.5737011244
 30
0.0
 11
400.9164208101
 21
1124.1737011244
 31
0.0
  0
LINE
  5
372
330
1F
100
AcDbEntity
  8
0
  6
SLD-Solid
 62
     7
370
    15
100
AcDbLine
 10
296.7164208101
 20
1159.5737011244
 30
0.0
 11
297.5164208101
 21
1159.5737011244
 31
0.0
  0
LINE
  5
373
330
1F
100
AcDbEntity
  8
0
  6
SLD-Solid
 62
     7
370
    15
100
AcDbLine
 10
297.5164208101
 20
1159.5737011244
 30
0.0
 11
297.5164208101
 21
1208.3531562842
 31
0.0
  0
LINE
  5
374
330
1F
100
AcDbEntity
  8
0
  6
SLD-Solid
 62
     7
370
    15
100
AcDbLine
 10
296.7164208101
 20
1159.5737011244
 30
0.0
 11
296.7164208101
 21
1208.3531562842
 31
0.0
  0
ARC
  5
375
330
1F
100
AcDbEntity
  8
0
  6
SLD-Solid
 62
     7
370
    15
100
AcDbCircle
 10
298.7664208101
 20
1208.3531562842
 30
0.0
 40
1.25
100
AcDbArc
 50
75.0
 51
180.0
  0
ARC
  5
376
330
1F
100
AcDbEntity
  8
0
  6
SLD-Solid
 62
     7
370
    15
100
AcDbCircle
 10
298.7664208101
 20
1208.3531562842
 30
0.0
 40
2.049999999999898
100
AcDbArc
 50
75.0
 51
180.0
  0
LINE
  5
377
330
1F
100
AcDbEntity
  8
0
  6
SLD-Solid
 62
     7
370
    15
100
AcDbLine
 10
299.0899446165
 20
1209.560563567
 30
0.0
 11
332.3868969376
 21
1200.6386720822
 31
0.0
  0
LINE
  5
378
330
1F
100
AcDbEntity
  8
0
  6
SLD-Solid
 62
     7
370
    15
100
AcDbLine
 10
299.2969998525
 20
1210.3333042281
 30
0.0
 11
332.5939521737
 21
1201.4114127432
 31
0.0
  0
ARC
  5
379
330
1F
100
AcDbEntity
  8
0
  6
SLD-Solid
 62
     7
370
    15
100
AcDbCircle
 10
325.9164208101
 20
1176.4905264249
 30
0.0
 40
24.99999999999994
100
AcDbArc
 50
0.0
 51
75.0
  0
ARC
  5
37A
330
1F
100
AcDbEntity
  8
0
  6
SLD-Solid
 62
     7
370
    15
100
AcDbCircle
 10
325.9164208101
 20
1176.4905264249
 30
0.0
 40
25.80000000000007
100
AcDbArc
 50
0.0
 51
75.0
  0
LINE
  5
37B
330
1F
100
AcDbEntity
  8
0
  6
SLD-Solid
 62
     7
370
    15
100
AcDbLine
 10
351.7164208101
 20
1176.4905264249
 30
0.0
 11
351.7164208101
 21
1161.6237011244
 31
0.0
  0
LINE
  5
37C
330
1F
100
AcDbEntity
  8
0
  6
SLD-Solid
 62
     7
370
    15
100
AcDbLine
 10
350.9164208101
 20
1176.4905264249
 30
0.0
 11
350.9164208101
 21
1161.6237011244
 31
0.0
  0
ARC
  5
37D
330
1F
100
AcDbEntity
  8
0
  6
SLD-Solid
 62
     7
370
    15
100
AcDbCircle
 10
352.9664208101
 20
1161.6237011244
 30
0.0
 40
1.25
100
AcDbArc
 50
180.0
 51
270.0
  0
ARC
  5
37E
330
1F
100
AcDbEntity
  8
0
  6
SLD-Solid
 62
     7
370
    15
100
AcDbCircle
 10
352.9664208101
 20
1161.6237011244
 30
0.0
 40
2.050000000000125
100
AcDbArc
 50
180.0
 51
270.0
  0
LINE
  5
37F
330
1F
100
AcDbEntity
  8
0
  6
SLD-Solid
 62
     7
370
    15
100
AcDbLine
 10
352.9664208101
 20
1159.5737011244
 30
0.0
 11
374.1664208101
 21
1159.5737011244
 31
0.0
  0
LINE
  5
380
330
1F
100
AcDbEntity
  8
0
  6
SLD-Solid
 62
     7
370
    15
100
AcDbLine
 10
352.9664208101
 20
1160.3737011244
 30
0.0
 11
374.1664208101
 21
1160.3737011244
 31
0.0
  0
ARC
  5
381
330
1F
100
AcDbEntity
  8
0
  6
SLD-Solid
 62
     7
370
    15
100
AcDbCircle
 10
377.4664208101
 20
1141.6237011244
 30
0.0
 40
1.25
100
AcDbArc
 50
180.0
 51
270.0
  0
ARC
  5
382
330
1F
100
AcDbEntity
  8
0
  6
SLD-Solid
 62
     7
370
    15
100
AcDbCircle
 10
377.4664208101
 20
1141.6237011244
 30
0.0
 40
2.049999999999955
100
AcDbArc
 50
180.0
 51
270.0
  0
ARC
  5
383
330
1F
100
AcDbEntity
  8
0
  6
SLD-Solid
 62
     7
370
    15
100
AcDbCircle
 10
374.1664208101
 20
1158.3237011244
 30
0.0
 40
2.050000000000182
100
AcDbArc
 50
0.0
 51
90.0
  0
ARC
  5
384
330
1F
100
AcDbEntity
  8
0
  6
SLD-Solid
 62
     7
370
    15
100
AcDbCircle
 10
374.1664208101
 20
1158.3237011244
 30
0.0
 40
1.250000000000171
100
AcDbArc
 50
0.0
 51
90.0
  0
LINE
  5
385
330
1F
100
AcDbEntity
  8
0
  6
SLD-Solid
 62
     7
370
    15
100
AcDbLine
 10
376.2164208101
 20
1158.3237011244
 30
0.0
 11
376.2164208101
 21
1141.6237011244
 31
0.0
  0
LINE
  5
386
330
1F
100
AcDbEntity
  8
0
  6
SLD-Solid
 62
     7
370
    15
100
AcDbLine
 10
375.4164208101
 20
1158.3237011244
 30
0.0
 11
375.4164208101
 21
1141.6237011244
 31
0.0
  0
LINE
  5
387
330
1F
100
AcDbEntity
  8
0
  6
SLD-Solid
 62
     7
370
    15
100
AcDbLine
 10
377.4664208101
 20
1140.3737011244
 30
0.0
 11
399.6664208101
 21
1140.3737011244
 31
0.0
  0
LINE
  5
388
330
1F
100
AcDbEntity
  8
0
  6
SLD-Solid
 62
     7
370
    15
100
AcDbLine
 10
377.4664208101
 20
1139.5737011244
 30
0.0
 11
399.6664208101
 21
1139.5737011244
 31
0.0
  0
ARC
  5
389
330
1F
100
AcDbEntity
  8
0
  6
SLD-Solid
 62
     7
370
    15
100
AcDbCircle
 10
399.6664208101
 20
1138.3237011244
 30
0.0
 40
2.050000000000182
100
AcDbArc
 50
0.0
 51
90.0
  0
ARC
  5
38A
330
1F
100
AcDbEntity
  8
0
  6
SLD-Solid
 62
     7
370
    15
100
AcDbCircle
 10
399.6664208101
 20
1138.3237011244
 30
0.0
 40
1.25
100
AcDbArc
 50
0.0
 51
90.0
  0
LINE
  5
38B
330
1F
100
AcDbEntity
  8
0
  6
SLD-Solid
 62
     7
370
    15
100
AcDbLine
 10
400.9164208101
 20
1138.3237011244
 30
0.0
 11
400.9164208101
 21
1129.5737011244
 31
0.0
  0
LINE
  5
38C
330
1F
100
AcDbEntity
  8
0
  6
SLD-Solid
 62
     7
370
    15
100
AcDbLine
 10
401.7164208101
 20
1138.3237011244
 30
0.0
 11
401.7164208101
 21
1129.5737011244
 31
0.0
  0
LINE
  5
38D
330
1F
100
AcDbEntity
  8
0
  6
SLD-Solid
 62
     7
370
    15
100
AcDbLine
 10
400.9164208101
 20
1129.5737011244
 30
0.0
 11
401.7164208101
 21
1129.5737011244
 31
0.0
  0
LINE
  5
38E
330
1F
100
AcDbEntity
  8
0
  6
SLD-Solid
 62
     7
370
    15
100
AcDbLine
 10
987.1164206105
 20
276.0737011205
 30
0.0
 11
930.1164206105
 21
276.0737011205
 31
0.0
  0
LINE
  5
38F
330
1F
100
AcDbEntity
  8
0
  6
SLD-Solid
 62
     7
370
    15
100
AcDbLine
 10
985.1164205397
 20
270.0737011205
 30
0.0
 11
932.1164206105
 21
270.0737011205
 31
0.0
  0
LINE
  5
390
330
1F
100
AcDbEntity
  8
0
  6
SLD-Solid
 62
     7
370
    15
100
AcDbLine
 10
398.1164207568
 20
276.0737011205
 30
0.0
 11
341.1164207568
 21
276.0737011205
 31
0.0
  0
LINE
  5
391
330
1F
100
AcDbEntity
  8
0
  6
SLD-Solid
 62
     7
370
    15
100
AcDbLine
 10
396.116420686
 20
270.0737011205
 30
0.0
 11
343.1164207568
 21
270.0737011205
 31
0.0
  0
LINE
  5
392
330
1F
100
AcDbEntity
  8
0
  6
SLD-Solid
 62
     7
370
    15
100
AcDbLine
 10
404.6164207568
 20
438.0737011205
 30
0.0
 11
404.6164207568
 21
440.0737011205
 31
0.0
  0
LINE
  5
393
330
1F
100
AcDbEntity
  8
0
  6
SLD-Solid
 62
     7
370
    15
100
AcDbLine
 10
334.6164207568
 20
438.0737011205
 30
0.0
 11
404.6164207568
 21
438.0737011205
 31
0.0
  0
LINE
  5
394
330
1F
100
AcDbEntity
  8
0
  6
SLD-Solid
 62
     7
370
    15
100
AcDbLine
 10
334.6164207568
 20
438.0737011205
 30
0.0
 11
334.6164207568
 21
440.0737011205
 31
0.0
  0
LINE
  5
395
330
1F
100
AcDbEntity
  8
0
  6
SLD-Solid
 62
     7
370
    15
100
AcDbLine
 10
334.6164207568
 20
440.0737011205
 30
0.0
 11
404.6164207568
 21
440.0737011205
 31
0.0
  0
LINE
  5
396
330
1F
100
AcDbEntity
  8
0
  6
SLD-Solid
 62
     7
370
    15
100
AcDbLine
 10
400.5760709772
 20
344.0737011205
 30
0.0
 11
338.6567705365
 21
344.0737011205
 31
0.0
  0
LINE
  5
397
330
1F
100
AcDbEntity
  8
0
  6
SLD-Solid
 62
     7
370
    15
100
AcDbLine
 10
993.6164206105
 20
438.0737011205
 30
0.0
 11
993.6164206105
 21
440.0737011205
 31
0.0
  0
LINE
  5
398
330
1F
100
AcDbEntity
  8
0
  6
SLD-Solid
 62
     7
370
    15
100
AcDbLine
 10
923.6164206105
 20
438.0737011205
 30
0.0
 11
993.6164206105
 21
438.0737011205
 31
0.0
  0
LINE
  5
399
330
1F
100
AcDbEntity
  8
0
  6
SLD-Solid
 62
     7
370
    15
100
AcDbLine
 10
923.6164206105
 20
440.0737011205
 30
0.0
 11
993.6164206105
 21
440.0737011205
 31
0.0
  0
LINE
  5
39A
330
1F
100
AcDbEntity
  8
0
  6
SLD-Solid
 62
     7
370
    15
100
AcDbLine
 10
923.6164206105
 20
438.0737011205
 30
0.0
 11
923.6164206105
 21
440.0737011205
 31
0.0
  0
LINE
  5
39B
330
1F
100
AcDbEntity
  8
0
  6
SLD-Solid
 62
     7
370
    15
100
AcDbLine
 10
989.5760708308
 20
344.0737011205
 30
0.0
 11
927.6567703901
 21
344.0737011205
 31
0.0
  0
LINE
  5
39C
330
1F
100
AcDbEntity
  8
0
  6
SLD-Solid
 62
     7
370
    15
100
AcDbLine
 10
957.2664208101
 20
1122.5737011205
 30
0.0
 11
1004.8164208101
 21
1122.5737011205
 31
0.0
  0
LINE
  5
39D
330
1F
100
AcDbEntity
  8
0
  6
SLD-Solid
 62
     7
370
    15
100
AcDbLine
 10
957.2664208101
 20
1122.5737011205
 30
0.0
 11
957.2664208101
 21
1122.7737011206
 31
0.0
  0
LINE
  5
39E
330
1F
100
AcDbEntity
  8
0
  6
SLD-Solid
 62
     7
370
    15
100
AcDbLine
 10
945.1880060069
 20
1139.1737011205
 30
0.0
 11
944.9664208101
 21
1139.1737011205
 31
0.0
  0
LINE
  5
39F
330
1F
100
AcDbEntity
  8
0
  6
SLD-Solid
 62
     7
370
    15
100
AcDbLine
 10
924.2164208101
 20
1139.1637011206
 30
0.0
 11
924.2164208101
 21
1139.1737011205
 31
0.0
  0
LINE
  5
3A0
330
1F
100
AcDbEntity
  8
0
  6
SLD-Solid
 62
     7
370
    15
100
AcDbLine
 10
1042.7443556909
 20
1114.1755246408
 30
0.0
 11
1042.4304004185
 21
1114.1480571136
 31
0.0
  0
LINE
  5
3A1
330
1F
100
AcDbEntity
  8
0
  6
SLD-Solid
 62
     7
370
    15
100
AcDbLine
 10
1043.5140291505
 20
1114.6192322961
 30
0.0
 11
1043.5232196565
 21
1114.5141843315
 31
0.0
  0
LINE
  5
3A2
330
1F
100
AcDbEntity
  8
0
  6
SLD-Solid
 62
     7
370
    15
100
AcDbLine
 10
365.2164208101
 20
1122.5737011205
 30
0.0
 11
365.2164208101
 21
1123.1737011244
 31
0.0
  0
LINE
  5
3A3
330
1F
100
AcDbEntity
  8
0
  6
SLD-Solid
 62
     7
370
    15
100
AcDbLine
 10
1004.3164208101
 20
1106.8737011205
 30
0.0
 11
1004.8164208101
 21
1107.3737011205
 31
0.0
  0
LINE
  5
3A4
330
1F
100
AcDbEntity
  8
0
  6
SLD-Solid
 62
     7
370
    15
100
AcDbLine
 10
364.0164208101
 20
1122.5737011205
 30
0.0
 11
957.2664208101
 21
1122.5737011205
 31
0.0
  0
LINE
  5
3A5
330
1F
100
AcDbEntity
  8
0
  6
SLD-Solid
 62
     7
370
    15
100
AcDbLine
 10
364.0164208101
 20
1121.6737011205
 30
0.0
 11
364.0164208101
 21
1122.5737011205
 31
0.0
  0
LINE
  5
3A6
330
1F
100
AcDbEntity
  8
0
  6
SLD-Solid
 62
     7
370
    15
100
AcDbLine
 10
354.0164208101
 20
1121.6737011205
 30
0.0
 11
354.0164208101
 21
1123.1737011244
 31
0.0
  0
LINE
  5
3A7
330
1F
100
AcDbEntity
  8
0
  6
SLD-Solid
 62
     7
370
    15
100
AcDbLine
 10
304.0164208101
 20
1123.1737011244
 30
0.0
 11
304.0164208101
 21
1121.6737011205
 31
0.0
  0
LINE
  5
3A8
330
1F
100
AcDbEntity
  8
0
  6
SLD-Center
 62
     7
370
     0
100
AcDbLine
 10
267.1669192855
 20
1081.0737011205
 30
0.0
 11
325.1683483767
 21
1081.0737011205
 31
0.0
  0
LINE
  5
3A9
330
1F
100
AcDbEntity
  8
0
  6
SLD-Center
 62
     7
370
     0
100
AcDbLine
 10
369.6164207568
 20
272.0737011205
 30
0.0
 11
369.6164207568
 21
552.5196149
 31
0.0
  0
LINE
  5
3AA
330
1F
100
AcDbEntity
  8
0
  6
SLD-Center
 62
     7
370
     0
100
AcDbLine
 10
958.6164207568
 20
270.0737011205
 30
0.0
 11
958.6164207568
 21
555.7916392846
 31
0.0
  0
ENDSEC
  0
SECTION
  2
OBJECTS
  0
DICTIONARY
  5
C
330
0
100
AcDbDictionary
281
     1
  3
ACAD_GROUP
350
D
  3
ACAD_LAYOUT
350
1A
  3
ACAD_MLINESTYLE
350
17
  3
ACAD_PLOTSETTINGS
350
19
  3
ACAD_PLOTSTYLENAME
350
E
  0
DICTIONARY
  5
D
102
{ACAD_REACTORS
330
C
102
}
330
C
100
AcDbDictionary
281
     1
  0
DICTIONARY
  5
1A
102
{ACAD_REACTORS
330
C
102
}
330
C
100
AcDbDictionary
281
     1
  3
Layout1
350
1E
  3
Layout2
350
26
  3
Model
350
22
  0
DICTIONARY
  5
17
102
{ACAD_REACTORS
330
C
102
}
330
C
100
AcDbDictionary
281
     1
  3
Standard
350
18
  0
DICTIONARY
  5
19
102
{ACAD_REACTORS
330
C
102
}
330
C
100
AcDbDictionary
281
     1
  0
ACDBDICTIONARYWDFLT
  5
E
102
{ACAD_REACTORS
330
C
102
}
330
C
100
AcDbDictionary
281
     1
  3
Normal
350
F
100
AcDbDictionaryWithDefault
340
F
  0
LAYOUT
  5
1E
102
{ACAD_REACTORS
330
1A
102
}
330
1A
100
AcDbPlotSettings
  1

  2
none_device
  4

  6

 40
0.0
 41
0.0
 42
0.0
 43
0.0
 44
0.0
 45
0.0
 46
0.0
 47
0.0
 48
0.0
 49
0.0
140
0.0
141
0.0
142
1.0
143
1.0
 70
   688
 72
     0
 73
     0
 74
     5
  7

 75
    16
147
1.0
148
0.0
149
0.0
100
AcDbLayout
  1
Layout1
 70
     1
 71
     1
 10
0.0
 20
0.0
 11
420.0
 21
297.0
 12
0.0
 22
0.0
 32
0.0
 14
1.0000000000E+20
 24
1.0000000000E+20
 34
1.0000000000E+20
 15
-1.0000000000E+20
 25
-1.0000000000E+20
 35
-1.0000000000E+20
146
0.0
 13
0.0
 23
0.0
 33
0.0
 16
1.0
 26
0.0
 36
0.0
 17
0.0
 27
1.0
 37
0.0
 76
     0
330
1B
  0
LAYOUT
  5
26
102
{ACAD_REACTORS
330
1A
102
}
330
1A
100
AcDbPlotSettings
  1

  2
none_device
  4

  6

 40
0.0
 41
0.0
 42
0.0
 43
0.0
 44
0.0
 45
0.0
 46
0.0
 47
0.0
 48
0.0
 49
0.0
140
0.0
141
0.0
142
1.0
143
1.0
 70
   688
 72
     0
 73
     0
 74
     5
  7

 75
    16
147
1.0
148
0.0
149
0.0
100
AcDbLayout
  1
Layout2
 70
     1
 71
     2
 10
0.0
 20
0.0
 11
0.0
 21
0.0
 12
0.0
 22
0.0
 32
0.0
 14
0.0
 24
0.0
 34
0.0
 15
0.0
 25
0.0
 35
0.0
146
0.0
 13
0.0
 23
0.0
 33
0.0
 16
1.0
 26
0.0
 36
0.0
 17
0.0
 27
1.0
 37
0.0
 76
     0
330
23
  0
LAYOUT
  5
22
102
{ACAD_REACTORS
330
1A
102
}
330
1A
100
AcDbPlotSettings
  1

  2
none_device
  4

  6

 40
0.0
 41
0.0
 42
0.0
 43
0.0
 44
0.0
 45
0.0
 46
0.0
 47
0.0
 48
0.0
 49
0.0
140
0.0
141
0.0
142
1.0
143
1.0
 70
  1712
 72
     0
 73
     0
 74
     0
  7

 75
     0
147
1.0
148
0.0
149
0.0
100
AcDbLayout
  1
Model
 70
     1
 71
     0
 10
0.0
 20
0.0
 11
1500.0
 21
1500.0
 12
0.0
 22
0.0
 32
0.0
 14
0.0
 24
0.0
 34
0.0
 15
1500.0
 25
1500.0
 35
0.0
146
0.0
 13
0.0
 23
0.0
 33
0.0
 16
1.0
 26
0.0
 36
0.0
 17
0.0
 27
1.0
 37
0.0
 76
     0
330
1F
331
29
  0
MLINESTYLE
  5
18
102
{ACAD_REACTORS
330
17
102
}
330
17
100
AcDbMlineStyle
  2
Standard
 70
     0
  3

 62
   256
 51
90.0
 52
90.0
 71
     2
 49
0.5
 62
   256
  6
BYLAYER
 49
-0.5
 62
   256
  6
BYLAYER
  0
ACDBPLACEHOLDER
  5
F
102
{ACAD_REACTORS
330
E
102
}
330
E
  0
ENDSEC
  0
EOF
