  0
SECTION
  2
HEADER
  9
$ACADVER
  1
AC1015
  9
$ACADMAINTVER
 70
     6
  9
$DWGCODEPAGE
  3
ANSI_1252
  9
$INSBASE
 10
0.0
 20
0.0
 30
0.0
  9
$EXTMIN
 10
0.0
 20
0.0
 30
0.0
  9
$EXTMAX
 10
841.0
 20
594.0
 30
0.0
  9
$LIMMIN
 10
0.0
 20
0.0
  9
$LIMMAX
 10
841.0
 20
594.0
  9
$ORTHOMODE
 70
     0
  9
$REGENMODE
 70
     1
  9
$FILLMODE
 70
     1
  9
$QTEXTMODE
 70
     0
  9
$MIRRTEXT
 70
     1
  9
$LTSCALE
 40
1.0
  9
$ATTMODE
 70
     1
  9
$TEXTSIZE
 40
3.5
  9
$TRACEWID
 40
1.0
  9
$TEXTSTYLE
  7
Standard
  9
$CLAYER
  8
0
  9
$CELTYPE
  6
ByLayer
  9
$CECOLOR
 62
   256
  9
$CELTSCALE
 40
1.0
  9
$DISPSILH
 70
     0
  9
$DIMSCALE
 40
1.0
  9
$DIMASZ
 40
3.302
  9
$DIMEXO
 40
1.0
  9
$DIMDLI
 40
3.75
  9
$DIMRND
 40
0.0
  9
$DIMDLE
 40
0.0
  9
$DIMEXE
 40
1.0
  9
$DIMTP
 40
0.0
  9
$DIMTM
 40
0.0
  9
$DIMTXT
 40
3.5
  9
$DIMCEN
 40
2.5
  9
$DIMTSZ
 40
0.0
  9
$DIMTOL
 70
     0
  9
$DIMLIM
 70
     0
  9
$DIMTIH
 70
     1
  9
$DIMTOH
 70
     1
  9
$DIMSE1
 70
     0
  9
$DIMSE2
 70
     0
  9
$DIMTAD
 70
     1
  9
$DIMZIN
 70
     0
  9
$DIMBLK
  1

  9
$DIMASO
 70
     1
  9
$DIMSHO
 70
     1
  9
$DIMPOST
  1

  9
$DIMAPOST
  1

  9
$DIMALT
 70
     0
  9
$DIMALTD
 70
     3
  9
$DIMALTF
 40
0.0393700787
  9
$DIMLFAC
 40
1.0
  9
$DIMTOFL
 70
     1
  9
$DIMTVP
 40
0.0
  9
$DIMTIX
 70
     0
  9
$DIMSOXD
 70
     0
  9
$DIMSAH
 70
     0
  9
$DIMBLK1
  1

  9
$DIMBLK2
  1

  9
$DIMSTYLE
  2
ISO-25
  9
$DIMCLRD
 70
     0
  9
$DIMCLRE
 70
     0
  9
$DIMCLRT
 70
     0
  9
$DIMTFAC
 40
1.0
  9
$DIMGAP
 40
1.524
  9
$DIMJUST
 70
     0
  9
$DIMSD1
 70
     0
  9
$DIMSD2
 70
     0
  9
$DIMTOLJ
 70
     0
  9
$DIMTZIN
 70
     0
  9
$DIMALTZ
 70
     0
  9
$DIMALTTZ
 70
     0
  9
$DIMUPT
 70
     0
  9
$DIMDEC
 70
     1
  9
$DIMTDEC
 70
     1
  9
$DIMALTU
 70
     2
  9
$DIMALTTD
 70
     3
  9
$DIMTXSTY
  7
Standard
  9
$DIMAUNIT
 70
     0
  9
$DIMADEC
 70
     1
  9
$DIMALTRND
 40
0.0
  9
$DIMAZIN
 70
     0
  9
$DIMDSEP
 70
    44
  9
$DIMATFIT
 70
     3
  9
$DIMFRAC
 70
     0
  9
$DIMLDRBLK
  1

  9
$DIMLUNIT
 70
     2
  9
$DIMLWD
 70
    -2
  9
$DIMLWE
 70
    -2
  9
$DIMTMOVE
 70
     0
  9
$LUNITS
 70
     2
  9
$LUPREC
 70
     1
  9
$SKETCHINC
 40
1.0
  9
$FILLETRAD
 40
10.0
  9
$AUNITS
 70
     0
  9
$AUPREC
 70
     1
  9
$MENU
  1
.
  9
$ELEVATION
 40
0.0
  9
$PELEVATION
 40
0.0
  9
$THICKNESS
 40
0.0
  9
$LIMCHECK
 70
     0
  9
$CHAMFERA
 40
10.0
  9
$CHAMFERB
 40
10.0
  9
$CHAMFERC
 40
20.0
  9
$CHAMFERD
 40
0.0
  9
$SKPOLY
 70
     0
  9
$TDCREATE
 40
2456373.48692713
  9
$TDUCREATE
 40
2456373.48692713
  9
$TDUPDATE
 40
2456373.486929479
  9
$TDUUPDATE
 40
2456373.486929479
  9
$TDINDWG
 40
0.0000000116
  9
$TDUSRTIMER
 40
0.0000000116
  9
$USRTIMER
 70
     1
  9
$ANGBASE
 50
0.0
  9
$ANGDIR
 70
     0
  9
$PDMODE
 70
     0
  9
$PDSIZE
 40
-1.0
  9
$PLINEWID
 40
0.0
  9
$SPLFRAME
 70
     0
  9
$SPLINETYPE
 70
     6
  9
$SPLINESEGS
 70
     8
  9
$HANDSEED
  5
305
  9
$SURFTAB1
 70
     6
  9
$SURFTAB2
 70
     6
  9
$SURFTYPE
 70
     6
  9
$SURFU
 70
     6
  9
$SURFV
 70
     6
  9
$UCSBASE
  2

  9
$UCSNAME
  2

  9
$UCSORG
 10
0.0
 20
0.0
 30
0.0
  9
$UCSXDIR
 10
1.0
 20
0.0
 30
0.0
  9
$UCSYDIR
 10
0.0
 20
1.0
 30
0.0
  9
$UCSORTHOREF
  2

  9
$UCSORTHOVIEW
 70
     0
  9
$UCSORGTOP
 10
0.0
 20
0.0
 30
0.0
  9
$UCSORGBOTTOM
 10
0.0
 20
0.0
 30
0.0
  9
$UCSORGLEFT
 10
0.0
 20
0.0
 30
0.0
  9
$UCSORGRIGHT
 10
0.0
 20
0.0
 30
0.0
  9
$UCSORGFRONT
 10
0.0
 20
0.0
 30
0.0
  9
$UCSORGBACK
 10
0.0
 20
0.0
 30
0.0
  9
$PUCSBASE
  2

  9
$PUCSNAME
  2

  9
$PUCSORG
 10
0.0
 20
0.0
 30
0.0
  9
$PUCSXDIR
 10
1.0
 20
0.0
 30
0.0
  9
$PUCSYDIR
 10
0.0
 20
1.0
 30
0.0
  9
$PUCSORTHOREF
  2

  9
$PUCSORTHOVIEW
 70
     0
  9
$PUCSORGTOP
 10
0.0
 20
0.0
 30
0.0
  9
$PUCSORGBOTTOM
 10
0.0
 20
0.0
 30
0.0
  9
$PUCSORGLEFT
 10
0.0
 20
0.0
 30
0.0
  9
$PUCSORGRIGHT
 10
0.0
 20
0.0
 30
0.0
  9
$PUCSORGFRONT
 10
0.0
 20
0.0
 30
0.0
  9
$PUCSORGBACK
 10
0.0
 20
0.0
 30
0.0
  9
$USERI1
 70
     0
  9
$USERI2
 70
     0
  9
$USERI3
 70
     0
  9
$USERI4
 70
     0
  9
$USERI5
 70
     0
  9
$USERR1
 40
0.0
  9
$USERR2
 40
0.0
  9
$USERR3
 40
0.0
  9
$USERR4
 40
0.0
  9
$USERR5
 40
0.0
  9
$WORLDVIEW
 70
     1
  9
$SHADEDGE
 70
     3
  9
$SHADEDIF
 70
    70
  9
$TILEMODE
 70
     1
  9
$MAXACTVP
 70
    64
  9
$PINSBASE
 10
0.0
 20
0.0
 30
0.0
  9
$PLIMCHECK
 70
     0
  9
$PEXTMIN
 10
1.0000000000E+20
 20
1.0000000000E+20
 30
1.0000000000E+20
  9
$PEXTMAX
 10
-1.0000000000E+20
 20
-1.0000000000E+20
 30
-1.0000000000E+20
  9
$PLIMMIN
 10
0.0
 20
0.0
  9
$PLIMMAX
 10
420.0
 20
297.0
  9
$UNITMODE
 70
     0
  9
$VISRETAIN
 70
     1
  9
$PLINEGEN
 70
     0
  9
$PSLTSCALE
 70
     1
  9
$TREEDEPTH
 70
  3020
  9
$CMLSTYLE
  2
Standard
  9
$CMLJUST
 70
     0
  9
$CMLSCALE
 40
20.0
  9
$PROXYGRAPHICS
 70
     1
  9
$MEASUREMENT
 70
     1
  9
$CELWEIGHT
370
    -1
  9
$ENDCAPS
280
     0
  9
$JOINSTYLE
280
     0
  9
$LWDISPLAY
290
     1
  9
$INSUNITS
 70
     4
  9
$HYPERLINKBASE
  1

  9
$STYLESHEET
  1

  9
$XEDIT
290
     1
  9
$CEPSNTYPE
380
     0
  9
$PSTYLEMODE
290
     1
  9
$FINGERPRINTGUID
  2
{2D4B74EF-36D9-434E-A78D-C3DD8F1A02FA}
  9
$VERSIONGUID
  2
{FAEB1C32-E019-11D5-929B-00C0DF256EC4}
  9
$EXTNAMES
290
     1
  9
$PSVPSCALE
 40
0.0
  9
$OLESTARTUP
290
     0
  0
ENDSEC
  0
SECTION
  2
CLASSES
  0
CLASS
  1
ACDBDICTIONARYWDFLT
  2
AcDbDictionaryWithDefault
  3
ObjectDBX Classes
 90
        0
280
     0
281
     0
  0
CLASS
  1
VISUALSTYLE
  2
AcDbVisualStyle
  3
ObjectDBX Classes
 90
     4095
280
     0
281
     0
  0
CLASS
  1
MATERIAL
  2
AcDbMaterial
  3
ObjectDBX Classes
 90
     1153
280
     0
281
     0
  0
CLASS
  1
ACDBPLACEHOLDER
  2
AcDbPlaceHolder
  3
ObjectDBX Classes
 90
        0
280
     0
281
     0
  0
CLASS
  1
LAYOUT
  2
AcDbLayout
  3
ObjectDBX Classes
 90
        0
280
     0
281
     0
  0
ENDSEC
  0
SECTION
  2
TABLES
  0
TABLE
  2
VPORT
  5
8
330
0
100
AcDbSymbolTable
 70
     1
  0
VPORT
  5
29
330
8
100
AcDbSymbolTableRecord
100
AcDbViewportTableRecord
  2
*Active
 70
     0
 10
0.0
 20
0.0
 11
1.0
 21
1.0
 12
420.5
 22
297.0
 13
0.0
 23
0.0
 14
10.0
 24
10.0
 15
10.0
 25
10.0
 16
0.0
 26
0.0
 36
1.0
 17
0.0
 27
0.0
 37
0.0
 40
594.0
 41
1.4158249158
 42
50.0
 43
0.0
 44
0.0
 50
0.0
 51
0.0
 71
     0
 72
  2000
 73
     1
 74
     3
 75
     0
 76
     0
 77
     0
 78
     0
281
     0
 65
     1
110
0.0
120
0.0
130
0.0
111
1.0
121
0.0
131
0.0
112
0.0
122
1.0
132
0.0
 79
     0
146
0.0
  0
ENDTAB
  0
TABLE
  2
LTYPE
  5
5
330
0
100
AcDbSymbolTable
 70
     6
  0
LTYPE
  5
14
330
5
100
AcDbSymbolTableRecord
100
AcDbLinetypeTableRecord
  2
ByBlock
 70
     0
  3

 72
    65
 73
     0
 40
0.0
  0
LTYPE
  5
15
330
5
100
AcDbSymbolTableRecord
100
AcDbLinetypeTableRecord
  2
ByLayer
 70
     0
  3

 72
    65
 73
     0
 40
0.0
  0
LTYPE
  5
16
330
5
100
AcDbSymbolTableRecord
100
AcDbLinetypeTableRecord
  2
Continuous
 70
     0
  3
Solid line
 72
    65
 73
     0
 40
0.0
  0
LTYPE
  5
3F
330
5
100
AcDbSymbolTableRecord
100
AcDbLinetypeTableRecord
  2
HIDDEN
 70
     0
  3
Hidden __ __ __ __ __ __ __ __ __ __ __ __ __ __
 72
    65
 73
     2
 40
1.905
 49
1.27
 74
     0
 49
-0.635
 74
     0
  0
LTYPE
  5
40
330
5
100
AcDbSymbolTableRecord
100
AcDbLinetypeTableRecord
  2
PHANTOM
 70
     0
  3
Phantom ______  __  __  ______  __  __  ______
 72
    65
 73
     6
 40
12.7
 49
6.35
 74
     0
 49
-1.27
 74
     0
 49
1.27
 74
     0
 49
-1.27
 74
     0
 49
1.27
 74
     0
 49
-1.27
 74
     0
  0
LTYPE
  5
41
330
5
100
AcDbSymbolTableRecord
100
AcDbLinetypeTableRecord
  2
CENTER
 70
     0
  3
Center ____ _ ____ _ ____ _ ____ _ ____ _ ____
 72
    65
 73
     4
 40
10.16
 49
6.35
 74
     0
 49
-1.27
 74
     0
 49
1.27
 74
     0
 49
-1.27
 74
     0
  0
LTYPE
  5
42
330
5
100
AcDbSymbolTableRecord
100
AcDbLinetypeTableRecord
  2
CENTERX2
 70
     0
  3
Center (2x) ________  __  ________  __  _____
 72
    65
 73
     4
 40
20.32
 49
12.7
 74
     0
 49
-2.54
 74
     0
 49
2.54
 74
     0
 49
-2.54
 74
     0
  0
LTYPE
  5
43
330
5
100
AcDbSymbolTableRecord
100
AcDbLinetypeTableRecord
  2
DOT2
 70
     0
  3
Dot (.5x) ........................................
 72
    65
 73
     2
 40
0.635
 49
0.0
 74
     0
 49
-0.635
 74
     0
  0
ENDTAB
  0
TABLE
  2
LAYER
  5
2
330
0
100
AcDbSymbolTable
 70
     4
  0
LAYER
  5
10
330
2
100
AcDbSymbolTableRecord
100
AcDbLayerTableRecord
  2
0
 70
     0
 62
     7
  6
Continuous
370
    -3
390
F
  0
LAYER
  5
44
330
2
100
AcDbSymbolTableRecord
100
AcDbLayerTableRecord
  2
FORMAT
 70
     0
 62
     7
  6
Continuous
370
    -3
390
F
  0
LAYER
  5
45
330
2
100
AcDbSymbolTableRecord
100
AcDbLayerTableRecord
  2
SLD-0
 70
     0
 62
     1
  6
Continuous
370
    -3
390
F
  0
LAYER
  5
46
330
2
100
AcDbSymbolTableRecord
100
AcDbLayerTableRecord
  2
WATERMARK
 70
     0
 62
     1
  6
Continuous
370
    -3
390
F
  0
ENDTAB
  0
TABLE
  2
STYLE
  5
3
330
0
100
AcDbSymbolTable
 70
     1
  0
STYLE
  5
11
330
3
100
AcDbSymbolTableRecord
100
AcDbTextStyleTableRecord
  2
Standard
 70
     0
 40
0.0
 41
1.0
 50
0.0
 71
     0
 42
3.5
  3
txt
  4

  0
ENDTAB
  0
TABLE
  2
VIEW
  5
6
330
0
100
AcDbSymbolTable
 70
     0
  0
ENDTAB
  0
TABLE
  2
UCS
  5
7
330
0
100
AcDbSymbolTable
 70
     0
  0
ENDTAB
  0
TABLE
  2
APPID
  5
9
330
0
100
AcDbSymbolTable
 70
     1
  0
APPID
  5
12
330
9
100
AcDbSymbolTableRecord
100
AcDbRegAppTableRecord
  2
ACAD
 70
     0
  0
ENDTAB
  0
TABLE
  2
DIMSTYLE
  5
A
330
0
100
AcDbSymbolTable
 70
     1
100
AcDbDimStyleTable
  0
DIMSTYLE
105
27
330
A
100
AcDbSymbolTableRecord
100
AcDbDimStyleTableRecord
  2
ISO-25
 70
     0
 41
2.5
 42
0.625
 43
3.75
 44
1.25
 73
     0
 74
     0
 77
     1
 78
     8
140
2.5
141
2.5
143
0.0393700787
147
0.625
171
     3
172
     1
178
     0
271
     2
272
     2
274
     3
278
    44
283
     0
284
     8
340
11
  0
ENDTAB
  0
TABLE
  2
BLOCK_RECORD
  5
1
330
0
100
AcDbSymbolTable
 70
     1
  0
BLOCK_RECORD
  5
1F
330
1
100
AcDbSymbolTableRecord
100
AcDbBlockTableRecord
  2
*Model_Space
340
22
  0
BLOCK_RECORD
  5
1B
330
1
100
AcDbSymbolTableRecord
100
AcDbBlockTableRecord
  2
*Paper_Space
340
1E
  0
BLOCK_RECORD
  5
23
330
1
100
AcDbSymbolTableRecord
100
AcDbBlockTableRecord
  2
*Paper_Space0
340
26
  0
ENDTAB
  0
ENDSEC
  0
SECTION
  2
BLOCKS
  0
BLOCK
  5
20
330
1F
100
AcDbEntity
  8
0
100
AcDbBlockBegin
  2
*Model_Space
 70
     0
 10
0.0
 20
0.0
 30
0.0
  3
*Model_Space
  1

  0
ENDBLK
  5
21
330
1F
100
AcDbEntity
  8
0
100
AcDbBlockEnd
  0
BLOCK
  5
1C
330
1B
100
AcDbEntity
 67
     1
  8
0
100
AcDbBlockBegin
  2
*Paper_Space
 70
     0
 10
0.0
 20
0.0
 30
0.0
  3
*Paper_Space
  1

  0
ENDBLK
  5
1D
330
1B
100
AcDbEntity
 67
     1
  8
0
100
AcDbBlockEnd
  0
BLOCK
  5
24
330
23
100
AcDbEntity
  8
0
100
AcDbBlockBegin
  2
*Paper_Space0
 70
     0
 10
0.0
 20
0.0
 30
0.0
  3
*Paper_Space0
  1

  0
ENDBLK
  5
25
330
23
100
AcDbEntity
  8
0
100
AcDbBlockEnd
  0
ENDSEC
  0
SECTION
  2
ENTITIES
  0
LINE
  5
47
330
1F
100
AcDbEntity
  8
0
  6
Continuous
 62
     7
370
    15
100
AcDbLine
 10
641.5897835418
 20
566.5920585407
 30
0.0
 11
245.6897835418
 21
566.5920585407
 31
0.0
  0
LINE
  5
48
330
1F
100
AcDbEntity
  8
0
  6
Continuous
 62
     7
370
    15
100
AcDbLine
 10
447.6397835418
 20
338.7749288538
 30
0.0
 11
447.6397835418
 21
339.2749288538
 31
0.0
  0
LINE
  5
49
330
1F
100
AcDbEntity
  8
0
  6
Continuous
 62
     7
370
    15
100
AcDbLine
 10
439.6397835418
 20
339.2749288538
 30
0.0
 11
439.6397835418
 21
338.7749288538
 31
0.0
  0
LINE
  5
4A
330
1F
100
AcDbEntity
  8
0
  6
Continuous
 62
     7
370
    15
100
AcDbLine
 10
629.8397835418
 20
338.7749288538
 30
0.0
 11
629.8397835418
 21
339.2749288538
 31
0.0
  0
LINE
  5
4B
330
1F
100
AcDbEntity
  8
0
  6
Continuous
 62
     7
370
    15
100
AcDbLine
 10
621.8397835418
 20
339.2749288538
 30
0.0
 11
621.8397835418
 21
338.7749288538
 31
0.0
  0
LINE
  5
4C
330
1F
100
AcDbEntity
  8
0
  6
Continuous
 62
     7
370
    15
100
AcDbLine
 10
265.4397835418
 20
338.7749288538
 30
0.0
 11
265.4397835418
 21
339.2749288538
 31
0.0
  0
LINE
  5
4D
330
1F
100
AcDbEntity
  8
0
  6
Continuous
 62
     7
370
    15
100
AcDbLine
 10
257.4397835418
 20
339.2749288538
 30
0.0
 11
257.4397835418
 21
338.7749288538
 31
0.0
  0
LINE
  5
4E
330
1F
100
AcDbEntity
  8
0
  6
Continuous
 62
     7
370
    15
100
AcDbLine
 10
415.6397835418
 20
374.9246854313
 30
0.0
 11
415.6397835418
 21
374.9152885051
 31
0.0
  0
LINE
  5
4F
330
1F
100
AcDbEntity
  8
0
  6
Continuous
 62
     7
370
    15
100
AcDbLine
 10
419.6397835418
 20
374.9152885051
 30
0.0
 11
419.6397835418
 21
374.9246854313
 31
0.0
  0
LINE
  5
50
330
1F
100
AcDbEntity
  8
0
  6
Continuous
 62
     7
370
    15
100
AcDbLine
 10
517.6397835418
 20
375.9507458613
 30
0.0
 11
517.6397835418
 21
375.9413489351
 31
0.0
  0
LINE
  5
51
330
1F
100
AcDbEntity
  8
0
  6
Continuous
 62
     7
370
    15
100
AcDbLine
 10
521.6397835418
 20
375.9413489351
 30
0.0
 11
521.6397835418
 21
375.9507458613
 31
0.0
  0
LINE
  5
52
330
1F
100
AcDbEntity
  8
0
  6
Continuous
 62
     7
370
    15
100
AcDbLine
 10
464.27049622
 20
467.767989855
 30
0.0
 11
464.530578972
 21
461.562603381
 31
0.0
  0
LINE
  5
53
330
1F
100
AcDbEntity
  8
0
  6
Continuous
 62
     7
370
    15
100
AcDbLine
 10
470.7489881117
 20
461.562603381
 30
0.0
 11
471.0090708637
 21
467.767989855
 31
0.0
  0
LINE
  5
54
330
1F
100
AcDbEntity
  8
0
  6
Continuous
 62
     7
370
    15
100
AcDbLine
 10
434.8397835418
 20
463.462603381
 30
0.0
 11
434.8397835418
 21
461.562603381
 31
0.0
  0
LINE
  5
55
330
1F
100
AcDbEntity
  8
0
  6
Continuous
 62
     7
370
    15
100
AcDbLine
 10
452.4397835418
 20
461.562603381
 30
0.0
 11
452.4397835418
 21
463.462603381
 31
0.0
  0
LINE
  5
56
330
1F
100
AcDbEntity
  8
0
  6
Continuous
 62
     7
370
    15
100
AcDbLine
 10
412.77049622
 20
467.767989855
 30
0.0
 11
413.030578972
 21
461.562603381
 31
0.0
  0
LINE
  5
57
330
1F
100
AcDbEntity
  8
0
  6
Continuous
 62
     7
370
    15
100
AcDbLine
 10
419.2489881117
 20
461.562603381
 30
0.0
 11
419.5090708637
 21
467.767989855
 31
0.0
  0
LINE
  5
58
330
1F
100
AcDbEntity
  8
0
  6
Continuous
 62
     7
370
    15
100
AcDbLine
 10
463.906827105
 20
467.767989855
 30
0.0
 11
464.166909857
 21
461.562603381
 31
0.0
  0
LINE
  5
59
330
1F
100
AcDbEntity
  8
0
  6
Continuous
 62
     7
370
    15
100
AcDbLine
 10
419.665692306
 20
461.562603381
 30
0.0
 11
419.925775058
 21
467.767989855
 31
0.0
  0
ARC
  5
5A
330
1F
100
AcDbEntity
  8
0
  6
Continuous
 62
     7
370
    15
100
AcDbCircle
 10
403.2192363853
 20
416.855904636
 30
0.0
 40
1.00000000000006
100
AcDbArc
 50
10.1748274734
 51
14.9118295118
  0
ARC
  5
5B
330
1F
100
AcDbEntity
  8
0
  6
Continuous
 62
     7
370
    15
100
AcDbCircle
 10
381.9497639781
 20
416.9277397417
 30
0.0
 40
1.000000000000022
100
AcDbArc
 50
164.6630759336
 51
169.5715792993
  0
SPLINE
  5
5C
330
1F
100
AcDbEntity
  8
0
  6
Continuous
 62
     7
370
    15
100
AcDbSpline
210
0.0
220
0.0
230
1.0
 70
     8
 71
     3
 72
    14
 73
    10
 74
     0
 42
0.00000001
 43
0.00000001
 12
1.0
 22
0.0
 32
0.0
 13
1.0
 23
0.0
 33
0.0
 40
0.0
 40
0.0
 40
0.0
 40
0.0
 40
0.0110188352258608
 40
0.037051816096899
 40
0.093380351904425
 40
0.2406021940703277
 40
0.5690397141826719
 40
0.870645098846535
 40
1.0
 40
1.0
 40
1.0
 40
1.0
 10
394.209275430767
 20
450.2322488473233
 30
0.0
 10
394.2092261510185
 20
450.23085567485
 30
0.0
 10
394.2090604434692
 20
450.2261710081667
 30
0.0
 10
394.2078290535799
 20
450.2021755333827
 30
0.0
 10
394.2017608552292
 20
450.1320379869034
 30
0.0
 10
394.1719179681881
 20
449.9676598802919
 30
0.0
 10
394.0721427425107
 20
449.74480464306
 30
0.0
 10
393.9251765317101
 20
449.5495776374248
 30
0.0
 10
393.8081225294467
 20
449.4820911160966
 30
0.0
 10
393.7729881808984
 20
449.4618346966935
 30
0.0
  0
ARC
  5
5D
330
1F
100
AcDbEntity
  8
0
  6
Continuous
 62
     7
370
    15
100
AcDbCircle
 10
484.1877046037
 20
416.7744969852
 30
0.0
 40
1.000000000000065
100
AcDbArc
 50
165.5755466987
 51
170.1158070992
  0
ARC
  5
5E
330
1F
100
AcDbEntity
  8
0
  6
Continuous
 62
     7
370
    15
100
AcDbCircle
 10
505.4558575798
 20
417.0109842972
 30
0.0
 40
1.000000000000047
100
AcDbArc
 50
10.719060943
 51
15.8239247012
  0
SPLINE
  5
5F
330
1F
100
AcDbEntity
  8
0
  6
Continuous
 62
     7
370
    15
100
AcDbSpline
210
0.0
220
0.0
230
1.0
 70
     8
 71
     3
 72
    17
 73
    13
 74
     0
 42
0.00000001
 43
0.00000001
 12
1.0
 22
0.0
 32
0.0
 13
1.0
 23
0.0
 33
0.0
 40
0.0
 40
0.0
 40
0.0
 40
0.0
 40
0.122888916391073
 40
0.3398017122719973
 40
0.5225987506877492
 40
0.6715760271138844
 40
0.7830525828340708
 40
0.8362762326735225
 40
0.8698515891931003
 40
0.9011089681253329
 40
0.9455947242043287
 40
1.0
 40
1.0
 40
1.0
 40
1.0
 10
493.4041413221839
 20
449.4166403494881
 30
0.0
 10
493.3634515871318
 20
449.438035040559
 30
0.0
 10
493.2509398810427
 20
449.4971937740963
 30
0.0
 10
493.1176422932809
 20
449.644870942158
 30
0.0
 10
493.0083670129442
 20
449.8180191275468
 30
0.0
 10
492.949076648945
 20
449.9727650942449
 30
0.0
 10
492.9233236114915
 20
450.0867458178624
 30
0.0
 10
492.9143426535866
 20
450.1554457307355
 30
0.0
 10
492.9116597267509
 20
450.1853415161526
 30
0.0
 10
492.9105184469828
 20
450.201812487764
 30
0.0
 10
492.9100122645227
 20
450.2116378774589
 30
0.0
 10
492.910031780067
 20
450.211328426049
 30
0.0
 10
492.9100425166176
 20
450.2111581801835
 30
0.0
  0
LINE
  5
60
330
1F
100
AcDbEntity
  8
0
  6
Continuous
 62
     7
370
    15
100
AcDbLine
 10
463.6397835418
 20
463.462603381
 30
0.0
 11
463.6397835418
 21
467.767989855
 31
0.0
  0
LINE
  5
61
330
1F
100
AcDbEntity
  8
0
  6
Continuous
 62
     7
370
    15
100
AcDbLine
 10
423.6397835418
 20
467.767989855
 30
0.0
 11
423.6397835418
 21
463.462603381
 31
0.0
  0
LINE
  5
62
330
1F
100
AcDbEntity
  8
0
  6
Continuous
 62
     7
370
    15
100
AcDbLine
 10
431.8112966128
 20
463.462603381
 30
0.0
 11
431.8112966128
 21
461.562603381
 31
0.0
  0
LINE
  5
63
330
1F
100
AcDbEntity
  8
0
  6
Continuous
 62
     7
370
    15
100
AcDbLine
 10
274.1397835418
 20
338.7749288538
 30
0.0
 11
274.1397835418
 21
339.2749288538
 31
0.0
  0
LINE
  5
64
330
1F
100
AcDbEntity
  8
0
  6
Continuous
 62
     7
370
    15
100
AcDbLine
 10
613.1397835418
 20
339.2749288538
 30
0.0
 11
613.1397835418
 21
338.7749288538
 31
0.0
  0
LINE
  5
65
330
1F
100
AcDbEntity
  8
0
  6
Continuous
 62
     7
370
    15
100
AcDbLine
 10
438.1397835418
 20
339.2749288538
 30
0.0
 11
438.1397835418
 21
338.7749288538
 31
0.0
  0
LINE
  5
66
330
1F
100
AcDbEntity
  8
0
  6
Continuous
 62
     7
370
    15
100
AcDbLine
 10
449.1397835418
 20
338.7749288538
 30
0.0
 11
449.1397835418
 21
339.2749288538
 31
0.0
  0
LINE
  5
67
330
1F
100
AcDbEntity
  8
0
  6
Continuous
 62
     7
370
    15
100
AcDbLine
 10
291.4897835418
 20
460.162603381
 30
0.0
 11
291.1957293178
 21
459.8685491569
 31
0.0
  0
LINE
  5
68
330
1F
100
AcDbEntity
  8
0
  6
Continuous
 62
     7
370
    15
100
AcDbLine
 10
294.1397835418
 20
460.162603381
 30
0.0
 11
291.4897835418
 21
460.162603381
 31
0.0
  0
SPLINE
  5
69
330
1F
100
AcDbEntity
  8
0
  6
Continuous
 62
     7
370
    15
100
AcDbSpline
210
0.0
220
0.0
230
1.0
 70
     8
 71
     3
 72
    15
 73
    11
 74
     0
 42
0.00000001
 43
0.00000001
 12
1.0
 22
0.0
 32
0.0
 13
1.0
 23
0.0
 33
0.0
 40
0.0
 40
0.0
 40
0.0
 40
0.0
 40
0.005662374751792
 40
0.1183414413228231
 40
0.2273901056648225
 40
0.3558639739136755
 40
0.5113054767661258
 40
0.6804731063278218
 40
0.8531677378560849
 40
1.0
 40
1.0
 40
1.0
 40
1.0
 10
451.6435020926039
 20
519.853743424374
 30
0.0
 10
451.6458771554595
 20
519.8536232242599
 30
0.0
 10
451.695515050138
 20
519.8511110883856
 30
0.0
 10
451.5077695452342
 20
519.8661453722608
 30
0.0
 10
451.0664909239042
 20
519.9899781401596
 30
0.0
 10
450.3838293611253
 20
520.30157863802
 30
0.0
 10
449.6148292710612
 20
520.8759189529234
 30
0.0
 10
448.9234275691032
 20
521.7153337406851
 30
0.0
 10
448.4320172288943
 20
522.6941575931163
 30
0.0
 10
448.3327702381133
 20
523.3892161026621
 30
0.0
 10
448.2871632471027
 20
523.7086164889836
 30
0.0
  0
SPLINE
  5
6A
330
1F
100
AcDbEntity
  8
0
  6
Continuous
 62
     7
370
    15
100
AcDbSpline
210
0.0
220
0.0
230
1.0
 70
     8
 71
     3
 72
    15
 73
    11
 74
     0
 42
0.00000001
 43
0.00000001
 12
1.0
 22
0.0
 32
0.0
 13
1.0
 23
0.0
 33
0.0
 40
0.0
 40
0.0
 40
0.0
 40
0.0
 40
0.052617699695129
 40
0.2296794080904066
 40
0.4107191363800533
 40
0.5685255713133065
 40
0.7043176547585245
 40
0.8220787632374714
 40
0.9258788239506033
 40
1.0
 40
1.0
 40
1.0
 40
1.0
 10
438.9713240294221
 20
523.5858360556953
 30
0.0
 10
438.9643321435448
 20
523.4744546790291
 30
0.0
 10
438.9338121432586
 20
522.988268304231
 30
0.0
 10
438.5949902263705
 20
522.147165362777
 30
0.0
 10
437.9901683494768
 20
521.215285181539
 30
0.0
 10
437.2495817162393
 20
520.5385954875229
 30
0.0
 10
436.5525426282745
 20
520.1278604397708
 30
0.0
 10
436.0090768579291
 20
519.9244793410065
 30
0.0
 10
435.6716546235998
 20
519.8572221224664
 30
0.0
 10
435.6579843124525
 20
519.8566709661043
 30
0.0
 10
435.6522893231547
 20
519.8564413568766
 30
0.0
  0
SPLINE
  5
6B
330
1F
100
AcDbEntity
  8
0
  6
Continuous
 62
     7
370
    15
100
AcDbSpline
210
0.0
220
0.0
230
1.0
 70
     8
 71
     3
 72
    13
 73
     9
 74
     0
 42
0.00000001
 43
0.00000001
 12
1.0
 22
0.0
 32
0.0
 13
1.0
 23
0.0
 33
0.0
 40
0.0
 40
0.0
 40
0.0
 40
0.0
 40
0.2149576250046251
 40
0.4159591892822641
 40
0.5968538770759744
 40
0.7567414501090444
 40
0.8850244458743612
 40
0.9999999999999999
 40
0.9999999999999999
 40
0.9999999999999999
 40
0.9999999999999999
 10
488.7246653936656
 20
522.5822892773748
 30
0.0
 10
488.5648169099708
 20
522.2387519898881
 30
0.0
 10
488.2554980584796
 20
521.5739814724982
 30
0.0
 10
487.5457997096881
 20
520.8092734177991
 30
0.0
 10
486.8142134520968
 20
520.2844972360512
 30
0.0
 10
486.1644799597213
 20
519.9918340593707
 30
0.0
 10
485.7042782963566
 20
519.8727970531035
 30
0.0
 10
485.6145255611764
 20
519.8616263516282
 30
0.0
 10
485.5721041520778
 20
519.8563465471045
 30
0.0
  0
SPLINE
  5
6C
330
1F
100
AcDbEntity
  8
0
  6
Continuous
 62
     7
370
    15
100
AcDbSpline
210
0.0
220
0.0
230
1.0
 70
     8
 71
     3
 72
    14
 73
    10
 74
     0
 42
0.00000001
 43
0.00000001
 12
1.0
 22
0.0
 32
0.0
 13
1.0
 23
0.0
 33
0.0
 40
0.0
 40
0.0
 40
0.0
 40
0.0
 40
0.0182800832713615
 40
0.1244287427114459
 40
0.2475547437557098
 40
0.4217490291346452
 40
0.6077234587379455
 40
0.8068848841340192
 40
1.0
 40
1.0
 40
1.0
 40
1.0
 10
401.7027383199968
 20
519.8559760788975
 30
0.0
 10
401.7080473434635
 20
519.8556816693927
 30
0.0
 10
401.7441847671928
 20
519.8536776848388
 30
0.0
 10
401.5843170782468
 20
519.8688703741254
 30
0.0
 10
401.1382865637052
 20
519.9835014445689
 30
0.0
 10
400.4175141700965
 20
520.3023323226452
 30
0.0
 10
399.6310673800267
 20
520.8977821639031
 30
0.0
 10
398.9294485816579
 20
521.7126004959673
 30
0.0
 10
398.645071099097
 20
522.386844953096
 30
0.0
 10
398.5050739676914
 20
522.7187709868105
 30
0.0
  0
SPLINE
  5
6D
330
1F
100
AcDbEntity
  8
0
  6
Continuous
 62
     7
370
    15
100
AcDbSpline
210
0.0
220
0.0
230
1.0
 70
     8
 71
     3
 72
    14
 73
    10
 74
     0
 42
0.00000001
 43
0.00000001
 12
1.0
 22
0.0
 32
0.0
 13
1.0
 23
0.0
 33
0.0
 40
0.0
 40
0.0
 40
0.0
 40
0.0
 40
0.0141371781968421
 40
0.121505356799062
 40
0.2445104462155585
 40
0.4170626752860822
 40
0.6045508366709709
 40
0.8062609216353089
 40
0.9999999999999999
 40
0.9999999999999999
 40
0.9999999999999999
 40
0.9999999999999999
 10
501.7444372179951
 20
519.8566717516915
 30
0.0
 10
501.7487047932478
 20
519.8564651431552
 30
0.0
 10
501.7853834887089
 20
519.8546893967116
 30
0.0
 10
501.634460586516
 20
519.8672436346293
 30
0.0
 10
501.2065197507441
 20
519.971681234249
 30
0.0
 10
500.4974244427524
 20
520.2701989341127
 30
0.0
 10
499.7101443662559
 20
520.83956103229
 30
0.0
 10
498.9953234324376
 20
521.629862799213
 30
0.0
 10
498.6962809719819
 20
522.2914741748868
 30
0.0
 10
498.5497736176791
 20
522.6156118644942
 30
0.0
  0
SPLINE
  5
6E
330
1F
100
AcDbEntity
  8
0
  6
Continuous
 62
     7
370
    15
100
AcDbSpline
210
0.0
220
0.0
230
1.0
 70
     8
 71
     3
 72
    13
 73
     9
 74
     0
 42
0.00000001
 43
0.00000001
 12
1.0
 22
0.0
 32
0.0
 13
1.0
 23
0.0
 33
0.0
 40
0.0
 40
0.0
 40
0.0
 40
0.0
 40
0.2113568343897274
 40
0.4126153606423323
 40
0.5936663784376811
 40
0.7543322384202269
 40
0.8849556192037605
 40
1.0
 40
1.0
 40
1.0
 40
1.0
 10
388.7330721485026
 20
522.6247580799123
 30
0.0
 10
388.5783303769325
 20
522.283887974127
 30
0.0
 10
388.2762401603222
 20
521.61843401785
 30
0.0
 10
387.5721501323925
 20
520.846983180442
 30
0.0
 10
386.8367332738407
 20
520.3099497476679
 30
0.0
 10
386.175244906599
 20
520.0054773018596
 30
0.0
 10
385.6905220400157
 20
519.8772129058717
 30
0.0
 10
385.5873235867814
 20
519.8640401329337
 30
0.0
 10
385.5389965206856
 20
519.8578714215965
 30
0.0
  0
SPLINE
  5
6F
330
1F
100
AcDbEntity
  8
0
  6
Continuous
 62
     7
370
    15
100
AcDbSpline
210
0.0
220
0.0
230
1.0
 70
     8
 71
     3
 72
    12
 73
     8
 74
     0
 42
0.00000001
 43
0.00000001
 12
1.0
 22
0.0
 32
0.0
 13
1.0
 23
0.0
 33
0.0
 40
0.0
 40
0.0
 40
0.0
 40
0.0
 40
0.1507874795394535
 40
0.3812686953031605
 40
0.6334370498327423
 40
0.9065765791920333
 40
1.0
 40
1.0
 40
1.0
 40
1.0
 10
574.3157522121663
 20
519.8867913142326
 30
0.0
 10
574.1518264802936
 20
519.950505475249
 30
0.0
 10
573.7373374914956
 20
520.1116078102524
 30
0.0
 10
573.0115438062601
 20
520.5736974889248
 30
0.0
 10
572.2858547702733
 20
521.2818979070124
 30
0.0
 10
571.77458809864
 20
521.9705244013588
 30
0.0
 10
571.6105513685022
 20
522.4425346134844
 30
0.0
 10
571.5687444361306
 20
522.5628326650277
 30
0.0
  0
SPLINE
  5
70
330
1F
100
AcDbEntity
  8
0
  6
Continuous
 62
     7
370
    15
100
AcDbSpline
210
0.0
220
0.0
230
1.0
 70
     8
 71
     3
 72
    12
 73
     8
 74
     0
 42
0.00000001
 43
0.00000001
 12
1.0
 22
0.0
 32
0.0
 13
1.0
 23
0.0
 33
0.0
 40
0.0
 40
0.0
 40
0.0
 40
0.0
 40
0.2395484558841426
 40
0.4769961753377325
 40
0.6915395607371903
 40
0.8805547040614627
 40
1.0
 40
1.0
 40
1.0
 40
1.0
 10
315.7320233262011
 20
522.5598340958411
 30
0.0
 10
315.5908017657961
 20
522.2641882783424
 30
0.0
 10
315.3095970970381
 20
521.6754893293929
 30
0.0
 10
314.689994759968
 20
520.9558793805181
 30
0.0
 10
314.0274291576804
 20
520.410128889578
 30
0.0
 10
313.4223299397138
 20
520.0587502918893
 30
0.0
 10
313.0940630800087
 20
519.9350823799593
 30
0.0
 10
312.9669481336058
 20
519.8871943902583
 30
0.0
  0
SPLINE
  5
71
330
1F
100
AcDbEntity
  8
0
  6
Continuous
 62
     7
370
    15
100
AcDbSpline
210
0.0
220
0.0
230
1.0
 70
     8
 71
     3
 72
    20
 73
    16
 74
     0
 42
0.00000001
 43
0.00000001
 12
1.0
 22
0.0
 32
0.0
 13
1.0
 23
0.0
 33
0.0
 40
0.0
 40
0.0
 40
0.0
 40
0.0
 40
0.0345754308410987
 40
0.1205945756479187
 40
0.2066296095656079
 40
0.2926369158916387
 40
0.3785945987876058
 40
0.4644656932547257
 40
0.5501936483572921
 40
0.6357004404118245
 40
0.7208909544173109
 40
0.8056675123405548
 40
0.8899555694205397
 40
0.9737350382089077
 40
1.0
 40
1.0
 40
1.0
 40
1.0
 10
571.5342961145435
 20
522.5525583260933
 30
0.0
 10
571.3624487789913
 20
522.9540999919269
 30
0.0
 10
570.7630677733754
 20
524.3546247465921
 30
0.0
 10
569.5933722875787
 20
526.6494471837086
 30
0.0
 10
567.9685566808364
 20
529.3542476231713
 30
0.0
 10
566.1723855896495
 20
531.8589208250232
 30
0.0
 10
564.2258174296295
 20
534.1434573415006
 30
0.0
 10
562.1440712392252
 20
536.1850625821161
 30
0.0
 10
559.9459976519531
 20
537.9639681041263
 30
0.0
 10
557.6517531528037
 20
539.4623295610168
 30
0.0
 10
555.2835059150948
 20
540.6647227649746
 30
0.0
 10
552.8648299064901
 20
541.5603773545288
 30
0.0
 10
550.4208698552746
 20
542.1374841478046
 30
0.0
 10
548.5300162907121
 20
542.3456783793267
 30
0.0
 10
547.4637605118646
 20
542.3593421638651
 30
0.0
 10
547.2092708739657
 20
542.3626033809655
 30
0.0
  0
SPLINE
  5
72
330
1F
100
AcDbEntity
  8
0
  6
Continuous
 62
     7
370
    15
100
AcDbSpline
210
0.0
220
0.0
230
1.0
 70
     8
 71
     3
 72
    20
 73
    16
 74
     0
 42
0.00000001
 43
0.00000001
 12
1.0
 22
0.0
 32
0.0
 13
1.0
 23
0.0
 33
0.0
 40
0.0
 40
0.0
 40
0.0
 40
0.0
 40
0.046154681572718
 40
0.1291762851080619
 40
0.2124179222426183
 40
0.2960778970489583
 40
0.3802150887732242
 40
0.4648167158502873
 40
0.5498209347618951
 40
0.6351441335272727
 40
0.7207030925666604
 40
0.8064278142647884
 40
0.8922658398936086
 40
0.9781811668628713
 40
1.0
 40
1.0
 40
1.0
 40
1.0
 10
340.0702962097234
 20
542.3626033809655
 30
0.0
 10
339.6228090658523
 20
542.3528638213712
 30
0.0
 10
338.370395986416
 20
542.3256050453573
 30
0.0
 10
336.3045856578668
 20
542.0320851684041
 30
0.0
 10
333.8954829171045
 20
541.3943361165325
 30
0.0
 10
331.5182973479214
 20
540.4472487165667
 30
0.0
 10
329.1928161804406
 20
539.20306404999
 30
0.0
 10
326.9394924154706
 20
537.6698520537128
 30
0.0
 10
324.7791705694402
 20
535.8608653303853
 30
0.0
 10
322.7320415086051
 20
533.7922029641422
 30
0.0
 10
320.8176728772974
 20
531.4827569215341
 30
0.0
 10
319.0523638523412
 20
528.9549511198722
 30
0.0
 10
317.4572679669284
 20
526.2290272838015
 30
0.0
 10
316.3831913454759
 20
524.060920697874
 30
0.0
 10
315.851067532515
 20
522.8075578183361
 30
0.0
 10
315.7432992938078
 20
522.5537208226988
 30
0.0
  0
SPLINE
  5
73
330
1F
100
AcDbEntity
  8
0
  6
Continuous
 62
     7
370
    15
100
AcDbSpline
210
0.0
220
0.0
230
1.0
 70
     8
 71
     3
 72
     9
 73
     5
 74
     0
 42
0.00000001
 43
0.00000001
 12
1.0
 22
0.0
 32
0.0
 13
1.0
 23
0.0
 33
0.0
 40
0.0
 40
0.0
 40
0.0
 40
0.0
 40
0.5000141221696566
 40
1.0
 40
1.0
 40
1.0
 40
1.0
 10
513.7794373187842
 20
540.6446152624749
 30
0.0
 10
513.6810214703384
 20
539.2255562655622
 30
0.0
 10
513.484195332671
 20
536.3875184302406
 30
0.0
 10
513.2840174136276
 20
533.5497148345416
 30
0.0
 10
513.1839312810525
 20
532.1308531126359
 30
0.0
  0
SPLINE
  5
74
330
1F
100
AcDbEntity
  8
0
  6
Continuous
 62
     7
370
    15
100
AcDbSpline
210
0.0
220
0.0
230
1.0
 70
     8
 71
     3
 72
     9
 73
     5
 74
     0
 42
0.00000001
 43
0.00000001
 12
1.0
 22
0.0
 32
0.0
 13
1.0
 23
0.0
 33
0.0
 40
0.0
 40
0.0
 40
0.0
 40
0.0
 40
0.4999858778303449
 40
1.0
 40
1.0
 40
1.0
 40
1.0
 10
374.0956358026367
 20
532.1308531126359
 30
0.0
 10
373.9955496700616
 20
533.5497148345416
 30
0.0
 10
373.7953717510183
 20
536.3875184302406
 30
0.0
 10
373.5985456133509
 20
539.2255562655622
 30
0.0
 10
373.5001297649051
 20
540.6446152624749
 30
0.0
  0
ARC
  5
75
330
1F
100
AcDbEntity
  8
0
  6
Continuous
 62
     7
370
    15
100
AcDbCircle
 10
515.7594548176
 20
540.362603381
 30
0.0
 40
2.0
100
AcDbArc
 50
90.0
 51
171.8968628339
  0
ARC
  5
76
330
1F
100
AcDbEntity
  8
0
  6
Continuous
 62
     7
370
    15
100
AcDbCircle
 10
371.5201122661
 20
540.362603381
 30
0.0
 40
2.0
100
AcDbArc
 50
8.1447798754
 51
90.0
  0
LINE
  5
77
330
1F
100
AcDbEntity
  8
0
  6
Continuous
 62
     7
370
    15
100
AcDbLine
 10
324.817490544
 20
535.8341842331
 30
0.0
 11
324.3648266745
 21
540.5538633745
 31
0.0
  0
LINE
  5
78
330
1F
100
AcDbEntity
  8
0
  6
Continuous
 62
     7
370
    15
100
AcDbLine
 10
562.9152266191
 20
540.5538192748
 30
0.0
 11
562.4598173137
 21
535.8125081273
 31
0.0
  0
ARC
  5
79
330
1F
100
AcDbEntity
  8
0
  6
Continuous
 62
     7
370
    15
100
AcDbCircle
 10
564.9062900565
 20
540.362603381
 30
0.0
 40
2.000000000000034
100
AcDbArc
 50
90.0
 51
174.514303482
  0
ARC
  5
7A
330
1F
100
AcDbEntity
  8
0
  6
Continuous
 62
     7
370
    15
100
AcDbCircle
 10
322.3732715783
 20
540.362603381
 30
0.0
 40
2.0
100
AcDbArc
 50
5.4857177404
 51
90.0
  0
LINE
  5
7B
330
1F
100
AcDbEntity
  8
0
  6
Continuous
 62
     7
370
    15
100
AcDbLine
 10
498.4259254246
 20
522.9888328628
 30
0.0
 11
498.3677277334
 21
523.2028979476
 31
0.0
  0
LINE
  5
7C
330
1F
100
AcDbEntity
  8
0
  6
Continuous
 62
     7
370
    15
100
AcDbLine
 10
488.9929269727
 20
523.519885102
 30
0.0
 11
488.7402482612
 21
522.4861359635
 31
0.0
  0
LINE
  5
7D
330
1F
100
AcDbEntity
  8
0
  6
Continuous
 62
     7
370
    15
100
AcDbLine
 10
603.6397835418
 20
66.062603381
 30
0.0
 11
603.6397835418
 21
70.062603381
 31
0.0
  0
LINE
  5
7E
330
1F
100
AcDbEntity
  8
0
  6
Continuous
 62
     7
370
    15
100
AcDbLine
 10
546.6397835418
 20
70.062603381
 30
0.0
 11
546.6397835418
 21
66.062603381
 31
0.0
  0
ARC
  5
7F
330
1F
100
AcDbEntity
  8
0
  6
Continuous
 62
     7
370
    15
100
AcDbCircle
 10
601.6397835418
 20
66.062603381
 30
0.0
 40
2.0
100
AcDbArc
 50
270.0
 51
0.0
  0
ARC
  5
80
330
1F
100
AcDbEntity
  8
0
  6
Continuous
 62
     7
370
    15
100
AcDbCircle
 10
548.6397835418
 20
66.062603381
 30
0.0
 40
2.0
100
AcDbArc
 50
180.0
 51
270.0
  0
LINE
  5
81
330
1F
100
AcDbEntity
  8
0
  6
Continuous
 62
     7
370
    15
100
AcDbLine
 10
340.6397835418
 20
66.062603381
 30
0.0
 11
340.6397835418
 21
70.062603381
 31
0.0
  0
LINE
  5
82
330
1F
100
AcDbEntity
  8
0
  6
Continuous
 62
     7
370
    15
100
AcDbLine
 10
283.6397835418
 20
70.062603381
 30
0.0
 11
283.6397835418
 21
66.062603381
 31
0.0
  0
ARC
  5
83
330
1F
100
AcDbEntity
  8
0
  6
Continuous
 62
     7
370
    15
100
AcDbCircle
 10
338.6397835418
 20
66.062603381
 30
0.0
 40
2.0
100
AcDbArc
 50
270.0
 51
0.0
  0
ARC
  5
84
330
1F
100
AcDbEntity
  8
0
  6
Continuous
 62
     7
370
    15
100
AcDbCircle
 10
285.6397835418
 20
66.062603381
 30
0.0
 40
2.0
100
AcDbArc
 50
180.0
 51
270.0
  0
LINE
  5
85
330
1F
100
AcDbEntity
  8
0
  6
Continuous
 62
     7
370
    15
100
AcDbLine
 10
340.4397835418
 20
70.062603381
 30
0.0
 11
340.4397835418
 21
118.062603381
 31
0.0
  0
LINE
  5
86
330
1F
100
AcDbEntity
  8
0
  6
Continuous
 62
     7
370
    15
100
AcDbLine
 10
283.8397835418
 20
118.062603381
 30
0.0
 11
283.8397835418
 21
70.062603381
 31
0.0
  0
LINE
  5
87
330
1F
100
AcDbEntity
  8
0
  6
Continuous
 62
     7
370
    15
100
AcDbLine
 10
603.4397835418
 20
70.062603381
 30
0.0
 11
603.4397835418
 21
118.062603381
 31
0.0
  0
LINE
  5
88
330
1F
100
AcDbEntity
  8
0
  6
Continuous
 62
     7
370
    15
100
AcDbLine
 10
546.8397835418
 20
118.062603381
 30
0.0
 11
546.8397835418
 21
70.062603381
 31
0.0
  0
ARC
  5
89
330
1F
100
AcDbEntity
  8
0
  6
Continuous
 62
     7
370
    15
100
AcDbCircle
 10
345.5397835418
 20
210.562603381
 30
0.0
 40
1.5
100
AcDbArc
 50
90.0
 51
180.0
  0
ARC
  5
8A
330
1F
100
AcDbEntity
  8
0
  6
Continuous
 62
     7
370
    15
100
AcDbCircle
 10
278.7397835418
 20
210.562603381
 30
0.0
 40
1.5
100
AcDbArc
 50
0.0
 51
90.0
  0
ARC
  5
8B
330
1F
100
AcDbEntity
  8
0
  6
Continuous
 62
     7
370
    15
100
AcDbCircle
 10
339.3397835418
 20
124.0951693266
 30
0.0
 40
4.700000000000007
100
AcDbArc
 50
350.5402980318
 51
0.0
  0
ARC
  5
8C
330
1F
100
AcDbEntity
  8
0
  6
Continuous
 62
     7
370
    15
100
AcDbCircle
 10
284.9397835418
 20
124.0951693266
 30
0.0
 40
4.699999999999989
100
AcDbArc
 50
180.0
 51
189.4597019682
  0
LINE
  5
8D
330
1F
100
AcDbEntity
  8
0
  6
Continuous
 62
     7
370
    15
100
AcDbLine
 10
344.0397835418
 20
124.0951693266
 30
0.0
 11
344.0397835418
 21
210.562603381
 31
0.0
  0
LINE
  5
8E
330
1F
100
AcDbEntity
  8
0
  6
Continuous
 62
     7
370
    15
100
AcDbLine
 10
280.2397835418
 20
210.562603381
 30
0.0
 11
280.2397835418
 21
124.0951693266
 31
0.0
  0
LINE
  5
8F
330
1F
100
AcDbEntity
  8
0
  6
Continuous
 62
     7
370
    15
100
AcDbLine
 10
280.3036967688
 20
123.3227061021
 30
0.0
 11
281.1801333215
 21
118.062603381
 31
0.0
  0
LINE
  5
90
330
1F
100
AcDbEntity
  8
0
  6
Continuous
 62
     7
370
    15
100
AcDbLine
 10
343.0994337622
 20
118.062603381
 30
0.0
 11
343.9758703148
 21
123.3227061021
 31
0.0
  0
ARC
  5
91
330
1F
100
AcDbEntity
  8
0
  6
Continuous
 62
     7
370
    15
100
AcDbCircle
 10
608.5397835418
 20
210.562603381
 30
0.0
 40
1.500000000000114
100
AcDbArc
 50
90.0
 51
180.0
  0
ARC
  5
92
330
1F
100
AcDbEntity
  8
0
  6
Continuous
 62
     7
370
    15
100
AcDbCircle
 10
541.7397835418
 20
210.562603381
 30
0.0
 40
1.5
100
AcDbArc
 50
0.0
 51
90.0
  0
LINE
  5
93
330
1F
100
AcDbEntity
  8
0
  6
Continuous
 62
     7
370
    15
100
AcDbLine
 10
607.0397835418
 20
124.0951693266
 30
0.0
 11
607.0397835418
 21
210.562603381
 31
0.0
  0
LINE
  5
94
330
1F
100
AcDbEntity
  8
0
  6
Continuous
 62
     7
370
    15
100
AcDbLine
 10
543.2397835418
 20
210.562603381
 30
0.0
 11
543.2397835418
 21
124.0951693266
 31
0.0
  0
ARC
  5
95
330
1F
100
AcDbEntity
  8
0
  6
Continuous
 62
     7
370
    15
100
AcDbCircle
 10
602.3397835418
 20
124.0951693266
 30
0.0
 40
4.700000000000007
100
AcDbArc
 50
350.5402980318
 51
0.0
  0
ARC
  5
96
330
1F
100
AcDbEntity
  8
0
  6
Continuous
 62
     7
370
    15
100
AcDbCircle
 10
547.9397835418
 20
124.0951693266
 30
0.0
 40
4.700000000000045
100
AcDbArc
 50
180.0
 51
189.4597019682
  0
LINE
  5
97
330
1F
100
AcDbEntity
  8
0
  6
Continuous
 62
     7
370
    15
100
AcDbLine
 10
543.3036967688
 20
123.3227061021
 30
0.0
 11
544.1801333215
 21
118.062603381
 31
0.0
  0
LINE
  5
98
330
1F
100
AcDbEntity
  8
0
  6
Continuous
 62
     7
370
    15
100
AcDbLine
 10
606.0994337622
 20
118.062603381
 30
0.0
 11
606.9758703148
 21
123.3227061021
 31
0.0
  0
LINE
  5
99
330
1F
100
AcDbEntity
  8
0
  6
Continuous
 62
     7
370
    15
100
AcDbLine
 10
642.8397835418
 20
532.6794286815
 30
0.0
 11
642.8397835418
 21
516.562603381
 31
0.0
  0
LINE
  5
9A
330
1F
100
AcDbEntity
  8
0
  6
Continuous
 62
     7
370
    15
100
AcDbLine
 10
642.8397835418
 20
516.562603381
 30
0.0
 11
642.4397835418
 21
516.562603381
 31
0.0
  0
LINE
  5
9B
330
1F
100
AcDbEntity
  8
0
  6
Continuous
 62
     7
370
    15
100
AcDbLine
 10
244.8397835418
 20
516.562603381
 30
0.0
 11
244.4397835418
 21
516.562603381
 31
0.0
  0
LINE
  5
9C
330
1F
100
AcDbEntity
  8
0
  6
Continuous
 62
     7
370
    15
100
AcDbLine
 10
244.4397835418
 20
532.6794286815
 30
0.0
 11
244.4397835418
 21
516.562603381
 31
0.0
  0
LINE
  5
9D
330
1F
100
AcDbEntity
  8
0
  6
Continuous
 62
     7
370
    15
100
AcDbLine
 10
642.8397835418
 20
557.6003149998
 30
0.0
 11
642.8397835418
 21
532.6794286815
 31
0.0
  0
LINE
  5
9E
330
1F
100
AcDbEntity
  8
0
  6
Continuous
 62
     7
370
    15
100
AcDbLine
 10
244.4397835418
 20
557.6003149998
 30
0.0
 11
244.4397835418
 21
532.6794286815
 31
0.0
  0
LINE
  5
9F
330
1F
100
AcDbEntity
  8
0
  6
Continuous
 62
     7
370
    15
100
AcDbLine
 10
643.6397835418
 20
556.7309817561
 30
0.0
 11
643.6397835418
 21
532.6794286815
 31
0.0
  0
LINE
  5
A0
330
1F
100
AcDbEntity
  8
0
  6
Continuous
 62
     7
370
    15
100
AcDbLine
 10
643.6397835418
 20
532.6794286815
 30
0.0
 11
643.6397835418
 21
516.6710902568
 31
0.0
  0
LINE
  5
A1
330
1F
100
AcDbEntity
  8
0
  6
Continuous
 62
     7
370
    15
100
AcDbLine
 10
643.6397835418
 20
516.6710902568
 30
0.0
 11
642.8397835418
 21
516.6710902568
 31
0.0
  0
LINE
  5
A2
330
1F
100
AcDbEntity
  8
0
  6
Continuous
 62
     7
370
    15
100
AcDbLine
 10
243.6397835418
 20
556.7309817561
 30
0.0
 11
243.6397835418
 21
532.6794286815
 31
0.0
  0
LINE
  5
A3
330
1F
100
AcDbEntity
  8
0
  6
Continuous
 62
     7
370
    15
100
AcDbLine
 10
243.6397835418
 20
516.6710902568
 30
0.0
 11
244.4397835418
 21
516.6710902568
 31
0.0
  0
LINE
  5
A4
330
1F
100
AcDbEntity
  8
0
  6
Continuous
 62
     7
370
    15
100
AcDbLine
 10
243.6397835418
 20
532.6794286815
 30
0.0
 11
243.6397835418
 21
516.6710902568
 31
0.0
  0
LINE
  5
A5
330
1F
100
AcDbEntity
  8
0
  6
Continuous
 62
     7
370
    15
100
AcDbLine
 10
245.6897835418
 20
566.5222064846
 30
0.0
 11
244.4397835418
 21
566.5222064846
 31
0.0
  0
LINE
  5
A6
330
1F
100
AcDbEntity
  8
0
  6
Continuous
 62
     7
370
    15
100
AcDbLine
 10
642.8397835418
 20
566.5222064846
 30
0.0
 11
641.5897835418
 21
566.5222064846
 31
0.0
  0
LINE
  5
A7
330
1F
100
AcDbEntity
  8
0
  6
Continuous
 62
     7
370
    15
100
AcDbLine
 10
642.8397835418
 20
566.5222064846
 30
0.0
 11
642.8397835418
 21
557.6003149998
 31
0.0
  0
LINE
  5
A8
330
1F
100
AcDbEntity
  8
0
  6
Continuous
 62
     7
370
    15
100
AcDbLine
 10
244.4397835418
 20
566.5222064846
 30
0.0
 11
244.4397835418
 21
557.6003149998
 31
0.0
  0
LINE
  5
A9
330
1F
100
AcDbEntity
  8
0
  6
Continuous
 62
     7
370
    15
100
AcDbLine
 10
643.6397835418
 20
565.6191432863
 30
0.0
 11
642.8397835418
 21
565.6191432863
 31
0.0
  0
LINE
  5
AA
330
1F
100
AcDbEntity
  8
0
  6
Continuous
 62
     7
370
    15
100
AcDbLine
 10
643.6397835418
 20
565.6191432863
 30
0.0
 11
643.6397835418
 21
556.7309817561
 31
0.0
  0
LINE
  5
AB
330
1F
100
AcDbEntity
  8
0
  6
Continuous
 62
     7
370
    15
100
AcDbLine
 10
243.6397835418
 20
565.6191432863
 30
0.0
 11
244.4397835418
 21
565.6191432863
 31
0.0
  0
LINE
  5
AC
330
1F
100
AcDbEntity
  8
0
  6
Continuous
 62
     7
370
    15
100
AcDbLine
 10
243.6397835418
 20
565.6191432863
 30
0.0
 11
243.6397835418
 21
556.7309817561
 31
0.0
  0
LINE
  5
AD
330
1F
100
AcDbEntity
  8
0
  6
Continuous
 62
     7
370
    15
100
AcDbLine
 10
641.5897835418
 20
566.5920585407
 30
0.0
 11
641.5897835418
 21
566.5222064846
 31
0.0
  0
LINE
  5
AE
330
1F
100
AcDbEntity
  8
0
  6
Continuous
 62
     7
370
    15
100
AcDbLine
 10
245.6897835418
 20
566.5222064846
 30
0.0
 11
245.6897835418
 21
566.5920585407
 31
0.0
  0
LINE
  5
AF
330
1F
100
AcDbEntity
  8
0
  6
Continuous
 62
     7
370
    15
100
AcDbLine
 10
641.5897835418
 20
336.7249288538
 30
0.0
 11
643.6397835418
 21
336.7249288538
 31
0.0
  0
LINE
  5
B0
330
1F
100
AcDbEntity
  8
0
  6
Continuous
 62
     7
370
    15
100
AcDbLine
 10
643.6397835418
 20
215.8249288538
 30
0.0
 11
643.6397835418
 21
336.7249288538
 31
0.0
  0
LINE
  5
B1
330
1F
100
AcDbEntity
  8
0
  6
Continuous
 62
     7
370
    15
100
AcDbLine
 10
643.6397835418
 20
215.8249288538
 30
0.0
 11
641.5897835418
 21
215.8249288538
 31
0.0
  0
LINE
  5
B2
330
1F
100
AcDbEntity
  8
0
  6
Continuous
 62
     7
370
    15
100
AcDbLine
 10
243.6397835418
 20
336.7249288538
 30
0.0
 11
245.6897835418
 21
336.7249288538
 31
0.0
  0
LINE
  5
B3
330
1F
100
AcDbEntity
  8
0
  6
Continuous
 62
     7
370
    15
100
AcDbLine
 10
245.6897835418
 20
215.8249288538
 30
0.0
 11
243.6397835418
 21
215.8249288538
 31
0.0
  0
LINE
  5
B4
330
1F
100
AcDbEntity
  8
0
  6
Continuous
 62
     7
370
    15
100
AcDbLine
 10
243.6397835418
 20
336.7249288538
 30
0.0
 11
243.6397835418
 21
215.8249288538
 31
0.0
  0
LINE
  5
B5
330
1F
100
AcDbEntity
  8
0
  6
Continuous
 62
     7
370
    15
100
AcDbLine
 10
641.5897835418
 20
215.8249288538
 30
0.0
 11
641.5897835418
 21
213.7749288538
 31
0.0
  0
LINE
  5
B6
330
1F
100
AcDbEntity
  8
0
  6
Continuous
 62
     7
370
    15
100
AcDbLine
 10
245.6897835418
 20
213.7749288538
 30
0.0
 11
641.5897835418
 21
213.7749288538
 31
0.0
  0
LINE
  5
B7
330
1F
100
AcDbEntity
  8
0
  6
Continuous
 62
     7
370
    15
100
AcDbLine
 10
245.6897835418
 20
213.7749288538
 30
0.0
 11
245.6897835418
 21
215.8249288538
 31
0.0
  0
LINE
  5
B8
330
1F
100
AcDbEntity
  8
0
  6
Continuous
 62
     7
370
    15
100
AcDbLine
 10
245.76049422
 20
338.7749288538
 30
0.0
 11
245.6897835418
 21
336.7249288538
 31
0.0
  0
LINE
  5
B9
330
1F
100
AcDbEntity
  8
0
  6
Continuous
 62
     7
370
    15
100
AcDbLine
 10
245.76049422
 20
338.7749288538
 30
0.0
 11
641.5190728638
 21
338.7749288538
 31
0.0
  0
LINE
  5
BA
330
1F
100
AcDbEntity
  8
0
  6
Continuous
 62
     7
370
    15
100
AcDbLine
 10
641.5897835418
 20
336.7249288538
 30
0.0
 11
641.5190728638
 21
338.7749288538
 31
0.0
  0
SPLINE
  5
BB
330
1F
100
AcDbEntity
  8
0
  6
Continuous
 62
     7
370
    15
100
AcDbSpline
210
0.0
220
0.0
230
1.0
 70
     8
 71
     3
 72
    11
 73
     7
 74
     0
 42
0.00000001
 43
0.00000001
 12
1.0
 22
0.0
 32
0.0
 13
1.0
 23
0.0
 33
0.0
 40
0.0
 40
0.0
 40
0.0
 40
0.0
 40
0.2500000000000026
 40
0.5000000000000123
 40
0.7500000000000114
 40
0.9999999999999999
 40
0.9999999999999999
 40
0.9999999999999999
 40
0.9999999999999999
 10
643.6397835418421
 20
215.8249288538363
 30
0.0
 10
643.6089688176279
 20
215.5563029140338
 30
0.0
 10
643.5473393691993
 20
215.0190510344287
 30
0.0
 10
643.0732784822983
 20
214.3414339133808
 30
0.0
 10
642.3956613612498
 20
213.8673730264807
 30
0.0
 10
641.8584094816448
 20
213.8057435780527
 30
0.0
 10
641.5897835418423
 20
213.7749288538387
 30
0.0
  0
SPLINE
  5
BC
330
1F
100
AcDbEntity
  8
0
  6
Continuous
 62
     7
370
    15
100
AcDbSpline
210
0.0
220
0.0
230
1.0
 70
     8
 71
     3
 72
    11
 73
     7
 74
     0
 42
0.00000001
 43
0.00000001
 12
1.0
 22
0.0
 32
0.0
 13
1.0
 23
0.0
 33
0.0
 40
0.0
 40
0.0
 40
0.0
 40
0.0
 40
0.2500000000000059
 40
0.5000000000000033
 40
0.7500000000000083
 40
1.0
 40
1.0
 40
1.0
 40
1.0
 10
642.8397835418423
 20
215.8249288538373
 30
0.0
 10
642.8209940758578
 20
215.6611325490796
 30
0.0
 10
642.7834151438892
 20
215.3335399395643
 30
0.0
 10
642.4943536274861
 20
214.9203587681937
 30
0.0
 10
642.0811724561153
 20
214.6312972517911
 30
0.0
 10
641.7535798465999
 20
214.5937183198228
 30
0.0
 10
641.5897835418422
 20
214.5749288538387
 30
0.0
  0
SPLINE
  5
BD
330
1F
100
AcDbEntity
  8
0
  6
Continuous
 62
     7
370
    15
100
AcDbSpline
210
0.0
220
0.0
230
1.0
 70
     8
 71
     3
 72
    11
 73
     7
 74
     0
 42
0.00000001
 43
0.00000001
 12
1.0
 22
0.0
 32
0.0
 13
1.0
 23
0.0
 33
0.0
 40
0.0
 40
0.0
 40
0.0
 40
0.0
 40
0.2500000000000048
 40
0.5000000000000006
 40
0.7499999999999972
 40
1.0
 40
1.0
 40
1.0
 40
1.0
 10
245.6897835418434
 20
213.7749288538386
 30
0.0
 10
245.4211576020404
 20
213.8057435780525
 30
0.0
 10
244.8839057224346
 20
213.8673730264803
 30
0.0
 10
244.2062886013854
 20
214.341433913381
 30
0.0
 10
243.7322277144841
 20
215.0190510344299
 30
0.0
 10
243.670598266056
 20
215.5563029140357
 30
0.0
 10
243.639783541842
 20
215.8249288538387
 30
0.0
  0
SPLINE
  5
BE
330
1F
100
AcDbEntity
  8
0
  6
Continuous
 62
     7
370
    15
100
AcDbSpline
210
0.0
220
0.0
230
1.0
 70
     8
 71
     3
 72
    11
 73
     7
 74
     0
 42
0.00000001
 43
0.00000001
 12
1.0
 22
0.0
 32
0.0
 13
1.0
 23
0.0
 33
0.0
 40
0.0
 40
0.0
 40
0.0
 40
0.0
 40
0.2499999999999918
 40
0.4999999999999971
 40
0.7499999999999869
 40
1.0
 40
1.0
 40
1.0
 40
1.0
 10
245.6897835418428
 20
214.5749288538387
 30
0.0
 10
245.5259872370849
 20
214.5937183198227
 30
0.0
 10
245.1983946275692
 20
214.6312972517908
 30
0.0
 10
244.7852134561977
 20
214.9203587681938
 30
0.0
 10
244.4961519397945
 20
215.333539939565
 30
0.0
 10
244.4585730078261
 20
215.6611325490808
 30
0.0
 10
244.439783541842
 20
215.8249288538387
 30
0.0
  0
SPLINE
  5
BF
330
1F
100
AcDbEntity
  8
0
  6
Continuous
 62
     7
370
    15
100
AcDbSpline
210
0.0
220
0.0
230
1.0
 70
     8
 71
     3
 72
    11
 73
     7
 74
     0
 42
0.00000001
 43
0.00000001
 12
1.0
 22
0.0
 32
0.0
 13
1.0
 23
0.0
 33
0.0
 40
0.0
 40
0.0
 40
0.0
 40
0.0
 40
0.2499999999999971
 40
0.5000000000000011
 40
0.7500000000000021
 40
1.0
 40
1.0
 40
1.0
 40
1.0
 10
641.589783541842
 20
338.7749288538387
 30
0.0
 10
641.8584094816448
 20
338.7441141296247
 30
0.0
 10
642.3956613612504
 20
338.6824846811966
 30
0.0
 10
643.073278482299
 20
338.2084237942957
 30
0.0
 10
643.5473393691998
 20
337.5308066732471
 30
0.0
 10
643.6089688176279
 20
336.9935547936415
 30
0.0
 10
643.6397835418419
 20
336.7249288538388
 30
0.0
  0
LINE
  5
C0
330
1F
100
AcDbEntity
  8
0
  6
Continuous
 62
     7
370
    15
100
AcDbLine
 10
641.5897835418
 20
337.9749288538
 30
0.0
 11
641.5897835418
 21
338.7749288538
 31
0.0
  0
SPLINE
  5
C1
330
1F
100
AcDbEntity
  8
0
  6
Continuous
 62
     7
370
    15
100
AcDbSpline
210
0.0
220
0.0
230
1.0
 70
     8
 71
     3
 72
    11
 73
     7
 74
     0
 42
0.00000001
 43
0.00000001
 12
1.0
 22
0.0
 32
0.0
 13
1.0
 23
0.0
 33
0.0
 40
0.0
 40
0.0
 40
0.0
 40
0.0
 40
0.2500000000000019
 40
0.5000000000000002
 40
0.7500000000000016
 40
0.9999999999999999
 40
0.9999999999999999
 40
0.9999999999999999
 40
0.9999999999999999
 10
641.589783541842
 20
337.9749288538387
 30
0.0
 10
641.7535798465998
 20
337.9561393878546
 30
0.0
 10
642.0811724561153
 20
337.9185604558862
 30
0.0
 10
642.4943536274865
 20
337.6294989394833
 30
0.0
 10
642.7834151438894
 20
337.2163177681121
 30
0.0
 10
642.8209940758578
 20
336.8887251585965
 30
0.0
 10
642.8397835418419
 20
336.7249288538388
 30
0.0
  0
SPLINE
  5
C2
330
1F
100
AcDbEntity
  8
0
  6
Continuous
 62
     7
370
    15
100
AcDbSpline
210
0.0
220
0.0
230
1.0
 70
     8
 71
     3
 72
    11
 73
     7
 74
     0
 42
0.00000001
 43
0.00000001
 12
1.0
 22
0.0
 32
0.0
 13
1.0
 23
0.0
 33
0.0
 40
0.0
 40
0.0
 40
0.0
 40
0.0
 40
0.2499999999999978
 40
0.5000000000000016
 40
0.7500000000000034
 40
0.9999999999999999
 40
0.9999999999999999
 40
0.9999999999999999
 40
0.9999999999999999
 10
243.6397835418419
 20
336.7249288538387
 30
0.0
 10
243.670598266056
 20
336.9935547936415
 30
0.0
 10
243.732227714484
 20
337.5308066732471
 30
0.0
 10
244.2062886013849
 20
338.2084237942958
 30
0.0
 10
244.8839057224336
 20
338.6824846811967
 30
0.0
 10
245.4211576020392
 20
338.7441141296247
 30
0.0
 10
245.689783541842
 20
338.7749288538387
 30
0.0
  0
LINE
  5
C3
330
1F
100
AcDbEntity
  8
0
  6
Continuous
 62
     7
370
    15
100
AcDbLine
 10
245.6897835418
 20
337.9749288538
 30
0.0
 11
245.6897835418
 21
338.7749288538
 31
0.0
  0
SPLINE
  5
C4
330
1F
100
AcDbEntity
  8
0
  6
Continuous
 62
     7
370
    15
100
AcDbSpline
210
0.0
220
0.0
230
1.0
 70
     8
 71
     3
 72
    11
 73
     7
 74
     0
 42
0.00000001
 43
0.00000001
 12
1.0
 22
0.0
 32
0.0
 13
1.0
 23
0.0
 33
0.0
 40
0.0
 40
0.0
 40
0.0
 40
0.0
 40
0.2499999999999989
 40
0.4999999999999977
 40
0.7499999999999917
 40
1.0
 40
1.0
 40
1.0
 40
1.0
 10
244.4397835418419
 20
336.7249288538387
 30
0.0
 10
244.4585730078261
 20
336.8887251585965
 30
0.0
 10
244.4961519397944
 20
337.2163177681121
 30
0.0
 10
244.7852134561974
 20
337.6294989394833
 30
0.0
 10
245.1983946275686
 20
337.9185604558863
 30
0.0
 10
245.5259872370842
 20
337.9561393878546
 30
0.0
 10
245.689783541842
 20
337.9749288538387
 30
0.0
  0
LINE
  5
C5
330
1F
100
AcDbEntity
  8
0
  6
Continuous
 62
     7
370
    15
100
AcDbLine
 10
641.5190728638
 20
338.7749288538
 30
0.0
 11
641.5897835418
 21
338.7749288538
 31
0.0
  0
LINE
  5
C6
330
1F
100
AcDbEntity
  8
0
  6
Continuous
 62
     7
370
    15
100
AcDbLine
 10
641.5466672748
 20
337.9749288538
 30
0.0
 11
641.5897835418
 21
337.9749288538
 31
0.0
  0
LINE
  5
C7
330
1F
100
AcDbEntity
  8
0
  6
Continuous
 62
     7
370
    15
100
AcDbLine
 10
245.6897835418
 20
338.7749288538
 30
0.0
 11
245.76049422
 21
338.7749288538
 31
0.0
  0
LINE
  5
C8
330
1F
100
AcDbEntity
  8
0
  6
Continuous
 62
     7
370
    15
100
AcDbLine
 10
245.6897835418
 20
337.9749288538
 30
0.0
 11
245.732899809
 21
337.9749288538
 31
0.0
  0
LINE
  5
C9
330
1F
100
AcDbEntity
  8
0
  6
Continuous
 62
     7
370
    15
100
AcDbLine
 10
641.5897835418
 20
337.967857786
 30
0.0
 11
641.5469111772
 21
337.967857786
 31
0.0
  0
LINE
  5
CA
330
1F
100
AcDbEntity
  8
0
  6
Continuous
 62
     7
370
    15
100
AcDbLine
 10
245.6897835418
 20
337.967857786
 30
0.0
 11
245.7326559066
 21
337.967857786
 31
0.0
  0
LINE
  5
CB
330
1F
100
AcDbEntity
  8
0
  6
Continuous
 62
     7
370
    15
100
AcDbLine
 10
275.6421073375
 20
303.7749288538
 30
0.0
 11
311.6414287936
 21
303.7749288538
 31
0.0
  0
SPLINE
  5
CC
330
1F
100
AcDbEntity
  8
0
  6
Continuous
 62
     7
370
    15
100
AcDbSpline
210
0.0
220
0.0
230
1.0
 70
     8
 71
     3
 72
    11
 73
     7
 74
     0
 42
0.00000001
 43
0.00000001
 12
1.0
 22
0.0
 32
0.0
 13
1.0
 23
0.0
 33
0.0
 40
0.0
 40
0.0
 40
0.0
 40
0.0
 40
0.2833048031626436
 40
0.5580362635661771
 40
0.7754301448953671
 40
1.0
 40
1.0
 40
1.0
 40
1.0
 10
311.6414287936025
 20
303.7749288538281
 30
0.0
 10
311.9385480775614
 20
303.7359820356931
 30
0.0
 10
312.5237952502285
 20
303.6592670042949
 30
0.0
 10
313.1729310856126
 20
303.1247354153173
 30
0.0
 10
313.5680760844951
 20
302.4733312089102
 30
0.0
 10
313.615623719277
 20
302.0110658827202
 30
0.0
 10
313.6397835418446
 20
301.7761804186773
 30
0.0
  0
LINE
  5
CD
330
1F
100
AcDbEntity
  8
0
  6
Continuous
 62
     7
370
    15
100
AcDbLine
 10
311.6414287936
 20
243.7749288538
 30
0.0
 11
275.6421073375
 21
243.7749288538
 31
0.0
  0
SPLINE
  5
CE
330
1F
100
AcDbEntity
  8
0
  6
Continuous
 62
     7
370
    15
100
AcDbSpline
210
0.0
220
0.0
230
1.0
 70
     8
 71
     3
 72
    11
 73
     7
 74
     0
 42
0.00000001
 43
0.00000001
 12
1.0
 22
0.0
 32
0.0
 13
1.0
 23
0.0
 33
0.0
 40
0.0
 40
0.0
 40
0.0
 40
0.0
 40
0.2832771686238233
 40
0.5580022489005106
 40
0.7754022428539201
 40
1.0
 40
1.0
 40
1.0
 40
1.0
 10
275.6421073374582
 20
243.7749288538281
 30
0.0
 10
275.3449917254601
 20
243.813212686005
 30
0.0
 10
274.7597303700045
 20
243.8886245681379
 30
0.0
 10
274.1095413840897
 20
244.4215632342587
 30
0.0
 10
273.7130034237388
 20
245.071987664156
 30
0.0
 10
273.6644537069576
 20
245.534095593972
 30
0.0
 10
273.6397835418446
 20
245.7689121837351
 30
0.0
  0
SPLINE
  5
CF
330
1F
100
AcDbEntity
  8
0
  6
Continuous
 62
     7
370
    15
100
AcDbSpline
210
0.0
220
0.0
230
1.0
 70
     8
 71
     3
 72
    11
 73
     7
 74
     0
 42
0.00000001
 43
0.00000001
 12
1.0
 22
0.0
 32
0.0
 13
1.0
 23
0.0
 33
0.0
 40
0.0
 40
0.0
 40
0.0
 40
0.0
 40
0.2833534124411277
 40
0.5581116990962652
 40
0.7754835424211707
 40
0.9999999999999999
 40
0.9999999999999999
 40
0.9999999999999999
 40
0.9999999999999999
 10
273.6397835418446
 20
301.7805509741016
 30
0.0
 10
273.679361663879
 20
302.0775995489082
 30
0.0
 10
273.757317361484
 20
302.662686149317
 30
0.0
 10
274.2929835818553
 20
303.3107959197243
 30
0.0
 10
274.945009558028
 20
303.7047013218366
 30
0.0
 10
275.4072501849072
 20
303.7512687035868
 30
0.0
 10
275.6421073374582
 20
303.7749288538281
 30
0.0
  0
LINE
  5
D0
330
1F
100
AcDbEntity
  8
0
  6
Continuous
 62
     7
370
    15
100
AcDbLine
 10
313.6397835418
 20
301.7761804187
 30
0.0
 11
313.6397835418
 21
245.7732836021
 31
0.0
  0
LINE
  5
D1
330
1F
100
AcDbEntity
  8
0
  6
Continuous
 62
     7
370
    15
100
AcDbLine
 10
273.6397835418
 20
245.7689121837
 30
0.0
 11
273.6397835418
 21
301.7805509741
 31
0.0
  0
SPLINE
  5
D2
330
1F
100
AcDbEntity
  8
0
  6
Continuous
 62
     7
370
    15
100
AcDbSpline
210
0.0
220
0.0
230
1.0
 70
     8
 71
     3
 72
    11
 73
     7
 74
     0
 42
0.00000001
 43
0.00000001
 12
1.0
 22
0.0
 32
0.0
 13
1.0
 23
0.0
 33
0.0
 40
0.0
 40
0.0
 40
0.0
 40
0.0
 40
0.2833229682742913
 40
0.5580462786215563
 40
0.7754268978867085
 40
1.0
 40
1.0
 40
1.0
 40
1.0
 10
313.6397835418446
 20
245.7732836020703
 30
0.0
 10
313.6008582804457
 20
245.4761699094171
 30
0.0
 10
313.524189250044
 20
244.8909607697469
 30
0.0
 10
312.9898302849093
 20
244.2417865745527
 30
0.0
 10
312.3385174232228
 20
243.8466264575033
 30
0.0
 10
311.876299095118
 20
243.799085951043
 30
0.0
 10
311.6414287936025
 20
243.7749288538281
 30
0.0
  0
SPLINE
  5
D3
330
1F
100
AcDbEntity
  8
0
  6
Continuous
 62
     7
370
    15
100
AcDbSpline
210
0.0
220
0.0
230
1.0
 70
     8
 71
     3
 72
    13
 73
     9
 74
     0
 42
0.00000001
 43
0.00000001
 12
1.0
 22
0.0
 32
0.0
 13
1.0
 23
0.0
 33
0.0
 40
0.0
 40
0.0
 40
0.0
 40
0.0
 40
0.127569317728525
 40
0.2546459829165837
 40
0.5000146894810322
 40
0.745371761666375
 40
0.8725249485133846
 40
1.0
 40
1.0
 40
1.0
 40
1.0
 10
313.6397835418446
 20
301.7761804186773
 30
0.0
 10
313.6322287526033
 20
301.9093758538348
 30
0.0
 10
313.6171483495225
 20
302.1752523444333
 30
0.0
 10
313.4556414890128
 20
302.675414761686
 30
0.0
 10
313.0888299158721
 20
303.2237378069453
 30
0.0
 10
312.5405351048188
 20
303.5908085279027
 30
0.0
 10
312.0403715304298
 20
303.752220325124
 30
0.0
 10
311.7745217223265
 20
303.767352968085
 30
0.0
 10
311.6414287936025
 20
303.7749288538281
 30
0.0
  0
SPLINE
  5
D4
330
1F
100
AcDbEntity
  8
0
  6
Continuous
 62
     7
370
    15
100
AcDbSpline
210
0.0
220
0.0
230
1.0
 70
     8
 71
     3
 72
    13
 73
     9
 74
     0
 42
0.00000001
 43
0.00000001
 12
1.0
 22
0.0
 32
0.0
 13
1.0
 23
0.0
 33
0.0
 40
0.0
 40
0.0
 40
0.0
 40
0.0
 40
0.1275744813590974
 40
0.2546483440425935
 40
0.5000017710082012
 40
0.7453551979738213
 40
0.8725131741728155
 40
1.0
 40
1.0
 40
1.0
 40
1.0
 10
311.6414287936025
 20
243.7749288538281
 30
0.0
 10
311.7746185415721
 20
243.7824831162727
 30
0.0
 10
312.0404753838074
 20
243.7975619972644
 30
0.0
 10
312.5405802116538
 20
243.9590645025354
 30
0.0
 10
313.0888057867268
 20
244.325895416639
 30
0.0
 10
313.4557434869894
 20
244.8741951648292
 30
0.0
 10
313.6170853877032
 20
245.3743451691459
 30
0.0
 10
313.6322109793747
 20
245.6401896867623
 30
0.0
 10
313.6397835418446
 20
245.7732836020703
 30
0.0
  0
SPLINE
  5
D5
330
1F
100
AcDbEntity
  8
0
  6
Continuous
 62
     7
370
    15
100
AcDbSpline
210
0.0
220
0.0
230
1.0
 70
     8
 71
     3
 72
    13
 73
     9
 74
     0
 42
0.00000001
 43
0.00000001
 12
1.0
 22
0.0
 32
0.0
 13
1.0
 23
0.0
 33
0.0
 40
0.0
 40
0.0
 40
0.0
 40
0.0
 40
0.1275360740474415
 40
0.2545887198592384
 40
0.499941898479791
 40
0.7453299828649783
 40
0.8725055605771209
 40
1.0
 40
1.0
 40
1.0
 40
1.0
 10
275.6421073374582
 20
303.7749288538281
 30
0.0
 10
275.5089448140491
 20
303.7676616099569
 30
0.0
 10
275.243124522644
 20
303.753154668859
 30
0.0
 10
274.7427683440185
 20
303.5926635438825
 30
0.0
 10
274.1938484796669
 20
303.2268841385119
 30
0.0
 10
273.8257852491769
 20
302.6793091482724
 30
0.0
 10
273.6633550821387
 20
302.179462164336
 30
0.0
 10
273.6476472776383
 20
301.9136323156699
 30
0.0
 10
273.6397835418446
 20
301.7805509741016
 30
0.0
  0
SPLINE
  5
D6
330
1F
100
AcDbEntity
  8
0
  6
Continuous
 62
     7
370
    15
100
AcDbSpline
210
0.0
220
0.0
230
1.0
 70
     8
 71
     3
 72
    13
 73
     9
 74
     0
 42
0.00000001
 43
0.00000001
 12
1.0
 22
0.0
 32
0.0
 13
1.0
 23
0.0
 33
0.0
 40
0.0
 40
0.0
 40
0.0
 40
0.0
 40
0.1275872441294426
 40
0.2546759233236601
 40
0.5000487292309082
 40
0.7453982611490056
 40
0.8725397565424708
 40
1.0
 40
1.0
 40
1.0
 40
1.0
 10
273.6397835418446
 20
245.768912183735
 30
0.0
 10
273.6476287133279
 20
245.6357406822832
 30
0.0
 10
273.6632884001938
 20
245.3699180655784
 30
0.0
 10
273.8258747453846
 20
244.8701742324393
 30
0.0
 10
274.1938504331291
 20
244.3227708572178
 30
0.0
 10
274.7428494272716
 20
243.9570180810395
 30
0.0
 10
275.2432368107461
 20
243.7967577428583
 30
0.0
 10
275.5090395715016
 20
243.7822112206666
 30
0.0
 10
275.6421073374582
 20
243.7749288538281
 30
0.0
  0
LINE
  5
D7
330
1F
100
AcDbEntity
  8
0
  6
Continuous
 62
     7
370
    15
100
AcDbLine
 10
638.6397835418
 20
219.7749288538
 30
0.0
 11
638.6397835418
 21
227.7749288538
 31
0.0
  0
ARC
  5
D8
330
1F
100
AcDbEntity
  8
0
  6
Continuous
 62
     7
370
    15
100
AcDbCircle
 10
637.6397835418
 20
219.7749288538
 30
0.0
 40
1.000000000000114
100
AcDbArc
 50
270.0
 51
0.0
  0
LINE
  5
D9
330
1F
100
AcDbEntity
  8
0
  6
Continuous
 62
     7
370
    15
100
AcDbLine
 10
599.6397835418
 20
218.7749288538
 30
0.0
 11
637.6397835418
 21
218.7749288538
 31
0.0
  0
ARC
  5
DA
330
1F
100
AcDbEntity
  8
0
  6
Continuous
 62
     7
370
    15
100
AcDbCircle
 10
599.6397835418
 20
219.7749288538
 30
0.0
 40
1.0
100
AcDbArc
 50
180.0
 51
270.0
  0
LINE
  5
DB
330
1F
100
AcDbEntity
  8
0
  6
Continuous
 62
     7
370
    15
100
AcDbLine
 10
598.6397835418
 20
227.7749288538
 30
0.0
 11
598.6397835418
 21
219.7749288538
 31
0.0
  0
ARC
  5
DC
330
1F
100
AcDbEntity
  8
0
  6
Continuous
 62
     7
370
    15
100
AcDbCircle
 10
599.6397835418
 20
227.7749288538
 30
0.0
 40
1.000000000000114
100
AcDbArc
 50
90.0
 51
180.0
  0
LINE
  5
DD
330
1F
100
AcDbEntity
  8
0
  6
Continuous
 62
     7
370
    15
100
AcDbLine
 10
637.6397835418
 20
228.7749288538
 30
0.0
 11
599.6397835418
 21
228.7749288538
 31
0.0
  0
ARC
  5
DE
330
1F
100
AcDbEntity
  8
0
  6
Continuous
 62
     7
370
    15
100
AcDbCircle
 10
637.6397835418
 20
227.7749288538
 30
0.0
 40
1.000000000000114
100
AcDbArc
 50
0.0
 51
90.0
  0
LINE
  5
DF
330
1F
100
AcDbEntity
  8
0
  6
Continuous
 62
     7
370
    15
100
AcDbLine
 10
643.6397835418
 20
354.8072471524
 30
0.0
 11
643.6397835418
 21
371.8980336415
 31
0.0
  0
LINE
  5
E0
330
1F
100
AcDbEntity
  8
0
  6
Continuous
 62
     7
370
    15
100
AcDbLine
 10
243.6397835418
 20
354.8072471524
 30
0.0
 11
243.6397835418
 21
371.8980336415
 31
0.0
  0
LINE
  5
E1
330
1F
100
AcDbEntity
  8
0
  6
Continuous
 62
     7
370
    15
100
AcDbLine
 10
643.6397835418
 20
340.007214254
 30
0.0
 11
643.6397835418
 21
354.8072471524
 31
0.0
  0
LINE
  5
E2
330
1F
100
AcDbEntity
  8
0
  6
Continuous
 62
     7
370
    15
100
AcDbLine
 10
243.6397835418
 20
340.007214254
 30
0.0
 11
243.6397835418
 21
354.8072471524
 31
0.0
  0
LWPOLYLINE
  5
E3
330
1F
100
AcDbEntity
  8
0
  6
Continuous
 62
     7
370
    15
100
AcDbPolyline
 90
        9
 70
   128
 43
0.0
 10
413.6397835418
 20
378.0028667212
 10
413.2496028978
 20
377.9897230789
 10
412.8744166771
 20
377.9507972548
 10
412.5286430758
 20
377.8875851465
 10
412.2255699795
 20
377.8025159599
 10
411.9768443172
 20
377.698858856
 10
411.7920244768
 20
377.5805973193
 10
411.678212981
 20
377.4522760744
 10
411.6397835418
 20
377.3188264346
  0
LINE
  5
E4
330
1F
100
AcDbEntity
  8
0
  6
Continuous
 62
     7
370
    15
100
AcDbLine
 10
411.6397835418
 20
373.556604858
 30
0.0
 11
411.6397835418
 21
377.3188264346
 31
0.0
  0
LWPOLYLINE
  5
E5
330
1F
100
AcDbEntity
  8
0
  6
Continuous
 62
     7
370
    15
100
AcDbPolyline
 90
        9
 70
   128
 43
0.0
 10
411.6397835418
 20
373.556604858
 10
411.678212981
 20
373.4231552182
 10
411.7920244768
 20
373.2948339732
 10
411.9768443172
 20
373.1765724365
 10
412.2255699795
 20
373.0729153327
 10
412.5286430758
 20
372.9878461461
 10
412.8744166771
 20
372.9246340377
 10
413.2496028978
 20
372.8857082136
 10
413.6397835418
 20
372.8725645713
  0
LINE
  5
E6
330
1F
100
AcDbEntity
  8
0
  6
Continuous
 62
     7
370
    15
100
AcDbLine
 10
421.6397835418
 20
372.8725645713
 30
0.0
 11
413.6397835418
 21
372.8725645713
 31
0.0
  0
LWPOLYLINE
  5
E7
330
1F
100
AcDbEntity
  8
0
  6
Continuous
 62
     7
370
    15
100
AcDbPolyline
 90
        9
 70
   128
 43
0.0
 10
421.6397835418
 20
372.8725645713
 10
422.0299641859
 20
372.8857082136
 10
422.4051504066
 20
372.9246340377
 10
422.7509240079
 20
372.9878461461
 10
423.0539971042
 20
373.0729153327
 10
423.3027227664
 20
373.1765724365
 10
423.4875426069
 20
373.2948339732
 10
423.6013541026
 20
373.4231552182
 10
423.6397835418
 20
373.556604858
  0
LINE
  5
E8
330
1F
100
AcDbEntity
  8
0
  6
Continuous
 62
     7
370
    15
100
AcDbLine
 10
423.6397835418
 20
377.3188264346
 30
0.0
 11
423.6397835418
 21
373.556604858
 31
0.0
  0
LWPOLYLINE
  5
E9
330
1F
100
AcDbEntity
  8
0
  6
Continuous
 62
     7
370
    15
100
AcDbPolyline
 90
        9
 70
   128
 43
0.0
 10
423.6397835418
 20
377.3188264346
 10
423.6013541026
 20
377.4522760744
 10
423.4875426069
 20
377.5805973193
 10
423.3027227664
 20
377.698858856
 10
423.0539971042
 20
377.8025159599
 10
422.7509240079
 20
377.8875851465
 10
422.4051504066
 20
377.9507972548
 10
422.0299641859
 20
377.9897230789
 10
421.6397835418
 20
378.0028667212
  0
LINE
  5
EA
330
1F
100
AcDbEntity
  8
0
  6
Continuous
 62
     7
370
    15
100
AcDbLine
 10
421.6397835418
 20
378.0028667212
 30
0.0
 11
413.6397835418
 21
378.0028667212
 31
0.0
  0
LWPOLYLINE
  5
EB
330
1F
100
AcDbEntity
  8
0
  6
Continuous
 62
     7
370
    15
100
AcDbPolyline
 90
        9
 70
   128
 43
0.0
 10
515.6397835418
 20
378.0028667212
 10
515.2496028978
 20
377.9897230789
 10
514.8744166771
 20
377.9507972548
 10
514.5286430758
 20
377.8875851465
 10
514.2255699795
 20
377.8025159599
 10
513.9768443172
 20
377.698858856
 10
513.7920244768
 20
377.5805973193
 10
513.678212981
 20
377.4522760744
 10
513.6397835418
 20
377.3188264346
  0
LINE
  5
EC
330
1F
100
AcDbEntity
  8
0
  6
Continuous
 62
     7
370
    15
100
AcDbLine
 10
513.6397835418
 20
373.556604858
 30
0.0
 11
513.6397835418
 21
377.3188264346
 31
0.0
  0
LWPOLYLINE
  5
ED
330
1F
100
AcDbEntity
  8
0
  6
Continuous
 62
     7
370
    15
100
AcDbPolyline
 90
        9
 70
   128
 43
0.0
 10
513.6397835418
 20
373.556604858
 10
513.678212981
 20
373.4231552182
 10
513.7920244768
 20
373.2948339732
 10
513.9768443172
 20
373.1765724365
 10
514.2255699795
 20
373.0729153327
 10
514.5286430758
 20
372.9878461461
 10
514.8744166771
 20
372.9246340377
 10
515.2496028978
 20
372.8857082136
 10
515.6397835418
 20
372.8725645713
  0
LINE
  5
EE
330
1F
100
AcDbEntity
  8
0
  6
Continuous
 62
     7
370
    15
100
AcDbLine
 10
523.6397835418
 20
372.8725645713
 30
0.0
 11
515.6397835418
 21
372.8725645713
 31
0.0
  0
LWPOLYLINE
  5
EF
330
1F
100
AcDbEntity
  8
0
  6
Continuous
 62
     7
370
    15
100
AcDbPolyline
 90
        9
 70
   128
 43
0.0
 10
523.6397835418
 20
372.8725645713
 10
524.0299641859
 20
372.8857082136
 10
524.4051504066
 20
372.9246340377
 10
524.7509240079
 20
372.9878461461
 10
525.0539971042
 20
373.0729153327
 10
525.3027227664
 20
373.1765724365
 10
525.4875426069
 20
373.2948339732
 10
525.6013541026
 20
373.4231552182
 10
525.6397835418
 20
373.556604858
  0
LINE
  5
F0
330
1F
100
AcDbEntity
  8
0
  6
Continuous
 62
     7
370
    15
100
AcDbLine
 10
525.6397835418
 20
377.3188264346
 30
0.0
 11
525.6397835418
 21
373.556604858
 31
0.0
  0
LWPOLYLINE
  5
F1
330
1F
100
AcDbEntity
  8
0
  6
Continuous
 62
     7
370
    15
100
AcDbPolyline
 90
        9
 70
   128
 43
0.0
 10
525.6397835418
 20
377.3188264346
 10
525.6013541026
 20
377.4522760744
 10
525.4875426069
 20
377.5805973193
 10
525.3027227664
 20
377.698858856
 10
525.0539971042
 20
377.8025159599
 10
524.7509240079
 20
377.8875851465
 10
524.4051504066
 20
377.9507972548
 10
524.0299641859
 20
377.9897230789
 10
523.6397835418
 20
378.0028667212
  0
LINE
  5
F2
330
1F
100
AcDbEntity
  8
0
  6
Continuous
 62
     7
370
    15
100
AcDbLine
 10
523.6397835418
 20
378.0028667212
 30
0.0
 11
515.6397835418
 21
378.0028667212
 31
0.0
  0
LINE
  5
F3
330
1F
100
AcDbEntity
  8
0
  6
Continuous
 62
     7
370
    15
100
AcDbLine
 10
243.6397835418
 20
371.8980336415
 30
0.0
 11
243.6397835418
 21
378.9773976511
 31
0.0
  0
LINE
  5
F4
330
1F
100
AcDbEntity
  8
0
  6
Continuous
 62
     7
370
    15
100
AcDbLine
 10
643.6397835418
 20
371.8980336415
 30
0.0
 11
643.6397835418
 21
378.9773976511
 31
0.0
  0
LWPOLYLINE
  5
F5
330
1F
100
AcDbEntity
  8
0
  6
Continuous
 62
     7
370
    15
100
AcDbPolyline
 90
        9
 70
   128
 43
0.0
 10
525.6397835418
 20
377.3094295084
 10
525.6013541026
 20
377.4428791482
 10
525.4875426069
 20
377.5712003931
 10
525.3027227664
 20
377.6894619298
 10
525.0539971042
 20
377.7931190337
 10
524.7509240079
 20
377.8781882203
 10
524.4051504066
 20
377.9414003286
 10
524.0299641859
 20
377.9803261527
 10
523.6397835418
 20
377.993469795
  0
LWPOLYLINE
  5
F6
330
1F
100
AcDbEntity
  8
0
  6
Continuous
 62
     7
370
    15
100
AcDbPolyline
 90
        9
 70
   128
 43
0.0
 10
515.6397835418
 20
377.993469795
 10
515.2496028978
 20
377.9803261527
 10
514.8744166771
 20
377.9414003286
 10
514.5286430758
 20
377.8781882203
 10
514.2255699795
 20
377.7931190337
 10
513.9768443172
 20
377.6894619298
 10
513.7920244768
 20
377.5712003931
 10
513.678212981
 20
377.4428791482
 10
513.6397835418
 20
377.3094295084
  0
LINE
  5
F7
330
1F
100
AcDbEntity
  8
0
  6
Continuous
 62
     7
370
    15
100
AcDbLine
 10
523.6397835418
 20
377.993469795
 30
0.0
 11
515.6397835418
 21
377.993469795
 31
0.0
  0
LWPOLYLINE
  5
F8
330
1F
100
AcDbEntity
  8
0
  6
Continuous
 62
     7
370
    15
100
AcDbPolyline
 90
        9
 70
   128
 43
0.0
 10
514.6397835418
 20
373.5472079318
 10
514.6589982614
 20
373.4804831119
 10
514.7159040093
 20
373.4163224894
 10
514.8083139295
 20
373.3571917211
 10
514.9326767607
 20
373.3053631691
 10
515.0842133088
 20
373.2628285758
 10
515.2571001095
 20
373.2312225217
 10
515.4446932198
 20
373.2117596096
 10
515.6397835418
 20
373.2051877885
  0
LINE
  5
F9
330
1F
100
AcDbEntity
  8
0
  6
Continuous
 62
     7
370
    15
100
AcDbLine
 10
523.6397835418
 20
373.2051877885
 30
0.0
 11
515.6397835418
 21
373.2051877885
 31
0.0
  0
LWPOLYLINE
  5
FA
330
1F
100
AcDbEntity
  8
0
  6
Continuous
 62
     7
370
    15
100
AcDbPolyline
 90
        9
 70
   128
 43
0.0
 10
523.6397835418
 20
373.2051877885
 10
523.8348738639
 20
373.2117596096
 10
524.0224669742
 20
373.2312225217
 10
524.1953537749
 20
373.2628285758
 10
524.346890323
 20
373.3053631691
 10
524.4712531541
 20
373.3571917211
 10
524.5636630744
 20
373.4163224894
 10
524.6205688222
 20
373.4804831119
 10
524.6397835418
 20
373.5472079318
  0
LWPOLYLINE
  5
FB
330
1F
100
AcDbEntity
  8
0
  6
Continuous
 62
     7
370
    15
100
AcDbPolyline
 90
        9
 70
   128
 43
0.0
 10
423.6397835418
 20
377.3094295084
 10
423.6013541026
 20
377.4428791482
 10
423.4875426069
 20
377.5712003931
 10
423.3027227664
 20
377.6894619298
 10
423.0539971042
 20
377.7931190337
 10
422.7509240079
 20
377.8781882203
 10
422.4051504066
 20
377.9414003286
 10
422.0299641859
 20
377.9803261527
 10
421.6397835418
 20
377.993469795
  0
LWPOLYLINE
  5
FC
330
1F
100
AcDbEntity
  8
0
  6
Continuous
 62
     7
370
    15
100
AcDbPolyline
 90
        9
 70
   128
 43
0.0
 10
413.6397835418
 20
377.993469795
 10
413.2496028978
 20
377.9803261527
 10
412.8744166771
 20
377.9414003286
 10
412.5286430758
 20
377.8781882203
 10
412.2255699795
 20
377.7931190337
 10
411.9768443172
 20
377.6894619298
 10
411.7920244768
 20
377.5712003931
 10
411.678212981
 20
377.4428791482
 10
411.6397835418
 20
377.3094295084
  0
LINE
  5
FD
330
1F
100
AcDbEntity
  8
0
  6
Continuous
 62
     7
370
    15
100
AcDbLine
 10
421.6397835418
 20
377.993469795
 30
0.0
 11
413.6397835418
 21
377.993469795
 31
0.0
  0
LWPOLYLINE
  5
FE
330
1F
100
AcDbEntity
  8
0
  6
Continuous
 62
     7
370
    15
100
AcDbPolyline
 90
        9
 70
   128
 43
0.0
 10
412.6397835418
 20
373.5472079318
 10
412.6589982614
 20
373.4804831119
 10
412.7159040093
 20
373.4163224894
 10
412.8083139295
 20
373.3571917211
 10
412.9326767607
 20
373.3053631691
 10
413.0842133088
 20
373.2628285758
 10
413.2571001095
 20
373.2312225217
 10
413.4446932198
 20
373.2117596096
 10
413.6397835418
 20
373.2051877885
  0
LINE
  5
FF
330
1F
100
AcDbEntity
  8
0
  6
Continuous
 62
     7
370
    15
100
AcDbLine
 10
421.6397835418
 20
373.2051877885
 30
0.0
 11
413.6397835418
 21
373.2051877885
 31
0.0
  0
LWPOLYLINE
  5
100
330
1F
100
AcDbEntity
  8
0
  6
Continuous
 62
     7
370
    15
100
AcDbPolyline
 90
        9
 70
   128
 43
0.0
 10
421.6397835418
 20
373.2051877885
 10
421.8348738639
 20
373.2117596096
 10
422.0224669742
 20
373.2312225217
 10
422.1953537749
 20
373.2628285758
 10
422.346890323
 20
373.3053631691
 10
422.4712531541
 20
373.3571917211
 10
422.5636630744
 20
373.4163224894
 10
422.6205688222
 20
373.4804831119
 10
422.6397835418
 20
373.5472079318
  0
LINE
  5
101
330
1F
100
AcDbEntity
  8
0
  6
Continuous
 62
     7
370
    15
100
AcDbLine
 10
523.6397835418
 20
373.2145847147
 30
0.0
 11
515.6397835418
 21
373.2145847147
 31
0.0
  0
LINE
  5
102
330
1F
100
AcDbEntity
  8
0
  6
Continuous
 62
     7
370
    15
100
AcDbLine
 10
412.6397835418
 20
373.5472079318
 30
0.0
 11
412.6397835418
 21
373.556604858
 31
0.0
  0
LWPOLYLINE
  5
103
330
1F
100
AcDbEntity
  8
0
  6
Continuous
 62
     7
370
    15
100
AcDbPolyline
 90
        9
 70
   128
 43
0.0
 10
412.6397835418
 20
373.556604858
 10
412.6589982614
 20
373.4898800381
 10
412.7159040093
 20
373.4257194156
 10
412.8083139295
 20
373.3665886473
 10
412.9326767607
 20
373.3147600953
 10
413.0842133088
 20
373.272225502
 10
413.2571001095
 20
373.2406194479
 10
413.4446932198
 20
373.2211565358
 10
413.6397835418
 20
373.2145847147
  0
LINE
  5
104
330
1F
100
AcDbEntity
  8
0
  6
Continuous
 62
     7
370
    15
100
AcDbLine
 10
421.6397835418
 20
373.2145847147
 30
0.0
 11
413.6397835418
 21
373.2145847147
 31
0.0
  0
LINE
  5
105
330
1F
100
AcDbEntity
  8
0
  6
Continuous
 62
     7
370
    15
100
AcDbLine
 10
524.6397835418
 20
373.5472079318
 30
0.0
 11
524.6397835418
 21
373.556604858
 31
0.0
  0
LWPOLYLINE
  5
106
330
1F
100
AcDbEntity
  8
0
  6
Continuous
 62
     7
370
    15
100
AcDbPolyline
 90
        9
 70
   128
 43
0.0
 10
523.6397835418
 20
373.2145847147
 10
523.8348738639
 20
373.2211565358
 10
524.0224669742
 20
373.2406194479
 10
524.1953537749
 20
373.272225502
 10
524.346890323
 20
373.3147600953
 10
524.4712531541
 20
373.3665886473
 10
524.5636630744
 20
373.4257194156
 10
524.6205688222
 20
373.4898800381
 10
524.6397835418
 20
373.556604858
  0
LINE
  5
107
330
1F
100
AcDbEntity
  8
0
  6
Continuous
 62
     7
370
    15
100
AcDbLine
 10
514.6397835418
 20
373.5472079318
 30
0.0
 11
514.6397835418
 21
373.556604858
 31
0.0
  0
LWPOLYLINE
  5
108
330
1F
100
AcDbEntity
  8
0
  6
Continuous
 62
     7
370
    15
100
AcDbPolyline
 90
        9
 70
   128
 43
0.0
 10
514.6397835418
 20
373.556604858
 10
514.6589982614
 20
373.4898800381
 10
514.7159040093
 20
373.4257194156
 10
514.8083139295
 20
373.3665886473
 10
514.9326767607
 20
373.3147600953
 10
515.0842133088
 20
373.272225502
 10
515.2571001095
 20
373.2406194479
 10
515.4446932198
 20
373.2211565358
 10
515.6397835418
 20
373.2145847147
  0
LINE
  5
109
330
1F
100
AcDbEntity
  8
0
  6
Continuous
 62
     7
370
    15
100
AcDbLine
 10
514.6397835418
 20
373.556604858
 30
0.0
 11
514.6397835418
 21
377.3188264346
 31
0.0
  0
LWPOLYLINE
  5
10A
330
1F
100
AcDbEntity
  8
0
  6
Continuous
 62
     7
370
    15
100
AcDbPolyline
 90
        9
 70
   128
 43
0.0
 10
515.6397835418
 20
377.6608465779
 10
515.4446932198
 20
377.6542747568
 10
515.2571001095
 20
377.6348118447
 10
515.0842133088
 20
377.6032057905
 10
514.9326767607
 20
377.5606711972
 10
514.8083139295
 20
377.5088426453
 10
514.7159040093
 20
377.449711877
 10
514.6589982614
 20
377.3855512545
 10
514.6397835418
 20
377.3188264346
  0
LINE
  5
10B
330
1F
100
AcDbEntity
  8
0
  6
Continuous
 62
     7
370
    15
100
AcDbLine
 10
523.6397835418
 20
377.6608465779
 30
0.0
 11
515.6397835418
 21
377.6608465779
 31
0.0
  0
LWPOLYLINE
  5
10C
330
1F
100
AcDbEntity
  8
0
  6
Continuous
 62
     7
370
    15
100
AcDbPolyline
 90
        9
 70
   128
 43
0.0
 10
524.6397835418
 20
377.3188264346
 10
524.6205688222
 20
377.3855512545
 10
524.5636630744
 20
377.449711877
 10
524.4712531541
 20
377.5088426453
 10
524.346890323
 20
377.5606711972
 10
524.1953537749
 20
377.6032057905
 10
524.0224669742
 20
377.6348118447
 10
523.8348738639
 20
377.6542747568
 10
523.6397835418
 20
377.6608465779
  0
LINE
  5
10D
330
1F
100
AcDbEntity
  8
0
  6
Continuous
 62
     7
370
    15
100
AcDbLine
 10
524.6397835418
 20
377.3188264346
 30
0.0
 11
524.6397835418
 21
373.556604858
 31
0.0
  0
LWPOLYLINE
  5
10E
330
1F
100
AcDbEntity
  8
0
  6
Continuous
 62
     7
370
    15
100
AcDbPolyline
 90
       19
 70
   128
 43
0.0
 10
519.6397835418
 20
374.9246854313
 10
520.6658439718
 20
374.9865644467
 10
521.5681463709
 20
375.1647379706
 10
522.2378597532
 20
375.4377156463
 10
522.5942068009
 20
375.7725723374
 10
522.5942068009
 20
376.1289193851
 10
522.2378597532
 20
376.4637760763
 10
521.5681463709
 20
376.736753752
 10
520.6658439718
 20
376.9149272758
 10
519.6397835418
 20
376.9768062913
 10
518.6137231119
 20
376.9149272758
 10
517.7114207128
 20
376.736753752
 10
517.0417073305
 20
376.4637760763
 10
516.6853602828
 20
376.1289193851
 10
516.6853602828
 20
375.7725723374
 10
517.0417073305
 20
375.4377156463
 10
517.7114207128
 20
375.1647379706
 10
518.6137231119
 20
374.9865644467
 10
519.6397835418
 20
374.9246854313
  0
LINE
  5
10F
330
1F
100
AcDbEntity
  8
0
  6
Continuous
 62
     7
370
    15
100
AcDbLine
 10
422.6397835418
 20
373.5472079318
 30
0.0
 11
422.6397835418
 21
373.556604858
 31
0.0
  0
LWPOLYLINE
  5
110
330
1F
100
AcDbEntity
  8
0
  6
Continuous
 62
     7
370
    15
100
AcDbPolyline
 90
        9
 70
   128
 43
0.0
 10
421.6397835418
 20
373.2145847147
 10
421.8348738639
 20
373.2211565358
 10
422.0224669742
 20
373.2406194479
 10
422.1953537749
 20
373.272225502
 10
422.346890323
 20
373.3147600953
 10
422.4712531541
 20
373.3665886473
 10
422.5636630744
 20
373.4257194156
 10
422.6205688222
 20
373.4898800381
 10
422.6397835418
 20
373.556604858
  0
LWPOLYLINE
  5
111
330
1F
100
AcDbEntity
  8
0
  6
Continuous
 62
     7
370
    15
100
AcDbPolyline
 90
        9
 70
   128
 43
0.0
 10
422.6397835418
 20
377.3188264346
 10
422.6205688222
 20
377.3855512545
 10
422.5636630744
 20
377.449711877
 10
422.4712531541
 20
377.5088426453
 10
422.346890323
 20
377.5606711972
 10
422.1953537749
 20
377.6032057905
 10
422.0224669742
 20
377.6348118447
 10
421.8348738639
 20
377.6542747568
 10
421.6397835418
 20
377.6608465779
  0
LINE
  5
112
330
1F
100
AcDbEntity
  8
0
  6
Continuous
 62
     7
370
    15
100
AcDbLine
 10
422.6397835418
 20
377.3188264346
 30
0.0
 11
422.6397835418
 21
373.556604858
 31
0.0
  0
LINE
  5
113
330
1F
100
AcDbEntity
  8
0
  6
Continuous
 62
     7
370
    15
100
AcDbLine
 10
412.6397835418
 20
373.556604858
 30
0.0
 11
412.6397835418
 21
377.3188264346
 31
0.0
  0
LWPOLYLINE
  5
114
330
1F
100
AcDbEntity
  8
0
  6
Continuous
 62
     7
370
    15
100
AcDbPolyline
 90
        9
 70
   128
 43
0.0
 10
413.6397835418
 20
377.6608465779
 10
413.4446932198
 20
377.6542747568
 10
413.2571001095
 20
377.6348118447
 10
413.0842133088
 20
377.6032057905
 10
412.9326767607
 20
377.5606711972
 10
412.8083139295
 20
377.5088426453
 10
412.7159040093
 20
377.449711877
 10
412.6589982614
 20
377.3855512545
 10
412.6397835418
 20
377.3188264346
  0
LINE
  5
115
330
1F
100
AcDbEntity
  8
0
  6
Continuous
 62
     7
370
    15
100
AcDbLine
 10
421.6397835418
 20
377.6608465779
 30
0.0
 11
413.6397835418
 21
377.6608465779
 31
0.0
  0
LWPOLYLINE
  5
116
330
1F
100
AcDbEntity
  8
0
  6
Continuous
 62
     7
370
    15
100
AcDbPolyline
 90
       19
 70
   128
 43
0.0
 10
417.6397835418
 20
373.8986250013
 10
418.6658439718
 20
373.9605040168
 10
419.5681463709
 20
374.1386775406
 10
420.2378597532
 20
374.4116552163
 10
420.5942068009
 20
374.7465119075
 10
420.5942068009
 20
375.1028589551
 10
420.2378597532
 20
375.4377156463
 10
419.5681463709
 20
375.710693322
 10
418.6658439718
 20
375.8888668458
 10
417.6397835418
 20
375.9507458613
 10
416.6137231119
 20
375.8888668458
 10
415.7114207128
 20
375.710693322
 10
415.0417073305
 20
375.4377156463
 10
414.6853602828
 20
375.1028589551
 10
414.6853602828
 20
374.7465119075
 10
415.0417073305
 20
374.4116552163
 10
415.7114207128
 20
374.1386775406
 10
416.6137231119
 20
373.9605040168
 10
417.6397835418
 20
373.8986250013
  0
LWPOLYLINE
  5
117
330
1F
100
AcDbEntity
  8
0
  6
Continuous
 62
     7
370
    15
100
AcDbPolyline
 90
       11
 70
   128
 43
0.0
 10
420.6397835418
 20
374.9152885051
 10
420.5942068009
 20
375.0934620289
 10
420.2378597532
 20
375.4283187201
 10
419.5681463709
 20
375.7012963958
 10
418.6658439718
 20
375.8794699196
 10
417.6397835418
 20
375.9413489351
 10
416.6137231119
 20
375.8794699196
 10
415.7114207128
 20
375.7012963958
 10
415.0417073305
 20
375.4283187201
 10
414.6853602828
 20
375.0934620289
 10
414.6397835418
 20
374.9152885051
  0
LWPOLYLINE
  5
118
330
1F
100
AcDbEntity
  8
0
  6
Continuous
 62
     7
370
    15
100
AcDbPolyline
 90
        5
 70
   128
 43
0.0
 10
417.6397835418
 20
374.2312482184
 10
418.4051504066
 20
374.2833176848
 10
419.0539971042
 20
374.4315989798
 10
419.4875426069
 20
374.6535176203
 10
419.6397835418
 20
374.9152885051
  0
LWPOLYLINE
  5
119
330
1F
100
AcDbEntity
  8
0
  6
Continuous
 62
     7
370
    15
100
AcDbPolyline
 90
        5
 70
   128
 43
0.0
 10
415.6397835418
 20
374.9152885051
 10
415.7920244768
 20
374.6535176203
 10
416.2255699795
 20
374.4315989798
 10
416.8744166771
 20
374.2833176848
 10
417.6397835418
 20
374.2312482184
  0
LWPOLYLINE
  5
11A
330
1F
100
AcDbEntity
  8
0
  6
Continuous
 62
     7
370
    15
100
AcDbPolyline
 90
       17
 70
   128
 43
0.0
 10
417.6397835418
 20
374.2406451446
 10
418.4051504066
 20
374.292714611
 10
419.0539971042
 20
374.440995906
 10
419.4875426069
 20
374.6629145465
 10
419.6397835418
 20
374.9246854313
 10
419.4875426069
 20
375.1864563161
 10
419.0539971042
 20
375.4083749566
 10
418.4051504066
 20
375.5566562515
 10
417.6397835418
 20
375.6087257179
 10
416.8744166771
 20
375.5566562515
 10
416.2255699795
 20
375.4083749566
 10
415.7920244768
 20
375.1864563161
 10
415.6397835418
 20
374.9246854313
 10
415.7920244768
 20
374.6629145465
 10
416.2255699795
 20
374.440995906
 10
416.8744166771
 20
374.292714611
 10
417.6397835418
 20
374.2406451446
  0
LINE
  5
11B
330
1F
100
AcDbEntity
  8
0
  6
Continuous
 62
     7
370
    15
100
AcDbLine
 10
643.6397835418
 20
339.2749288538
 30
0.0
 11
243.6397835418
 21
339.2749288538
 31
0.0
  0
LINE
  5
11C
330
1F
100
AcDbEntity
  8
0
  6
Continuous
 62
     7
370
    15
100
AcDbLine
 10
243.6397835418
 20
339.2749288538
 30
0.0
 11
243.6397835418
 21
340.007214254
 31
0.0
  0
LINE
  5
11D
330
1F
100
AcDbEntity
  8
0
  6
Continuous
 62
     7
370
    15
100
AcDbLine
 10
643.6397835418
 20
339.2749288538
 30
0.0
 11
643.6397835418
 21
340.007214254
 31
0.0
  0
LWPOLYLINE
  5
11E
330
1F
100
AcDbEntity
  8
0
  6
Continuous
 62
     7
370
    15
100
AcDbPolyline
 90
       11
 70
   128
 43
0.0
 10
522.6397835418
 20
375.9413489351
 10
522.5942068009
 20
376.1195224589
 10
522.2378597532
 20
376.4543791501
 10
521.5681463709
 20
376.7273568258
 10
520.6658439718
 20
376.9055303496
 10
519.6397835418
 20
376.967409365
 10
518.6137231119
 20
376.9055303496
 10
517.7114207128
 20
376.7273568258
 10
517.0417073305
 20
376.4543791501
 10
516.6853602828
 20
376.1195224589
 10
516.6397835418
 20
375.9413489351
  0
LWPOLYLINE
  5
11F
330
1F
100
AcDbEntity
  8
0
  6
Continuous
 62
     7
370
    15
100
AcDbPolyline
 90
        5
 70
   128
 43
0.0
 10
519.6397835418
 20
375.2573086484
 10
520.4051504066
 20
375.3093781148
 10
521.0539971042
 20
375.4576594098
 10
521.4875426069
 20
375.6795780503
 10
521.6397835418
 20
375.9413489351
  0
LWPOLYLINE
  5
120
330
1F
100
AcDbEntity
  8
0
  6
Continuous
 62
     7
370
    15
100
AcDbPolyline
 90
        5
 70
   128
 43
0.0
 10
517.6397835418
 20
375.9413489351
 10
517.7920244768
 20
375.6795780503
 10
518.2255699795
 20
375.4576594098
 10
518.8744166771
 20
375.3093781148
 10
519.6397835418
 20
375.2573086484
  0
LWPOLYLINE
  5
121
330
1F
100
AcDbEntity
  8
0
  6
Continuous
 62
     7
370
    15
100
AcDbPolyline
 90
       17
 70
   128
 43
0.0
 10
519.6397835418
 20
375.2667055746
 10
520.4051504066
 20
375.318775041
 10
521.0539971042
 20
375.467056336
 10
521.4875426069
 20
375.6889749765
 10
521.6397835418
 20
375.9507458613
 10
521.4875426069
 20
376.212516746
 10
521.0539971042
 20
376.4344353866
 10
520.4051504066
 20
376.5827166815
 10
519.6397835418
 20
376.6347861479
 10
518.8744166771
 20
376.5827166815
 10
518.2255699795
 20
376.4344353866
 10
517.7920244768
 20
376.212516746
 10
517.6397835418
 20
375.9507458613
 10
517.7920244768
 20
375.6889749765
 10
518.2255699795
 20
375.467056336
 10
518.8744166771
 20
375.318775041
 10
519.6397835418
 20
375.2667055746
  0
LINE
  5
122
330
1F
100
AcDbEntity
  8
0
  6
Continuous
 62
     7
370
    15
100
AcDbLine
 10
643.6397835418
 20
378.9773976511
 30
0.0
 11
643.6397835418
 21
385.2841539152
 31
0.0
  0
LINE
  5
123
330
1F
100
AcDbEntity
  8
0
  6
Continuous
 62
     7
370
    15
100
AcDbLine
 10
243.6397835418
 20
378.9773976511
 30
0.0
 11
243.6397835418
 21
385.2841539152
 31
0.0
  0
ARC
  5
124
330
1F
100
AcDbEntity
  8
0
  6
Continuous
 62
     7
370
    15
100
AcDbCircle
 10
274.3897835418
 20
458.8082302741
 30
0.0
 40
0.2502039382018809
100
AcDbArc
 50
182.3134992124
 51
357.6865007877
  0
LINE
  5
125
330
1F
100
AcDbEntity
  8
0
  6
Continuous
 62
     7
370
    15
100
AcDbLine
 10
274.6397835418
 20
458.7981302399
 30
0.0
 11
274.6397835418
 21
459.8685491569
 31
0.0
  0
LINE
  5
126
330
1F
100
AcDbEntity
  8
0
  6
Continuous
 62
     7
370
    15
100
AcDbLine
 10
294.1397835418
 20
459.8685491569
 30
0.0
 11
274.6397835418
 21
459.8685491569
 31
0.0
  0
LINE
  5
127
330
1F
100
AcDbEntity
  8
0
  6
Continuous
 62
     7
370
    15
100
AcDbLine
 10
294.1397835418
 20
460.1460882194
 30
0.0
 11
294.1397835418
 21
459.8685491569
 31
0.0
  0
LINE
  5
128
330
1F
100
AcDbEntity
  8
0
  6
Continuous
 62
     7
370
    15
100
AcDbLine
 10
593.1397835418
 20
460.1460882194
 30
0.0
 11
593.1397835418
 21
459.8685491569
 31
0.0
  0
LINE
  5
129
330
1F
100
AcDbEntity
  8
0
  6
Continuous
 62
     7
370
    15
100
AcDbLine
 10
612.6397835418
 20
459.8685491569
 30
0.0
 11
593.1397835418
 21
459.8685491569
 31
0.0
  0
LINE
  5
12A
330
1F
100
AcDbEntity
  8
0
  6
Continuous
 62
     7
370
    15
100
AcDbLine
 10
612.6397835418
 20
459.8685491569
 30
0.0
 11
612.6397835418
 21
458.7981302399
 31
0.0
  0
ARC
  5
12B
330
1F
100
AcDbEntity
  8
0
  6
Continuous
 62
     7
370
    15
100
AcDbCircle
 10
612.8897835418
 20
458.8082302741
 30
0.0
 40
0.2502039382019922
100
AcDbArc
 50
182.3134992123
 51
357.6865007877
  0
ARC
  5
12C
330
1F
100
AcDbEntity
  8
0
  6
Continuous
 62
     7
370
    15
100
AcDbCircle
 10
628.3897835418
 20
458.8082302741
 30
0.0
 40
0.2502039382018809
100
AcDbArc
 50
182.3134992124
 51
357.6865007877
  0
LINE
  5
12D
330
1F
100
AcDbEntity
  8
0
  6
Continuous
 62
     7
370
    15
100
AcDbLine
 10
628.6397835418
 20
458.7981302399
 30
0.0
 11
628.6397835418
 21
460.1460882194
 31
0.0
  0
LINE
  5
12E
330
1F
100
AcDbEntity
  8
0
  6
Continuous
 62
     7
370
    15
100
AcDbLine
 10
643.6397835418
 20
385.2841539152
 30
0.0
 11
643.6397835418
 21
460.1460882194
 31
0.0
  0
LINE
  5
12F
330
1F
100
AcDbEntity
  8
0
  6
Continuous
 62
     7
370
    15
100
AcDbLine
 10
243.6397835418
 20
385.2841539152
 30
0.0
 11
243.6397835418
 21
460.1460882194
 31
0.0
  0
LINE
  5
130
330
1F
100
AcDbEntity
  8
0
  6
Continuous
 62
     7
370
    15
100
AcDbLine
 10
258.6397835418
 20
460.1460882194
 30
0.0
 11
258.6397835418
 21
458.7981302399
 31
0.0
  0
ARC
  5
131
330
1F
100
AcDbEntity
  8
0
  6
Continuous
 62
     7
370
    15
100
AcDbCircle
 10
258.8897835418
 20
458.8082302741
 30
0.0
 40
0.2502039382018809
100
AcDbArc
 50
182.3134992124
 51
357.6865007876
  0
LINE
  5
132
330
1F
100
AcDbEntity
  8
0
  6
Continuous
 62
     7
370
    15
100
AcDbLine
 10
393.6397835418
 20
453.6306669204
 30
0.0
 11
393.6397835418
 21
454.2357513466
 31
0.0
  0
ARC
  5
133
330
1F
100
AcDbEntity
  8
0
  6
Continuous
 62
     7
370
    15
100
AcDbCircle
 10
392.6397835418
 20
454.1953512096
 30
0.0
 40
1.00081575280746
100
AcDbArc
 50
2.3134992123
 51
177.6865007877
  0
LINE
  5
134
330
1F
100
AcDbEntity
  8
0
  6
Continuous
 62
     7
370
    15
100
AcDbLine
 10
391.6397835418
 20
454.2357513466
 30
0.0
 11
391.6397835418
 21
453.6306669204
 31
0.0
  0
LINE
  5
135
330
1F
100
AcDbEntity
  8
0
  6
Continuous
 62
     7
370
    15
100
AcDbLine
 10
495.6397835418
 20
453.6306669194
 30
0.0
 11
495.6397835418
 21
454.2357513466
 31
0.0
  0
ARC
  5
136
330
1F
100
AcDbEntity
  8
0
  6
Continuous
 62
     7
370
    15
100
AcDbCircle
 10
494.6397835418
 20
454.1953512096
 30
0.0
 40
1.000815752807517
100
AcDbArc
 50
2.3134992123
 51
177.6865007877
  0
LINE
  5
137
330
1F
100
AcDbEntity
  8
0
  6
Continuous
 62
     7
370
    15
100
AcDbLine
 10
493.6397835418
 20
454.2357513466
 30
0.0
 11
493.6397835418
 21
453.6306669194
 31
0.0
  0
ARC
  5
138
330
1F
100
AcDbEntity
  8
0
  6
Continuous
 62
     7
370
    15
100
AcDbCircle
 10
271.9046045451
 20
463.9618238152
 30
0.0
 40
2.343704082838035
100
AcDbArc
 50
17.5041712785
 51
84.2409622913
  0
LINE
  5
139
330
1F
100
AcDbEntity
  8
0
  6
Continuous
 62
     7
370
    15
100
AcDbLine
 10
274.1397835418
 20
464.6667519538
 30
0.0
 11
274.1397835418
 21
463.9359155877
 31
0.0
  0
LWPOLYLINE
  5
13A
330
1F
100
AcDbEntity
  8
0
  6
Continuous
 62
     7
370
    15
100
AcDbPolyline
 90
        9
 70
   128
 43
0.0
 10
269.1397835418
 20
465.9695988031
 10
270.1152351519
 20
465.9305221503
 10
271.0532007037
 20
465.814793886
 10
271.9176347069
 20
465.6268613823
 10
272.6753174478
 20
465.3739467801
 10
273.2971316034
 20
465.0657694455
 10
273.7591812044
 20
464.7141724609
 10
274.0437099439
 20
464.332667501
 10
274.1397835418
 20
463.9359155877
  0
LINE
  5
13B
330
1F
100
AcDbEntity
  8
0
  6
Continuous
 62
     7
370
    15
100
AcDbLine
 10
259.1397835418
 20
464.6667519538
 30
0.0
 11
259.1397835418
 21
463.9359155877
 31
0.0
  0
LWPOLYLINE
  5
13C
330
1F
100
AcDbEntity
  8
0
  6
Continuous
 62
     7
370
    15
100
AcDbPolyline
 90
        6
 70
   128
 43
0.0
 10
259.1397835418
 20
464.6667519538
 10
259.2358571398
 20
465.0635038672
 10
259.5203858793
 20
465.445008827
 10
259.9824354803
 20
465.7966058116
 10
260.6042496359
 20
466.1047831462
 10
261.0397835418
 20
466.2623834852
  0
LWPOLYLINE
  5
13D
330
1F
100
AcDbEntity
  8
0
  6
Continuous
 62
     7
370
    15
100
AcDbPolyline
 90
        9
 70
   128
 43
0.0
 10
259.1397835418
 20
463.9359155877
 10
259.2358571398
 20
464.332667501
 10
259.5203858793
 20
464.7141724609
 10
259.9824354803
 20
465.0657694455
 10
260.6042496359
 20
465.3739467801
 10
261.3619323767
 20
465.6268613823
 10
262.22636638
 20
465.814793886
 10
263.1643319318
 20
465.9305221503
 10
264.1397835418
 20
465.9695988031
  0
LINE
  5
13E
330
1F
100
AcDbEntity
  8
0
  6
Continuous
 62
     7
370
    15
100
AcDbLine
 10
264.1397835418
 20
465.9695988031
 30
0.0
 11
269.1397835418
 21
465.9695988031
 31
0.0
  0
LINE
  5
13F
330
1F
100
AcDbEntity
  8
0
  6
Continuous
 62
     7
370
    15
100
AcDbLine
 10
274.1397835418
 20
463.9359155877
 30
0.0
 11
274.1397835418
 21
460.3263333049
 31
0.0
  0
LINE
  5
140
330
1F
100
AcDbEntity
  8
0
  6
Continuous
 62
     7
370
    15
100
AcDbLine
 10
259.1397835418
 20
460.3263333049
 30
0.0
 11
259.1397835418
 21
463.9359155877
 31
0.0
  0
LWPOLYLINE
  5
141
330
1F
100
AcDbEntity
  8
0
  6
Continuous
 62
     7
370
    15
100
AcDbPolyline
 90
       19
 70
   128
 43
0.0
 10
266.6397835418
 20
464.8307362024
 10
267.7342480005
 20
464.7522426953
 10
268.6967038928
 20
464.5262296494
 10
269.411064834
 20
464.1799575735
 10
269.7911683515
 20
463.7551919905
 10
269.7911683515
 20
463.3031658986
 10
269.411064834
 20
462.8784003157
 10
268.6967038928
 20
462.5321282398
 10
267.7342480005
 20
462.3061151939
 10
266.6397835418
 20
462.2276216868
 10
265.5453190832
 20
462.3061151939
 10
264.5828631908
 20
462.5321282398
 10
263.8685022497
 20
462.8784003157
 10
263.4883987322
 20
463.3031658986
 10
263.4883987322
 20
463.7551919905
 10
263.8685022497
 20
464.1799575735
 10
264.5828631908
 20
464.5262296494
 10
265.5453190832
 20
464.7522426953
 10
266.6397835418
 20
464.8307362024
  0
LWPOLYLINE
  5
142
330
1F
100
AcDbEntity
  8
0
  6
Continuous
 62
     7
370
    15
100
AcDbPolyline
 90
        9
 70
   128
 43
0.0
 10
613.1397835418
 20
463.9359155877
 10
613.2358571398
 20
464.332667501
 10
613.5203858793
 20
464.7141724609
 10
613.9824354803
 20
465.0657694455
 10
614.6042496359
 20
465.3739467801
 10
615.3619323767
 20
465.6268613823
 10
616.22636638
 20
465.814793886
 10
617.1643319318
 20
465.9305221503
 10
618.1397835418
 20
465.9695988031
  0
LINE
  5
143
330
1F
100
AcDbEntity
  8
0
  6
Continuous
 62
     7
370
    15
100
AcDbLine
 10
618.1397835418
 20
465.9695988031
 30
0.0
 11
623.1397835418
 21
465.9695988031
 31
0.0
  0
LWPOLYLINE
  5
144
330
1F
100
AcDbEntity
  8
0
  6
Continuous
 62
     7
370
    15
100
AcDbPolyline
 90
        9
 70
   128
 43
0.0
 10
623.1397835418
 20
465.9695988031
 10
624.1152351519
 20
465.9305221503
 10
625.0532007037
 20
465.814793886
 10
625.9176347069
 20
465.6268613823
 10
626.6753174478
 20
465.3739467801
 10
627.2971316034
 20
465.0657694455
 10
627.7591812044
 20
464.7141724609
 10
628.0437099439
 20
464.332667501
 10
628.1397835418
 20
463.9359155877
  0
LINE
  5
145
330
1F
100
AcDbEntity
  8
0
  6
Continuous
 62
     7
370
    15
100
AcDbLine
 10
628.1397835418
 20
463.9359155877
 30
0.0
 11
628.1397835418
 21
460.3263333049
 31
0.0
  0
LINE
  5
146
330
1F
100
AcDbEntity
  8
0
  6
Continuous
 62
     7
370
    15
100
AcDbLine
 10
613.1397835418
 20
460.3263333049
 30
0.0
 11
613.1397835418
 21
463.9359155877
 31
0.0
  0
LWPOLYLINE
  5
147
330
1F
100
AcDbEntity
  8
0
  6
Continuous
 62
     7
370
    15
100
AcDbPolyline
 90
       19
 70
   128
 43
0.0
 10
620.6397835418
 20
464.8307362024
 10
621.7342480005
 20
464.7522426953
 10
622.6967038928
 20
464.5262296494
 10
623.411064834
 20
464.1799575735
 10
623.7911683515
 20
463.7551919905
 10
623.7911683515
 20
463.3031658986
 10
623.411064834
 20
462.8784003157
 10
622.6967038928
 20
462.5321282398
 10
621.7342480005
 20
462.3061151939
 10
620.6397835418
 20
462.2276216868
 10
619.5453190832
 20
462.3061151939
 10
618.5828631908
 20
462.5321282398
 10
617.8685022497
 20
462.8784003157
 10
617.4883987322
 20
463.3031658986
 10
617.4883987322
 20
463.7551919905
 10
617.8685022497
 20
464.1799575735
 10
618.5828631908
 20
464.5262296494
 10
619.5453190832
 20
464.7522426953
 10
620.6397835418
 20
464.8307362024
  0
ARC
  5
148
330
1F
100
AcDbEntity
  8
0
  6
Continuous
 62
     7
370
    15
100
AcDbCircle
 10
625.9505126843
 20
463.9889045836
 30
0.0
 40
2.291808007901678
100
AcDbArc
 50
17.2036977685
 51
82.7488142686
  0
LINE
  5
149
330
1F
100
AcDbEntity
  8
0
  6
Continuous
 62
     7
370
    15
100
AcDbLine
 10
628.1397835418
 20
464.6667519538
 30
0.0
 11
628.1397835418
 21
463.9359155877
 31
0.0
  0
LINE
  5
14A
330
1F
100
AcDbEntity
  8
0
  6
Continuous
 62
     7
370
    15
100
AcDbLine
 10
613.1397835418
 20
464.6667519538
 30
0.0
 11
613.1397835418
 21
463.9359155877
 31
0.0
  0
LWPOLYLINE
  5
14B
330
1F
100
AcDbEntity
  8
0
  6
Continuous
 62
     7
370
    15
100
AcDbPolyline
 90
        6
 70
   128
 43
0.0
 10
613.1397835418
 20
464.6667519538
 10
613.2358571398
 20
465.0635038672
 10
613.5203858793
 20
465.445008827
 10
613.9824354803
 20
465.7966058116
 10
614.6042496359
 20
466.1047831462
 10
615.1397835418
 20
466.2936985261
  0
ARC
  5
14C
330
1F
100
AcDbEntity
  8
0
  6
Continuous
 62
     7
370
    15
100
AcDbCircle
 10
266.6397835418
 20
467.9526489758
 30
0.0
 40
5.089266726337707
100
AcDbArc
 50
232.8801182268
 51
307.1198817732
  0
ARC
  5
14D
330
1F
100
AcDbEntity
  8
0
  6
Continuous
 62
     7
370
    15
100
AcDbCircle
 10
620.6397835418
 20
467.9526489758
 30
0.0
 40
5.089266726338709
100
AcDbArc
 50
232.8801182269
 51
307.1198817732
  0
ARC
  5
14E
330
1F
100
AcDbEntity
  8
0
  6
Continuous
 62
     7
370
    15
100
AcDbCircle
 10
392.6397835418
 20
453.9481376141
 30
0.0
 40
1.000815752807462
100
AcDbArc
 50
2.3134992124
 51
177.6865007877
  0
ARC
  5
14F
330
1F
100
AcDbEntity
  8
0
  6
Continuous
 62
     7
370
    15
100
AcDbCircle
 10
494.6397835418
 20
453.9481376141
 30
0.0
 40
1.000815752807519
100
AcDbArc
 50
2.3134992123
 51
177.6865007877
  0
LINE
  5
150
330
1F
100
AcDbEntity
  8
0
  6
Continuous
 62
     7
370
    15
100
AcDbLine
 10
259.1397835418
 20
460.3263333049
 30
0.0
 11
259.1397835418
 21
458.7981302399
 31
0.0
  0
LINE
  5
151
330
1F
100
AcDbEntity
  8
0
  6
Continuous
 62
     7
370
    15
100
AcDbLine
 10
274.1397835418
 20
458.7981302399
 30
0.0
 11
274.1397835418
 21
460.3263333049
 31
0.0
  0
LINE
  5
152
330
1F
100
AcDbEntity
  8
0
  6
Continuous
 62
     7
370
    15
100
AcDbLine
 10
628.1397835418
 20
458.7981302399
 30
0.0
 11
628.1397835418
 21
460.3263333049
 31
0.0
  0
LINE
  5
153
330
1F
100
AcDbEntity
  8
0
  6
Continuous
 62
     7
370
    15
100
AcDbLine
 10
613.1397835418
 20
460.3263333049
 30
0.0
 11
613.1397835418
 21
458.7981302399
 31
0.0
  0
LINE
  5
154
330
1F
100
AcDbEntity
  8
0
  6
Continuous
 62
     7
370
    15
100
AcDbLine
 10
294.1397835418
 20
460.1460882194
 30
0.0
 11
294.1397835418
 21
461.562603381
 31
0.0
  0
LINE
  5
155
330
1F
100
AcDbEntity
  8
0
  6
Continuous
 62
     7
370
    15
100
AcDbLine
 10
593.1397835418
 20
461.562603381
 30
0.0
 11
294.1397835418
 21
461.562603381
 31
0.0
  0
LINE
  5
156
330
1F
100
AcDbEntity
  8
0
  6
Continuous
 62
     7
370
    15
100
AcDbLine
 10
593.1397835418
 20
461.562603381
 30
0.0
 11
593.1397835418
 21
460.1460882194
 31
0.0
  0
LINE
  5
157
330
1F
100
AcDbEntity
  8
0
  6
Continuous
 62
     7
370
    15
100
AcDbLine
 10
628.6397835418
 20
460.1460882194
 30
0.0
 11
628.6397835418
 21
461.562603381
 31
0.0
  0
LINE
  5
158
330
1F
100
AcDbEntity
  8
0
  6
Continuous
 62
     7
370
    15
100
AcDbLine
 10
643.6397835418
 20
461.562603381
 30
0.0
 11
628.6397835418
 21
461.562603381
 31
0.0
  0
LINE
  5
159
330
1F
100
AcDbEntity
  8
0
  6
Continuous
 62
     7
370
    15
100
AcDbLine
 10
643.6397835418
 20
461.562603381
 30
0.0
 11
643.6397835418
 21
460.1460882194
 31
0.0
  0
LINE
  5
15A
330
1F
100
AcDbEntity
  8
0
  6
Continuous
 62
     7
370
    15
100
AcDbLine
 10
258.6397835418
 20
461.562603381
 30
0.0
 11
243.6397835418
 21
461.562603381
 31
0.0
  0
LINE
  5
15B
330
1F
100
AcDbEntity
  8
0
  6
Continuous
 62
     7
370
    15
100
AcDbLine
 10
243.6397835418
 20
460.1460882194
 30
0.0
 11
243.6397835418
 21
461.562603381
 31
0.0
  0
LINE
  5
15C
330
1F
100
AcDbEntity
  8
0
  6
Continuous
 62
     7
370
    15
100
AcDbLine
 10
258.6397835418
 20
461.562603381
 30
0.0
 11
258.6397835418
 21
460.1460882194
 31
0.0
  0
LINE
  5
15D
330
1F
100
AcDbEntity
  8
0
  6
Continuous
 62
     7
370
    15
100
AcDbLine
 10
261.0397835418
 20
467.3644834223
 30
0.0
 11
272.1397835418
 21
467.3644834223
 31
0.0
  0
LINE
  5
15E
330
1F
100
AcDbEntity
  8
0
  6
Continuous
 62
     7
370
    15
100
AcDbLine
 10
261.0397835418
 20
467.767989855
 30
0.0
 11
272.1397835418
 21
467.767989855
 31
0.0
  0
LINE
  5
15F
330
1F
100
AcDbEntity
  8
0
  6
Continuous
 62
     7
370
    15
100
AcDbLine
 10
261.0397835418
 20
467.3644834223
 30
0.0
 11
261.0397835418
 21
467.767989855
 31
0.0
  0
LINE
  5
160
330
1F
100
AcDbEntity
  8
0
  6
Continuous
 62
     7
370
    15
100
AcDbLine
 10
272.1397835418
 20
467.3644834223
 30
0.0
 11
272.1397835418
 21
467.767989855
 31
0.0
  0
LWPOLYLINE
  5
161
330
1F
100
AcDbEntity
  8
0
  6
Continuous
 62
     7
370
    15
100
AcDbPolyline
 90
       11
 70
   128
 43
0.0
 10
264.3397835418
 20
464.0548661502
 10
264.5110545937
 20
463.7115281599
 10
264.9987932842
 20
463.4204602663
 10
265.728745819
 20
463.2259749176
 10
266.5897835418
 20
463.1576807451
 10
267.4508212647
 20
463.2259749176
 10
268.1807737995
 20
463.4204602663
 10
268.66851249
 20
463.7115281599
 10
268.8397835418
 20
464.0548661502
 10
268.66851249
 20
464.3982041405
 10
268.2814715685
 20
464.6463995577
  0
LWPOLYLINE
  5
162
330
1F
100
AcDbEntity
  8
0
  6
Continuous
 62
     7
370
    15
100
AcDbPolyline
 90
        3
 70
   128
 43
0.0
 10
264.7816698088
 20
464.5888363762
 10
264.5110545937
 20
464.3982041405
 10
264.3397835418
 20
464.0548661502
  0
LINE
  5
163
330
1F
100
AcDbEntity
  8
0
  6
Continuous
 62
     7
370
    15
100
AcDbLine
 10
261.0397835418
 20
466.2015407178
 30
0.0
 11
261.0397835418
 21
467.3644834223
 31
0.0
  0
LINE
  5
164
330
1F
100
AcDbEntity
  8
0
  6
Continuous
 62
     7
370
    15
100
AcDbLine
 10
272.1397835418
 20
466.2322419568
 30
0.0
 11
272.1397835418
 21
467.3644834223
 31
0.0
  0
ARC
  5
165
330
1F
100
AcDbEntity
  8
0
  6
Continuous
 62
     7
370
    15
100
AcDbCircle
 10
266.5897835418
 20
466.9013628302
 30
0.0
 40
3.435282672844711
100
AcDbArc
 50
230.3428016008
 51
309.6571983992
  0
LINE
  5
166
330
1F
100
AcDbEntity
  8
0
  6
Continuous
 62
     7
370
    15
100
AcDbLine
 10
615.1397835418
 20
467.3644834223
 30
0.0
 11
626.2397835418
 21
467.3644834223
 31
0.0
  0
LINE
  5
167
330
1F
100
AcDbEntity
  8
0
  6
Continuous
 62
     7
370
    15
100
AcDbLine
 10
615.1397835418
 20
467.767989855
 30
0.0
 11
626.2397835418
 21
467.767989855
 31
0.0
  0
LINE
  5
168
330
1F
100
AcDbEntity
  8
0
  6
Continuous
 62
     7
370
    15
100
AcDbLine
 10
626.2397835418
 20
467.3644834223
 30
0.0
 11
626.2397835418
 21
467.767989855
 31
0.0
  0
LINE
  5
169
330
1F
100
AcDbEntity
  8
0
  6
Continuous
 62
     7
370
    15
100
AcDbLine
 10
615.1397835418
 20
467.3644834223
 30
0.0
 11
615.1397835418
 21
467.767989855
 31
0.0
  0
LWPOLYLINE
  5
16A
330
1F
100
AcDbEntity
  8
0
  6
Continuous
 62
     7
370
    15
100
AcDbPolyline
 90
       11
 70
   128
 43
0.0
 10
618.4397835418
 20
464.0548661502
 10
618.6110545937
 20
463.7115281599
 10
619.0987932842
 20
463.4204602663
 10
619.828745819
 20
463.2259749176
 10
620.6897835418
 20
463.1576807451
 10
621.5508212647
 20
463.2259749176
 10
622.2807737995
 20
463.4204602663
 10
622.76851249
 20
463.7115281599
 10
622.9397835418
 20
464.0548661502
 10
622.76851249
 20
464.3982041405
 10
622.4978971967
 20
464.5888364183
  0
LWPOLYLINE
  5
16B
330
1F
100
AcDbEntity
  8
0
  6
Continuous
 62
     7
370
    15
100
AcDbPolyline
 90
        3
 70
   128
 43
0.0
 10
618.9980956023
 20
464.6463995973
 10
618.6110545937
 20
464.3982041405
 10
618.4397835418
 20
464.0548661502
  0
LINE
  5
16C
330
1F
100
AcDbEntity
  8
0
  6
Continuous
 62
     7
370
    15
100
AcDbLine
 10
626.2397835418
 20
466.2015407178
 30
0.0
 11
626.2397835418
 21
467.3644834223
 31
0.0
  0
LINE
  5
16D
330
1F
100
AcDbEntity
  8
0
  6
Continuous
 62
     7
370
    15
100
AcDbLine
 10
615.1397835418
 20
466.2322419568
 30
0.0
 11
615.1397835418
 21
467.3644834223
 31
0.0
  0
ARC
  5
16E
330
1F
100
AcDbEntity
  8
0
  6
Continuous
 62
     7
370
    15
100
AcDbCircle
 10
620.6897835418
 20
466.9013628302
 30
0.0
 40
3.435282672893158
100
AcDbArc
 50
230.3428016017
 51
309.6571983983
  0
LINE
  5
16F
330
1F
100
AcDbEntity
  8
0
  6
Continuous
 62
     7
370
    15
100
AcDbLine
 10
296.3397835419
 20
467.6138600418
 30
0.0
 11
298.3397835419
 21
467.6138600418
 31
0.0
  0
LINE
  5
170
330
1F
100
AcDbEntity
  8
0
  6
Continuous
 62
     7
370
    15
100
AcDbLine
 10
298.3397835419
 20
467.6138600418
 30
0.0
 11
298.3397835419
 21
461.562603381
 31
0.0
  0
LINE
  5
171
330
1F
100
AcDbEntity
  8
0
  6
Continuous
 62
     7
370
    15
100
AcDbLine
 10
296.3397835419
 20
467.6138600418
 30
0.0
 11
296.3397835419
 21
461.562603381
 31
0.0
  0
SPLINE
  5
172
330
1F
100
AcDbEntity
  8
0
  6
Continuous
 62
     7
370
    15
100
AcDbSpline
210
0.0
220
0.0
230
1.0
 70
     8
 71
     3
 72
    11
 73
     7
 74
     0
 42
0.00000001
 43
0.00000001
 12
1.0
 22
0.0
 32
0.0
 13
1.0
 23
0.0
 33
0.0
 40
0.0
 40
0.0
 40
0.0
 40
0.0
 40
0.3704320937920328
 40
0.7442498469251196
 40
0.9442480537698017
 40
1.0
 40
1.0
 40
1.0
 40
1.0
 10
408.3849409497276
 20
403.2329870726155
 30
0.0
 10
408.3895353275383
 20
403.2360257855028
 30
0.0
 10
408.3987660746565
 20
403.242130984375
 30
0.0
 10
408.4094258645119
 20
403.2519526952995
 30
0.0
 10
408.4144693781791
 20
403.2595639198478
 30
0.0
 10
408.4156970078218
 20
403.2626449758666
 30
0.0
 10
408.4159646234655
 20
403.2633166269582
 30
0.0
  0
ARC
  5
173
330
1F
100
AcDbEntity
  8
0
  6
Continuous
 62
     7
370
    15
100
AcDbCircle
 10
392.6403983225
 20
428.3877420375
 30
0.0
 40
29.67578676097857
100
AcDbArc
 50
237.5702355955
 51
302.0427465555
  0
SPLINE
  5
174
330
1F
100
AcDbEntity
  8
0
  6
Continuous
 62
     7
370
    15
100
AcDbSpline
210
0.0
220
0.0
230
1.0
 70
     8
 71
     3
 72
    10
 73
     6
 74
     0
 42
0.00000001
 43
0.00000001
 12
1.0
 22
0.0
 32
0.0
 13
1.0
 23
0.0
 33
0.0
 40
0.0
 40
0.0
 40
0.0
 40
0.0
 40
0.2117958997046557
 40
0.4880069094684135
 40
1.0
 40
1.0
 40
1.0
 40
1.0
 10
376.6954759170861
 20
403.3704487935183
 30
0.0
 10
376.6967191327049
 20
403.3678606738579
 30
0.0
 10
376.6995836726358
 20
403.3618972898707
 30
0.0
 10
376.7102969225824
 20
403.3508269558512
 30
0.0
 10
376.7199997743166
 20
403.3442091016267
 30
0.0
 10
376.7263024477543
 20
403.3399103474895
 30
0.0
  0
LINE
  5
175
330
1F
100
AcDbEntity
  8
0
  6
Continuous
 62
     7
370
    15
100
AcDbLine
 10
404.2035096994
 20
417.0325569593
 30
0.0
 11
404.1988724784
 21
417.0555081278
 31
0.0
  0
LINE
  5
176
330
1F
100
AcDbEntity
  8
0
  6
Continuous
 62
     7
370
    15
100
AcDbLine
 10
404.1884815211
 20
417.0947608519
 30
0.0
 11
406.655886255
 21
405.6155402932
 31
0.0
  0
LINE
  5
177
330
1F
100
AcDbEntity
  8
0
  6
Continuous
 62
     7
370
    15
100
AcDbLine
 10
378.4663037361
 20
405.7107472454
 30
0.0
 11
380.9822867409
 21
417.1731370064
 31
0.0
  0
LINE
  5
178
330
1F
100
AcDbEntity
  8
0
  6
Continuous
 62
     7
370
    15
100
AcDbLine
 10
380.966282172
 20
417.1087467504
 30
0.0
 11
380.971381599
 21
417.1332401666
 31
0.0
  0
ARC
  5
179
330
1F
100
AcDbEntity
  8
0
  6
Continuous
 62
     7
370
    15
100
AcDbCircle
 10
458.0694198359
 20
431.4626780126
 30
0.0
 40
55.76372079789629
100
AcDbArc
 50
164.6410374253
 51
194.9310865258
  0
ARC
  5
17A
330
1F
100
AcDbEntity
  8
0
  6
Continuous
 62
     7
370
    15
100
AcDbCircle
 10
458.2419438008
 20
426.4772307558
 30
0.0
 40
55.65604363866062
100
AcDbArc
 50
162.4664599345
 51
180.6530828777
  0
ARC
  5
17B
330
1F
100
AcDbEntity
  8
0
  6
Continuous
 62
     7
370
    15
100
AcDbCircle
 10
327.2101472478
 20
431.9430243301
 30
0.0
 40
55.76372079789108
100
AcDbArc
 50
344.6410374253
 51
14.9310865258
  0
ARC
  5
17C
330
1F
100
AcDbEntity
  8
0
  6
Continuous
 62
     7
370
    15
100
AcDbCircle
 10
327.1101392461
 20
426.9677813457
 30
0.0
 40
55.58364313004799
100
AcDbArc
 50
359.3361395009
 51
16.7471248175
  0
ARC
  5
17D
330
1F
100
AcDbEntity
  8
0
  6
Continuous
 62
     7
370
    15
100
AcDbCircle
 10
392.5796183861
 20
415.8992145391
 30
0.0
 40
1.501222663609959
100
AcDbArc
 50
182.1199320012
 51
357.4930501497
  0
LINE
  5
17E
330
1F
100
AcDbEntity
  8
0
  6
Continuous
 62
     7
370
    15
100
AcDbLine
 10
394.0794042645
 20
415.833550205
 30
0.0
 11
394.2065134472
 21
449.8751184642
 31
0.0
  0
LINE
  5
17F
330
1F
100
AcDbEntity
  8
0
  6
Continuous
 62
     7
370
    15
100
AcDbLine
 10
391.2065323635
 20
449.8852505424
 30
0.0
 11
391.0794231807
 21
415.8436822833
 31
0.0
  0
LINE
  5
180
330
1F
100
AcDbEntity
  8
0
  6
Continuous
 62
     7
370
    15
100
AcDbLine
 10
391.2106585676
 20
450.3413832901
 30
0.0
 11
391.2119405368
 21
450.7349118276
 31
0.0
  0
SPLINE
  5
181
330
1F
100
AcDbEntity
  8
0
  6
Continuous
 62
     7
370
    15
100
AcDbSpline
210
0.0
220
0.0
230
1.0
 70
     8
 71
     3
 72
    10
 73
     6
 74
     0
 42
0.00000001
 43
0.00000001
 12
1.0
 22
0.0
 32
0.0
 13
1.0
 23
0.0
 33
0.0
 40
0.0
 40
0.0
 40
0.0
 40
0.0
 40
0.4356621132194113
 40
0.7942397707141371
 40
0.9999999999999999
 40
0.9999999999999999
 40
0.9999999999999999
 40
0.9999999999999999
 10
391.2103785789547
 20
450.2677047828021
 30
0.0
 10
391.2104181875291
 20
450.2771720909893
 30
0.0
 10
391.2104903964822
 20
450.2944315965918
 30
0.0
 10
391.2105888895725
 20
450.3205562843468
 30
0.0
 10
391.210639950535
 20
450.3358185842802
 30
0.0
 10
391.2106585676005
 20
450.3413832901193
 30
0.0
  0
LWPOLYLINE
  5
182
330
1F
100
AcDbEntity
  8
0
  6
Continuous
 62
     7
370
    15
100
AcDbPolyline
 90
        6
 70
   128
 43
0.0
 10
391.2034228598
 20
448.8979746507
 10
391.2046307976
 20
449.2124726419
 10
391.2058035383
 20
449.4997983442
 10
391.2069069104
 20
449.7515796082
 10
391.2079087636
 20
449.9604799851
 10
391.2086599286
 20
450.0999720112
  0
SPLINE
  5
183
330
1F
100
AcDbEntity
  8
0
  6
Continuous
 62
     7
370
    15
100
AcDbSpline
210
0.0
220
0.0
230
1.0
 70
     8
 71
     3
 72
    11
 73
     7
 74
     0
 42
0.00000001
 43
0.00000001
 12
1.0
 22
0.0
 32
0.0
 13
1.0
 23
0.0
 33
0.0
 40
0.0
 40
0.0
 40
0.0
 40
0.0
 40
0.2933118760924342
 40
0.5865991201415232
 40
0.8805021461501474
 40
0.9999999999999999
 40
0.9999999999999999
 40
0.9999999999999999
 40
0.9999999999999999
 10
391.2097805690715
 20
450.5729568539073
 30
0.0
 10
391.2095803052426
 20
450.5496240687369
 30
0.0
 10
391.209179794403
 20
450.5029604578604
 30
0.0
 10
391.2081838471403
 20
450.2983659959099
 30
0.0
 10
391.2072554041862
 20
450.0762962909097
 30
0.0
 10
391.2066944989913
 20
449.928090871134
 30
0.0
 10
391.2065323634703
 20
449.8852505423999
 30
0.0
  0
LINE
  5
184
330
1F
100
AcDbEntity
  8
0
  6
Continuous
 62
     7
370
    15
100
AcDbLine
 10
391.2119405368
 20
450.7349118276
 30
0.0
 11
391.2097805691
 21
450.5729568539
 31
0.0
  0
ARC
  5
185
330
1F
100
AcDbEntity
  8
0
  6
Continuous
 62
     7
370
    15
100
AcDbCircle
 10
392.7011409306
 20
430.1994684436
 30
0.0
 40
20.41916299921878
100
AcDbArc
 50
56.9174722815
 51
85.7629784993
  0
SPLINE
  5
186
330
1F
100
AcDbEntity
  8
0
  6
Continuous
 62
     7
370
    15
100
AcDbSpline
210
0.0
220
0.0
230
1.0
 70
     8
 71
     3
 72
    11
 73
     7
 74
     0
 42
0.00000001
 43
0.00000001
 12
1.0
 22
0.0
 32
0.0
 13
1.0
 23
0.0
 33
0.0
 40
0.0
 40
0.0
 40
0.0
 40
0.0
 40
0.2947335968586574
 40
0.5894836108221032
 40
0.8837752324724789
 40
1.0
 40
1.0
 40
1.0
 40
1.0
 10
394.2065134472425
 20
449.8751184641685
 30
0.0
 10
394.2069151369477
 20
449.9792717047511
 30
0.0
 10
394.2077185387328
 20
450.1875839874084
 30
0.0
 10
394.2087833094256
 20
450.4191384004868
 30
0.0
 10
394.209441320197
 20
450.5326811781661
 30
0.0
 10
394.2096909718518
 20
450.5561736291522
 30
0.0
 10
394.2097616528437
 20
450.5628247756752
 30
0.0
  0
ARC
  5
187
330
1F
100
AcDbEntity
  8
0
  6
Continuous
 62
     7
370
    15
100
AcDbCircle
 10
392.5823870889
 20
430.1871355673
 30
0.0
 40
20.43197881231966
100
AcDbArc
 50
93.8519928159
 51
122.6853240026
  0
SPLINE
  5
188
330
1F
100
AcDbEntity
  8
0
  6
Continuous
 62
     7
370
    15
100
AcDbSpline
210
0.0
220
0.0
230
1.0
 70
     8
 71
     3
 72
    10
 73
     6
 74
     0
 42
0.00000001
 43
0.00000001
 12
1.0
 22
0.0
 32
0.0
 13
1.0
 23
0.0
 33
0.0
 40
0.0
 40
0.0
 40
0.0
 40
0.0
 40
0.2117958997144334
 40
0.4880069094793919
 40
1.0
 40
1.0
 40
1.0
 40
1.0
 10
408.5840911666417
 20
448.2898919871516
 30
0.0
 10
408.5828479510229
 20
448.2911398363418
 30
0.0
 10
408.579983411092
 20
448.2940150526592
 30
0.0
 10
408.5692701611454
 20
448.3019424854368
 30
0.0
 10
408.5595673094111
 20
448.3082577969252
 30
0.0
 10
408.5532646359735
 20
448.3123600286255
 30
0.0
  0
LINE
  5
189
330
1F
100
AcDbEntity
  8
0
  6
Continuous
 62
     7
370
    15
100
AcDbLine
 10
393.0050404669
 20
452.8494410789
 30
0.0
 11
394.2119216206
 21
450.7247797494
 31
0.0
  0
SPLINE
  5
18A
330
1F
100
AcDbEntity
  8
0
  6
Continuous
 62
     7
370
    15
100
AcDbSpline
210
0.0
220
0.0
230
1.0
 70
     8
 71
     3
 72
    12
 73
     8
 74
     0
 42
0.00000001
 43
0.00000001
 12
1.0
 22
0.0
 32
0.0
 13
1.0
 23
0.0
 33
0.0
 40
0.0
 40
0.0
 40
0.0
 40
0.0
 40
0.2238925288134565
 40
0.4477848652799225
 40
0.671682073621166
 40
0.8955819150462848
 40
1.0
 40
1.0
 40
1.0
 40
1.0
 10
392.7559076112521
 20
452.876779086974
 30
0.0
 10
392.7840099654192
 20
452.8763475509118
 30
0.0
 10
392.8402146496104
 20
452.8754844791582
 30
0.0
 10
392.9150507494821
 20
452.8702011377395
 30
0.0
 10
392.9715605969245
 20
452.8627495437788
 30
0.0
 10
392.999065643899
 20
452.8553516247736
 30
0.0
 10
393.0035987574948
 20
452.8508672783948
 30
0.0
 10
393.0050404668946
 20
452.8494410788987
 30
0.0
  0
ELLIPSE
  5
18B
330
1F
100
AcDbEntity
  8
0
  6
Continuous
 62
     7
370
    15
100
AcDbEllipse
 10
392.6142699156
 20
414.2004573933
 30
0.0
 11
0.1066274188872285
 21
38.67643784956045
 31
0.0
210
0.0
220
0.0
230
1.0
 40
0.8983295795
 41
6.282177646943625
 42
6.283078201703343
  0
SPLINE
  5
18C
330
1F
100
AcDbEntity
  8
0
  6
Continuous
 62
     7
370
    15
100
AcDbSpline
210
0.0
220
0.0
230
1.0
 70
     8
 71
     3
 72
    12
 73
     8
 74
     0
 42
0.00000001
 43
0.00000001
 12
1.0
 22
0.0
 32
0.0
 13
1.0
 23
0.0
 33
0.0
 40
0.0
 40
0.0
 40
0.0
 40
0.0
 40
0.2238925571846897
 40
0.447784898419509
 40
0.6716824862030771
 40
0.8955821585467677
 40
1.0
 40
1.0
 40
1.0
 40
1.0
 10
392.4747968193212
 20
452.8512319135638
 30
0.0
 10
392.4794091557141
 20
452.8542796374695
 30
0.0
 10
392.4886338240512
 20
452.8603750823411
 30
0.0
 10
392.5365835731537
 20
452.8683842988508
 30
0.0
 10
392.6036191645558
 20
452.8742168199709
 30
0.0
 10
392.6705213396431
 20
452.8767413011495
 30
0.0
 10
392.7115651013052
 20
452.8768501451328
 30
0.0
 10
392.7246186266817
 20
452.8768847617868
 30
0.0
  0
LINE
  5
18D
330
1F
100
AcDbEntity
  8
0
  6
Continuous
 62
     7
370
    15
100
AcDbLine
 10
392.4747968193
 20
452.8512319136
 30
0.0
 11
391.2119405368
 21
450.7349118276
 31
0.0
  0
SPLINE
  5
18E
330
1F
100
AcDbEntity
  8
0
  6
Continuous
 62
     7
370
    15
100
AcDbSpline
210
0.0
220
0.0
230
1.0
 70
     8
 71
     3
 72
    11
 73
     7
 74
     0
 42
0.00000001
 43
0.00000001
 12
1.0
 22
0.0
 32
0.0
 13
1.0
 23
0.0
 33
0.0
 40
0.0
 40
0.0
 40
0.0
 40
0.0
 40
0.3704320937828323
 40
0.7442498469296729
 40
0.9442480537641839
 40
1.0
 40
1.0
 40
1.0
 40
1.0
 10
376.8946261340001
 20
448.4192833034987
 30
0.0
 10
376.8900317561894
 20
448.4163509798811
 30
0.0
 10
376.8808010090708
 20
448.4104595319203
 30
0.0
 10
376.8701412192167
 20
448.4029578960877
 30
0.0
 10
376.8650977055484
 20
448.3986686192889
 30
0.0
 10
376.8638700759058
 20
448.3973184764681
 30
0.0
 10
376.8636024602622
 20
448.3970241537119
 30
0.0
  0
ARC
  5
18F
330
1F
100
AcDbEntity
  8
0
  6
Continuous
 62
     7
370
    15
100
AcDbCircle
 10
392.6391687612
 20
423.2645283386
 30
0.0
 40
29.67578676097947
100
AcDbArc
 50
57.5702355955
 51
122.0427465555
  0
LINE
  5
190
330
1F
100
AcDbEntity
  8
0
  6
Continuous
 62
     7
370
    15
100
AcDbLine
 10
394.2097616528
 20
450.5628247757
 30
0.0
 11
394.2119216206
 21
450.7247797494
 31
0.0
  0
LWPOLYLINE
  5
191
330
1F
100
AcDbEntity
  8
0
  6
Continuous
 62
     7
370
    15
100
AcDbPolyline
 90
        3
 70
   128
 43
0.0
 10
393.2065736671
 20
449.2608015652
 10
393.2110529798
 20
449.2614879468
 10
393.2392218821
 20
449.2658057025
  0
SPLINE
  5
192
330
1F
100
AcDbEntity
  8
0
  6
Continuous
 62
     7
370
    15
100
AcDbSpline
210
0.0
220
0.0
230
1.0
 70
     8
 71
     3
 72
    12
 73
     8
 74
     0
 42
0.00000001
 43
0.00000001
 12
1.0
 22
0.0
 32
0.0
 13
1.0
 23
0.0
 33
0.0
 40
0.0
 40
0.0
 40
0.0
 40
0.0
 40
0.0753237314576742
 40
0.6476082176021729
 40
0.8582063965832353
 40
0.9723416345275866
 40
1.0
 40
1.0
 40
1.0
 40
1.0
 10
393.7763391366071
 20
449.4565810921891
 30
0.0
 10
393.7653730803586
 20
449.4464771371216
 30
0.0
 10
393.6710906012011
 20
449.3596067152056
 30
0.0
 10
393.4985883486594
 20
449.3085481164977
 30
0.0
 10
393.3305617777186
 20
449.2760935074197
 30
0.0
 10
393.2646129961828
 20
449.2693213810466
 30
0.0
 10
393.2433662818689
 20
449.266379540173
 30
0.0
 10
393.239221882013
 20
449.2658057025099
 30
0.0
  0
SPLINE
  5
193
330
1F
100
AcDbEntity
  8
0
  6
Continuous
 62
     7
370
    15
100
AcDbSpline
210
0.0
220
0.0
230
1.0
 70
     8
 71
     3
 72
    14
 73
    10
 74
     0
 42
0.00000001
 43
0.00000001
 12
1.0
 22
0.0
 32
0.0
 13
1.0
 23
0.0
 33
0.0
 40
0.0
 40
0.0
 40
0.0
 40
0.0
 40
0.0450030444518099
 40
0.1924547383736308
 40
0.410103507991761
 40
0.6281156181478705
 40
0.8446514255156873
 40
0.95976210096637
 40
1.0
 40
1.0
 40
1.0
 40
1.0
 10
392.1740369759446
 20
449.2694032374504
 30
0.0
 10
392.1541159544227
 20
449.2718459402637
 30
0.0
 10
392.0689240517002
 20
449.2822921164412
 30
0.0
 10
391.8531514925119
 20
449.3263542788848
 30
0.0
 10
391.5835090324163
 20
449.4728439495537
 30
0.0
 10
391.3488513739468
 20
449.7294802822557
 30
0.0
 10
391.2372847187276
 20
449.9977833570814
 30
0.0
 10
391.2114560502096
 20
450.1844174227152
 30
0.0
 10
391.2106002465311
 20
450.2505701194194
 30
0.0
 10
391.2103785789547
 20
450.2677047828021
 30
0.0
  0
LWPOLYLINE
  5
194
330
1F
100
AcDbEntity
  8
0
  6
Continuous
 62
     7
370
    15
100
AcDbPolyline
 90
        3
 70
   128
 43
0.0
 10
392.1740369759
 20
449.2694032374
 10
392.202115092
 20
449.2648955142
 10
392.2065799726
 20
449.2641789246
  0
LINE
  5
195
330
1F
100
AcDbEntity
  8
0
  6
Continuous
 62
     7
370
    15
100
AcDbLine
 10
392.4739533534
 20
452.5923115668
 30
0.0
 11
392.4747968193
 21
452.8512319136
 31
0.0
  0
SPLINE
  5
196
330
1F
100
AcDbEntity
  8
0
  6
Continuous
 62
     7
370
    15
100
AcDbSpline
210
0.0
220
0.0
230
1.0
 70
     8
 71
     3
 72
    12
 73
     8
 74
     0
 42
0.00000001
 43
0.00000001
 12
1.0
 22
0.0
 32
0.0
 13
1.0
 23
0.0
 33
0.0
 40
0.0
 40
0.0
 40
0.0
 40
0.0
 40
0.3037225605810747
 40
0.6074443824470247
 40
0.9111864331359805
 40
0.9695282540479907
 40
1.0
 40
1.0
 40
1.0
 40
1.0
 10
408.4159646234655
 20
403.2633166269582
 30
0.0
 10
408.443248578841
 20
403.3597717617836
 30
0.0
 10
408.4978164232319
 20
403.5526817968361
 30
0.0
 10
408.4969921103695
 20
403.8942533453148
 30
0.0
 10
408.4500936456172
 20
404.137742312318
 30
0.0
 10
408.4071572950073
 20
404.2703702047696
 30
0.0
 10
408.396506006923
 20
404.2995766508315
 30
0.0
 10
408.3928515726285
 20
404.3095973203753
 30
0.0
  0
SPLINE
  5
197
330
1F
100
AcDbEntity
  8
0
  6
Continuous
 62
     7
370
    15
100
AcDbSpline
210
0.0
220
0.0
230
1.0
 70
     8
 71
     3
 72
    12
 73
     8
 74
     0
 42
0.00000001
 43
0.00000001
 12
1.0
 22
0.0
 32
0.0
 13
1.0
 23
0.0
 33
0.0
 40
0.0
 40
0.0
 40
0.0
 40
0.0
 40
0.0304717459457118
 40
0.0888135668589851
 40
0.3925556175487308
 40
0.696277439417163
 40
1.0
 40
1.0
 40
1.0
 40
1.0
 10
376.7253779817908
 20
404.4165504347017
 30
0.0
 10
376.7216482429122
 20
404.4065547043238
 30
0.0
 10
376.7107774705634
 20
404.3774209464551
 30
0.0
 10
376.6668607024106
 20
404.245086390054
 30
0.0
 10
376.618257949522
 20
404.00191996702
 30
0.0
 10
376.6152374205132
 20
403.6603614040361
 30
0.0
 10
376.6687297298777
 20
403.467086408705
 30
0.0
 10
376.6954759170861
 20
403.3704487935183
 30
0.0
  0
LWPOLYLINE
  5
198
330
1F
100
AcDbEntity
  8
0
  6
Continuous
 62
     7
370
    15
100
AcDbPolyline
 90
       61
 70
   128
 43
0.0
 10
392.7551964316
 20
453.6451071279
 10
396.1517178233
 20
453.4643101334
 10
399.5097617282
 20
452.946846962
 10
402.7925367143
 20
452.0983870485
 10
405.9640760122
 20
450.9282262972
 10
408.9896315734
 20
449.4491852342
 10
411.8360547782
 20
447.6774685429
 10
414.4721596182
 20
445.6324875221
 10
416.8690643772
 20
443.3366474119
 10
419.0005080651
 20
440.8151019168
 10
420.8431381388
 20
438.0954776171
 10
422.3767663576
 20
435.2075712856
 10
423.5845899697
 20
432.1830234284
 10
424.4533758071
 20
429.0549716249
 10
424.9736052701
 20
425.8576874651
 10
425.1395786161
 20
422.6262010635
 10
424.9494774061
 20
419.3959172611
 10
424.405384429
 20
416.2022277234
 10
423.5132608811
 20
413.0801231813
 10
422.2828810549
 20
410.0638100654
 10
420.727725249
 20
407.1863357335
 10
418.8648320761
 20
404.4792263964
 10
416.7146117834
 20
401.9721417107
 10
414.3006226346
 20
399.6925498207
 10
411.6493127998
 20
397.6654264122
 10
408.7897305845
 20
395.9129810735
 10
405.7532061698
 20
394.4544139625
 10
402.5730083526
 20
393.3057054456
 10
399.2839800458
 20
392.4794410137
 10
395.9221565316
 20
391.9846733929
 10
392.5243706521
 20
391.8268233607
 10
389.1278492604
 20
392.0076203552
 10
385.7698053556
 20
392.5250835266
 10
382.4870303694
 20
393.3735434401
 10
379.3154910716
 20
394.5437041914
 10
376.2899355103
 20
396.0227452544
 10
373.4435123056
 20
397.7944619457
 10
370.8074074655
 20
399.8394429665
 10
368.4105027065
 20
402.1352830767
 10
366.2790590186
 20
404.6568285718
 10
364.4364289449
 20
407.3764528716
 10
362.9028007262
 20
410.2643592031
 10
361.694977114
 20
413.2889070602
 10
360.8261912766
 20
416.4169588637
 10
360.3059618136
 20
419.6142430235
 10
360.1399884677
 20
422.8457294252
 10
360.3300896776
 20
426.0760132275
 10
360.8741826547
 20
429.2697027652
 10
361.7663062026
 20
432.3918073073
 10
362.9966860289
 20
435.4081204232
 10
364.5518418347
 20
438.2855947551
 10
366.4147350076
 20
440.9927040922
 10
368.5649553003
 20
443.4997887779
 10
370.9789444491
 20
445.7793806679
 10
373.6302542839
 20
447.8065040764
 10
376.4898364992
 20
449.5589494151
 10
379.5263609139
 20
451.0175165261
 10
382.7065587311
 20
452.166225043
 10
385.9955870379
 20
452.9924894749
 10
389.3574105521
 20
453.4872570957
 10
392.7551964316
 20
453.6451071279
  0
ARC
  5
199
330
1F
100
AcDbEntity
  8
0
  6
Continuous
 62
     7
370
    15
100
AcDbCircle
 10
394.3625289223
 20
425.3254542352
 30
0.0
 40
27.07075939351002
100
AcDbArc
 50
12.1663217581
 51
53.4090660932
  0
ARC
  5
19A
330
1F
100
AcDbEntity
  8
0
  6
Continuous
 62
     7
370
    15
100
AcDbCircle
 10
391.0154740448
 20
425.2738369288
 30
0.0
 40
27.17207246303199
100
AcDbArc
 50
126.2700592672
 51
169.9904205209
  0
SPLINE
  5
19B
330
1F
100
AcDbEntity
  8
0
  6
Continuous
 62
     7
370
    15
100
AcDbSpline
210
0.0
220
0.0
230
1.0
 70
     8
 71
     3
 72
    11
 73
     7
 74
     0
 42
0.00000001
 43
0.00000001
 12
1.0
 22
0.0
 32
0.0
 13
1.0
 23
0.0
 33
0.0
 40
0.0
 40
0.0
 40
0.0
 40
0.0
 40
0.2499996797923248
 40
0.5000466230792225
 40
0.7500258516155498
 40
1.0
 40
1.0
 40
1.0
 40
1.0
 10
392.7453049074851
 20
453.1478854830004
 30
0.0
 10
393.0728941985753
 20
453.1461902534859
 30
0.0
 10
393.7281347128938
 20
453.1427994739664
 30
0.0
 10
394.5543185896375
 20
453.1391550068086
 30
0.0
 10
395.1320144757925
 20
453.1538169838253
 30
0.0
 10
395.2079142565661
 20
453.1917731148533
 30
0.0
 10
395.2458637613345
 20
453.2107509875265
 30
0.0
  0
SPLINE
  5
19C
330
1F
100
AcDbEntity
  8
0
  6
Continuous
 62
     7
370
    15
100
AcDbSpline
210
0.0
220
0.0
230
1.0
 70
     8
 71
     3
 72
    11
 73
     7
 74
     0
 42
0.00000001
 43
0.00000001
 12
1.0
 22
0.0
 32
0.0
 13
1.0
 23
0.0
 33
0.0
 40
0.0
 40
0.0
 40
0.0
 40
0.0
 40
0.2467180930133765
 40
0.4977311862492171
 40
0.7487428494652161
 40
1.0
 40
1.0
 40
1.0
 40
1.0
 10
390.2540361150938
 20
453.2267759374473
 30
0.0
 10
390.2906975548243
 20
453.2078931936381
 30
0.0
 10
390.3646586561923
 20
453.1697989851388
 30
0.0
 10
390.9374824326447
 20
453.1513790952717
 30
0.0
 10
391.7624721938618
 20
453.1494795636083
 30
0.0
 10
392.4175872722853
 20
453.1484170163121
 30
0.0
 10
392.7453049074851
 20
453.1478854830004
 30
0.0
  0
SPLINE
  5
19D
330
1F
100
AcDbEntity
  8
0
  6
Continuous
 62
     7
370
    15
100
AcDbSpline
210
0.0
220
0.0
230
1.0
 70
     8
 71
     3
 72
    10
 73
     6
 74
     0
 42
0.00000001
 43
0.00000001
 12
1.0
 22
0.0
 32
0.0
 13
1.0
 23
0.0
 33
0.0
 40
0.0
 40
0.0
 40
0.0
 40
0.0
 40
0.333331756695674
 40
0.6666653502502611
 40
1.0
 40
1.0
 40
1.0
 40
1.0
 10
422.5114991444646
 20
420.1250296834106
 30
0.0
 10
422.4534522228497
 20
419.975631049523
 30
0.0
 10
422.3373580597463
 20
419.6768329584715
 30
0.0
 10
422.0971665968676
 20
419.4087690987261
 30
0.0
 10
421.930424825608
 20
419.3850368529981
 30
0.0
 10
421.8470538078947
 20
419.3731707113348
 30
0.0
  0
SPLINE
  5
19E
330
1F
100
AcDbEntity
  8
0
  6
Continuous
 62
     7
370
    15
100
AcDbSpline
210
0.0
220
0.0
230
1.0
 70
     8
 71
     3
 72
    11
 73
     7
 74
     0
 42
0.00000001
 43
0.00000001
 12
1.0
 22
0.0
 32
0.0
 13
1.0
 23
0.0
 33
0.0
 40
0.0
 40
0.0
 40
0.0
 40
0.0
 40
0.2499859309632504
 40
0.499995045490175
 40
0.7500054722551248
 40
1.0
 40
1.0
 40
1.0
 40
1.0
 10
421.4149378685851
 20
420.4879470630369
 30
0.0
 10
421.3733694935772
 20
420.1720312362235
 30
0.0
 10
421.2902288885322
 20
419.5401702847292
 30
0.0
 10
421.3300573222959
 20
418.5895666486351
 30
0.0
 10
421.4991350444667
 20
417.7842236830323
 30
0.0
 10
421.7174304330404
 20
417.4924958767098
 30
0.0
 10
421.8265746566789
 20
417.3466366116887
 30
0.0
  0
LINE
  5
19F
330
1F
100
AcDbEntity
  8
0
  6
Continuous
 62
     7
370
    15
100
AcDbLine
 10
421.8265746567
 20
417.3466366117
 30
0.0
 11
422.5642428471
 21
416.9845572728
 31
0.0
  0
LINE
  5
1A0
330
1F
100
AcDbEntity
  8
0
  6
Continuous
 62
     7
370
    15
100
AcDbLine
 10
424.591037323
 20
419.3909322127
 30
0.0
 11
424.2315048248
 21
419.2651048174
 31
0.0
  0
SPLINE
  5
1A1
330
1F
100
AcDbEntity
  8
0
  6
Continuous
 62
     7
370
    15
100
AcDbSpline
210
0.0
220
0.0
230
1.0
 70
     8
 71
     3
 72
    11
 73
     7
 74
     0
 42
0.00000001
 43
0.00000001
 12
1.0
 22
0.0
 32
0.0
 13
1.0
 23
0.0
 33
0.0
 40
0.0
 40
0.0
 40
0.0
 40
0.0
 40
0.2114247204555606
 40
0.475875773157982
 40
0.7369432198652317
 40
1.0
 40
1.0
 40
1.0
 40
1.0
 10
422.3320871637332
 20
422.1644190914741
 30
0.0
 10
422.2563497888137
 20
422.1541222326983
 30
0.0
 10
422.0858797426944
 20
422.1309460136616
 30
0.0
 10
421.8410753809953
 20
421.8454556957251
 30
0.0
 10
421.6193966942046
 20
421.3528849458011
 30
0.0
 10
421.5108885642671
 20
420.9228109433157
 30
0.0
 10
421.4564285759324
 20
420.70695776096
 30
0.0
  0
LINE
  5
1A2
330
1F
100
AcDbEntity
  8
0
  6
Continuous
 62
     7
370
    15
100
AcDbLine
 10
421.4564285759
 20
420.706957761
 30
0.0
 11
421.5099018688
 21
420.6880055022
 31
0.0
  0
SPLINE
  5
1A3
330
1F
100
AcDbEntity
  8
0
  6
Continuous
 62
     7
370
    15
100
AcDbSpline
210
0.0
220
0.0
230
1.0
 70
     8
 71
     3
 72
    12
 73
     8
 74
     0
 42
0.00000001
 43
0.00000001
 12
1.0
 22
0.0
 32
0.0
 13
1.0
 23
0.0
 33
0.0
 40
0.0
 40
0.0
 40
0.0
 40
0.0
 40
0.1999988668346725
 40
0.3999968642153579
 40
0.5999965480968443
 40
0.799991736654602
 40
1.0
 40
1.0
 40
1.0
 40
1.0
 10
421.7366706814319
 20
421.0817560878065
 30
0.0
 10
421.7673570249435
 20
421.0894841980108
 30
0.0
 10
421.8287295785639
 20
421.1049403848232
 30
0.0
 10
421.9182800398791
 20
421.0418631022674
 30
0.0
 10
421.996091426424
 20
420.9205390326096
 30
0.0
 10
422.0579290422745
 20
420.746279519503
 30
0.0
 10
422.0786501105416
 20
420.6016089242771
 30
0.0
 10
422.0890109833265
 20
420.529271262263
 30
0.0
  0
SPLINE
  5
1A4
330
1F
100
AcDbEntity
  8
0
  6
Continuous
 62
     7
370
    15
100
AcDbSpline
210
0.0
220
0.0
230
1.0
 70
     8
 71
     3
 72
    10
 73
     6
 74
     0
 42
0.00000001
 43
0.00000001
 12
1.0
 22
0.0
 32
0.0
 13
1.0
 23
0.0
 33
0.0
 40
0.0
 40
0.0
 40
0.0
 40
0.0
 40
0.3333587650411784
 40
0.666682413924408
 40
1.0
 40
1.0
 40
1.0
 40
1.0
 10
422.0890109833265
 20
420.529271262263
 30
0.0
 10
422.1146204021594
 20
420.454948493093
 30
0.0
 10
422.1658365421176
 20
420.3063107839458
 30
0.0
 10
422.2726928619276
 20
420.1658394553749
 30
0.0
 10
422.3520677382458
 20
420.1448153213256
 30
0.0
 10
422.391754815465
 20
420.1343033499035
 30
0.0
  0
SPLINE
  5
1A5
330
1F
100
AcDbEntity
  8
0
  6
Continuous
 62
     7
370
    15
100
AcDbSpline
210
0.0
220
0.0
230
1.0
 70
     8
 71
     3
 72
    12
 73
     8
 74
     0
 42
0.00000001
 43
0.00000001
 12
1.0
 22
0.0
 32
0.0
 13
1.0
 23
0.0
 33
0.0
 40
0.0
 40
0.0
 40
0.0
 40
0.0
 40
0.2648504293615576
 40
0.5020955659164921
 40
0.6216826836577274
 40
0.7415592238324272
 40
1.0
 40
1.0
 40
1.0
 40
1.0
 10
422.5108654901077
 20
420.1746999357711
 30
0.0
 10
422.5120609453882
 20
420.1709784008376
 30
0.0
 10
422.5143272539497
 20
420.163923225609
 30
0.0
 10
422.5154120901085
 20
420.1525991634109
 30
0.0
 10
422.515205378643
 20
420.1438510745003
 30
0.0
 10
422.5142754378467
 20
420.1348387626244
 30
0.0
 10
422.5126259576531
 20
420.129010890835
 30
0.0
 10
422.5114991444646
 20
420.1250296834106
 30
0.0
  0
LINE
  5
1A6
330
1F
100
AcDbEntity
  8
0
  6
Continuous
 62
     7
370
    15
100
AcDbLine
 10
408.6813213252
 20
448.9516465811
 30
0.0
 11
409.9720142312
 21
448.156746342
 31
0.0
  0
LINE
  5
1A7
330
1F
100
AcDbEntity
  8
0
  6
Continuous
 62
     7
370
    15
100
AcDbLine
 10
409.2914430691
 20
448.7084881309
 30
0.0
 11
410.07231411
 21
448.435016452
 31
0.0
  0
LINE
  5
1A8
330
1F
100
AcDbEntity
  8
0
  6
Continuous
 62
     7
370
    15
100
AcDbLine
 10
406.2497701258
 20
450.3915384594
 30
0.0
 11
407.2638486116
 21
449.8095667207
 31
0.0
  0
LINE
  5
1A9
330
1F
100
AcDbEntity
  8
0
  6
Continuous
 62
     7
370
    15
100
AcDbLine
 10
405.2808069404
 20
450.4605891673
 30
0.0
 11
407.8906618469
 21
449.3418444597
 31
0.0
  0
LINE
  5
1AA
330
1F
100
AcDbEntity
  8
0
  6
Continuous
 62
     7
370
    15
100
AcDbLine
 10
407.8906618469
 20
449.3418444597
 30
0.0
 11
408.5909928652
 21
448.7877152019
 31
0.0
  0
SPLINE
  5
1AB
330
1F
100
AcDbEntity
  8
0
  6
Continuous
 62
     7
370
    15
100
AcDbSpline
210
0.0
220
0.0
230
1.0
 70
     8
 71
     3
 72
    11
 73
     7
 74
     0
 42
0.00000001
 43
0.00000001
 12
1.0
 22
0.0
 32
0.0
 13
1.0
 23
0.0
 33
0.0
 40
0.0
 40
0.0
 40
0.0
 40
0.0
 40
0.250001771687605
 40
0.5000020222858529
 40
0.7500010530205057
 40
1.0
 40
1.0
 40
1.0
 40
1.0
 10
398.7418867440909
 20
397.3617760026447
 30
0.0
 10
398.5477512158801
 20
397.3054599929687
 30
0.0
 10
398.1594813406401
 20
397.1928283162609
 30
0.0
 10
397.6950124266863
 20
396.8758303913074
 30
0.0
 10
397.3902888295588
 20
396.495158644689
 30
0.0
 10
397.3766446298329
 20
396.2334374680905
 30
0.0
 10
397.3698225311127
 20
396.1025769017118
 30
0.0
  0
SPLINE
  5
1AC
330
1F
100
AcDbEntity
  8
0
  6
Continuous
 62
     7
370
    15
100
AcDbSpline
210
0.0
220
0.0
230
1.0
 70
     8
 71
     3
 72
     9
 73
     5
 74
     0
 42
0.00000001
 43
0.00000001
 12
1.0
 22
0.0
 32
0.0
 13
1.0
 23
0.0
 33
0.0
 40
0.0
 40
0.0
 40
0.0
 40
0.0
 40
0.4999998618680027
 40
1.0
 40
1.0
 40
1.0
 40
1.0
 10
400.2147410891001
 20
394.4500393533674
 30
0.0
 10
400.0991361720274
 20
394.5325158242422
 30
0.0
 10
399.8679262740071
 20
394.6974688115624
 30
0.0
 10
399.7935864792348
 20
394.9361529005356
 30
0.0
 10
399.7564165715798
 20
395.0554949779921
 30
0.0
  0
SPLINE
  5
1AD
330
1F
100
AcDbEntity
  8
0
  6
Continuous
 62
     7
370
    15
100
AcDbSpline
210
0.0
220
0.0
230
1.0
 70
     8
 71
     3
 72
    12
 73
     8
 74
     0
 42
0.00000001
 43
0.00000001
 12
1.0
 22
0.0
 32
0.0
 13
1.0
 23
0.0
 33
0.0
 40
0.0
 40
0.0
 40
0.0
 40
0.0
 40
0.1365911973156674
 40
0.352444147683623
 40
0.5682967644753664
 40
0.7841487120413214
 40
1.0
 40
1.0
 40
1.0
 40
1.0
 10
400.3845401774999
 20
396.8311203847309
 30
0.0
 10
400.3663059543615
 20
396.8904913651967
 30
0.0
 10
400.3192564712397
 20
397.0436853851528
 30
0.0
 10
400.0985830700567
 20
397.2315066204014
 30
0.0
 10
399.7617351725935
 20
397.3753781802557
 30
0.0
 10
399.343132405639
 20
397.4378326141958
 30
0.0
 10
399.0384169113835
 20
397.4053588508784
 30
0.0
 10
398.8860593970459
 20
397.3891219940284
 30
0.0
  0
SPLINE
  5
1AE
330
1F
100
AcDbEntity
  8
0
  6
Continuous
 62
     7
370
    15
100
AcDbSpline
210
0.0
220
0.0
230
1.0
 70
     8
 71
     3
 72
    10
 73
     6
 74
     0
 42
0.00000001
 43
0.00000001
 12
1.0
 22
0.0
 32
0.0
 13
1.0
 23
0.0
 33
0.0
 40
0.0
 40
0.0
 40
0.0
 40
0.0
 40
0.333260616708654
 40
0.6653074559407748
 40
1.0
 40
1.0
 40
1.0
 40
1.0
 10
399.3613721947636
 20
397.1004432578157
 30
0.0
 10
399.3588812958048
 20
397.0686204470989
 30
0.0
 10
399.3539085700573
 20
397.005090728382
 30
0.0
 10
399.2974245972098
 20
396.9068159951847
 30
0.0
 10
399.2320793898858
 20
396.850592490092
 30
0.0
 10
399.1992771372672
 20
396.8223691866141
 30
0.0
  0
SPLINE
  5
1AF
330
1F
100
AcDbEntity
  8
0
  6
Continuous
 62
     7
370
    15
100
AcDbSpline
210
0.0
220
0.0
230
1.0
 70
     8
 71
     3
 72
     9
 73
     5
 74
     0
 42
0.00000001
 43
0.00000001
 12
1.0
 22
0.0
 32
0.0
 13
1.0
 23
0.0
 33
0.0
 40
0.0
 40
0.0
 40
0.0
 40
0.0
 40
0.4991614400712694
 40
1.0
 40
1.0
 40
1.0
 40
1.0
 10
399.1992771372672
 20
396.8223691866141
 30
0.0
 10
399.1744387603324
 20
396.7808464970522
 30
0.0
 10
399.1246785526304
 20
396.6976616068973
 30
0.0
 10
399.1298193810428
 20
396.616349852489
 30
0.0
 10
399.1323941061416
 20
396.5756257905057
 30
0.0
  0
SPLINE
  5
1B0
330
1F
100
AcDbEntity
  8
0
  6
Continuous
 62
     7
370
    15
100
AcDbSpline
210
0.0
220
0.0
230
1.0
 70
     8
 71
     3
 72
    11
 73
     7
 74
     0
 42
0.00000001
 43
0.00000001
 12
1.0
 22
0.0
 32
0.0
 13
1.0
 23
0.0
 33
0.0
 40
0.0
 40
0.0
 40
0.0
 40
0.0
 40
0.2781025517900901
 40
0.5151385463623793
 40
0.7437998777143534
 40
1.0
 40
1.0
 40
1.0
 40
1.0
 10
399.2805603690656
 20
396.3793840362607
 30
0.0
 10
399.2791510731296
 20
396.3773225694601
 30
0.0
 10
399.276540587698
 20
396.3735040463857
 30
0.0
 10
399.2701382898474
 20
396.368786853557
 30
0.0
 10
399.262214900624
 20
396.3658633587471
 30
0.0
 10
399.256812405891
 20
396.3655170605761
 30
0.0
 10
399.2539577351373
 20
396.365334077101
 30
0.0
  0
SPLINE
  5
1B1
330
1F
100
AcDbEntity
  8
0
  6
Continuous
 62
     7
370
    15
100
AcDbSpline
210
0.0
220
0.0
230
1.0
 70
     8
 71
     3
 72
    11
 73
     7
 74
     0
 42
0.00000001
 43
0.00000001
 12
1.0
 22
0.0
 32
0.0
 13
1.0
 23
0.0
 33
0.0
 40
0.0
 40
0.0
 40
0.0
 40
0.0
 40
0.2499994240990253
 40
0.4999993892524637
 40
0.7499996631582021
 40
1.0
 40
1.0
 40
1.0
 40
1.0
 10
399.2539577351373
 20
396.365334077101
 30
0.0
 10
399.1350259156296
 20
396.3715752075545
 30
0.0
 10
398.897162019219
 20
396.3840574819687
 30
0.0
 10
398.6095344560196
 20
396.5054379400211
 30
0.0
 10
398.4019488241025
 20
396.6853839537786
 30
0.0
 10
398.3593372425854
 20
396.8413253704945
 30
0.0
 10
398.3380314491451
 20
396.9192960886668
 30
0.0
  0
SPLINE
  5
1B2
330
1F
100
AcDbEntity
  8
0
  6
Continuous
 62
     7
370
    15
100
AcDbSpline
210
0.0
220
0.0
230
1.0
 70
     8
 71
     3
 72
    15
 73
    11
 74
     0
 42
0.00000001
 43
0.00000001
 12
1.0
 22
0.0
 32
0.0
 13
1.0
 23
0.0
 33
0.0
 40
0.0
 40
0.0
 40
0.0
 40
0.0
 40
0.1256549573874101
 40
0.2500586270744087
 40
0.3750420941768324
 40
0.5000157163575908
 40
0.6249841330894688
 40
0.749953665969149
 40
0.8745059358726552
 40
1.0
 40
1.0
 40
1.0
 40
1.0
 10
398.9122918973976
 20
397.3327218378667
 30
0.0
 10
398.9597450796227
 20
397.3349504455893
 30
0.0
 10
399.0541788993798
 20
397.3393854682815
 30
0.0
 10
399.1792453532998
 20
397.3103193503676
 30
0.0
 10
399.2789457446181
 20
397.2581136604964
 30
0.0
 10
399.3444549360547
 20
397.1837924203688
 30
0.0
 10
399.3705574519088
 20
397.0942367493902
 30
0.0
 10
399.3541054095643
 20
396.9972908888372
 30
0.0
 10
399.299956242211
 20
396.8994240196802
 30
0.0
 10
399.2342726188002
 20
396.8431454260008
 30
0.0
 10
399.2013071091062
 20
396.8149001430953
 30
0.0
  0
LINE
  5
1B3
330
1F
100
AcDbEntity
  8
0
  6
Continuous
 62
     7
370
    15
100
AcDbLine
 10
398.8880160485
 20
397.3816376225
 30
0.0
 11
398.9122917341
 21
397.3327221665
 31
0.0
  0
SPLINE
  5
1B4
330
1F
100
AcDbEntity
  8
0
  6
Continuous
 62
     7
370
    15
100
AcDbSpline
210
0.0
220
0.0
230
1.0
 70
     8
 71
     3
 72
    15
 73
    11
 74
     0
 42
0.00000001
 43
0.00000001
 12
1.0
 22
0.0
 32
0.0
 13
1.0
 23
0.0
 33
0.0
 40
0.0
 40
0.0
 40
0.0
 40
0.0
 40
0.125002817660269
 40
0.2499955691664455
 40
0.3749820031436285
 40
0.4999683004622233
 40
0.6249608954579962
 40
0.7499640503840834
 40
0.8749782438632522
 40
1.0
 40
1.0
 40
1.0
 40
1.0
 10
399.9678260221564
 20
395.8185557627273
 30
0.0
 10
400.0677391956364
 20
395.9123582241842
 30
0.0
 10
400.2675574968466
 20
396.0999555934281
 30
0.0
 10
400.4217652558514
 20
396.4192361259146
 30
0.0
 10
400.4494000259394
 20
396.7290779850161
 30
0.0
 10
400.3396476968401
 20
397.0059258108278
 30
0.0
 10
400.1043072475459
 20
397.225232026516
 30
0.0
 10
399.7630276236029
 20
397.3676580553042
 30
0.0
 10
399.3454434482008
 20
397.4304520954193
 30
0.0
 10
399.0404950017528
 20
397.3979094542267
 30
0.0
 10
398.8880161667506
 20
397.3816376414835
 30
0.0
  0
SPLINE
  5
1B5
330
1F
100
AcDbEntity
  8
0
  6
Continuous
 62
     7
370
    15
100
AcDbSpline
210
0.0
220
0.0
230
1.0
 70
     8
 71
     3
 72
    11
 73
     7
 74
     0
 42
0.00000001
 43
0.00000001
 12
1.0
 22
0.0
 32
0.0
 13
1.0
 23
0.0
 33
0.0
 40
0.0
 40
0.0
 40
0.0
 40
0.0
 40
0.2500076438880521
 40
0.5000020318393423
 40
0.7499951762164152
 40
1.0
 40
1.0
 40
1.0
 40
1.0
 10
400.2169746794577
 20
394.4426159959626
 30
0.0
 10
400.1034717634976
 20
394.5255917359803
 30
0.0
 10
399.8764719497434
 20
394.6915388164654
 30
0.0
 10
399.7329671592639
 20
395.0419525011914
 30
0.0
 10
399.7429174152083
 20
395.4289279715643
 30
0.0
 10
399.8928552715811
 20
395.6886777422741
 30
0.0
 10
399.9678259509598
 20
395.8185556613644
 30
0.0
  0
SPLINE
  5
1B6
330
1F
100
AcDbEntity
  8
0
  6
Continuous
 62
     7
370
    15
100
AcDbSpline
210
0.0
220
0.0
230
1.0
 70
     8
 71
     3
 72
    11
 73
     7
 74
     0
 42
0.00000001
 43
0.00000001
 12
1.0
 22
0.0
 32
0.0
 13
1.0
 23
0.0
 33
0.0
 40
0.0
 40
0.0
 40
0.0
 40
0.0
 40
0.2590410212745195
 40
0.5000410122876114
 40
0.7408562253166378
 40
1.0
 40
1.0
 40
1.0
 40
1.0
 10
400.1704234474517
 20
394.3920874491682
 30
0.0
 10
400.17773282759
 20
394.394776269576
 30
0.0
 10
400.1918425227479
 20
394.3999666462659
 30
0.0
 10
400.2079910405611
 20
394.4129031125369
 30
0.0
 10
400.2175657320797
 20
394.4278896103522
 30
0.0
 10
400.2171764539935
 20
394.4375886777344
 30
0.0
 10
400.2169746794577
 20
394.4426159959626
 30
0.0
  0
SPLINE
  5
1B7
330
1F
100
AcDbEntity
  8
0
  6
Continuous
 62
     7
370
    15
100
AcDbSpline
210
0.0
220
0.0
230
1.0
 70
     8
 71
     3
 72
    11
 73
     7
 74
     0
 42
0.00000001
 43
0.00000001
 12
1.0
 22
0.0
 32
0.0
 13
1.0
 23
0.0
 33
0.0
 40
0.0
 40
0.0
 40
0.0
 40
0.0
 40
0.2499760487238953
 40
0.4999659645126255
 40
0.7499749891408835
 40
1.0
 40
1.0
 40
1.0
 40
1.0
 10
397.3712755599375
 20
396.0950030261319
 30
0.0
 10
397.4365576776936
 20
395.8559157159599
 30
0.0
 10
397.5671255346381
 20
395.3777278325883
 30
0.0
 10
398.2034317759625
 20
394.8174396635492
 30
0.0
 10
399.0838160829894
 20
394.4388077961555
 30
0.0
 10
399.8082124370196
 20
394.4076612052708
 30
0.0
 10
400.1704221936138
 20
394.3920874119457
 30
0.0
  0
SPLINE
  5
1B8
330
1F
100
AcDbEntity
  8
0
  6
Continuous
 62
     7
370
    15
100
AcDbSpline
210
0.0
220
0.0
230
1.0
 70
     8
 71
     3
 72
    11
 73
     7
 74
     0
 42
0.00000001
 43
0.00000001
 12
1.0
 22
0.0
 32
0.0
 13
1.0
 23
0.0
 33
0.0
 40
0.0
 40
0.0
 40
0.0
 40
0.0
 40
0.2500346433121315
 40
0.500048563117408
 40
0.75003401649259
 40
1.0
 40
1.0
 40
1.0
 40
1.0
 10
398.7437981466583
 20
397.3542824628452
 30
0.0
 10
398.5496069388881
 20
397.2979573256137
 30
0.0
 10
398.1612406184087
 20
397.185311719521
 30
0.0
 10
397.6966168343419
 20
396.8683030019114
 30
0.0
 10
397.3917641225726
 20
396.4876068960118
 30
0.0
 10
397.3781049035032
 20
396.2258675850754
 30
0.0
 10
397.3712755599375
 20
396.0950030261319
 30
0.0
  0
LINE
  5
1B9
330
1F
100
AcDbEntity
  8
0
  6
Continuous
 62
     7
370
    15
100
AcDbLine
 10
398.7319156547
 20
397.3093901065
 30
0.0
 11
398.7437982038
 21
397.3542821257
 31
0.0
  0
SPLINE
  5
1BA
330
1F
100
AcDbEntity
  8
0
  6
Continuous
 62
     7
370
    15
100
AcDbSpline
210
0.0
220
0.0
230
1.0
 70
     8
 71
     3
 72
    11
 73
     7
 74
     0
 42
0.00000001
 43
0.00000001
 12
1.0
 22
0.0
 32
0.0
 13
1.0
 23
0.0
 33
0.0
 40
0.0
 40
0.0
 40
0.0
 40
0.0
 40
0.2499670227801575
 40
0.4999521398925575
 40
0.7499647382384631
 40
1.0
 40
1.0
 40
1.0
 40
1.0
 10
398.3398039791745
 20
396.9117758179082
 30
0.0
 10
398.3413999287998
 20
396.9511688655326
 30
0.0
 10
398.3445919435762
 20
397.0299578123212
 30
0.0
 10
398.4296731872034
 20
397.1474989471828
 30
0.0
 10
398.5611956455732
 20
397.2488724407688
 30
0.0
 10
398.675007170384
 20
397.2892169147401
 30
0.0
 10
398.7319155119006
 20
397.3093900659817
 30
0.0
  0
SPLINE
  5
1BB
330
1F
100
AcDbEntity
  8
0
  6
Continuous
 62
     7
370
    15
100
AcDbSpline
210
0.0
220
0.0
230
1.0
 70
     8
 71
     3
 72
    11
 73
     7
 74
     0
 42
0.00000001
 43
0.00000001
 12
1.0
 22
0.0
 32
0.0
 13
1.0
 23
0.0
 33
0.0
 40
0.0
 40
0.0
 40
0.0
 40
0.0
 40
0.2500313031745796
 40
0.5000408249969968
 40
0.7500276932875961
 40
1.0
 40
1.0
 40
1.0
 40
1.0
 10
399.2559864895805
 20
396.3578647742499
 30
0.0
 10
399.1370211792124
 20
396.3640978025044
 30
0.0
 10
398.8991009220796
 20
396.3765633160263
 30
0.0
 10
398.6113866474249
 20
396.4979229037522
 30
0.0
 10
398.4037361865859
 20
396.6778592408767
 30
0.0
 10
398.3611143011832
 20
396.8338051395669
 30
0.0
 10
398.3398039791745
 20
396.9117758179082
 30
0.0
  0
SPLINE
  5
1BC
330
1F
100
AcDbEntity
  8
0
  6
Continuous
 62
     7
370
    15
100
AcDbSpline
210
0.0
220
0.0
230
1.0
 70
     8
 71
     3
 72
    12
 73
     8
 74
     0
 42
0.00000001
 43
0.00000001
 12
1.0
 22
0.0
 32
0.0
 13
1.0
 23
0.0
 33
0.0
 40
0.0
 40
0.0
 40
0.0
 40
0.0
 40
0.2781434969452985
 40
0.5146007150608558
 40
0.6278863650424408
 40
0.7438213592715005
 40
1.0
 40
1.0
 40
1.0
 40
1.0
 10
399.2825976057799
 20
396.3719165437183
 30
0.0
 10
399.2812004396336
 20
396.3698469349114
 30
0.0
 10
399.2786155052172
 20
396.3660178963626
 30
0.0
 10
399.2731739440827
 20
396.3619969502219
 30
0.0
 10
399.2683711466962
 20
396.3598749426952
 30
0.0
 10
399.2630069111957
 20
396.3582821635825
 30
0.0
 10
399.2588489823029
 20
396.3580349597449
 30
0.0
 10
399.2559864895805
 20
396.3578647742499
 30
0.0
  0
SPLINE
  5
1BD
330
1F
100
AcDbEntity
  8
0
  6
Continuous
 62
     7
370
    15
100
AcDbSpline
210
0.0
220
0.0
230
1.0
 70
     8
 71
     3
 72
    11
 73
     7
 74
     0
 42
0.00000001
 43
0.00000001
 12
1.0
 22
0.0
 32
0.0
 13
1.0
 23
0.0
 33
0.0
 40
0.0
 40
0.0
 40
0.0
 40
0.0
 40
0.2500276246910116
 40
0.5000490127467886
 40
0.7500174406371554
 40
0.9999999999999999
 40
0.9999999999999999
 40
0.9999999999999999
 40
0.9999999999999999
 10
399.201307008099
 20
396.8148999996735
 30
0.0
 10
399.1770940361014
 20
396.7734622756389
 30
0.0
 10
399.1286686960693
 20
396.6905878611834
 30
0.0
 10
399.1262753089467
 20
396.5662625696485
 30
0.0
 10
399.172587113847
 20
396.4533223620099
 30
0.0
 10
399.2459267508031
 20
396.3990523278093
 30
0.0
 10
399.2825976057798
 20
396.3719165437183
 30
0.0
  0
LINE
  5
1BE
330
1F
100
AcDbEntity
  8
0
  6
Continuous
 62
     7
370
    15
100
AcDbLine
 10
398.886059397
 20
397.389121994
 30
0.0
 11
398.8880160485
 21
397.3816376225
 31
0.0
  0
LINE
  5
1BF
330
1F
100
AcDbEntity
  8
0
  6
Continuous
 62
     7
370
    15
100
AcDbLine
 10
398.7418867441
 20
397.3617760026
 30
0.0
 11
398.743798302
 21
397.3542824971
 31
0.0
  0
LINE
  5
1C0
330
1F
100
AcDbEntity
  8
0
  6
Continuous
 62
     7
370
    15
100
AcDbLine
 10
399.1992771373
 20
396.8223691866
 30
0.0
 11
399.2013071091
 21
396.8149001431
 31
0.0
  0
LINE
  5
1C1
330
1F
100
AcDbEntity
  8
0
  6
Continuous
 62
     7
370
    15
100
AcDbLine
 10
400.2147410891
 20
394.4500393534
 30
0.0
 11
400.2169746795
 21
394.442615996
 31
0.0
  0
LINE
  5
1C2
330
1F
100
AcDbEntity
  8
0
  6
Continuous
 62
     7
370
    15
100
AcDbLine
 10
421.4655872498
 20
420.7066537059
 30
0.0
 11
421.5190618124
 21
420.6877100832
 31
0.0
  0
SPLINE
  5
1C3
330
1F
100
AcDbEntity
  8
0
  6
Continuous
 62
     7
370
    15
100
AcDbSpline
210
0.0
220
0.0
230
1.0
 70
     8
 71
     3
 72
    15
 73
    11
 74
     0
 42
0.00000001
 43
0.00000001
 12
1.0
 22
0.0
 32
0.0
 13
1.0
 23
0.0
 33
0.0
 40
0.0
 40
0.0
 40
0.0
 40
0.0
 40
0.1253598683917651
 40
0.2492918986158552
 40
0.3751208158556797
 40
0.5000060450749959
 40
0.6248182493151505
 40
0.750625670328993
 40
0.8748357725076242
 40
0.9999999999999999
 40
0.9999999999999999
 40
0.9999999999999999
 40
0.9999999999999999
 10
423.2926765159975
 20
420.4973531196629
 30
0.0
 10
423.2485191562237
 20
420.722716001553
 30
0.0
 10
423.1607073852232
 20
421.1708749014041
 30
0.0
 10
422.9457886571619
 20
421.7231485916307
 30
0.0
 10
422.6801838401628
 20
422.0678226199877
 30
0.0
 10
422.3951670917928
 20
422.2188807984156
 30
0.0
 10
422.1125345820446
 20
422.1352591307135
 30
0.0
 10
421.8501517678606
 20
421.8496817797135
 30
0.0
 10
421.628619408446
 20
421.351743570869
 30
0.0
 10
421.5200696256419
 20
420.9222316217376
 30
0.0
 10
421.4655870743421
 20
420.7066539743402
 30
0.0
  0
SPLINE
  5
1C4
330
1F
100
AcDbEntity
  8
0
  6
Continuous
 62
     7
370
    15
100
AcDbSpline
210
0.0
220
0.0
230
1.0
 70
     8
 71
     3
 72
    11
 73
     7
 74
     0
 42
0.00000001
 43
0.00000001
 12
1.0
 22
0.0
 32
0.0
 13
1.0
 23
0.0
 33
0.0
 40
0.0
 40
0.0
 40
0.0
 40
0.0
 40
0.2500068906674779
 40
0.5000012737603091
 40
0.7499947297687949
 40
1.0
 40
1.0
 40
1.0
 40
1.0
 10
424.6002577294954
 20
419.3910419570635
 30
0.0
 10
424.4809551334897
 20
419.3289042236108
 30
0.0
 10
424.2423559100583
 20
419.2046318653893
 30
0.0
 10
423.8746576400163
 20
419.381018842355
 30
0.0
 10
423.5412785841158
 20
419.7973071520535
 30
0.0
 10
423.3755453565734
 20
420.2639998714233
 30
0.0
 10
423.2926767847879
 20
420.497351744734
 30
0.0
  0
SPLINE
  5
1C5
330
1F
100
AcDbEntity
  8
0
  6
Continuous
 62
     7
370
    15
100
AcDbSpline
210
0.0
220
0.0
230
1.0
 70
     8
 71
     3
 72
    11
 73
     7
 74
     0
 42
0.00000001
 43
0.00000001
 12
1.0
 22
0.0
 32
0.0
 13
1.0
 23
0.0
 33
0.0
 40
0.0
 40
0.0
 40
0.0
 40
0.0
 40
0.255396592136498
 40
0.4997857672867849
 40
0.7474328788604705
 40
1.0
 40
1.0
 40
1.0
 40
1.0
 10
424.6256088228736
 20
419.277605287769
 30
0.0
 10
424.6262786394103
 20
419.2898100291197
 30
0.0
 10
424.6275894038528
 20
419.3136934958858
 30
0.0
 10
424.6225895473022
 20
419.3484422476299
 30
0.0
 10
424.6134559096543
 20
419.3772121810043
 30
0.0
 10
424.604685876327
 20
419.3864019022755
 30
0.0
 10
424.6002577294954
 20
419.3910419570635
 30
0.0
  0
SPLINE
  5
1C6
330
1F
100
AcDbEntity
  8
0
  6
Continuous
 62
     7
370
    15
100
AcDbSpline
210
0.0
220
0.0
230
1.0
 70
     8
 71
     3
 72
    11
 73
     7
 74
     0
 42
0.00000001
 43
0.00000001
 12
1.0
 22
0.0
 32
0.0
 13
1.0
 23
0.0
 33
0.0
 40
0.0
 40
0.0
 40
0.0
 40
0.0
 40
0.2499761756126412
 40
0.5000101816855427
 40
0.750013180053718
 40
1.0
 40
1.0
 40
1.0
 40
1.0
 10
421.8355618335368
 20
417.3455665459109
 30
0.0
 10
422.0765810500647
 20
417.1830340156056
 30
0.0
 10
422.5586752414429
 20
416.8579313540877
 30
0.0
 10
423.3696517926706
 20
417.124138199048
 30
0.0
 10
424.1242463360124
 20
417.9004551524894
 30
0.0
 10
424.4584915263576
 20
418.8185643403093
 30
0.0
 10
424.6256087138604
 20
419.2776040803589
 30
0.0
  0
SPLINE
  5
1C7
330
1F
100
AcDbEntity
  8
0
  6
Continuous
 62
     7
370
    15
100
AcDbSpline
210
0.0
220
0.0
230
1.0
 70
     8
 71
     3
 72
    11
 73
     7
 74
     0
 42
0.00000001
 43
0.00000001
 12
1.0
 22
0.0
 32
0.0
 13
1.0
 23
0.0
 33
0.0
 40
0.0
 40
0.0
 40
0.0
 40
0.0
 40
0.2500322192819036
 40
0.5000457644201216
 40
0.7500323342605277
 40
1.0
 40
1.0
 40
1.0
 40
1.0
 10
421.4240836932227
 20
420.4875727890991
 30
0.0
 10
421.3824955229152
 20
420.1715558411311
 30
0.0
 10
421.2993222883939
 20
419.5395455475369
 30
0.0
 10
421.3390862846581
 20
418.5887356320121
 30
0.0
 10
421.5081135580242
 20
417.7832079601954
 30
0.0
 10
421.7264151598148
 20
417.4914433399705
 30
0.0
 10
421.8355618335368
 20
417.3455665459108
 30
0.0
  0
LINE
  5
1C8
330
1F
100
AcDbEntity
  8
0
  6
Continuous
 62
     7
370
    15
100
AcDbLine
 10
421.4576872497
 20
420.4250482081
 30
0.0
 11
421.4240837166
 21
420.4875729255
 31
0.0
  0
SPLINE
  5
1C9
330
1F
100
AcDbEntity
  8
0
  6
Continuous
 62
     7
370
    15
100
AcDbSpline
210
0.0
220
0.0
230
1.0
 70
     8
 71
     3
 72
    11
 73
     7
 74
     0
 42
0.00000001
 43
0.00000001
 12
1.0
 22
0.0
 32
0.0
 13
1.0
 23
0.0
 33
0.0
 40
0.0
 40
0.0
 40
0.0
 40
0.0
 40
0.2499666701448206
 40
0.4999515679305485
 40
0.749964224090774
 40
1.0
 40
1.0
 40
1.0
 40
1.0
 10
421.6191382856304
 20
419.4905874033032
 30
0.0
 10
421.5857608643948
 20
419.5338116665303
 30
0.0
 10
421.5190035880325
 20
419.6202633449101
 30
0.0
 10
421.45765866052
 20
419.8558470765956
 30
0.0
 10
421.4317044860206
 20
420.1360222486892
 30
0.0
 10
421.4490261803057
 20
420.3287030308014
 30
0.0
 10
421.4576874278828
 20
420.4250478761573
 30
0.0
  0
SPLINE
  5
1CA
330
1F
100
AcDbEntity
  8
0
  6
Continuous
 62
     7
370
    15
100
AcDbSpline
210
0.0
220
0.0
230
1.0
 70
     8
 71
     3
 72
    11
 73
     7
 74
     0
 42
0.00000001
 43
0.00000001
 12
1.0
 22
0.0
 32
0.0
 13
1.0
 23
0.0
 33
0.0
 40
0.0
 40
0.0
 40
0.0
 40
0.0
 40
0.2500302917354846
 40
0.5000397805487536
 40
0.750027166122346
 40
1.0
 40
1.0
 40
1.0
 40
1.0
 10
422.5206759811588
 20
420.1248348490874
 30
0.0
 10
422.4625434376893
 20
419.9744692250541
 30
0.0
 10
422.3462831874713
 20
419.6737504876492
 30
0.0
 10
422.1072389903834
 20
419.4192643827743
 30
0.0
 10
421.8526610221045
 20
419.3314536246887
 30
0.0
 10
421.6969776873639
 20
419.4375438397086
 30
0.0
 10
421.6191382856304
 20
419.4905874033032
 30
0.0
  0
SPLINE
  5
1CB
330
1F
100
AcDbEntity
  8
0
  6
Continuous
 62
     7
370
    15
100
AcDbSpline
210
0.0
220
0.0
230
1.0
 70
     8
 71
     3
 72
    11
 73
     7
 74
     0
 42
0.00000001
 43
0.00000001
 12
1.0
 22
0.0
 32
0.0
 13
1.0
 23
0.0
 33
0.0
 40
0.0
 40
0.0
 40
0.0
 40
0.0
 40
0.2648155482543287
 40
0.499540388284456
 40
0.7415350559503543
 40
1.0
 40
1.0
 40
1.0
 40
1.0
 10
422.5200444385981
 20
420.1745182241371
 30
0.0
 10
422.5212530920244
 20
420.1708153941838
 30
0.0
 10
422.5235330608776
 20
420.1638304828944
 30
0.0
 10
422.5248049350837
 20
420.1503947985199
 30
0.0
 10
422.5239603308248
 20
420.1365566654968
 30
0.0
 10
422.5217945235043
 20
420.1288269173363
 30
0.0
 10
422.5206759811588
 20
420.1248348490874
 30
0.0
  0
SPLINE
  5
1CC
330
1F
100
AcDbEntity
  8
0
  6
Continuous
 62
     7
370
    15
100
AcDbSpline
210
0.0
220
0.0
230
1.0
 70
     8
 71
     3
 72
    11
 73
     7
 74
     0
 42
0.00000001
 43
0.00000001
 12
1.0
 22
0.0
 32
0.0
 13
1.0
 23
0.0
 33
0.0
 40
0.0
 40
0.0
 40
0.0
 40
0.0
 40
0.2500047259081408
 40
0.4999975130811484
 40
0.749991746054388
 40
1.0
 40
1.0
 40
1.0
 40
1.0
 10
422.0981883543781
 20
420.5290797359956
 30
0.0
 10
422.1237496880352
 20
420.4541790855047
 30
0.0
 10
422.1748711346925
 20
420.3043813613315
 30
0.0
 10
422.2818857867456
 20
420.1709315612988
 30
0.0
 10
422.4008989389567
 20
420.1144937739431
 30
0.0
 10
422.4803285296013
 20
420.1545097000329
 30
0.0
 10
422.5200444385981
 20
420.1745182241371
 30
0.0
  0
SPLINE
  5
1CD
330
1F
100
AcDbEntity
  8
0
  6
Continuous
 62
     7
370
    15
100
AcDbSpline
210
0.0
220
0.0
230
1.0
 70
     8
 71
     3
 72
    15
 73
    11
 74
     0
 42
0.00000001
 43
0.00000001
 12
1.0
 22
0.0
 32
0.0
 13
1.0
 23
0.0
 33
0.0
 40
0.0
 40
0.0
 40
0.0
 40
0.0
 40
0.1250215456742313
 40
0.2500341506779142
 40
0.3750353858476844
 40
0.5000267097334243
 40
0.6250128801855227
 40
0.7500003051044026
 40
0.8749948694360518
 40
0.9999999999999999
 40
0.9999999999999999
 40
0.9999999999999999
 40
0.9999999999999999
 10
421.5190618396635
 20
420.6877101903524
 30
0.0
 10
421.5382283708757
 20
420.7521873572106
 30
0.0
 10
421.5765600626434
 20
420.8811370799687
 30
0.0
 10
421.6563319210313
 20
421.0163028012442
 30
0.0
 10
421.7451559079033
 20
421.0930211456999
 30
0.0
 10
421.8380925485142
 20
421.101760081709
 30
0.0
 10
421.9274449324105
 20
421.0427088529456
 30
0.0
 10
422.0052782508487
 20
420.9201515104648
 30
0.0
 10
422.0671721818953
 20
420.746283017212
 30
0.0
 10
422.0878493389106
 20
420.6014828697262
 30
0.0
 10
422.0981883543781
 20
420.5290797359956
 30
0.0
  0
LINE
  5
1CE
330
1F
100
AcDbEntity
  8
0
  6
Continuous
 62
     7
370
    15
100
AcDbLine
 10
421.8265746567
 20
417.3466366117
 30
0.0
 11
421.8355618335
 21
417.3455665459
 31
0.0
  0
LINE
  5
1CF
330
1F
100
AcDbEntity
  8
0
  6
Continuous
 62
     7
370
    15
100
AcDbLine
 10
421.4149378686
 20
420.487947063
 30
0.0
 11
421.4240837166
 21
420.4875729255
 31
0.0
  0
LINE
  5
1D0
330
1F
100
AcDbEntity
  8
0
  6
Continuous
 62
     7
370
    15
100
AcDbLine
 10
421.4564285759
 20
420.706957761
 30
0.0
 11
421.4655870247
 21
420.7066537858
 31
0.0
  0
LINE
  5
1D1
330
1F
100
AcDbEntity
  8
0
  6
Continuous
 62
     7
370
    15
100
AcDbLine
 10
421.5099018688
 20
420.6880055022
 30
0.0
 11
421.5190618124
 21
420.6877100832
 31
0.0
  0
LINE
  5
1D2
330
1F
100
AcDbEntity
  8
0
  6
Continuous
 62
     7
370
    15
100
AcDbLine
 10
422.0890109833
 20
420.5292712623
 30
0.0
 11
422.0981883544
 21
420.529079736
 31
0.0
  0
SPLINE
  5
1D3
330
1F
100
AcDbEntity
  8
0
  6
Continuous
 62
     7
370
    15
100
AcDbSpline
210
0.0
220
0.0
230
1.0
 70
     8
 71
     3
 72
    12
 73
     8
 74
     0
 42
0.00000001
 43
0.00000001
 12
1.0
 22
0.0
 32
0.0
 13
1.0
 23
0.0
 33
0.0
 40
0.0
 40
0.0
 40
0.0
 40
0.0
 40
0.0304717459549358
 40
0.0888135668588246
 40
0.3925556175493127
 40
0.6962774394180924
 40
1.0
 40
1.0
 40
1.0
 40
1.0
 10
408.554189101937
 20
447.5179824124006
 30
0.0
 10
408.5579188408191
 20
447.5281293353133
 30
0.0
 10
408.5687896131753
 20
447.557703761992
 30
0.0
 10
408.6127063813017
 20
447.6876450220972
 30
0.0
 10
408.661309134212
 20
447.9005876043502
 30
0.0
 10
408.6643296632129
 20
448.1471926153273
 30
0.0
 10
408.6108373538494
 20
448.2423254913132
 30
0.0
 10
408.5840911666417
 20
448.2898919871516
 30
0.0
  0
SPLINE
  5
1D4
330
1F
100
AcDbEntity
  8
0
  6
Continuous
 62
     7
370
    15
100
AcDbSpline
210
0.0
220
0.0
230
1.0
 70
     8
 71
     3
 72
    12
 73
     8
 74
     0
 42
0.00000001
 43
0.00000001
 12
1.0
 22
0.0
 32
0.0
 13
1.0
 23
0.0
 33
0.0
 40
0.0
 40
0.0
 40
0.0
 40
0.0
 40
0.0304717459519004
 40
0.0888135668590935
 40
0.3925556175488626
 40
0.6962774394173983
 40
1.0
 40
1.0
 40
1.0
 40
1.0
 10
376.886715511097
 20
447.6249355267329
 30
0.0
 10
376.8830610768023
 20
447.6351073888093
 30
0.0
 10
376.8724097887181
 20
447.6647545036818
 30
0.0
 10
376.8294734381147
 20
447.7949890998288
 30
0.0
 10
376.7825749733556
 20
448.0082542260564
 30
0.0
 10
376.7817506604966
 20
448.2548722225262
 30
0.0
 10
376.8363185048869
 20
448.3496401382341
 30
0.0
 10
376.8636024602623
 20
448.3970241537119
 30
0.0
  0
LINE
  5
1D5
330
1F
100
AcDbEntity
  8
0
  6
Continuous
 62
     7
370
    15
100
AcDbLine
 10
424.591037323
 20
419.3909322127
 30
0.0
 11
424.6002577295
 21
419.3910419571
 31
0.0
  0
LINE
  5
1D6
330
1F
100
AcDbEntity
  8
0
  6
Continuous
 62
     7
370
    15
100
AcDbLine
 10
407.2682660091
 20
449.8184812418
 30
0.0
 11
405.2847581122
 21
450.4697276912
 31
0.0
  0
LINE
  5
1D7
330
1F
100
AcDbEntity
  8
0
  6
Continuous
 62
     7
370
    15
100
AcDbLine
 10
406.253843753
 20
450.4006211153
 30
0.0
 11
407.2682662884
 21
449.8184811436
 31
0.0
  0
LINE
  5
1D8
330
1F
100
AcDbEntity
  8
0
  6
Continuous
 62
     7
370
    15
100
AcDbLine
 10
407.7795853646
 20
449.6443147756
 30
0.0
 11
406.2538438396
 21
450.4006211323
 31
0.0
  0
LINE
  5
1D9
330
1F
100
AcDbEntity
  8
0
  6
Continuous
 62
     7
370
    15
100
AcDbLine
 10
408.0657647226
 20
449.6844095445
 30
0.0
 11
407.7795853646
 21
449.6443147756
 31
0.0
  0
LINE
  5
1DA
330
1F
100
AcDbEntity
  8
0
  6
Continuous
 62
     7
370
    15
100
AcDbLine
 10
408.8629094602
 20
449.0743034399
 30
0.0
 11
408.0657649982
 21
449.6844094257
 31
0.0
  0
LINE
  5
1DB
330
1F
100
AcDbEntity
  8
0
  6
Continuous
 62
     7
370
    15
100
AcDbLine
 10
410.0774636567
 20
448.4435118293
 30
0.0
 11
408.8629094602
 21
449.0743034399
 31
0.0
  0
LINE
  5
1DC
330
1F
100
AcDbEntity
  8
0
  6
Continuous
 62
     7
370
    15
100
AcDbLine
 10
409.2964553767
 20
448.7170689272
 30
0.0
 11
410.0774637843
 21
448.4435117405
 31
0.0
  0
LINE
  5
1DD
330
1F
100
AcDbEntity
  8
0
  6
Continuous
 62
     7
370
    15
100
AcDbLine
 10
409.9772871779
 20
448.1651621482
 30
0.0
 11
409.2964551707
 21
448.7170689981
 31
0.0
  0
LINE
  5
1DE
330
1F
100
AcDbEntity
  8
0
  6
Continuous
 62
     7
370
    15
100
AcDbLine
 10
408.6862048804
 20
448.9603044442
 30
0.0
 11
409.9772871779
 21
448.1651621482
 31
0.0
  0
LINE
  5
1DF
330
1F
100
AcDbEntity
  8
0
  6
Continuous
 62
     7
370
    15
100
AcDbLine
 10
408.595950293
 20
448.796329159
 30
0.0
 11
408.6862048804
 21
448.9603044442
 31
0.0
  0
LINE
  5
1E0
330
1F
100
AcDbEntity
  8
0
  6
Continuous
 62
     7
370
    15
100
AcDbLine
 10
407.8953324828
 20
449.3506238408
 30
0.0
 11
408.595950293
 21
448.796329159
 31
0.0
  0
LINE
  5
1E1
330
1F
100
AcDbEntity
  8
0
  6
Continuous
 62
     7
370
    15
100
AcDbLine
 10
405.2847581122
 20
450.4697276912
 30
0.0
 11
407.895332181
 21
449.3506239836
 31
0.0
  0
LINE
  5
1E2
330
1F
100
AcDbEntity
  8
0
  6
Continuous
 62
     7
370
    15
100
AcDbLine
 10
407.8906618469
 20
449.3418444597
 30
0.0
 11
407.8953324828
 21
449.3506238408
 31
0.0
  0
LINE
  5
1E3
330
1F
100
AcDbEntity
  8
0
  6
Continuous
 62
     7
370
    15
100
AcDbLine
 10
405.2808069404
 20
450.4605891673
 30
0.0
 11
405.2847581122
 21
450.4697276912
 31
0.0
  0
LINE
  5
1E4
330
1F
100
AcDbEntity
  8
0
  6
Continuous
 62
     7
370
    15
100
AcDbLine
 10
408.5909928652
 20
448.7877152019
 30
0.0
 11
408.595950293
 21
448.796329159
 31
0.0
  0
SPLINE
  5
1E5
330
1F
100
AcDbEntity
  8
0
  6
Continuous
 62
     7
370
    15
100
AcDbSpline
210
0.0
220
0.0
230
1.0
 70
    11
 71
     3
 72
    23
 73
    19
 74
     0
 42
0.00000001
 43
0.00000001
 12
1.0
 22
0.0
 32
0.0
 13
1.0
 23
0.0
 33
0.0
 40
0.0
 40
0.0
 40
0.0
 40
0.0
 40
0.0625207000672957
 40
0.1250381450396692
 40
0.1875462570329326
 40
0.2500493500569217
 40
0.3125527362146078
 40
0.3750609610466614
 40
0.4375758461114488
 40
0.5000949954319719
 40
0.562613660754151
 40
0.6251273211309725
 40
0.687633624565612
 40
0.7501347379604991
 40
0.8126350683745187
 40
0.8751345470502
 40
0.9376810076344493
 40
1.0
 40
1.0
 40
1.0
 40
1.0
 10
392.7453378792322
 20
453.1578634256981
 30
0.0
 10
393.072729252707
 20
453.1561979122853
 30
0.0
 10
393.7274949542623
 20
453.1528669721736
 30
0.0
 10
394.559866327111
 20
453.1487351665812
 30
0.0
 10
395.1157391443828
 20
453.1652096414729
 30
0.0
 10
395.3115717178026
 20
453.2154495674333
 30
0.0
 10
395.1178947923577
 20
453.2976372172159
 30
0.0
 10
394.5636911526904
 20
453.3917103969702
 30
0.0
 10
393.7324758579125
 20
453.4675640929972
 30
0.0
 10
392.7506589778399
 20
453.4986134332109
 30
0.0
 10
391.768452620233
 20
453.4740490537302
 30
0.0
 10
390.9361550541228
 20
453.4037216550681
 30
0.0
 10
390.3804579447868
 20
453.3133928070222
 30
0.0
 10
390.1851003349276
 20
453.2325822877021
 30
0.0
 10
390.3796402440973
 20
453.1811390572279
 30
0.0
 10
390.9341972101379
 20
453.160950073224
 30
0.0
 10
391.7656043944737
 20
453.1595519918422
 30
0.0
 10
392.4191569112886
 20
453.1584255970926
 30
0.0
 10
392.7453378792322
 20
453.1578634256981
 30
0.0
  0
LINE
  5
1E6
330
1F
100
AcDbEntity
  8
0
  6
Continuous
 62
     7
370
    15
100
AcDbLine
 10
409.9720142312
 20
448.156746342
 30
0.0
 11
409.9772871779
 21
448.1651621482
 31
0.0
  0
LINE
  5
1E7
330
1F
100
AcDbEntity
  8
0
  6
Continuous
 62
     7
370
    15
100
AcDbLine
 10
410.07231411
 20
448.435016452
 30
0.0
 11
410.0774638921
 21
448.4435117021
 31
0.0
  0
LINE
  5
1E8
330
1F
100
AcDbEntity
  8
0
  6
Continuous
 62
     7
370
    15
100
AcDbLine
 10
406.2497701258
 20
450.3915384594
 30
0.0
 11
406.2538430575
 21
450.4006214952
 31
0.0
  0
SPLINE
  5
1E9
330
1F
100
AcDbEntity
  8
0
  6
Continuous
 62
     7
370
    15
100
AcDbSpline
210
0.0
220
0.0
230
1.0
 70
     8
 71
     3
 72
    11
 73
     7
 74
     0
 42
0.00000001
 43
0.00000001
 12
1.0
 22
0.0
 32
0.0
 13
1.0
 23
0.0
 33
0.0
 40
0.0
 40
0.0
 40
0.0
 40
0.0
 40
0.370432093792153
 40
0.7442498469252397
 40
0.9442480537701103
 40
1.0
 40
1.0
 40
1.0
 40
1.0
 10
510.7451888220125
 20
403.4638472197155
 30
0.0
 10
510.7497348203531
 20
403.4669521841355
 30
0.0
 10
510.7588683663548
 20
403.4731904915958
 30
0.0
 10
510.7693881063635
 20
403.4831657165868
 30
0.0
 10
510.7743356757142
 20
403.4908493587853
 30
0.0
 10
510.7755276556541
 20
403.4939479526865
 30
0.0
 10
510.7757874998836
 20
403.4946234269277
 30
0.0
  0
ARC
  5
1EA
330
1F
100
AcDbEntity
  8
0
  6
Continuous
 62
     7
370
    15
100
AcDbCircle
 10
494.637763416
 20
428.3872427595
 30
0.0
 40
29.67532305539783
100
AcDbArc
 50
238.4004575744
 51
302.8736696636
  0
SPLINE
  5
1EB
330
1F
100
AcDbEntity
  8
0
  6
Continuous
 62
     7
370
    15
100
AcDbSpline
210
0.0
220
0.0
230
1.0
 70
     8
 71
     3
 72
    10
 73
     6
 74
     0
 42
0.00000001
 43
0.00000001
 12
1.0
 22
0.0
 32
0.0
 13
1.0
 23
0.0
 33
0.0
 40
0.0
 40
0.0
 40
0.0
 40
0.0
 40
0.2117958997044112
 40
0.4880069094681519
 40
1.0
 40
1.0
 40
1.0
 40
1.0
 10
479.0572665434839
 20
403.1419351717977
 30
0.0
 10
479.0585403522275
 20
403.1393652961044
 30
0.0
 10
479.0614753829296
 20
403.1334439487289
 30
0.0
 10
479.0723396171267
 20
403.1225300132394
 30
0.0
 10
479.0821449749603
 20
403.1160535589706
 30
0.0
 10
479.0885142332008
 20
403.1118466538865
 30
0.0
  0
LINE
  5
1EC
330
1F
100
AcDbEntity
  8
0
  6
Continuous
 62
     7
370
    15
100
AcDbLine
 10
480.8049160637
 20
405.5077363505
 30
0.0
 11
483.2164934519
 21
417.0058421939
 31
0.0
  0
LINE
  5
1ED
330
1F
100
AcDbEntity
  8
0
  6
Continuous
 62
     7
370
    15
100
AcDbLine
 10
483.2025478823
 20
416.9461543011
 30
0.0
 11
483.2066717249
 21
416.9673036342
 31
0.0
  0
LINE
  5
1EE
330
1F
100
AcDbEntity
  8
0
  6
Continuous
 62
     7
370
    15
100
AcDbLine
 10
506.4384085551
 20
417.1969777942
 30
0.0
 11
506.4327642476
 21
417.2232026381
 31
0.0
  0
LINE
  5
1EF
330
1F
100
AcDbEntity
  8
0
  6
Continuous
 62
     7
370
    15
100
AcDbLine
 10
506.4212486581
 20
417.263863198
 30
0.0
 11
508.992749869
 21
405.8211657797
 31
0.0
  0
ARC
  5
1F0
330
1F
100
AcDbEntity
  8
0
  6
Continuous
 62
     7
370
    15
100
AcDbCircle
 10
429.2134810375
 20
430.9121716768
 30
0.0
 40
55.76478592723907
100
AcDbArc
 50
345.5594838637
 51
15.8491436625
  0
ARC
  5
1F1
330
1F
100
AcDbEntity
  8
0
  6
Continuous
 62
     7
370
    15
100
AcDbCircle
 10
429.0950305026
 20
425.933538846
 30
0.0
 40
55.60314218115987
100
AcDbArc
 50
359.3386039487
 51
17.2425408113
  0
ARC
  5
1F2
330
1F
100
AcDbEntity
  8
0
  6
Continuous
 62
     7
370
    15
100
AcDbCircle
 10
560.0660860461
 20
432.493530664
 30
0.0
 40
55.76478592724197
100
AcDbArc
 50
165.5594838637
 51
195.8491436625
  0
ARC
  5
1F3
330
1F
100
AcDbEntity
  8
0
  6
Continuous
 62
     7
370
    15
100
AcDbCircle
 10
560.2331097227
 20
427.5105075098
 30
0.0
 40
55.65164019496607
100
AcDbArc
 50
161.946020463
 51
180.6543698998
  0
ARC
  5
1F4
330
1F
100
AcDbEntity
  8
0
  6
Continuous
 62
     7
370
    15
100
AcDbCircle
 10
494.8378525475
 20
415.9001987011
 30
0.0
 40
1.50121316424808
100
AcDbArc
 50
182.9499311304
 51
358.3241961076
  0
LINE
  5
1F5
330
1F
100
AcDbEntity
  8
0
  6
Continuous
 62
     7
370
    15
100
AcDbLine
 10
496.3384236415
 20
415.8562970348
 30
0.0
 11
495.9199693405
 21
449.895753558
 31
0.0
  0
LINE
  5
1F6
330
1F
100
AcDbEntity
  8
0
  6
Continuous
 62
     7
370
    15
100
AcDbLine
 10
492.9201743577
 20
449.8623978899
 30
0.0
 11
493.3386286587
 21
415.8229413666
 31
0.0
  0
LINE
  5
1F7
330
1F
100
AcDbEntity
  8
0
  6
Continuous
 62
     7
370
    15
100
AcDbLine
 10
495.9262525584
 20
449.2212332052
 30
0.0
 11
495.9302060927
 21
448.9085293262
 31
0.0
  0
SPLINE
  5
1F8
330
1F
100
AcDbEntity
  8
0
  6
Continuous
 62
     7
370
    15
100
AcDbSpline
210
0.0
220
0.0
230
1.0
 70
     8
 71
     3
 72
    10
 73
     6
 74
     0
 42
0.00000001
 43
0.00000001
 12
1.0
 22
0.0
 32
0.0
 13
1.0
 23
0.0
 33
0.0
 40
0.0
 40
0.0
 40
0.0
 40
0.0
 40
0.3110155923013438
 40
0.7327352999730129
 40
0.9999999999999999
 40
0.9999999999999999
 40
0.9999999999999999
 40
0.9999999999999999
 10
495.9063855236476
 20
450.351817754767
 30
0.0
 10
495.906479850219
 20
450.3433678917833
 30
0.0
 10
495.9067020783334
 20
450.3234604882917
 30
0.0
 10
495.9070237367162
 20
450.2986108015442
 30
0.0
 10
495.9072280246515
 20
450.2838642500494
 30
0.0
 10
495.9073072702095
 20
450.2781438990259
 30
0.0
  0
LINE
  5
1F9
330
1F
100
AcDbEntity
  8
0
  6
Continuous
 62
     7
370
    15
100
AcDbLine
 10
495.9063855236
 20
450.3518177548
 30
0.0
 11
495.9021651714
 21
450.7453249942
 31
0.0
  0
LINE
  5
1FA
330
1F
100
AcDbEntity
  8
0
  6
Continuous
 62
     7
370
    15
100
AcDbLine
 10
495.9092759699
 20
450.5834059052
 30
0.0
 11
495.9021651714
 21
450.7453249942
 31
0.0
  0
SPLINE
  5
1FB
330
1F
100
AcDbEntity
  8
0
  6
Continuous
 62
     7
370
    15
100
AcDbSpline
210
0.0
220
0.0
230
1.0
 70
     8
 71
     3
 72
    11
 73
     7
 74
     0
 42
0.00000001
 43
0.00000001
 12
1.0
 22
0.0
 32
0.0
 13
1.0
 23
0.0
 33
0.0
 40
0.0
 40
0.0
 40
0.0
 40
0.0
 40
0.2947335968586715
 40
0.5894836108221366
 40
0.8837752324725167
 40
1.0
 40
1.0
 40
1.0
 40
1.0
 10
495.9199693405481
 20
449.8957535579835
 30
0.0
 10
495.9186469436827
 20
449.9999001250704
 30
0.0
 10
495.9160020762926
 20
450.2081990603648
 30
0.0
 10
495.9124967601046
 20
450.4397357838124
 30
0.0
 10
495.910330532367
 20
450.5532676295908
 30
0.0
 10
495.909508657767
 20
450.5767559329744
 30
0.0
 10
495.9092759698968
 20
450.5834059052346
 30
0.0
  0
LINE
  5
1FC
330
1F
100
AcDbEntity
  8
0
  6
Continuous
 62
     7
370
    15
100
AcDbLine
 10
483.2192276693
 20
417.0236002319
 30
0.0
 11
483.2164934519
 21
417.0058421939
 31
0.0
  0
ARC
  5
1FD
330
1F
100
AcDbEntity
  8
0
  6
Continuous
 62
     7
370
    15
100
AcDbCircle
 10
494.5736914834
 20
430.2138307815
 30
0.0
 40
20.40420099691818
100
AcDbArc
 50
94.6783638022
 51
123.5381001747
  0
SPLINE
  5
1FE
330
1F
100
AcDbEntity
  8
0
  6
Continuous
 62
     7
370
    15
100
AcDbSpline
210
0.0
220
0.0
230
1.0
 70
     8
 71
     3
 72
    11
 73
     7
 74
     0
 42
0.00000001
 43
0.00000001
 12
1.0
 22
0.0
 32
0.0
 13
1.0
 23
0.0
 33
0.0
 40
0.0
 40
0.0
 40
0.0
 40
0.0
 40
0.2933118760924099
 40
0.5865991201415341
 40
0.8805021461501277
 40
1.0
 40
1.0
 40
1.0
 40
1.0
 10
492.909480987063
 20
450.5500502371155
 30
0.0
 10
492.9101402727158
 20
450.5267207790399
 30
0.0
 10
492.9114587886548
 20
450.4800638220739
 30
0.0
 10
492.9147375322246
 20
450.2754859063522
 30
0.0
 10
492.9177940458374
 20
450.0534316260937
 30
0.0
 10
492.9196405937124
 20
449.9052355249497
 30
0.0
 10
492.9201743577144
 20
449.8623978898636
 30
0.0
  0
ARC
  5
1FF
330
1F
100
AcDbEntity
  8
0
  6
Continuous
 62
     7
370
    15
100
AcDbCircle
 10
494.692832979
 20
430.173234754
 30
0.0
 40
20.44638892261167
100
AcDbArc
 50
57.7695583863
 51
86.5892152628
  0
SPLINE
  5
200
330
1F
100
AcDbEntity
  8
0
  6
Continuous
 62
     7
370
    15
100
AcDbSpline
210
0.0
220
0.0
230
1.0
 70
     8
 71
     3
 72
    10
 73
     6
 74
     0
 42
0.00000001
 43
0.00000001
 12
1.0
 22
0.0
 32
0.0
 13
1.0
 23
0.0
 33
0.0
 40
0.0
 40
0.0
 40
0.0
 40
0.0
 40
0.2117958997144626
 40
0.4880069094797961
 40
0.9999999999999999
 40
0.9999999999999999
 40
0.9999999999999999
 40
0.9999999999999999
 10
510.2223005402026
 20
448.5184056068655
 30
0.0
 10
510.2210267314591
 20
448.5196352120886
 30
0.0
 10
510.218091700757
 20
448.5224683917944
 30
0.0
 10
510.2072274665599
 20
448.5302394260419
 30
0.0
 10
510.1974221087262
 20
448.5364133375747
 30
0.0
 10
510.1910528504857
 20
448.5404237202218
 30
0.0
  0
LINE
  5
201
330
1F
100
AcDbEntity
  8
0
  6
Continuous
 62
     7
370
    15
100
AcDbLine
 10
494.5752356014
 20
452.8516206853
 30
0.0
 11
495.9021651714
 21
450.7453249942
 31
0.0
  0
SPLINE
  5
202
330
1F
100
AcDbEntity
  8
0
  6
Continuous
 62
     7
370
    15
100
AcDbSpline
210
0.0
220
0.0
230
1.0
 70
     8
 71
     3
 72
    12
 73
     8
 74
     0
 42
0.00000001
 43
0.00000001
 12
1.0
 22
0.0
 32
0.0
 13
1.0
 23
0.0
 33
0.0
 40
0.0
 40
0.0
 40
0.0
 40
0.0
 40
0.2238925288134278
 40
0.447784865279912
 40
0.67168207362114
 40
0.8955819150462133
 40
0.9999999999999999
 40
0.9999999999999999
 40
0.9999999999999999
 40
0.9999999999999999
 10
494.3246397019846
 20
452.8753365452488
 30
0.0
 10
494.3527581129612
 20
452.8753125101245
 30
0.0
 10
494.4089949107575
 20
452.8752644398966
 30
0.0
 10
494.4841009082281
 20
452.871067913023
 30
0.0
 10
494.541009327873
 20
452.8644384005494
 30
0.0
 10
494.5689238216127
 20
452.8574421750246
 30
0.0
 10
494.573712585187
 20
452.8530253957391
 30
0.0
 10
494.5752356013903
 20
452.8516206852509
 30
0.0
  0
ELLIPSE
  5
203
330
1F
100
AcDbEntity
  8
0
  6
Continuous
 62
     7
370
    15
100
AcDbEllipse
 10
494.7237765817
 20
414.2008812645
 30
0.0
 11
-0.3510218134344995
 21
38.67492907502639
 31
0.0
210
0.0
220
0.0
230
1.0
 40
0.8983253888
 41
0.0013849084505177
 42
0.002285463210236
  0
SPLINE
  5
204
330
1F
100
AcDbEntity
  8
0
  6
Continuous
 62
     7
370
    15
100
AcDbSpline
210
0.0
220
0.0
230
1.0
 70
     8
 71
     3
 72
    12
 73
     8
 74
     0
 42
0.00000001
 43
0.00000001
 12
1.0
 22
0.0
 32
0.0
 13
1.0
 23
0.0
 33
0.0
 40
0.0
 40
0.0
 40
0.0
 40
0.0
 40
0.2238925571846873
 40
0.4477848984196175
 40
0.6716824862031039
 40
0.8955821585467941
 40
1.0
 40
1.0
 40
1.0
 40
1.0
 10
494.0450248469712
 20
452.8457251043666
 30
0.0
 10
494.0494620238144
 20
452.8488384212097
 30
0.0
 10
494.058336373221
 20
452.855065051893
 30
0.0
 10
494.1058279494483
 20
452.8637660489127
 30
0.0
 10
494.1725264411394
 20
452.8705679051912
 30
0.0
 10
494.2392754544578
 20
452.8740611206886
 30
0.0
 10
494.2803039790161
 20
452.8747648433351
 30
0.0
 10
494.2933526583963
 20
452.8749886547269
 30
0.0
  0
LINE
  5
205
330
1F
100
AcDbEntity
  8
0
  6
Continuous
 62
     7
370
    15
100
AcDbLine
 10
494.045024847
 20
452.8457251044
 30
0.0
 11
492.9023701886
 21
450.7119693261
 31
0.0
  0
SPLINE
  5
206
330
1F
100
AcDbEntity
  8
0
  6
Continuous
 62
     7
370
    15
100
AcDbSpline
210
0.0
220
0.0
230
1.0
 70
     8
 71
     3
 72
    11
 73
     7
 74
     0
 42
0.00000001
 43
0.00000001
 12
1.0
 22
0.0
 32
0.0
 13
1.0
 23
0.0
 33
0.0
 40
0.0
 40
0.0
 40
0.0
 40
0.0
 40
0.3704320937826473
 40
0.7442498469303008
 40
0.9442480537637995
 40
1.0
 40
1.0
 40
1.0
 40
1.0
 10
478.5343782616742
 20
448.1884231543918
 30
0.0
 10
478.5298322633334
 20
448.1854245792417
 30
0.0
 10
478.5206987173313
 20
448.1794000226928
 30
0.0
 10
478.5101789773239
 20
448.1717448727937
 30
0.0
 10
478.5052314079723
 20
448.1673831783447
 30
0.0
 10
478.5040394280326
 20
448.1660154976414
 30
0.0
 10
478.5037795838028
 20
448.1657173517356
 30
0.0
  0
ARC
  5
207
330
1F
100
AcDbEntity
  8
0
  6
Continuous
 62
     7
370
    15
100
AcDbCircle
 10
494.6418036677
 20
423.2650276146
 30
0.0
 40
29.67532305539823
100
AcDbArc
 50
58.4004575744
 51
122.8736696636
  0
LINE
  5
208
330
1F
100
AcDbEntity
  8
0
  6
Continuous
 62
     7
370
    15
100
AcDbLine
 10
492.9023701886
 20
450.7119693261
 30
0.0
 11
492.9094809871
 21
450.5500502371
 31
0.0
  0
SPLINE
  5
209
330
1F
100
AcDbEntity
  8
0
  6
Continuous
 62
     7
370
    15
100
AcDbSpline
210
0.0
220
0.0
230
1.0
 70
     8
 71
     3
 72
    10
 73
     6
 74
     0
 42
0.00000001
 43
0.00000001
 12
1.0
 22
0.0
 32
0.0
 13
1.0
 23
0.0
 33
0.0
 40
0.0
 40
0.0
 40
0.0
 40
0.0
 40
0.1334675983295407
 40
0.5707718673427329
 40
1.0
 40
1.0
 40
1.0
 40
1.0
 10
493.8871617499847
 20
449.2605722245031
 30
0.0
 10
493.8671847327477
 20
449.2627889694739
 30
0.0
 10
493.7817533653218
 20
449.2722688408604
 30
0.0
 10
493.6004696202301
 20
449.3002920989674
 30
0.0
 10
493.4699077808621
 20
449.3793674318445
 30
0.0
 10
493.4052352834458
 20
449.4185366047511
 30
0.0
  0
LWPOLYLINE
  5
20A
330
1F
100
AcDbEntity
  8
0
  6
Continuous
 62
     7
370
    15
100
AcDbPolyline
 90
        3
 70
   128
 43
0.0
 10
493.88716175
 20
449.2605722245
 10
493.9154329525
 20
449.2564729339
 10
493.9199285275
 20
449.2558212918
  0
LWPOLYLINE
  5
20B
330
1F
100
AcDbEntity
  8
0
  6
Continuous
 62
     7
370
    15
100
AcDbPolyline
 90
        3
 70
   128
 43
0.0
 10
494.9198601885
 20
449.2669398479
 10
494.9243082518
 20
449.2676909371
 10
494.9522805784
 20
449.2724156173
  0
SPLINE
  5
20C
330
1F
100
AcDbEntity
  8
0
  6
Continuous
 62
     7
370
    15
100
AcDbSpline
210
0.0
220
0.0
230
1.0
 70
     8
 71
     3
 72
    12
 73
     8
 74
     0
 42
0.00000001
 43
0.00000001
 12
1.0
 22
0.0
 32
0.0
 13
1.0
 23
0.0
 33
0.0
 40
0.0
 40
0.0
 40
0.0
 40
0.0
 40
0.176046818703893
 40
0.6859935308742954
 40
0.8736516826512204
 40
0.9753544034861644
 40
1.0
 40
1.0
 40
1.0
 40
1.0
 10
495.5393853740925
 20
449.5198644472254
 30
0.0
 10
495.5115227999628
 20
449.492305531019
 30
0.0
 10
495.40295199052
 20
449.3849179714216
 30
0.0
 10
495.2110443370142
 20
449.3182736040507
 30
0.0
 10
495.0431903869485
 20
449.2840760416561
 30
0.0
 10
494.9775155936576
 20
449.2762964592263
 30
0.0
 10
494.9563994993526
 20
449.2730490577939
 30
0.0
 10
494.9522805783325
 20
449.2724156172614
 30
0.0
  0
LINE
  5
20D
330
1F
100
AcDbEntity
  8
0
  6
Continuous
 62
     7
370
    15
100
AcDbLine
 10
494.0478016089
 20
452.5868187706
 30
0.0
 11
494.045024847
 21
452.8457251044
 31
0.0
  0
SPLINE
  5
20E
330
1F
100
AcDbEntity
  8
0
  6
Continuous
 62
     7
370
    15
100
AcDbSpline
210
0.0
220
0.0
230
1.0
 70
     8
 71
     3
 72
    12
 73
     8
 74
     0
 42
0.00000001
 43
0.00000001
 12
1.0
 22
0.0
 32
0.0
 13
1.0
 23
0.0
 33
0.0
 40
0.0
 40
0.0
 40
0.0
 40
0.0
 40
0.0304717459457089
 40
0.0888135668589809
 40
0.3925556175487301
 40
0.6962774394171524
 40
1.0
 40
1.0
 40
1.0
 40
1.0
 10
479.0725974497278
 20
404.1883646718787
 30
0.0
 10
479.0690295467456
 20
404.178316046527
 30
0.0
 10
479.0586304645723
 20
404.149028119898
 30
0.0
 10
479.0168204082981
 20
404.0160721959066
 30
0.0
 10
478.9718780928129
 20
403.7722277368659
 30
0.0
 10
478.9735708568239
 20
403.4306595499382
 30
0.0
 10
479.0293679586456
 20
403.2381767092041
 30
0.0
 10
479.0572665434839
 20
403.1419351717977
 30
0.0
  0
SPLINE
  5
20F
330
1F
100
AcDbEntity
  8
0
  6
Continuous
 62
     7
370
    15
100
AcDbSpline
210
0.0
220
0.0
230
1.0
 70
     8
 71
     3
 72
    12
 73
     8
 74
     0
 42
0.00000001
 43
0.00000001
 12
1.0
 22
0.0
 32
0.0
 13
1.0
 23
0.0
 33
0.0
 40
0.0
 40
0.0
 40
0.0
 40
0.0
 40
0.3037225605810713
 40
0.6074443824470217
 40
0.9111864331359734
 40
0.9695282540479815
 40
1.0
 40
1.0
 40
1.0
 40
1.0
 10
510.7757874998836
 20
403.4946234269277
 30
0.0
 10
510.8019157059213
 20
403.5914657052901
 30
0.0
 10
510.8541720544475
 20
403.785150026475
 30
0.0
 10
510.8486346870764
 20
404.1266754640433
 30
0.0
 10
510.7980817092467
 20
404.369458080748
 30
0.0
 10
510.7530440346077
 20
404.5014483173849
 30
0.0
 10
510.7419223914482
 20
404.5304969482715
 30
0.0
 10
510.7381065793274
 20
404.5404634717643
 30
0.0
  0
LWPOLYLINE
  5
210
330
1F
100
AcDbEntity
  8
0
  6
Continuous
 62
     7
370
    15
100
AcDbPolyline
 90
       61
 70
   128
 43
0.0
 10
494.2598344378
 20
453.643189708
 10
497.6588587352
 20
453.5116483798
 10
501.024805413
 20
453.0429222268
 10
504.320796455
 20
452.2421467111
 10
507.5107202937
 20
451.1180952966
 10
510.5596274559
 20
449.6830833259
 10
513.4341134768
 20
447.9528330904
 10
516.1026848859
 20
445.9463015738
 10
518.5361042565
 20
443.6854727553
 10
520.7077105367
 20
441.1951167486
 10
522.5937111537
 20
438.5025184151
 10
524.17344269
 20
435.6371784258
 10
525.4295972764
 20
432.630490045
 10
526.3484122203
 20
429.5153951799
 10
526.919820793
 20
426.3260234618
 10
527.1375625225
 20
423.0973183146
 10
526.999251785
 20
419.8646541075
 10
526.5064039416
 20
416.6634485861
 10
525.6644187367
 20
413.5287748279
 10
524.4825211363
 20
410.4949769746
 10
522.9736602577
 20
407.5952939504
 10
521.1543674967
 20
404.8614952893
 10
519.0445754052
 20
402.3235330615
 10
516.6673993071
 20
400.0092137122
 10
514.0488840411
 20
397.9438934086
 10
511.2177186085
 20
396.150200232
 10
508.20492185
 20
394.6477862604
 10
505.0435025976
 20
393.4531122555
 10
501.7680980221
 20
392.5792673158
 10
498.4145941414
 20
392.0358254693
 10
495.0197326459
 20
391.8287407786
 10
491.6207083485
 20
391.9602821068
 10
488.2547616707
 20
392.4290082598
 10
484.9587706287
 20
393.2297837755
 10
481.76884679
 20
394.35383519
 10
478.7199396278
 20
395.7888471608
 10
475.8454536069
 20
397.5190973962
 10
473.1768821978
 20
399.5256289128
 10
470.7434628272
 20
401.7864577313
 10
468.571856547
 20
404.276813738
 10
466.68585593
 20
406.9694120715
 10
465.1061243937
 20
409.8347520609
 10
463.8499698073
 20
412.8414404416
 10
462.9311548633
 20
415.9565353067
 10
462.3597462907
 20
419.1459070248
 10
462.1420045611
 20
422.374612172
 10
462.2803152987
 20
425.6072763791
 10
462.773163142
 20
428.8084819005
 10
463.615148347
 20
431.9431556587
 10
464.7970459474
 20
434.976953512
 10
466.305906826
 20
437.8766365362
 10
468.125199587
 20
440.6104351973
 10
470.2349916784
 20
443.1483974251
 10
472.6121677765
 20
445.4627167744
 10
475.2306830425
 20
447.528037078
 10
478.0618484752
 20
449.3217302546
 10
481.0746452337
 20
450.8241442262
 10
484.2360644861
 20
452.0188182311
 10
487.5114690616
 20
452.8926631708
 10
490.8649729423
 20
453.4361050173
 10
494.2598344378
 20
453.643189708
  0
ARC
  5
211
330
1F
100
AcDbEntity
  8
0
  6
Continuous
 62
     7
370
    15
100
AcDbCircle
 10
496.3185886314
 20
425.2998274904
 30
0.0
 40
27.12054579029844
100
AcDbArc
 50
12.9527186352
 51
54.2757753901
  0
ARC
  5
212
330
1F
100
AcDbEntity
  8
0
  6
Continuous
 62
     7
370
    15
100
AcDbCircle
 10
492.9723803532
 20
425.2992838804
 30
0.0
 40
27.12338769413638
100
AcDbArc
 50
127.1369040794
 51
170.6861567377
  0
SPLINE
  5
213
330
1F
100
AcDbEntity
  8
0
  6
Continuous
 62
     7
370
    15
100
AcDbSpline
210
0.0
220
0.0
230
1.0
 70
     8
 71
     3
 72
    11
 73
     7
 74
     0
 42
0.00000001
 43
0.00000001
 12
1.0
 22
0.0
 32
0.0
 13
1.0
 23
0.0
 33
0.0
 40
0.0
 40
0.0
 40
0.0
 40
0.0
 40
0.2499996797923184
 40
0.5000466230792204
 40
0.7500258516155358
 40
0.9999999999999999
 40
0.9999999999999999
 40
0.9999999999999999
 40
0.9999999999999999
 10
494.2923981811737
 20
453.1461323965565
 30
0.0
 10
494.6197981063179
 20
453.1491846783794
 30
0.0
 10
495.274659852944
 20
453.1552898190719
 30
0.0
 10
496.0980761425965
 20
453.1636020304336
 30
0.0
 10
496.6716004160162
 20
453.1866083139275
 30
0.0
 10
496.7438616559019
 20
453.2256383498503
 30
0.0
 10
496.7799919087123
 20
453.2451531695147
 30
0.0
  0
SPLINE
  5
214
330
1F
100
AcDbEntity
  8
0
  6
Continuous
 62
     7
370
    15
100
AcDbSpline
210
0.0
220
0.0
230
1.0
 70
     8
 71
     3
 72
    11
 73
     7
 74
     0
 42
0.00000001
 43
0.00000001
 12
1.0
 22
0.0
 32
0.0
 13
1.0
 23
0.0
 33
0.0
 40
0.0
 40
0.0
 40
0.0
 40
0.0
 40
0.2489727730105685
 40
0.4992345483200046
 40
0.7494948978898593
 40
1.0
 40
1.0
 40
1.0
 40
1.0
 10
491.7862432844244
 20
453.1893960594211
 30
0.0
 10
491.8250115048334
 20
453.1708203262753
 30
0.0
 10
491.9027486596678
 20
453.1335726881717
 30
0.0
 10
492.4813291045723
 20
453.1233832243609
 30
0.0
 10
493.3091485956205
 20
453.13347892552
 30
0.0
 10
493.9645415433937
 20
453.1419131987748
 30
0.0
 10
494.2923981811737
 20
453.1461323965565
 30
0.0
  0
SPLINE
  5
215
330
1F
100
AcDbEntity
  8
0
  6
Continuous
 62
     7
370
    15
100
AcDbSpline
210
0.0
220
0.0
230
1.0
 70
     8
 71
     3
 72
    10
 73
     6
 74
     0
 42
0.00000001
 43
0.00000001
 12
1.0
 22
0.0
 32
0.0
 13
1.0
 23
0.0
 33
0.0
 40
0.0
 40
0.0
 40
0.0
 40
0.0
 40
0.3333317566956747
 40
0.666665350250256
 40
0.9999999999999999
 40
0.9999999999999999
 40
0.9999999999999999
 40
0.9999999999999999
 10
524.5780624083881
 20
420.5585461736683
 30
0.0
 10
524.52277364401
 20
420.4083260568603
 30
0.0
 10
524.4121958105794
 20
420.1078849954411
 30
0.0
 10
524.1783278229806
 20
419.8363850445968
 30
0.0
 10
524.0136880376984
 20
419.8102508697107
 30
0.0
 10
523.9313680146388
 20
419.7971837615656
 30
0.0
  0
SPLINE
  5
216
330
1F
100
AcDbEntity
  8
0
  6
Continuous
 62
     7
370
    15
100
AcDbSpline
210
0.0
220
0.0
230
1.0
 70
     8
 71
     3
 72
    11
 73
     7
 74
     0
 42
0.00000001
 43
0.00000001
 12
1.0
 22
0.0
 32
0.0
 13
1.0
 23
0.0
 33
0.0
 40
0.0
 40
0.0
 40
0.0
 40
0.0
 40
0.249985930963247
 40
0.4999950454901657
 40
0.7500054722551192
 40
1.0
 40
1.0
 40
1.0
 40
1.0
 10
523.4883270169007
 20
420.9056167760377
 30
0.0
 10
523.4516139796576
 20
420.5891335476809
 30
0.0
 10
523.3781845004239
 20
419.9561377404793
 30
0.0
 10
523.4305029072087
 20
419.0062020057177
 30
0.0
 10
523.6086456030367
 20
418.203375772956
 30
0.0
 10
523.8286228746091
 20
417.9148246669077
 30
0.0
 10
523.938608013007
 20
417.7705537015181
 30
0.0
  0
LINE
  5
217
330
1F
100
AcDbEntity
  8
0
  6
Continuous
 62
     7
370
    15
100
AcDbLine
 10
523.938608013
 20
417.7705537015
 30
0.0
 11
524.6736476513
 21
417.4191488851
 31
0.0
  0
LINE
  5
218
330
1F
100
AcDbEntity
  8
0
  6
Continuous
 62
     7
370
    15
100
AcDbLine
 10
526.6449658774
 20
419.8545030585
 30
0.0
 11
526.2913193129
 21
419.7235063785
 31
0.0
  0
SPLINE
  5
219
330
1F
100
AcDbEntity
  8
0
  6
Continuous
 62
     7
370
    15
100
AcDbSpline
210
0.0
220
0.0
230
1.0
 70
     8
 71
     3
 72
    11
 73
     7
 74
     0
 42
0.00000001
 43
0.00000001
 12
1.0
 22
0.0
 32
0.0
 13
1.0
 23
0.0
 33
0.0
 40
0.0
 40
0.0
 40
0.0
 40
0.0
 40
0.2115716769227345
 40
0.4759734473391534
 40
0.7369922423188596
 40
1.0
 40
1.0
 40
1.0
 40
1.0
 10
524.3711475361793
 20
422.5951921136399
 30
0.0
 10
524.2963743944695
 20
422.5837996191968
 30
0.0
 10
524.1281570293401
 20
422.5581698896754
 30
0.0
 10
523.8902987713199
 20
422.2691332641496
 30
0.0
 10
523.6782805682078
 20
421.7734120623099
 30
0.0
 10
523.577074822552
 20
421.3418189295676
 30
0.0
 10
523.5262798845966
 20
421.1252032991253
 30
0.0
  0
LINE
  5
21A
330
1F
100
AcDbEntity
  8
0
  6
Continuous
 62
     7
370
    15
100
AcDbLine
 10
523.5262798846
 20
421.1252032991
 30
0.0
 11
523.5794386578
 21
421.107023934
 31
0.0
  0
SPLINE
  5
21B
330
1F
100
AcDbEntity
  8
0
  6
Continuous
 62
     7
370
    15
100
AcDbSpline
210
0.0
220
0.0
230
1.0
 70
     8
 71
     3
 72
    12
 73
     8
 74
     0
 42
0.00000001
 43
0.00000001
 12
1.0
 22
0.0
 32
0.0
 13
1.0
 23
0.0
 33
0.0
 40
0.0
 40
0.0
 40
0.0
 40
0.0
 40
0.1999988668346792
 40
0.3999968642153376
 40
0.5999965480968341
 40
0.799991736654609
 40
1.0
 40
1.0
 40
1.0
 40
1.0
 10
523.7981069628042
 20
421.5040031494225
 30
0.0
 10
523.8283420218135
 20
421.5121728318574
 30
0.0
 10
523.8888120083914
 20
421.528512161211
 30
0.0
 10
523.9782736950043
 20
421.4667323995621
 30
0.0
 10
524.0569648630154
 20
421.3465426961407
 30
0.0
 10
524.1206189239438
 20
421.1731927753502
 30
0.0
 10
524.1431785130475
 20
421.0288358882076
 30
0.0
 10
524.1544586762984
 20
420.9566550853621
 30
0.0
  0
SPLINE
  5
21C
330
1F
100
AcDbEntity
  8
0
  6
Continuous
 62
     7
370
    15
100
AcDbSpline
210
0.0
220
0.0
230
1.0
 70
     8
 71
     3
 72
    10
 73
     6
 74
     0
 42
0.00000001
 43
0.00000001
 12
1.0
 22
0.0
 32
0.0
 13
1.0
 23
0.0
 33
0.0
 40
0.0
 40
0.0
 40
0.0
 40
0.0
 40
0.3333587650411678
 40
0.6666824139244697
 40
1.0
 40
1.0
 40
1.0
 40
1.0
 10
524.1544586762984
 20
420.9566550853621
 30
0.0
 10
524.1808456406069
 20
420.882709197845
 30
0.0
 10
524.2336167896093
 20
420.7348252123028
 30
0.0
 10
524.341297634591
 20
420.5959088980694
 30
0.0
 10
524.4201009899058
 20
420.5760312759464
 30
0.0
 10
524.4595023092222
 20
420.5660925552741
 30
0.0
  0
SPLINE
  5
21D
330
1F
100
AcDbEntity
  8
0
  6
Continuous
 62
     7
370
    15
100
AcDbSpline
210
0.0
220
0.0
230
1.0
 70
     8
 71
     3
 72
    12
 73
     8
 74
     0
 42
0.00000001
 43
0.00000001
 12
1.0
 22
0.0
 32
0.0
 13
1.0
 23
0.0
 33
0.0
 40
0.0
 40
0.0
 40
0.0
 40
0.0
 40
0.2648504293616835
 40
0.5020955659165177
 40
0.6216826836577003
 40
0.7415592238324576
 40
1.0
 40
1.0
 40
1.0
 40
1.0
 10
524.5767268380312
 20
420.6082021526386
 30
0.0
 10
524.5779622582038
 20
420.6044982372452
 30
0.0
 10
524.580304331019
 20
420.5974764646168
 30
0.0
 10
524.5815388728771
 20
420.5861692137998
 30
0.0
 10
524.581459294396
 20
420.5774190497944
 30
0.0
 10
524.5806682045798
 20
420.5683942634957
 30
0.0
 10
524.5791200219437
 20
420.5625432143163
 30
0.0
 10
524.5780624083881
 20
420.5585461736683
 30
0.0
  0
LINE
  5
21E
330
1F
100
AcDbEntity
  8
0
  6
Continuous
 62
     7
370
    15
100
AcDbLine
 10
510.2841044882
 20
449.1813129163
 30
0.0
 11
511.5871332542
 21
448.4052125639
 31
0.0
  0
LINE
  5
21F
330
1F
100
AcDbEntity
  8
0
  6
Continuous
 62
     7
370
    15
100
AcDbLine
 10
510.8937433822
 20
448.9469955696
 30
0.0
 11
511.6716862396
 21
448.6848225297
 31
0.0
  0
LINE
  5
220
330
1F
100
AcDbEntity
  8
0
  6
Continuous
 62
     7
370
    15
100
AcDbLine
 10
507.8232350884
 20
450.5857434134
 30
0.0
 11
508.8501110203
 21
450.0185649782
 31
0.0
  0
LINE
  5
221
330
1F
100
AcDbEntity
  8
0
  6
Continuous
 62
     7
370
    15
100
AcDbLine
 10
506.8696309627
 20
450.6408589146
 30
0.0
 11
509.4895296291
 21
449.5600206546
 31
0.0
  0
LINE
  5
222
330
1F
100
AcDbEntity
  8
0
  6
Continuous
 62
     7
370
    15
100
AcDbLine
 10
509.4895296291
 20
449.5600206546
 30
0.0
 11
510.2041349019
 21
449.016147178
 31
0.0
  0
SPLINE
  5
223
330
1F
100
AcDbEntity
  8
0
  6
Continuous
 62
     7
370
    15
100
AcDbSpline
210
0.0
220
0.0
230
1.0
 70
     8
 71
     3
 72
    11
 73
     7
 74
     0
 42
0.00000001
 43
0.00000001
 12
1.0
 22
0.0
 32
0.0
 13
1.0
 23
0.0
 33
0.0
 40
0.0
 40
0.0
 40
0.0
 40
0.0
 40
0.2500017716876152
 40
0.5000020222858504
 40
0.7500010530205092
 40
1.0
 40
1.0
 40
1.0
 40
1.0
 10
501.1832452523138
 20
397.4534339424191
 30
0.0
 10
500.9899021629618
 20
397.3943093992828
 30
0.0
 10
500.6032171606179
 20
397.2760606727426
 30
0.0
 10
500.1421836224636
 20
396.9523544947745
 30
0.0
 10
499.8412212194971
 20
396.5672925977825
 30
0.0
 10
499.8299197053875
 20
396.3053906089563
 30
0.0
 10
499.8242689492791
 20
396.174439636479
 30
0.0
  0
LINE
  5
224
330
1F
100
AcDbEntity
  8
0
  6
Continuous
 62
     7
370
    15
100
AcDbLine
 10
499.8242689493
 20
396.1744396365
 30
0.0
 11
499.8670580973
 21
396.0675220759
 31
0.0
  0
SPLINE
  5
225
330
1F
100
AcDbEntity
  8
0
  6
Continuous
 62
     7
370
    15
100
AcDbSpline
210
0.0
220
0.0
230
1.0
 70
     8
 71
     3
 72
     9
 73
     5
 74
     0
 42
0.00000001
 43
0.00000001
 12
1.0
 22
0.0
 32
0.0
 13
1.0
 23
0.0
 33
0.0
 40
0.0
 40
0.0
 40
0.0
 40
0.0
 40
0.4999998618679841
 40
1.0
 40
1.0
 40
1.0
 40
1.0
 10
502.6796971861896
 20
394.5632195027813
 30
0.0
 10
502.5635564396748
 20
394.6440162281916
 30
0.0
 10
502.331274882474
 20
394.8056097236546
 30
0.0
 10
502.2549239376721
 20
395.0432015717529
 30
0.0
 10
502.2167484547247
 20
395.161997528621
 30
0.0
  0
SPLINE
  5
226
330
1F
100
AcDbEntity
  8
0
  6
Continuous
 62
     7
370
    15
100
AcDbSpline
210
0.0
220
0.0
230
1.0
 70
     8
 71
     3
 72
    12
 73
     8
 74
     0
 42
0.00000001
 43
0.00000001
 12
1.0
 22
0.0
 32
0.0
 13
1.0
 23
0.0
 33
0.0
 40
0.0
 40
0.0
 40
0.0
 40
0.0
 40
0.1330570574971896
 40
0.3497935458884586
 40
0.5665296993381007
 40
0.7832651808226525
 40
1.0
 40
1.0
 40
1.0
 40
1.0
 10
502.8257501759799
 20
396.9517263520672
 30
0.0
 10
502.8075009141218
 20
397.009033218924
 30
0.0
 10
502.759525450548
 20
397.1596871754945
 30
0.0
 10
502.5387013508476
 20
397.34277495788
 30
0.0
 10
502.2013196639753
 20
397.4818202237651
 30
0.0
 10
501.7828472647431
 20
397.5381913785537
 30
0.0
 10
501.478915422791
 20
397.5013081293872
 30
0.0
 10
501.3269497340064
 20
397.4828665329812
 30
0.0
  0
SPLINE
  5
227
330
1F
100
AcDbEntity
  8
0
  6
Continuous
 62
     7
370
    15
100
AcDbSpline
210
0.0
220
0.0
230
1.0
 70
     8
 71
     3
 72
    11
 73
     7
 74
     0
 42
0.00000001
 43
0.00000001
 12
1.0
 22
0.0
 32
0.0
 13
1.0
 23
0.0
 33
0.0
 40
0.0
 40
0.0
 40
0.0
 40
0.0
 40
0.2499590948964321
 40
0.4999181894879489
 40
0.7489669013223988
 40
1.0
 40
1.0
 40
1.0
 40
1.0
 10
501.7777560088566
 20
397.2889806820676
 30
0.0
 10
501.7894680127372
 20
397.2603700902847
 30
0.0
 10
501.8128920204842
 20
397.2031489067537
 30
0.0
 10
501.7951326810211
 20
397.1050904870355
 30
0.0
 10
501.7425534905746
 20
397.006687960503
 30
0.0
 10
501.6774249782025
 20
396.9494299584812
 30
0.0
 10
501.6447315029963
 20
396.9206873540324
 30
0.0
  0
SPLINE
  5
228
330
1F
100
AcDbEntity
  8
0
  6
Continuous
 62
     7
370
    15
100
AcDbSpline
210
0.0
220
0.0
230
1.0
 70
     8
 71
     3
 72
     9
 73
     5
 74
     0
 42
0.00000001
 43
0.00000001
 12
1.0
 22
0.0
 32
0.0
 13
1.0
 23
0.0
 33
0.0
 40
0.0
 40
0.0
 40
0.0
 40
0.0
 40
0.4991614400712914
 40
1.0
 40
1.0
 40
1.0
 40
1.0
 10
501.6447315029963
 20
396.9206873540324
 30
0.0
 10
501.6203044778098
 20
396.8788075775913
 30
0.0
 10
501.5713683556947
 20
396.794907313911
 30
0.0
 10
501.5772274886044
 20
396.713675289733
 30
0.0
 10
501.5801619682935
 20
396.6729911597236
 30
0.0
  0
SPLINE
  5
229
330
1F
100
AcDbEntity
  8
0
  6
Continuous
 62
     7
370
    15
100
AcDbSpline
210
0.0
220
0.0
230
1.0
 70
     8
 71
     3
 72
    11
 73
     7
 74
     0
 42
0.00000001
 43
0.00000001
 12
1.0
 22
0.0
 32
0.0
 13
1.0
 23
0.0
 33
0.0
 40
0.0
 40
0.0
 40
0.0
 40
0.0
 40
0.2781025517901477
 40
0.5151385463627293
 40
0.7437998777144647
 40
1.0
 40
1.0
 40
1.0
 40
1.0
 10
501.7298427010252
 20
396.4789082684852
 30
0.0
 10
501.7284541348418
 20
396.4768265221413
 30
0.0
 10
501.7258820478163
 20
396.4729704345989
 30
0.0
 10
501.7195323578496
 20
396.4681608124519
 30
0.0
 10
501.7116480058759
 20
396.4651227395258
 30
0.0
 10
501.7062573901085
 20
396.4646982104264
 30
0.0
 10
501.7034089961841
 20
396.4644738898368
 30
0.0
  0
SPLINE
  5
22A
330
1F
100
AcDbEntity
  8
0
  6
Continuous
 62
     7
370
    15
100
AcDbSpline
210
0.0
220
0.0
230
1.0
 70
     8
 71
     3
 72
    11
 73
     7
 74
     0
 42
0.00000001
 43
0.00000001
 12
1.0
 22
0.0
 32
0.0
 13
1.0
 23
0.0
 33
0.0
 40
0.0
 40
0.0
 40
0.0
 40
0.0
 40
0.2499994240990347
 40
0.4999993892524622
 40
0.7499996631582054
 40
0.9999999999999999
 40
0.9999999999999999
 40
0.9999999999999999
 40
0.9999999999999999
 10
501.7034089961841
 20
396.4644738898367
 30
0.0
 10
501.5846116663018
 20
396.4689919051549
 30
0.0
 10
501.3470167494335
 20
396.4780279455693
 30
0.0
 10
501.058737517381
 20
396.5952340997217
 30
0.0
 10
500.8498490065602
 20
396.7721614138343
 30
0.0
 10
500.8059077359896
 20
396.927475475723
 30
0.0
 10
500.7839370979389
 20
397.0051325164422
 30
0.0
  0
SPLINE
  5
22B
330
1F
100
AcDbEntity
  8
0
  6
Continuous
 62
     7
370
    15
100
AcDbSpline
210
0.0
220
0.0
230
1.0
 70
     8
 71
     3
 72
    15
 73
    11
 74
     0
 42
0.00000001
 43
0.00000001
 12
1.0
 22
0.0
 32
0.0
 13
1.0
 23
0.0
 33
0.0
 40
0.0
 40
0.0
 40
0.0
 40
0.0
 40
0.1256549573873928
 40
0.2500586270744105
 40
0.3750420941768379
 40
0.5000157163576147
 40
0.6249841330894457
 40
0.7499536659691528
 40
0.8745059358726524
 40
1.0
 40
1.0
 40
1.0
 40
1.0
 10
501.3537191361299
 20
397.4268505467062
 30
0.0
 10
501.4010772035846
 20
397.4297663680067
 30
0.0
 10
501.4953217409656
 20
397.4355689744963
 30
0.0
 10
501.6204446708026
 20
397.4083162863404
 30
0.0
 10
501.7204475982908
 20
397.3575580917054
 30
0.0
 10
501.7865123859199
 20
397.2841905298092
 30
0.0
 10
501.8133723892932
 20
397.1950187432583
 30
0.0
 10
501.7978150801808
 20
397.09784087162
 30
0.0
 10
501.7446314967329
 20
396.999196030187
 30
0.0
 10
501.6795584176768
 20
396.9419696820835
 30
0.0
 10
501.6468993299615
 20
396.9132487371175
 30
0.0
  0
LINE
  5
22C
330
1F
100
AcDbEntity
  8
0
  6
Continuous
 62
     7
370
    15
100
AcDbLine
 10
501.3290444947
 20
397.475411527
 30
0.0
 11
501.3537189702
 21
397.426850873
 31
0.0
  0
SPLINE
  5
22D
330
1F
100
AcDbEntity
  8
0
  6
Continuous
 62
     7
370
    15
100
AcDbSpline
210
0.0
220
0.0
230
1.0
 70
     8
 71
     3
 72
    15
 73
    11
 74
     0
 42
0.00000001
 43
0.00000001
 12
1.0
 22
0.0
 32
0.0
 13
1.0
 23
0.0
 33
0.0
 40
0.0
 40
0.0
 40
0.0
 40
0.0
 40
0.1250028176602746
 40
0.2499955691664464
 40
0.3749820031436343
 40
0.4999683004622251
 40
0.6249608954579928
 40
0.7499640503840871
 40
0.8749782438632513
 40
1.0
 40
1.0
 40
1.0
 40
1.0
 10
502.421033180698
 20
395.9280713596282
 30
0.0
 10
502.519926278379
 20
396.023314814315
 30
0.0
 10
502.7177045101353
 20
396.2137940539793
 30
0.0
 10
502.8687549189005
 20
396.5352871673396
 30
0.0
 10
502.8935552124535
 20
396.8455090877505
 30
0.0
 10
502.7815263447125
 20
397.120749392827
 30
0.0
 10
502.5446602288736
 20
397.3366329475521
 30
0.0
 10
502.2027231212204
 20
397.4741068655287
 30
0.0
 10
501.7853024861719
 20
397.5308486001917
 30
0.0
 10
501.4811336371461
 20
397.4938909378134
 30
0.0
 10
501.329044612645
 20
397.4754115477084
 30
0.0
  0
SPLINE
  5
22E
330
1F
100
AcDbEntity
  8
0
  6
Continuous
 62
     7
370
    15
100
AcDbSpline
210
0.0
220
0.0
230
1.0
 70
     8
 71
     3
 72
    11
 73
     7
 74
     0
 42
0.00000001
 43
0.00000001
 12
1.0
 22
0.0
 32
0.0
 13
1.0
 23
0.0
 33
0.0
 40
0.0
 40
0.0
 40
0.0
 40
0.0
 40
0.2500076438880392
 40
0.5000020318393341
 40
0.749995176216408
 40
1.0
 40
1.0
 40
1.0
 40
1.0
 10
502.6820678758577
 20
394.555829518249
 30
0.0
 10
502.5680211866041
 20
394.6371559267909
 30
0.0
 10
502.339933855095
 20
394.7998044317758
 30
0.0
 10
502.1935334180411
 20
395.148116817243
 30
0.0
 10
502.2000068581882
 20
395.5352113303139
 30
0.0
 10
502.3473565457771
 20
395.7971159089967
 30
0.0
 10
502.4210331105355
 20
395.9280712572407
 30
0.0
  0
SPLINE
  5
22F
330
1F
100
AcDbEntity
  8
0
  6
Continuous
 62
     7
370
    15
100
AcDbSpline
210
0.0
220
0.0
230
1.0
 70
     8
 71
     3
 72
    11
 73
     7
 74
     0
 42
0.00000001
 43
0.00000001
 12
1.0
 22
0.0
 32
0.0
 13
1.0
 23
0.0
 33
0.0
 40
0.0
 40
0.0
 40
0.0
 40
0.0
 40
0.2590410212744724
 40
0.5000410122872767
 40
0.7408562253163355
 40
1.0
 40
1.0
 40
1.0
 40
1.0
 10
502.6360520380745
 20
394.5046300242047
 30
0.0
 10
502.6433243807151
 20
394.5074245362674
 30
0.0
 10
502.6573625803711
 20
394.5128189353235
 30
0.0
 10
502.6733664811457
 20
394.5259884496631
 30
0.0
 10
502.6827898377484
 20
394.5411126496675
 30
0.0
 10
502.6823143404192
 20
394.55080544896
 30
0.0
 10
502.6820678758577
 20
394.555829518249
 30
0.0
  0
SPLINE
  5
230
330
1F
100
AcDbEntity
  8
0
  6
Continuous
 62
     7
370
    15
100
AcDbSpline
210
0.0
220
0.0
230
1.0
 70
     8
 71
     3
 72
    11
 73
     7
 74
     0
 42
0.00000001
 43
0.00000001
 12
1.0
 22
0.0
 32
0.0
 13
1.0
 23
0.0
 33
0.0
 40
0.0
 40
0.0
 40
0.0
 40
0.0
 40
0.2499760487238912
 40
0.4999659645126215
 40
0.7499749891408827
 40
1.0
 40
1.0
 40
1.0
 40
1.0
 10
499.825861580282
 20
396.1668878365368
 30
0.0
 10
499.8931929594398
 20
395.9287617392588
 30
0.0
 10
500.0278594528675
 20
395.4524963349971
 30
0.0
 10
500.6683453763961
 20
394.9014626469906
 30
0.0
 10
501.550868681718
 20
394.5356087363467
 30
0.0
 10
502.2743157088294
 20
394.5149564447518
 30
0.0
 10
502.6360507867891
 20
394.5046299688246
 30
0.0
  0
SPLINE
  5
231
330
1F
100
AcDbEntity
  8
0
  6
Continuous
 62
     7
370
    15
100
AcDbSpline
210
0.0
220
0.0
230
1.0
 70
     8
 71
     3
 72
    11
 73
     7
 74
     0
 42
0.00000001
 43
0.00000001
 12
1.0
 22
0.0
 32
0.0
 13
1.0
 23
0.0
 33
0.0
 40
0.0
 40
0.0
 40
0.0
 40
0.0
 40
0.2500346433121361
 40
0.5000485631174115
 40
0.7500340164925976
 40
1.0
 40
1.0
 40
1.0
 40
1.0
 10
501.1852949163346
 20
397.4459691133343
 30
0.0
 10
500.9918963126469
 20
397.3868346366838
 30
0.0
 10
500.6051151346396
 20
397.2685705845983
 30
0.0
 10
500.1439270329445
 20
396.9448513711285
 30
0.0
 10
499.8428358917986
 20
396.5597632458793
 30
0.0
 10
499.8315195372213
 20
396.2978429062845
 30
0.0
 10
499.825861580282
 20
396.1668878365368
 30
0.0
  0
LINE
  5
232
330
1F
100
AcDbEntity
  8
0
  6
Continuous
 62
     7
370
    15
100
AcDbLine
 10
501.1738314713
 20
397.4009075403
 30
0.0
 11
501.1852949764
 21
397.4459687771
 31
0.0
  0
SPLINE
  5
233
330
1F
100
AcDbEntity
  8
0
  6
Continuous
 62
     7
370
    15
100
AcDbSpline
210
0.0
220
0.0
230
1.0
 70
     8
 71
     3
 72
    11
 73
     7
 74
     0
 42
0.00000001
 43
0.00000001
 12
1.0
 22
0.0
 32
0.0
 13
1.0
 23
0.0
 33
0.0
 40
0.0
 40
0.0
 40
0.0
 40
0.0
 40
0.2499670227801898
 40
0.4999521398925653
 40
0.7499647382384862
 40
1.0
 40
1.0
 40
1.0
 40
1.0
 10
500.7858483339646
 20
396.9976389464608
 30
0.0
 10
500.7870907888203
 20
397.0370525674888
 30
0.0
 10
500.7895757884692
 20
397.1158826625737
 30
0.0
 10
500.8734860456493
 20
397.2346486864046
 30
0.0
 10
501.0039110797968
 20
397.3379208352046
 30
0.0
 10
501.1171895346189
 20
397.3799113091806
 30
0.0
 10
501.173831329061
 20
397.4009074977249
 30
0.0
  0
SPLINE
  5
234
330
1F
100
AcDbEntity
  8
0
  6
Continuous
 62
     7
370
    15
100
AcDbSpline
210
0.0
220
0.0
230
1.0
 70
     8
 71
     3
 72
    11
 73
     7
 74
     0
 42
0.00000001
 43
0.00000001
 12
1.0
 22
0.0
 32
0.0
 13
1.0
 23
0.0
 33
0.0
 40
0.0
 40
0.0
 40
0.0
 40
0.0
 40
0.2500313031745773
 40
0.50004082499699
 40
0.7500276932875917
 40
1.0
 40
1.0
 40
1.0
 40
1.0
 10
501.705575610051
 20
396.4570349959727
 30
0.0
 10
501.586744915467
 20
396.4615444245076
 30
0.0
 10
501.3490938781755
 20
396.4705628887406
 30
0.0
 10
501.0607282525739
 20
396.5877469178619
 30
0.0
 10
500.8517750934873
 20
396.7646636168614
 30
0.0
 10
500.8078234937675
 20
396.9199820111714
 30
0.0
 10
500.7858483339646
 20
396.9976389464608
 30
0.0
  0
SPLINE
  5
235
330
1F
100
AcDbEntity
  8
0
  6
Continuous
 62
     7
370
    15
100
AcDbSpline
210
0.0
220
0.0
230
1.0
 70
     8
 71
     3
 72
    12
 73
     8
 74
     0
 42
0.00000001
 43
0.00000001
 12
1.0
 22
0.0
 32
0.0
 13
1.0
 23
0.0
 33
0.0
 40
0.0
 40
0.0
 40
0.0
 40
0.0
 40
0.2781434969450925
 40
0.5146007150608501
 40
0.6278863650425048
 40
0.7438213592716596
 40
1.0
 40
1.0
 40
1.0
 40
1.0
 10
501.7320177671659
 20
396.4714713076752
 30
0.0
 10
501.7306413837788
 20
396.4693815955483
 30
0.0
 10
501.7280949001004
 20
396.4655153633099
 30
0.0
 10
501.7226981564787
 20
396.4614158586626
 30
0.0
 10
501.7179221515325
 20
396.4592244217903
 30
0.0
 10
501.7125808869105
 20
396.4575540467692
 30
0.0
 10
501.7084319276809
 20
396.4572466327105
 30
0.0
 10
501.705575610051
 20
396.4570349959728
 30
0.0
  0
SPLINE
  5
236
330
1F
100
AcDbEntity
  8
0
  6
Continuous
 62
     7
370
    15
100
AcDbSpline
210
0.0
220
0.0
230
1.0
 70
     8
 71
     3
 72
    11
 73
     7
 74
     0
 42
0.00000001
 43
0.00000001
 12
1.0
 22
0.0
 32
0.0
 13
1.0
 23
0.0
 33
0.0
 40
0.0
 40
0.0
 40
0.0
 40
0.0
 40
0.2500276246910398
 40
0.5000490127468011
 40
0.7500174406371584
 40
1.0
 40
1.0
 40
1.0
 40
1.0
 10
501.6468992304007
 20
396.9132485922419
 30
0.0
 10
501.6230958583936
 20
396.8714628347865
 30
0.0
 10
501.5754897081255
 20
396.7878923621706
 30
0.0
 10
501.5742109025113
 20
396.6635404537445
 30
0.0
 10
501.6214581548963
 20
396.5512783835076
 30
0.0
 10
501.6951638686278
 20
396.4980741675711
 30
0.0
 10
501.7320177671659
 20
396.4714713076752
 30
0.0
  0
LINE
  5
237
330
1F
100
AcDbEntity
  8
0
  6
Continuous
 62
     7
370
    15
100
AcDbLine
 10
501.326949734
 20
397.482866533
 30
0.0
 11
501.3290444947
 21
397.475411527
 31
0.0
  0
LINE
  5
238
330
1F
100
AcDbEntity
  8
0
  6
Continuous
 62
     7
370
    15
100
AcDbLine
 10
501.1832452523
 20
397.4534339424
 30
0.0
 11
501.1852950711
 21
397.4459691498
 31
0.0
  0
LINE
  5
239
330
1F
100
AcDbEntity
  8
0
  6
Continuous
 62
     7
370
    15
100
AcDbLine
 10
501.644731503
 20
396.920687354
 30
0.0
 11
501.64689933
 21
396.9132487371
 31
0.0
  0
LINE
  5
23A
330
1F
100
AcDbEntity
  8
0
  6
Continuous
 62
     7
370
    15
100
AcDbLine
 10
502.6796971862
 20
394.5632195028
 30
0.0
 11
502.6820678759
 21
394.5558295182
 31
0.0
  0
LINE
  5
23B
330
1F
100
AcDbEntity
  8
0
  6
Continuous
 62
     7
370
    15
100
AcDbLine
 10
523.5354607572
 20
421.1250321733
 30
0.0
 11
523.5886206641
 21
421.1068614616
 31
0.0
  0
SPLINE
  5
23C
330
1F
100
AcDbEntity
  8
0
  6
Continuous
 62
     7
370
    15
100
AcDbSpline
210
0.0
220
0.0
230
1.0
 70
     8
 71
     3
 72
    15
 73
    11
 74
     0
 42
0.00000001
 43
0.00000001
 12
1.0
 22
0.0
 32
0.0
 13
1.0
 23
0.0
 33
0.0
 40
0.0
 40
0.0
 40
0.0
 40
0.0
 40
0.1253598683917671
 40
0.2492918986158563
 40
0.3751208158556818
 40
0.5000060450749956
 40
0.6248182493151495
 40
0.7506256703289955
 40
0.8748357725076251
 40
1.0
 40
1.0
 40
1.0
 40
1.0
 10
525.3452629388142
 20
420.9420926063638
 30
0.0
 10
525.2983017128873
 20
421.1667950399475
 30
0.0
 10
525.2049141453764
 20
421.6136405656352
 30
0.0
 10
524.9842513481417
 20
422.162757061547
 30
0.0
 10
524.7165783060427
 20
422.503565770263
 30
0.0
 10
524.4326179358524
 20
422.6504998726693
 30
0.0
 10
524.1545046551757
 20
422.5628137914907
 30
0.0
 10
523.8993320666071
 20
422.273485080802
 30
0.0
 10
523.6875371204609
 20
421.7724060167419
 30
0.0
 10
523.586281896774
 20
421.3413733530364
 30
0.0
 10
523.5354605798043
 20
421.1250324391667
 30
0.0
  0
SPLINE
  5
23D
330
1F
100
AcDbEntity
  8
0
  6
Continuous
 62
     7
370
    15
100
AcDbSpline
210
0.0
220
0.0
230
1.0
 70
     8
 71
     3
 72
    11
 73
     7
 74
     0
 42
0.00000001
 43
0.00000001
 12
1.0
 22
0.0
 32
0.0
 13
1.0
 23
0.0
 33
0.0
 40
0.0
 40
0.0
 40
0.0
 40
0.0
 40
0.2500068906674799
 40
0.5000012737603114
 40
0.749994729768785
 40
0.9999999999999999
 40
0.9999999999999999
 40
0.9999999999999999
 40
0.9999999999999999
 10
526.6542018465129
 20
419.8547465788113
 30
0.0
 10
526.5371513512429
 20
419.7908957042066
 30
0.0
 10
526.3030562166127
 20
419.6631971493875
 30
0.0
 10
525.9369029217465
 20
419.8342650027127
 30
0.0
 10
525.6012505860197
 20
420.2457040201814
 30
0.0
 10
525.4305936892283
 20
420.7099585071506
 30
0.0
 10
525.3452632246489
 20
420.9420912354551
 30
0.0
  0
SPLINE
  5
23E
330
1F
100
AcDbEntity
  8
0
  6
Continuous
 62
     7
370
    15
100
AcDbSpline
210
0.0
220
0.0
230
1.0
 70
     8
 71
     3
 72
    11
 73
     7
 74
     0
 42
0.00000001
 43
0.00000001
 12
1.0
 22
0.0
 32
0.0
 13
1.0
 23
0.0
 33
0.0
 40
0.0
 40
0.0
 40
0.0
 40
0.0
 40
0.2553965921364832
 40
0.4997857672865999
 40
0.7474328788605469
 40
1.0
 40
1.0
 40
1.0
 40
1.0
 10
526.6809236459025
 20
419.741687345729
 30
0.0
 10
526.681407642729
 20
419.7539004501822
 30
0.0
 10
526.682354776453
 20
419.7778002827096
 30
0.0
 10
526.6769035794584
 20
419.8124732828323
 30
0.0
 10
526.6674526914514
 20
419.8411085113228
 30
0.0
 10
526.6586476630061
 20
419.8501708445349
 30
0.0
 10
526.6542018465129
 20
419.8547465788113
 30
0.0
  0
SPLINE
  5
23F
330
1F
100
AcDbEntity
  8
0
  6
Continuous
 62
     7
370
    15
100
AcDbSpline
210
0.0
220
0.0
230
1.0
 70
     8
 71
     3
 72
    11
 73
     7
 74
     0
 42
0.00000001
 43
0.00000001
 12
1.0
 22
0.0
 32
0.0
 13
1.0
 23
0.0
 33
0.0
 40
0.0
 40
0.0
 40
0.0
 40
0.0
 40
0.2499761756126422
 40
0.5000101816855443
 40
0.7500131800537211
 40
0.9999999999999999
 40
0.9999999999999999
 40
0.9999999999999999
 40
0.9999999999999999
 10
523.9476296870997
 20
417.7696141680024
 30
0.0
 10
524.1883892981787
 20
417.6105736806033
 30
0.0
 10
524.669964218601
 20
417.2924559127606
 30
0.0
 10
525.4690516362766
 20
417.570332868857
 30
0.0
 10
526.2050139610225
 20
418.3574537186908
 30
0.0
 10
526.5222904462665
 20
419.2802852843221
 30
0.0
 10
526.6809235557512
 20
419.7416861368753
 30
0.0
  0
SPLINE
  5
240
330
1F
100
AcDbEntity
  8
0
  6
Continuous
 62
     7
370
    15
100
AcDbSpline
210
0.0
220
0.0
230
1.0
 70
     8
 71
     3
 72
    11
 73
     7
 74
     0
 42
0.00000001
 43
0.00000001
 12
1.0
 22
0.0
 32
0.0
 13
1.0
 23
0.0
 33
0.0
 40
0.0
 40
0.0
 40
0.0
 40
0.0
 40
0.2500322192819015
 40
0.5000457644201176
 40
0.7500323342605236
 40
0.9999999999999999
 40
0.9999999999999999
 40
0.9999999999999999
 40
0.9999999999999999
 10
523.4974961695955
 20
420.9053752532359
 30
0.0
 10
523.4607649615801
 20
420.5887906285378
 30
0.0
 10
523.3873052888912
 20
419.9556450238814
 30
0.0
 10
523.439562742292
 20
419.0055021008271
 30
0.0
 10
523.6176579796567
 20
418.2024904521974
 30
0.0
 10
523.8376418906045
 20
417.9139026254055
 30
0.0
 10
523.9476296870997
 20
417.7696141680023
 30
0.0
  0
LINE
  5
241
330
1F
100
AcDbEntity
  8
0
  6
Continuous
 62
     7
370
    15
100
AcDbLine
 10
523.5316151618
 20
420.8433415407
 30
0.0
 11
523.4974961908
 21
420.90537539
 31
0.0
  0
SPLINE
  5
242
330
1F
100
AcDbEntity
  8
0
  6
Continuous
 62
     7
370
    15
100
AcDbSpline
210
0.0
220
0.0
230
1.0
 70
     8
 71
     3
 72
    11
 73
     7
 74
     0
 42
0.00000001
 43
0.00000001
 12
1.0
 22
0.0
 32
0.0
 13
1.0
 23
0.0
 33
0.0
 40
0.0
 40
0.0
 40
0.0
 40
0.0
 40
0.2499666701448459
 40
0.4999515679305626
 40
0.7499642240907762
 40
1.0
 40
1.0
 40
1.0
 40
1.0
 10
523.7043588513758
 20
419.911303055579
 30
0.0
 10
523.6707375027288
 20
419.9540416964298
 30
0.0
 10
523.6034923537563
 20
420.0395220946454
 30
0.0
 10
523.5395365487896
 20
420.2741976180226
 30
0.0
 10
523.5099642404226
 20
420.5539703214948
 30
0.0
 10
523.5243980861762
 20
420.7468812750091
 30
0.0
 10
523.5316153427276
 20
420.8433412113872
 30
0.0
  0
SPLINE
  5
243
330
1F
100
AcDbEntity
  8
0
  6
Continuous
 62
     7
370
    15
100
AcDbSpline
210
0.0
220
0.0
230
1.0
 70
     8
 71
     3
 72
    11
 73
     7
 74
     0
 42
0.00000001
 43
0.00000001
 12
1.0
 22
0.0
 32
0.0
 13
1.0
 23
0.0
 33
0.0
 40
0.0
 40
0.0
 40
0.0
 40
0.0
 40
0.250030291735488
 40
0.5000397805487532
 40
0.7500271661223324
 40
1.0
 40
1.0
 40
1.0
 40
1.0
 10
524.5872596938644
 20
420.5584845191764
 30
0.0
 10
524.5318996728922
 20
420.4072962751319
 30
0.0
 10
524.4211842369906
 20
420.1049323661479
 30
0.0
 10
524.1882626870513
 20
419.8470253458146
 30
0.0
 10
523.9376106123934
 20
419.7555525650614
 30
0.0
 10
523.7821079297098
 20
419.8593872328003
 30
0.0
 10
523.7043588513758
 20
419.911303055579
 30
0.0
  0
SPLINE
  5
244
330
1F
100
AcDbEntity
  8
0
  6
Continuous
 62
     7
370
    15
100
AcDbSpline
210
0.0
220
0.0
230
1.0
 70
     8
 71
     3
 72
    11
 73
     7
 74
     0
 42
0.00000001
 43
0.00000001
 12
1.0
 22
0.0
 32
0.0
 13
1.0
 23
0.0
 33
0.0
 40
0.0
 40
0.0
 40
0.0
 40
0.0
 40
0.2648155482541858
 40
0.4995403882843013
 40
0.7415350559501505
 40
0.9999999999999999
 40
0.9999999999999999
 40
0.9999999999999999
 40
0.9999999999999999
 10
524.5859260247546
 20
420.6081536499234
 30
0.0
 10
524.5871742305831
 20
420.6044686278467
 30
0.0
 10
524.5895288099433
 20
420.5975173088206
 30
0.0
 10
524.5909784739945
 20
420.5841013507765
 30
0.0
 10
524.590340666013
 20
420.5702524728911
 30
0.0
 10
524.5883089724626
 20
420.5624923002864
 30
0.0
 10
524.5872596938644
 20
420.5584845191764
 30
0.0
  0
SPLINE
  5
245
330
1F
100
AcDbEntity
  8
0
  6
Continuous
 62
     7
370
    15
100
AcDbSpline
210
0.0
220
0.0
230
1.0
 70
     8
 71
     3
 72
    11
 73
     7
 74
     0
 42
0.00000001
 43
0.00000001
 12
1.0
 22
0.0
 32
0.0
 13
1.0
 23
0.0
 33
0.0
 40
0.0
 40
0.0
 40
0.0
 40
0.0
 40
0.2500047259081647
 40
0.4999975130811354
 40
0.749991746054375
 40
1.0
 40
1.0
 40
1.0
 40
1.0
 10
524.1636564430551
 20
420.9565967462876
 30
0.0
 10
524.1900041010729
 20
420.8820723440163
 30
0.0
 10
524.2426981589015
 20
420.733027098315
 30
0.0
 10
524.3504352611085
 20
420.6011338680133
 30
0.0
 10
524.4689476268537
 20
420.5464177198259
 30
0.0
 10
524.5469324965088
 20
420.5875746218529
 30
0.0
 10
524.5859260247546
 20
420.6081536499234
 30
0.0
  0
SPLINE
  5
246
330
1F
100
AcDbEntity
  8
0
  6
Continuous
 62
     7
370
    15
100
AcDbSpline
210
0.0
220
0.0
230
1.0
 70
     8
 71
     3
 72
    15
 73
    11
 74
     0
 42
0.00000001
 43
0.00000001
 12
1.0
 22
0.0
 32
0.0
 13
1.0
 23
0.0
 33
0.0
 40
0.0
 40
0.0
 40
0.0
 40
0.0
 40
0.1250215456742335
 40
0.2500341506779324
 40
0.3750353858476784
 40
0.5000267097334341
 40
0.625012880185521
 40
0.7500003051043941
 40
0.8749948694360596
 40
1.0
 40
1.0
 40
1.0
 40
1.0
 10
523.5886206895482
 20
421.1068615690923
 30
0.0
 10
523.6066641544026
 20
421.1716084424949
 30
0.0
 10
523.6427497937686
 20
421.3010975590545
 30
0.0
 10
523.7197143138193
 20
421.4373993413752
 30
0.0
 10
523.8064568676888
 20
421.5153902321906
 30
0.0
 10
523.8982359393932
 20
421.525468029843
 30
0.0
 10
523.9874443081256
 20
421.4677110501702
 30
0.0
 10
524.0661747749633
 20
421.3462885177401
 30
0.0
 10
524.129878943135
 20
421.1733303881776
 30
0.0
 10
524.152396959174
 20
421.0288433291651
 30
0.0
 10
524.1636564430551
 20
420.9565967462876
 30
0.0
  0
LINE
  5
247
330
1F
100
AcDbEntity
  8
0
  6
Continuous
 62
     7
370
    15
100
AcDbLine
 10
523.938608013
 20
417.7705537015
 30
0.0
 11
523.9476296871
 21
417.769614168
 31
0.0
  0
LINE
  5
248
330
1F
100
AcDbEntity
  8
0
  6
Continuous
 62
     7
370
    15
100
AcDbLine
 10
523.4883270169
 20
420.905616776
 30
0.0
 11
523.4974961908
 21
420.90537539
 31
0.0
  0
LINE
  5
249
330
1F
100
AcDbEntity
  8
0
  6
Continuous
 62
     7
370
    15
100
AcDbLine
 10
523.5262798846
 20
421.1252032991
 30
0.0
 11
523.5354605333
 21
421.12503225
 31
0.0
  0
LINE
  5
24A
330
1F
100
AcDbEntity
  8
0
  6
Continuous
 62
     7
370
    15
100
AcDbLine
 10
523.5794386578
 20
421.107023934
 30
0.0
 11
523.5886206641
 21
421.1068614616
 31
0.0
  0
LINE
  5
24B
330
1F
100
AcDbEntity
  8
0
  6
Continuous
 62
     7
370
    15
100
AcDbLine
 10
524.1544586763
 20
420.9566550854
 30
0.0
 11
524.1636564431
 21
420.9565967463
 31
0.0
  0
SPLINE
  5
24C
330
1F
100
AcDbEntity
  8
0
  6
Continuous
 62
     7
370
    15
100
AcDbSpline
210
0.0
220
0.0
230
1.0
 70
     8
 71
     3
 72
    12
 73
     8
 74
     0
 42
0.00000001
 43
0.00000001
 12
1.0
 22
0.0
 32
0.0
 13
1.0
 23
0.0
 33
0.0
 40
0.0
 40
0.0
 40
0.0
 40
0.0
 40
0.0304717459519048
 40
0.0888135668590973
 40
0.3925556175488547
 40
0.6962774394173831
 40
1.0
 40
1.0
 40
1.0
 40
1.0
 10
478.5414605043568
 20
447.3940693733372
 30
0.0
 10
478.5376446922359
 20
447.4041870893626
 30
0.0
 10
478.5265230490764
 20
447.4336763890598
 30
0.0
 10
478.4814853744439
 20
447.5632733293923
 30
0.0
 10
478.4309323966076
 20
447.7758321053209
 30
0.0
 10
478.4253950292398
 20
448.0224039908805
 30
0.0
 10
478.4776513777655
 20
448.1179461927208
 30
0.0
 10
478.5037795838028
 20
448.1657173517356
 30
0.0
  0
SPLINE
  5
24D
330
1F
100
AcDbEntity
  8
0
  6
Continuous
 62
     7
370
    15
100
AcDbSpline
210
0.0
220
0.0
230
1.0
 70
     8
 71
     3
 72
    12
 73
     8
 74
     0
 42
0.00000001
 43
0.00000001
 12
1.0
 22
0.0
 32
0.0
 13
1.0
 23
0.0
 33
0.0
 40
0.0
 40
0.0
 40
0.0
 40
0.0
 40
0.0304717459549479
 40
0.0888135668588466
 40
0.3925556175493136
 40
0.6962774394180916
 40
0.9999999999999999
 40
0.9999999999999999
 40
0.9999999999999999
 40
0.9999999999999999
 10
510.2069696339587
 20
447.7461681732168
 30
0.0
 10
510.2105375369445
 20
447.7563679911034
 30
0.0
 10
510.2209366191252
 20
447.7860965865426
 30
0.0
 10
510.2627466753731
 20
447.9166592142375
 30
0.0
 10
510.3076889908799
 20
448.1302798324978
 30
0.0
 10
510.305996226861
 20
448.3768944674185
 30
0.0
 10
510.2501991250404
 20
448.4712351888072
 30
0.0
 10
510.2223005402026
 20
448.5184056068655
 30
0.0
  0
LINE
  5
24E
330
1F
100
AcDbEntity
  8
0
  6
Continuous
 62
     7
370
    15
100
AcDbLine
 10
526.6449658774
 20
419.8545030585
 30
0.0
 11
526.6542018465
 21
419.8547465788
 31
0.0
  0
LINE
  5
24F
330
1F
100
AcDbEntity
  8
0
  6
Continuous
 62
     7
370
    15
100
AcDbLine
 10
508.8544034351
 20
450.02754263
 30
0.0
 11
506.8734536144
 21
450.650053785
 31
0.0
  0
LINE
  5
250
330
1F
100
AcDbEntity
  8
0
  6
Continuous
 62
     7
370
    15
100
AcDbLine
 10
507.827181079
 20
450.5948841974
 30
0.0
 11
508.8544037141
 21
450.0275425358
 31
0.0
  0
LINE
  5
251
330
1F
100
AcDbEntity
  8
0
  6
Continuous
 62
     7
370
    15
100
AcDbLine
 10
509.364765703
 20
449.8607815454
 30
0.0
 11
507.8271811628
 21
450.5948842156
 31
0.0
  0
LINE
  5
252
330
1F
100
AcDbEntity
  8
0
  6
Continuous
 62
     7
370
    15
100
AcDbLine
 10
509.642761481
 20
449.9049655845
 30
0.0
 11
509.364765703
 21
449.8607815454
 31
0.0
  0
LINE
  5
253
330
1F
100
AcDbEntity
  8
0
  6
Continuous
 62
     7
370
    15
100
AcDbLine
 10
510.4558976592
 20
449.3065311635
 30
0.0
 11
509.6427617574
 21
449.9049654697
 31
0.0
  0
LINE
  5
254
330
1F
100
AcDbEntity
  8
0
  6
Continuous
 62
     7
370
    15
100
AcDbLine
 10
511.6767174346
 20
448.6933916993
 30
0.0
 11
510.4558976592
 21
449.3065311635
 31
0.0
  0
LINE
  5
255
330
1F
100
AcDbEntity
  8
0
  6
Continuous
 62
     7
370
    15
100
AcDbLine
 10
510.8986359826
 20
448.955648159
 30
0.0
 11
511.6767175638
 21
448.6933916123
 31
0.0
  0
LINE
  5
256
330
1F
100
AcDbEntity
  8
0
  6
Continuous
 62
     7
370
    15
100
AcDbLine
 10
511.5922891094
 20
448.4137039604
 30
0.0
 11
510.8986357774
 21
448.9556482269
 31
0.0
  0
LINE
  5
257
330
1F
100
AcDbEntity
  8
0
  6
Continuous
 62
     7
370
    15
100
AcDbLine
 10
510.288867118
 20
449.1900406972
 30
0.0
 11
511.5922891094
 21
448.4137039604
 31
0.0
  0
LINE
  5
258
330
1F
100
AcDbEntity
  8
0
  6
Continuous
 62
     7
370
    15
100
AcDbLine
 10
510.2089720992
 20
449.0248321288
 30
0.0
 11
510.288867118
 21
449.1900406972
 31
0.0
  0
LINE
  5
259
330
1F
100
AcDbEntity
  8
0
  6
Continuous
 62
     7
370
    15
100
AcDbLine
 10
509.4940774168
 20
449.568866853
 30
0.0
 11
510.2089720992
 21
449.0248321288
 31
0.0
  0
LINE
  5
25A
330
1F
100
AcDbEntity
  8
0
  6
Continuous
 62
     7
370
    15
100
AcDbLine
 10
506.8734536144
 20
450.650053785
 30
0.0
 11
509.4940771137
 21
449.5688669914
 31
0.0
  0
LINE
  5
25B
330
1F
100
AcDbEntity
  8
0
  6
Continuous
 62
     7
370
    15
100
AcDbLine
 10
509.4895296291
 20
449.5600206546
 30
0.0
 11
509.4940774168
 21
449.568866853
 31
0.0
  0
LINE
  5
25C
330
1F
100
AcDbEntity
  8
0
  6
Continuous
 62
     7
370
    15
100
AcDbLine
 10
506.8696309627
 20
450.6408589146
 30
0.0
 11
506.8734536144
 21
450.650053785
 31
0.0
  0
LINE
  5
25D
330
1F
100
AcDbEntity
  8
0
  6
Continuous
 62
     7
370
    15
100
AcDbLine
 10
510.2041349019
 20
449.016147178
 30
0.0
 11
510.2089720992
 21
449.0248321288
 31
0.0
  0
SPLINE
  5
25E
330
1F
100
AcDbEntity
  8
0
  6
Continuous
 62
     7
370
    15
100
AcDbSpline
210
0.0
220
0.0
230
1.0
 70
    11
 71
     3
 72
    23
 73
    19
 74
     0
 42
0.00000001
 43
0.00000001
 12
1.0
 22
0.0
 32
0.0
 13
1.0
 23
0.0
 33
0.0
 40
0.0
 40
0.0
 40
0.0
 40
0.0
 40
0.0625207000672965
 40
0.1250381450396702
 40
0.1875462570329325
 40
0.2500493500569204
 40
0.3125527362146068
 40
0.3750609610466626
 40
0.43757584611145
 40
0.5000949954319727
 40
0.5626136607541515
 40
0.6251273211309734
 40
0.6876336245656106
 40
0.7501347379604992
 40
0.8126350683745197
 40
0.8751345470502006
 40
0.9376810076344492
 40
0.9999999999999999
 40
0.9999999999999999
 40
0.9999999999999999
 40
0.9999999999999999
 10
494.2922896353624
 20
453.1561097914761
 30
0.0
 10
494.6194911695189
 20
453.1591889168656
 30
0.0
 10
495.2738772023212
 20
453.1653470073321
 30
0.0
 10
496.103486020678
 20
453.1732616135047
 30
0.0
 10
496.6551626146191
 20
453.1977638593219
 30
0.0
 10
496.8456189885698
 20
453.2508036957415
 30
0.0
 10
496.6461656259547
 20
453.3301418474661
 30
0.0
 10
496.0867604836131
 20
453.4161433365924
 30
0.0
 10
495.2519376583252
 20
453.4799212080597
 30
0.0
 10
494.268868907451
 20
453.4967286087445
 30
0.0
 10
493.2880434440931
 20
453.4579357265727
 30
0.0
 10
492.4594621770527
 20
453.3755698990402
 30
0.0
 10
491.9090382238222
 20
453.277223633066
 30
0.0
 10
491.719481221658
 20
453.1936231647829
 30
0.0
 10
491.9193696863421
 20
453.145038841189
 30
0.0
 10
492.4780524933282
 20
453.1329188731516
 30
0.0
 10
493.3121073536781
 20
453.1435924408036
 30
0.0
 10
493.9659592502376
 20
453.1519424116509
 30
0.0
 10
494.2922896353624
 20
453.1561097914761
 30
0.0
  0
LINE
  5
25F
330
1F
100
AcDbEntity
  8
0
  6
Continuous
 62
     7
370
    15
100
AcDbLine
 10
511.5871332542
 20
448.4052125639
 30
0.0
 11
511.5922891094
 21
448.4137039604
 31
0.0
  0
LINE
  5
260
330
1F
100
AcDbEntity
  8
0
  6
Continuous
 62
     7
370
    15
100
AcDbLine
 10
511.6716862396
 20
448.6848225297
 30
0.0
 11
511.6767176712
 21
448.6933915755
 31
0.0
  0
LINE
  5
261
330
1F
100
AcDbEntity
  8
0
  6
Continuous
 62
     7
370
    15
100
AcDbLine
 10
507.8232350884
 20
450.5857434134
 30
0.0
 11
507.827180375
 21
450.5948845671
 31
0.0
  0
LINE
  5
262
330
1F
100
AcDbEntity
  8
0
  6
Continuous
 62
     7
370
    15
100
AcDbLine
 10
493.7783799381
 20
454.4715994114
 30
0.0
 11
495.5011871456
 21
454.4715994114
 31
0.0
  0
LWPOLYLINE
  5
263
330
1F
100
AcDbEntity
  8
0
  6
Continuous
 62
     7
370
    15
100
AcDbPolyline
 90
        3
 70
   128
 43
0.0
 10
493.6397835418
 20
453.9498976671
 10
494.6397835418
 20
454.0080739198
 10
495.6397835418
 20
453.9498976671
  0
LINE
  5
264
330
1F
100
AcDbEntity
  8
0
  6
Continuous
 62
     7
370
    15
100
AcDbLine
 10
391.7783799386
 20
454.4715994122
 30
0.0
 11
393.5011871451
 21
454.4715994122
 31
0.0
  0
LWPOLYLINE
  5
265
330
1F
100
AcDbEntity
  8
0
  6
Continuous
 62
     7
370
    15
100
AcDbPolyline
 90
        3
 70
   128
 43
0.0
 10
391.6397835418
 20
453.949897668
 10
392.6397835408
 20
454.0080739206
 10
393.6397835418
 20
453.9498976678
  0
LINE
  5
266
330
1F
100
AcDbEntity
  8
0
  6
Continuous
 62
     7
370
    15
100
AcDbLine
 10
448.6397835418
 20
467.767989855
 30
0.0
 11
448.6397835418
 21
463.462603381
 31
0.0
  0
LINE
  5
267
330
1F
100
AcDbEntity
  8
0
  6
Continuous
 62
     7
370
    15
100
AcDbLine
 10
438.6397835418
 20
463.462603381
 30
0.0
 11
448.6397835418
 21
463.462603381
 31
0.0
  0
LINE
  5
268
330
1F
100
AcDbEntity
  8
0
  6
Continuous
 62
     7
370
    15
100
AcDbLine
 10
438.6397835418
 20
467.767989855
 30
0.0
 11
438.6397835418
 21
463.462603381
 31
0.0
  0
LINE
  5
269
330
1F
100
AcDbEntity
  8
0
  6
Continuous
 62
     7
370
    15
100
AcDbLine
 10
437.6505442245
 20
463.462603381
 30
0.0
 11
438.6397835418
 21
463.462603381
 31
0.0
  0
LINE
  5
26A
330
1F
100
AcDbEntity
  8
0
  6
Continuous
 62
     7
370
    15
100
AcDbLine
 10
448.6397835418
 20
463.462603381
 30
0.0
 11
449.6290228591
 21
463.462603381
 31
0.0
  0
LINE
  5
26B
330
1F
100
AcDbEntity
  8
0
  6
Continuous
 62
     7
370
    15
100
AcDbLine
 10
443.6397835418
 20
463.062603381
 30
0.0
 11
443.6397835418
 21
463.462603381
 31
0.0
  0
ARC
  5
26C
330
1F
100
AcDbEntity
  8
0
  6
Continuous
 62
     7
370
    15
100
AcDbCircle
 10
438.2397835418
 20
463.062603381
 30
0.0
 40
0.4000000000000341
100
AcDbArc
 50
0.0000000023
 51
90.0
  0
ARC
  5
26D
330
1F
100
AcDbEntity
  8
0
  6
Continuous
 62
     7
370
    15
100
AcDbCircle
 10
449.0397835418
 20
463.062603381
 30
0.0
 40
0.4000000000000341
100
AcDbArc
 50
90.0
 51
179.9999999977
  0
LINE
  5
26E
330
1F
100
AcDbEntity
  8
0
  6
Continuous
 62
     7
370
    15
100
AcDbLine
 10
443.6397835418
 20
461.562603381
 30
0.0
 11
443.6397835418
 21
463.062603381
 31
0.0
  0
LINE
  5
26F
330
1F
100
AcDbEntity
  8
0
  6
Continuous
 62
     7
370
    15
100
AcDbLine
 10
438.6397835418
 20
461.562603381
 30
0.0
 11
438.6397835418
 21
463.062603381
 31
0.0
  0
LINE
  5
270
330
1F
100
AcDbEntity
  8
0
  6
Continuous
 62
     7
370
    15
100
AcDbLine
 10
448.6397835418
 20
463.062603381
 30
0.0
 11
448.6397835418
 21
461.562603381
 31
0.0
  0
LINE
  5
271
330
1F
100
AcDbEntity
  8
0
  6
Continuous
 62
     7
370
    15
100
AcDbLine
 10
449.7481694943
 20
463.462603381
 30
0.0
 11
449.6290228591
 21
463.462603381
 31
0.0
  0
LINE
  5
272
330
1F
100
AcDbEntity
  8
0
  6
Continuous
 62
     7
370
    15
100
AcDbLine
 10
437.6505442245
 20
463.462603381
 30
0.0
 11
437.5313975894
 21
463.462603381
 31
0.0
  0
LINE
  5
273
330
1F
100
AcDbEntity
  8
0
  6
Continuous
 62
     7
370
    15
100
AcDbLine
 10
433.6092975139
 20
463.462603381
 30
0.0
 11
437.5313975894
 21
463.462603381
 31
0.0
  0
LINE
  5
274
330
1F
100
AcDbEntity
  8
0
  6
Continuous
 62
     7
370
    15
100
AcDbLine
 10
449.7481694943
 20
463.462603381
 30
0.0
 11
453.6702695698
 21
463.462603381
 31
0.0
  0
LINE
  5
275
330
1F
100
AcDbEntity
  8
0
  6
Continuous
 62
     7
370
    15
100
AcDbLine
 10
453.8836841661
 20
463.462603381
 30
0.0
 11
453.6702695698
 21
463.462603381
 31
0.0
  0
LINE
  5
276
330
1F
100
AcDbEntity
  8
0
  6
Continuous
 62
     7
370
    15
100
AcDbLine
 10
433.6092975139
 20
463.462603381
 30
0.0
 11
433.3958829176
 21
463.462603381
 31
0.0
  0
LINE
  5
277
330
1F
100
AcDbEntity
  8
0
  6
Continuous
 62
     7
370
    15
100
AcDbLine
 10
457.6397835418
 20
463.462603381
 30
0.0
 11
463.6397835418
 21
463.462603381
 31
0.0
  0
LINE
  5
278
330
1F
100
AcDbEntity
  8
0
  6
Continuous
 62
     7
370
    15
100
AcDbLine
 10
453.8836841661
 20
463.462603381
 30
0.0
 11
457.6397835418
 21
463.462603381
 31
0.0
  0
LINE
  5
279
330
1F
100
AcDbEntity
  8
0
  6
Continuous
 62
     7
370
    15
100
AcDbLine
 10
429.6397835418
 20
463.462603381
 30
0.0
 11
433.3958829176
 21
463.462603381
 31
0.0
  0
LINE
  5
27A
330
1F
100
AcDbEntity
  8
0
  6
Continuous
 62
     7
370
    15
100
AcDbLine
 10
423.6397835418
 20
463.462603381
 30
0.0
 11
429.6397835418
 21
463.462603381
 31
0.0
  0
LINE
  5
27B
330
1F
100
AcDbEntity
  8
0
  6
Continuous
 62
     7
370
    15
100
AcDbLine
 10
453.0397835418
 20
462.8122831548
 30
0.0
 11
453.0397835418
 21
463.462603381
 31
0.0
  0
LINE
  5
27C
330
1F
100
AcDbEntity
  8
0
  6
Continuous
 62
     7
370
    15
100
AcDbLine
 10
452.4397835418
 20
462.612760888
 30
0.0
 11
453.0397835418
 21
462.8122831548
 31
0.0
  0
LINE
  5
27D
330
1F
100
AcDbEntity
  8
0
  6
Continuous
 62
     7
370
    15
100
AcDbLine
 10
434.2397835418
 20
462.8122831548
 30
0.0
 11
434.2397835418
 21
463.462603381
 31
0.0
  0
LINE
  5
27E
330
1F
100
AcDbEntity
  8
0
  6
Continuous
 62
     7
370
    15
100
AcDbLine
 10
434.2397835418
 20
462.8122831548
 30
0.0
 11
434.8397835418
 21
462.612760888
 31
0.0
  0
LINE
  5
27F
330
1F
100
AcDbEntity
  8
0
  6
Continuous
 62
     7
370
    15
100
AcDbLine
 10
246.0897835418
 20
516.562603381
 30
0.0
 11
641.1897835418
 21
516.562603381
 31
0.0
  0
LINE
  5
280
330
1F
100
AcDbEntity
  8
0
  6
Continuous
 62
     7
370
    15
100
AcDbLine
 10
642.4397835418
 20
516.562603381
 30
0.0
 11
641.1897835418
 21
516.562603381
 31
0.0
  0
LINE
  5
281
330
1F
100
AcDbEntity
  8
0
  6
Continuous
 62
     7
370
    15
100
AcDbLine
 10
642.4397835418
 20
516.562603381
 30
0.0
 11
642.4397835418
 21
471.8951036478
 31
0.0
  0
LINE
  5
282
330
1F
100
AcDbEntity
  8
0
  6
Continuous
 62
     7
370
    15
100
AcDbLine
 10
244.8397835418
 20
471.8951036478
 30
0.0
 11
244.8397835418
 21
516.562603381
 31
0.0
  0
LINE
  5
283
330
1F
100
AcDbEntity
  8
0
  6
Continuous
 62
     7
370
    15
100
AcDbLine
 10
244.8397835418
 20
516.562603381
 30
0.0
 11
246.0897835418
 21
516.562603381
 31
0.0
  0
LINE
  5
284
330
1F
100
AcDbEntity
  8
0
  6
Continuous
 62
     7
370
    15
100
AcDbLine
 10
643.6397835418
 20
515.2569208289
 30
0.0
 11
642.4397835418
 21
515.2569208289
 31
0.0
  0
LINE
  5
285
330
1F
100
AcDbEntity
  8
0
  6
Continuous
 62
     7
370
    15
100
AcDbLine
 10
643.6397835418
 20
515.2569208289
 30
0.0
 11
643.6397835418
 21
473.0872817445
 31
0.0
  0
LINE
  5
286
330
1F
100
AcDbEntity
  8
0
  6
Continuous
 62
     7
370
    15
100
AcDbLine
 10
243.6397835418
 20
473.0872817445
 30
0.0
 11
243.6397835418
 21
515.2569208289
 31
0.0
  0
LINE
  5
287
330
1F
100
AcDbEntity
  8
0
  6
Continuous
 62
     7
370
    15
100
AcDbLine
 10
243.6397835418
 20
515.2569208289
 30
0.0
 11
244.8397835418
 21
515.2569208289
 31
0.0
  0
LINE
  5
288
330
1F
100
AcDbEntity
  8
0
  6
Continuous
 62
     7
370
    15
100
AcDbLine
 10
597.6397835418
 20
461.7867538211
 30
0.0
 11
613.1397835418
 21
461.7867538211
 31
0.0
  0
LINE
  5
289
330
1F
100
AcDbEntity
  8
0
  6
Continuous
 62
     7
370
    15
100
AcDbLine
 10
628.1397835418
 20
461.7867538211
 30
0.0
 11
642.4397835418
 21
461.7867538211
 31
0.0
  0
LWPOLYLINE
  5
28A
330
1F
100
AcDbEntity
  8
0
  6
Continuous
 62
     7
370
    15
100
AcDbPolyline
 90
        9
 70
   128
 43
0.0
 10
595.6397835418
 20
462.584251959
 10
595.678212981
 20
462.4286677905
 10
595.7920244768
 20
462.2790626343
 10
595.9768443172
 20
462.1411857327
 10
596.2255699795
 20
462.0203356177
 10
596.5286430758
 20
461.9211564915
 10
596.8744166771
 20
461.8474597522
 10
597.2496028978
 20
461.8020775242
 10
597.6397835418
 20
461.7867538211
  0
LINE
  5
28B
330
1F
100
AcDbEntity
  8
0
  6
Continuous
 62
     7
370
    15
100
AcDbLine
 10
595.6397835418
 20
466.9704917172
 30
0.0
 11
595.6397835418
 21
462.584251959
 31
0.0
  0
LWPOLYLINE
  5
28C
330
1F
100
AcDbEntity
  8
0
  6
Continuous
 62
     7
370
    15
100
AcDbPolyline
 90
        9
 70
   128
 43
0.0
 10
593.6397835418
 20
467.767989855
 10
594.0299641859
 20
467.7526661519
 10
594.4051504066
 20
467.707283924
 10
594.7509240079
 20
467.6335871847
 10
595.0539971042
 20
467.5344080584
 10
595.3027227664
 20
467.4135579435
 10
595.4875426069
 20
467.2756810419
 10
595.6013541026
 20
467.1260758857
 10
595.6397835418
 20
466.9704917172
  0
LINE
  5
28D
330
1F
100
AcDbEntity
  8
0
  6
Continuous
 62
     7
370
    15
100
AcDbLine
 10
293.6397835418
 20
467.767989855
 30
0.0
 11
593.6397835418
 21
467.767989855
 31
0.0
  0
LWPOLYLINE
  5
28E
330
1F
100
AcDbEntity
  8
0
  6
Continuous
 62
     7
370
    15
100
AcDbPolyline
 90
        9
 70
   128
 43
0.0
 10
291.6397835418
 20
466.9704917172
 10
291.678212981
 20
467.1260758857
 10
291.7920244768
 20
467.2756810419
 10
291.9768443172
 20
467.4135579435
 10
292.2255699795
 20
467.5344080584
 10
292.5286430758
 20
467.6335871847
 10
292.8744166771
 20
467.707283924
 10
293.2496028978
 20
467.7526661519
 10
293.6397835418
 20
467.767989855
  0
LINE
  5
28F
330
1F
100
AcDbEntity
  8
0
  6
Continuous
 62
     7
370
    15
100
AcDbLine
 10
291.6397835418
 20
462.584251959
 30
0.0
 11
291.6397835418
 21
466.9704917172
 31
0.0
  0
LWPOLYLINE
  5
290
330
1F
100
AcDbEntity
  8
0
  6
Continuous
 62
     7
370
    15
100
AcDbPolyline
 90
        9
 70
   128
 43
0.0
 10
289.6397835418
 20
461.7867538211
 10
290.0299641859
 20
461.8020775242
 10
290.4051504066
 20
461.8474597522
 10
290.7509240079
 20
461.9211564915
 10
291.0539971042
 20
462.0203356177
 10
291.3027227664
 20
462.1411857327
 10
291.4875426069
 20
462.2790626343
 10
291.6013541026
 20
462.4286677905
 10
291.6397835418
 20
462.584251959
  0
LINE
  5
291
330
1F
100
AcDbEntity
  8
0
  6
Continuous
 62
     7
370
    15
100
AcDbLine
 10
244.8397835418
 20
461.7867538211
 30
0.0
 11
259.1397835418
 21
461.7867538211
 31
0.0
  0
LINE
  5
292
330
1F
100
AcDbEntity
  8
0
  6
Continuous
 62
     7
370
    15
100
AcDbLine
 10
274.1397835418
 20
461.7867538211
 30
0.0
 11
289.6397835418
 21
461.7867538211
 31
0.0
  0
LINE
  5
293
330
1F
100
AcDbEntity
  8
0
  6
Continuous
 62
     7
370
    15
100
AcDbLine
 10
642.4397835418
 20
461.7867538211
 30
0.0
 11
642.4397835418
 21
471.8951036478
 31
0.0
  0
LINE
  5
294
330
1F
100
AcDbEntity
  8
0
  6
Continuous
 62
     7
370
    15
100
AcDbLine
 10
244.8397835418
 20
471.8951036478
 30
0.0
 11
244.8397835418
 21
461.7867538211
 31
0.0
  0
LINE
  5
295
330
1F
100
AcDbEntity
  8
0
  6
Continuous
 62
     7
370
    15
100
AcDbLine
 10
243.6397835418
 20
461.562603381
 30
0.0
 11
243.6397835418
 21
473.0872817445
 31
0.0
  0
LINE
  5
296
330
1F
100
AcDbEntity
  8
0
  6
Continuous
 62
     7
370
    15
100
AcDbLine
 10
244.8397835418
 20
461.562603381
 30
0.0
 11
244.8397835418
 21
461.7867538211
 31
0.0
  0
LINE
  5
297
330
1F
100
AcDbEntity
  8
0
  6
Continuous
 62
     7
370
    15
100
AcDbLine
 10
642.4397835418
 20
461.7867538211
 30
0.0
 11
642.4397835418
 21
461.562603381
 31
0.0
  0
LINE
  5
298
330
1F
100
AcDbEntity
  8
0
  6
Continuous
 62
     7
370
    15
100
AcDbLine
 10
643.6397835418
 20
473.0872817445
 30
0.0
 11
643.6397835418
 21
461.562603381
 31
0.0
  0
ARC
  5
299
330
1F
100
AcDbEntity
  8
0
  6
Continuous
 62
     7
370
    15
100
AcDbCircle
 10
641.1897835418
 20
514.112603381
 30
0.0
 40
2.450000000000204
100
AcDbArc
 50
27.8441641928
 51
59.3225755274
  0
ARC
  5
29A
330
1F
100
AcDbEntity
  8
0
  6
Continuous
 62
     7
370
    15
100
AcDbCircle
 10
246.0897835418
 20
514.112603381
 30
0.0
 40
2.449999999999994
100
AcDbArc
 50
120.6774244726
 51
152.1558358072
  0
ARC
  5
29B
330
1F
100
AcDbEntity
  8
0
  6
Continuous
 62
     7
370
    15
100
AcDbCircle
 10
266.6428244647
 20
470.9771122271
 30
0.0
 40
6.907720158676358
100
AcDbArc
 50
252.08178349
 51
287.2199231386
  0
ARC
  5
29C
330
1F
100
AcDbEntity
  8
0
  6
Continuous
 62
     7
370
    15
100
AcDbCircle
 10
620.6367789917
 20
470.9711434676
 30
0.0
 40
6.902029948996208
100
AcDbArc
 50
252.7651201715
 51
287.9331731975
  0
LINE
  5
29D
330
1F
100
AcDbEntity
  8
0
  6
Continuous
 62
     7
370
    15
100
AcDbLine
 10
295.8397835418
 20
467.767989855
 30
0.0
 11
295.8397835418
 21
466.662603381
 31
0.0
  0
LINE
  5
29E
330
1F
100
AcDbEntity
  8
0
  6
Continuous
 62
     7
370
    15
100
AcDbLine
 10
294.6397835418
 20
467.767989855
 30
0.0
 11
294.6397835418
 21
466.662603381
 31
0.0
  0
LINE
  5
29F
330
1F
100
AcDbEntity
  8
0
  6
Continuous
 62
     7
370
    15
100
AcDbLine
 10
295.8397835418
 20
466.662603381
 30
0.0
 11
295.8397835418
 21
461.562603381
 31
0.0
  0
LINE
  5
2A0
330
1F
100
AcDbEntity
  8
0
  6
Continuous
 62
     7
370
    15
100
AcDbLine
 10
294.6397835418
 20
466.662603381
 30
0.0
 11
294.6397835418
 21
461.562603381
 31
0.0
  0
ARC
  5
2A1
330
1F
100
AcDbEntity
  8
0
  6
Continuous
 62
     7
370
    15
100
AcDbCircle
 10
536.1397835418
 20
449.162603381
 30
0.0
 40
20.00000000000014
100
AcDbArc
 50
38.3161344737
 51
68.4768365977
  0
LINE
  5
2A2
330
1F
100
AcDbEntity
  8
0
  6
Continuous
 62
     7
370
    15
100
AcDbLine
 10
314.1397835419
 20
467.767989855
 30
0.0
 11
314.1397835419
 21
461.562603381
 31
0.0
  0
LINE
  5
2A3
330
1F
100
AcDbEntity
  8
0
  6
Continuous
 62
     7
370
    15
100
AcDbLine
 10
479.8397835418
 20
467.212603381
 30
0.0
 11
479.7293103035
 21
467.767989855
 31
0.0
  0
LINE
  5
2A4
330
1F
100
AcDbEntity
  8
0
  6
Continuous
 62
     7
370
    15
100
AcDbLine
 10
478.6397835418
 20
467.212603381
 30
0.0
 11
479.8397835418
 21
467.212603381
 31
0.0
  0
SPLINE
  5
2A5
330
1F
100
AcDbEntity
  8
0
  6
Continuous
 62
     7
370
    15
100
AcDbSpline
210
0.0
220
0.0
230
1.0
 70
     8
 71
     3
 72
     9
 73
     5
 74
     0
 42
0.00000001
 43
0.00000001
 12
1.0
 22
0.0
 32
0.0
 13
1.0
 23
0.0
 33
0.0
 40
0.0
 40
0.0
 40
0.0
 40
0.0
 40
0.8403681097363834
 40
1.0
 40
1.0
 40
1.0
 40
1.0
 10
478.6397835418425
 20
467.2126033809685
 30
0.0
 10
478.6326916166175
 20
467.3822547936791
 30
0.0
 10
478.6242525467113
 20
467.5841322932474
 30
0.0
 10
478.5112073210276
 20
467.7426805043851
 30
0.0
 10
478.4931616979665
 20
467.7679898550269
 30
0.0
  0
LINE
  5
2A6
330
1F
100
AcDbEntity
  8
0
  6
Continuous
 62
     7
370
    15
100
AcDbLine
 10
407.5502567802
 20
467.767989855
 30
0.0
 11
407.4397835418
 21
467.212603381
 31
0.0
  0
LINE
  5
2A7
330
1F
100
AcDbEntity
  8
0
  6
Continuous
 62
     7
370
    15
100
AcDbLine
 10
408.6397835418
 20
467.212603381
 30
0.0
 11
407.4397835418
 21
467.212603381
 31
0.0
  0
SPLINE
  5
2A8
330
1F
100
AcDbEntity
  8
0
  6
Continuous
 62
     7
370
    15
100
AcDbSpline
210
0.0
220
0.0
230
1.0
 70
     8
 71
     3
 72
     9
 73
     5
 74
     0
 42
0.00000001
 43
0.00000001
 12
1.0
 22
0.0
 32
0.0
 13
1.0
 23
0.0
 33
0.0
 40
0.0
 40
0.0
 40
0.0
 40
0.0
 40
0.1596318902635507
 40
1.0
 40
1.0
 40
1.0
 40
1.0
 10
408.7864053857185
 20
467.7679898550269
 30
0.0
 10
408.7683597626573
 20
467.7426805043851
 30
0.0
 10
408.6553145369736
 20
467.5841322932475
 30
0.0
 10
408.6468754670674
 20
467.3822547936791
 30
0.0
 10
408.6397835418425
 20
467.2126033809685
 30
0.0
  0
LINE
  5
2A9
330
1F
100
AcDbEntity
  8
0
  6
Continuous
 62
     7
370
    15
100
AcDbLine
 10
407.4397835418
 20
461.562603381
 30
0.0
 11
407.4397835418
 21
467.212603381
 31
0.0
  0
LINE
  5
2AA
330
1F
100
AcDbEntity
  8
0
  6
Continuous
 62
     7
370
    15
100
AcDbLine
 10
408.6397835418
 20
461.562603381
 30
0.0
 11
408.6397835418
 21
467.212603381
 31
0.0
  0
LINE
  5
2AB
330
1F
100
AcDbEntity
  8
0
  6
Continuous
 62
     7
370
    15
100
AcDbLine
 10
478.6397835418
 20
467.212603381
 30
0.0
 11
478.6397835418
 21
461.562603381
 31
0.0
  0
LINE
  5
2AC
330
1F
100
AcDbEntity
  8
0
  6
Continuous
 62
     7
370
    15
100
AcDbLine
 10
479.8397835418
 20
467.212603381
 30
0.0
 11
479.8397835418
 21
461.562603381
 31
0.0
  0
LINE
  5
2AD
330
1F
100
AcDbEntity
  8
0
  6
Continuous
 62
     7
370
    15
100
AcDbLine
 10
258.6397835418
 20
461.7867538211
 30
0.0
 11
258.6397835418
 21
461.562603381
 31
0.0
  0
LINE
  5
2AE
330
1F
100
AcDbEntity
  8
0
  6
Continuous
 62
     7
370
    15
100
AcDbLine
 10
243.6397835418
 20
215.812603381
 30
0.0
 11
243.6870205841
 21
215.6530555731
 31
0.0
  0
LINE
  5
2AF
330
1F
100
AcDbEntity
  8
0
  6
Continuous
 62
     7
370
    15
100
AcDbLine
 10
243.6397835418
 20
215.812603381
 30
0.0
 11
243.6397835418
 21
215.8249288538
 31
0.0
  0
LINE
  5
2B0
330
1F
100
AcDbEntity
  8
0
  6
Continuous
 62
     7
370
    15
100
AcDbLine
 10
243.6397835418
 20
336.7249288538
 30
0.0
 11
243.6397835418
 21
339.2749288538
 31
0.0
  0
LINE
  5
2B1
330
1F
100
AcDbEntity
  8
0
  6
Continuous
 62
     7
370
    15
100
AcDbLine
 10
245.6897835418
 20
213.762603381
 30
0.0
 11
257.6397835418
 21
213.762603381
 31
0.0
  0
LINE
  5
2B2
330
1F
100
AcDbEntity
  8
0
  6
Continuous
 62
     7
370
    15
100
AcDbLine
 10
258.6397835418
 20
213.7749288538
 30
0.0
 11
258.6397835418
 21
213.762603381
 31
0.0
  0
LINE
  5
2B3
330
1F
100
AcDbEntity
  8
0
  6
Continuous
 62
     7
370
    15
100
AcDbLine
 10
258.6397835418
 20
213.762603381
 30
0.0
 11
257.6397835418
 21
213.762603381
 31
0.0
  0
LINE
  5
2B4
330
1F
100
AcDbEntity
  8
0
  6
Continuous
 62
     7
370
    15
100
AcDbLine
 10
628.6397835418
 20
461.562603381
 30
0.0
 11
628.6397835418
 21
461.7867538211
 31
0.0
  0
LINE
  5
2B5
330
1F
100
AcDbEntity
  8
0
  6
Continuous
 62
     7
370
    15
100
AcDbLine
 10
643.6397835418
 20
339.2749288538
 30
0.0
 11
643.6397835418
 21
336.7249288538
 31
0.0
  0
LINE
  5
2B6
330
1F
100
AcDbEntity
  8
0
  6
Continuous
 62
     7
370
    15
100
AcDbLine
 10
643.6397835418
 20
215.8249288538
 30
0.0
 11
643.6397835418
 21
215.812603381
 31
0.0
  0
LINE
  5
2B7
330
1F
100
AcDbEntity
  8
0
  6
Continuous
 62
     7
370
    15
100
AcDbLine
 10
641.5897835418
 20
213.762603381
 30
0.0
 11
629.6397835418
 21
213.762603381
 31
0.0
  0
LINE
  5
2B8
330
1F
100
AcDbEntity
  8
0
  6
Continuous
 62
     7
370
    15
100
AcDbLine
 10
628.6397835418
 20
213.762603381
 30
0.0
 11
628.6397835418
 21
213.7749288538
 31
0.0
  0
LINE
  5
2B9
330
1F
100
AcDbEntity
  8
0
  6
Continuous
 62
     7
370
    15
100
AcDbLine
 10
629.6397835418
 20
213.762603381
 30
0.0
 11
628.6397835418
 21
213.762603381
 31
0.0
  0
LINE
  5
2BA
330
1F
100
AcDbEntity
  8
0
  6
Continuous
 62
     7
370
    15
100
AcDbLine
 10
291.4897835418
 20
460.162603381
 30
0.0
 11
291.4897835418
 21
459.8685491569
 31
0.0
  0
LINE
  5
2BB
330
1F
100
AcDbEntity
  8
0
  6
Continuous
 62
     7
370
    15
100
AcDbLine
 10
591.5536094962
 20
516.562603381
 30
0.0
 11
591.5044874788
 21
517.1240706092
 31
0.0
  0
LINE
  5
2BC
330
1F
100
AcDbEntity
  8
0
  6
Continuous
 62
     7
370
    15
100
AcDbLine
 10
295.7750796049
 20
517.1240706092
 30
0.0
 11
295.7259575875
 21
516.562603381
 31
0.0
  0
ARC
  5
2BD
330
1F
100
AcDbEntity
  8
0
  6
Continuous
 62
     7
370
    15
100
AcDbCircle
 10
298.7636636992
 20
516.862603381
 30
0.0
 40
3.00000000000003
100
AcDbArc
 50
90.0
 51
175.0
  0
LINE
  5
2BE
330
1F
100
AcDbEntity
  8
0
  6
Continuous
 62
     7
370
    15
100
AcDbLine
 10
588.5159033845
 20
519.862603381
 30
0.0
 11
298.7636636992
 21
519.862603381
 31
0.0
  0
ARC
  5
2BF
330
1F
100
AcDbEntity
  8
0
  6
Continuous
 62
     7
370
    15
100
AcDbCircle
 10
588.5159033845
 20
516.862603381
 30
0.0
 40
3.0
100
AcDbArc
 50
5.0
 51
90.0
  0
LWPOLYLINE
  5
2C0
330
1F
100
AcDbEntity
  8
0
  6
Continuous
 62
     7
370
    15
100
AcDbPolyline
 90
        3
 70
   128
 43
0.0
 10
489.0176788047
 20
523.7371291433
 10
488.8354472744
 20
522.8707326197
 10
488.7237572245
 20
522.551704776
  0
LWPOLYLINE
  5
2C1
330
1F
100
AcDbEntity
  8
0
  6
Continuous
 62
     7
370
    15
100
AcDbPolyline
 90
        3
 70
   128
 43
0.0
 10
398.261888279
 20
523.7371291433
 10
398.4441198093
 20
522.8707326197
 10
398.5033773339
 20
522.6924641462
  0
LWPOLYLINE
  5
2C2
330
1F
100
AcDbEntity
  8
0
  6
Continuous
 62
     7
370
    15
100
AcDbPolyline
 90
        3
 70
   128
 43
0.0
 10
498.2594414854
 20
523.7586043756
 10
498.4421961336
 20
522.8898941743
 10
498.5479436964
 20
522.5861671432
  0
LWPOLYLINE
  5
2C3
330
1F
100
AcDbEntity
  8
0
  6
Continuous
 62
     7
370
    15
100
AcDbPolyline
 90
        3
 70
   128
 43
0.0
 10
389.0201255983
 20
523.7586043756
 10
388.8373709501
 20
522.8898941743
 10
388.7350153819
 20
522.5949673748
  0
LINE
  5
2C4
330
1F
100
AcDbEntity
  8
0
  6
Continuous
 62
     7
370
    15
100
AcDbLine
 10
440.9377080793
 20
540.5890098085
 30
0.0
 11
439.0117310557
 21
523.6849264205
 31
0.0
  0
ARC
  5
2C5
330
1F
100
AcDbEntity
  8
0
  6
Continuous
 62
     7
370
    15
100
AcDbCircle
 10
442.9248517906
 20
540.362603381
 30
0.0
 40
2.000000000000027
100
AcDbArc
 50
90.0
 51
173.5
  0
ARC
  5
2C6
330
1F
100
AcDbEntity
  8
0
  6
Continuous
 62
     7
370
    15
100
AcDbCircle
 10
444.354715293
 20
540.362603381
 30
0.0
 40
2.000000000000114
100
AcDbArc
 50
6.5
 51
90.0
  0
LINE
  5
2C7
330
1F
100
AcDbEntity
  8
0
  6
Continuous
 62
     7
370
    15
100
AcDbLine
 10
448.267836028
 20
523.6849264205
 30
0.0
 11
446.3418590044
 21
540.5890098085
 31
0.0
  0
LINE
  5
2C8
330
1F
100
AcDbEntity
  8
0
  6
Continuous
 62
     7
370
    15
100
AcDbLine
 10
444.354715293
 20
542.362603381
 30
0.0
 11
442.9248517906
 21
542.362603381
 31
0.0
  0
LINE
  5
2C9
330
1F
100
AcDbEntity
  8
0
  6
Continuous
 62
     7
370
    15
100
AcDbLine
 10
398.261888279
 20
523.7371291433
 30
0.0
 11
396.3418590044
 21
540.5890098085
 31
0.0
  0
LINE
  5
2CA
330
1F
100
AcDbEntity
  8
0
  6
Continuous
 62
     7
370
    15
100
AcDbLine
 10
390.9377080793
 20
540.5890098085
 30
0.0
 11
389.0201255983
 21
523.7586043756
 31
0.0
  0
LINE
  5
2CB
330
1F
100
AcDbEntity
  8
0
  6
Continuous
 62
     7
370
    15
100
AcDbLine
 10
490.9377080793
 20
540.5890098085
 30
0.0
 11
489.0176788047
 21
523.7371291433
 31
0.0
  0
LINE
  5
2CC
330
1F
100
AcDbEntity
  8
0
  6
Continuous
 62
     7
370
    15
100
AcDbLine
 10
498.2594414854
 20
523.7586043756
 30
0.0
 11
496.3418590044
 21
540.5890098085
 31
0.0
  0
LINE
  5
2CD
330
1F
100
AcDbEntity
  8
0
  6
Continuous
 62
     7
370
    15
100
AcDbLine
 10
547.209270874
 20
542.362603381
 30
0.0
 11
546.1982046952
 21
542.362603381
 31
0.0
  0
ELLIPSE
  5
2CE
330
1F
100
AcDbEntity
  8
0
  6
Continuous
 62
     7
370
    15
100
AcDbEllipse
 10
337.4116630485
 20
507.362603381
 30
0.0
 11
5.229180776432484
 21
34.80854219515611
 31
0.0
210
0.0
220
0.0
230
1.0
 40
0.6991287568
 41
0.1046443262353225
 42
1.225275667505728
  0
LINE
  5
2CF
330
1F
100
AcDbEntity
  8
0
  6
Continuous
 62
     7
370
    15
100
AcDbLine
 10
340.0702962097
 20
542.362603381
 30
0.0
 11
341.0813623884
 21
542.362603381
 31
0.0
  0
ELLIPSE
  5
2D0
330
1F
100
AcDbEntity
  8
0
  6
Continuous
 62
     7
370
    15
100
AcDbEllipse
 10
506.131782465
 20
482.4152014599
 30
0.0
 11
7.907130209246246
 21
49.69431533888189
 31
0.0
210
0.0
220
0.0
230
1.0
 40
0.6981570542
 41
5.669496001090299
 42
6.278622335594012
  0
ELLIPSE
  5
2D1
330
1F
100
AcDbEntity
  8
0
  6
Continuous
 62
     7
370
    15
100
AcDbEllipse
 10
381.1477846187
 20
482.4152014599
 30
0.0
 11
-7.907130209246303
 21
49.69431533888189
 31
0.0
210
0.0
220
0.0
230
1.0
 40
0.6981570542
 41
0.0045629715855933
 42
0.6136893060893021
  0
ARC
  5
2D2
330
1F
100
AcDbEntity
  8
0
  6
Continuous
 62
     7
370
    15
100
AcDbCircle
 10
494.3547152931
 20
540.362603381
 30
0.0
 40
2.0
100
AcDbArc
 50
6.5
 51
90.0
  0
LINE
  5
2D3
330
1F
100
AcDbEntity
  8
0
  6
Continuous
 62
     7
370
    15
100
AcDbLine
 10
494.3547152931
 20
542.362603381
 30
0.0
 11
492.9248517906
 21
542.362603381
 31
0.0
  0
ARC
  5
2D4
330
1F
100
AcDbEntity
  8
0
  6
Continuous
 62
     7
370
    15
100
AcDbCircle
 10
492.9248517906
 20
540.362603381
 30
0.0
 40
2.0
100
AcDbArc
 50
90.0
 51
173.5
  0
ARC
  5
2D5
330
1F
100
AcDbEntity
  8
0
  6
Continuous
 62
     7
370
    15
100
AcDbCircle
 10
392.9248517906
 20
540.362603381
 30
0.0
 40
2.0
100
AcDbArc
 50
90.0
 51
173.5
  0
LINE
  5
2D6
330
1F
100
AcDbEntity
  8
0
  6
Continuous
 62
     7
370
    15
100
AcDbLine
 10
394.3547152931
 20
542.362603381
 30
0.0
 11
392.9248517906
 21
542.362603381
 31
0.0
  0
ARC
  5
2D7
330
1F
100
AcDbEntity
  8
0
  6
Continuous
 62
     7
370
    15
100
AcDbCircle
 10
394.3547152931
 20
540.362603381
 30
0.0
 40
2.0
100
AcDbArc
 50
6.5
 51
90.0
  0
LINE
  5
2D8
330
1F
100
AcDbEntity
  8
0
  6
Continuous
 62
     7
370
    15
100
AcDbLine
 10
371.5201122661
 20
542.362603381
 30
0.0
 11
341.0813623884
 21
542.362603381
 31
0.0
  0
LINE
  5
2D9
330
1F
100
AcDbEntity
  8
0
  6
Continuous
 62
     7
370
    15
100
AcDbLine
 10
546.1982046952
 20
542.362603381
 30
0.0
 11
515.7594548176
 21
542.362603381
 31
0.0
  0
SPLINE
  5
2DA
330
1F
100
AcDbEntity
  8
0
  6
Continuous
 62
     7
370
    15
100
AcDbSpline
210
0.0
220
0.0
230
1.0
 70
     8
 71
     3
 72
    10
 73
     6
 74
     0
 42
0.00000001
 43
0.00000001
 12
1.0
 22
0.0
 32
0.0
 13
1.0
 23
0.0
 33
0.0
 40
0.0
 40
0.0
 40
0.0
 40
0.0
 40
0.2352007848546638
 40
0.668801313066427
 40
1.0
 40
1.0
 40
1.0
 40
1.0
 10
513.2576510225517
 20
532.301627187751
 30
0.0
 10
513.2487913682598
 20
532.2922852953545
 30
0.0
 10
513.2235986444033
 20
532.2657213112884
 30
0.0
 10
513.5687781034757
 20
532.1921336187477
 30
0.0
 10
514.0072555232945
 20
532.1165442499276
 30
0.0
 10
514.1971395383642
 20
532.0838100378579
 30
0.0
  0
SPLINE
  5
2DB
330
1F
100
AcDbEntity
  8
0
  6
Continuous
 62
     7
370
    15
100
AcDbSpline
210
0.0
220
0.0
230
1.0
 70
     8
 71
     3
 72
    10
 73
     6
 74
     0
 42
0.00000001
 43
0.00000001
 12
1.0
 22
0.0
 32
0.0
 13
1.0
 23
0.0
 33
0.0
 40
0.0
 40
0.0
 40
0.0
 40
0.0
 40
0.3718135493569925
 40
0.8045041464077901
 40
1.0
 40
1.0
 40
1.0
 40
1.0
 10
373.082427545325
 20
532.0838100378579
 30
0.0
 10
373.2929012329737
 20
532.1202945126033
 30
0.0
 10
373.7483094737867
 20
532.1992370666413
 30
0.0
 10
374.0716702061164
 20
532.2703889904192
 30
0.0
 10
374.033941922701
 20
532.2942429936069
 30
0.0
 10
374.0222006268432
 20
532.3016665200295
 30
0.0
  0
ARC
  5
2DC
330
1F
100
AcDbEntity
  8
0
  6
Continuous
 62
     7
370
    15
100
AcDbCircle
 10
585.3891489873
 20
524.862603381
 30
0.0
 40
5.0
100
AcDbArc
 50
203.9624889746
 51
270.0
  0
ARC
  5
2DD
330
1F
100
AcDbEntity
  8
0
  6
Continuous
 62
     7
370
    15
100
AcDbCircle
 10
301.8904180964
 20
524.862603381
 30
0.0
 40
5.0
100
AcDbArc
 50
270.0
 51
336.0375110254
  0
LINE
  5
2DE
330
1F
100
AcDbEntity
  8
0
  6
Continuous
 62
     7
370
    15
100
AcDbLine
 10
314.6119066228
 20
541.1748803131
 30
0.0
 11
306.4594758395
 21
522.8319110507
 31
0.0
  0
LINE
  5
2DF
330
1F
100
AcDbEntity
  8
0
  6
Continuous
 62
     7
370
    15
100
AcDbLine
 10
580.8200912442
 20
522.8319110507
 30
0.0
 11
572.6676604609
 21
541.1748803131
 31
0.0
  0
ARC
  5
2E0
330
1F
100
AcDbEntity
  8
0
  6
Continuous
 62
     7
370
    15
100
AcDbCircle
 10
570.8400373637
 20
540.362603381
 30
0.0
 40
2.0
100
AcDbArc
 50
23.9624889746
 51
90.0
  0
ARC
  5
2E1
330
1F
100
AcDbEntity
  8
0
  6
Continuous
 62
     7
370
    15
100
AcDbCircle
 10
316.43952972
 20
540.362603381
 30
0.0
 40
2.000000000000005
100
AcDbArc
 50
90.0
 51
156.0375110254
  0
LINE
  5
2E2
330
1F
100
AcDbEntity
  8
0
  6
Continuous
 62
     7
370
    15
100
AcDbLine
 10
322.3732715783
 20
542.362603381
 30
0.0
 11
316.43952972
 21
542.362603381
 31
0.0
  0
LINE
  5
2E3
330
1F
100
AcDbEntity
  8
0
  6
Continuous
 62
     7
370
    15
100
AcDbLine
 10
570.8400373637
 20
542.362603381
 30
0.0
 11
564.9062900565
 21
542.362603381
 31
0.0
  0
ARC
  5
2E4
330
1F
100
AcDbEntity
  8
0
  6
Continuous
 62
     7
370
    15
100
AcDbCircle
 10
483.8069557455
 20
397.3627068867
 30
0.0
 40
135.0000000000001
100
AcDbArc
 50
87.3796783359
 51
88.5976479697
  0
ARC
  5
2E5
330
1F
100
AcDbEntity
  8
0
  6
Continuous
 62
     7
370
    15
100
AcDbCircle
 10
483.8069557455
 20
397.3627068867
 30
0.0
 40
135.0000000000002
100
AcDbArc
 50
70.7704323369
 51
84.2285068047
  0
ARC
  5
2E6
330
1F
100
AcDbEntity
  8
0
  6
Continuous
 62
     7
370
    15
100
AcDbCircle
 10
403.4726113382
 20
397.3627068867
 30
0.0
 40
135.0
100
AcDbArc
 50
95.7740757546
 51
109.2295676631
  0
ARC
  5
2E7
330
1F
100
AcDbEntity
  8
0
  6
Continuous
 62
     7
370
    15
100
AcDbCircle
 10
403.4726113382
 20
397.3627068867
 30
0.0
 40
135.0
100
AcDbArc
 50
91.4023520303
 51
92.6215789552
  0
ARC
  5
2E8
330
1F
100
AcDbEntity
  8
0
  6
Continuous
 62
     7
370
    15
100
AcDbCircle
 10
549.3942254237
 20
507.362603381
 30
0.0
 40
35.00000000000006
100
AcDbArc
 50
67.3362685746
 51
90.0
  0
ARC
  5
2E9
330
1F
100
AcDbEntity
  8
0
  6
Continuous
 62
     7
370
    15
100
AcDbCircle
 10
337.8853416599
 20
507.362603381
 30
0.0
 40
35.00000000000006
100
AcDbArc
 50
90.0
 51
112.5825597491
  0
SPLINE
  5
2EA
330
1F
100
AcDbEntity
  8
0
  6
Continuous
 62
     7
370
    15
100
AcDbSpline
210
0.0
220
0.0
230
1.0
 70
    24
 71
     3
 72
    11
 73
     7
 74
     0
 42
0.00000001
 43
0.00000001
 12
1.0
 22
0.0
 32
0.0
 13
1.0
 23
0.0
 33
0.0
 40
0.0
 40
0.0
 40
0.0
 40
0.0
 40
0.2779885514217455
 40
0.5616472137281858
 40
0.7829861327419678
 40
1.0
 40
1.0
 40
1.0
 40
1.0
 10
403.6397835418447
 20
532.3626033809655
 30
0.0
 10
403.5731230193878
 20
533.124536639177
 30
0.0
 10
403.4384423049768
 20
534.6639442490684
 30
0.0
 10
403.2534679074413
 20
536.7782112875711
 30
0.0
 10
403.0816310038915
 20
538.7423160826899
 30
0.0
 10
402.9766142516783
 20
539.9426630531513
 30
0.0
 10
402.924623954734
 20
540.5369148664608
 30
0.0
  0
SPLINE
  5
2EB
330
1F
100
AcDbEntity
  8
0
  6
Continuous
 62
     7
370
    15
100
AcDbSpline
210
0.0
220
0.0
230
1.0
 70
     8
 71
     3
 72
    12
 73
     8
 74
     0
 42
0.00000001
 43
0.00000001
 12
1.0
 22
0.0
 32
0.0
 13
1.0
 23
0.0
 33
0.0
 40
0.0
 40
0.0
 40
0.0
 40
0.0
 40
0.1950860331857489
 40
0.4101170279995497
 40
0.6249000670029793
 40
0.8396557083574502
 40
1.0
 40
1.0
 40
1.0
 40
1.0
 10
400.1687271037471
 20
532.3222724942317
 30
0.0
 10
400.5233603774198
 20
532.3301182215343
 30
0.0
 10
401.2688834774252
 20
532.3466117977852
 30
0.0
 10
402.2958381473885
 20
532.3585642272566
 30
0.0
 10
403.1071952075241
 20
532.362777663769
 30
0.0
 10
403.5677962702503
 20
532.362711473828
 30
0.0
 10
403.6182262114264
 20
532.3626357504872
 30
0.0
 10
403.6397835418446
 20
532.3626033809655
 30
0.0
  0
SPLINE
  5
2EC
330
1F
100
AcDbEntity
  8
0
  6
Continuous
 62
     7
370
    15
100
AcDbSpline
210
0.0
220
0.0
230
1.0
 70
    24
 71
     3
 72
    11
 73
     7
 74
     0
 42
0.00000001
 43
0.00000001
 12
1.0
 22
0.0
 32
0.0
 13
1.0
 23
0.0
 33
0.0
 40
0.0
 40
0.0
 40
0.0
 40
0.0
 40
0.2768032429862496
 40
0.5599832085138478
 40
0.7820988278563618
 40
1.0
 40
1.0
 40
1.0
 40
1.0
 10
484.3549431289551
 20
540.5369148664608
 30
0.0
 10
484.2885528546533
 20
539.7780705587953
 30
0.0
 10
484.1542428718055
 20
538.242900430062
 30
0.0
 10
483.9690662181873
 20
536.1263215939559
 30
0.0
 10
483.7974946799222
 20
534.1652499379206
 30
0.0
 10
483.692017169359
 20
532.9596364754173
 30
0.0
 10
483.6397835418446
 20
532.3626033809655
 30
0.0
  0
SPLINE
  5
2ED
330
1F
100
AcDbEntity
  8
0
  6
Continuous
 62
     7
370
    15
100
AcDbSpline
210
0.0
220
0.0
230
1.0
 70
     8
 71
     3
 72
    12
 73
     8
 74
     0
 42
0.00000001
 43
0.00000001
 12
1.0
 22
0.0
 32
0.0
 13
1.0
 23
0.0
 33
0.0
 40
0.0
 40
0.0
 40
0.0
 40
0.0
 40
0.1858695569714631
 40
0.401276675082262
 40
0.6164583705402333
 40
0.8311925556720187
 40
1.0
 40
1.0
 40
1.0
 40
1.0
 10
483.6397835418446
 20
532.3626033809655
 30
0.0
 10
483.6686033450962
 20
532.3626521672549
 30
0.0
 10
483.730822866215
 20
532.3627574927328
 30
0.0
 10
484.2558446301783
 20
532.3626010520618
 30
0.0
 10
485.1030884559872
 20
532.3575534471044
 30
0.0
 10
486.1078772994513
 20
532.3447841517022
 30
0.0
 10
486.804317212213
 20
532.3291524466849
 30
0.0
 10
487.1108399799421
 20
532.3222724942317
 30
0.0
  0
ARC
  5
2EE
330
1F
100
AcDbEntity
  8
0
  6
Continuous
 62
     7
370
    15
100
AcDbCircle
 10
400.9322345586
 20
540.362603381
 30
0.0
 40
2.0
100
AcDbArc
 50
5.0
 51
90.0
  0
LINE
  5
2EF
330
1F
100
AcDbEntity
  8
0
  6
Continuous
 62
     7
370
    15
100
AcDbLine
 10
549.3942254237
 20
542.362603381
 30
0.0
 11
547.209270874
 21
542.362603381
 31
0.0
  0
LINE
  5
2F0
330
1F
100
AcDbEntity
  8
0
  6
Continuous
 62
     7
370
    15
100
AcDbLine
 10
515.7594548176
 20
542.362603381
 30
0.0
 11
494.3593670952
 21
542.362603381
 31
0.0
  0
LINE
  5
2F1
330
1F
100
AcDbEntity
  8
0
  6
Continuous
 62
     7
370
    15
100
AcDbLine
 10
492.9201999885
 20
542.362603381
 30
0.0
 11
486.3473325251
 21
542.362603381
 31
0.0
  0
LINE
  5
2F2
330
1F
100
AcDbEntity
  8
0
  6
Continuous
 62
     7
370
    15
100
AcDbLine
 10
400.9322345586
 20
542.362603381
 30
0.0
 11
394.3551995771
 21
542.362603381
 31
0.0
  0
LINE
  5
2F3
330
1F
100
AcDbEntity
  8
0
  6
Continuous
 62
     7
370
    15
100
AcDbLine
 10
392.9243675066
 20
542.362603381
 30
0.0
 11
371.5201122661
 21
542.362603381
 31
0.0
  0
LINE
  5
2F4
330
1F
100
AcDbEntity
  8
0
  6
Continuous
 62
     7
370
    15
100
AcDbLine
 10
340.0702962097
 20
542.362603381
 30
0.0
 11
337.8853416599
 21
542.362603381
 31
0.0
  0
ARC
  5
2F5
330
1F
100
AcDbEntity
  8
0
  6
Continuous
 62
     7
370
    15
100
AcDbCircle
 10
486.3473325251
 20
540.362603381
 30
0.0
 40
2.0
100
AcDbArc
 50
90.0
 51
175.0
  0
ELLIPSE
  5
2F6
330
1F
100
AcDbEntity
  8
0
  6
Continuous
 62
     7
370
    15
100
AcDbEllipse
 10
381.1350662402
 20
482.3821003499
 30
0.0
 11
-7.907130209246303
 21
49.69431533888189
 31
0.0
210
0.0
220
0.0
230
1.0
 40
0.6981570542
 41
0.4456666195314139
 42
0.6126896565256035
  0
ELLIPSE
  5
2F7
330
1F
100
AcDbEntity
  8
0
  6
Continuous
 62
     7
370
    15
100
AcDbEllipse
 10
506.1445008435
 20
482.3821003499
 30
0.0
 11
7.907130209246303
 21
49.69431533888189
 31
0.0
210
0.0
220
0.0
230
1.0
 40
0.6981570542
 41
5.670495650653999
 42
5.837518687648194
  0
LINE
  5
2F8
330
1F
100
AcDbEntity
  8
0
  6
Continuous
 62
     7
370
    15
100
AcDbLine
 10
439.0117310557
 20
523.6849264205
 30
0.0
 11
438.9941118948
 21
523.5481702909
 31
0.0
  0
LINE
  5
2F9
330
1F
100
AcDbEntity
  8
0
  6
Continuous
 62
     7
370
    15
100
AcDbLine
 10
603.6397835418
 20
70.062603381
 30
0.0
 11
546.6397835418
 21
70.062603381
 31
0.0
  0
LINE
  5
2FA
330
1F
100
AcDbEntity
  8
0
  6
Continuous
 62
     7
370
    15
100
AcDbLine
 10
601.6397835418
 20
64.062603381
 30
0.0
 11
548.6397835418
 21
64.062603381
 31
0.0
  0
LINE
  5
2FB
330
1F
100
AcDbEntity
  8
0
  6
Continuous
 62
     7
370
    15
100
AcDbLine
 10
340.6397835418
 20
70.062603381
 30
0.0
 11
283.6397835418
 21
70.062603381
 31
0.0
  0
LINE
  5
2FC
330
1F
100
AcDbEntity
  8
0
  6
Continuous
 62
     7
370
    15
100
AcDbLine
 10
338.6397835418
 20
64.062603381
 30
0.0
 11
285.6397835418
 21
64.062603381
 31
0.0
  0
LINE
  5
2FD
330
1F
100
AcDbEntity
  8
0
  6
Continuous
 62
     7
370
    15
100
AcDbLine
 10
347.1397835418
 20
212.062603381
 30
0.0
 11
347.1397835418
 21
213.7749288538
 31
0.0
  0
LINE
  5
2FE
330
1F
100
AcDbEntity
  8
0
  6
Continuous
 62
     7
370
    15
100
AcDbLine
 10
277.1397835418
 20
212.062603381
 30
0.0
 11
347.1397835418
 21
212.062603381
 31
0.0
  0
LINE
  5
2FF
330
1F
100
AcDbEntity
  8
0
  6
Continuous
 62
     7
370
    15
100
AcDbLine
 10
277.1397835418
 20
212.062603381
 30
0.0
 11
277.1397835418
 21
213.7749288538
 31
0.0
  0
LINE
  5
300
330
1F
100
AcDbEntity
  8
0
  6
Continuous
 62
     7
370
    15
100
AcDbLine
 10
343.0994337622
 20
118.062603381
 30
0.0
 11
281.1801333215
 21
118.062603381
 31
0.0
  0
LINE
  5
301
330
1F
100
AcDbEntity
  8
0
  6
Continuous
 62
     7
370
    15
100
AcDbLine
 10
610.1397835418
 20
212.062603381
 30
0.0
 11
610.1397835418
 21
213.7749288538
 31
0.0
  0
LINE
  5
302
330
1F
100
AcDbEntity
  8
0
  6
Continuous
 62
     7
370
    15
100
AcDbLine
 10
540.1397835418
 20
212.062603381
 30
0.0
 11
540.1397835418
 21
213.7749288538
 31
0.0
  0
LINE
  5
303
330
1F
100
AcDbEntity
  8
0
  6
Continuous
 62
     7
370
    15
100
AcDbLine
 10
540.1397835418
 20
212.062603381
 30
0.0
 11
610.1397835418
 21
212.062603381
 31
0.0
  0
LINE
  5
304
330
1F
100
AcDbEntity
  8
0
  6
Continuous
 62
     7
370
    15
100
AcDbLine
 10
606.0994337622
 20
118.062603381
 30
0.0
 11
544.1801333215
 21
118.062603381
 31
0.0
  0
ENDSEC
  0
SECTION
  2
OBJECTS
  0
DICTIONARY
  5
C
330
0
100
AcDbDictionary
281
     1
  3
ACAD_GROUP
350
D
  3
ACAD_LAYOUT
350
1A
  3
ACAD_MLINESTYLE
350
17
  3
ACAD_PLOTSETTINGS
350
19
  3
ACAD_PLOTSTYLENAME
350
E
  0
DICTIONARY
  5
D
102
{ACAD_REACTORS
330
C
102
}
330
C
100
AcDbDictionary
281
     1
  0
DICTIONARY
  5
1A
102
{ACAD_REACTORS
330
C
102
}
330
C
100
AcDbDictionary
281
     1
  3
Layout1
350
1E
  3
Layout2
350
26
  3
Model
350
22
  0
DICTIONARY
  5
17
102
{ACAD_REACTORS
330
C
102
}
330
C
100
AcDbDictionary
281
     1
  3
Standard
350
18
  0
DICTIONARY
  5
19
102
{ACAD_REACTORS
330
C
102
}
330
C
100
AcDbDictionary
281
     1
  0
ACDBDICTIONARYWDFLT
  5
E
102
{ACAD_REACTORS
330
C
102
}
330
C
100
AcDbDictionary
281
     1
  3
Normal
350
F
100
AcDbDictionaryWithDefault
340
F
  0
LAYOUT
  5
1E
102
{ACAD_REACTORS
330
1A
102
}
330
1A
100
AcDbPlotSettings
  1

  2
none_device
  4

  6

 40
0.0
 41
0.0
 42
0.0
 43
0.0
 44
0.0
 45
0.0
 46
0.0
 47
0.0
 48
0.0
 49
0.0
140
0.0
141
0.0
142
1.0
143
1.0
 70
   688
 72
     0
 73
     0
 74
     5
  7

 75
    16
147
1.0
148
0.0
149
0.0
100
AcDbLayout
  1
Layout1
 70
     1
 71
     1
 10
0.0
 20
0.0
 11
420.0
 21
297.0
 12
0.0
 22
0.0
 32
0.0
 14
1.0000000000E+20
 24
1.0000000000E+20
 34
1.0000000000E+20
 15
-1.0000000000E+20
 25
-1.0000000000E+20
 35
-1.0000000000E+20
146
0.0
 13
0.0
 23
0.0
 33
0.0
 16
1.0
 26
0.0
 36
0.0
 17
0.0
 27
1.0
 37
0.0
 76
     0
330
1B
  0
LAYOUT
  5
26
102
{ACAD_REACTORS
330
1A
102
}
330
1A
100
AcDbPlotSettings
  1

  2
none_device
  4

  6

 40
0.0
 41
0.0
 42
0.0
 43
0.0
 44
0.0
 45
0.0
 46
0.0
 47
0.0
 48
0.0
 49
0.0
140
0.0
141
0.0
142
1.0
143
1.0
 70
   688
 72
     0
 73
     0
 74
     5
  7

 75
    16
147
1.0
148
0.0
149
0.0
100
AcDbLayout
  1
Layout2
 70
     1
 71
     2
 10
0.0
 20
0.0
 11
0.0
 21
0.0
 12
0.0
 22
0.0
 32
0.0
 14
0.0
 24
0.0
 34
0.0
 15
0.0
 25
0.0
 35
0.0
146
0.0
 13
0.0
 23
0.0
 33
0.0
 16
1.0
 26
0.0
 36
0.0
 17
0.0
 27
1.0
 37
0.0
 76
     0
330
23
  0
LAYOUT
  5
22
102
{ACAD_REACTORS
330
1A
102
}
330
1A
100
AcDbPlotSettings
  1

  2
none_device
  4

  6

 40
0.0
 41
0.0
 42
0.0
 43
0.0
 44
0.0
 45
0.0
 46
0.0
 47
0.0
 48
0.0
 49
0.0
140
0.0
141
0.0
142
1.0
143
1.0
 70
  1712
 72
     0
 73
     0
 74
     0
  7

 75
     0
147
1.0
148
0.0
149
0.0
100
AcDbLayout
  1
Model
 70
     1
 71
     0
 10
0.0
 20
0.0
 11
841.0
 21
594.0
 12
0.0
 22
0.0
 32
0.0
 14
0.0
 24
0.0
 34
0.0
 15
841.0
 25
594.0
 35
0.0
146
0.0
 13
0.0
 23
0.0
 33
0.0
 16
1.0
 26
0.0
 36
0.0
 17
0.0
 27
1.0
 37
0.0
 76
     0
330
1F
331
29
  0
MLINESTYLE
  5
18
102
{ACAD_REACTORS
330
17
102
}
330
17
100
AcDbMlineStyle
  2
Standard
 70
     0
  3

 62
   256
 51
90.0
 52
90.0
 71
     2
 49
0.5
 62
   256
  6
BYLAYER
 49
-0.5
 62
   256
  6
BYLAYER
  0
ACDBPLACEHOLDER
  5
F
102
{ACAD_REACTORS
330
E
102
}
330
E
  0
ENDSEC
  0
EOF
