  0
SECTION
  2
HEADER
  9
$ACADVER
  1
AC1015
  9
$ACADMAINTVER
 70
     6
  9
$DWGCODEPAGE
  3
ANSI_1252
  9
$INSBASE
 10
0.0
 20
0.0
 30
0.0
  9
$EXTMIN
 10
0.0
 20
0.0
 30
0.0
  9
$EXTMAX
 10
841.0
 20
594.0
 30
0.0
  9
$LIMMIN
 10
0.0
 20
0.0
  9
$LIMMAX
 10
841.0
 20
594.0
  9
$ORTHOMODE
 70
     0
  9
$REGENMODE
 70
     1
  9
$FILLMODE
 70
     1
  9
$QTEXTMODE
 70
     0
  9
$MIRRTEXT
 70
     1
  9
$LTSCALE
 40
1.0
  9
$ATTMODE
 70
     1
  9
$TEXTSIZE
 40
3.5
  9
$TRACEWID
 40
1.0
  9
$TEXTSTYLE
  7
Standard
  9
$CLAYER
  8
0
  9
$CELTYPE
  6
ByLayer
  9
$CECOLOR
 62
   256
  9
$CELTSCALE
 40
1.0
  9
$DISPSILH
 70
     0
  9
$DIMSCALE
 40
1.0
  9
$DIMASZ
 40
3.302
  9
$DIMEXO
 40
1.0
  9
$DIMDLI
 40
3.75
  9
$DIMRND
 40
0.0
  9
$DIMDLE
 40
0.0
  9
$DIMEXE
 40
1.0
  9
$DIMTP
 40
0.0
  9
$DIMTM
 40
0.0
  9
$DIMTXT
 40
3.5
  9
$DIMCEN
 40
2.5
  9
$DIMTSZ
 40
0.0
  9
$DIMTOL
 70
     0
  9
$DIMLIM
 70
     0
  9
$DIMTIH
 70
     1
  9
$DIMTOH
 70
     1
  9
$DIMSE1
 70
     0
  9
$DIMSE2
 70
     0
  9
$DIMTAD
 70
     1
  9
$DIMZIN
 70
     0
  9
$DIMBLK
  1

  9
$DIMASO
 70
     1
  9
$DIMSHO
 70
     1
  9
$DIMPOST
  1

  9
$DIMAPOST
  1

  9
$DIMALT
 70
     0
  9
$DIMALTD
 70
     3
  9
$DIMALTF
 40
0.0393700787
  9
$DIMLFAC
 40
1.0
  9
$DIMTOFL
 70
     1
  9
$DIMTVP
 40
0.0
  9
$DIMTIX
 70
     0
  9
$DIMSOXD
 70
     0
  9
$DIMSAH
 70
     0
  9
$DIMBLK1
  1

  9
$DIMBLK2
  1

  9
$DIMSTYLE
  2
ISO-25
  9
$DIMCLRD
 70
     0
  9
$DIMCLRE
 70
     0
  9
$DIMCLRT
 70
     0
  9
$DIMTFAC
 40
1.0
  9
$DIMGAP
 40
1.524
  9
$DIMJUST
 70
     0
  9
$DIMSD1
 70
     0
  9
$DIMSD2
 70
     0
  9
$DIMTOLJ
 70
     0
  9
$DIMTZIN
 70
     0
  9
$DIMALTZ
 70
     0
  9
$DIMALTTZ
 70
     0
  9
$DIMUPT
 70
     0
  9
$DIMDEC
 70
     1
  9
$DIMTDEC
 70
     1
  9
$DIMALTU
 70
     2
  9
$DIMALTTD
 70
     3
  9
$DIMTXSTY
  7
Standard
  9
$DIMAUNIT
 70
     0
  9
$DIMADEC
 70
     1
  9
$DIMALTRND
 40
0.0
  9
$DIMAZIN
 70
     0
  9
$DIMDSEP
 70
    44
  9
$DIMATFIT
 70
     3
  9
$DIMFRAC
 70
     0
  9
$DIMLDRBLK
  1

  9
$DIMLUNIT
 70
     2
  9
$DIMLWD
 70
    -2
  9
$DIMLWE
 70
    -2
  9
$DIMTMOVE
 70
     0
  9
$LUNITS
 70
     2
  9
$LUPREC
 70
     1
  9
$SKETCHINC
 40
1.0
  9
$FILLETRAD
 40
10.0
  9
$AUNITS
 70
     0
  9
$AUPREC
 70
     1
  9
$MENU
  1
.
  9
$ELEVATION
 40
0.0
  9
$PELEVATION
 40
0.0
  9
$THICKNESS
 40
0.0
  9
$LIMCHECK
 70
     0
  9
$CHAMFERA
 40
10.0
  9
$CHAMFERB
 40
10.0
  9
$CHAMFERC
 40
20.0
  9
$CHAMFERD
 40
0.0
  9
$SKPOLY
 70
     0
  9
$TDCREATE
 40
2456373.49089287
  9
$TDUCREATE
 40
2456373.49089287
  9
$TDUPDATE
 40
2456373.490893958
  9
$TDUUPDATE
 40
2456373.490893958
  9
$TDINDWG
 40
0.0000000116
  9
$TDUSRTIMER
 40
0.0000000116
  9
$USRTIMER
 70
     1
  9
$ANGBASE
 50
0.0
  9
$ANGDIR
 70
     0
  9
$PDMODE
 70
     0
  9
$PDSIZE
 40
-1.0
  9
$PLINEWID
 40
0.0
  9
$SPLFRAME
 70
     0
  9
$SPLINETYPE
 70
     6
  9
$SPLINESEGS
 70
     8
  9
$HANDSEED
  5
2F9
  9
$SURFTAB1
 70
     6
  9
$SURFTAB2
 70
     6
  9
$SURFTYPE
 70
     6
  9
$SURFU
 70
     6
  9
$SURFV
 70
     6
  9
$UCSBASE
  2

  9
$UCSNAME
  2

  9
$UCSORG
 10
0.0
 20
0.0
 30
0.0
  9
$UCSXDIR
 10
1.0
 20
0.0
 30
0.0
  9
$UCSYDIR
 10
0.0
 20
1.0
 30
0.0
  9
$UCSORTHOREF
  2

  9
$UCSORTHOVIEW
 70
     0
  9
$UCSORGTOP
 10
0.0
 20
0.0
 30
0.0
  9
$UCSORGBOTTOM
 10
0.0
 20
0.0
 30
0.0
  9
$UCSORGLEFT
 10
0.0
 20
0.0
 30
0.0
  9
$UCSORGRIGHT
 10
0.0
 20
0.0
 30
0.0
  9
$UCSORGFRONT
 10
0.0
 20
0.0
 30
0.0
  9
$UCSORGBACK
 10
0.0
 20
0.0
 30
0.0
  9
$PUCSBASE
  2

  9
$PUCSNAME
  2

  9
$PUCSORG
 10
0.0
 20
0.0
 30
0.0
  9
$PUCSXDIR
 10
1.0
 20
0.0
 30
0.0
  9
$PUCSYDIR
 10
0.0
 20
1.0
 30
0.0
  9
$PUCSORTHOREF
  2

  9
$PUCSORTHOVIEW
 70
     0
  9
$PUCSORGTOP
 10
0.0
 20
0.0
 30
0.0
  9
$PUCSORGBOTTOM
 10
0.0
 20
0.0
 30
0.0
  9
$PUCSORGLEFT
 10
0.0
 20
0.0
 30
0.0
  9
$PUCSORGRIGHT
 10
0.0
 20
0.0
 30
0.0
  9
$PUCSORGFRONT
 10
0.0
 20
0.0
 30
0.0
  9
$PUCSORGBACK
 10
0.0
 20
0.0
 30
0.0
  9
$USERI1
 70
     0
  9
$USERI2
 70
     0
  9
$USERI3
 70
     0
  9
$USERI4
 70
     0
  9
$USERI5
 70
     0
  9
$USERR1
 40
0.0
  9
$USERR2
 40
0.0
  9
$USERR3
 40
0.0
  9
$USERR4
 40
0.0
  9
$USERR5
 40
0.0
  9
$WORLDVIEW
 70
     1
  9
$SHADEDGE
 70
     3
  9
$SHADEDIF
 70
    70
  9
$TILEMODE
 70
     1
  9
$MAXACTVP
 70
    64
  9
$PINSBASE
 10
0.0
 20
0.0
 30
0.0
  9
$PLIMCHECK
 70
     0
  9
$PEXTMIN
 10
1.0000000000E+20
 20
1.0000000000E+20
 30
1.0000000000E+20
  9
$PEXTMAX
 10
-1.0000000000E+20
 20
-1.0000000000E+20
 30
-1.0000000000E+20
  9
$PLIMMIN
 10
0.0
 20
0.0
  9
$PLIMMAX
 10
420.0
 20
297.0
  9
$UNITMODE
 70
     0
  9
$VISRETAIN
 70
     1
  9
$PLINEGEN
 70
     0
  9
$PSLTSCALE
 70
     1
  9
$TREEDEPTH
 70
  3020
  9
$CMLSTYLE
  2
Standard
  9
$CMLJUST
 70
     0
  9
$CMLSCALE
 40
20.0
  9
$PROXYGRAPHICS
 70
     1
  9
$MEASUREMENT
 70
     1
  9
$CELWEIGHT
370
    -1
  9
$ENDCAPS
280
     0
  9
$JOINSTYLE
280
     0
  9
$LWDISPLAY
290
     1
  9
$INSUNITS
 70
     4
  9
$HYPERLINKBASE
  1

  9
$STYLESHEET
  1

  9
$XEDIT
290
     1
  9
$CEPSNTYPE
380
     0
  9
$PSTYLEMODE
290
     1
  9
$FINGERPRINTGUID
  2
{C9CBE4FD-EB5A-4A30-95C5-56BD776C9DED}
  9
$VERSIONGUID
  2
{FAEB1C32-E019-11D5-929B-00C0DF256EC4}
  9
$EXTNAMES
290
     1
  9
$PSVPSCALE
 40
0.0
  9
$OLESTARTUP
290
     0
  0
ENDSEC
  0
SECTION
  2
CLASSES
  0
CLASS
  1
ACDBDICTIONARYWDFLT
  2
AcDbDictionaryWithDefault
  3
ObjectDBX Classes
 90
        0
280
     0
281
     0
  0
CLASS
  1
VISUALSTYLE
  2
AcDbVisualStyle
  3
ObjectDBX Classes
 90
     4095
280
     0
281
     0
  0
CLASS
  1
MATERIAL
  2
AcDbMaterial
  3
ObjectDBX Classes
 90
     1153
280
     0
281
     0
  0
CLASS
  1
ACDBPLACEHOLDER
  2
AcDbPlaceHolder
  3
ObjectDBX Classes
 90
        0
280
     0
281
     0
  0
CLASS
  1
LAYOUT
  2
AcDbLayout
  3
ObjectDBX Classes
 90
        0
280
     0
281
     0
  0
ENDSEC
  0
SECTION
  2
TABLES
  0
TABLE
  2
VPORT
  5
8
330
0
100
AcDbSymbolTable
 70
     1
  0
VPORT
  5
29
330
8
100
AcDbSymbolTableRecord
100
AcDbViewportTableRecord
  2
*Active
 70
     0
 10
0.0
 20
0.0
 11
1.0
 21
1.0
 12
420.5
 22
297.0
 13
0.0
 23
0.0
 14
10.0
 24
10.0
 15
10.0
 25
10.0
 16
0.0
 26
0.0
 36
1.0
 17
0.0
 27
0.0
 37
0.0
 40
594.0
 41
1.4158249158
 42
50.0
 43
0.0
 44
0.0
 50
0.0
 51
0.0
 71
     0
 72
  2000
 73
     1
 74
     3
 75
     0
 76
     0
 77
     0
 78
     0
281
     0
 65
     1
110
0.0
120
0.0
130
0.0
111
1.0
121
0.0
131
0.0
112
0.0
122
1.0
132
0.0
 79
     0
146
0.0
  0
ENDTAB
  0
TABLE
  2
LTYPE
  5
5
330
0
100
AcDbSymbolTable
 70
     6
  0
LTYPE
  5
14
330
5
100
AcDbSymbolTableRecord
100
AcDbLinetypeTableRecord
  2
ByBlock
 70
     0
  3

 72
    65
 73
     0
 40
0.0
  0
LTYPE
  5
15
330
5
100
AcDbSymbolTableRecord
100
AcDbLinetypeTableRecord
  2
ByLayer
 70
     0
  3

 72
    65
 73
     0
 40
0.0
  0
LTYPE
  5
16
330
5
100
AcDbSymbolTableRecord
100
AcDbLinetypeTableRecord
  2
Continuous
 70
     0
  3
Solid line
 72
    65
 73
     0
 40
0.0
  0
LTYPE
  5
3F
330
5
100
AcDbSymbolTableRecord
100
AcDbLinetypeTableRecord
  2
HIDDEN
 70
     0
  3
Hidden __ __ __ __ __ __ __ __ __ __ __ __ __ __
 72
    65
 73
     2
 40
1.905
 49
1.27
 74
     0
 49
-0.635
 74
     0
  0
LTYPE
  5
40
330
5
100
AcDbSymbolTableRecord
100
AcDbLinetypeTableRecord
  2
PHANTOM
 70
     0
  3
Phantom ______  __  __  ______  __  __  ______
 72
    65
 73
     6
 40
12.7
 49
6.35
 74
     0
 49
-1.27
 74
     0
 49
1.27
 74
     0
 49
-1.27
 74
     0
 49
1.27
 74
     0
 49
-1.27
 74
     0
  0
LTYPE
  5
41
330
5
100
AcDbSymbolTableRecord
100
AcDbLinetypeTableRecord
  2
CENTER
 70
     0
  3
Center ____ _ ____ _ ____ _ ____ _ ____ _ ____
 72
    65
 73
     4
 40
10.16
 49
6.35
 74
     0
 49
-1.27
 74
     0
 49
1.27
 74
     0
 49
-1.27
 74
     0
  0
LTYPE
  5
42
330
5
100
AcDbSymbolTableRecord
100
AcDbLinetypeTableRecord
  2
CENTERX2
 70
     0
  3
Center (2x) ________  __  ________  __  _____
 72
    65
 73
     4
 40
20.32
 49
12.7
 74
     0
 49
-2.54
 74
     0
 49
2.54
 74
     0
 49
-2.54
 74
     0
  0
LTYPE
  5
43
330
5
100
AcDbSymbolTableRecord
100
AcDbLinetypeTableRecord
  2
DOT2
 70
     0
  3
Dot (.5x) ........................................
 72
    65
 73
     2
 40
0.635
 49
0.0
 74
     0
 49
-0.635
 74
     0
  0
ENDTAB
  0
TABLE
  2
LAYER
  5
2
330
0
100
AcDbSymbolTable
 70
     4
  0
LAYER
  5
10
330
2
100
AcDbSymbolTableRecord
100
AcDbLayerTableRecord
  2
0
 70
     0
 62
     7
  6
Continuous
370
    -3
390
F
  0
LAYER
  5
44
330
2
100
AcDbSymbolTableRecord
100
AcDbLayerTableRecord
  2
FORMAT
 70
     0
 62
     7
  6
Continuous
370
    -3
390
F
  0
LAYER
  5
45
330
2
100
AcDbSymbolTableRecord
100
AcDbLayerTableRecord
  2
SLD-0
 70
     0
 62
     1
  6
Continuous
370
    -3
390
F
  0
LAYER
  5
46
330
2
100
AcDbSymbolTableRecord
100
AcDbLayerTableRecord
  2
WATERMARK
 70
     0
 62
     1
  6
Continuous
370
    -3
390
F
  0
ENDTAB
  0
TABLE
  2
STYLE
  5
3
330
0
100
AcDbSymbolTable
 70
     1
  0
STYLE
  5
11
330
3
100
AcDbSymbolTableRecord
100
AcDbTextStyleTableRecord
  2
Standard
 70
     0
 40
0.0
 41
1.0
 50
0.0
 71
     0
 42
3.5
  3
txt
  4

  0
ENDTAB
  0
TABLE
  2
VIEW
  5
6
330
0
100
AcDbSymbolTable
 70
     0
  0
ENDTAB
  0
TABLE
  2
UCS
  5
7
330
0
100
AcDbSymbolTable
 70
     0
  0
ENDTAB
  0
TABLE
  2
APPID
  5
9
330
0
100
AcDbSymbolTable
 70
     1
  0
APPID
  5
12
330
9
100
AcDbSymbolTableRecord
100
AcDbRegAppTableRecord
  2
ACAD
 70
     0
  0
ENDTAB
  0
TABLE
  2
DIMSTYLE
  5
A
330
0
100
AcDbSymbolTable
 70
     1
100
AcDbDimStyleTable
  0
DIMSTYLE
105
27
330
A
100
AcDbSymbolTableRecord
100
AcDbDimStyleTableRecord
  2
ISO-25
 70
     0
 41
2.5
 42
0.625
 43
3.75
 44
1.25
 73
     0
 74
     0
 77
     1
 78
     8
140
2.5
141
2.5
143
0.0393700787
147
0.625
171
     3
172
     1
178
     0
271
     2
272
     2
274
     3
278
    44
283
     0
284
     8
340
11
  0
ENDTAB
  0
TABLE
  2
BLOCK_RECORD
  5
1
330
0
100
AcDbSymbolTable
 70
     1
  0
BLOCK_RECORD
  5
1F
330
1
100
AcDbSymbolTableRecord
100
AcDbBlockTableRecord
  2
*Model_Space
340
22
  0
BLOCK_RECORD
  5
1B
330
1
100
AcDbSymbolTableRecord
100
AcDbBlockTableRecord
  2
*Paper_Space
340
1E
  0
BLOCK_RECORD
  5
23
330
1
100
AcDbSymbolTableRecord
100
AcDbBlockTableRecord
  2
*Paper_Space0
340
26
  0
ENDTAB
  0
ENDSEC
  0
SECTION
  2
BLOCKS
  0
BLOCK
  5
20
330
1F
100
AcDbEntity
  8
0
100
AcDbBlockBegin
  2
*Model_Space
 70
     0
 10
0.0
 20
0.0
 30
0.0
  3
*Model_Space
  1

  0
ENDBLK
  5
21
330
1F
100
AcDbEntity
  8
0
100
AcDbBlockEnd
  0
BLOCK
  5
1C
330
1B
100
AcDbEntity
 67
     1
  8
0
100
AcDbBlockBegin
  2
*Paper_Space
 70
     0
 10
0.0
 20
0.0
 30
0.0
  3
*Paper_Space
  1

  0
ENDBLK
  5
1D
330
1B
100
AcDbEntity
 67
     1
  8
0
100
AcDbBlockEnd
  0
BLOCK
  5
24
330
23
100
AcDbEntity
  8
0
100
AcDbBlockBegin
  2
*Paper_Space0
 70
     0
 10
0.0
 20
0.0
 30
0.0
  3
*Paper_Space0
  1

  0
ENDBLK
  5
25
330
23
100
AcDbEntity
  8
0
100
AcDbBlockEnd
  0
ENDSEC
  0
SECTION
  2
ENTITIES
  0
LINE
  5
47
330
1F
100
AcDbEntity
  8
0
  6
Continuous
 62
     7
370
    15
100
AcDbLine
 10
802.0160602874
 20
396.0915290798
 30
0.0
 11
802.012640086
 21
396.0915290798
 31
0.0
  0
LINE
  5
48
330
1F
100
AcDbEntity
  8
0
  6
Continuous
 62
     7
370
    15
100
AcDbLine
 10
802.012640086
 20
390.0915290798
 30
0.0
 11
802.0160602874
 21
390.0915290798
 31
0.0
  0
LINE
  5
49
330
1F
100
AcDbEntity
  8
0
  6
Continuous
 62
     7
370
    15
100
AcDbLine
 10
802.0160602874
 20
395.0915290798
 30
0.0
 11
802.012640086
 21
395.0915290798
 31
0.0
  0
LINE
  5
4A
330
1F
100
AcDbEntity
  8
0
  6
Continuous
 62
     7
370
    15
100
AcDbLine
 10
802.012640086
 20
391.0915290798
 30
0.0
 11
802.0160602874
 21
391.0915290798
 31
0.0
  0
LINE
  5
4B
330
1F
100
AcDbEntity
  8
0
  6
Continuous
 62
     7
370
    15
100
AcDbLine
 10
804.8351381498
 20
294.0915290798
 30
0.0
 11
804.8317179483
 21
294.0915290798
 31
0.0
  0
LINE
  5
4C
330
1F
100
AcDbEntity
  8
0
  6
Continuous
 62
     7
370
    15
100
AcDbLine
 10
804.8317179483
 20
288.0915290798
 30
0.0
 11
804.8351381498
 21
288.0915290798
 31
0.0
  0
LINE
  5
4D
330
1F
100
AcDbEntity
  8
0
  6
Continuous
 62
     7
370
    15
100
AcDbLine
 10
804.8351381498
 20
293.0915290798
 30
0.0
 11
804.8317179483
 21
293.0915290798
 31
0.0
  0
LINE
  5
4E
330
1F
100
AcDbEntity
  8
0
  6
Continuous
 62
     7
370
    15
100
AcDbLine
 10
804.8317179483
 20
289.0915290798
 30
0.0
 11
804.8351381498
 21
289.0915290798
 31
0.0
  0
LINE
  5
4F
330
1F
100
AcDbEntity
  8
0
  6
Continuous
 62
     7
370
    15
100
AcDbLine
 10
820.2569780509
 20
117.0915290798
 30
0.0
 11
820.2569780509
 21
258.2378449042
 31
0.0
  0
LINE
  5
50
330
1F
100
AcDbEntity
  8
0
  6
Continuous
 62
     7
370
    15
100
AcDbLine
 10
820.2569780509
 20
273.8988629073
 30
0.0
 11
820.2569780509
 21
360.2645828638
 31
0.0
  0
LINE
  5
51
330
1F
100
AcDbEntity
  8
0
  6
Continuous
 62
     7
370
    15
100
AcDbLine
 10
820.2569780509
 20
375.9152465463
 30
0.0
 11
820.2569780509
 21
517.0915290798
 31
0.0
  0
LINE
  5
52
330
1F
100
AcDbEntity
  8
0
  6
Continuous
 62
     7
370
    15
100
AcDbLine
 10
682.3147609592
 20
467.3632405554
 30
0.0
 11
681.5420202981
 21
467.3632405554
 31
0.0
  0
LINE
  5
53
330
1F
100
AcDbEntity
  8
0
  6
Continuous
 62
     7
370
    15
100
AcDbLine
 10
681.501998458
 20
467.4032623955
 30
0.0
 11
681.501998458
 21
468.1760030566
 31
0.0
  0
LINE
  5
54
330
1F
100
AcDbEntity
  8
0
  6
Continuous
 62
     7
370
    15
100
AcDbLine
 10
117.9585755069
 20
468.1760030566
 30
0.0
 11
117.9585755069
 21
467.4032623955
 31
0.0
  0
LINE
  5
55
330
1F
100
AcDbEntity
  8
0
  6
Continuous
 62
     7
370
    15
100
AcDbLine
 10
117.9185536667
 20
467.3632405554
 30
0.0
 11
117.1458130057
 21
467.3632405554
 31
0.0
  0
LINE
  5
56
330
1F
100
AcDbEntity
  8
0
  6
Continuous
 62
     7
370
    15
100
AcDbLine
 10
681.5420202981
 20
166.8198176043
 30
0.0
 11
682.3147609592
 21
166.8198176043
 31
0.0
  0
LINE
  5
57
330
1F
100
AcDbEntity
  8
0
  6
Continuous
 62
     7
370
    15
100
AcDbLine
 10
117.1458130057
 20
166.8198176043
 30
0.0
 11
117.9185536667
 21
166.8198176043
 31
0.0
  0
LINE
  5
58
330
1F
100
AcDbEntity
  8
0
  6
Continuous
 62
     7
370
    15
100
AcDbLine
 10
117.9585755069
 20
166.7797957641
 30
0.0
 11
117.9585755069
 21
166.0070551031
 31
0.0
  0
LINE
  5
59
330
1F
100
AcDbEntity
  8
0
  6
Continuous
 62
     7
370
    15
100
AcDbLine
 10
681.501998458
 20
166.0070551031
 30
0.0
 11
681.501998458
 21
166.7797957641
 31
0.0
  0
LINE
  5
5A
330
1F
100
AcDbEntity
  8
0
  6
Continuous
 62
     7
370
    15
100
AcDbLine
 10
35.1970954809
 20
499.7915290798
 30
0.0
 11
35.0579752172
 21
499.7915290798
 31
0.0
  0
LINE
  5
5B
330
1F
100
AcDbEntity
  8
0
  6
Continuous
 62
     7
370
    15
100
AcDbLine
 10
35.0579752172
 20
467.7915290798
 30
0.0
 11
35.2270954809
 21
467.7915290798
 31
0.0
  0
ARC
  5
5C
330
1F
100
AcDbEntity
  8
0
  6
Continuous
 62
     7
370
    15
100
AcDbCircle
 10
809.1347410159
 20
255.5120762364
 30
0.0
 40
1.000000000000008
100
AcDbArc
 50
276.9429511388
 51
309.3376597139
  0
ARC
  5
5D
330
1F
100
AcDbEntity
  8
0
  6
Continuous
 62
     7
370
    15
100
AcDbCircle
 10
809.1580816566
 20
276.7815486436
 30
0.0
 40
1.000000000000055
100
AcDbArc
 50
49.8325841739
 51
82.888704151
  0
SPLINE
  5
5E
330
1F
100
AcDbEntity
  8
0
  6
Continuous
 62
     7
370
    15
100
AcDbSpline
210
0.0
220
0.0
230
1.0
 70
     8
 71
     3
 72
    10
 73
     6
 74
     0
 42
0.00000001
 43
0.00000001
 12
1.0
 22
0.0
 32
0.0
 13
1.0
 23
0.0
 33
0.0
 40
0.0
 40
0.0
 40
0.0
 40
0.0
 40
0.1812860393061999
 40
0.8986343174293164
 40
1.0
 40
1.0
 40
1.0
 40
1.0
 10
801.7970954808953
 20
245.6170513119905
 30
0.0
 10
801.8540427003331
 20
245.7789839793388
 30
0.0
 10
802.1363298850774
 20
246.5816836938285
 30
0.0
 10
802.4064652614508
 20
247.6085239405786
 30
0.0
 10
802.6187815786229
 20
248.4647849349176
 30
0.0
 10
802.6450686452226
 20
248.5707993481521
 30
0.0
  0
SPLINE
  5
5F
330
1F
100
AcDbEntity
  8
0
  6
Continuous
 62
     7
370
    15
100
AcDbSpline
210
0.0
220
0.0
230
1.0
 70
     8
 71
     3
 72
     9
 73
     5
 74
     0
 42
0.00000001
 43
0.00000001
 12
1.0
 22
0.0
 32
0.0
 13
1.0
 23
0.0
 33
0.0
 40
0.0
 40
0.0
 40
0.0
 40
0.0
 40
0.3756107022127222
 40
1.0
 40
1.0
 40
1.0
 40
1.0
 10
802.6836225718681
 20
283.453703186659
 30
0.0
 10
802.5810364893335
 20
283.867787440417
 30
0.0
 10
802.3079183861217
 20
284.9702167676929
 30
0.0
 10
801.9934476456887
 20
285.9624996779322
 30
0.0
 10
801.7970954808953
 20
286.5820705074628
 30
0.0
  0
SPLINE
  5
60
330
1F
100
AcDbEntity
  8
0
  6
Continuous
 62
     7
370
    15
100
AcDbSpline
210
0.0
220
0.0
230
1.0
 70
     8
 71
     3
 72
    11
 73
     7
 74
     0
 42
0.00000001
 43
0.00000001
 12
1.0
 22
0.0
 32
0.0
 13
1.0
 23
0.0
 33
0.0
 40
0.0
 40
0.0
 40
0.0
 40
0.0
 40
0.1679735972012255
 40
0.4870830321963636
 40
0.8103855523549657
 40
1.0
 40
1.0
 40
1.0
 40
1.0
 10
809.7686303859783
 20
254.7386525061401
 30
0.0
 10
809.9818123840614
 20
254.9053183024437
 30
0.0
 10
810.5999889056467
 20
255.3886090265786
 30
0.0
 10
811.6141775654784
 20
255.948274748989
 30
0.0
 10
812.6308955914823
 20
256.3238132691698
 30
0.0
 10
813.2446844931336
 20
256.3602713320523
 30
0.0
 10
813.4715891402067
 20
256.3737490991952
 30
0.0
  0
SPLINE
  5
61
330
1F
100
AcDbEntity
  8
0
  6
Continuous
 62
     7
370
    15
100
AcDbSpline
210
0.0
220
0.0
230
1.0
 70
     8
 71
     3
 72
    11
 73
     7
 74
     0
 42
0.00000001
 43
0.00000001
 12
1.0
 22
0.0
 32
0.0
 13
1.0
 23
0.0
 33
0.0
 40
0.0
 40
0.0
 40
0.0
 40
0.0
 40
0.283203165893027
 40
0.6043741146694095
 40
0.9133004340127627
 40
1.0
 40
1.0
 40
1.0
 40
1.0
 10
813.7696763791332
 20
275.7810704810196
 30
0.0
 10
813.4063022451043
 20
275.8162400434256
 30
0.0
 10
812.6308380307297
 20
275.8912941943048
 30
0.0
 10
811.4276061949581
 20
276.3920667044176
 30
0.0
 10
810.4598534740572
 20
277.0057629962315
 30
0.0
 10
809.9211575626673
 20
277.4486541026765
 30
0.0
 10
809.8031048683204
 20
277.5457116212368
 30
0.0
  0
ARC
  5
62
330
1F
100
AcDbEntity
  8
0
  6
Continuous
 62
     7
370
    15
100
AcDbCircle
 10
818.7560264492
 20
255.401509516
 30
0.0
 40
1.000000000000125
100
AcDbArc
 50
279.5243052577
 51
347.9913991402
  0
ARC
  5
63
330
1F
100
AcDbEntity
  8
0
  6
Continuous
 62
     7
370
    15
100
AcDbCircle
 10
818.77936709
 20
276.6709819233
 30
0.0
 40
1.000000000000054
100
AcDbArc
 50
11.8320342439
 51
80.6935854962
  0
LINE
  5
64
330
1F
100
AcDbEntity
  8
0
  6
Continuous
 62
     7
370
    15
100
AcDbLine
 10
818.4360557058
 20
254.3048986726
 30
0.0
 11
818.907997635
 21
254.3838396538
 31
0.0
  0
SPLINE
  5
65
330
1F
100
AcDbEntity
  8
0
  6
Continuous
 62
     7
370
    15
100
AcDbSpline
210
0.0
220
0.0
230
1.0
 70
     8
 71
     3
 72
    10
 73
     6
 74
     0
 42
0.00000001
 43
0.00000001
 12
1.0
 22
0.0
 32
0.0
 13
1.0
 23
0.0
 33
0.0
 40
0.0
 40
0.0
 40
0.0
 40
0.0
 40
0.1144273808232034
 40
0.7452103469814858
 40
1.0
 40
1.0
 40
1.0
 40
1.0
 10
805.8320586726046
 20
251.8638250049385
 30
0.0
 10
806.3178708159066
 20
251.9729471836492
 30
0.0
 10
809.4817310150428
 20
252.6836073077855
 30
0.0
 10
813.7094015060287
 20
253.5312760295771
 30
0.0
 10
817.3799855315791
 20
254.1320491759372
 30
0.0
 10
818.4360557058292
 20
254.3048986726236
 30
0.0
  0
SPLINE
  5
66
330
1F
100
AcDbEntity
  8
0
  6
Continuous
 62
     7
370
    15
100
AcDbSpline
210
0.0
220
0.0
230
1.0
 70
     8
 71
     3
 72
    11
 73
     7
 74
     0
 42
0.00000001
 43
0.00000001
 12
1.0
 22
0.0
 32
0.0
 13
1.0
 23
0.0
 33
0.0
 40
0.0
 40
0.0
 40
0.0
 40
0.0
 40
0.0925510891760614
 40
0.4249978679710539
 40
0.7579341248294085
 40
1.0
 40
1.0
 40
1.0
 40
1.0
 10
820.647219768135
 20
270.0187982012644
 30
0.0
 10
820.635491784788
 20
270.2460959019947
 30
0.0
 10
820.5816364713345
 20
271.289854965936
 30
0.0
 10
820.3869195837513
 20
273.0822440958273
 30
0.0
 10
820.0992147710384
 20
275.1508938385886
 30
0.0
 10
819.8591732765659
 20
276.3649350442963
 30
0.0
 10
819.758119991369
 20
276.8760252308941
 30
0.0
  0
SPLINE
  5
67
330
1F
100
AcDbEntity
  8
0
  6
Continuous
 62
     7
370
    15
100
AcDbSpline
210
0.0
220
0.0
230
1.0
 70
     8
 71
     3
 72
    12
 73
     8
 74
     0
 42
0.00000001
 43
0.00000001
 12
1.0
 22
0.0
 32
0.0
 13
1.0
 23
0.0
 33
0.0
 40
0.0
 40
0.0
 40
0.0
 40
0.0
 40
0.1036780888269085
 40
0.3447570157247883
 40
0.5855742543187491
 40
0.8263027580208566
 40
1.0
 40
1.0
 40
1.0
 40
1.0
 10
820.4498353189936
 20
259.873310755338
 30
0.0
 10
820.488361666213
 20
260.2076378757302
 30
0.0
 10
820.6164719414356
 20
261.3193638113297
 30
0.0
 10
820.7338767533654
 20
263.3062710711094
 30
0.0
 10
820.7976660060598
 20
265.7786493961502
 30
0.0
 10
820.771902536165
 20
268.0378613954495
 30
0.0
 10
820.6840437885925
 20
269.4337449608294
 30
0.0
 10
820.647219768135
 20
270.0187982012644
 30
0.0
  0
SPLINE
  5
68
330
1F
100
AcDbEntity
  8
0
  6
Continuous
 62
     7
370
    15
100
AcDbSpline
210
0.0
220
0.0
230
1.0
 70
     8
 71
     3
 72
    10
 73
     6
 74
     0
 42
0.00000001
 43
0.00000001
 12
1.0
 22
0.0
 32
0.0
 13
1.0
 23
0.0
 33
0.0
 40
0.0
 40
0.0
 40
0.0
 40
0.0
 40
0.2502203002933066
 40
0.7279566182992376
 40
1.0
 40
1.0
 40
1.0
 40
1.0
 10
819.7341428286189
 20
255.1934509945891
 30
0.0
 10
819.8083462144245
 20
255.5599395575737
 30
0.0
 10
820.0242233664152
 20
256.6261511105247
 30
0.0
 10
820.2764814919399
 20
258.1823615679245
 30
0.0
 10
820.4036827489444
 20
259.4231236891049
 30
0.0
 10
820.4498353189936
 20
259.873310755338
 30
0.0
  0
SPLINE
  5
69
330
1F
100
AcDbEntity
  8
0
  6
Continuous
 62
     7
370
    15
100
AcDbSpline
210
0.0
220
0.0
230
1.0
 70
     8
 71
     3
 72
     9
 73
     5
 74
     0
 42
0.00000001
 43
0.00000001
 12
1.0
 22
0.0
 32
0.0
 13
1.0
 23
0.0
 33
0.0
 40
0.0
 40
0.0
 40
0.0
 40
0.0
 40
0.5203241393792604
 40
1.0
 40
1.0
 40
1.0
 40
1.0
 10
818.9406766784833
 20
277.6590045344533
 30
0.0
 10
816.690429324793
 20
278.041391093083
 30
0.0
 10
812.3657263494997
 20
278.7762917630496
 30
0.0
 10
807.9660264222312
 20
279.7159199688788
 30
0.0
 10
805.8555965731456
 20
280.1666369371734
 30
0.0
  0
SPLINE
  5
6A
330
1F
100
AcDbEntity
  8
0
  6
Continuous
 62
     7
370
    15
100
AcDbSpline
210
0.0
220
0.0
230
1.0
 70
     8
 71
     3
 72
    11
 73
     7
 74
     0
 42
0.00000001
 43
0.00000001
 12
1.0
 22
0.0
 32
0.0
 13
1.0
 23
0.0
 33
0.0
 40
0.0
 40
0.0
 40
0.0
 40
0.0
 40
0.2290241859863469
 40
0.4873144069518155
 40
0.7561861935378266
 40
1.0
 40
1.0
 40
1.0
 40
1.0
 10
803.3927306793747
 20
250.0741550496722
 30
0.0
 10
803.5585424352587
 20
250.2887507573211
 30
0.0
 10
803.9113543321168
 20
250.7453644531931
 30
0.0
 10
804.5687873856177
 20
251.2990365683185
 30
0.0
 10
805.2472494831376
 20
251.7069438282601
 30
0.0
 10
805.6415800968634
 20
251.8107821336326
 30
0.0
 10
805.8291087679256
 20
251.8601636899562
 30
0.0
  0
SPLINE
  5
6B
330
1F
100
AcDbEntity
  8
0
  6
Continuous
 62
     7
370
    15
100
AcDbSpline
210
0.0
220
0.0
230
1.0
 70
     8
 71
     3
 72
    12
 73
     8
 74
     0
 42
0.00000001
 43
0.00000001
 12
1.0
 22
0.0
 32
0.0
 13
1.0
 23
0.0
 33
0.0
 40
0.0
 40
0.0
 40
0.0
 40
0.0
 40
0.0486796688922949
 40
0.3521248778144663
 40
0.6175665543666022
 40
0.8691262333099273
 40
1.0
 40
1.0
 40
1.0
 40
1.0
 10
805.8561018594446
 20
280.1576971073538
 30
0.0
 10
805.8213581410279
 20
280.1638280259743
 30
0.0
 10
805.5700391020781
 20
280.2081760878913
 30
0.0
 10
805.0384274798911
 20
280.4355802711733
 30
0.0
 10
804.3313718213755
 20
280.9285110175639
 30
0.0
 10
803.779125956236
 20
281.4548650923537
 30
0.0
 10
803.5248837014697
 20
281.8226876379608
 30
0.0
 10
803.4378786502303
 20
281.9485613620474
 30
0.0
  0
SPLINE
  5
6C
330
1F
100
AcDbEntity
  8
0
  6
Continuous
 62
     7
370
    15
100
AcDbSpline
210
0.0
220
0.0
230
1.0
 70
     8
 71
     3
 72
    10
 73
     6
 74
     0
 42
0.00000001
 43
0.00000001
 12
1.0
 22
0.0
 32
0.0
 13
1.0
 23
0.0
 33
0.0
 40
0.0
 40
0.0
 40
0.0
 40
0.0
 40
0.1500603556610996
 40
0.6248005137886745
 40
1.0
 40
1.0
 40
1.0
 40
1.0
 10
802.651347080291
 20
248.575210634515
 30
0.0
 10
802.6670926087149
 20
248.6407620894495
 30
0.0
 10
802.7326516579774
 20
248.9136961534951
 30
0.0
 10
802.9530660482571
 20
249.4433416294793
 30
0.0
 10
803.2606411322654
 20
249.8802356258886
 30
0.0
 10
803.396417848012
 20
250.0730992063479
 30
0.0
  0
SPLINE
  5
6D
330
1F
100
AcDbEntity
  8
0
  6
Continuous
 62
     7
370
    15
100
AcDbSpline
210
0.0
220
0.0
230
1.0
 70
     8
 71
     3
 72
    10
 73
     6
 74
     0
 42
0.00000001
 43
0.00000001
 12
1.0
 22
0.0
 32
0.0
 13
1.0
 23
0.0
 33
0.0
 40
0.0
 40
0.0
 40
0.0
 40
0.0
 40
0.0832502233851844
 40
0.5576389225915392
 40
1.0
 40
1.0
 40
1.0
 40
1.0
 10
803.4268100680903
 20
281.9434365343411
 30
0.0
 10
803.3946934831499
 20
281.9850714337026
 30
0.0
 10
803.1795654379
 20
282.2639564562055
 30
0.0
 10
802.8793335938489
 20
282.8123438762652
 30
0.0
 10
802.7490659196736
 20
283.2439253598478
 30
0.0
 10
802.686207601985
 20
283.4521772241374
 30
0.0
  0
LINE
  5
6E
330
1F
100
AcDbEntity
  8
0
  6
Continuous
 62
     7
370
    15
100
AcDbLine
 10
807.1168963106
 20
355.971490834
 30
0.0
 11
809.3135320823
 21
356.2522999961
 31
0.0
  0
SPLINE
  5
6F
330
1F
100
AcDbEntity
  8
0
  6
Continuous
 62
     7
370
    15
100
AcDbSpline
210
0.0
220
0.0
230
1.0
 70
     8
 71
     3
 72
     9
 73
     5
 74
     0
 42
0.00000001
 43
0.00000001
 12
1.0
 22
0.0
 32
0.0
 13
1.0
 23
0.0
 33
0.0
 40
0.0
 40
0.0
 40
0.0
 40
0.0
 40
0.4908277092836579
 40
1.0
 40
1.0
 40
1.0
 40
1.0
 10
801.7970954808953
 20
355.2245675007794
 30
0.0
 10
802.6664604428111
 20
355.3634602732134
 30
0.0
 10
804.4376826975297
 20
355.6464369059644
 30
0.0
 10
806.2129694753182
 20
355.8618224719438
 30
0.0
 10
807.1168963106433
 20
355.9714908339607
 30
0.0
  0
ARC
  5
70
330
1F
100
AcDbEntity
  8
0
  6
Continuous
 62
     7
370
    15
100
AcDbCircle
 10
809.1082900674
 20
378.5436080179
 30
0.0
 40
1.000000000000001
100
AcDbArc
 50
51.6343310452
 51
83.2503937463
  0
SPLINE
  5
71
330
1F
100
AcDbEntity
  8
0
  6
Continuous
 62
     7
370
    15
100
AcDbSpline
210
0.0
220
0.0
230
1.0
 70
     8
 71
     3
 72
     9
 73
     5
 74
     0
 42
0.00000001
 43
0.00000001
 12
1.0
 22
0.0
 32
0.0
 13
1.0
 23
0.0
 33
0.0
 40
0.0
 40
0.0
 40
0.0
 40
0.0
 40
0.4200159742607776
 40
1.0
 40
1.0
 40
1.0
 40
1.0
 10
802.600441937922
 20
385.7929385443227
 30
0.0
 10
802.4960761456476
 20
386.2028142591096
 30
0.0
 10
802.2475956147395
 20
387.1786717024088
 30
0.0
 10
801.9624660650065
 20
388.0544402143647
 30
0.0
 10
801.7970954808953
 20
388.5623719615445
 30
0.0
  0
ARC
  5
72
330
1F
100
AcDbEntity
  8
0
  6
Continuous
 62
     7
370
    15
100
AcDbCircle
 10
809.1851294529
 20
357.2754550419
 30
0.0
 40
0.9999999999999691
100
AcDbArc
 50
277.3038125009
 51
311.0976982308
  0
SPLINE
  5
73
330
1F
100
AcDbEntity
  8
0
  6
Continuous
 62
     7
370
    15
100
AcDbSpline
210
0.0
220
0.0
230
1.0
 70
     8
 71
     3
 72
    10
 73
     6
 74
     0
 42
0.00000001
 43
0.00000001
 12
1.0
 22
0.0
 32
0.0
 13
1.0
 23
0.0
 33
0.0
 40
0.0
 40
0.0
 40
0.0
 40
0.0
 40
0.2628049322416013
 40
0.9114665085004292
 40
1.0
 40
1.0
 40
1.0
 40
1.0
 10
801.7970954808953
 20
347.6295288491886
 30
0.0
 10
801.8873100988433
 20
347.8923218441386
 30
0.0
 10
802.2001946483663
 20
348.8037469514314
 30
0.0
 10
802.4954633038437
 20
349.946092755876
 30
0.0
 10
802.7025012237692
 20
350.8085254022212
 30
0.0
 10
802.7273654567591
 20
350.9120993091877
 30
0.0
  0
SPLINE
  5
74
330
1F
100
AcDbEntity
  8
0
  6
Continuous
 62
     7
370
    15
100
AcDbSpline
210
0.0
220
0.0
230
1.0
 70
     8
 71
     3
 72
    11
 73
     7
 74
     0
 42
0.00000001
 43
0.00000001
 12
1.0
 22
0.0
 32
0.0
 13
1.0
 23
0.0
 33
0.0
 40
0.0
 40
0.0
 40
0.0
 40
0.0
 40
0.2270221591534248
 40
0.5723590969292314
 40
0.9051035696523696
 40
0.9999999999999999
 40
0.9999999999999999
 40
0.9999999999999999
 40
0.9999999999999999
 10
813.434355164362
 20
377.7941321327946
 30
0.0
 10
813.1620300825622
 20
377.8078447289956
 30
0.0
 10
812.4754550871022
 20
377.8424163726073
 30
0.0
 10
811.3659017728226
 20
378.2551446430364
 30
0.0
 10
810.3935175504254
 20
378.8162759103894
 30
0.0
 10
809.8496549679878
 20
379.2348001412745
 30
0.0
 10
809.7289681550512
 20
379.3276735199428
 30
0.0
  0
SPLINE
  5
75
330
1F
100
AcDbEntity
  8
0
  6
Continuous
 62
     7
370
    15
100
AcDbSpline
210
0.0
220
0.0
230
1.0
 70
     8
 71
     3
 72
    12
 73
     8
 74
     0
 42
0.00000001
 43
0.00000001
 12
1.0
 22
0.0
 32
0.0
 13
1.0
 23
0.0
 33
0.0
 40
0.0
 40
0.0
 40
0.0
 40
0.0
 40
0.1393288339459437
 40
0.4032577321014373
 40
0.6700769801375095
 40
0.94462948306253
 40
1.0
 40
1.0
 40
1.0
 40
1.0
 10
809.8424744249679
 20
356.5218652411717
 30
0.0
 10
810.0561596352674
 20
356.6997562964731
 30
0.0
 10
810.6746261138026
 20
357.2146241920142
 30
0.0
 10
811.6908297008447
 20
357.8413365297864
 30
0.0
 10
812.8835354853676
 20
358.284252494113
 30
0.0
 10
813.7446627822816
 20
358.4679060390969
 30
0.0
 10
814.2220075877531
 20
358.4145262012522
 30
0.0
 10
814.3021196958667
 20
358.4055675380563
 30
0.0
  0
ARC
  5
76
330
1F
100
AcDbEntity
  8
0
  6
Continuous
 62
     7
370
    15
100
AcDbCircle
 10
818.7289786535
 20
378.9076031177
 30
0.0
 40
0.9999999999999659
100
AcDbArc
 50
12.2128068904
 51
80.2271936061
  0
SPLINE
  5
77
330
1F
100
AcDbEntity
  8
0
  6
Continuous
 62
     7
370
    15
100
AcDbSpline
210
0.0
220
0.0
230
1.0
 70
     8
 71
     3
 72
     9
 73
     5
 74
     0
 42
0.00000001
 43
0.00000001
 12
1.0
 22
0.0
 32
0.0
 13
1.0
 23
0.0
 33
0.0
 40
0.0
 40
0.0
 40
0.0
 40
0.0
 40
0.5225562216635723
 40
1.0
 40
1.0
 40
1.0
 40
1.0
 10
818.8984036680595
 20
379.894055029775
 30
0.0
 10
816.6363699062246
 20
380.2971506859211
 30
0.0
 10
812.3075844702124
 20
381.0685426231616
 30
0.0
 10
807.9029398900205
 20
382.0426559476876
 30
0.0
 10
805.7999697394248
 20
382.5077402938771
 30
0.0
  0
SPLINE
  5
78
330
1F
100
AcDbEntity
  8
0
  6
Continuous
 62
     7
370
    15
100
AcDbSpline
210
0.0
220
0.0
230
1.0
 70
     8
 71
     3
 72
    11
 73
     7
 74
     0
 42
0.00000001
 43
0.00000001
 12
1.0
 22
0.0
 32
0.0
 13
1.0
 23
0.0
 33
0.0
 40
0.0
 40
0.0
 40
0.0
 40
0.0
 40
0.09255659300363
 40
0.424920845427148
 40
0.7578069779083961
 40
1.0
 40
1.0
 40
1.0
 40
1.0
 10
820.6281690921737
 20
372.3020496202629
 30
0.0
 10
820.6153719432602
 20
372.5288641341613
 30
0.0
 10
820.556621127582
 20
373.5701537049334
 30
0.0
 10
820.3534584360316
 20
375.3534967372881
 30
0.0
 10
820.055907437304
 20
377.4091048135836
 30
0.0
 10
819.8099370480993
 20
378.6123872551666
 30
0.0
 10
819.706347287572
 20
379.1191463832614
 30
0.0
  0
SPLINE
  5
79
330
1F
100
AcDbEntity
  8
0
  6
Continuous
 62
     7
370
    15
100
AcDbSpline
210
0.0
220
0.0
230
1.0
 70
     8
 71
     3
 72
    12
 73
     8
 74
     0
 42
0.00000001
 43
0.00000001
 12
1.0
 22
0.0
 32
0.0
 13
1.0
 23
0.0
 33
0.0
 40
0.0
 40
0.0
 40
0.0
 40
0.0
 40
0.1037031965481802
 40
0.344755354937534
 40
0.5855677406102633
 40
0.826310068163291
 40
1.0
 40
1.0
 40
1.0
 40
1.0
 10
820.4783801837923
 20
362.1489094302885
 30
0.0
 10
820.5153326396872
 20
362.4850876417839
 30
0.0
 10
820.6381789691345
 20
363.6026929083924
 30
0.0
 10
820.7462532998408
 20
365.5948315656846
 30
0.0
 10
820.7984466609215
 20
368.0697674417034
 30
0.0
 10
820.7621158556551
 20
370.3273734655892
 30
0.0
 10
820.6677275454439
 20
371.7188691658923
 30
0.0
 10
820.6281690921737
 20
372.3020496202629
 30
0.0
  0
SPLINE
  5
7A
330
1F
100
AcDbEntity
  8
0
  6
Continuous
 62
     7
370
    15
100
AcDbSpline
210
0.0
220
0.0
230
1.0
 70
     8
 71
     3
 72
    10
 73
     6
 74
     0
 42
0.00000001
 43
0.00000001
 12
1.0
 22
0.0
 32
0.0
 13
1.0
 23
0.0
 33
0.0
 40
0.0
 40
0.0
 40
0.0
 40
0.0
 40
0.2502857911716366
 40
0.7280164141123462
 40
1.0
 40
1.0
 40
1.0
 40
1.0
 10
819.785282670739
 20
357.4378340823075
 30
0.0
 10
819.8577043195132
 20
357.807700814811
 30
0.0
 10
820.0683601014412
 20
358.883547154454
 30
0.0
 10
820.3130966794498
 20
360.4508498343711
 30
0.0
 10
820.4343804801308
 20
361.6968732799346
 30
0.0
 10
820.4783801837923
 20
362.1489094302885
 30
0.0
  0
ARC
  5
7B
330
1F
100
AcDbEntity
  8
0
  6
Continuous
 62
     7
370
    15
100
AcDbCircle
 10
818.8058180391
 20
357.6394501417
 30
0.0
 40
0.9999999999999972
100
AcDbArc
 50
279.055502239
 51
348.3685222844
  0
LINE
  5
7C
330
1F
100
AcDbEntity
  8
0
  6
Continuous
 62
     7
370
    15
100
AcDbLine
 10
818.1863895848
 20
356.4988129115
 30
0.0
 11
818.9498736418
 21
356.6201147371
 31
0.0
  0
SPLINE
  5
7D
330
1F
100
AcDbEntity
  8
0
  6
Continuous
 62
     7
370
    15
100
AcDbSpline
210
0.0
220
0.0
230
1.0
 70
     8
 71
     3
 72
    10
 73
     6
 74
     0
 42
0.00000001
 43
0.00000001
 12
1.0
 22
0.0
 32
0.0
 13
1.0
 23
0.0
 33
0.0
 40
0.0
 40
0.0
 40
0.0
 40
0.0
 40
0.1171764716114503
 40
0.7631274021369043
 40
1.0
 40
1.0
 40
1.0
 40
1.0
 10
805.8866646797837
 20
354.2063021393897
 30
0.0
 10
806.3719317175234
 20
354.3116744587751
 30
0.0
 10
809.5322980330475
 20
354.9979257449242
 30
0.0
 10
813.6575138196945
 20
355.7948294037837
 30
0.0
 10
817.2283023477937
 20
356.3498846456451
 30
0.0
 10
818.1863895847916
 20
356.4988129114529
 30
0.0
  0
SPLINE
  5
7E
330
1F
100
AcDbEntity
  8
0
  6
Continuous
 62
     7
370
    15
100
AcDbSpline
210
0.0
220
0.0
230
1.0
 70
     8
 71
     3
 72
    12
 73
     8
 74
     0
 42
0.00000001
 43
0.00000001
 12
1.0
 22
0.0
 32
0.0
 13
1.0
 23
0.0
 33
0.0
 40
0.0
 40
0.0
 40
0.0
 40
0.0
 40
0.0486490017944931
 40
0.350453988829541
 40
0.6156393883224333
 40
0.8670579074258375
 40
1.0
 40
1.0
 40
1.0
 40
1.0
 10
805.8005460673495
 20
382.4986162128658
 30
0.0
 10
805.7655048455491
 20
382.5050788461973
 30
0.0
 10
805.5130775500152
 20
382.5516338739642
 30
0.0
 10
804.9787066106022
 20
382.7824592130123
 30
0.0
 10
804.2676835816762
 20
383.2768941708089
 30
0.0
 10
803.7095034846234
 20
383.8052827782561
 30
0.0
 10
803.4512018091744
 20
384.1736064807089
 30
0.0
 10
803.3618607991792
 20
384.3010017503101
 30
0.0
  0
SPLINE
  5
7F
330
1F
100
AcDbEntity
  8
0
  6
Continuous
 62
     7
370
    15
100
AcDbSpline
210
0.0
220
0.0
230
1.0
 70
     8
 71
     3
 72
    11
 73
     7
 74
     0
 42
0.00000001
 43
0.00000001
 12
1.0
 22
0.0
 32
0.0
 13
1.0
 23
0.0
 33
0.0
 40
0.0
 40
0.0
 40
0.0
 40
0.0
 40
0.2291941186010456
 40
0.4877643649089302
 40
0.7569325496379736
 40
1.0
 40
1.0
 40
1.0
 40
1.0
 10
803.4677963688903
 20
352.4287418545639
 30
0.0
 10
803.632349574314
 20
352.6438588571467
 30
0.0
 10
803.9825469974728
 20
353.1016647065564
 30
0.0
 10
804.6356039859293
 20
353.6528391385123
 30
0.0
 10
805.3083892533795
 20
354.0555764529512
 30
0.0
 10
805.6984421006
 20
354.1550024646963
 30
0.0
 10
805.8835310412858
 20
354.2021823669111
 30
0.0
  0
SPLINE
  5
80
330
1F
100
AcDbEntity
  8
0
  6
Continuous
 62
     7
370
    15
100
AcDbSpline
210
0.0
220
0.0
230
1.0
 70
     8
 71
     3
 72
    10
 73
     6
 74
     0
 42
0.00000001
 43
0.00000001
 12
1.0
 22
0.0
 32
0.0
 13
1.0
 23
0.0
 33
0.0
 40
0.0
 40
0.0
 40
0.0
 40
0.0
 40
0.0833125825215869
 40
0.557327289413876
 40
1.0
 40
1.0
 40
1.0
 40
1.0
 10
803.3508288258735
 20
384.2961950126418
 30
0.0
 10
803.3184355651961
 20
384.3377244155193
 30
0.0
 10
803.1017378273243
 20
384.6155392285547
 30
0.0
 10
802.798781885712
 20
385.1602264844524
 30
0.0
 10
802.6666010198679
 20
385.5859548096694
 30
0.0
 10
802.602770251544
 20
385.7915410412504
 30
0.0
  0
SPLINE
  5
81
330
1F
100
AcDbEntity
  8
0
  6
Continuous
 62
     7
370
    15
100
AcDbSpline
210
0.0
220
0.0
230
1.0
 70
     8
 71
     3
 72
    10
 73
     6
 74
     0
 42
0.00000001
 43
0.00000001
 12
1.0
 22
0.0
 32
0.0
 13
1.0
 23
0.0
 33
0.0
 40
0.0
 40
0.0
 40
0.0
 40
0.0
 40
0.1501167753055183
 40
0.6264308510103085
 40
1.0
 40
1.0
 40
1.0
 40
1.0
 10
802.7336227877429
 20
350.9163791248812
 30
0.0
 10
802.7491371096719
 20
350.9830556201527
 30
0.0
 10
802.8138777082429
 20
351.2612937690224
 30
0.0
 10
803.0320848720537
 20
351.7960633200047
 30
0.0
 10
803.3374329934372
 20
352.2346706511413
 30
0.0
 10
803.4716498299817
 20
352.427462040208
 30
0.0
  0
LINE
  5
82
330
1F
100
AcDbEntity
  8
0
  6
Continuous
 62
     7
370
    15
100
AcDbLine
 10
801.7970954809
 20
118.2915290798
 30
0.0
 11
801.7970954809
 21
515.8915290798
 31
0.0
  0
LINE
  5
83
330
1F
100
AcDbEntity
  8
0
  6
Continuous
 62
     7
370
    15
100
AcDbLine
 10
800.4970954809
 20
515.8915290798
 30
0.0
 11
800.4970954809
 21
517.0915290798
 31
0.0
  0
LINE
  5
84
330
1F
100
AcDbEntity
  8
0
  6
Continuous
 62
     7
370
    15
100
AcDbLine
 10
800.4970954809
 20
117.0915290798
 30
0.0
 11
800.4970954809
 21
118.2915290798
 31
0.0
  0
SPLINE
  5
85
330
1F
100
AcDbEntity
  8
0
  6
Continuous
 62
     7
370
    15
100
AcDbSpline
210
0.0
220
0.0
230
1.0
 70
     8
 71
     3
 72
    13
 73
     9
 74
     0
 42
0.00000001
 43
0.00000001
 12
1.0
 22
0.0
 32
0.0
 13
1.0
 23
0.0
 33
0.0
 40
0.0
 40
0.0
 40
0.0
 40
0.0
 40
0.0634888169711452
 40
0.2470479163483749
 40
0.4311284030698714
 40
0.6187780680217793
 40
0.8315552681982258
 40
1.0
 40
1.0
 40
1.0
 40
1.0
 10
23.74720437120747
 20
153.6006856411043
 30
0.0
 10
23.7574304333612
 20
153.6011579729367
 30
0.0
 10
23.79722212374125
 20
153.602995912287
 30
0.0
 10
23.86478156723171
 20
153.589650895346
 30
0.0
 10
23.93488108080516
 20
153.5637029502366
 30
0.0
 10
23.9813492441916
 20
153.5317348365733
 30
0.0
 10
23.99737586972767
 20
153.5087195524159
 30
0.0
 10
23.99667529187871
 20
153.5094620431872
 30
0.0
 10
23.99636573820935
 20
153.5097901162815
 30
0.0
  0
LINE
  5
86
330
1F
100
AcDbEntity
  8
0
  6
Continuous
 62
     7
370
    15
100
AcDbLine
 10
18.6470954809
 20
153.6024809034
 30
0.0
 11
23.7470954809
 21
153.6024809034
 31
0.0
  0
ARC
  5
87
330
1F
100
AcDbEntity
  8
0
  6
Continuous
 62
     7
370
    15
100
AcDbCircle
 10
18.6470954809
 20
153.8524809034
 30
0.0
 40
0.25
100
AcDbArc
 50
180.0
 51
270.0
  0
ARC
  5
88
330
1F
100
AcDbEntity
  8
0
  6
Continuous
 62
     7
370
    15
100
AcDbCircle
 10
18.6470954809
 20
158.9091750757
 30
0.0
 40
0.2500000000000284
100
AcDbArc
 50
90.0
 51
180.0
  0
LINE
  5
89
330
1F
100
AcDbEntity
  8
0
  6
Continuous
 62
     7
370
    15
100
AcDbLine
 10
23.7470954809
 20
159.1591750757
 30
0.0
 11
18.6470954809
 21
159.1591750757
 31
0.0
  0
ARC
  5
8A
330
1F
100
AcDbEntity
  8
0
  6
Continuous
 62
     7
370
    15
100
AcDbCircle
 10
24.2470954809
 20
158.9415290798
 30
0.0
 40
0.25
100
AcDbArc
 50
90.0
 51
142.7089330724
  0
ARC
  5
8B
330
1F
100
AcDbEntity
  8
0
  6
Continuous
 62
     7
370
    15
100
AcDbCircle
 10
24.9470954809
 20
158.9415290798
 30
0.0
 40
0.25
100
AcDbArc
 50
0.0
 51
90.0
  0
LINE
  5
8C
330
1F
100
AcDbEntity
  8
0
  6
Continuous
 62
     7
370
    15
100
AcDbLine
 10
24.9470954809
 20
159.1915290798
 30
0.0
 11
24.2470954809
 21
159.1915290798
 31
0.0
  0
LINE
  5
8D
330
1F
100
AcDbEntity
  8
0
  6
Continuous
 62
     7
370
    15
100
AcDbLine
 10
18.6470954809
 20
141.823883084
 30
0.0
 11
22.9240905197
 21
141.823883084
 31
0.0
  0
ARC
  5
8E
330
1F
100
AcDbEntity
  8
0
  6
Continuous
 62
     7
370
    15
100
AcDbCircle
 10
18.6470954809
 20
142.073883084
 30
0.0
 40
0.2500000000000284
100
AcDbArc
 50
180.0
 51
270.0
  0
ARC
  5
8F
330
1F
100
AcDbEntity
  8
0
  6
Continuous
 62
     7
370
    15
100
AcDbCircle
 10
23.0470954809
 20
158.9415290798
 30
0.0
 40
0.2500000000000077
100
AcDbArc
 50
90.0
 51
119.4734267882
  0
LINE
  5
90
330
1F
100
AcDbEntity
  8
0
  6
Continuous
 62
     7
370
    15
100
AcDbLine
 10
23.7470954809
 20
159.1915290798
 30
0.0
 11
23.0470954809
 21
159.1915290798
 31
0.0
  0
SPLINE
  5
91
330
1F
100
AcDbEntity
  8
0
  6
Continuous
 62
     7
370
    15
100
AcDbSpline
210
0.0
220
0.0
230
1.0
 70
     8
 71
     3
 72
    13
 73
     9
 74
     0
 42
0.00000001
 43
0.00000001
 12
1.0
 22
0.0
 32
0.0
 13
1.0
 23
0.0
 33
0.0
 40
0.0
 40
0.0
 40
0.0
 40
0.0
 40
0.0546880530899023
 40
0.213468812415802
 40
0.374577115225015
 40
0.5445034158357822
 40
0.7475374220988438
 40
1.0
 40
1.0
 40
1.0
 40
1.0
 10
24.24700341580327
 20
146.5372541689386
 30
0.0
 10
24.23741968838766
 20
146.5367602110517
 30
0.0
 10
24.20001066037652
 20
146.5348321006595
 30
0.0
 10
24.13616492770837
 20
146.548866448777
 30
0.0
 10
24.06877390873025
 20
146.5765071930746
 30
0.0
 10
24.02117789302283
 20
146.6134131686476
 30
0.0
 10
23.9983034005461
 20
146.6481900713968
 30
0.0
 10
23.99784946050754
 20
146.6600202438845
 30
0.0
 10
23.99759786065725
 20
146.6665772103845
 30
0.0
  0
ARC
  5
92
330
1F
100
AcDbEntity
  8
0
  6
Continuous
 62
     7
370
    15
100
AcDbCircle
 10
29.3470954809
 20
146.2853793302
 30
0.0
 40
0.2500000000000284
100
AcDbArc
 50
0.0
 51
90.0
  0
LINE
  5
93
330
1F
100
AcDbEntity
  8
0
  6
Continuous
 62
     7
370
    15
100
AcDbLine
 10
29.3470954809
 20
146.5353793302
 30
0.0
 11
24.2470954809
 21
146.5353793302
 31
0.0
  0
ARC
  5
94
330
1F
100
AcDbEntity
  8
0
  6
Continuous
 62
     7
370
    15
100
AcDbCircle
 10
29.3470954809
 20
141.5854089309
 30
0.0
 40
0.25
100
AcDbArc
 50
270.0
 51
0.0
  0
LINE
  5
95
330
1F
100
AcDbEntity
  8
0
  6
Continuous
 62
     7
370
    15
100
AcDbLine
 10
24.2470954809
 20
141.3354089309
 30
0.0
 11
29.3470954809
 21
141.3354089309
 31
0.0
  0
ARC
  5
96
330
1F
100
AcDbEntity
  8
0
  6
Continuous
 62
     7
370
    15
100
AcDbCircle
 10
23.0470954809
 20
142.0415290798
 30
0.0
 40
0.2499999999999716
100
AcDbArc
 50
180.0
 51
270.0
  0
ARC
  5
97
330
1F
100
AcDbEntity
  8
0
  6
Continuous
 62
     7
370
    15
100
AcDbCircle
 10
29.3470954809
 20
159.3976492288
 30
0.0
 40
0.2500000000000284
100
AcDbArc
 50
0.0
 51
90.0
  0
LINE
  5
98
330
1F
100
AcDbEntity
  8
0
  6
Continuous
 62
     7
370
    15
100
AcDbLine
 10
29.3470954809
 20
159.6476492288
 30
0.0
 11
24.2470954809
 21
159.6476492288
 31
0.0
  0
LINE
  5
99
330
1F
100
AcDbEntity
  8
0
  6
Continuous
 62
     7
370
    15
100
AcDbLine
 10
30.6470954809
 20
145.4915290798
 30
0.0
 11
30.6986246562
 21
145.40227793
 31
0.0
  0
LINE
  5
9A
330
1F
100
AcDbEntity
  8
0
  6
Continuous
 62
     7
370
    15
100
AcDbLine
 10
17.8636531372
 20
155.9532204837
 30
0.0
 11
17.5970954809
 21
155.4915290798
 31
0.0
  0
LINE
  5
9B
330
1F
100
AcDbEntity
  8
0
  6
Continuous
 62
     7
370
    15
100
AcDbLine
 10
22.5305378246
 20
145.029837676
 30
0.0
 11
22.7970954809
 21
145.4915290798
 31
0.0
  0
LINE
  5
9C
330
1F
100
AcDbEntity
  8
0
  6
Continuous
 62
     7
370
    15
100
AcDbLine
 10
17.5970954809
 20
145.4915290798
 30
0.0
 11
17.8636531372
 21
145.029837676
 31
0.0
  0
LINE
  5
9D
330
1F
100
AcDbEntity
  8
0
  6
Continuous
 62
     7
370
    15
100
AcDbLine
 10
30.2542699631
 20
145.2441480263
 30
0.0
 11
30.3970954809
 21
145.4915290798
 31
0.0
  0
LINE
  5
9E
330
1F
100
AcDbEntity
  8
0
  6
Continuous
 62
     7
370
    15
100
AcDbLine
 10
30.3970954809
 20
155.4915290798
 30
0.0
 11
30.2542699631
 21
155.7389101333
 31
0.0
  0
LINE
  5
9F
330
1F
100
AcDbEntity
  8
0
  6
Continuous
 62
     7
370
    15
100
AcDbLine
 10
25.3399209987
 20
155.7389101333
 30
0.0
 11
25.1970954809
 21
155.4915290798
 31
0.0
  0
LINE
  5
A0
330
1F
100
AcDbEntity
  8
0
  6
Continuous
 62
     7
370
    15
100
AcDbLine
 10
30.6470954809
 20
153.4915290798
 30
0.0
 11
30.3970954809
 21
153.4915290798
 31
0.0
  0
LINE
  5
A1
330
1F
100
AcDbEntity
  8
0
  6
Continuous
 62
     7
370
    15
100
AcDbLine
 10
30.3970954809
 20
147.4915290798
 30
0.0
 11
30.6470954809
 21
147.4915290798
 31
0.0
  0
SPLINE
  5
A2
330
1F
100
AcDbEntity
  8
0
  6
Continuous
 62
     7
370
    15
100
AcDbSpline
210
0.0
220
0.0
230
1.0
 70
     8
 71
     3
 72
    18
 73
    14
 74
     0
 42
0.00000001
 43
0.00000001
 12
1.0
 22
0.0
 32
0.0
 13
1.0
 23
0.0
 33
0.0
 40
0.0
 40
0.0
 40
0.0
 40
0.0
 40
0.188241270287374
 40
0.381955227389447
 40
0.4882613496623183
 40
0.626966792813636
 40
0.8568971772299765
 40
0.9601863096357994
 40
0.9871255464032774
 40
0.9917188240085232
 40
0.9956432209385233
 40
0.9991182811505932
 40
1.0
 40
1.0
 40
1.0
 40
1.0
 10
152.0839581009299
 20
409.6968760664461
 30
0.0
 10
152.4319216208257
 20
409.9988001604314
 30
0.0
 10
153.1379649085813
 20
410.6114261047661
 30
0.0
 10
154.2629792327253
 20
411.003902285616
 30
0.0
 10
155.2512189274868
 20
411.1842857316582
 30
0.0
 10
156.4488169940782
 20
411.0305062130877
 30
0.0
 10
157.5620454565784
 20
410.4594966123738
 30
0.0
 10
158.3917708989189
 20
410.0395085537265
 30
0.0
 10
158.6967307459062
 20
409.9005885606232
 30
0.0
 10
158.7613431001589
 20
409.8799333065755
 30
0.0
 10
158.7782605690182
 20
409.8766270883665
 30
0.0
 10
158.7871394973747
 20
409.8764930180598
 30
0.0
 10
158.7873664968199
 20
409.878813194832
 30
0.0
 10
158.78741243665
 20
409.8792827489602
 30
0.0
  0
SPLINE
  5
A3
330
1F
100
AcDbEntity
  8
0
  6
Continuous
 62
     7
370
    15
100
AcDbSpline
210
0.0
220
0.0
230
1.0
 70
     8
 71
     3
 72
    16
 73
    12
 74
     0
 42
0.00000001
 43
0.00000001
 12
1.0
 22
0.0
 32
0.0
 13
1.0
 23
0.0
 33
0.0
 40
0.0
 40
0.0
 40
0.0
 40
0.0
 40
0.0038719239001076
 40
0.0089796075241633
 40
0.014949592724148
 40
0.0308758844914328
 40
0.2297316329720562
 40
0.38866712706368
 40
0.5151478187867752
 40
0.7395154200312752
 40
1.0
 40
1.0
 40
1.0
 40
1.0
 10
640.6721129463089
 20
409.8729157872979
 30
0.0
 10
640.6736837245735
 20
409.8713791738684
 30
0.0
 10
640.6773266092705
 20
409.8678155228596
 30
0.0
 10
640.6957133445477
 20
409.869751655842
 30
0.0
 10
640.7394522058698
 20
409.8820945465024
 30
0.0
 10
641.1952996123316
 20
410.0812255233966
 30
0.0
 10
642.086299658222
 20
410.5719024132156
 30
0.0
 10
643.2394423366608
 20
411.0653564491837
 30
0.0
 10
644.4987991212486
 20
411.1912820238406
 30
0.0
 10
645.9210280594201
 20
410.8487343475271
 30
0.0
 10
646.8679086625442
 20
410.0994341263176
 30
0.0
 10
647.3766158639186
 20
409.6968760664491
 30
0.0
  0
SPLINE
  5
A4
330
1F
100
AcDbEntity
  8
0
  6
Continuous
 62
     7
370
    15
100
AcDbSpline
210
0.0
220
0.0
230
1.0
 70
     8
 71
     3
 72
    17
 73
    13
 74
     0
 42
0.00000001
 43
0.00000001
 12
1.0
 22
0.0
 32
0.0
 13
1.0
 23
0.0
 33
0.0
 40
0.0
 40
0.0
 40
0.0
 40
0.0
 40
0.0033775365232324
 40
0.0078188272435445
 40
0.0920049452888302
 40
0.1770662497700974
 40
0.31205263108322
 40
0.4242773761150713
 40
0.5051456312440956
 40
0.707022325314712
 40
0.8420640725829356
 40
1.0
 40
1.0
 40
1.0
 40
1.0
 10
158.7868338976684
 20
224.3565420675421
 30
0.0
 10
158.780964691209
 20
224.3525501574632
 30
0.0
 10
158.7673777733334
 20
224.3433090863261
 30
0.0
 10
158.5790625149657
 20
224.2275717222318
 30
0.0
 10
158.1764366346754
 20
224.0175284272059
 30
0.0
 10
157.4798463842988
 20
223.6741464813484
 30
0.0
 10
156.7077122553861
 20
223.3217855807636
 30
0.0
 10
155.889071354068
 20
223.0491140973849
 30
0.0
 10
154.9210334941992
 20
223.0334604440777
 30
0.0
 10
153.9708809701636
 20
223.2520636723125
 30
0.0
 10
152.8925498788018
 20
223.7613049540047
 30
0.0
 10
152.3670232936736
 20
224.2312990794812
 30
0.0
 10
152.0837268660748
 20
224.4846595383197
 30
0.0
  0
SPLINE
  5
A5
330
1F
100
AcDbEntity
  8
0
  6
Continuous
 62
     7
370
    15
100
AcDbSpline
210
0.0
220
0.0
230
1.0
 70
     8
 71
     3
 72
    16
 73
    12
 74
     0
 42
0.00000001
 43
0.00000001
 12
1.0
 22
0.0
 32
0.0
 13
1.0
 23
0.0
 33
0.0
 40
0.0
 40
0.0
 40
0.0
 40
0.0
 40
0.2919686686344738
 40
0.4941280122786262
 40
0.575109491858389
 40
0.6874913638753355
 40
0.854769450521938
 40
0.9450208633961877
 40
0.9800868194436272
 40
0.9921903640736441
 40
1.0
 40
1.0
 40
1.0
 40
1.0
 10
647.3768470987753
 20
224.4846595383182
 30
0.0
 10
646.8180356153226
 20
224.0464219724949
 30
0.0
 10
645.8723026062005
 20
223.3047483596416
 30
0.0
 10
644.5374500628162
 20
223.0358228552849
 30
0.0
 10
643.571969034836
 20
223.0484875043183
 30
0.0
 10
642.6728658254916
 20
223.3492169151608
 30
0.0
 10
641.8216421299619
 20
223.7486924154789
 30
0.0
 10
641.1502932290153
 20
224.0863605918787
 30
0.0
 10
640.8455579046282
 20
224.2534827976653
 30
0.0
 10
640.7253492248526
 20
224.3228071657023
 30
0.0
 10
640.6882785875429
 20
224.3470388014672
 30
0.0
 10
640.6737400671831
 20
224.3565420675421
 30
0.0
  0
LINE
  5
A6
330
1F
100
AcDbEntity
  8
0
  6
Continuous
 62
     7
370
    15
100
AcDbLine
 10
152.0034595765
 20
409.6052984888
 30
0.0
 11
152.1594820135
 21
409.7689196549
 31
0.0
  0
SPLINE
  5
A7
330
1F
100
AcDbEntity
  8
0
  6
Continuous
 62
     7
370
    15
100
AcDbSpline
210
0.0
220
0.0
230
1.0
 70
     8
 71
     3
 72
     9
 73
     5
 74
     0
 42
0.00000001
 43
0.00000001
 12
1.0
 22
0.0
 32
0.0
 13
1.0
 23
0.0
 33
0.0
 40
0.0
 40
0.0
 40
0.0
 40
0.0
 40
0.6164054655123333
 40
1.0
 40
1.0
 40
1.0
 40
1.0
 10
647.2955055761374
 20
409.7717133383535
 30
0.0
 10
647.3433232839607
 20
409.7261208854089
 30
0.0
 10
647.4208983712995
 20
409.6521558486019
 30
0.0
 10
647.4460575999767
 20
409.6205236159524
 30
0.0
 10
647.4557085425893
 20
409.6083896643943
 30
0.0
  0
LINE
  5
A8
330
1F
100
AcDbEntity
  8
0
  6
Continuous
 62
     7
370
    15
100
AcDbLine
 10
152.1382503113
 20
224.4300906566
 30
0.0
 11
152.0040804268
 21
224.5747017252
 31
0.0
  0
LINE
  5
A9
330
1F
100
AcDbEntity
  8
0
  6
Continuous
 62
     7
370
    15
100
AcDbLine
 10
647.4504563499
 20
224.5692200521
 30
0.0
 11
647.3189472117
 21
224.4271954187
 31
0.0
  0
LINE
  5
AA
330
1F
100
AcDbEntity
  8
0
  6
Continuous
 62
     7
370
    15
100
AcDbLine
 10
35.2270954809
 20
515.0415290798
 30
0.0
 11
35.2270954809
 21
119.1415290798
 31
0.0
  0
LINE
  5
AB
330
1F
100
AcDbEntity
  8
0
  6
Continuous
 62
     7
370
    15
100
AcDbLine
 10
35.2270954809
 20
515.0415290798
 30
0.0
 11
37.8076745234
 21
515.0415290798
 31
0.0
  0
LINE
  5
AC
330
1F
100
AcDbEntity
  8
0
  6
Continuous
 62
     7
370
    15
100
AcDbLine
 10
37.8076745234
 20
119.1415290798
 30
0.0
 11
35.2270954809
 21
119.1415290798
 31
0.0
  0
LINE
  5
AD
330
1F
100
AcDbEntity
  8
0
  6
Continuous
 62
     7
370
    15
100
AcDbLine
 10
37.8076745234
 20
119.1415290798
 30
0.0
 11
37.8076745234
 21
117.8915290798
 31
0.0
  0
LINE
  5
AE
330
1F
100
AcDbEntity
  8
0
  6
Continuous
 62
     7
370
    15
100
AcDbLine
 10
37.8076745234
 20
516.2915290798
 30
0.0
 11
37.8076745234
 21
515.0415290798
 31
0.0
  0
LINE
  5
AF
330
1F
100
AcDbEntity
  8
0
  6
Continuous
 62
     7
370
    15
100
AcDbLine
 10
37.8076745234
 20
117.8915290798
 30
0.0
 11
71.1046268445
 21
117.8915290798
 31
0.0
  0
LINE
  5
B0
330
1F
100
AcDbEntity
  8
0
  6
Continuous
 62
     7
370
    15
100
AcDbLine
 10
37.8076745234
 20
516.2915290798
 30
0.0
 11
71.1046268445
 21
516.2915290798
 31
0.0
  0
LINE
  5
B1
330
1F
100
AcDbEntity
  8
0
  6
Continuous
 62
     7
370
    15
100
AcDbLine
 10
37.6006192873
 20
516.2915290798
 30
0.0
 11
37.6006192873
 21
515.0415290798
 31
0.0
  0
LINE
  5
B2
330
1F
100
AcDbEntity
  8
0
  6
Continuous
 62
     7
370
    15
100
AcDbLine
 10
37.6006192873
 20
516.2915290798
 30
0.0
 11
37.8076745234
 21
516.2915290798
 31
0.0
  0
LINE
  5
B3
330
1F
100
AcDbEntity
  8
0
  6
Continuous
 62
     7
370
    15
100
AcDbLine
 10
37.6006192873
 20
119.1415290798
 30
0.0
 11
37.6006192873
 21
117.8915290798
 31
0.0
  0
LINE
  5
B4
330
1F
100
AcDbEntity
  8
0
  6
Continuous
 62
     7
370
    15
100
AcDbLine
 10
37.8076745234
 20
117.8915290798
 30
0.0
 11
37.6006192873
 21
117.8915290798
 31
0.0
  0
LINE
  5
B5
330
1F
100
AcDbEntity
  8
0
  6
Continuous
 62
     7
370
    15
100
AcDbLine
 10
37.7006192873
 20
517.0915290798
 30
0.0
 11
37.7006192873
 21
516.2915290798
 31
0.0
  0
LINE
  5
B6
330
1F
100
AcDbEntity
  8
0
  6
Continuous
 62
     7
370
    15
100
AcDbLine
 10
37.7006192873
 20
517.0915290798
 30
0.0
 11
70.8716897039
 21
517.0915290798
 31
0.0
  0
LINE
  5
B7
330
1F
100
AcDbEntity
  8
0
  6
Continuous
 62
     7
370
    15
100
AcDbLine
 10
37.7006192873
 20
117.0915290798
 30
0.0
 11
70.8716897039
 21
117.0915290798
 31
0.0
  0
LINE
  5
B8
330
1F
100
AcDbEntity
  8
0
  6
Continuous
 62
     7
370
    15
100
AcDbLine
 10
37.7006192873
 20
117.0915290798
 30
0.0
 11
37.7006192873
 21
117.8915290798
 31
0.0
  0
ARC
  5
B9
330
1F
100
AcDbEntity
  8
0
  6
Continuous
 62
     7
370
    15
100
AcDbCircle
 10
37.2770954809
 20
515.0415290798
 30
0.0
 40
2.049999999999997
100
AcDbArc
 50
90.0
 51
180.0
  0
ARC
  5
BA
330
1F
100
AcDbEntity
  8
0
  6
Continuous
 62
     7
370
    15
100
AcDbCircle
 10
37.2770954809
 20
515.0415290798
 30
0.0
 40
1.250000000000028
100
AcDbArc
 50
90.0
 51
180.0
  0
LINE
  5
BB
330
1F
100
AcDbEntity
  8
0
  6
Continuous
 62
     7
370
    15
100
AcDbLine
 10
37.2770954809
 20
516.2915290798
 30
0.0
 11
37.6006192873
 21
516.2915290798
 31
0.0
  0
LINE
  5
BC
330
1F
100
AcDbEntity
  8
0
  6
Continuous
 62
     7
370
    15
100
AcDbLine
 10
37.2770954809
 20
517.0915290798
 30
0.0
 11
37.7006192873
 21
517.0915290798
 31
0.0
  0
ARC
  5
BD
330
1F
100
AcDbEntity
  8
0
  6
Continuous
 62
     7
370
    15
100
AcDbCircle
 10
37.2770954809
 20
119.1415290798
 30
0.0
 40
2.049999999999997
100
AcDbArc
 50
180.0
 51
270.0
  0
ARC
  5
BE
330
1F
100
AcDbEntity
  8
0
  6
Continuous
 62
     7
370
    15
100
AcDbCircle
 10
37.2770954809
 20
119.1415290798
 30
0.0
 40
1.250000000000028
100
AcDbArc
 50
180.0
 51
270.0
  0
LINE
  5
BF
330
1F
100
AcDbEntity
  8
0
  6
Continuous
 62
     7
370
    15
100
AcDbLine
 10
37.2770954809
 20
117.0915290798
 30
0.0
 11
37.7006192873
 21
117.0915290798
 31
0.0
  0
LINE
  5
C0
330
1F
100
AcDbEntity
  8
0
  6
Continuous
 62
     7
370
    15
100
AcDbLine
 10
37.2770954809
 20
117.8915290798
 30
0.0
 11
37.6006192873
 21
117.8915290798
 31
0.0
  0
LINE
  5
C1
330
1F
100
AcDbEntity
  8
0
  6
Continuous
 62
     7
370
    15
100
AcDbLine
 10
71.1046268445
 20
516.2915290798
 30
0.0
 11
90.2270954809
 21
516.2915290798
 31
0.0
  0
LINE
  5
C2
330
1F
100
AcDbEntity
  8
0
  6
Continuous
 62
     7
370
    15
100
AcDbLine
 10
90.2270954809
 20
516.2915290798
 30
0.0
 11
90.2270954809
 21
117.8915290798
 31
0.0
  0
LINE
  5
C3
330
1F
100
AcDbEntity
  8
0
  6
Continuous
 62
     7
370
    15
100
AcDbLine
 10
71.1046268445
 20
117.8915290798
 30
0.0
 11
90.2270954809
 21
117.8915290798
 31
0.0
  0
LINE
  5
C4
330
1F
100
AcDbEntity
  8
0
  6
Continuous
 62
     7
370
    15
100
AcDbLine
 10
89.3270954809
 20
517.0915290798
 30
0.0
 11
89.3270954809
 21
516.2915290798
 31
0.0
  0
LINE
  5
C5
330
1F
100
AcDbEntity
  8
0
  6
Continuous
 62
     7
370
    15
100
AcDbLine
 10
70.8716897039
 20
517.0915290798
 30
0.0
 11
89.3270954809
 21
517.0915290798
 31
0.0
  0
LINE
  5
C6
330
1F
100
AcDbEntity
  8
0
  6
Continuous
 62
     7
370
    15
100
AcDbLine
 10
89.3270954809
 20
117.0915290798
 30
0.0
 11
89.3270954809
 21
117.8915290798
 31
0.0
  0
LINE
  5
C7
330
1F
100
AcDbEntity
  8
0
  6
Continuous
 62
     7
370
    15
100
AcDbLine
 10
70.8716897039
 20
117.0915290798
 30
0.0
 11
89.3270954809
 21
117.0915290798
 31
0.0
  0
LINE
  5
C8
330
1F
100
AcDbEntity
  8
0
  6
Continuous
 62
     7
370
    15
100
AcDbLine
 10
813.1507955988
 20
117.0915290798
 30
0.0
 11
800.4970954809
 21
117.0915290798
 31
0.0
  0
LINE
  5
C9
330
1F
100
AcDbEntity
  8
0
  6
Continuous
 62
     7
370
    15
100
AcDbLine
 10
808.5939086329
 20
285.0915290798
 30
0.0
 11
802.246169124
 21
285.0915290798
 31
0.0
  0
ARC
  5
CA
330
1F
100
AcDbEntity
  8
0
  6
Continuous
 62
     7
370
    15
100
AcDbCircle
 10
808.5316660571
 20
287.0330401906
 30
0.0
 40
1.94250856665525
100
AcDbArc
 50
271.8362067977
 51
1.7254354149
  0
LINE
  5
CB
330
1F
100
AcDbEntity
  8
0
  6
Continuous
 62
     7
370
    15
100
AcDbLine
 10
810.4732938745
 20
295.0915290798
 30
0.0
 11
810.4732938745
 21
287.0915290798
 31
0.0
  0
ARC
  5
CC
330
1F
100
AcDbEntity
  8
0
  6
Continuous
 62
     7
370
    15
100
AcDbCircle
 10
808.5316660571
 20
295.150017969
 30
0.0
 40
1.942508566655307
100
AcDbArc
 50
358.2745645851
 51
88.1637932023
  0
LINE
  5
CD
330
1F
100
AcDbEntity
  8
0
  6
Continuous
 62
     7
370
    15
100
AcDbLine
 10
801.7970954809
 20
297.0915290798
 30
0.0
 11
808.5939086329
 21
297.0915290798
 31
0.0
  0
LINE
  5
CE
330
1F
100
AcDbEntity
  8
0
  6
Continuous
 62
     7
370
    15
100
AcDbLine
 10
808.5939086329
 20
387.0915290798
 30
0.0
 11
802.2539728995
 21
387.0915290798
 31
0.0
  0
ARC
  5
CF
330
1F
100
AcDbEntity
  8
0
  6
Continuous
 62
     7
370
    15
100
AcDbCircle
 10
808.5316660571
 20
389.0330401906
 30
0.0
 40
1.942508566655307
100
AcDbArc
 50
271.8362067977
 51
1.7254354149
  0
LINE
  5
D0
330
1F
100
AcDbEntity
  8
0
  6
Continuous
 62
     7
370
    15
100
AcDbLine
 10
810.4732938745
 20
397.0915290798
 30
0.0
 11
810.4732938745
 21
389.0915290798
 31
0.0
  0
ARC
  5
D1
330
1F
100
AcDbEntity
  8
0
  6
Continuous
 62
     7
370
    15
100
AcDbCircle
 10
808.5316660571
 20
397.150017969
 30
0.0
 40
1.94250856665519
100
AcDbArc
 50
358.2745645851
 51
88.1637932023
  0
LINE
  5
D2
330
1F
100
AcDbEntity
  8
0
  6
Continuous
 62
     7
370
    15
100
AcDbLine
 10
801.7970954809
 20
399.0915290798
 30
0.0
 11
808.5939086329
 21
399.0915290798
 31
0.0
  0
LINE
  5
D3
330
1F
100
AcDbEntity
  8
0
  6
Continuous
 62
     7
370
    15
100
AcDbLine
 10
813.1507955988
 20
517.0915290798
 30
0.0
 11
800.4970954809
 21
517.0915290798
 31
0.0
  0
ARC
  5
D4
330
1F
100
AcDbEntity
  8
0
  6
Continuous
 62
     7
370
    15
100
AcDbCircle
 10
808.5282458556
 20
397.150017969
 30
0.0
 40
1.942508566655357
100
AcDbArc
 50
358.2745645851
 51
88.1637932023
  0
LINE
  5
D5
330
1F
100
AcDbEntity
  8
0
  6
Continuous
 62
     7
370
    15
100
AcDbLine
 10
810.4698736731
 20
397.0915290798
 30
0.0
 11
810.4698736731
 21
389.0915290798
 31
0.0
  0
ARC
  5
D6
330
1F
100
AcDbEntity
  8
0
  6
Continuous
 62
     7
370
    15
100
AcDbCircle
 10
808.5282458556
 20
389.0330401906
 30
0.0
 40
1.942508566655467
100
AcDbArc
 50
271.8362067977
 51
1.7254354149
  0
ARC
  5
D7
330
1F
100
AcDbEntity
  8
0
  6
Continuous
 62
     7
370
    15
100
AcDbCircle
 10
808.5282458556
 20
295.150017969
 30
0.0
 40
1.942508566655355
100
AcDbArc
 50
358.2745645851
 51
88.1637932023
  0
LINE
  5
D8
330
1F
100
AcDbEntity
  8
0
  6
Continuous
 62
     7
370
    15
100
AcDbLine
 10
810.4698736731
 20
295.0915290798
 30
0.0
 11
810.4698736731
 21
287.0915290798
 31
0.0
  0
ARC
  5
D9
330
1F
100
AcDbEntity
  8
0
  6
Continuous
 62
     7
370
    15
100
AcDbCircle
 10
808.5282458556
 20
287.0330401906
 30
0.0
 40
1.942508566655355
100
AcDbArc
 50
271.8362067977
 51
1.7254354149
  0
ARC
  5
DA
330
1F
100
AcDbEntity
  8
0
  6
Continuous
 62
     7
370
    15
100
AcDbCircle
 10
808.562787345
 20
389.0622846352
 30
0.0
 40
0.9712542833278027
100
AcDbArc
 50
271.8362067977
 51
1.7254354149
  0
LINE
  5
DB
330
1F
100
AcDbEntity
  8
0
  6
Continuous
 62
     7
370
    15
100
AcDbLine
 10
808.5939086329
 20
388.0915290798
 30
0.0
 11
801.9433500422
 21
388.0915290798
 31
0.0
  0
LINE
  5
DC
330
1F
100
AcDbEntity
  8
0
  6
Continuous
 62
     7
370
    15
100
AcDbLine
 10
801.7970954809
 20
398.0915290798
 30
0.0
 11
808.5939086329
 21
398.0915290798
 31
0.0
  0
ARC
  5
DD
330
1F
100
AcDbEntity
  8
0
  6
Continuous
 62
     7
370
    15
100
AcDbCircle
 10
808.562787345
 20
397.1207735244
 30
0.0
 40
0.9712542833276249
100
AcDbArc
 50
358.2745645851
 51
88.1637932023
  0
LINE
  5
DE
330
1F
100
AcDbEntity
  8
0
  6
Continuous
 62
     7
370
    15
100
AcDbLine
 10
809.5336012537
 20
397.0915290798
 30
0.0
 11
809.5336012537
 21
389.0915290798
 31
0.0
  0
ARC
  5
DF
330
1F
100
AcDbEntity
  8
0
  6
Continuous
 62
     7
370
    15
100
AcDbCircle
 10
801.951677109
 20
393.2010684662
 30
0.0
 40
2.885540928618891
100
AcDbArc
 50
357.8244450314
 51
93.0708684848
  0
ARC
  5
E0
330
1F
100
AcDbEntity
  8
0
  6
Continuous
 62
     7
370
    15
100
AcDbCircle
 10
801.9371141051
 20
392.996782058
 30
0.0
 40
2.899572444629396
100
AcDbArc
 50
267.2321445523
 51
1.8725419316
  0
LINE
  5
E1
330
1F
100
AcDbEntity
  8
0
  6
Continuous
 62
     7
370
    15
100
AcDbLine
 10
801.7970954809
 20
296.0915290798
 30
0.0
 11
808.5939086329
 21
296.0915290798
 31
0.0
  0
ARC
  5
E2
330
1F
100
AcDbEntity
  8
0
  6
Continuous
 62
     7
370
    15
100
AcDbCircle
 10
808.562787345
 20
295.1207735244
 30
0.0
 40
0.971254283327568
100
AcDbArc
 50
358.2745645851
 51
88.1637932023
  0
LINE
  5
E3
330
1F
100
AcDbEntity
  8
0
  6
Continuous
 62
     7
370
    15
100
AcDbLine
 10
809.5336012537
 20
295.0915290798
 30
0.0
 11
809.5336012537
 21
287.0915290798
 31
0.0
  0
ARC
  5
E4
330
1F
100
AcDbEntity
  8
0
  6
Continuous
 62
     7
370
    15
100
AcDbCircle
 10
808.562787345
 20
287.0622846352
 30
0.0
 40
0.9712542833276249
100
AcDbArc
 50
271.8362067977
 51
1.7254354149
  0
LINE
  5
E5
330
1F
100
AcDbEntity
  8
0
  6
Continuous
 62
     7
370
    15
100
AcDbLine
 10
808.5939086329
 20
286.0915290798
 30
0.0
 11
801.9448868954
 21
286.0915290798
 31
0.0
  0
LWPOLYLINE
  5
E6
330
1F
100
AcDbEntity
  8
0
  6
Continuous
 62
     7
370
    15
100
AcDbPolyline
 90
       19
 70
   128
 43
0.0
 10
807.6542160121
 20
291.0915290798
 10
807.4842048145
 20
292.1175895098
 10
806.994677081
 20
293.0198919089
 10
806.244677081
 20
293.6896052912
 10
805.3246658833
 20
294.0459523389
 10
804.3456104163
 20
294.0459523389
 10
803.4255992186
 20
293.6896052912
 10
802.6755992186
 20
293.0198919089
 10
802.1860714851
 20
292.1175895098
 10
802.0160602874
 20
291.0915290798
 10
802.1860714851
 20
290.0654686498
 10
802.6755992186
 20
289.1631662508
 10
803.4255992186
 20
288.4934528685
 10
804.3456104163
 20
288.1371058208
 10
805.3246658833
 20
288.1371058208
 10
806.244677081
 20
288.4934528685
 10
806.994677081
 20
289.1631662508
 10
807.4842048145
 20
290.0654686498
 10
807.6542160121
 20
291.0915290798
  0
ARC
  5
E7
330
1F
100
AcDbEntity
  8
0
  6
Continuous
 62
     7
370
    15
100
AcDbCircle
 10
801.9373113976
 20
393.1962099349
 30
0.0
 40
2.896298907604435
100
AcDbArc
 50
357.9287090245
 51
88.509648763
  0
ARC
  5
E8
330
1F
100
AcDbEntity
  8
0
  6
Continuous
 62
     7
370
    15
100
AcDbCircle
 10
801.9220843043
 20
393.001157012
 30
0.0
 40
2.911036766074008
100
AcDbArc
 50
271.7826299325
 51
1.7790122801
  0
LINE
  5
E9
330
1F
100
AcDbEntity
  8
0
  6
Continuous
 62
     7
370
    15
100
AcDbLine
 10
802.012640086
 20
395.0915290798
 30
0.0
 11
801.7970954809
 21
395.0783319978
 31
0.0
  0
LINE
  5
EA
330
1F
100
AcDbEntity
  8
0
  6
Continuous
 62
     7
370
    15
100
AcDbLine
 10
801.7970954809
 20
391.1047261618
 30
0.0
 11
802.012640086
 21
391.0915290798
 31
0.0
  0
ARC
  5
EB
330
1F
100
AcDbEntity
  8
0
  6
Continuous
 62
     7
370
    15
100
AcDbCircle
 10
801.9846494421
 20
393.1745287494
 30
0.0
 40
1.912597874847437
100
AcDbArc
 50
357.5127941263
 51
95.6276064441
  0
ARC
  5
EC
330
1F
100
AcDbEntity
  8
0
  6
Continuous
 62
     7
370
    15
100
AcDbCircle
 10
801.97423581
 20
393.019530051
 30
0.0
 40
1.922558359220672
100
AcDbArc
 50
264.7133939186
 51
2.1462055111
  0
ARC
  5
ED
330
1F
100
AcDbEntity
  8
0
  6
Continuous
 62
     7
370
    15
100
AcDbCircle
 10
804.75638926
 20
291.1962099349
 30
0.0
 40
2.896298907604774
100
AcDbArc
 50
357.9287090245
 51
88.509648763
  0
ARC
  5
EE
330
1F
100
AcDbEntity
  8
0
  6
Continuous
 62
     7
370
    15
100
AcDbCircle
 10
804.7411621666
 20
291.001157012
 30
0.0
 40
2.911036766074055
100
AcDbArc
 50
271.7826299325
 51
1.7790122801
  0
ARC
  5
EF
330
1F
100
AcDbEntity
  8
0
  6
Continuous
 62
     7
370
    15
100
AcDbCircle
 10
804.9152752763
 20
291.0915290798
 30
0.0
 40
2.001744695771902
100
AcDbArc
 50
92.3923498518
 51
267.6076501482
  0
LWPOLYLINE
  5
F0
330
1F
100
AcDbEntity
  8
0
  6
Continuous
 62
     7
370
    15
100
AcDbPolyline
 90
       17
 70
   128
 43
0.0
 10
806.7145233913
 20
291.0915290798
 10
806.5714637082
 20
291.8568959445
 10
806.1640641986
 20
292.5057426422
 10
805.5543477448
 20
292.9392881448
 10
804.8351381498
 20
293.0915290798
 10
804.1159285548
 20
292.9392881448
 10
803.506212101
 20
292.5057426422
 10
803.0988125914
 20
291.8568959445
 10
802.9557529082
 20
291.0915290798
 10
803.0988125914
 20
290.3261622151
 10
803.506212101
 20
289.6773155174
 10
804.1159285548
 20
289.2437700148
 10
804.8351381498
 20
289.0915290798
 10
805.5543477448
 20
289.2437700148
 10
806.1640641986
 20
289.6773155174
 10
806.5714637082
 20
290.3261622151
 10
806.7145233913
 20
291.0915290798
  0
LINE
  5
F1
330
1F
100
AcDbEntity
  8
0
  6
Continuous
 62
     7
370
    15
100
AcDbLine
 10
820.2569780509
 20
517.0915290798
 30
0.0
 11
813.1507955988
 21
517.0915290798
 31
0.0
  0
LINE
  5
F2
330
1F
100
AcDbEntity
  8
0
  6
Continuous
 62
     7
370
    15
100
AcDbLine
 10
820.2569780509
 20
117.0915290798
 30
0.0
 11
813.1507955988
 21
117.0915290798
 31
0.0
  0
LWPOLYLINE
  5
F3
330
1F
100
AcDbEntity
  8
0
  6
Continuous
 62
     7
370
    15
100
AcDbPolyline
 90
        9
 70
   128
 43
0.0
 10
681.4771698717
 20
166.8517172584
 10
681.5354846921
 20
166.8201364778
 10
681.5941378115
 20
166.8403016581
 10
681.6500932
 20
166.9111689996
 10
681.7004544685
 20
167.029070234
 10
681.7426147935
 20
167.1879025027
 10
681.7743918528
 20
167.3794442556
 10
681.7941407872
 20
167.5937808192
 10
681.8008393432
 20
167.8198176043
  0
LINE
  5
F4
330
1F
100
AcDbEntity
  8
0
  6
Continuous
 62
     7
370
    15
100
AcDbLine
 10
680.0281852399
 20
168.3007018902
 30
0.0
 11
681.4771698717
 21
166.8517172584
 31
0.0
  0
LINE
  5
F5
330
1F
100
AcDbEntity
  8
0
  6
Continuous
 62
     7
370
    15
100
AcDbLine
 10
680.0281852399
 20
465.8823562695
 30
0.0
 11
681.4771698717
 21
467.3313409013
 31
0.0
  0
LWPOLYLINE
  5
F6
330
1F
100
AcDbEntity
  8
0
  6
Continuous
 62
     7
370
    15
100
AcDbPolyline
 90
        9
 70
   128
 43
0.0
 10
681.8008393432
 20
466.3632405554
 10
681.7941407872
 20
466.5892773405
 10
681.7743918528
 20
466.8036139041
 10
681.7426147935
 20
466.995155657
 10
681.7004544685
 20
467.1539879256
 10
681.6500932
 20
467.27188916
 10
681.5941378115
 20
467.3427565016
 10
681.5354846921
 20
467.3629216818
 10
681.4771698717
 20
467.3313409013
  0
LINE
  5
F7
330
1F
100
AcDbEntity
  8
0
  6
Continuous
 62
     7
370
    15
100
AcDbLine
 10
681.8008393432
 20
466.3632405554
 30
0.0
 11
681.8008393432
 21
167.8198176043
 31
0.0
  0
LINE
  5
F8
330
1F
100
AcDbEntity
  8
0
  6
Continuous
 62
     7
370
    15
100
AcDbLine
 10
682.5735800043
 20
466.3632405554
 30
0.0
 11
682.5735800043
 21
167.8198176043
 31
0.0
  0
ARC
  5
F9
330
1F
100
AcDbEntity
  8
0
  6
Continuous
 62
     7
370
    15
100
AcDbCircle
 10
681.2933417822
 20
466.5653841703
 30
0.0
 40
1.296098740984911
100
AcDbArc
 50
351.0273411718
 51
37.9942962263
  0
LINE
  5
FA
330
1F
100
AcDbEntity
  8
0
  6
Continuous
 62
     7
370
    15
100
AcDbLine
 10
119.4394597928
 20
465.8894273373
 30
0.0
 11
117.990475161
 21
467.3384119691
 31
0.0
  0
LWPOLYLINE
  5
FB
330
1F
100
AcDbEntity
  8
0
  6
Continuous
 62
     7
370
    15
100
AcDbPolyline
 90
        9
 70
   128
 43
0.0
 10
118.9585755069
 20
467.6620814406
 10
118.7325387218
 20
467.6553828846
 10
118.5182021582
 20
467.6356339501
 10
118.3266604053
 20
467.6038568909
 10
118.1678281366
 20
467.5616965659
 10
118.0499269022
 20
467.5113352974
 10
117.9790595607
 20
467.4553799089
 10
117.9588943804
 20
467.3967267895
 10
117.990475161
 20
467.3384119691
  0
LINE
  5
FC
330
1F
100
AcDbEntity
  8
0
  6
Continuous
 62
     7
370
    15
100
AcDbLine
 10
118.9585755069
 20
467.6620814406
 30
0.0
 11
680.501998458
 21
467.6620814406
 31
0.0
  0
LWPOLYLINE
  5
FD
330
1F
100
AcDbEntity
  8
0
  6
Continuous
 62
     7
370
    15
100
AcDbPolyline
 90
        9
 70
   128
 43
0.0
 10
681.4700988039
 20
467.3384119691
 10
681.5016795844
 20
467.3967267895
 10
681.4815144042
 20
467.4553799089
 10
681.4106470627
 20
467.5113352974
 10
681.2927458282
 20
467.5616965659
 10
681.1339135596
 20
467.6038568909
 10
680.9423718067
 20
467.6356339501
 10
680.7280352431
 20
467.6553828846
 10
680.501998458
 20
467.6620814406
  0
LINE
  5
FE
330
1F
100
AcDbEntity
  8
0
  6
Continuous
 62
     7
370
    15
100
AcDbLine
 10
680.0211141721
 20
465.8894273373
 30
0.0
 11
681.4700988039
 21
467.3384119691
 31
0.0
  0
LINE
  5
FF
330
1F
100
AcDbEntity
  8
0
  6
Continuous
 62
     7
370
    15
100
AcDbLine
 10
118.9585755069
 20
468.4348221017
 30
0.0
 11
680.501998458
 21
468.4348221017
 31
0.0
  0
LWPOLYLINE
  5
100
330
1F
100
AcDbEntity
  8
0
  6
Continuous
 62
     7
370
    15
100
AcDbPolyline
 90
        8
 70
   128
 43
0.0
 10
680.501998458
 20
468.4348221017
 10
680.7280352431
 20
468.4281235456
 10
680.9423718067
 20
468.4083746112
 10
681.1339135596
 20
468.376597552
 10
681.2927458282
 20
468.3344372269
 10
681.4106470627
 20
468.2840759584
 10
681.4815144042
 20
468.22812057
 10
681.501998458
 20
468.1760030566
  0
LINE
  5
101
330
1F
100
AcDbEntity
  8
0
  6
Continuous
 62
     7
370
    15
100
AcDbLine
 10
119.432388725
 20
168.3007018902
 30
0.0
 11
117.9834040932
 21
166.8517172584
 31
0.0
  0
LWPOLYLINE
  5
102
330
1F
100
AcDbEntity
  8
0
  6
Continuous
 62
     7
370
    15
100
AcDbPolyline
 90
        9
 70
   128
 43
0.0
 10
117.6597346216
 20
167.8198176043
 10
117.6664331777
 20
167.5937808192
 10
117.6861821121
 20
167.3794442556
 10
117.7179591713
 20
167.1879025027
 10
117.7601194964
 20
167.029070234
 10
117.8104807649
 20
166.9111689996
 10
117.8664361533
 20
166.8403016581
 10
117.9250892728
 20
166.8201364778
 10
117.9834040932
 20
166.8517172584
  0
LINE
  5
103
330
1F
100
AcDbEntity
  8
0
  6
Continuous
 62
     7
370
    15
100
AcDbLine
 10
117.6597346216
 20
167.8198176043
 30
0.0
 11
117.6597346216
 21
466.3632405554
 31
0.0
  0
LWPOLYLINE
  5
104
330
1F
100
AcDbEntity
  8
0
  6
Continuous
 62
     7
370
    15
100
AcDbPolyline
 90
        9
 70
   128
 43
0.0
 10
117.9834040932
 20
467.3313409013
 10
117.9250892728
 20
467.3629216818
 10
117.8664361533
 20
467.3427565016
 10
117.8104807649
 20
467.27188916
 10
117.7601194964
 20
467.1539879256
 10
117.7179591713
 20
466.995155657
 10
117.6861821121
 20
466.8036139041
 10
117.6664331777
 20
466.5892773405
 10
117.6597346216
 20
466.3632405554
  0
LINE
  5
105
330
1F
100
AcDbEntity
  8
0
  6
Continuous
 62
     7
370
    15
100
AcDbLine
 10
119.432388725
 20
465.8823562695
 30
0.0
 11
117.9834040932
 21
467.3313409013
 31
0.0
  0
ARC
  5
106
330
1F
100
AcDbEntity
  8
0
  6
Continuous
 62
     7
370
    15
100
AcDbCircle
 10
118.756431892
 20
467.1545838796
 30
0.0
 40
1.296098740985677
100
AcDbArc
 50
81.0273411718
 51
127.9942962263
  0
LINE
  5
107
330
1F
100
AcDbEntity
  8
0
  6
Continuous
 62
     7
370
    15
100
AcDbLine
 10
116.8869939606
 20
167.8198176043
 30
0.0
 11
116.8869939606
 21
466.3632405554
 31
0.0
  0
LWPOLYLINE
  5
108
330
1F
100
AcDbEntity
  8
0
  6
Continuous
 62
     7
370
    15
100
AcDbPolyline
 90
        8
 70
   128
 43
0.0
 10
116.8869939606
 20
466.3632405554
 10
116.8936925166
 20
466.5892773405
 10
116.9134414511
 20
466.8036139041
 10
116.9452185103
 20
466.995155657
 10
116.9873788353
 20
467.1539879256
 10
117.0377401038
 20
467.27188916
 10
117.0936954923
 20
467.3427565016
 10
117.1458130057
 20
467.3632405554
  0
LWPOLYLINE
  5
109
330
1F
100
AcDbEntity
  8
0
  6
Continuous
 62
     7
370
    15
100
AcDbPolyline
 90
        8
 70
   128
 43
0.0
 10
682.5735800043
 20
167.8198176043
 10
682.5668814482
 20
167.5937808192
 10
682.5471325138
 20
167.3794442556
 10
682.5153554546
 20
167.1879025027
 10
682.4731951295
 20
167.029070234
 10
682.422833861
 20
166.9111689996
 10
682.3668784726
 20
166.8403016581
 10
682.3147609592
 20
166.8198176043
  0
ARC
  5
10A
330
1F
100
AcDbEntity
  8
0
  6
Continuous
 62
     7
370
    15
100
AcDbCircle
 10
118.1672321827
 20
167.6176739894
 30
0.0
 40
1.296098740984999
100
AcDbArc
 50
171.0273411718
 51
217.9942962263
  0
LWPOLYLINE
  5
10B
330
1F
100
AcDbEntity
  8
0
  6
Continuous
 62
     7
370
    15
100
AcDbPolyline
 90
        9
 70
   128
 43
0.0
 10
117.990475161
 20
166.8446461906
 10
117.9588943804
 20
166.7863313702
 10
117.9790595607
 20
166.7276782507
 10
118.0499269022
 20
166.6717228623
 10
118.1678281366
 20
166.6213615938
 10
118.3266604053
 20
166.5792012687
 10
118.5182021582
 20
166.5474242095
 10
118.7325387218
 20
166.5276752751
 10
118.9585755069
 20
166.520976719
  0
LWPOLYLINE
  5
10C
330
1F
100
AcDbEntity
  8
0
  6
Continuous
 62
     7
370
    15
100
AcDbPolyline
 90
        8
 70
   128
 43
0.0
 10
118.9585755069
 20
165.748236058
 10
118.7325387218
 20
165.754934614
 10
118.5182021582
 20
165.7746835485
 10
118.3266604053
 20
165.8064606077
 10
118.1678281366
 20
165.8486209327
 10
118.0499269022
 20
165.8989822012
 10
117.9790595607
 20
165.9549375897
 10
117.9585755069
 20
166.0070551031
  0
LINE
  5
10D
330
1F
100
AcDbEntity
  8
0
  6
Continuous
 62
     7
370
    15
100
AcDbLine
 10
680.501998458
 20
165.748236058
 30
0.0
 11
118.9585755069
 21
165.748236058
 31
0.0
  0
LINE
  5
10E
330
1F
100
AcDbEntity
  8
0
  6
Continuous
 62
     7
370
    15
100
AcDbLine
 10
680.501998458
 20
166.520976719
 30
0.0
 11
118.9585755069
 21
166.520976719
 31
0.0
  0
LINE
  5
10F
330
1F
100
AcDbEntity
  8
0
  6
Continuous
 62
     7
370
    15
100
AcDbLine
 10
680.0211141721
 20
168.2936308224
 30
0.0
 11
681.4700988039
 21
166.8446461906
 31
0.0
  0
LWPOLYLINE
  5
110
330
1F
100
AcDbEntity
  8
0
  6
Continuous
 62
     7
370
    15
100
AcDbPolyline
 90
        9
 70
   128
 43
0.0
 10
680.501998458
 20
166.520976719
 10
680.7280352431
 20
166.5276752751
 10
680.9423718067
 20
166.5474242095
 10
681.1339135596
 20
166.5792012687
 10
681.2927458282
 20
166.6213615938
 10
681.4106470627
 20
166.6717228623
 10
681.4815144042
 20
166.7276782507
 10
681.5016795844
 20
166.7863313702
 10
681.4700988039
 20
166.8446461906
  0
LINE
  5
111
330
1F
100
AcDbEntity
  8
0
  6
Continuous
 62
     7
370
    15
100
AcDbLine
 10
119.4394597928
 20
168.2936308224
 30
0.0
 11
117.990475161
 21
166.8446461906
 31
0.0
  0
ARC
  5
112
330
1F
100
AcDbEntity
  8
0
  6
Continuous
 62
     7
370
    15
100
AcDbCircle
 10
680.7041420729
 20
167.0284742801
 30
0.0
 40
1.296098740986101
100
AcDbArc
 50
261.0273411718
 51
307.9942962263
  0
SPLINE
  5
113
330
1F
100
AcDbEntity
  8
0
  6
Continuous
 62
     7
370
    15
100
AcDbSpline
210
0.0
220
0.0
230
1.0
 70
     8
 71
     3
 72
    11
 73
     7
 74
     0
 42
0.00000001
 43
0.00000001
 12
1.0
 22
0.0
 32
0.0
 13
1.0
 23
0.0
 33
0.0
 40
0.0
 40
0.0
 40
0.0
 40
0.0
 40
0.1666876115321208
 40
0.4234632622664699
 40
0.7478325777153364
 40
1.0
 40
1.0
 40
1.0
 40
1.0
 10
680.0211141720791
 20
168.2936308223535
 30
0.0
 10
679.9685480514581
 20
168.335703220599
 30
0.0
 10
679.8350059080539
 20
168.4425864787407
 30
0.0
 10
679.4877001982003
 20
168.7868794850228
 30
0.0
 10
679.0520171296658
 20
169.2575453772423
 30
0.0
 10
678.7231412502239
 20
169.5949461623865
 30
0.0
 10
678.5792965004573
 20
169.7425195617871
 30
0.0
  0
SPLINE
  5
114
330
1F
100
AcDbEntity
  8
0
  6
Continuous
 62
     7
370
    15
100
AcDbSpline
210
0.0
220
0.0
230
1.0
 70
     8
 71
     3
 72
    10
 73
     6
 74
     0
 42
0.00000001
 43
0.00000001
 12
1.0
 22
0.0
 32
0.0
 13
1.0
 23
0.0
 33
0.0
 40
0.0
 40
0.0
 40
0.0
 40
0.0
 40
0.3386527876105955
 40
0.7019600708563857
 40
1.0
 40
1.0
 40
1.0
 40
1.0
 10
120.8812774643942
 20
169.742519561787
 30
0.0
 10
120.6957921908379
 20
169.5401678244984
 30
0.0
 10
120.3113180021355
 20
169.1207328012486
 30
0.0
 10
119.8137213407063
 20
168.5585130054036
 30
0.0
 10
119.5557266056142
 20
168.37591821568
 30
0.0
 10
119.4394597927724
 20
168.2936308223535
 30
0.0
  0
SPLINE
  5
115
330
1F
100
AcDbEntity
  8
0
  6
Continuous
 62
     7
370
    15
100
AcDbSpline
210
0.0
220
0.0
230
1.0
 70
     8
 71
     3
 72
    11
 73
     7
 74
     0
 42
0.00000001
 43
0.00000001
 12
1.0
 22
0.0
 32
0.0
 13
1.0
 23
0.0
 33
0.0
 40
0.0
 40
0.0
 40
0.0
 40
0.0
 40
0.2856667463918094
 40
0.5466869760397388
 40
0.7842651615872417
 40
1.0
 40
1.0
 40
1.0
 40
1.0
 10
678.5792965004574
 20
464.4405385978505
 30
0.0
 10
678.7369736074312
 20
464.6122380603271
 30
0.0
 10
679.0387238877527
 20
464.9408232425879
 30
0.0
 10
679.434518397656
 20
465.3836100008797
 30
0.0
 10
679.7665109025592
 20
465.7207625414032
 30
0.0
 10
679.939017212656
 20
465.8350412843099
 30
0.0
 10
680.021114172079
 20
465.8894273372841
 30
0.0
  0
SPLINE
  5
116
330
1F
100
AcDbEntity
  8
0
  6
Continuous
 62
     7
370
    15
100
AcDbSpline
210
0.0
220
0.0
230
1.0
 70
     8
 71
     3
 72
    11
 73
     7
 74
     0
 42
0.00000001
 43
0.00000001
 12
1.0
 22
0.0
 32
0.0
 13
1.0
 23
0.0
 33
0.0
 40
0.0
 40
0.0
 40
0.0
 40
0.0
 40
0.1666876115360797
 40
0.4234632622607207
 40
0.7478325777451846
 40
1.0
 40
1.0
 40
1.0
 40
1.0
 10
119.4394597927724
 20
465.8894273372839
 30
0.0
 10
119.4920259133853
 20
465.847354939035
 30
0.0
 10
119.6255680567632
 20
465.7404716808883
 30
0.0
 10
119.9728737666916
 20
465.3961786746152
 30
0.0
 10
120.4085568352321
 20
464.9255127824123
 30
0.0
 10
120.7374327146545
 20
464.588111997243
 30
0.0
 10
120.8812774643941
 20
464.4405385978504
 30
0.0
  0
SPLINE
  5
117
330
1F
100
AcDbEntity
  8
0
  6
Continuous
 62
     7
370
    15
100
AcDbSpline
210
0.0
220
0.0
230
1.0
 70
     8
 71
     3
 72
    11
 73
     7
 74
     0
 42
0.00000001
 43
0.00000001
 12
1.0
 22
0.0
 32
0.0
 13
1.0
 23
0.0
 33
0.0
 40
0.0
 40
0.0
 40
0.0
 40
0.0
 40
0.2856667461692339
 40
0.5466869757399472
 40
0.7842651613604923
 40
1.0
 40
1.0
 40
1.0
 40
1.0
 10
678.5792965004576
 20
169.7425195617871
 30
0.0
 10
678.7509959627596
 20
169.5848424548897
 30
0.0
 10
679.0795811447618
 20
169.2830921746449
 30
0.0
 10
679.5223679030127
 20
168.8872976648256
 30
0.0
 10
679.8595204438216
 20
168.5553051598543
 30
0.0
 10
679.9737991868418
 20
168.3827988496647
 30
0.0
 10
680.0281852398912
 20
168.3007018901657
 30
0.0
  0
SPLINE
  5
118
330
1F
100
AcDbEntity
  8
0
  6
Continuous
 62
     7
370
    15
100
AcDbSpline
210
0.0
220
0.0
230
1.0
 70
     8
 71
     3
 72
    11
 73
     7
 74
     0
 42
0.00000001
 43
0.00000001
 12
1.0
 22
0.0
 32
0.0
 13
1.0
 23
0.0
 33
0.0
 40
0.0
 40
0.0
 40
0.0
 40
0.0
 40
0.1666876115322585
 40
0.42346326221724
 40
0.7478325776522937
 40
1.0
 40
1.0
 40
1.0
 40
1.0
 10
680.0281852398911
 20
465.8823562694722
 30
0.0
 10
679.9861128416416
 20
465.8297901488692
 30
0.0
 10
679.8792295835025
 20
465.6962480055268
 30
0.0
 10
679.5349365772458
 20
465.348942295705
 30
0.0
 10
679.0642706850444
 20
464.9132592271564
 30
0.0
 10
678.7268698998877
 20
464.584383347663
 30
0.0
 10
678.5792965004575
 20
464.4405385978503
 30
0.0
  0
SPLINE
  5
119
330
1F
100
AcDbEntity
  8
0
  6
Continuous
 62
     7
370
    15
100
AcDbSpline
210
0.0
220
0.0
230
1.0
 70
     8
 71
     3
 72
    11
 73
     7
 74
     0
 42
0.00000001
 43
0.00000001
 12
1.0
 22
0.0
 32
0.0
 13
1.0
 23
0.0
 33
0.0
 40
0.0
 40
0.0
 40
0.0
 40
0.0
 40
0.2187102116061185
 40
0.4572394290319505
 40
0.7172432791078012
 40
1.0
 40
1.0
 40
1.0
 40
1.0
 10
119.4323887249605
 20
168.3007018901655
 30
0.0
 10
119.4877877609886
 20
168.3837200097163
 30
0.0
 10
119.6036059636066
 20
168.5572791558761
 30
0.0
 10
119.9445945713032
 20
168.8901240629019
 30
0.0
 10
120.3868375271873
 20
169.2848846514156
 30
0.0
 10
120.7119215748187
 20
169.5857701539935
 30
0.0
 10
120.881277464394
 20
169.7425195617871
 30
0.0
  0
SPLINE
  5
11A
330
1F
100
AcDbEntity
  8
0
  6
Continuous
 62
     7
370
    15
100
AcDbSpline
210
0.0
220
0.0
230
1.0
 70
     8
 71
     3
 72
    11
 73
     7
 74
     0
 42
0.00000001
 43
0.00000001
 12
1.0
 22
0.0
 32
0.0
 13
1.0
 23
0.0
 33
0.0
 40
0.0
 40
0.0
 40
0.0
 40
0.0
 40
0.3124658421212095
 40
0.5816919716820381
 40
0.8097330877616663
 40
1.0
 40
1.0
 40
1.0
 40
1.0
 10
120.8812774643941
 20
464.4405385978505
 30
0.0
 10
120.6974407706556
 20
464.6187513805858
 30
0.0
 10
120.3552071104183
 20
464.9505154680282
 30
0.0
 10
119.9084039859019
 20
465.3672175908749
 30
0.0
 10
119.590106616428
 20
465.6871165742168
 30
0.0
 10
119.4816981759656
 20
465.8213158757803
 30
0.0
 10
119.4323887249606
 20
465.8823562694724
 30
0.0
  0
ARC
  5
11B
330
1F
100
AcDbEntity
  8
0
  6
Continuous
 62
     7
370
    15
100
AcDbCircle
 10
259.7302869824
 20
317.0915290798
 30
0.0
 40
75.95000000000003
100
AcDbArc
 50
3.2766034969
 51
86.8406161213
  0
ARC
  5
11C
330
1F
100
AcDbEntity
  8
0
  6
Continuous
 62
     7
370
    15
100
AcDbCircle
 10
259.7302869824
 20
317.0915290798
 30
0.0
 40
75.95000000000007
100
AcDbArc
 50
93.1593838787
 51
176.7233965031
  0
ARC
  5
11D
330
1F
100
AcDbEntity
  8
0
  6
Continuous
 62
     7
370
    15
100
AcDbCircle
 10
259.7302869824
 20
317.0915290798
 30
0.0
 40
75.95000000000002
100
AcDbArc
 50
183.2766034969
 51
266.8406161213
  0
ARC
  5
11E
330
1F
100
AcDbEntity
  8
0
  6
Continuous
 62
     7
370
    15
100
AcDbCircle
 10
259.7302869824
 20
317.0915290798
 30
0.0
 40
75.95000000000005
100
AcDbArc
 50
273.1593838787
 51
356.7233965031
  0
ARC
  5
11F
330
1F
100
AcDbEntity
  8
0
  6
Continuous
 62
     7
370
    15
100
AcDbCircle
 10
259.7302869824
 20
317.0915290798
 30
0.0
 40
76.0
100
AcDbArc
 50
3.2758014653
 51
86.8415178402
  0
ARC
  5
120
330
1F
100
AcDbEntity
  8
0
  6
Continuous
 62
     7
370
    15
100
AcDbCircle
 10
259.7302869824
 20
317.0915290798
 30
0.0
 40
76.00000000000001
100
AcDbArc
 50
93.1584821598
 51
176.7241985347
  0
ARC
  5
121
330
1F
100
AcDbEntity
  8
0
  6
Continuous
 62
     7
370
    15
100
AcDbCircle
 10
259.7302869824
 20
317.0915290798
 30
0.0
 40
76.00000000000003
100
AcDbArc
 50
183.2758014653
 51
266.8415178402
  0
ARC
  5
122
330
1F
100
AcDbEntity
  8
0
  6
Continuous
 62
     7
370
    15
100
AcDbCircle
 10
259.7302869824
 20
317.0915290798
 30
0.0
 40
76.00000000000003
100
AcDbArc
 50
273.1584821598
 51
356.7241985347
  0
SPLINE
  5
123
330
1F
100
AcDbEntity
  8
0
  6
Continuous
 62
     7
370
    15
100
AcDbSpline
210
0.0
220
0.0
230
1.0
 70
    11
 71
     3
 72
    26
 73
    22
 74
     0
 42
0.00000001
 43
0.00000001
 12
1.0
 22
0.0
 32
0.0
 13
1.0
 23
0.0
 33
0.0
 40
0.0
 40
0.0
 40
0.0
 40
0.0
 40
0.053482303663827
 40
0.1069778770612095
 40
0.1601683874964903
 40
0.2131435181735784
 40
0.2661913770692873
 40
0.3195711561740519
 40
0.3734202182596423
 40
0.427694095902416
 40
0.4821621226727501
 40
0.536481717419402
 40
0.5903481821051687
 40
0.6436580891694593
 40
0.6965811144069777
 40
0.7494791644011662
 40
0.8027206102077885
 40
0.8565012156743778
 40
0.9107613560836809
 40
0.9652290743183711
 40
0.9999999999999999
 40
0.9999999999999999
 40
0.9999999999999999
 40
0.9999999999999999
 10
481.8879649972533
 20
311.3657783175728
 30
0.0
 10
481.6758382546985
 20
311.1030487925248
 30
0.0
 10
481.2515321378741
 20
310.5775245554312
 30
0.0
 10
480.9897612388791
 20
309.5768261977527
 30
0.0
 10
481.0523789985349
 20
308.5598109283134
 30
0.0
 10
481.4504327860793
 20
307.6202225707323
 30
0.0
 10
482.1324503547851
 20
306.865110485222
 30
0.0
 10
483.0270478632543
 20
306.3744720997064
 30
0.0
 10
484.0382565222093
 20
306.2053810375405
 30
0.0
 10
485.054133247248
 20
306.3820869709088
 30
0.0
 10
485.9567018013025
 20
306.889370904476
 30
0.0
 10
486.6382027774158
 20
307.6695399663222
 30
0.0
 10
487.0189288301236
 20
308.6288728197831
 30
0.0
 10
487.0594976986496
 20
309.653517236779
 30
0.0
 10
486.7621264733102
 20
310.6281859948383
 30
0.0
 10
486.163358611352
 20
311.4492406343812
 30
0.0
 10
485.327322131462
 20
312.0297063362294
 30
0.0
 10
484.3401847785059
 20
312.305123347457
 30
0.0
 10
483.3150131199141
 20
312.234429936804
 30
0.0
 10
482.4673916998049
 20
311.8836637712289
 30
0.0
 10
482.0504299011934
 20
311.5109877290647
 30
0.0
 10
481.8879649972533
 20
311.3657783175728
 30
0.0
  0
ARC
  5
124
330
1F
100
AcDbEntity
  8
0
  6
Continuous
 62
     7
370
    15
100
AcDbCircle
 10
539.7302869824
 20
317.0915290798
 30
0.0
 40
68.50000000000011
100
AcDbArc
 50
273.3301180177
 51
356.5684755793
  0
ARC
  5
125
330
1F
100
AcDbEntity
  8
0
  6
Continuous
 62
     7
370
    15
100
AcDbCircle
 10
539.7302869824
 20
317.0915290798
 30
0.0
 40
68.50000000000001
100
AcDbArc
 50
3.4315244207
 51
86.6698819823
  0
ARC
  5
126
330
1F
100
AcDbEntity
  8
0
  6
Continuous
 62
     7
370
    15
100
AcDbCircle
 10
539.7302869824
 20
317.0915290798
 30
0.0
 40
68.50000000000001
100
AcDbArc
 50
93.3301180177
 51
176.5684755793
  0
ARC
  5
127
330
1F
100
AcDbEntity
  8
0
  6
Continuous
 62
     7
370
    15
100
AcDbCircle
 10
539.7302869824
 20
317.0915290798
 30
0.0
 40
68.5
100
AcDbArc
 50
183.4315244207
 51
266.6698819823
  0
SPLINE
  5
128
330
1F
100
AcDbEntity
  8
0
  6
Continuous
 62
     7
370
    15
100
AcDbSpline
210
0.0
220
0.0
230
1.0
 70
    11
 71
     3
 72
    26
 73
    22
 74
     0
 42
0.00000001
 43
0.00000001
 12
1.0
 22
0.0
 32
0.0
 13
1.0
 23
0.0
 33
0.0
 40
0.0
 40
0.0
 40
0.0
 40
0.0
 40
0.0534823036638267
 40
0.1069778770612091
 40
0.16016838749649
 40
0.2131435181735779
 40
0.2661913770692867
 40
0.3195711561740522
 40
0.3734202182596421
 40
0.4276940959024159
 40
0.4821621226727504
 40
0.5364817174194023
 40
0.5903481821051688
 40
0.6436580891694593
 40
0.6965811144069779
 40
0.7494791644011668
 40
0.8027206102077886
 40
0.8565012156743771
 40
0.9107613560836795
 40
0.9652290743183711
 40
1.0
 40
1.0
 40
1.0
 40
1.0
 10
201.8402014883543
 20
311.8707594127283
 30
0.0
 10
201.625790104409
 20
311.6098910231646
 30
0.0
 10
201.1969141379511
 20
311.0880895188143
 30
0.0
 10
200.9264205766484
 20
310.0897136177056
 30
0.0
 10
200.9801609321607
 20
309.0721906369888
 30
0.0
 10
201.3700002118802
 20
308.1291644255461
 30
0.0
 10
202.0454022990274
 20
307.3681294418664
 30
0.0
 10
202.9356841706767
 20
306.8697030014426
 30
0.0
 10
203.945378746748
 20
306.6917940294878
 30
0.0
 10
204.9627588209142
 20
306.8596281501324
 30
0.0
 10
205.8697198391777
 20
307.3590164713552
 30
0.0
 10
206.558003038835
 20
308.1332086842939
 30
0.0
 10
206.9470862468618
 20
309.0891825898851
 30
0.0
 10
206.9965951665278
 20
310.1134339658901
 30
0.0
 10
206.7077407456897
 20
311.0906606321038
 30
0.0
 10
206.116160645435
 20
311.9169091774044
 30
0.0
 10
205.2852214538051
 20
312.504648478917
 30
0.0
 10
204.3005251243401
 20
312.7886692922611
 30
0.0
 10
203.2747755925862
 20
312.7269247702673
 30
0.0
 10
202.4241254739078
 20
312.3835687592047
 30
0.0
 10
202.0039273812126
 20
312.0145455393392
 30
0.0
 10
201.8402014883543
 20
311.8707594127283
 30
0.0
  0
ARC
  5
129
330
1F
100
AcDbEntity
  8
0
  6
Continuous
 62
     7
370
    15
100
AcDbCircle
 10
259.7302869824
 20
317.0915290798
 30
0.0
 40
68.50000000000006
100
AcDbArc
 50
273.3301180177
 51
356.5684755793
  0
ARC
  5
12A
330
1F
100
AcDbEntity
  8
0
  6
Continuous
 62
     7
370
    15
100
AcDbCircle
 10
259.7302869824
 20
317.0915290798
 30
0.0
 40
68.5
100
AcDbArc
 50
3.4315244207
 51
86.6698819823
  0
ARC
  5
12B
330
1F
100
AcDbEntity
  8
0
  6
Continuous
 62
     7
370
    15
100
AcDbCircle
 10
259.7302869824
 20
317.0915290798
 30
0.0
 40
68.49999999999999
100
AcDbArc
 50
93.3301180177
 51
176.5684755793
  0
ARC
  5
12C
330
1F
100
AcDbEntity
  8
0
  6
Continuous
 62
     7
370
    15
100
AcDbCircle
 10
259.7302869824
 20
317.0915290798
 30
0.0
 40
68.50000000000006
100
AcDbArc
 50
183.4315244207
 51
266.6698819823
  0
ARC
  5
12D
330
1F
100
AcDbEntity
  8
0
  6
Continuous
 62
     7
370
    15
100
AcDbCircle
 10
539.7302869824
 20
317.0915290798
 30
0.0
 40
52.48544019369997
100
AcDbArc
 50
4.1012725226
 51
29.6628454094
  0
ARC
  5
12E
330
1F
100
AcDbEntity
  8
0
  6
Continuous
 62
     7
370
    15
100
AcDbCircle
 10
539.7302869824
 20
317.0915290798
 30
0.0
 40
52.48544019369996
100
AcDbArc
 50
274.0448168749
 51
355.8987274774
  0
ARC
  5
12F
330
1F
100
AcDbEntity
  8
0
  6
Continuous
 62
     7
370
    15
100
AcDbCircle
 10
539.7302869824
 20
317.0915290798
 30
0.0
 40
52.48544019369996
100
AcDbArc
 50
184.1012725226
 51
265.9551831251
  0
ARC
  5
130
330
1F
100
AcDbEntity
  8
0
  6
Continuous
 62
     7
370
    15
100
AcDbCircle
 10
539.7302869824
 20
317.0915290798
 30
0.0
 40
52.4854401937
100
AcDbArc
 50
94.0448168749
 51
175.8987274774
  0
ARC
  5
131
330
1F
100
AcDbEntity
  8
0
  6
Continuous
 62
     7
370
    15
100
AcDbCircle
 10
539.7302869824
 20
317.0915290798
 30
0.0
 40
52.48544019370001
100
AcDbArc
 50
29.6628454094
 51
85.9551831251
  0
ARC
  5
132
330
1F
100
AcDbEntity
  8
0
  6
Continuous
 62
     7
370
    15
100
AcDbCircle
 10
259.7302869824
 20
317.0915290798
 30
0.0
 40
52.48544019369998
100
AcDbArc
 50
184.1012725226
 51
209.1628454094
  0
ARC
  5
133
330
1F
100
AcDbEntity
  8
0
  6
Continuous
 62
     7
370
    15
100
AcDbCircle
 10
259.7302869824
 20
317.0915290798
 30
0.0
 40
52.48544019369994
100
AcDbArc
 50
94.0448168749
 51
175.8987274774
  0
ARC
  5
134
330
1F
100
AcDbEntity
  8
0
  6
Continuous
 62
     7
370
    15
100
AcDbCircle
 10
259.7302869824
 20
317.0915290798
 30
0.0
 40
52.48544019369996
100
AcDbArc
 50
4.1012725226
 51
85.9551831251
  0
ARC
  5
135
330
1F
100
AcDbEntity
  8
0
  6
Continuous
 62
     7
370
    15
100
AcDbCircle
 10
259.7302869824
 20
317.0915290798
 30
0.0
 40
52.48544019370001
100
AcDbArc
 50
274.0448168749
 51
355.8987274774
  0
ARC
  5
136
330
1F
100
AcDbEntity
  8
0
  6
Continuous
 62
     7
370
    15
100
AcDbCircle
 10
259.7302869824
 20
317.0915290798
 30
0.0
 40
52.48544019370001
100
AcDbArc
 50
209.1628454094
 51
265.9551831251
  0
LINE
  5
137
330
1F
100
AcDbEntity
  8
0
  6
Continuous
 62
     7
370
    15
100
AcDbLine
 10
35.0579752172
 20
499.7915290798
 30
0.0
 11
35.0579752172
 21
467.7915290798
 31
0.0
  0
LINE
  5
138
330
1F
100
AcDbEntity
  8
0
  6
Continuous
 62
     7
370
    15
100
AcDbLine
 10
808.2588077936
 20
267.6615071908
 30
0.0
 11
806.7889543392
 21
267.6636671586
 31
0.0
  0
LINE
  5
139
330
1F
100
AcDbEntity
  8
0
  6
Continuous
 62
     7
370
    15
100
AcDbLine
 10
801.7970954809
 20
267.3462364745
 30
0.0
 11
806.7889543392
 21
267.6636671586
 31
0.0
  0
LINE
  5
13A
330
1F
100
AcDbEntity
  8
0
  6
Continuous
 62
     7
370
    15
100
AcDbLine
 10
801.7970954809
 20
264.9956675423
 30
0.0
 11
806.7856622275
 21
264.6636860748
 31
0.0
  0
LINE
  5
13B
330
1F
100
AcDbEntity
  8
0
  6
Continuous
 62
     7
370
    15
100
AcDbLine
 10
806.7856622275
 20
264.6636860748
 30
0.0
 11
808.2555156818
 21
264.661526107
 31
0.0
  0
SPLINE
  5
13C
330
1F
100
AcDbEntity
  8
0
  6
Continuous
 62
     7
370
    15
100
AcDbSpline
210
0.0
220
0.0
230
1.0
 70
     8
 71
     3
 72
    14
 73
    10
 74
     0
 42
0.00000001
 43
0.00000001
 12
1.0
 22
0.0
 32
0.0
 13
1.0
 23
0.0
 33
0.0
 40
0.0
 40
0.0
 40
0.0
 40
0.0
 40
0.0450030444518564
 40
0.1924547383736736
 40
0.4101035079917913
 40
0.6281156181478678
 40
0.8446514255156812
 40
0.9597621009663154
 40
1.0
 40
1.0
 40
1.0
 40
1.0
 10
807.1176072903041
 20
265.6257825139189
 30
0.0
 10
807.1049536817578
 20
265.6058614923969
 30
0.0
 10
807.0508407444679
 20
265.5206695896745
 30
0.0
 10
807.0197017074616
 20
265.3048970304861
 30
0.0
 10
806.976563176592
 20
265.0352545703906
 30
0.0
 10
806.941529791297
 20
264.800596911921
 30
0.0
 10
806.8965112256112
 20
264.6890302567019
 30
0.0
 10
806.8315158691632
 20
264.6632015881837
 30
0.0
 10
806.7835308082758
 20
264.6623457845054
 30
0.0
 10
806.7711018687666
 20
264.662124116929
 30
0.0
  0
SPLINE
  5
13D
330
1F
100
AcDbEntity
  8
0
  6
Continuous
 62
     7
370
    15
100
AcDbSpline
210
0.0
220
0.0
230
1.0
 70
     8
 71
     3
 72
    10
 73
     6
 74
     0
 42
0.00000001
 43
0.00000001
 12
1.0
 22
0.0
 32
0.0
 13
1.0
 23
0.0
 33
0.0
 40
0.0
 40
0.0
 40
0.0
 40
0.0
 40
0.3110155923022466
 40
0.7327352999739284
 40
1.0
 40
1.0
 40
1.0
 40
1.0
 10
806.7460096954684
 20
267.6623851893465
 30
0.0
 10
806.7461122269298
 20
267.6623565368187
 30
0.0
 10
806.7463537853052
 20
267.6622890330696
 30
0.0
 10
806.758905740631
 20
267.6621913265038
 30
0.0
 10
806.7700651296301
 20
267.6621292722352
 30
0.0
 10
806.774393980501
 20
267.6621052006956
 30
0.0
  0
SPLINE
  5
13E
330
1F
100
AcDbEntity
  8
0
  6
Continuous
 62
     7
370
    15
100
AcDbSpline
210
0.0
220
0.0
230
1.0
 70
     8
 71
     3
 72
    15
 73
    11
 74
     0
 42
0.00000001
 43
0.00000001
 12
1.0
 22
0.0
 32
0.0
 13
1.0
 23
0.0
 33
0.0
 40
0.0
 40
0.0
 40
0.0
 40
0.0
 40
0.0802877089726427
 40
0.2296499816479363
 40
0.438929653161627
 40
0.649732450384141
 40
0.8665139245761756
 40
0.9462885555630344
 40
0.9895230058021337
 40
0.9999999999999999
 40
0.9999999999999999
 40
0.9999999999999999
 40
0.9999999999999999
 10
806.7743939805479
 20
267.6621052007011
 30
0.0
 10
806.7975005139797
 20
267.6607612168847
 30
0.0
 10
806.8635930086651
 20
267.6569169689582
 30
0.0
 10
806.9157418653406
 20
267.6033145039816
 30
0.0
 10
806.956147458335
 20
267.4552336068235
 30
0.0
 10
806.9912714611582
 20
267.2023572260103
 30
0.0
 10
807.0253691811163
 20
266.9519370749372
 30
0.0
 10
807.0697174055288
 20
266.7821779689691
 30
0.0
 10
807.0967913477339
 20
266.716363009166
 30
0.0
 10
807.1151877787282
 20
266.6951125502652
 30
0.0
 10
807.1187762002056
 20
266.6909674199873
 30
0.0
  0
LWPOLYLINE
  5
13F
330
1F
100
AcDbEntity
  8
0
  6
Continuous
 62
     7
370
    15
100
AcDbPolyline
 90
        3
 70
   128
 43
0.0
 10
807.1509412627
 20
266.6583192051
 10
807.1465293879
 20
266.6627985178
 10
807.1187762003
 20
266.69096742
  0
LWPOLYLINE
  5
140
330
1F
100
AcDbEntity
  8
0
  6
Continuous
 62
     7
370
    15
100
AcDbPolyline
 90
        3
 70
   128
 43
0.0
 10
807.1176072903
 20
265.6257825139
 10
807.1454222022
 20
265.65386063
 10
807.1498438921
 20
265.6583255105
  0
LINE
  5
141
330
1F
100
AcDbEntity
  8
0
  6
Continuous
 62
     7
370
    15
100
AcDbLine
 10
809.2271960086
 20
254.5428311006
 30
0.0
 11
801.7970954809
 21
253.4891837373
 31
0.0
  0
LWPOLYLINE
  5
142
330
1F
100
AcDbEntity
  8
0
  6
Continuous
 62
     7
370
    15
100
AcDbPolyline
 90
        3
 70
   128
 43
0.0
 10
809.2556220303
 20
254.5194092326
 10
809.2469796646
 20
254.5212361564
 10
809.2271960086
 20
254.5428311006
  0
LINE
  5
143
330
1F
100
AcDbEntity
  8
0
  6
Continuous
 62
     7
370
    15
100
AcDbLine
 10
801.7970954809
 20
278.8274387726
 30
0.0
 11
809.2526619649
 21
277.7490258808
 31
0.0
  0
LWPOLYLINE
  5
144
330
1F
100
AcDbEntity
  8
0
  6
Continuous
 62
     7
370
    15
100
AcDbPolyline
 90
        3
 70
   128
 43
0.0
 10
809.2526619649
 20
277.7490258808
 10
809.2724941023
 20
277.7716101951
 10
809.2818787689
 20
277.7738561942
  0
LINE
  5
145
330
1F
100
AcDbEntity
  8
0
  6
Continuous
 62
     7
370
    15
100
AcDbLine
 10
813.7876817643
 20
256.4251634991
 30
0.0
 11
813.4160280561
 21
256.4065854208
 31
0.0
  0
LINE
  5
146
330
1F
100
AcDbEntity
  8
0
  6
Continuous
 62
     7
370
    15
100
AcDbLine
 10
813.7392071751
 20
275.7652196829
 30
0.0
 11
813.9439424552
 21
275.7578946606
 31
0.0
  0
ARC
  5
147
330
1F
100
AcDbEntity
  8
0
  6
Continuous
 62
     7
370
    15
100
AcDbCircle
 10
806.8808391592
 20
-23.8098718642
 30
0.0
 40
291.4719965017136
100
AcDbArc
 50
89.6036151552
 51
90.0209243416
  0
SPLINE
  5
148
330
1F
100
AcDbEntity
  8
0
  6
Continuous
 62
     7
370
    15
100
AcDbSpline
210
0.0
220
0.0
230
1.0
 70
     8
 71
     3
 72
    11
 73
     7
 74
     0
 42
0.00000001
 43
0.00000001
 12
1.0
 22
0.0
 32
0.0
 13
1.0
 23
0.0
 33
0.0
 40
0.0
 40
0.0
 40
0.0
 40
0.0
 40
0.2947335968586461
 40
0.589483610822169
 40
0.8837752324725308
 40
1.0
 40
1.0
 40
1.0
 40
1.0
 10
809.102236387286
 20
267.6582589852167
 30
0.0
 10
809.0567419614055
 20
267.6586606749219
 30
0.0
 10
808.9657505755363
 20
267.659464076707
 30
0.0
 10
808.7081151838795
 20
267.6605288473998
 30
0.0
 10
808.4579427670919
 20
267.6611868581713
 30
0.0
 10
808.3027466726894
 20
267.6614365098261
 30
0.0
 10
808.2588077935884
 20
267.6615071908179
 30
0.0
  0
LINE
  5
149
330
1F
100
AcDbEntity
  8
0
  6
Continuous
 62
     7
370
    15
100
AcDbLine
 10
820.1630124053
 20
267.5311498025
 30
0.0
 11
809.1022363873
 21
267.6582589852
 31
0.0
  0
ARC
  5
14A
330
1F
100
AcDbEntity
  8
0
  6
Continuous
 62
     7
370
    15
100
AcDbCircle
 10
806.8775470476
 20
-26.8098528844
 30
0.0
 40
291.4719964380994
100
AcDbArc
 50
89.6036151552
 51
90.0209243416
  0
SPLINE
  5
14B
330
1F
100
AcDbEntity
  8
0
  6
Continuous
 62
     7
370
    15
100
AcDbSpline
210
0.0
220
0.0
230
1.0
 70
     8
 71
     3
 72
    11
 73
     7
 74
     0
 42
0.00000001
 43
0.00000001
 12
1.0
 22
0.0
 32
0.0
 13
1.0
 23
0.0
 33
0.0
 40
0.0
 40
0.0
 40
0.0
 40
0.0
 40
0.2933118760923557
 40
0.5865991201415147
 40
0.8805021461501369
 40
1.0
 40
1.0
 40
1.0
 40
1.0
 10
808.255515681807
 20
264.6615261070457
 30
0.0
 10
808.3661978571574
 20
264.661325843217
 30
0.0
 10
808.5875529128781
 20
264.6609253323773
 30
0.0
 10
808.8654462271116
 20
264.6599293851147
 30
0.0
 10
809.0280420655934
 20
264.6590009421604
 30
0.0
 10
809.0830450785622
 20
264.6584400369655
 30
0.0
 10
809.0989442755048
 20
264.6582779014446
 30
0.0
  0
LWPOLYLINE
  5
14C
330
1F
100
AcDbEntity
  8
0
  6
Continuous
 62
     7
370
    15
100
AcDbPolyline
 90
        9
 70
   128
 43
0.0
 10
820.1597202936
 20
264.5311687187
 10
820.3372279997
 20
264.6433102415
 10
820.4879623638
 20
264.9667391965
 10
820.5889754453
 20
265.4522164574
 10
820.6248889183
 20
266.0258325118
 10
820.590235282
 20
266.6002595155
 10
820.4902902384
 20
267.0880461643
 10
820.3402695144
 20
267.4149313627
 10
820.1630124053
 20
267.5311498025
  0
LINE
  5
14D
330
1F
100
AcDbEntity
  8
0
  6
Continuous
 62
     7
370
    15
100
AcDbLine
 10
809.0989442755
 20
264.6582779014
 30
0.0
 11
820.1597202936
 21
264.5311687187
 31
0.0
  0
ARC
  5
14E
330
1F
100
AcDbEntity
  8
0
  6
Continuous
 62
     7
370
    15
100
AcDbCircle
 10
819.6858926629
 20
265.4454395906
 30
0.0
 40
0.9144069839513174
100
AcDbArc
 50
246.3135853311
 51
262.9739211319
  0
LINE
  5
14F
330
1F
100
AcDbEntity
  8
0
  6
Continuous
 62
     7
370
    15
100
AcDbLine
 10
818.9214924293
 20
254.4152940176
 30
0.0
 11
818.9052047891
 21
254.4128688098
 31
0.0
  0
LINE
  5
150
330
1F
100
AcDbEntity
  8
0
  6
Continuous
 62
     7
370
    15
100
AcDbLine
 10
819.7748373314
 20
264.5590683573
 30
0.0
 11
819.7237280314
 21
264.5361790923
 31
0.0
  0
SPLINE
  5
151
330
1F
100
AcDbEntity
  8
0
  6
Continuous
 62
     7
370
    15
100
AcDbSpline
210
0.0
220
0.0
230
1.0
 70
     8
 71
     3
 72
    11
 73
     7
 74
     0
 42
0.00000001
 43
0.00000001
 12
1.0
 22
0.0
 32
0.0
 13
1.0
 23
0.0
 33
0.0
 40
0.0
 40
0.0
 40
0.0
 40
0.0
 40
0.0731381085438617
 40
0.2131698099829374
 40
0.9422097249340466
 40
1.0
 40
1.0
 40
1.0
 40
1.0
 10
803.3235896160653
 20
250.177123519765
 30
0.0
 10
803.3271069388541
 20
250.1733846131038
 30
0.0
 10
803.337358598973
 20
250.1624871201501
 30
0.0
 10
803.3750590183786
 20
250.1194849404169
 30
0.0
 10
803.4067572781559
 20
250.0795859744394
 30
0.0
 10
803.386365450031
 20
250.08053713562
 30
0.0
 10
803.3848677325167
 20
250.0806069955046
 30
0.0
  0
SPLINE
  5
152
330
1F
100
AcDbEntity
  8
0
  6
Continuous
 62
     7
370
    15
100
AcDbSpline
210
0.0
220
0.0
230
1.0
 70
     8
 71
     3
 72
    11
 73
     7
 74
     0
 42
0.00000001
 43
0.00000001
 12
1.0
 22
0.0
 32
0.0
 13
1.0
 23
0.0
 33
0.0
 40
0.0
 40
0.0
 40
0.0
 40
0.0
 40
0.0024337889240218
 40
0.7743060870178017
 40
0.9225648983354704
 40
1.0
 40
1.0
 40
1.0
 40
1.0
 10
803.4238969436005
 20
281.9381709657209
 30
0.0
 10
803.4239532862503
 20
281.9381735922962
 30
0.0
 10
803.4418786109335
 20
281.9390092330661
 30
0.0
 10
803.4097564732742
 20
281.9008331602363
 30
0.0
 10
803.3721488757482
 20
281.8589439215837
 30
0.0
 10
803.361868101327
 20
281.8482620410884
 30
0.0
 10
803.3583407894828
 20
281.8445971106027
 30
0.0
  0
LINE
  5
153
330
1F
100
AcDbEntity
  8
0
  6
Continuous
 62
     7
370
    15
100
AcDbLine
 10
808.2521205792
 20
369.3610215079
 30
0.0
 11
806.7822787845
 21
369.3539107094
 31
0.0
  0
LINE
  5
154
330
1F
100
AcDbEntity
  8
0
  6
Continuous
 62
     7
370
    15
100
AcDbLine
 10
801.7970954809
 20
369.0052623093
 30
0.0
 11
806.7822787845
 21
369.3539107094
 31
0.0
  0
LINE
  5
155
330
1F
100
AcDbEntity
  8
0
  6
Continuous
 62
     7
370
    15
100
AcDbLine
 10
801.7970954809
 20
366.6548575014
 30
0.0
 11
806.7931166981
 21
366.3541157265
 31
0.0
  0
LINE
  5
156
330
1F
100
AcDbEntity
  8
0
  6
Continuous
 62
     7
370
    15
100
AcDbLine
 10
806.7931166981
 20
366.3541157265
 30
0.0
 11
808.2629584928
 21
366.361226525
 31
0.0
  0
LINE
  5
157
330
1F
100
AcDbEntity
  8
0
  6
Continuous
 62
     7
370
    15
100
AcDbLine
 10
806.7501651342
 20
366.3583360788
 30
0.0
 11
806.7931166981
 21
366.3541157265
 31
0.0
  0
SPLINE
  5
158
330
1F
100
AcDbEntity
  8
0
  6
Continuous
 62
     7
370
    15
100
AcDbSpline
210
0.0
220
0.0
230
1.0
 70
     8
 71
     3
 72
    15
 73
    11
 74
     0
 42
0.00000001
 43
0.00000001
 12
1.0
 22
0.0
 32
0.0
 13
1.0
 23
0.0
 33
0.0
 40
0.0
 40
0.0
 40
0.0
 40
0.0
 40
0.0802877089726538
 40
0.229649981647932
 40
0.4389296531616304
 40
0.6497324503841453
 40
0.8665139245761792
 40
0.9462885555630397
 40
0.9895230058021476
 40
1.0
 40
1.0
 40
1.0
 40
1.0
 10
806.7677099942829
 20
369.3590528081889
 30
0.0
 10
806.7908213886542
 20
369.3583327796068
 30
0.0
 10
806.856927787269
 20
369.3562732545215
 30
0.0
 10
806.9093208594018
 20
369.3061789445857
 30
0.0
 10
806.9504145275744
 20
369.1620949738043
 30
0.0
 10
806.9867214722897
 20
368.9126802205187
 30
0.0
 10
807.021994775013
 20
368.6639340093766
 30
0.0
 10
807.0671410212141
 20
368.4948436150959
 30
0.0
 10
807.0945244089802
 20
368.4292643252753
 30
0.0
 10
807.1130206234043
 20
368.4081455586012
 30
0.0
 10
807.1166285087113
 20
368.4040261163067
 30
0.0
  0
SPLINE
  5
159
330
1F
100
AcDbEntity
  8
0
  6
Continuous
 62
     7
370
    15
100
AcDbSpline
210
0.0
220
0.0
230
1.0
 70
     8
 71
     3
 72
    14
 73
    10
 74
     0
 42
0.00000001
 43
0.00000001
 12
1.0
 22
0.0
 32
0.0
 13
1.0
 23
0.0
 33
0.0
 40
0.0
 40
0.0
 40
0.0
 40
0.0
 40
0.0450030444518595
 40
0.1924547383736724
 40
0.4101035079917971
 40
0.628115618147881
 40
0.8446514255156834
 40
0.9597621009663206
 40
1.0
 40
1.0
 40
1.0
 40
1.0
 10
807.1204766603472
 20
367.338907287959
 30
0.0
 10
807.1079171017803
 20
367.3188935746144
 30
0.0
 10
807.0542063675945
 20
367.233305276922
 30
0.0
 10
807.024085449687
 20
367.016772411625
 30
0.0
 10
806.982222390161
 20
366.7448346367158
 30
0.0
 10
806.9483033712572
 20
366.5063191305615
 30
0.0
 10
806.9038199333762
 20
366.3906641835275
 30
0.0
 10
806.8389533200046
 20
366.3618270174641
 30
0.0
 10
806.7909750804937
 20
366.3597863838532
 30
0.0
 10
806.778547907836
 20
366.3592578253552
 30
0.0
  0
SPLINE
  5
15A
330
1F
100
AcDbEntity
  8
0
  6
Continuous
 62
     7
370
    15
100
AcDbSpline
210
0.0
220
0.0
230
1.0
 70
     8
 71
     3
 72
    10
 73
     6
 74
     0
 42
0.00000001
 43
0.00000001
 12
1.0
 22
0.0
 32
0.0
 13
1.0
 23
0.0
 33
0.0
 40
0.0
 40
0.0
 40
0.0
 40
0.0
 40
0.4356621132199364
 40
0.7942397707137924
 40
1.0
 40
1.0
 40
1.0
 40
1.0
 10
806.7785479078361
 20
366.3592578253552
 30
0.0
 10
806.7715916547627
 20
366.3591274305409
 30
0.0
 10
806.7589099625098
 20
366.3588897124923
 30
0.0
 10
806.7495608636171
 20
366.3585654648133
 30
0.0
 10
806.7500036808988
 20
366.3583973677595
 30
0.0
 10
806.750165134148
 20
366.3583360787885
 30
0.0
  0
LWPOLYLINE
  5
15B
330
1F
100
AcDbEntity
  8
0
  6
Continuous
 62
     7
370
    15
100
AcDbPolyline
 90
        3
 70
   128
 43
0.0
 10
807.1489468137
 20
368.3716057265
 10
807.1445139142
 20
368.3760537897
 10
807.1166285088
 20
368.4040261164
  0
LINE
  5
15C
330
1F
100
AcDbEntity
  8
0
  6
Continuous
 62
     7
370
    15
100
AcDbLine
 10
801.7970954809
 20
380.5402608039
 30
0.0
 11
809.198304586
 21
379.5148191698
 31
0.0
  0
LWPOLYLINE
  5
15D
330
1F
100
AcDbEntity
  8
0
  6
Continuous
 62
     7
370
    15
100
AcDbPolyline
 90
        3
 70
   128
 43
0.0
 10
809.198304586
 20
379.5148191698
 10
809.2180353506
 20
379.5352788832
 10
809.2258206403
 20
379.5366772826
  0
LINE
  5
15E
330
1F
100
AcDbEntity
  8
0
  6
Continuous
 62
     7
370
    15
100
AcDbLine
 10
809.3122600626
 20
356.2835690565
 30
0.0
 11
809.309529285
 21
356.2835323758
 31
0.0
  0
LINE
  5
15F
330
1F
100
AcDbEntity
  8
0
  6
Continuous
 62
     7
370
    15
100
AcDbLine
 10
813.4040988827
 20
377.760790589
 30
0.0
 11
813.6086003305
 21
377.7534780029
 31
0.0
  0
LINE
  5
160
330
1F
100
AcDbEntity
  8
0
  6
Continuous
 62
     7
370
    15
100
AcDbLine
 10
814.3337204018
 20
358.4296695143
 30
0.0
 11
814.1230238897
 21
358.4295801567
 31
0.0
  0
ARC
  5
161
330
1F
100
AcDbEntity
  8
0
  6
Continuous
 62
     7
370
    15
100
AcDbCircle
 10
806.8849136019
 20
454.9108955866
 30
0.0
 40
88.5517016429343
100
AcDbArc
 50
269.9311779818
 51
271.3048484551
  0
LINE
  5
162
330
1F
100
AcDbEntity
  8
0
  6
Continuous
 62
     7
370
    15
100
AcDbLine
 10
809.1063695524
 20
366.3719198957
 30
0.0
 11
820.1664594259
 21
366.7903741967
 31
0.0
  0
SPLINE
  5
163
330
1F
100
AcDbEntity
  8
0
  6
Continuous
 62
     7
370
    15
100
AcDbSpline
210
0.0
220
0.0
230
1.0
 70
     8
 71
     3
 72
    11
 73
     7
 74
     0
 42
0.00000001
 43
0.00000001
 12
1.0
 22
0.0
 32
0.0
 13
1.0
 23
0.0
 33
0.0
 40
0.0
 40
0.0
 40
0.0
 40
0.0
 40
0.2933118760923706
 40
0.5865991201415608
 40
0.8805021461501481
 40
1.0
 40
1.0
 40
1.0
 40
1.0
 10
808.2629584927756
 20
366.3612265250374
 30
0.0
 10
808.3736395870875
 20
366.36188581069
 30
0.0
 10
808.5949924808216
 20
366.3632043266291
 30
0.0
 10
808.8728804188597
 20
366.3664830701989
 30
0.0
 10
809.0354712455386
 20
366.3695395838117
 30
0.0
 10
809.0904712307008
 20
366.3713861316866
 30
0.0
 10
809.106369552424
 20
366.3719198956887
 30
0.0
  0
SPLINE
  5
164
330
1F
100
AcDbEntity
  8
0
  6
Continuous
 62
     7
370
    15
100
AcDbSpline
210
0.0
220
0.0
230
1.0
 70
     8
 71
     3
 72
    11
 73
     7
 74
     0
 42
0.00000001
 43
0.00000001
 12
1.0
 22
0.0
 32
0.0
 13
1.0
 23
0.0
 33
0.0
 40
0.0
 40
0.0
 40
0.0
 40
0.0
 40
0.2947335968586301
 40
0.5894836108221486
 40
0.8837752324725173
 40
1.0
 40
1.0
 40
1.0
 40
1.0
 10
809.0955316388709
 20
369.3717148785224
 30
0.0
 10
809.0500393813404
 20
369.3703924816571
 30
0.0
 10
808.9590523322925
 20
369.3677476142669
 30
0.0
 10
808.7014226883454
 20
369.3642422980789
 30
0.0
 10
808.4512538235473
 20
369.3620760703413
 30
0.0
 10
808.2960590767827
 20
369.3612541957414
 30
0.0
 10
808.2521205792228
 20
369.361021507871
 30
0.0
  0
LWPOLYLINE
  5
165
330
1F
100
AcDbEntity
  8
0
  6
Continuous
 62
     7
370
    15
100
AcDbPolyline
 90
        9
 70
   128
 43
0.0
 10
820.1664594259
 20
366.7903741967
 10
820.3434183362
 20
366.9112578746
 10
820.4926118696
 20
367.2420839049
 10
820.5913266629
 20
367.7324870233
 10
820.6245342838
 20
368.3078078006
 10
820.5871791729
 20
368.8804588637
 10
820.4849483074
 20
369.3632592794
 10
820.3334054097
 20
369.682707061
 10
820.1556215123
 20
369.7901691795
  0
LINE
  5
166
330
1F
100
AcDbEntity
  8
0
  6
Continuous
 62
     7
370
    15
100
AcDbLine
 10
820.1556215123
 20
369.7901691795
 30
0.0
 11
809.0955316389
 21
369.3717148785
 31
0.0
  0
LWPOLYLINE
  5
167
330
1F
100
AcDbEntity
  8
0
  6
Continuous
 62
     7
370
    15
100
AcDbPolyline
 90
        3
 70
   128
 43
0.0
 10
819.4640447688
 20
369.764003636
 10
819.3164146778
 20
369.714053914
 10
819.3035270541
 20
369.7083148046
  0
LWPOLYLINE
  5
168
330
1F
100
AcDbEntity
  8
0
  6
Continuous
 62
     7
370
    15
100
AcDbPolyline
 90
        3
 70
   128
 43
0.0
 10
818.9632092012
 20
356.6519138021
 10
818.9597632167
 20
356.6513782935
 10
818.946827296
 20
356.6496112198
  0
LINE
  5
169
330
1F
100
AcDbEntity
  8
0
  6
Continuous
 62
     7
370
    15
100
AcDbLine
 10
819.7517272928
 20
369.7748879951
 30
0.0
 11
819.771860708
 21
369.7640149138
 31
0.0
  0
SPLINE
  5
16A
330
1F
100
AcDbEntity
  8
0
  6
Continuous
 62
     7
370
    15
100
AcDbSpline
210
0.0
220
0.0
230
1.0
 70
     8
 71
     3
 72
    11
 73
     7
 74
     0
 42
0.00000001
 43
0.00000001
 12
1.0
 22
0.0
 32
0.0
 13
1.0
 23
0.0
 33
0.0
 40
0.0
 40
0.0
 40
0.0
 40
0.0
 40
0.0217005624015301
 40
0.7786650894062035
 40
0.9240604627866139
 40
1.0
 40
1.0
 40
1.0
 40
1.0
 10
803.3470641030829
 20
384.2898350068774
 30
0.0
 10
803.3475868142388
 20
384.2898231215161
 30
0.0
 10
803.3663428686413
 20
384.2893966479641
 30
0.0
 10
803.3345356687408
 20
384.2488594424134
 30
0.0
 10
803.297064259613
 20
384.2048291002396
 30
0.0
 10
803.2868368367432
 20
384.1936780268662
 30
0.0
 10
803.2833278297024
 20
384.1898521173017
 30
0.0
  0
SPLINE
  5
16B
330
1F
100
AcDbEntity
  8
0
  6
Continuous
 62
     7
370
    15
100
AcDbSpline
210
0.0
220
0.0
230
1.0
 70
     8
 71
     3
 72
    11
 73
     7
 74
     0
 42
0.00000001
 43
0.00000001
 12
1.0
 22
0.0
 32
0.0
 13
1.0
 23
0.0
 33
0.0
 40
0.0
 40
0.0
 40
0.0
 40
0.0
 40
0.074497743179951
 40
0.217132628584493
 40
0.9597253676266677
 40
1.0
 40
1.0
 40
1.0
 40
1.0
 10
803.3977316648057
 20
352.524342987702
 30
0.0
 10
803.401266794521
 20
352.5207655790516
 30
0.0
 10
803.4115703550682
 20
352.5103387914655
 30
0.0
 10
803.4494107864383
 20
352.4694770314555
 30
0.0
 10
803.4813868460116
 20
352.4320218494932
 30
0.0
 10
803.4617951731382
 20
352.4343007410499
 30
0.0
 10
803.4607872790153
 20
352.4344179786855
 30
0.0
  0
CIRCLE
  5
16C
330
1F
100
AcDbEntity
  8
0
  6
Continuous
 62
     7
370
    15
100
AcDbCircle
 10
203.9615135302
 20
309.7494307674
 30
0.0
 40
1.250000000000029
  0
CIRCLE
  5
16D
330
1F
100
AcDbEntity
  8
0
  6
Continuous
 62
     7
370
    15
100
AcDbCircle
 10
203.9615135301
 20
309.7494307674
 30
0.0
 40
2.000000000000001
  0
CIRCLE
  5
16E
330
1F
100
AcDbEntity
  8
0
  6
Continuous
 62
     7
370
    15
100
AcDbCircle
 10
484.0277081157
 20
309.2630421508
 30
0.0
 40
1.24999999999996
  0
CIRCLE
  5
16F
330
1F
100
AcDbEntity
  8
0
  6
Continuous
 62
     7
370
    15
100
AcDbCircle
 10
484.0277081157
 20
309.2630421508
 30
0.0
 40
2.000000000000028
  0
LINE
  5
170
330
1F
100
AcDbEntity
  8
0
  6
Continuous
 62
     7
370
    15
100
AcDbLine
 10
114.1270954809
 20
163.5915290798
 30
0.0
 11
90.2270954809
 21
163.5915290798
 31
0.0
  0
ARC
  5
171
330
1F
100
AcDbEntity
  8
0
  6
Continuous
 62
     7
370
    15
100
AcDbCircle
 10
114.1270954809
 20
163.0915290798
 30
0.0
 40
0.5
100
AcDbArc
 50
0.0
 51
90.0
  0
LINE
  5
172
330
1F
100
AcDbEntity
  8
0
  6
Continuous
 62
     7
370
    15
100
AcDbLine
 10
114.6270954809
 20
161.0915290798
 30
0.0
 11
114.6270954809
 21
163.0915290798
 31
0.0
  0
LINE
  5
173
330
1F
100
AcDbEntity
  8
0
  6
Continuous
 62
     7
370
    15
100
AcDbLine
 10
114.7270954809
 20
161.0915290798
 30
0.0
 11
114.6270954809
 21
161.0915290798
 31
0.0
  0
LINE
  5
174
330
1F
100
AcDbEntity
  8
0
  6
Continuous
 62
     7
370
    15
100
AcDbLine
 10
114.7270954809
 20
161.1415290798
 30
0.0
 11
114.7270954809
 21
161.0915290798
 31
0.0
  0
LINE
  5
175
330
1F
100
AcDbEntity
  8
0
  6
Continuous
 62
     7
370
    15
100
AcDbLine
 10
684.7270954809
 20
119.5415290798
 30
0.0
 11
684.7270954809
 21
161.1415290798
 31
0.0
  0
LINE
  5
176
330
1F
100
AcDbEntity
  8
0
  6
Continuous
 62
     7
370
    15
100
AcDbLine
 10
684.7270954809
 20
119.5415290798
 30
0.0
 11
684.7270954809
 21
117.0915290798
 31
0.0
  0
LINE
  5
177
330
1F
100
AcDbEntity
  8
0
  6
Continuous
 62
     7
370
    15
100
AcDbLine
 10
89.3270954809
 20
117.0915290798
 30
0.0
 11
684.7270954809
 21
117.0915290798
 31
0.0
  0
SPLINE
  5
178
330
1F
100
AcDbEntity
  8
0
  6
Continuous
 62
     7
370
    15
100
AcDbSpline
210
0.0
220
0.0
230
1.0
 70
     8
 71
     3
 72
     9
 73
     5
 74
     0
 42
0.00000001
 43
0.00000001
 12
1.0
 22
0.0
 32
0.0
 13
1.0
 23
0.0
 33
0.0
 40
0.0
 40
0.0
 40
0.0
 40
0.0
 40
0.5923754448054439
 40
0.9999999999999999
 40
0.9999999999999999
 40
0.9999999999999999
 40
0.9999999999999999
 10
37.00828593197741
 20
117.9416653704811
 30
0.0
 10
36.92640011781301
 20
118.1506861876808
 30
0.0
 10
36.78816715275263
 20
118.5035381146684
 30
0.0
 10
36.64993418769236
 20
118.9567775546853
 30
0.0
 10
36.59358703679633
 20
119.1415290798187
 30
0.0
  0
LINE
  5
179
330
1F
100
AcDbEntity
  8
0
  6
Continuous
 62
     7
370
    15
100
AcDbLine
 10
684.7270954809
 20
473.0415290798
 30
0.0
 11
684.7270954809
 21
514.6415290798
 31
0.0
  0
LINE
  5
17A
330
1F
100
AcDbEntity
  8
0
  6
Continuous
 62
     7
370
    15
100
AcDbLine
 10
114.7270954809
 20
473.0915290798
 30
0.0
 11
114.7270954809
 21
473.0415290798
 31
0.0
  0
LINE
  5
17B
330
1F
100
AcDbEntity
  8
0
  6
Continuous
 62
     7
370
    15
100
AcDbLine
 10
114.6270954809
 20
473.0915290798
 30
0.0
 11
114.7270954809
 21
473.0915290798
 31
0.0
  0
LINE
  5
17C
330
1F
100
AcDbEntity
  8
0
  6
Continuous
 62
     7
370
    15
100
AcDbLine
 10
114.6270954809
 20
471.0915290798
 30
0.0
 11
114.6270954809
 21
473.0915290798
 31
0.0
  0
ARC
  5
17D
330
1F
100
AcDbEntity
  8
0
  6
Continuous
 62
     7
370
    15
100
AcDbCircle
 10
114.1270954809
 20
471.0915290798
 30
0.0
 40
0.5000000000000568
100
AcDbArc
 50
270.0
 51
0.0
  0
LINE
  5
17E
330
1F
100
AcDbEntity
  8
0
  6
Continuous
 62
     7
370
    15
100
AcDbLine
 10
90.2270954809
 20
470.5915290798
 30
0.0
 11
114.1270954809
 21
470.5915290798
 31
0.0
  0
LINE
  5
17F
330
1F
100
AcDbEntity
  8
0
  6
Continuous
 62
     7
370
    15
100
AcDbLine
 10
89.3270954809
 20
517.0915290798
 30
0.0
 11
684.7270954809
 21
517.0915290798
 31
0.0
  0
LINE
  5
180
330
1F
100
AcDbEntity
  8
0
  6
Continuous
 62
     7
370
    15
100
AcDbLine
 10
684.7270954809
 20
517.0915290798
 30
0.0
 11
684.7270954809
 21
514.6415290798
 31
0.0
  0
SPLINE
  5
181
330
1F
100
AcDbEntity
  8
0
  6
Continuous
 62
     7
370
    15
100
AcDbSpline
210
0.0
220
0.0
230
1.0
 70
     8
 71
     3
 72
     9
 73
     5
 74
     0
 42
0.00000001
 43
0.00000001
 12
1.0
 22
0.0
 32
0.0
 13
1.0
 23
0.0
 33
0.0
 40
0.0
 40
0.0
 40
0.0
 40
0.0
 40
0.4093858700496711
 40
0.9999999999999999
 40
0.9999999999999999
 40
0.9999999999999999
 40
0.9999999999999999
 10
36.59358703679649
 20
515.0415290798167
 30
0.0
 10
36.64993418769236
 20
515.2263046295279
 30
0.0
 10
36.78757242833053
 20
515.6776527664061
 30
0.0
 10
36.92521066896853
 20
516.0290452908923
 30
0.0
 10
37.00650175871084
 20
516.2365826810128
 30
0.0
  0
LINE
  5
182
330
1F
100
AcDbEntity
  8
0
  6
Continuous
 62
     7
370
    15
100
AcDbLine
 10
684.9270954809
 20
514.6415290798
 30
0.0
 11
684.9270954809
 21
517.0915290798
 31
0.0
  0
LINE
  5
183
330
1F
100
AcDbEntity
  8
0
  6
Continuous
 62
     7
370
    15
100
AcDbLine
 10
684.9270954809
 20
517.0915290798
 30
0.0
 11
778.4970954809
 21
517.0915290798
 31
0.0
  0
LINE
  5
184
330
1F
100
AcDbEntity
  8
0
  6
Continuous
 62
     7
370
    15
100
AcDbLine
 10
778.4970954809
 20
517.0915290798
 30
0.0
 11
778.4970954809
 21
515.8915290798
 31
0.0
  0
LINE
  5
185
330
1F
100
AcDbEntity
  8
0
  6
Continuous
 62
     7
370
    15
100
AcDbLine
 10
778.4970954809
 20
515.8915290798
 30
0.0
 11
801.7970954809
 21
515.8915290798
 31
0.0
  0
LINE
  5
186
330
1F
100
AcDbEntity
  8
0
  6
Continuous
 62
     7
370
    15
100
AcDbLine
 10
801.7970954809
 20
118.2915290798
 30
0.0
 11
778.4970954809
 21
118.2915290798
 31
0.0
  0
LINE
  5
187
330
1F
100
AcDbEntity
  8
0
  6
Continuous
 62
     7
370
    15
100
AcDbLine
 10
778.4970954809
 20
118.2915290798
 30
0.0
 11
778.4970954809
 21
119.5415290798
 31
0.0
  0
LINE
  5
188
330
1F
100
AcDbEntity
  8
0
  6
Continuous
 62
     7
370
    15
100
AcDbLine
 10
778.4970954809
 20
515.8915290798
 30
0.0
 11
778.4970954809
 21
514.6415290798
 31
0.0
  0
LINE
  5
189
330
1F
100
AcDbEntity
  8
0
  6
Continuous
 62
     7
370
    15
100
AcDbLine
 10
684.9270954809
 20
163.4622397579
 30
0.0
 11
684.9270954809
 21
119.5415290798
 31
0.0
  0
LINE
  5
18A
330
1F
100
AcDbEntity
  8
0
  6
Continuous
 62
     7
370
    15
100
AcDbLine
 10
687.4270954809
 20
163.4622397579
 30
0.0
 11
684.9270954809
 21
163.4622397579
 31
0.0
  0
LINE
  5
18B
330
1F
100
AcDbEntity
  8
0
  6
Continuous
 62
     7
370
    15
100
AcDbLine
 10
687.4270954809
 20
163.6622397579
 30
0.0
 11
687.4270954809
 21
163.4622397579
 31
0.0
  0
LINE
  5
18C
330
1F
100
AcDbEntity
  8
0
  6
Continuous
 62
     7
370
    15
100
AcDbLine
 10
687.1770954809
 20
163.6622397579
 30
0.0
 11
687.4270954809
 21
163.6622397579
 31
0.0
  0
LINE
  5
18D
330
1F
100
AcDbEntity
  8
0
  6
Continuous
 62
     7
370
    15
100
AcDbLine
 10
687.4270954809
 20
470.5208184017
 30
0.0
 11
687.1770954809
 21
470.5208184017
 31
0.0
  0
LINE
  5
18E
330
1F
100
AcDbEntity
  8
0
  6
Continuous
 62
     7
370
    15
100
AcDbLine
 10
687.4270954809
 20
470.7208184017
 30
0.0
 11
687.4270954809
 21
470.5208184017
 31
0.0
  0
LINE
  5
18F
330
1F
100
AcDbEntity
  8
0
  6
Continuous
 62
     7
370
    15
100
AcDbLine
 10
684.9270954809
 20
470.7208184017
 30
0.0
 11
687.4270954809
 21
470.7208184017
 31
0.0
  0
LINE
  5
190
330
1F
100
AcDbEntity
  8
0
  6
Continuous
 62
     7
370
    15
100
AcDbLine
 10
684.9270954809
 20
514.6415290798
 30
0.0
 11
684.9270954809
 21
470.7208184017
 31
0.0
  0
LINE
  5
191
330
1F
100
AcDbEntity
  8
0
  6
Continuous
 62
     7
370
    15
100
AcDbLine
 10
112.2770954809
 20
470.584458012
 30
0.0
 11
90.2270954809
 21
470.584458012
 31
0.0
  0
LINE
  5
192
330
1F
100
AcDbEntity
  8
0
  6
Continuous
 62
     7
370
    15
100
AcDbLine
 10
90.2270954809
 20
163.5986001476
 30
0.0
 11
112.2770954809
 21
163.5986001476
 31
0.0
  0
LINE
  5
193
330
1F
100
AcDbEntity
  8
0
  6
Continuous
 62
     7
370
    15
100
AcDbLine
 10
114.7270954809
 20
163.5986001476
 30
0.0
 11
112.2770954809
 21
163.5986001476
 31
0.0
  0
LINE
  5
194
330
1F
100
AcDbEntity
  8
0
  6
Continuous
 62
     7
370
    15
100
AcDbLine
 10
112.2770954809
 20
470.584458012
 30
0.0
 11
114.7270954809
 21
470.584458012
 31
0.0
  0
LINE
  5
195
330
1F
100
AcDbEntity
  8
0
  6
Continuous
 62
     7
370
    15
100
AcDbLine
 10
114.7270954809
 20
470.584458012
 30
0.0
 11
114.7270954809
 21
163.5986001476
 31
0.0
  0
LINE
  5
196
330
1F
100
AcDbEntity
  8
0
  6
Continuous
 62
     7
370
    15
100
AcDbLine
 10
687.1770954809
 20
163.6622397579
 30
0.0
 11
684.7270954809
 21
163.6622397579
 31
0.0
  0
LINE
  5
197
330
1F
100
AcDbEntity
  8
0
  6
Continuous
 62
     7
370
    15
100
AcDbLine
 10
684.7270954809
 20
163.6622397579
 30
0.0
 11
684.7270954809
 21
470.5208184017
 31
0.0
  0
LINE
  5
198
330
1F
100
AcDbEntity
  8
0
  6
Continuous
 62
     7
370
    15
100
AcDbLine
 10
684.7270954809
 20
470.5208184017
 30
0.0
 11
687.1770954809
 21
470.5208184017
 31
0.0
  0
LINE
  5
199
330
1F
100
AcDbEntity
  8
0
  6
Continuous
 62
     7
370
    15
100
AcDbLine
 10
114.7341665487
 20
163.5915290798
 30
0.0
 11
684.6563848028
 21
163.5915290798
 31
0.0
  0
LINE
  5
19A
330
1F
100
AcDbEntity
  8
0
  6
Continuous
 62
     7
370
    15
100
AcDbLine
 10
684.6563848028
 20
163.5915290798
 30
0.0
 11
684.7270954809
 21
163.5915290798
 31
0.0
  0
LINE
  5
19B
330
1F
100
AcDbEntity
  8
0
  6
Continuous
 62
     7
370
    15
100
AcDbLine
 10
684.7270954809
 20
163.5915290798
 30
0.0
 11
684.7270954809
 21
161.1415290798
 31
0.0
  0
LINE
  5
19C
330
1F
100
AcDbEntity
  8
0
  6
Continuous
 62
     7
370
    15
100
AcDbLine
 10
114.7270954809
 20
163.5915290798
 30
0.0
 11
114.7341665487
 21
163.5915290798
 31
0.0
  0
LINE
  5
19D
330
1F
100
AcDbEntity
  8
0
  6
Continuous
 62
     7
370
    15
100
AcDbLine
 10
114.7270954809
 20
161.1415290798
 30
0.0
 11
114.7270954809
 21
163.5915290798
 31
0.0
  0
LINE
  5
19E
330
1F
100
AcDbEntity
  8
0
  6
Continuous
 62
     7
370
    15
100
AcDbLine
 10
778.4970954809
 20
118.2915290798
 30
0.0
 11
778.4970954809
 21
117.0915290798
 31
0.0
  0
LINE
  5
19F
330
1F
100
AcDbEntity
  8
0
  6
Continuous
 62
     7
370
    15
100
AcDbLine
 10
778.4970954809
 20
117.0915290798
 30
0.0
 11
684.9270954809
 21
117.0915290798
 31
0.0
  0
LINE
  5
1A0
330
1F
100
AcDbEntity
  8
0
  6
Continuous
 62
     7
370
    15
100
AcDbLine
 10
684.9270954809
 20
117.0915290798
 30
0.0
 11
684.9270954809
 21
119.5415290798
 31
0.0
  0
LINE
  5
1A1
330
1F
100
AcDbEntity
  8
0
  6
Continuous
 62
     7
370
    15
100
AcDbLine
 10
684.6563848028
 20
470.5915290798
 30
0.0
 11
114.7341665487
 21
470.5915290798
 31
0.0
  0
LINE
  5
1A2
330
1F
100
AcDbEntity
  8
0
  6
Continuous
 62
     7
370
    15
100
AcDbLine
 10
114.7341665487
 20
470.5915290798
 30
0.0
 11
114.7270954809
 21
470.5915290798
 31
0.0
  0
LINE
  5
1A3
330
1F
100
AcDbEntity
  8
0
  6
Continuous
 62
     7
370
    15
100
AcDbLine
 10
684.7270954809
 20
473.0415290798
 30
0.0
 11
684.7270954809
 21
470.5915290798
 31
0.0
  0
LINE
  5
1A4
330
1F
100
AcDbEntity
  8
0
  6
Continuous
 62
     7
370
    15
100
AcDbLine
 10
684.7270954809
 20
470.5915290798
 30
0.0
 11
684.6563848028
 21
470.5915290798
 31
0.0
  0
LINE
  5
1A5
330
1F
100
AcDbEntity
  8
0
  6
Continuous
 62
     7
370
    15
100
AcDbLine
 10
114.7270954809
 20
470.5915290798
 30
0.0
 11
114.7270954809
 21
473.0415290798
 31
0.0
  0
SPLINE
  5
1A6
330
1F
100
AcDbEntity
  8
0
  6
Continuous
 62
     7
370
    15
100
AcDbSpline
210
0.0
220
0.0
230
1.0
 70
     8
 71
     3
 72
    10
 73
     6
 74
     0
 42
0.00000001
 43
0.00000001
 12
1.0
 22
0.0
 32
0.0
 13
1.0
 23
0.0
 33
0.0
 40
0.0
 40
0.0
 40
0.0
 40
0.0
 40
0.2880118278756469
 40
0.6485597760094037
 40
1.0
 40
1.0
 40
1.0
 40
1.0
 10
36.73599948053052
 20
515.4944196820891
 30
0.0
 10
36.70261813423114
 20
515.4573366083321
 30
0.0
 10
36.62744830999676
 20
515.3738310447342
 30
0.0
 10
36.52981264940275
 20
515.2164427930497
 30
0.0
 10
36.48147743152907
 20
515.0887872266989
 30
0.0
 10
36.4576189736765
 20
515.0257759259658
 30
0.0
  0
SPLINE
  5
1A7
330
1F
100
AcDbEntity
  8
0
  6
Continuous
 62
     7
370
    15
100
AcDbSpline
210
0.0
220
0.0
230
1.0
 70
     8
 71
     3
 72
     9
 73
     5
 74
     0
 42
0.00000001
 43
0.00000001
 12
1.0
 22
0.0
 32
0.0
 13
1.0
 23
0.0
 33
0.0
 40
0.0
 40
0.0
 40
0.0
 40
0.0
 40
0.3306779158765405
 40
1.0
 40
1.0
 40
1.0
 40
1.0
 10
35.23777766246256
 20
515.0415290798157
 30
0.0
 10
35.22815888601771
 20
514.9982108344519
 30
0.0
 10
35.19907083391949
 20
514.8672125328297
 30
0.0
 10
35.19788750744019
 20
514.7320178599986
 30
0.0
 10
35.19709548089494
 20
514.6415290798168
 30
0.0
  0
SPLINE
  5
1A8
330
1F
100
AcDbEntity
  8
0
  6
Continuous
 62
     7
370
    15
100
AcDbSpline
210
0.0
220
0.0
230
1.0
 70
     8
 71
     3
 72
     9
 73
     5
 74
     0
 42
0.00000001
 43
0.00000001
 12
1.0
 22
0.0
 32
0.0
 13
1.0
 23
0.0
 33
0.0
 40
0.0
 40
0.0
 40
0.0
 40
0.0
 40
0.5922686590280279
 40
1.0
 40
1.0
 40
1.0
 40
1.0
 10
36.46780615901296
 20
119.1419774195032
 30
0.0
 10
36.50611643846536
 20
119.0414155809115
 30
0.0
 10
36.570800393742
 20
118.8716246641394
 30
0.0
 10
36.68346297714842
 20
118.7565487901961
 30
0.0
 10
36.72939904335792
 20
118.7096287497997
 30
0.0
  0
SPLINE
  5
1A9
330
1F
100
AcDbEntity
  8
0
  6
Continuous
 62
     7
370
    15
100
AcDbSpline
210
0.0
220
0.0
230
1.0
 70
     8
 71
     3
 72
     9
 73
     5
 74
     0
 42
0.00000001
 43
0.00000001
 12
1.0
 22
0.0
 32
0.0
 13
1.0
 23
0.0
 33
0.0
 40
0.0
 40
0.0
 40
0.0
 40
0.0
 40
0.9672033345123
 40
0.9999999999999999
 40
0.9999999999999999
 40
0.9999999999999999
 40
0.9999999999999999
 10
35.19709548089567
 20
119.5415290798168
 30
0.0
 10
35.19750597640431
 20
119.4105702157066
 30
0.0
 10
35.19793039130653
 20
119.2751706989378
 30
0.0
 10
35.2299627069117
 20
119.1457728962649
 30
0.0
 10
35.23101326005145
 20
119.1415290798158
 30
0.0
  0
LINE
  5
1AA
330
1F
100
AcDbEntity
  8
0
  6
Continuous
 62
     7
370
    15
100
AcDbLine
 10
35.1970954809
 20
119.5415290798
 30
0.0
 11
35.1970954809
 21
156.2915290798
 31
0.0
  0
LINE
  5
1AB
330
1F
100
AcDbEntity
  8
0
  6
Continuous
 62
     7
370
    15
100
AcDbLine
 10
35.1970954809
 20
514.6415290798
 30
0.0
 11
35.1970954809
 21
477.8915290798
 31
0.0
  0
LINE
  5
1AC
330
1F
100
AcDbEntity
  8
0
  6
Continuous
 62
     7
370
    15
100
AcDbLine
 10
35.1970954809
 20
158.2915290798
 30
0.0
 11
35.2270954809
 21
158.2915290798
 31
0.0
  0
LINE
  5
1AD
330
1F
100
AcDbEntity
  8
0
  6
Continuous
 62
     7
370
    15
100
AcDbLine
 10
35.1970954809
 20
156.2915290798
 30
0.0
 11
35.1970954809
 21
158.2915290798
 31
0.0
  0
LINE
  5
1AE
330
1F
100
AcDbEntity
  8
0
  6
Continuous
 62
     7
370
    15
100
AcDbLine
 10
35.2270954809
 20
475.8915290798
 30
0.0
 11
35.1970954809
 21
475.8915290798
 31
0.0
  0
LINE
  5
1AF
330
1F
100
AcDbEntity
  8
0
  6
Continuous
 62
     7
370
    15
100
AcDbLine
 10
35.1970954809
 20
475.8915290798
 30
0.0
 11
35.1970954809
 21
477.8915290798
 31
0.0
  0
LINE
  5
1B0
330
1F
100
AcDbEntity
  8
0
  6
Continuous
 62
     7
370
    15
100
AcDbLine
 10
778.9970954809
 20
517.0915290798
 30
0.0
 11
778.9970954809
 21
515.8915290798
 31
0.0
  0
LINE
  5
1B1
330
1F
100
AcDbEntity
  8
0
  6
Continuous
 62
     7
370
    15
100
AcDbLine
 10
778.9970954809
 20
517.0915290798
 30
0.0
 11
800.4970954809
 21
517.0915290798
 31
0.0
  0
LINE
  5
1B2
330
1F
100
AcDbEntity
  8
0
  6
Continuous
 62
     7
370
    15
100
AcDbLine
 10
800.4970954809
 20
117.0915290798
 30
0.0
 11
778.9970954809
 21
117.0915290798
 31
0.0
  0
LINE
  5
1B3
330
1F
100
AcDbEntity
  8
0
  6
Continuous
 62
     7
370
    15
100
AcDbLine
 10
778.9970954809
 20
117.0915290798
 30
0.0
 11
778.9970954809
 21
118.2915290798
 31
0.0
  0
LINE
  5
1B4
330
1F
100
AcDbEntity
  8
0
  6
Continuous
 62
     7
370
    15
100
AcDbLine
 10
778.4970954809
 20
517.0915290798
 30
0.0
 11
778.9970954809
 21
517.0915290798
 31
0.0
  0
LINE
  5
1B5
330
1F
100
AcDbEntity
  8
0
  6
Continuous
 62
     7
370
    15
100
AcDbLine
 10
778.9970954809
 20
117.0915290798
 30
0.0
 11
778.4970954809
 21
117.0915290798
 31
0.0
  0
SPLINE
  5
1B6
330
1F
100
AcDbEntity
  8
0
  6
Continuous
 62
     7
370
    15
100
AcDbSpline
210
0.0
220
0.0
230
1.0
 70
     8
 71
     3
 72
    12
 73
     8
 74
     0
 42
0.00000001
 43
0.00000001
 12
1.0
 22
0.0
 32
0.0
 13
1.0
 23
0.0
 33
0.0
 40
0.0
 40
0.0
 40
0.0
 40
0.0
 40
0.1753621471153063
 40
0.3507539498908684
 40
0.5245911428965105
 40
0.8035818577727326
 40
1.0
 40
1.0
 40
1.0
 40
1.0
 10
684.7270954808952
 20
163.6622397579349
 30
0.0
 10
684.7142120713598
 20
163.6854257052012
 30
0.0
 10
684.6884430735633
 20
163.7318015207315
 30
0.0
 10
684.4940621555095
 20
163.8638084628949
 30
0.0
 10
684.196358597644
 20
164.1272011192329
 30
0.0
 10
683.8484155147297
 20
164.4723025603717
 30
0.0
 10
683.5856561539408
 20
164.7335804753652
 30
0.0
 10
683.4770954808953
 20
164.8415290798164
 30
0.0
  0
SPLINE
  5
1B7
330
1F
100
AcDbEntity
  8
0
  6
Continuous
 62
     7
370
    15
100
AcDbSpline
210
0.0
220
0.0
230
1.0
 70
     8
 71
     3
 72
    12
 73
     8
 74
     0
 42
0.00000001
 43
0.00000001
 12
1.0
 22
0.0
 32
0.0
 13
1.0
 23
0.0
 33
0.0
 40
0.0
 40
0.0
 40
0.0
 40
0.0
 40
0.3389712583386879
 40
0.5590414607419889
 40
0.7313750796763245
 40
0.9042994561657487
 40
1.0
 40
1.0
 40
1.0
 40
1.0
 10
683.4770954808952
 20
469.3415290798164
 30
0.0
 10
683.6677054286657
 20
469.5269008307623
 30
0.0
 10
683.9820650122949
 20
469.8326214247058
 30
0.0
 10
684.3497468240206
 20
470.2016475532975
 30
0.0
 10
684.5922315939472
 20
470.4048802938016
 30
0.0
 10
684.7118142670498
 20
470.4958457851314
 30
0.0
 10
684.7230814313176
 20
470.5142586269317
 30
0.0
 10
684.7270954808951
 20
470.5208184016976
 30
0.0
  0
SPLINE
  5
1B8
330
1F
100
AcDbEntity
  8
0
  6
Continuous
 62
     7
370
    15
100
AcDbSpline
210
0.0
220
0.0
230
1.0
 70
     8
 71
     3
 72
    13
 73
     9
 74
     0
 42
0.00000001
 43
0.00000001
 12
1.0
 22
0.0
 32
0.0
 13
1.0
 23
0.0
 33
0.0
 40
0.0
 40
0.0
 40
0.0
 40
0.0
 40
0.3170694908695288
 40
0.5391714313214828
 40
0.6413542761018688
 40
0.7513247940555832
 40
0.8705030135411519
 40
1.0
 40
1.0
 40
1.0
 40
1.0
 10
115.9770954808959
 20
164.8415290798163
 30
0.0
 10
115.799039807925
 20
164.6644336721022
 30
0.0
 10
115.4962590774693
 20
164.3632858568523
 30
0.0
 10
115.1695037459436
 20
164.0293063021518
 30
0.0
 10
114.9712507697102
 20
163.8512381968816
 30
0.0
 10
114.8447897513809
 20
163.7466473964965
 30
0.0
 10
114.7476742606813
 20
163.6592583112929
 30
0.0
 10
114.7341422443035
 20
163.6193712396241
 30
0.0
 10
114.7270954808959
 20
163.5986001476282
 30
0.0
  0
SPLINE
  5
1B9
330
1F
100
AcDbEntity
  8
0
  6
Continuous
 62
     7
370
    15
100
AcDbSpline
210
0.0
220
0.0
230
1.0
 70
     8
 71
     3
 72
    12
 73
     8
 74
     0
 42
0.00000001
 43
0.00000001
 12
1.0
 22
0.0
 32
0.0
 13
1.0
 23
0.0
 33
0.0
 40
0.0
 40
0.0
 40
0.0
 40
0.0
 40
0.162170791933557
 40
0.3241356179807718
 40
0.4919611287772412
 40
0.7725052834815068
 40
1.0
 40
1.0
 40
1.0
 40
1.0
 10
114.7270954808957
 20
470.5844580120045
 30
0.0
 10
114.7386169072171
 20
470.5642540455811
 30
0.0
 10
114.7616451270105
 20
470.5238717728905
 30
0.0
 10
114.9315169895945
 20
470.3779772498716
 30
0.0
 10
115.2062327661521
 20
470.11468466154
 30
0.0
 10
115.5629637959945
 20
469.749138558878
 30
0.0
 10
115.8490078288456
 20
469.4675994652262
 30
0.0
 10
115.977095480896
 20
469.3415290798144
 30
0.0
  0
SPLINE
  5
1BA
330
1F
100
AcDbEntity
  8
0
  6
Continuous
 62
     7
370
    15
100
AcDbSpline
210
0.0
220
0.0
230
1.0
 70
     8
 71
     3
 72
    11
 73
     7
 74
     0
 42
0.00000001
 43
0.00000001
 12
1.0
 22
0.0
 32
0.0
 13
1.0
 23
0.0
 33
0.0
 40
0.0
 40
0.0
 40
0.0
 40
0.0
 40
0.2499999999999994
 40
0.5000000000000033
 40
0.7500000000000016
 40
1.0
 40
1.0
 40
1.0
 40
1.0
 10
683.4770954808951
 20
164.8415290798163
 30
0.0
 10
683.5753695910518
 20
164.6777327750585
 30
0.0
 10
683.7719178113654
 20
164.3501401655429
 30
0.0
 10
684.0667401418359
 20
163.9369589941717
 30
0.0
 10
684.3615624723061
 20
163.6478974777688
 30
0.0
 10
684.5581106926197
 20
163.6103185458004
 30
0.0
 10
684.6563848027764
 20
163.5915290798163
 30
0.0
  0
SPLINE
  5
1BB
330
1F
100
AcDbEntity
  8
0
  6
Continuous
 62
     7
370
    15
100
AcDbSpline
210
0.0
220
0.0
230
1.0
 70
     8
 71
     3
 72
    11
 73
     7
 74
     0
 42
0.00000001
 43
0.00000001
 12
1.0
 22
0.0
 32
0.0
 13
1.0
 23
0.0
 33
0.0
 40
0.0
 40
0.0
 40
0.0
 40
0.0
 40
0.2684698853759838
 40
0.5229980957176843
 40
0.7774891618644779
 40
1.0
 40
1.0
 40
1.0
 40
1.0
 10
114.7341665487071
 20
163.5915290798164
 30
0.0
 10
114.8454872420421
 20
163.6132118495501
 30
0.0
 10
115.0623477310563
 20
163.6554514000485
 30
0.0
 10
115.3844114125947
 20
163.9698834534845
 30
0.0
 10
115.687662034078
 20
164.383762055314
 30
0.0
 10
115.8850284248856
 20
164.6959161150822
 30
0.0
 10
115.9770954808955
 20
164.8415290798164
 30
0.0
  0
SPLINE
  5
1BC
330
1F
100
AcDbEntity
  8
0
  6
Continuous
 62
     7
370
    15
100
AcDbSpline
210
0.0
220
0.0
230
1.0
 70
     8
 71
     3
 72
    11
 73
     7
 74
     0
 42
0.00000001
 43
0.00000001
 12
1.0
 22
0.0
 32
0.0
 13
1.0
 23
0.0
 33
0.0
 40
0.0
 40
0.0
 40
0.0
 40
0.0
 40
0.2499999999999967
 40
0.5000000000000049
 40
0.7500000000000046
 40
1.0
 40
1.0
 40
1.0
 40
1.0
 10
115.9770954808955
 20
469.3415290798148
 30
0.0
 10
115.8735180698798
 20
469.5053253845728
 30
0.0
 10
115.6663632478485
 20
469.8329179940887
 30
0.0
 10
115.3556310148013
 20
470.2460991654604
 30
0.0
 10
115.0448987817542
 20
470.5351606818637
 30
0.0
 10
114.8377439597228
 20
470.5727396138321
 30
0.0
 10
114.7341665487072
 20
470.5915290798163
 30
0.0
  0
SPLINE
  5
1BD
330
1F
100
AcDbEntity
  8
0
  6
Continuous
 62
     7
370
    15
100
AcDbSpline
210
0.0
220
0.0
230
1.0
 70
     8
 71
     3
 72
    11
 73
     7
 74
     0
 42
0.00000001
 43
0.00000001
 12
1.0
 22
0.0
 32
0.0
 13
1.0
 23
0.0
 33
0.0
 40
0.0
 40
0.0
 40
0.0
 40
0.0
 40
0.2499999999999984
 40
0.4999999999999966
 40
0.7500000000000007
 40
1.0
 40
1.0
 40
1.0
 40
1.0
 10
684.656384802776
 20
470.5915290798163
 30
0.0
 10
684.5581106926192
 20
470.5727396138321
 30
0.0
 10
684.3615624723058
 20
470.5351606818638
 30
0.0
 10
684.0667401418355
 20
470.2460991654609
 30
0.0
 10
683.7719178113653
 20
469.8329179940897
 30
0.0
 10
683.5753695910519
 20
469.5053253845741
 30
0.0
 10
683.4770954808952
 20
469.3415290798163
 30
0.0
  0
LINE
  5
1BE
330
1F
100
AcDbEntity
  8
0
  6
Continuous
 62
     7
370
    15
100
AcDbLine
 10
684.9270954809
 20
119.5915290798
 30
0.0
 11
684.7270954809
 21
119.5915290798
 31
0.0
  0
LINE
  5
1BF
330
1F
100
AcDbEntity
  8
0
  6
Continuous
 62
     7
370
    15
100
AcDbLine
 10
684.7302869824
 20
514.5915290798
 30
0.0
 11
684.9270954809
 21
514.5915290798
 31
0.0
  0
LINE
  5
1C0
330
1F
100
AcDbEntity
  8
0
  6
Continuous
 62
     7
370
    15
100
AcDbLine
 10
685.9302869824
 20
470.7208184017
 30
0.0
 11
685.9302869824
 21
470.5208184017
 31
0.0
  0
LINE
  5
1C1
330
1F
100
AcDbEntity
  8
0
  6
Continuous
 62
     7
370
    15
100
AcDbLine
 10
685.9302869824
 20
163.6622397579
 30
0.0
 11
685.9302869824
 21
163.4622397579
 31
0.0
  0
LINE
  5
1C2
330
1F
100
AcDbEntity
  8
0
  6
Continuous
 62
     7
370
    15
100
AcDbLine
 10
684.9270954809
 20
117.0915290798
 30
0.0
 11
684.7270954809
 21
117.0915290798
 31
0.0
  0
LINE
  5
1C3
330
1F
100
AcDbEntity
  8
0
  6
Continuous
 62
     7
370
    15
100
AcDbLine
 10
684.7270954809
 20
517.0915290798
 30
0.0
 11
684.9270954809
 21
517.0915290798
 31
0.0
  0
SPLINE
  5
1C4
330
1F
100
AcDbEntity
  8
0
  6
Continuous
 62
     7
370
    15
100
AcDbSpline
210
0.0
220
0.0
230
1.0
 70
     8
 71
     3
 72
    13
 73
     9
 74
     0
 42
0.00000001
 43
0.00000001
 12
1.0
 22
0.0
 32
0.0
 13
1.0
 23
0.0
 33
0.0
 40
0.0
 40
0.0
 40
0.0
 40
0.0
 40
0.1695411050600938
 40
0.3386458383077605
 40
0.5184804584270561
 40
0.7277236211488111
 40
0.9924537768853442
 40
0.9999999999999999
 40
0.9999999999999999
 40
0.9999999999999999
 40
0.9999999999999999
 10
24.24709548089343
 20
153.2225343344376
 30
0.0
 10
24.22248433360674
 20
153.2232371378328
 30
0.0
 10
24.17332538420841
 20
153.2246409357191
 30
0.0
 10
24.10718959082786
 20
153.2352788614114
 30
0.0
 10
24.05151798772381
 20
153.2512715257405
 30
0.0
 10
24.00879920845134
 20
153.2741477708192
 30
0.0
 10
23.99721354883877
 20
153.2926123700066
 30
0.0
 10
23.9970986649361
 20
153.3029047126449
 30
0.0
 10
23.99709548089352
 20
153.303189968069
 30
0.0
  0
LINE
  5
1C5
330
1F
100
AcDbEntity
  8
0
  6
Continuous
 62
     7
370
    15
100
AcDbLine
 10
23.9970954809
 20
146.8806696801
 30
0.0
 11
23.9970954809
 21
153.3031899681
 31
0.0
  0
SPLINE
  5
1C6
330
1F
100
AcDbEntity
  8
0
  6
Continuous
 62
     7
370
    15
100
AcDbSpline
210
0.0
220
0.0
230
1.0
 70
     8
 71
     3
 72
    13
 73
     9
 74
     0
 42
0.00000001
 43
0.00000001
 12
1.0
 22
0.0
 32
0.0
 13
1.0
 23
0.0
 33
0.0
 40
0.0
 40
0.0
 40
0.0
 40
0.0
 40
0.0075462231143949
 40
0.2722763788512354
 40
0.4815195415729815
 40
0.661354161692473
 40
0.8304588949398423
 40
0.9999999999999999
 40
0.9999999999999999
 40
0.9999999999999999
 40
0.9999999999999999
 10
25.19709548089349
 20
153.303189968069
 30
0.0
 10
25.19709229685102
 20
153.3029047126449
 30
0.0
 10
25.19697741294841
 20
153.2926123700059
 30
0.0
 10
25.18539175333556
 20
153.2741477708196
 30
0.0
 10
25.14267297406314
 20
153.2512715257403
 30
0.0
 10
25.08700137095898
 20
153.2352788614112
 30
0.0
 10
25.02086557757854
 20
153.2246409357187
 30
0.0
 10
24.9717066281801
 20
153.2232371378328
 30
0.0
 10
24.94709548089347
 20
153.2225343344377
 30
0.0
  0
LINE
  5
1C7
330
1F
100
AcDbEntity
  8
0
  6
Continuous
 62
     7
370
    15
100
AcDbLine
 10
25.1970954809
 20
153.3031899681
 30
0.0
 11
25.1970954809
 21
146.5353793302
 31
0.0
  0
LINE
  5
1C8
330
1F
100
AcDbEntity
  8
0
  6
Continuous
 62
     7
370
    15
100
AcDbLine
 10
24.2470954809
 20
153.2225343344
 30
0.0
 11
24.9470954809
 21
153.2225343344
 31
0.0
  0
SPLINE
  5
1C9
330
1F
100
AcDbEntity
  8
0
  6
Continuous
 62
     7
370
    15
100
AcDbSpline
210
0.0
220
0.0
230
1.0
 70
     8
 71
     3
 72
    12
 73
     8
 74
     0
 42
0.00000001
 43
0.00000001
 12
1.0
 22
0.0
 32
0.0
 13
1.0
 23
0.0
 33
0.0
 40
0.0
 40
0.0
 40
0.0
 40
0.0
 40
0.2289440738516418
 40
0.4594214300241799
 40
0.6825355698157423
 40
0.8947175231628351
 40
1.0
 40
1.0
 40
1.0
 40
1.0
 10
25.19709548089388
 20
158.0906564485939
 30
0.0
 10
25.17976099631625
 20
158.2124673629582
 30
0.0
 10
25.14497593479714
 20
158.4569049827151
 30
0.0
 10
24.87110608898491
 20
158.7768447441078
 30
0.0
 10
24.47406955450193
 20
159.006291234602
 30
0.0
 10
24.07319356514898
 20
159.1090374439743
 30
0.0
 10
23.82830817206199
 20
159.117775777229
 30
0.0
 10
23.74709548089382
 20
159.1206737187968
 30
0.0
  0
LINE
  5
1CA
330
1F
100
AcDbEntity
  8
0
  6
Continuous
 62
     7
370
    15
100
AcDbLine
 10
25.1970954809
 20
158.0906564486
 30
0.0
 11
25.1970954809
 21
153.5099412244
 31
0.0
  0
LINE
  5
1CB
330
1F
100
AcDbEntity
  8
0
  6
Continuous
 62
     7
370
    15
100
AcDbLine
 10
18.3970954809
 20
154.3284598515
 30
0.0
 11
18.3970954809
 21
158.9091750757
 31
0.0
  0
LINE
  5
1CC
330
1F
100
AcDbEntity
  8
0
  6
Continuous
 62
     7
370
    15
100
AcDbLine
 10
18.3970954809
 20
153.8524809034
 30
0.0
 11
18.3970954809
 21
154.3284598515
 31
0.0
  0
LINE
  5
1CD
330
1F
100
AcDbEntity
  8
0
  6
Continuous
 62
     7
370
    15
100
AcDbLine
 10
23.9970954809
 20
153.3031899681
 30
0.0
 11
23.9970954809
 21
153.5099412244
 31
0.0
  0
LINE
  5
1CE
330
1F
100
AcDbEntity
  8
0
  6
Continuous
 62
     7
370
    15
100
AcDbLine
 10
25.1970954809
 20
153.5099412244
 30
0.0
 11
25.1970954809
 21
153.3031899681
 31
0.0
  0
LINE
  5
1CF
330
1F
100
AcDbEntity
  8
0
  6
Continuous
 62
     7
370
    15
100
AcDbLine
 10
23.7470954809
 20
159.1206737188
 30
0.0
 11
23.7470954809
 21
159.1591750757
 31
0.0
  0
LINE
  5
1D0
330
1F
100
AcDbEntity
  8
0
  6
Continuous
 62
     7
370
    15
100
AcDbLine
 10
25.1970954809
 20
158.9415290798
 30
0.0
 11
25.1970954809
 21
158.0906564486
 31
0.0
  0
ARC
  5
1D1
330
1F
100
AcDbEntity
  8
0
  6
Continuous
 62
     7
370
    15
100
AcDbCircle
 10
18.6306656602
 20
142.5307255157
 30
0.0
 40
0.2343528001292006
100
AcDbArc
 50
85.9798550465
 51
175.3161909111
  0
LINE
  5
1D2
330
1F
100
AcDbEntity
  8
0
  6
Continuous
 62
     7
370
    15
100
AcDbLine
 10
18.3970954809
 20
142.549862032
 30
0.0
 11
18.3970954809
 21
144.7617410434
 31
0.0
  0
LINE
  5
1D3
330
1F
100
AcDbEntity
  8
0
  6
Continuous
 62
     7
370
    15
100
AcDbLine
 10
18.3970954809
 20
142.073883084
 30
0.0
 11
18.3970954809
 21
142.549862032
 31
0.0
  0
SPLINE
  5
1D4
330
1F
100
AcDbEntity
  8
0
  6
Continuous
 62
     7
370
    15
100
AcDbSpline
210
0.0
220
0.0
230
1.0
 70
     8
 71
     3
 72
    13
 73
     9
 74
     0
 42
0.00000001
 43
0.00000001
 12
1.0
 22
0.0
 32
0.0
 13
1.0
 23
0.0
 33
0.0
 40
0.0
 40
0.0
 40
0.0
 40
0.0
 40
0.1695411050599626
 40
0.3386458383075283
 40
0.5184804584265357
 40
0.7277236211484244
 40
0.9924537768853887
 40
1.0
 40
1.0
 40
1.0
 40
1.0
 10
23.04709548089367
 20
146.9479335365809
 30
0.0
 10
23.02248433360715
 20
146.9474835453446
 30
0.0
 10
22.97332538420882
 20
146.9465847210777
 30
0.0
 10
22.90718959082805
 20
146.9397855789506
 30
0.0
 10
22.85151798772406
 20
146.9295998873388
 30
0.0
 10
22.80879920845125
 20
146.9151023725601
 30
0.0
 10
22.79721354884084
 20
146.9034874141335
 30
0.0
 10
22.79709866493623
 20
146.8970441889422
 30
0.0
 10
22.79709548089376
 20
146.8968656129854
 30
0.0
  0
LINE
  5
1D5
330
1F
100
AcDbEntity
  8
0
  6
Continuous
 62
     7
370
    15
100
AcDbLine
 10
22.7970954809
 20
146.896865613
 30
0.0
 11
22.7970954809
 21
153.4915290798
 31
0.0
  0
SPLINE
  5
1D6
330
1F
100
AcDbEntity
  8
0
  6
Continuous
 62
     7
370
    15
100
AcDbSpline
210
0.0
220
0.0
230
1.0
 70
     8
 71
     3
 72
    13
 73
     9
 74
     0
 42
0.00000001
 43
0.00000001
 12
1.0
 22
0.0
 32
0.0
 13
1.0
 23
0.0
 33
0.0
 40
0.0
 40
0.0
 40
0.0
 40
0.0
 40
0.0075462231146215
 40
0.2722763788514094
 40
0.4815195415732536
 40
0.6613541616923095
 40
0.8304588949399474
 40
1.0
 40
1.0
 40
1.0
 40
1.0
 10
23.99709548089368
 20
146.8968656129857
 30
0.0
 10
23.99709229685115
 20
146.8970441889425
 30
0.0
 10
23.9969774129482
 20
146.9034874141303
 30
0.0
 10
23.9853917533358
 20
146.9151023725613
 30
0.0
 10
23.94267297406349
 20
146.9295998873385
 30
0.0
 10
23.88700137095934
 20
146.9397855789509
 30
0.0
 10
23.82086557757884
 20
146.9465847210778
 30
0.0
 10
23.77170662818034
 20
146.9474835453446
 30
0.0
 10
23.74709548089371
 20
146.9479335365809
 30
0.0
  0
LINE
  5
1D7
330
1F
100
AcDbEntity
  8
0
  6
Continuous
 62
     7
370
    15
100
AcDbLine
 10
23.9970954809
 20
153.314770547
 30
0.0
 11
23.9970954809
 21
146.896865613
 31
0.0
  0
LINE
  5
1D8
330
1F
100
AcDbEntity
  8
0
  6
Continuous
 62
     7
370
    15
100
AcDbLine
 10
23.7470954809
 20
146.9479335366
 30
0.0
 11
23.0470954809
 21
146.9479335366
 31
0.0
  0
SPLINE
  5
1D9
330
1F
100
AcDbEntity
  8
0
  6
Continuous
 62
     7
370
    15
100
AcDbSpline
210
0.0
220
0.0
230
1.0
 70
     8
 71
     3
 72
    12
 73
     8
 74
     0
 42
0.00000001
 43
0.00000001
 12
1.0
 22
0.0
 32
0.0
 13
1.0
 23
0.0
 33
0.0
 40
0.0
 40
0.0
 40
0.0
 40
0.0
 40
0.2289440738515643
 40
0.4594214300241273
 40
0.6825355698157539
 40
0.8947175231628798
 40
1.0
 40
1.0
 40
1.0
 40
1.0
 10
22.79709548089387
 20
142.4966071329039
 30
0.0
 10
22.81442996547145
 20
142.3625151162844
 30
0.0
 10
22.84921502699061
 20
142.0934330431224
 30
0.0
 10
23.12308487280279
 20
141.7408259876801
 30
0.0
 10
23.52012140728599
 20
141.4878164190133
 30
0.0
 10
23.9209973966385
 20
141.3744735741477
 30
0.0
 10
24.16588278972559
 20
141.3648339195672
 30
0.0
 10
24.24709548089382
 20
141.361637067846
 30
0.0
  0
LINE
  5
1DA
330
1F
100
AcDbEntity
  8
0
  6
Continuous
 62
     7
370
    15
100
AcDbLine
 10
22.7970954809
 20
142.4966071329
 30
0.0
 11
22.7970954809
 21
146.6667042375
 31
0.0
  0
LINE
  5
1DB
330
1F
100
AcDbEntity
  8
0
  6
Continuous
 62
     7
370
    15
100
AcDbLine
 10
29.5970954809
 20
145.7555060355
 30
0.0
 11
29.5970954809
 21
141.5854089309
 31
0.0
  0
LINE
  5
1DC
330
1F
100
AcDbEntity
  8
0
  6
Continuous
 62
     7
370
    15
100
AcDbLine
 10
29.5970954809
 20
146.2853793302
 30
0.0
 11
29.5970954809
 21
145.7555060355
 31
0.0
  0
LINE
  5
1DD
330
1F
100
AcDbEntity
  8
0
  6
Continuous
 62
     7
370
    15
100
AcDbLine
 10
22.7970954809
 20
146.6667042375
 30
0.0
 11
22.7970954809
 21
146.896865613
 31
0.0
  0
LINE
  5
1DE
330
1F
100
AcDbEntity
  8
0
  6
Continuous
 62
     7
370
    15
100
AcDbLine
 10
23.9970954809
 20
146.896865613
 30
0.0
 11
23.9970954809
 21
146.6667042375
 31
0.0
  0
LINE
  5
1DF
330
1F
100
AcDbEntity
  8
0
  6
Continuous
 62
     7
370
    15
100
AcDbLine
 10
24.2470954809
 20
141.3616370678
 30
0.0
 11
24.2470954809
 21
141.3354089309
 31
0.0
  0
LINE
  5
1E0
330
1F
100
AcDbEntity
  8
0
  6
Continuous
 62
     7
370
    15
100
AcDbLine
 10
22.7970954809
 20
142.0415290798
 30
0.0
 11
22.7970954809
 21
142.4966071329
 31
0.0
  0
SPLINE
  5
1E1
330
1F
100
AcDbEntity
  8
0
  6
Continuous
 62
     7
370
    15
100
AcDbSpline
210
0.0
220
0.0
230
1.0
 70
     8
 71
     3
 72
    11
 73
     7
 74
     0
 42
0.00000001
 43
0.00000001
 12
1.0
 22
0.0
 32
0.0
 13
1.0
 23
0.0
 33
0.0
 40
0.0
 40
0.0
 40
0.0
 40
0.0
 40
0.0449088511987411
 40
0.439105646859468
 40
0.8139875175674313
 40
1.0
 40
1.0
 40
1.0
 40
1.0
 10
23.11992125619372
 20
159.1915290798176
 30
0.0
 10
23.12931576333527
 20
159.2045092891901
 30
0.0
 10
23.22117251373457
 20
159.331425990035
 30
0.0
 10
23.53015999269481
 20
159.4905682057678
 30
0.0
 10
23.9199166712587
 20
159.609087724877
 30
0.0
 10
24.16561364181957
 20
159.6183495437905
 30
0.0
 10
24.24709548089371
 20
159.6214210917893
 30
0.0
  0
ARC
  5
1E2
330
1F
100
AcDbEntity
  8
0
  6
Continuous
 62
     7
370
    15
100
AcDbCircle
 10
29.35834529
 20
158.8801992468
 30
0.0
 40
0.2390731945684499
100
AcDbArc
 50
267.3028984186
 51
357.0213133887
  0
LINE
  5
1E3
330
1F
100
AcDbEntity
  8
0
  6
Continuous
 62
     7
370
    15
100
AcDbLine
 10
29.5970954809
 20
159.3976492288
 30
0.0
 11
29.5970954809
 21
158.8677759341
 31
0.0
  0
LINE
  5
1E4
330
1F
100
AcDbEntity
  8
0
  6
Continuous
 62
     7
370
    15
100
AcDbLine
 10
29.5970954809
 20
158.8677759341
 30
0.0
 11
29.5970954809
 21
156.1317143372
 31
0.0
  0
LINE
  5
1E5
330
1F
100
AcDbEntity
  8
0
  6
Continuous
 62
     7
370
    15
100
AcDbLine
 10
35.1970954809
 20
146.1174747215
 30
0.0
 11
31.0936774683
 21
146.1174747215
 31
0.0
  0
SPLINE
  5
1E6
330
1F
100
AcDbEntity
  8
0
  6
Continuous
 62
     7
370
    15
100
AcDbSpline
210
0.0
220
0.0
230
1.0
 70
     8
 71
     3
 72
     9
 73
     5
 74
     0
 42
0.00000001
 43
0.00000001
 12
1.0
 22
0.0
 32
0.0
 13
1.0
 23
0.0
 33
0.0
 40
0.0
 40
0.0
 40
0.0
 40
0.0
 40
0.0702005767033913
 40
1.0
 40
1.0
 40
1.0
 40
1.0
 10
30.64709548089401
 20
148.8427616067016
 30
0.0
 10
30.6475415971616
 20
148.7781561821694
 30
0.0
 10
30.65389647754113
 20
147.8578585497846
 30
0.0
 10
30.88178595943702
 20
146.956011545763
 30
0.0
 10
31.09367746827913
 20
146.1174747215221
 30
0.0
  0
LINE
  5
1E7
330
1F
100
AcDbEntity
  8
0
  6
Continuous
 62
     7
370
    15
100
AcDbLine
 10
31.0936774683
 20
151.5680484919
 30
0.0
 11
30.6470954809
 21
148.8427616067
 31
0.0
  0
LINE
  5
1E8
330
1F
100
AcDbEntity
  8
0
  6
Continuous
 62
     7
370
    15
100
AcDbLine
 10
35.1970954809
 20
151.5680484919
 30
0.0
 11
31.0936774683
 21
151.5680484919
 31
0.0
  0
SPLINE
  5
1E9
330
1F
100
AcDbEntity
  8
0
  6
Continuous
 62
     7
370
    15
100
AcDbSpline
210
0.0
220
0.0
230
1.0
 70
     8
 71
     3
 72
     9
 73
     5
 74
     0
 42
0.00000001
 43
0.00000001
 12
1.0
 22
0.0
 32
0.0
 13
1.0
 23
0.0
 33
0.0
 40
0.0
 40
0.0
 40
0.0
 40
0.0
 40
0.0702005767034467
 40
1.0
 40
1.0
 40
1.0
 40
1.0
 10
30.64709548089412
 20
153.755075671029
 30
0.0
 10
30.64754159716171
 20
153.703230186379
 30
0.0
 10
30.65389647754219
 20
152.9646965861635
 30
0.0
 10
30.88178595943758
 20
152.2409695099596
 30
0.0
 10
31.09367746827929
 20
151.5680484918812
 30
0.0
  0
LINE
  5
1EA
330
1F
100
AcDbEntity
  8
0
  6
Continuous
 62
     7
370
    15
100
AcDbLine
 10
30.6470954809
 20
148.8427616067
 30
0.0
 11
30.6470954809
 21
153.755075671
 31
0.0
  0
LINE
  5
1EB
330
1F
100
AcDbEntity
  8
0
  6
Continuous
 62
     7
370
    15
100
AcDbLine
 10
31.0936774683
 20
155.9421028502
 30
0.0
 11
30.6470954809
 21
153.755075671
 31
0.0
  0
LINE
  5
1EC
330
1F
100
AcDbEntity
  8
0
  6
Continuous
 62
     7
370
    15
100
AcDbLine
 10
35.1970954809
 20
155.9421028502
 30
0.0
 11
31.0936774683
 21
155.9421028502
 31
0.0
  0
SPLINE
  5
1ED
330
1F
100
AcDbEntity
  8
0
  6
Continuous
 62
     7
370
    15
100
AcDbSpline
210
0.0
220
0.0
230
1.0
 70
     8
 71
     3
 72
     9
 73
     5
 74
     0
 42
0.00000001
 43
0.00000001
 12
1.0
 22
0.0
 32
0.0
 13
1.0
 23
0.0
 33
0.0
 40
0.0
 40
0.0
 40
0.0
 40
0.0
 40
0.2686336050555636
 40
1.0
 40
1.0
 40
1.0
 40
1.0
 10
30.64709548089378
 20
145.5792150154904
 30
0.0
 10
30.65372443347819
 20
145.6281578842654
 30
0.0
 10
30.67840099091457
 20
145.8103497912119
 30
0.0
 10
30.91825575451468
 20
145.9877385468254
 30
0.0
 10
31.09367746827913
 20
146.1174747215221
 30
0.0
  0
LINE
  5
1EE
330
1F
100
AcDbEntity
  8
0
  6
Continuous
 62
     7
370
    15
100
AcDbLine
 10
30.6470954809
 20
145.5792150155
 30
0.0
 11
30.6470954809
 21
148.8427616067
 31
0.0
  0
SPLINE
  5
1EF
330
1F
100
AcDbEntity
  8
0
  6
Continuous
 62
     7
370
    15
100
AcDbSpline
210
0.0
220
0.0
230
1.0
 70
     8
 71
     3
 72
     9
 73
     5
 74
     0
 42
0.00000001
 43
0.00000001
 12
1.0
 22
0.0
 32
0.0
 13
1.0
 23
0.0
 33
0.0
 40
0.0
 40
0.0
 40
0.0
 40
0.0
 40
0.2686336050555614
 40
0.9999999999999999
 40
0.9999999999999999
 40
0.9999999999999999
 40
0.9999999999999999
 10
30.64709548089389
 20
155.403843144145
 30
0.0
 10
30.65372443347841
 20
155.45278601292
 30
0.0
 10
30.67840099091468
 20
155.6349779198667
 30
0.0
 10
30.91825575451474
 20
155.8123666754801
 30
0.0
 10
31.09367746827918
 20
155.9421028501768
 30
0.0
  0
LINE
  5
1F0
330
1F
100
AcDbEntity
  8
0
  6
Continuous
 62
     7
370
    15
100
AcDbLine
 10
30.6470954809
 20
153.755075671
 30
0.0
 11
30.6470954809
 21
155.4835062924
 31
0.0
  0
LINE
  5
1F1
330
1F
100
AcDbEntity
  8
0
  6
Continuous
 62
     7
370
    15
100
AcDbLine
 10
35.1970954809
 20
145.0409553095
 30
0.0
 11
31.0936774683
 21
145.0409553095
 31
0.0
  0
SPLINE
  5
1F2
330
1F
100
AcDbEntity
  8
0
  6
Continuous
 62
     7
370
    15
100
AcDbSpline
210
0.0
220
0.0
230
1.0
 70
     8
 71
     3
 72
     9
 73
     5
 74
     0
 42
0.00000001
 43
0.00000001
 12
1.0
 22
0.0
 32
0.0
 13
1.0
 23
0.0
 33
0.0
 40
0.0
 40
0.0
 40
0.0
 40
0.0
 40
0.2575513451038145
 40
0.9999999999999999
 40
0.9999999999999999
 40
0.9999999999999999
 40
0.9999999999999999
 10
31.09367746827901
 20
145.0409553094587
 30
0.0
 10
31.0262622455042
 20
145.0861431469672
 30
0.0
 10
30.76450774856032
 20
145.2615949097617
 30
0.0
 10
30.69712426076765
 20
145.4438786773988
 30
0.0
 10
30.64709548089378
 20
145.5792150154904
 30
0.0
  0
LINE
  5
1F3
330
1F
100
AcDbEntity
  8
0
  6
Continuous
 62
     7
370
    15
100
AcDbLine
 10
31.0936774683
 20
145.0409553095
 30
0.0
 11
30.6470954809
 21
147.2279824886
 31
0.0
  0
LINE
  5
1F4
330
1F
100
AcDbEntity
  8
0
  6
Continuous
 62
     7
370
    15
100
AcDbLine
 10
22.3505134935
 20
152.7423003144
 30
0.0
 11
22.7970954809
 21
149.8774062962
 31
0.0
  0
SPLINE
  5
1F5
330
1F
100
AcDbEntity
  8
0
  6
Continuous
 62
     7
370
    15
100
AcDbSpline
210
0.0
220
0.0
230
1.0
 70
     8
 71
     3
 72
     9
 73
     5
 74
     0
 42
0.00000001
 43
0.00000001
 12
1.0
 22
0.0
 32
0.0
 13
1.0
 23
0.0
 33
0.0
 40
0.0
 40
0.0
 40
0.0
 40
0.0
 40
0.0702005767034227
 40
1.0
 40
1.0
 40
1.0
 40
1.0
 10
22.79709548089409
 20
149.8774062961916
 30
0.0
 10
22.79664936462655
 20
149.8094913565599
 30
0.0
 10
22.79029448424602
 20
148.842050021732
 30
0.0
 10
22.56240500235057
 20
147.8940044779005
 30
0.0
 10
22.35051349350886
 20
147.0125122779871
 30
0.0
  0
LINE
  5
1F6
330
1F
100
AcDbEntity
  8
0
  6
Continuous
 62
     7
370
    15
100
AcDbLine
 10
22.3505134935
 20
147.012512278
 30
0.0
 11
18.0436774683
 21
147.012512278
 31
0.0
  0
SPLINE
  5
1F7
330
1F
100
AcDbEntity
  8
0
  6
Continuous
 62
     7
370
    15
100
AcDbSpline
210
0.0
220
0.0
230
1.0
 70
     8
 71
     3
 72
     9
 73
     5
 74
     0
 42
0.00000001
 43
0.00000001
 12
1.0
 22
0.0
 32
0.0
 13
1.0
 23
0.0
 33
0.0
 40
0.0
 40
0.0
 40
0.0
 40
0.0
 40
0.0702005767034443
 40
0.9999999999999999
 40
0.9999999999999999
 40
0.9999999999999999
 40
0.9999999999999999
 10
17.59709548089411
 20
149.8774062961915
 30
0.0
 10
17.59754159716176
 20
149.8094913565598
 30
0.0
 10
17.60389647754207
 20
148.8420500217321
 30
0.0
 10
17.83178595943746
 20
147.8940044779005
 30
0.0
 10
18.04367746827928
 20
147.0125122779872
 30
0.0
  0
LINE
  5
1F8
330
1F
100
AcDbEntity
  8
0
  6
Continuous
 62
     7
370
    15
100
AcDbLine
 10
18.0436774683
 20
152.7423003144
 30
0.0
 11
17.5970954809
 21
149.8774062962
 31
0.0
  0
LINE
  5
1F9
330
1F
100
AcDbEntity
  8
0
  6
Continuous
 62
     7
370
    15
100
AcDbLine
 10
22.3505134935
 20
152.7423003144
 30
0.0
 11
18.0436774683
 21
152.7423003144
 31
0.0
  0
LINE
  5
1FA
330
1F
100
AcDbEntity
  8
0
  6
Continuous
 62
     7
370
    15
100
AcDbLine
 10
22.6298537369
 20
153.6024809034
 30
0.0
 11
22.3505134935
 21
152.7423003144
 31
0.0
  0
SPLINE
  5
1FB
330
1F
100
AcDbEntity
  8
0
  6
Continuous
 62
     7
370
    15
100
AcDbSpline
210
0.0
220
0.0
230
1.0
 70
     8
 71
     3
 72
     9
 73
     5
 74
     0
 42
0.00000001
 43
0.00000001
 12
1.0
 22
0.0
 32
0.0
 13
1.0
 23
0.0
 33
0.0
 40
0.0
 40
0.0
 40
0.0
 40
0.0
 40
0.2686336050555643
 40
1.0
 40
1.0
 40
1.0
 40
1.0
 10
17.59709548089389
 20
154.4818087153113
 30
0.0
 10
17.60372443347841
 20
154.3236387270232
 30
0.0
 10
17.62840099091462
 20
153.7348442303131
 30
0.0
 10
17.86825575451473
 20
153.1615722072362
 30
0.0
 10
18.04367746827917
 20
152.7423003143961
 30
0.0
  0
LINE
  5
1FC
330
1F
100
AcDbEntity
  8
0
  6
Continuous
 62
     7
370
    15
100
AcDbLine
 10
17.5970954809
 20
149.8774062962
 30
0.0
 11
17.5970954809
 21
154.4818087153
 31
0.0
  0
LINE
  5
1FD
330
1F
100
AcDbEntity
  8
0
  6
Continuous
 62
     7
370
    15
100
AcDbLine
 10
22.3505134935
 20
147.012512278
 30
0.0
 11
22.7970954809
 21
145.8871266607
 31
0.0
  0
LINE
  5
1FE
330
1F
100
AcDbEntity
  8
0
  6
Continuous
 62
     7
370
    15
100
AcDbLine
 10
18.0436774683
 20
147.012512278
 30
0.0
 11
17.5970954809
 21
145.8871266607
 31
0.0
  0
LINE
  5
1FF
330
1F
100
AcDbEntity
  8
0
  6
Continuous
 62
     7
370
    15
100
AcDbLine
 10
17.5970954809
 20
145.8871266607
 30
0.0
 11
17.5970954809
 21
149.8774062962
 31
0.0
  0
SPLINE
  5
200
330
1F
100
AcDbEntity
  8
0
  6
Continuous
 62
     7
370
    15
100
AcDbSpline
210
0.0
220
0.0
230
1.0
 70
     8
 71
     3
 72
     9
 73
     5
 74
     0
 42
0.00000001
 43
0.00000001
 12
1.0
 22
0.0
 32
0.0
 13
1.0
 23
0.0
 33
0.0
 40
0.0
 40
0.0
 40
0.0
 40
0.0
 40
0.2575513451038235
 40
1.0
 40
1.0
 40
1.0
 40
1.0
 10
18.04367746827901
 20
156.2213171162267
 30
0.0
 10
17.97626224550408
 20
156.0752823637003
 30
0.0
 10
17.7145077485601
 20
155.5082701725289
 30
0.0
 10
17.64712426076759
 20
154.9191788071487
 30
0.0
 10
17.59709548089383
 20
154.4818087153113
 30
0.0
  0
LINE
  5
201
330
1F
100
AcDbEntity
  8
0
  6
Continuous
 62
     7
370
    15
100
AcDbLine
 10
18.3970954809
 20
156.2213171162
 30
0.0
 11
18.0436774683
 21
156.2213171162
 31
0.0
  0
LINE
  5
202
330
1F
100
AcDbEntity
  8
0
  6
Continuous
 62
     7
370
    15
100
AcDbLine
 10
22.4774431373
 20
145.0604919079
 30
0.0
 11
22.3505134935
 21
144.7617410434
 31
0.0
  0
LINE
  5
203
330
1F
100
AcDbEntity
  8
0
  6
Continuous
 62
     7
370
    15
100
AcDbLine
 10
22.3505134935
 20
144.7617410434
 30
0.0
 11
18.0436774683
 21
144.7617410434
 31
0.0
  0
SPLINE
  5
204
330
1F
100
AcDbEntity
  8
0
  6
Continuous
 62
     7
370
    15
100
AcDbSpline
210
0.0
220
0.0
230
1.0
 70
     8
 71
     3
 72
     9
 73
     5
 74
     0
 42
0.00000001
 43
0.00000001
 12
1.0
 22
0.0
 32
0.0
 13
1.0
 23
0.0
 33
0.0
 40
0.0
 40
0.0
 40
0.0
 40
0.0
 40
0.0702005767033832
 40
1.0
 40
1.0
 40
1.0
 40
1.0
 10
17.597095480894
 20
145.8871266606979
 30
0.0
 10
17.59754159716154
 20
145.8604483627313
 30
0.0
 10
17.60389647754129
 20
145.4804187501638
 30
0.0
 10
17.83178595943713
 20
145.1080081783297
 30
0.0
 10
18.04367746827912
 20
144.7617410434088
 30
0.0
  0
LINE
  5
205
330
1F
100
AcDbEntity
  8
0
  6
Continuous
 62
     7
370
    15
100
AcDbLine
 10
17.9167478244
 20
155.9225662517
 30
0.0
 11
18.0436774683
 21
156.2213171162
 31
0.0
  0
LINE
  5
206
330
1F
100
AcDbEntity
  8
0
  6
Continuous
 62
     7
370
    15
100
AcDbLine
 10
17.5970954809
 20
154.4818087153
 30
0.0
 11
17.5970954809
 21
155.4915290798
 31
0.0
  0
LINE
  5
207
330
1F
100
AcDbEntity
  8
0
  6
Continuous
 62
     7
370
    15
100
AcDbLine
 10
17.5970954809
 20
145.4915290798
 30
0.0
 11
17.5970954809
 21
145.8871266607
 31
0.0
  0
LINE
  5
208
330
1F
100
AcDbEntity
  8
0
  6
Continuous
 62
     7
370
    15
100
AcDbLine
 10
29.9505134935
 20
154.3799066407
 30
0.0
 11
30.3970954809
 21
151.559814012
 31
0.0
  0
SPLINE
  5
209
330
1F
100
AcDbEntity
  8
0
  6
Continuous
 62
     7
370
    15
100
AcDbSpline
210
0.0
220
0.0
230
1.0
 70
     8
 71
     3
 72
     9
 73
     5
 74
     0
 42
0.00000001
 43
0.00000001
 12
1.0
 22
0.0
 32
0.0
 13
1.0
 23
0.0
 33
0.0
 40
0.0
 40
0.0
 40
0.0
 40
0.0
 40
0.0702005767034192
 40
1.0
 40
1.0
 40
1.0
 40
1.0
 10
30.39709548089409
 20
151.5598140120314
 30
0.0
 10
30.39664936462649
 20
151.4929611304177
 30
0.0
 10
30.39029448424629
 20
150.5406487028982
 30
0.0
 10
30.16240500235068
 20
149.6074287537981
 30
0.0
 10
29.9505134935088
 20
148.7397213833159
 30
0.0
  0
LINE
  5
20A
330
1F
100
AcDbEntity
  8
0
  6
Continuous
 62
     7
370
    15
100
AcDbLine
 10
29.9505134935
 20
148.7397213833
 30
0.0
 11
25.6436774683
 21
148.7397213833
 31
0.0
  0
SPLINE
  5
20B
330
1F
100
AcDbEntity
  8
0
  6
Continuous
 62
     7
370
    15
100
AcDbSpline
210
0.0
220
0.0
230
1.0
 70
     8
 71
     3
 72
     9
 73
     5
 74
     0
 42
0.00000001
 43
0.00000001
 12
1.0
 22
0.0
 32
0.0
 13
1.0
 23
0.0
 33
0.0
 40
0.0
 40
0.0
 40
0.0
 40
0.0
 40
0.0702005767034397
 40
1.0
 40
1.0
 40
1.0
 40
1.0
 10
25.19709548089411
 20
151.5598140120314
 30
0.0
 10
25.19754159716176
 20
151.4929611304176
 30
0.0
 10
25.20389647754201
 20
150.5406487028979
 30
0.0
 10
25.43178595943746
 20
149.6074287537979
 30
0.0
 10
25.64367746827923
 20
148.7397213833159
 30
0.0
  0
LINE
  5
20C
330
1F
100
AcDbEntity
  8
0
  6
Continuous
 62
     7
370
    15
100
AcDbLine
 10
25.6436774683
 20
154.3799066407
 30
0.0
 11
25.1970954809
 21
151.559814012
 31
0.0
  0
LINE
  5
20D
330
1F
100
AcDbEntity
  8
0
  6
Continuous
 62
     7
370
    15
100
AcDbLine
 10
29.9505134935
 20
154.3799066407
 30
0.0
 11
25.6436774683
 21
154.3799066407
 31
0.0
  0
LINE
  5
20E
330
1F
100
AcDbEntity
  8
0
  6
Continuous
 62
     7
370
    15
100
AcDbLine
 10
29.9505134935
 20
148.7397213833
 30
0.0
 11
30.3970954809
 21
146.7955326029
 31
0.0
  0
LINE
  5
20F
330
1F
100
AcDbEntity
  8
0
  6
Continuous
 62
     7
370
    15
100
AcDbLine
 10
30.3970954809
 20
151.559814012
 30
0.0
 11
30.3970954809
 21
146.7955326029
 31
0.0
  0
LINE
  5
210
330
1F
100
AcDbEntity
  8
0
  6
Continuous
 62
     7
370
    15
100
AcDbLine
 10
25.6436774683
 20
148.7397213833
 30
0.0
 11
25.1970954809
 21
146.7955326029
 31
0.0
  0
SPLINE
  5
211
330
1F
100
AcDbEntity
  8
0
  6
Continuous
 62
     7
370
    15
100
AcDbSpline
210
0.0
220
0.0
230
1.0
 70
     8
 71
     3
 72
     9
 73
     5
 74
     0
 42
0.00000001
 43
0.00000001
 12
1.0
 22
0.0
 32
0.0
 13
1.0
 23
0.0
 33
0.0
 40
0.0
 40
0.0
 40
0.0
 40
0.0
 40
0.2686336050555665
 40
0.9999999999999999
 40
0.9999999999999999
 40
0.9999999999999999
 40
0.9999999999999999
 10
30.39709548089387
 20
155.2558104889976
 30
0.0
 10
30.3904665283094
 20
155.1761663197907
 30
0.0
 10
30.36578997087314
 20
154.8796875185237
 30
0.0
 10
30.12593520727325
 20
154.5910248303508
 30
0.0
 10
29.95051349350874
 20
154.3799066407468
 30
0.0
  0
LINE
  5
212
330
1F
100
AcDbEntity
  8
0
  6
Continuous
 62
     7
370
    15
100
AcDbLine
 10
30.3970954809
 20
155.255810489
 30
0.0
 11
30.3970954809
 21
151.559814012
 31
0.0
  0
SPLINE
  5
213
330
1F
100
AcDbEntity
  8
0
  6
Continuous
 62
     7
370
    15
100
AcDbSpline
210
0.0
220
0.0
230
1.0
 70
     8
 71
     3
 72
     9
 73
     5
 74
     0
 42
0.00000001
 43
0.00000001
 12
1.0
 22
0.0
 32
0.0
 13
1.0
 23
0.0
 33
0.0
 40
0.0
 40
0.0
 40
0.0
 40
0.0
 40
0.2686336050555624
 40
0.9999999999999999
 40
0.9999999999999999
 40
0.9999999999999999
 40
0.9999999999999999
 10
25.19709548089388
 20
155.2558104889976
 30
0.0
 10
25.20372443347835
 20
155.1761663197908
 30
0.0
 10
25.22840099091478
 20
154.8796875185238
 30
0.0
 10
25.46825575451478
 20
154.5910248303508
 30
0.0
 10
25.64367746827917
 20
154.3799066407468
 30
0.0
  0
SPLINE
  5
214
330
1F
100
AcDbEntity
  8
0
  6
Continuous
 62
     7
370
    15
100
AcDbSpline
210
0.0
220
0.0
230
1.0
 70
     8
 71
     3
 72
     9
 73
     5
 74
     0
 42
0.00000001
 43
0.00000001
 12
1.0
 22
0.0
 32
0.0
 13
1.0
 23
0.0
 33
0.0
 40
0.0
 40
0.0
 40
0.0
 40
0.0
 40
0.0702005767034117
 40
1.0
 40
1.0
 40
1.0
 40
1.0
 10
30.39709548089398
 20
146.7955326028515
 30
0.0
 10
30.39664936462638
 20
146.74944382511
 30
0.0
 10
30.39029448424552
 20
146.0929139231386
 30
0.0
 10
30.16240500235018
 20
145.449546490356
 30
0.0
 10
29.95051349350869
 20
144.8513438223869
 30
0.0
  0
LINE
  5
215
330
1F
100
AcDbEntity
  8
0
  6
Continuous
 62
     7
370
    15
100
AcDbLine
 10
29.9505134935
 20
144.8513438224
 30
0.0
 11
29.5970954809
 21
144.8513438224
 31
0.0
  0
SPLINE
  5
216
330
1F
100
AcDbEntity
  8
0
  6
Continuous
 62
     7
370
    15
100
AcDbSpline
210
0.0
220
0.0
230
1.0
 70
     8
 71
     3
 72
     9
 73
     5
 74
     0
 42
0.00000001
 43
0.00000001
 12
1.0
 22
0.0
 32
0.0
 13
1.0
 23
0.0
 33
0.0
 40
0.0
 40
0.0
 40
0.0
 40
0.0
 40
0.5278771639350881
 40
1.0
 40
1.0
 40
1.0
 40
1.0
 10
25.19709548089399
 20
146.7955326028514
 30
0.0
 10
25.19516902358188
 20
146.7493028587488
 30
0.0
 10
25.19151958116656
 20
146.6617261510203
 30
0.0
 10
25.2173312669241
 20
146.5758998750039
 30
0.0
 10
25.22951755320751
 20
146.5353793301621
 30
0.0
  0
SPLINE
  5
217
330
1F
100
AcDbEntity
  8
0
  6
Continuous
 62
     7
370
    15
100
AcDbSpline
210
0.0
220
0.0
230
1.0
 70
     8
 71
     3
 72
     9
 73
     5
 74
     0
 42
0.00000001
 43
0.00000001
 12
1.0
 22
0.0
 32
0.0
 13
1.0
 23
0.0
 33
0.0
 40
0.0
 40
0.0
 40
0.0
 40
0.0
 40
0.2575513451038219
 40
1.0
 40
1.0
 40
1.0
 40
1.0
 10
29.95051349350858
 20
156.1317143372486
 30
0.0
 10
30.01792871628339
 20
156.0581806873686
 30
0.0
 10
30.27968321322738
 20
155.7726700454017
 30
0.0
 10
30.34706670102005
 20
155.476041760286
 30
0.0
 10
30.39709548089387
 20
155.2558104889976
 30
0.0
  0
SPLINE
  5
218
330
1F
100
AcDbEntity
  8
0
  6
Continuous
 62
     7
370
    15
100
AcDbSpline
210
0.0
220
0.0
230
1.0
 70
     8
 71
     3
 72
     9
 73
     5
 74
     0
 42
0.00000001
 43
0.00000001
 12
1.0
 22
0.0
 32
0.0
 13
1.0
 23
0.0
 33
0.0
 40
0.0
 40
0.0
 40
0.0
 40
0.0
 40
0.5569342110492506
 40
1.0
 40
1.0
 40
1.0
 40
1.0
 10
25.643677468279
 20
156.1317143372486
 30
0.0
 10
25.57126649203467
 20
156.0584664347369
 30
0.0
 10
25.44124938263875
 20
155.9269465872242
 30
0.0
 10
25.40111814102203
 20
155.7902854431445
 30
0.0
 10
25.38333736079362
 20
155.7297355655239
 30
0.0
  0
LINE
  5
219
330
1F
100
AcDbEntity
  8
0
  6
Continuous
 62
     7
370
    15
100
AcDbLine
 10
29.9505134935
 20
156.1317143372
 30
0.0
 11
25.6436774683
 21
156.1317143372
 31
0.0
  0
LINE
  5
21A
330
1F
100
AcDbEntity
  8
0
  6
Continuous
 62
     7
370
    15
100
AcDbLine
 10
30.2110166323
 20
145.2552672054
 30
0.0
 11
29.9505134935
 21
144.8513438224
 31
0.0
  0
LINE
  5
21B
330
1F
100
AcDbEntity
  8
0
  6
Continuous
 62
     7
370
    15
100
AcDbLine
 10
30.3970954809
 20
145.4915290798
 30
0.0
 11
30.3970954809
 21
146.7955326029
 31
0.0
  0
LINE
  5
21C
330
1F
100
AcDbEntity
  8
0
  6
Continuous
 62
     7
370
    15
100
AcDbLine
 10
30.3970954809
 20
155.4915290798
 30
0.0
 11
30.3970954809
 21
155.255810489
 31
0.0
  0
ARC
  5
21D
330
1F
100
AcDbEntity
  8
0
  6
Continuous
 62
     7
370
    15
100
AcDbCircle
 10
1164.6770091628
 20
317.0915290798
 30
0.0
 40
740.0000000000007
100
AcDbArc
 50
175.9316789788
 51
176.3197001186
  0
ARC
  5
21E
330
1F
100
AcDbEntity
  8
0
  6
Continuous
 62
     7
370
    15
100
AcDbCircle
 10
-365.2164351979
 20
317.0915290798
 30
0.0
 40
740.0000000000007
100
AcDbArc
 50
3.6802998814
 51
4.0683210212
  0
ARC
  5
21F
330
1F
100
AcDbEntity
  8
0
  6
Continuous
 62
     7
370
    15
100
AcDbCircle
 10
1164.6770091628
 20
317.0915290798
 30
0.0
 40
740.0000000000007
100
AcDbArc
 50
183.6802998814
 51
184.0683210212
  0
ARC
  5
220
330
1F
100
AcDbEntity
  8
0
  6
Continuous
 62
     7
370
    15
100
AcDbCircle
 10
-365.2164351979
 20
317.0915290798
 30
0.0
 40
740.0000000000007
100
AcDbArc
 50
355.9316789788
 51
356.3197001186
  0
SPLINE
  5
221
330
1F
100
AcDbEntity
  8
0
  6
Continuous
 62
     7
370
    15
100
AcDbSpline
210
0.0
220
0.0
230
1.0
 70
     8
 71
     3
 72
    12
 73
     8
 74
     0
 42
0.00000001
 43
0.00000001
 12
1.0
 22
0.0
 32
0.0
 13
1.0
 23
0.0
 33
0.0
 40
0.0
 40
0.0
 40
0.0
 40
0.0
 40
0.1947400486369223
 40
0.4106800460912716
 40
0.6269193875487269
 40
0.8434320498917942
 40
1.0
 40
1.0
 40
1.0
 40
1.0
 10
189.1729309859058
 20
392.8406335785854
 30
0.0
 10
189.3964236048955
 20
392.5660283949792
 30
0.0
 10
189.8677388772813
 20
391.9869237359755
 30
0.0
 10
190.1953339664915
 20
390.8656680349428
 30
0.0
 10
190.1519450138634
 20
389.6754078074335
 30
0.0
 10
189.7652099490622
 20
388.6462094515111
 30
0.0
 10
189.3200868326743
 20
388.1317732650592
 30
0.0
 10
189.133285343793
 20
387.915883678503
 30
0.0
  0
SPLINE
  5
222
330
1F
100
AcDbEntity
  8
0
  6
Continuous
 62
     7
370
    15
100
AcDbSpline
210
0.0
220
0.0
230
1.0
 70
     8
 71
     3
 72
    12
 73
     8
 74
     0
 42
0.00000001
 43
0.00000001
 12
1.0
 22
0.0
 32
0.0
 13
1.0
 23
0.0
 33
0.0
 40
0.0
 40
0.0
 40
0.0
 40
0.0
 40
0.1947400486369154
 40
0.4106800460912693
 40
0.6269193875487232
 40
0.8434320498917857
 40
1.0
 40
1.0
 40
1.0
 40
1.0
 10
610.2876429789457
 20
392.8406335785854
 30
0.0
 10
610.064150359956
 20
392.5660283949792
 30
0.0
 10
609.5928350875704
 20
391.9869237359754
 30
0.0
 10
609.2652399983598
 20
390.8656680349428
 30
0.0
 10
609.308628950988
 20
389.6754078074335
 30
0.0
 10
609.6953640157892
 20
388.6462094515111
 30
0.0
 10
610.1404871321772
 20
388.1317732650592
 30
0.0
 10
610.3272886210584
 20
387.915883678503
 30
0.0
  0
SPLINE
  5
223
330
1F
100
AcDbEntity
  8
0
  6
Continuous
 62
     7
370
    15
100
AcDbSpline
210
0.0
220
0.0
230
1.0
 70
     8
 71
     3
 72
    12
 73
     8
 74
     0
 42
0.00000001
 43
0.00000001
 12
1.0
 22
0.0
 32
0.0
 13
1.0
 23
0.0
 33
0.0
 40
0.0
 40
0.0
 40
0.0
 40
0.0
 40
0.1855476761207145
 40
0.4015823512595322
 40
0.6181501912632253
 40
0.834638748634943
 40
1.0
 40
1.0
 40
1.0
 40
1.0
 10
188.9059323837414
 20
387.6885307184511
 30
0.0
 10
188.6467341784723
 20
387.4699315931443
 30
0.0
 10
188.085749385289
 20
386.9968157203977
 30
0.0
 10
186.9879019289268
 20
386.6411698244681
 30
0.0
 10
185.7962331088767
 20
386.6505234107692
 30
0.0
 10
184.7428231969145
 20
387.0125492475145
 30
0.0
 10
184.2113420520913
 20
387.4565912858527
 30
0.0
 10
183.9811824836588
 20
387.6488850763385
 30
0.0
  0
SPLINE
  5
224
330
1F
100
AcDbEntity
  8
0
  6
Continuous
 62
     7
370
    15
100
AcDbSpline
210
0.0
220
0.0
230
1.0
 70
     8
 71
     3
 72
    12
 73
     8
 74
     0
 42
0.00000001
 43
0.00000001
 12
1.0
 22
0.0
 32
0.0
 13
1.0
 23
0.0
 33
0.0
 40
0.0
 40
0.0
 40
0.0
 40
0.0
 40
0.1856669317900519
 40
0.4015263118160845
 40
0.6177111296102098
 40
0.8337883327428554
 40
1.0
 40
1.0
 40
1.0
 40
1.0
 10
469.7519236163582
 20
387.297245405939
 30
0.0
 10
469.9705026591761
 20
387.5564849816056
 30
0.0
 10
470.4432052350024
 20
388.1171206838852
 30
0.0
 10
470.7975320846508
 20
389.2140411498501
 30
0.0
 10
470.7866067074443
 20
390.4037955446396
 30
0.0
 10
470.4230509546006
 20
391.4573323061786
 30
0.0
 10
469.9769684039786
 20
391.9892786002206
 30
0.0
 10
469.7830205017088
 20
392.2205583660528
 30
0.0
  0
SPLINE
  5
225
330
1F
100
AcDbEntity
  8
0
  6
Continuous
 62
     7
370
    15
100
AcDbSpline
210
0.0
220
0.0
230
1.0
 70
     8
 71
     3
 72
    12
 73
     8
 74
     0
 42
0.00000001
 43
0.00000001
 12
1.0
 22
0.0
 32
0.0
 13
1.0
 23
0.0
 33
0.0
 40
0.0
 40
0.0
 40
0.0
 40
0.0
 40
0.1856669317900519
 40
0.4015263118160845
 40
0.6177111296102098
 40
0.8337883327428554
 40
1.0
 40
1.0
 40
1.0
 40
1.0
 10
329.7086503484933
 20
387.297245405939
 30
0.0
 10
329.4900713056754
 20
387.5564849816056
 30
0.0
 10
329.0173687298491
 20
388.1171206838852
 30
0.0
 10
328.6630418802007
 20
389.2140411498501
 30
0.0
 10
328.6739672574072
 20
390.4037955446396
 30
0.0
 10
329.0375230102509
 20
391.4573323061786
 30
0.0
 10
329.4836055608729
 20
391.9892786002206
 30
0.0
 10
329.6775534631427
 20
392.2205583660528
 30
0.0
  0
SPLINE
  5
226
330
1F
100
AcDbEntity
  8
0
  6
Continuous
 62
     7
370
    15
100
AcDbSpline
210
0.0
220
0.0
230
1.0
 70
     8
 71
     3
 72
    12
 73
     8
 74
     0
 42
0.00000001
 43
0.00000001
 12
1.0
 22
0.0
 32
0.0
 13
1.0
 23
0.0
 33
0.0
 40
0.0
 40
0.0
 40
0.0
 40
0.0
 40
0.1948647041619086
 40
0.4106937191754592
 40
0.6266457524535871
 40
0.8427411416769977
 40
1.0
 40
1.0
 40
1.0
 40
1.0
 10
334.859316268659
 20
387.0387955605365
 30
0.0
 10
334.5846945417526
 20
386.8143026571678
 30
0.0
 10
334.0059062030709
 20
386.3411650214449
 30
0.0
 10
332.8853773616934
 20
386.011177556414
 30
0.0
 10
331.6967117958754
 20
386.0523860902852
 30
0.0
 10
330.66748009397
 20
386.437432040923
 30
0.0
 10
330.1527925338644
 20
386.8824489015816
 30
0.0
 10
329.9360033085451
 20
387.0698924458872
 30
0.0
  0
SPLINE
  5
227
330
1F
100
AcDbEntity
  8
0
  6
Continuous
 62
     7
370
    15
100
AcDbSpline
210
0.0
220
0.0
230
1.0
 70
     8
 71
     3
 72
    12
 73
     8
 74
     0
 42
0.00000001
 43
0.00000001
 12
1.0
 22
0.0
 32
0.0
 13
1.0
 23
0.0
 33
0.0
 40
0.0
 40
0.0
 40
0.0
 40
0.0
 40
0.1855476761207189
 40
0.4015823512595417
 40
0.6181501912632451
 40
0.8346387486349391
 40
1.0
 40
1.0
 40
1.0
 40
1.0
 10
610.5546415811101
 20
387.6885307184511
 30
0.0
 10
610.8138397863792
 20
387.4699315931443
 30
0.0
 10
611.3748245795625
 20
386.9968157203977
 30
0.0
 10
612.4726720359247
 20
386.6411698244682
 30
0.0
 10
613.664340855975
 20
386.6505234107692
 30
0.0
 10
614.7177507679369
 20
387.0125492475145
 30
0.0
 10
615.24923191276
 20
387.4565912858527
 30
0.0
 10
615.4793914811926
 20
387.6488850763385
 30
0.0
  0
SPLINE
  5
228
330
1F
100
AcDbEntity
  8
0
  6
Continuous
 62
     7
370
    15
100
AcDbSpline
210
0.0
220
0.0
230
1.0
 70
     8
 71
     3
 72
    12
 73
     8
 74
     0
 42
0.00000001
 43
0.00000001
 12
1.0
 22
0.0
 32
0.0
 13
1.0
 23
0.0
 33
0.0
 40
0.0
 40
0.0
 40
0.0
 40
0.0
 40
0.1948647041619086
 40
0.4106937191754592
 40
0.6266457524535871
 40
0.8427411416769977
 40
1.0
 40
1.0
 40
1.0
 40
1.0
 10
464.6012576961925
 20
387.0387955605365
 30
0.0
 10
464.8758794230989
 20
386.8143026571678
 30
0.0
 10
465.4546677617806
 20
386.3411650214449
 30
0.0
 10
466.5751966031581
 20
386.011177556414
 30
0.0
 10
467.763862168976
 20
386.0523860902852
 30
0.0
 10
468.7930938708815
 20
386.437432040923
 30
0.0
 10
469.3077814309871
 20
386.8824489015816
 30
0.0
 10
469.5245706563064
 20
387.0698924458872
 30
0.0
  0
SPLINE
  5
229
330
1F
100
AcDbEntity
  8
0
  6
Continuous
 62
     7
370
    15
100
AcDbSpline
210
0.0
220
0.0
230
1.0
 70
     8
 71
     3
 72
    16
 73
    12
 74
     0
 42
0.00000001
 43
0.00000001
 12
1.0
 22
0.0
 32
0.0
 13
1.0
 23
0.0
 33
0.0
 40
0.0
 40
0.0
 40
0.0
 40
0.0
 40
0.0964042353379397
 40
0.195097759853201
 40
0.3011478320449106
 40
0.4102801931335913
 40
0.5162098764115193
 40
0.6252128524133369
 40
0.731134190414904
 40
0.8401144196019598
 40
1.0
 40
1.0
 40
1.0
 40
1.0
 10
536.086335775296
 20
360.5625855179164
 30
0.0
 10
536.094502807424
 20
360.3872598485475
 30
0.0
 10
536.1110308123116
 20
360.032445091512
 30
0.0
 10
536.2416332220481
 20
359.4976042147158
 30
0.0
 10
536.4590459274731
 20
358.9678953384656
 30
0.0
 10
536.7712708082722
 20
358.4710903889187
 30
0.0
 10
537.1655068449957
 20
358.0300453208
 30
0.0
 10
537.6239264584921
 20
357.6643766949042
 30
0.0
 10
538.1418260022281
 20
357.380459569454
 30
0.0
 10
538.7878713665386
 20
357.1469932860699
 30
0.0
 10
539.2780382015646
 20
357.1122122239787
 30
0.0
 10
539.5695241626504
 20
357.0915290798189
 30
0.0
  0
SPLINE
  5
22A
330
1F
100
AcDbEntity
  8
0
  6
Continuous
 62
     7
370
    15
100
AcDbSpline
210
0.0
220
0.0
230
1.0
 70
     8
 71
     3
 72
    12
 73
     8
 74
     0
 42
0.00000001
 43
0.00000001
 12
1.0
 22
0.0
 32
0.0
 13
1.0
 23
0.0
 33
0.0
 40
0.0
 40
0.0
 40
0.0
 40
0.0
 40
0.1950860331857444
 40
0.4101170279995542
 40
0.6249000670029863
 40
0.8396557083574335
 40
0.9999999999999999
 40
0.9999999999999999
 40
0.9999999999999999
 40
0.9999999999999999
 10
263.3742381895556
 20
360.5625855179164
 30
0.0
 10
263.3415232196339
 20
360.2079522442437
 30
0.0
 10
263.2727486076524
 20
359.4624291442383
 30
0.0
 10
262.7216122376774
 20
358.4354744742749
 30
0.0
 10
261.861162721184
 20
357.6241174141393
 30
0.0
 10
260.8634116073159
 20
357.1635163514132
 30
0.0
 10
260.182233566423
 20
357.1130864102371
 30
0.0
 10
259.8910498022011
 20
357.0915290798189
 30
0.0
  0
SPLINE
  5
22B
330
1F
100
AcDbEntity
  8
0
  6
Continuous
 62
     7
370
    15
100
AcDbSpline
210
0.0
220
0.0
230
1.0
 70
     8
 71
     3
 72
    12
 73
     8
 74
     0
 42
0.00000001
 43
0.00000001
 12
1.0
 22
0.0
 32
0.0
 13
1.0
 23
0.0
 33
0.0
 40
0.0
 40
0.0
 40
0.0
 40
0.0
 40
0.1858695569714641
 40
0.4012766750822458
 40
0.6164583705402326
 40
0.831192555672019
 40
1.0
 40
1.0
 40
1.0
 40
1.0
 10
259.5695241626501
 20
357.0915290798189
 30
0.0
 10
259.2316242443863
 20
357.1203488830704
 30
0.0
 10
258.5021268596572
 20
357.1825684041892
 30
0.0
 10
257.4795361506816
 20
357.7075901681527
 30
0.0
 10
256.6522481688353
 20
358.5548339939614
 30
0.0
 10
256.1672152704437
 20
359.5596228374256
 30
0.0
 10
256.1110539499473
 20
360.2560627501873
 30
0.0
 10
256.0863357752958
 20
360.5625855179164
 30
0.0
  0
SPLINE
  5
22C
330
1F
100
AcDbEntity
  8
0
  6
Continuous
 62
     7
370
    15
100
AcDbSpline
210
0.0
220
0.0
230
1.0
 70
     8
 71
     3
 72
    15
 73
    11
 74
     0
 42
0.00000001
 43
0.00000001
 12
1.0
 22
0.0
 32
0.0
 13
1.0
 23
0.0
 33
0.0
 40
0.0
 40
0.0
 40
0.0
 40
0.0
 40
0.1854418932985148
 40
0.2917376309130944
 40
0.4011215985329616
 40
0.5073033252831461
 40
0.6165772299493939
 40
0.7225432756284336
 40
0.8315809614595981
 40
1.0
 40
1.0
 40
1.0
 40
1.0
 10
539.8910498022013
 20
357.0915290798189
 30
0.0
 10
540.2293531988394
 20
357.1191548230956
 30
0.0
 10
540.7615729131094
 20
357.1626157086184
 30
0.0
 10
541.4426045254854
 20
357.4386516373978
 30
0.0
 10
541.9459148770602
 20
357.7402446011358
 30
0.0
 10
542.394661283748
 20
358.1279589599858
 30
0.0
 10
542.768695932675
 20
358.5803794141531
 30
0.0
 10
543.0614914641526
 20
359.0937069780063
 30
0.0
 10
543.3113499919198
 20
359.7502107784185
 30
0.0
 10
543.3504836582213
 20
360.2557301471127
 30
0.0
 10
543.3742381895556
 20
360.5625855179164
 30
0.0
  0
SPLINE
  5
22D
330
1F
100
AcDbEntity
  8
0
  6
Continuous
 62
     7
370
    15
100
AcDbSpline
210
0.0
220
0.0
230
1.0
 70
     8
 71
     3
 72
    12
 73
     8
 74
     0
 42
0.00000001
 43
0.00000001
 12
1.0
 22
0.0
 32
0.0
 13
1.0
 23
0.0
 33
0.0
 40
0.0
 40
0.0
 40
0.0
 40
0.0
 40
0.1857061433232867
 40
0.4017214544205572
 40
0.6178907781413697
 40
0.833474654148503
 40
1.0
 40
1.0
 40
1.0
 40
1.0
 10
499.7302869824417
 20
317.2522918995943
 30
0.0
 10
499.7015565889973
 20
317.5901534537724
 30
0.0
 10
499.6394067040555
 20
318.3210190703231
 30
0.0
 10
499.1145201116746
 20
319.3473927726962
 30
0.0
 10
498.2655850559712
 20
320.180040359881
 30
0.0
 10
497.2623552854423
 20
320.6662944784804
 30
0.0
 10
496.5692796378482
 20
320.7244900099569
 30
0.0
 10
496.2672333764274
 20
320.7498519495588
 30
0.0
  0
SPLINE
  5
22E
330
1F
100
AcDbEntity
  8
0
  6
Continuous
 62
     7
370
    15
100
AcDbSpline
210
0.0
220
0.0
230
1.0
 70
     8
 71
     3
 72
    12
 73
     8
 74
     0
 42
0.00000001
 43
0.00000001
 12
1.0
 22
0.0
 32
0.0
 13
1.0
 23
0.0
 33
0.0
 40
0.0
 40
0.0
 40
0.0
 40
0.0
 40
0.1949242463861328
 40
0.4099385120109
 40
0.6250663629368378
 40
0.8407019596851003
 40
1.0
 40
1.0
 40
1.0
 40
1.0
 10
496.2672333764274
 20
313.4332062100789
 30
0.0
 10
496.6212012961916
 20
313.4673762972919
 30
0.0
 10
497.3656191150002
 20
313.5392382383642
 30
0.0
 10
498.3903652487978
 20
314.0948681519242
 30
0.0
 10
499.2005321513292
 20
314.9599957494754
 30
0.0
 10
499.6590044780539
 20
315.9598793931515
 30
0.0
 10
499.7090318533683
 20
316.641265689762
 30
0.0
 10
499.7302869824417
 20
316.9307662600434
 30
0.0
  0
SPLINE
  5
22F
330
1F
100
AcDbEntity
  8
0
  6
Continuous
 62
     7
370
    15
100
AcDbSpline
210
0.0
220
0.0
230
1.0
 70
     8
 71
     3
 72
    12
 73
     8
 74
     0
 42
0.00000001
 43
0.00000001
 12
1.0
 22
0.0
 32
0.0
 13
1.0
 23
0.0
 33
0.0
 40
0.0
 40
0.0
 40
0.0
 40
0.0
 40
0.1857061433232877
 40
0.4017214544205442
 40
0.617890778141378
 40
0.8334746541484832
 40
1.0
 40
1.0
 40
1.0
 40
1.0
 10
299.7302869824098
 20
317.2522918995943
 30
0.0
 10
299.7590173758542
 20
317.5901534537724
 30
0.0
 10
299.8211672607962
 20
318.321019070323
 30
0.0
 10
300.3460538531767
 20
319.3473927726963
 30
0.0
 10
301.1949889088804
 20
320.1800403598809
 30
0.0
 10
302.1982186794091
 20
320.6662944784805
 30
0.0
 10
302.8912943270032
 20
320.7244900099569
 30
0.0
 10
303.1933405884241
 20
320.7498519495588
 30
0.0
  0
SPLINE
  5
230
330
1F
100
AcDbEntity
  8
0
  6
Continuous
 62
     7
370
    15
100
AcDbSpline
210
0.0
220
0.0
230
1.0
 70
     8
 71
     3
 72
    12
 73
     8
 74
     0
 42
0.00000001
 43
0.00000001
 12
1.0
 22
0.0
 32
0.0
 13
1.0
 23
0.0
 33
0.0
 40
0.0
 40
0.0
 40
0.0
 40
0.0
 40
0.1949242463861404
 40
0.4099385120109223
 40
0.6250663629368702
 40
0.8407019596851117
 40
1.0
 40
1.0
 40
1.0
 40
1.0
 10
216.267233376397
 20
320.7498519495588
 30
0.0
 10
216.6212012961612
 20
320.7156818623458
 30
0.0
 10
217.36561911497
 20
320.6438199212735
 30
0.0
 10
218.3903652487676
 20
320.0881900077136
 30
0.0
 10
219.200532151299
 20
319.2230624101622
 30
0.0
 10
219.6590044780234
 20
318.2231787664862
 30
0.0
 10
219.709031853338
 20
317.5417924698757
 30
0.0
 10
219.7302869824113
 20
317.2522918995943
 30
0.0
  0
SPLINE
  5
231
330
1F
100
AcDbEntity
  8
0
  6
Continuous
 62
     7
370
    15
100
AcDbSpline
210
0.0
220
0.0
230
1.0
 70
     8
 71
     3
 72
    12
 73
     8
 74
     0
 42
0.00000001
 43
0.00000001
 12
1.0
 22
0.0
 32
0.0
 13
1.0
 23
0.0
 33
0.0
 40
0.0
 40
0.0
 40
0.0
 40
0.0
 40
0.1949242463861378
 40
0.4099385120109176
 40
0.6250663629368499
 40
0.8407019596851069
 40
1.0
 40
1.0
 40
1.0
 40
1.0
 10
303.1933405884241
 20
313.4332062100789
 30
0.0
 10
302.83937266866
 20
313.4673762972919
 30
0.0
 10
302.0949548498512
 20
313.5392382383642
 30
0.0
 10
301.0702087160536
 20
314.0948681519242
 30
0.0
 10
300.2600418135222
 20
314.9599957494754
 30
0.0
 10
299.8015694867973
 20
315.9598793931515
 30
0.0
 10
299.751542111483
 20
316.641265689762
 30
0.0
 10
299.7302869824098
 20
316.9307662600434
 30
0.0
  0
SPLINE
  5
232
330
1F
100
AcDbEntity
  8
0
  6
Continuous
 62
     7
370
    15
100
AcDbSpline
210
0.0
220
0.0
230
1.0
 70
     8
 71
     3
 72
    12
 73
     8
 74
     0
 42
0.00000001
 43
0.00000001
 12
1.0
 22
0.0
 32
0.0
 13
1.0
 23
0.0
 33
0.0
 40
0.0
 40
0.0
 40
0.0
 40
0.0
 40
0.1949242463861188
 40
0.4099385120109
 40
0.6250663629368518
 40
0.8407019596851115
 40
1.0
 40
1.0
 40
1.0
 40
1.0
 10
583.1933405884544
 20
320.7498519495588
 30
0.0
 10
582.8393726686902
 20
320.7156818623458
 30
0.0
 10
582.0949548498814
 20
320.6438199212735
 30
0.0
 10
581.0702087160839
 20
320.0881900077136
 30
0.0
 10
580.2600418135526
 20
319.2230624101622
 30
0.0
 10
579.8015694868278
 20
318.2231787664862
 30
0.0
 10
579.7515421115135
 20
317.5417924698757
 30
0.0
 10
579.7302869824401
 20
317.2522918995943
 30
0.0
  0
SPLINE
  5
233
330
1F
100
AcDbEntity
  8
0
  6
Continuous
 62
     7
370
    15
100
AcDbSpline
210
0.0
220
0.0
230
1.0
 70
     8
 71
     3
 72
    12
 73
     8
 74
     0
 42
0.00000001
 43
0.00000001
 12
1.0
 22
0.0
 32
0.0
 13
1.0
 23
0.0
 33
0.0
 40
0.0
 40
0.0
 40
0.0
 40
0.0
 40
0.1857061433232757
 40
0.4017214544205397
 40
0.6178907781413796
 40
0.8334746541485256
 40
1.0
 40
1.0
 40
1.0
 40
1.0
 10
219.7302869824113
 20
316.9307662600434
 30
0.0
 10
219.7015565889669
 20
316.5929047058653
 30
0.0
 10
219.6394067040249
 20
315.8620390893147
 30
0.0
 10
219.1145201116444
 20
314.8356653869414
 30
0.0
 10
218.2655850559407
 20
314.0030177997567
 30
0.0
 10
217.2623552854119
 20
313.5167636811571
 30
0.0
 10
216.5692796378179
 20
313.4585681496808
 30
0.0
 10
216.267233376397
 20
313.4332062100789
 30
0.0
  0
SPLINE
  5
234
330
1F
100
AcDbEntity
  8
0
  6
Continuous
 62
     7
370
    15
100
AcDbSpline
210
0.0
220
0.0
230
1.0
 70
     8
 71
     3
 72
    12
 73
     8
 74
     0
 42
0.00000001
 43
0.00000001
 12
1.0
 22
0.0
 32
0.0
 13
1.0
 23
0.0
 33
0.0
 40
0.0
 40
0.0
 40
0.0
 40
0.0
 40
0.1857061433232767
 40
0.4017214544205541
 40
0.6178907781413707
 40
0.8334746541485187
 40
0.9999999999999999
 40
0.9999999999999999
 40
0.9999999999999999
 40
0.9999999999999999
 10
579.7302869824401
 20
316.9307662600434
 30
0.0
 10
579.7590173758845
 20
316.5929047058653
 30
0.0
 10
579.8211672608263
 20
315.8620390893146
 30
0.0
 10
580.3460538532073
 20
314.8356653869415
 30
0.0
 10
581.1949889089107
 20
314.0030177997567
 30
0.0
 10
582.1982186794395
 20
313.5167636811571
 30
0.0
 10
582.8912943270335
 20
313.4585681496808
 30
0.0
 10
583.1933405884544
 20
313.4332062100789
 30
0.0
  0
SPLINE
  5
235
330
1F
100
AcDbEntity
  8
0
  6
Continuous
 62
     7
370
    15
100
AcDbSpline
210
0.0
220
0.0
230
1.0
 70
     8
 71
     3
 72
    12
 73
     8
 74
     0
 42
0.00000001
 43
0.00000001
 12
1.0
 22
0.0
 32
0.0
 13
1.0
 23
0.0
 33
0.0
 40
0.0
 40
0.0
 40
0.0
 40
0.0
 40
0.1947401404715645
 40
0.4107997362406599
 40
0.6273802373309446
 40
0.8438651016015797
 40
1.0
 40
1.0
 40
1.0
 40
1.0
 10
189.1332853437932
 20
246.2671744811348
 30
0.0
 10
189.3617888757608
 20
245.9940148714122
 30
0.0
 10
189.8438116905491
 20
245.4177911131574
 30
0.0
 10
190.1883667847228
 20
244.2980995701729
 30
0.0
 10
190.16202294801
 20
243.1067158236228
 30
0.0
 10
189.7903397565456
 20
242.0753584805232
 30
0.0
 10
189.3552443776772
 20
241.5588511553271
 30
0.0
 10
189.1729309859058
 20
241.3424245810524
 30
0.0
  0
SPLINE
  5
236
330
1F
100
AcDbEntity
  8
0
  6
Continuous
 62
     7
370
    15
100
AcDbSpline
210
0.0
220
0.0
230
1.0
 70
     8
 71
     3
 72
    12
 73
     8
 74
     0
 42
0.00000001
 43
0.00000001
 12
1.0
 22
0.0
 32
0.0
 13
1.0
 23
0.0
 33
0.0
 40
0.0
 40
0.0
 40
0.0
 40
0.0
 40
0.1947401404715756
 40
0.4107997362406666
 40
0.6273802373309506
 40
0.8438651016015775
 40
1.0
 40
1.0
 40
1.0
 40
1.0
 10
610.3272886210583
 20
246.2671744811348
 30
0.0
 10
610.0987850890907
 20
245.9940148714122
 30
0.0
 10
609.6167622743022
 20
245.4177911131574
 30
0.0
 10
609.2722071801286
 20
244.2980995701729
 30
0.0
 10
609.2985510168417
 20
243.1067158236229
 30
0.0
 10
609.6702342083058
 20
242.0753584805232
 30
0.0
 10
610.1053295871743
 20
241.5588511553271
 30
0.0
 10
610.2876429789457
 20
241.3424245810524
 30
0.0
  0
SPLINE
  5
237
330
1F
100
AcDbEntity
  8
0
  6
Continuous
 62
     7
370
    15
100
AcDbSpline
210
0.0
220
0.0
230
1.0
 70
     8
 71
     3
 72
    12
 73
     8
 74
     0
 42
0.00000001
 43
0.00000001
 12
1.0
 22
0.0
 32
0.0
 13
1.0
 23
0.0
 33
0.0
 40
0.0
 40
0.0
 40
0.0
 40
0.0
 40
0.1950860331857489
 40
0.4101170279995497
 40
0.6249000670029793
 40
0.8396557083574502
 40
1.0
 40
1.0
 40
1.0
 40
1.0
 10
543.3742381895556
 20
273.6204726417214
 30
0.0
 10
543.3415232196339
 20
273.9751059153941
 30
0.0
 10
543.2727486076524
 20
274.7206290153994
 30
0.0
 10
542.7216122376775
 20
275.7475836853627
 30
0.0
 10
541.8611627211841
 20
276.5589407454984
 30
0.0
 10
540.863411607316
 20
277.0195418082245
 30
0.0
 10
540.1822335664231
 20
277.0699717494006
 30
0.0
 10
539.8910498022011
 20
277.0915290798188
 30
0.0
  0
SPLINE
  5
238
330
1F
100
AcDbEntity
  8
0
  6
Continuous
 62
     7
370
    15
100
AcDbSpline
210
0.0
220
0.0
230
1.0
 70
     8
 71
     3
 72
    12
 73
     8
 74
     0
 42
0.00000001
 43
0.00000001
 12
1.0
 22
0.0
 32
0.0
 13
1.0
 23
0.0
 33
0.0
 40
0.0
 40
0.0
 40
0.0
 40
0.0
 40
0.1858695569715015
 40
0.4012766750822842
 40
0.6164583705402318
 40
0.831192555672032
 40
1.0
 40
1.0
 40
1.0
 40
1.0
 10
259.8910498022011
 20
277.0915290798188
 30
0.0
 10
260.2289497204649
 20
277.0627092765672
 30
0.0
 10
260.9584471051941
 20
277.0004897554485
 30
0.0
 10
261.9810378141698
 20
276.4754679914851
 30
0.0
 10
262.8083257960158
 20
275.6282241656761
 30
0.0
 10
263.2933586944077
 20
274.6234353222122
 30
0.0
 10
263.3495200149042
 20
273.9269954094504
 30
0.0
 10
263.3742381895556
 20
273.6204726417214
 30
0.0
  0
SPLINE
  5
239
330
1F
100
AcDbEntity
  8
0
  6
Continuous
 62
     7
370
    15
100
AcDbSpline
210
0.0
220
0.0
230
1.0
 70
     8
 71
     3
 72
    12
 73
     8
 74
     0
 42
0.00000001
 43
0.00000001
 12
1.0
 22
0.0
 32
0.0
 13
1.0
 23
0.0
 33
0.0
 40
0.0
 40
0.0
 40
0.0
 40
0.0
 40
0.1950860331857462
 40
0.4101170279995488
 40
0.6249000670029828
 40
0.8396557083574321
 40
1.0
 40
1.0
 40
1.0
 40
1.0
 10
256.0863357752958
 20
273.6204726417214
 30
0.0
 10
256.1190507452175
 20
273.9751059153941
 30
0.0
 10
256.1878253571989
 20
274.7206290153994
 30
0.0
 10
256.738961727174
 20
275.7475836853628
 30
0.0
 10
257.5994112436674
 20
276.5589407454983
 30
0.0
 10
258.5971623575355
 20
277.0195418082245
 30
0.0
 10
259.2783403984284
 20
277.0699717494006
 30
0.0
 10
259.5695241626503
 20
277.0915290798188
 30
0.0
  0
SPLINE
  5
23A
330
1F
100
AcDbEntity
  8
0
  6
Continuous
 62
     7
370
    15
100
AcDbSpline
210
0.0
220
0.0
230
1.0
 70
     8
 71
     3
 72
    12
 73
     8
 74
     0
 42
0.00000001
 43
0.00000001
 12
1.0
 22
0.0
 32
0.0
 13
1.0
 23
0.0
 33
0.0
 40
0.0
 40
0.0
 40
0.0
 40
0.0
 40
0.1858695569714841
 40
0.4012766750822883
 40
0.616458370540239
 40
0.8311925556720294
 40
1.0
 40
1.0
 40
1.0
 40
1.0
 10
539.5695241626504
 20
277.0915290798188
 30
0.0
 10
539.2316242443866
 20
277.0627092765672
 30
0.0
 10
538.5021268596572
 20
277.0004897554485
 30
0.0
 10
537.4795361506817
 20
276.4754679914851
 30
0.0
 10
536.6522481688355
 20
275.6282241656762
 30
0.0
 10
536.1672152704439
 20
274.6234353222121
 30
0.0
 10
536.1110539499474
 20
273.9269954094504
 30
0.0
 10
536.086335775296
 20
273.6204726417214
 30
0.0
  0
SPLINE
  5
23B
330
1F
100
AcDbEntity
  8
0
  6
Continuous
 62
     7
370
    15
100
AcDbSpline
210
0.0
220
0.0
230
1.0
 70
     8
 71
     3
 72
    12
 73
     8
 74
     0
 42
0.00000001
 43
0.00000001
 12
1.0
 22
0.0
 32
0.0
 13
1.0
 23
0.0
 33
0.0
 40
0.0
 40
0.0
 40
0.0
 40
0.0
 40
0.1948658464720821
 40
0.4107444405205166
 40
0.6269358949739936
 40
0.8430126466309638
 40
1.0
 40
1.0
 40
1.0
 40
1.0
 10
469.5245706563064
 20
247.1131657137505
 30
0.0
 10
469.2513641996341
 20
247.3416478549956
 30
0.0
 10
468.6754909246392
 20
247.8232497928091
 30
0.0
 10
467.5567289674797
 20
248.1664358077172
 30
0.0
 10
466.3672746973548
 20
248.1385069696026
 30
0.0
 10
465.3357851498395
 20
247.7653004109637
 30
0.0
 10
464.8188054815982
 20
247.3281977263086
 30
0.0
 10
464.6012576961925
 20
247.1442625991012
 30
0.0
  0
SPLINE
  5
23C
330
1F
100
AcDbEntity
  8
0
  6
Continuous
 62
     7
370
    15
100
AcDbSpline
210
0.0
220
0.0
230
1.0
 70
     8
 71
     3
 72
    12
 73
     8
 74
     0
 42
0.00000001
 43
0.00000001
 12
1.0
 22
0.0
 32
0.0
 13
1.0
 23
0.0
 33
0.0
 40
0.0
 40
0.0
 40
0.0
 40
0.0
 40
0.1948658464720821
 40
0.4107444405205166
 40
0.6269358949739936
 40
0.8430126466309638
 40
1.0
 40
1.0
 40
1.0
 40
1.0
 10
329.9360033085451
 20
247.1131657137505
 30
0.0
 10
330.2092097652175
 20
247.3416478549956
 30
0.0
 10
330.7850830402123
 20
247.8232497928091
 30
0.0
 10
331.9038449973718
 20
248.1664358077172
 30
0.0
 10
333.0932992674967
 20
248.1385069696026
 30
0.0
 10
334.1247888150119
 20
247.7653004109637
 30
0.0
 10
334.6417684832532
 20
247.3281977263086
 30
0.0
 10
334.859316268659
 20
247.1442625991012
 30
0.0
  0
SPLINE
  5
23D
330
1F
100
AcDbEntity
  8
0
  6
Continuous
 62
     7
370
    15
100
AcDbSpline
210
0.0
220
0.0
230
1.0
 70
     8
 71
     3
 72
    12
 73
     8
 74
     0
 42
0.00000001
 43
0.00000001
 12
1.0
 22
0.0
 32
0.0
 13
1.0
 23
0.0
 33
0.0
 40
0.0
 40
0.0
 40
0.0
 40
0.0
 40
0.1855473990552479
 40
0.4014744813718567
 40
0.6176946044316969
 40
0.8341913908179232
 40
0.9999999999999999
 40
0.9999999999999999
 40
0.9999999999999999
 40
0.9999999999999999
 10
615.4793914811927
 20
246.5341730832993
 30
0.0
 10
615.2188117858523
 20
246.7480010536804
 30
0.0
 10
614.6549876709603
 20
247.2106670568076
 30
0.0
 10
613.5554921317351
 20
247.5495995469231
 30
0.0
 10
612.3648513434752
 20
247.5231717654854
 30
0.0
 10
611.313578119715
 20
247.1458620884983
 30
0.0
 10
610.7842255925256
 20
246.6915610711374
 30
0.0
 10
610.5546415811102
 20
246.4945274411866
 30
0.0
  0
SPLINE
  5
23E
330
1F
100
AcDbEntity
  8
0
  6
Continuous
 62
     7
370
    15
100
AcDbSpline
210
0.0
220
0.0
230
1.0
 70
     8
 71
     3
 72
    12
 73
     8
 74
     0
 42
0.00000001
 43
0.00000001
 12
1.0
 22
0.0
 32
0.0
 13
1.0
 23
0.0
 33
0.0
 40
0.0
 40
0.0
 40
0.0
 40
0.0
 40
0.1855473990552682
 40
0.4014744813718574
 40
0.6176946044316772
 40
0.834191390817927
 40
1.0
 40
1.0
 40
1.0
 40
1.0
 10
183.9811824836588
 20
246.5341730832993
 30
0.0
 10
184.2417621789992
 20
246.7480010536804
 30
0.0
 10
184.8055862938912
 20
247.2106670568076
 30
0.0
 10
185.9050818331165
 20
247.5495995469232
 30
0.0
 10
187.0957226213763
 20
247.5231717654853
 30
0.0
 10
188.1469958451366
 20
247.1458620884984
 30
0.0
 10
188.676348372326
 20
246.6915610711374
 30
0.0
 10
188.9059323837413
 20
246.4945274411866
 30
0.0
  0
SPLINE
  5
23F
330
1F
100
AcDbEntity
  8
0
  6
Continuous
 62
     7
370
    15
100
AcDbSpline
210
0.0
220
0.0
230
1.0
 70
     8
 71
     3
 72
    12
 73
     8
 74
     0
 42
0.00000001
 43
0.00000001
 12
1.0
 22
0.0
 32
0.0
 13
1.0
 23
0.0
 33
0.0
 40
0.0
 40
0.0
 40
0.0
 40
0.0
 40
0.1856657807337836
 40
0.4014858391047542
 40
0.6174263134352895
 40
0.8335087706113316
 40
1.0
 40
1.0
 40
1.0
 40
1.0
 10
329.6775534631427
 20
241.9624997935849
 30
0.0
 10
329.4627735329734
 20
242.2230925539051
 30
0.0
 10
328.998330919229
 20
242.7866013632738
 30
0.0
 10
328.6570168079965
 20
243.8853710106407
 30
0.0
 10
328.6812444299904
 20
245.0744379115387
 30
0.0
 10
329.0568186076534
 20
246.1257447503607
 30
0.0
 10
329.5109974576715
 20
246.6553397210611
 30
0.0
 10
329.7086503484933
 20
246.8858127536988
 30
0.0
  0
SPLINE
  5
240
330
1F
100
AcDbEntity
  8
0
  6
Continuous
 62
     7
370
    15
100
AcDbSpline
210
0.0
220
0.0
230
1.0
 70
     8
 71
     3
 72
    12
 73
     8
 74
     0
 42
0.00000001
 43
0.00000001
 12
1.0
 22
0.0
 32
0.0
 13
1.0
 23
0.0
 33
0.0
 40
0.0
 40
0.0
 40
0.0
 40
0.0
 40
0.1856657807337836
 40
0.4014858391047542
 40
0.6174263134352895
 40
0.8335087706113316
 40
1.0
 40
1.0
 40
1.0
 40
1.0
 10
469.7830205017088
 20
241.9624997935849
 30
0.0
 10
469.9978004318781
 20
242.2230925539051
 30
0.0
 10
470.4622430456224
 20
242.7866013632738
 30
0.0
 10
470.8035571568549
 20
243.8853710106407
 30
0.0
 10
470.779329534861
 20
245.0744379115387
 30
0.0
 10
470.403755357198
 20
246.1257447503607
 30
0.0
 10
469.9495765071799
 20
246.6553397210611
 30
0.0
 10
469.7519236163582
 20
246.8858127536988
 30
0.0
  0
LINE
  5
241
330
1F
100
AcDbEntity
  8
0
  6
Continuous
 62
     7
370
    15
100
AcDbLine
 10
146.5967028819
 20
263.0272815064
 30
0.0
 11
146.5988157635
 21
262.9948699366
 31
0.0
  0
LINE
  5
242
330
1F
100
AcDbEntity
  8
0
  6
Continuous
 62
     7
370
    15
100
AcDbLine
 10
652.863871083
 20
263.0272815064
 30
0.0
 11
652.8617582014
 21
262.9948699366
 31
0.0
  0
LINE
  5
243
330
1F
100
AcDbEntity
  8
0
  6
Continuous
 62
     7
370
    15
100
AcDbLine
 10
146.0274331209
 20
271.4540052835
 30
0.0
 11
146.0294881887
 21
271.4243293218
 31
0.0
  0
LINE
  5
244
330
1F
100
AcDbEntity
  8
0
  6
Continuous
 62
     7
370
    15
100
AcDbLine
 10
653.4331408439
 20
271.4540052835
 30
0.0
 11
653.4310857762
 21
271.4243293218
 31
0.0
  0
ELLIPSE
  5
245
330
1F
100
AcDbEntity
  8
0
  6
Continuous
 62
     7
370
    15
100
AcDbEllipse
 10
602.2222859056
 20
392.7783437681
 30
0.0
 11
35.35533905932743
 21
35.35533905932743
 31
0.0
210
0.0
220
0.0
230
1.0
 40
0.1139356083
 41
4.827585879309958
 42
5.672578997008584
  0
ELLIPSE
  5
246
330
1F
100
AcDbEntity
  8
0
  6
Continuous
 62
     7
370
    15
100
AcDbEllipse
 10
184.0434722942
 20
379.583528003
 30
0.0
 11
35.35533905932743
 21
-35.35533905932732
 31
0.0
210
0.0
220
0.0
230
1.0
 40
0.1139356083
 41
1.685993225720164
 42
2.472194470180944
  0
ELLIPSE
  5
247
330
1F
100
AcDbEntity
  8
0
  6
Continuous
 62
     7
370
    15
100
AcDbEllipse
 10
197.2382880592
 20
392.7783437681
 30
0.0
 11
35.35533905932752
 21
-35.35533905932743
 31
0.0
210
0.0
220
0.0
230
1.0
 40
0.1139356083
 41
3.752198963760963
 42
4.597192081459427
  0
ELLIPSE
  5
248
330
1F
100
AcDbEntity
  8
0
  6
Continuous
 62
     7
370
    15
100
AcDbEllipse
 10
615.4171016707
 20
379.583528003
 30
0.0
 11
35.35533905932743
 21
35.35533905932726
 31
0.0
210
0.0
220
0.0
230
1.0
 40
0.1139356083
 41
0.6693981834088414
 42
1.455599427869629
  0
ELLIPSE
  5
249
330
1F
100
AcDbEntity
  8
0
  6
Continuous
 62
     7
370
    15
100
AcDbEllipse
 10
322.2350042841
 20
392.7963957046
 30
0.0
 11
35.35533905932721
 21
35.35533905932755
 31
0.0
210
0.0
220
0.0
230
1.0
 40
0.1139356083
 41
4.809652231999604
 42
5.701287898768666
  0
LINE
  5
24A
330
1F
100
AcDbEntity
  8
0
  6
Continuous
 62
     7
370
    15
100
AcDbLine
 10
357.6724872219
 20
423.8059649063
 30
0.0
 11
353.9855651644
 21
420.1190428489
 31
0.0
  0
LINE
  5
24B
330
1F
100
AcDbEntity
  8
0
  6
Continuous
 62
     7
370
    15
100
AcDbLine
 10
441.788086743
 20
423.8059649063
 30
0.0
 11
445.4750088005
 21
420.1190428489
 31
0.0
  0
ELLIPSE
  5
24C
330
1F
100
AcDbEntity
  8
0
  6
Continuous
 62
     7
370
    15
100
AcDbEllipse
 10
477.2255696808
 20
392.7963957046
 30
0.0
 11
-35.35533905932715
 21
35.35533905932755
 31
0.0
210
0.0
220
0.0
230
1.0
 40
0.1139356083
 41
0.5818974084110128
 42
1.473533075179985
  0
ELLIPSE
  5
24D
330
1F
100
AcDbEntity
  8
0
  6
Continuous
 62
     7
370
    15
100
AcDbEllipse
 10
464.0254203576
 20
379.5962463814
 30
0.0
 11
-35.35533905932738
 21
35.35533905932766
 31
0.0
210
0.0
220
0.0
230
1.0
 40
0.1139356083
 41
4.809652231999604
 42
5.630711855675224
  0
ELLIPSE
  5
24E
330
1F
100
AcDbEntity
  8
0
  6
Continuous
 62
     7
370
    15
100
AcDbEllipse
 10
335.4351536072
 20
379.5962463814
 30
0.0
 11
35.35533905932732
 21
35.35533905932766
 31
0.0
210
0.0
220
0.0
230
1.0
 40
0.1139356083
 41
0.6524734515044376
 42
1.473533075179984
  0
ELLIPSE
  5
24F
330
1F
100
AcDbEntity
  8
0
  6
Continuous
 62
     7
370
    15
100
AcDbEllipse
 10
240.7096355717
 20
357.2587012835
 30
0.0
 11
0.0
 21
135.0
 31
0.0
210
0.0
220
0.0
230
1.0
 40
0.1139356083
 41
4.736864640585839
 42
5.293040274575863
  0
ELLIPSE
  5
250
330
1F
100
AcDbEntity
  8
0
  6
Continuous
 62
     7
370
    15
100
AcDbEllipse
 10
558.7509383932
 20
357.2587012835
 30
0.0
 11
0.0
 21
135.0
 31
0.0
210
0.0
220
0.0
230
1.0
 40
0.1139356083
 41
0.9901450326037602
 42
1.546320666593749
  0
ELLIPSE
  5
251
330
1F
100
AcDbEntity
  8
0
  6
Continuous
 62
     7
370
    15
100
AcDbEllipse
 10
520.7096355717
 20
357.2587012835
 30
0.0
 11
0.0
 21
135.0
 31
0.0
210
0.0
220
0.0
230
1.0
 40
0.1139356083
 41
4.736864640585839
 42
5.298075910869863
  0
LINE
  5
252
330
1F
100
AcDbEntity
  8
0
  6
Continuous
 62
     7
370
    15
100
AcDbLine
 10
533.5273797126
 20
431.8829151071
 30
0.0
 11
533.5273797126
 21
432.4776141859
 31
0.0
  0
ELLIPSE
  5
253
330
1F
100
AcDbEntity
  8
0
  6
Continuous
 62
     7
370
    15
100
AcDbEllipse
 10
278.7509383932
 20
357.2587012835
 30
0.0
 11
0.0
 21
135.0
 31
0.0
210
0.0
220
0.0
230
1.0
 40
0.1139356083
 41
0.9851093963097671
 42
1.546320666593749
  0
LINE
  5
254
330
1F
100
AcDbEntity
  8
0
  6
Continuous
 62
     7
370
    15
100
AcDbLine
 10
265.9331942522
 20
431.8829151071
 30
0.0
 11
265.9331942522
 21
432.4776141859
 31
0.0
  0
ELLIPSE
  5
255
330
1F
100
AcDbEntity
  8
0
  6
Continuous
 62
     7
370
    15
100
AcDbEllipse
 10
574.9803687799
 20
336.1026686551
 30
0.0
 11
135.0
 21
0.0
 31
0.0
210
0.0
220
0.0
230
1.0
 40
0.1139356083
 41
4.773263398633389
 42
5.299193698785132
  0
LINE
  5
256
330
1F
100
AcDbEntity
  8
0
  6
Continuous
 62
     7
370
    15
100
AcDbLine
 10
649.7302869824
 20
323.2944363496
 30
0.0
 11
649.7873715947
 21
323.2944363496
 31
0.0
  0
ELLIPSE
  5
257
330
1F
100
AcDbEntity
  8
0
  6
Continuous
 62
     7
370
    15
100
AcDbEllipse
 10
224.480205185
 20
336.1026686551
 30
0.0
 11
135.0000000000001
 21
0.0
 31
0.0
210
0.0
220
0.0
230
1.0
 40
0.1139356083
 41
4.125584261984324
 42
4.651514562135993
  0
LINE
  5
258
330
1F
100
AcDbEntity
  8
0
  6
Continuous
 62
     7
370
    15
100
AcDbLine
 10
149.7302869824
 20
323.2944363496
 30
0.0
 11
149.6732023702
 21
323.2944363496
 31
0.0
  0
LINE
  5
259
330
1F
100
AcDbEntity
  8
0
  6
Continuous
 62
     7
370
    15
100
AcDbLine
 10
649.7302869824
 20
310.88862181
 30
0.0
 11
649.7875630504
 21
310.88862181
 31
0.0
  0
ELLIPSE
  5
25A
330
1F
100
AcDbEntity
  8
0
  6
Continuous
 62
     7
370
    15
100
AcDbEllipse
 10
574.9803687799
 20
298.0803895045
 30
0.0
 11
135.0
 21
0.0
 31
0.0
210
0.0
220
0.0
230
1.0
 40
0.1139356083
 41
0.9839916083944914
 42
1.509921908546199
  0
ELLIPSE
  5
25B
330
1F
100
AcDbEntity
  8
0
  6
Continuous
 62
     7
370
    15
100
AcDbEllipse
 10
224.480205185
 20
298.0803895045
 30
0.0
 11
135.0000000000001
 21
0.0
 31
0.0
210
0.0
220
0.0
230
1.0
 40
0.1139356083
 41
1.631670745043593
 42
2.1576010451953
  0
LINE
  5
25C
330
1F
100
AcDbEntity
  8
0
  6
Continuous
 62
     7
370
    15
100
AcDbLine
 10
149.7302869824
 20
310.88862181
 30
0.0
 11
149.6730109145
 21
310.88862181
 31
0.0
  0
ELLIPSE
  5
25D
330
1F
100
AcDbEntity
  8
0
  6
Continuous
 62
     7
370
    15
100
AcDbEllipse
 10
294.9803687799
 20
336.1026686551
 30
0.0
 11
135.0000000000001
 21
0.0
 31
0.0
210
0.0
220
0.0
230
1.0
 40
0.1139356083
 41
4.773263398633151
 42
5.299183695822102
  0
ELLIPSE
  5
25E
330
1F
100
AcDbEntity
  8
0
  6
Continuous
 62
     7
370
    15
100
AcDbEllipse
 10
504.480205185
 20
336.1026686551
 30
0.0
 11
135.0
 21
0.0
 31
0.0
210
0.0
220
0.0
230
1.0
 40
0.1139356083
 41
4.125594264947354
 42
4.651514562136231
  0
ELLIPSE
  5
25F
330
1F
100
AcDbEntity
  8
0
  6
Continuous
 62
     7
370
    15
100
AcDbEllipse
 10
294.9803687799
 20
298.0803895045
 30
0.0
 11
135.0000000000001
 21
0.0
 31
0.0
210
0.0
220
0.0
230
1.0
 40
0.1139356083
 41
0.9840016113575231
 42
1.509921908546437
  0
ELLIPSE
  5
260
330
1F
100
AcDbEntity
  8
0
  6
Continuous
 62
     7
370
    15
100
AcDbEllipse
 10
504.480205185
 20
298.0803895045
 30
0.0
 11
135.0
 21
0.0
 31
0.0
210
0.0
220
0.0
230
1.0
 40
0.1139356083
 41
1.631670745043357
 42
2.15759104223227
  0
LINE
  5
261
330
1F
100
AcDbEntity
  8
0
  6
Continuous
 62
     7
370
    15
100
AcDbLine
 10
533.5273797126
 20
201.7054439737
 30
0.0
 11
533.5273797126
 21
202.3001430526
 31
0.0
  0
ELLIPSE
  5
262
330
1F
100
AcDbEntity
  8
0
  6
Continuous
 62
     7
370
    15
100
AcDbEllipse
 10
520.7096355717
 20
276.9243568761
 30
0.0
 11
0.0
 21
135.0
 31
0.0
210
0.0
220
0.0
230
1.0
 40
0.1139356083
 41
4.126702049899594
 42
4.687913320183544
  0
ELLIPSE
  5
263
330
1F
100
AcDbEntity
  8
0
  6
Continuous
 62
     7
370
    15
100
AcDbEllipse
 10
240.7096355717
 20
276.9243568761
 30
0.0
 11
0.0
 21
135.0
 31
0.0
210
0.0
220
0.0
230
1.0
 40
0.1139356083
 41
4.131737686193594
 42
4.687913320183544
  0
ELLIPSE
  5
264
330
1F
100
AcDbEntity
  8
0
  6
Continuous
 62
     7
370
    15
100
AcDbEllipse
 10
558.7509383932
 20
276.9243568761
 30
0.0
 11
0.0
 21
135.0
 31
0.0
210
0.0
220
0.0
230
1.0
 40
0.1139356083
 41
1.595271986996044
 42
2.151447620986031
  0
ELLIPSE
  5
265
330
1F
100
AcDbEntity
  8
0
  6
Continuous
 62
     7
370
    15
100
AcDbEllipse
 10
184.0434722942
 20
254.5995301566
 30
0.0
 11
35.35533905932743
 21
35.35533905932729
 31
0.0
210
0.0
220
0.0
230
1.0
 40
0.1139356083
 41
3.810956489270141
 42
4.59719208145943
  0
ELLIPSE
  5
266
330
1F
100
AcDbEntity
  8
0
  6
Continuous
 62
     7
370
    15
100
AcDbEllipse
 10
615.4171016707
 20
254.5995301566
 30
0.0
 11
35.35533905932743
 21
-35.35533905932734
 31
0.0
210
0.0
220
0.0
230
1.0
 40
0.1139356083
 41
4.82758587930996
 42
5.613821471499395
  0
ELLIPSE
  5
267
330
1F
100
AcDbEntity
  8
0
  6
Continuous
 62
     7
370
    15
100
AcDbEllipse
 10
278.7509383932
 20
276.9243568761
 30
0.0
 11
0.0
 21
135.0
 31
0.0
210
0.0
220
0.0
230
1.0
 40
0.1139356083
 41
1.595271986996044
 42
2.156483257280026
  0
LINE
  5
268
330
1F
100
AcDbEntity
  8
0
  6
Continuous
 62
     7
370
    15
100
AcDbLine
 10
265.9331942522
 20
201.7054439737
 30
0.0
 11
265.9331942522
 21
202.3001430526
 31
0.0
  0
ELLIPSE
  5
269
330
1F
100
AcDbEntity
  8
0
  6
Continuous
 62
     7
370
    15
100
AcDbEllipse
 10
602.2222859056
 20
241.4047143916
 30
0.0
 11
35.35533905932743
 21
-35.35533905932743
 31
0.0
210
0.0
220
0.0
230
1.0
 40
0.1139356083
 41
0.6105879485446642
 42
1.455599427869632
  0
ELLIPSE
  5
26A
330
1F
100
AcDbEntity
  8
0
  6
Continuous
 62
     7
370
    15
100
AcDbEllipse
 10
322.2350042841
 20
241.386662455
 30
0.0
 11
-35.3553390593272
 21
35.35533905932752
 31
0.0
210
0.0
220
0.0
230
1.0
 40
0.1139356083
 41
3.723490062000867
 42
4.615125728769779
  0
LINE
  5
26B
330
1F
100
AcDbEntity
  8
0
  6
Continuous
 62
     7
370
    15
100
AcDbLine
 10
357.6724872219
 20
210.3770932533
 30
0.0
 11
353.9855651644
 21
214.0640153107
 31
0.0
  0
ELLIPSE
  5
26C
330
1F
100
AcDbEntity
  8
0
  6
Continuous
 62
     7
370
    15
100
AcDbEllipse
 10
335.4351536072
 20
254.5868117782
 30
0.0
 11
-35.35533905932738
 21
35.35533905932772
 31
0.0
210
0.0
220
0.0
230
1.0
 40
0.1139356083
 41
1.668059578409808
 42
2.489119202085385
  0
ELLIPSE
  5
26D
330
1F
100
AcDbEntity
  8
0
  6
Continuous
 62
     7
370
    15
100
AcDbEllipse
 10
464.0254203576
 20
254.5868117782
 30
0.0
 11
35.35533905932738
 21
35.35533905932772
 31
0.0
210
0.0
220
0.0
230
1.0
 40
0.1139356083
 41
3.794066105094279
 42
4.615125728769781
  0
ELLIPSE
  5
26E
330
1F
100
AcDbEntity
  8
0
  6
Continuous
 62
     7
370
    15
100
AcDbEllipse
 10
477.2255696808
 20
241.386662455
 30
0.0
 11
35.3553390593272
 21
35.35533905932752
 31
0.0
210
0.0
220
0.0
230
1.0
 40
0.1139356083
 41
1.668059578409811
 42
2.559695245178809
  0
LINE
  5
26F
330
1F
100
AcDbEntity
  8
0
  6
Continuous
 62
     7
370
    15
100
AcDbLine
 10
441.788086743
 20
210.3770932533
 30
0.0
 11
445.4750088005
 21
214.0640153107
 31
0.0
  0
ELLIPSE
  5
270
330
1F
100
AcDbEntity
  8
0
  6
Continuous
 62
     7
370
    15
100
AcDbEllipse
 10
197.2382880592
 20
241.4047143916
 30
0.0
 11
35.35533905932751
 21
35.35533905932738
 31
0.0
210
0.0
220
0.0
230
1.0
 40
0.1139356083
 41
1.685993225720162
 42
2.531004705045137
  0
ARC
  5
271
330
1F
100
AcDbEntity
  8
0
  6
Continuous
 62
     7
370
    15
100
AcDbCircle
 10
884.6186375757
 20
317.085230967
 30
0.0
 40
740.0000000000008
100
AcDbArc
 50
175.9311901045
 51
176.3192114685
  0
ARC
  5
272
330
1F
100
AcDbEntity
  8
0
  6
Continuous
 62
     7
370
    15
100
AcDbCircle
 10
-85.1580636109
 20
317.085230967
 30
0.0
 40
740.0000000000008
100
AcDbArc
 50
3.6807885315
 51
4.0688098955
  0
ARC
  5
273
330
1F
100
AcDbEntity
  8
0
  6
Continuous
 62
     7
370
    15
100
AcDbCircle
 10
884.6186375757
 20
317.0978271927
 30
0.0
 40
740.0000000000007
100
AcDbArc
 50
183.5385986756
 51
184.1902397465
  0
ARC
  5
274
330
1F
100
AcDbEntity
  8
0
  6
Continuous
 62
     7
370
    15
100
AcDbCircle
 10
-85.1580636109
 20
317.0978271927
 30
0.0
 40
740.0000000000007
100
AcDbArc
 50
355.8097602535
 51
356.4614013244
  0
ARC
  5
275
330
1F
100
AcDbEntity
  8
0
  6
Continuous
 62
     7
370
    15
100
AcDbCircle
 10
400.8463712439
 20
2793.5912895329
 30
0.0
 40
2599.999999999998
100
AcDbArc
 50
274.1108382125
 51
274.2213143358
  0
ARC
  5
276
330
1F
100
AcDbEntity
  8
0
  6
Continuous
 62
     7
370
    15
100
AcDbCircle
 10
398.614202721
 20
2793.5912895329
 30
0.0
 40
2599.999999999998
100
AcDbArc
 50
265.7786856642
 51
265.8891617875
  0
ARC
  5
277
330
1F
100
AcDbEntity
  8
0
  6
Continuous
 62
     7
370
    15
100
AcDbCircle
 10
398.614202721
 20
-2159.4082313732
 30
0.0
 40
2599.999999999998
100
AcDbArc
 50
94.1108382125
 51
94.2213143358
  0
ARC
  5
278
330
1F
100
AcDbEntity
  8
0
  6
Continuous
 62
     7
370
    15
100
AcDbCircle
 10
400.8463712439
 20
-2159.4082313732
 30
0.0
 40
2599.999999999998
100
AcDbArc
 50
85.7786856642
 51
85.8891617875
  0
ARC
  5
279
330
1F
100
AcDbEntity
  8
0
  6
Continuous
 62
     7
370
    15
100
AcDbCircle
 10
400.8463712439
 20
2793.5912895329
 30
0.0
 40
2599.999999999998
100
AcDbArc
 50
271.903978782
 51
272.0142274326
  0
ARC
  5
27A
330
1F
100
AcDbEntity
  8
0
  6
Continuous
 62
     7
370
    15
100
AcDbCircle
 10
398.614202721
 20
2793.5912895329
 30
0.0
 40
2599.999999999998
100
AcDbArc
 50
267.9857725674
 51
268.096021218
  0
ARC
  5
27B
330
1F
100
AcDbEntity
  8
0
  6
Continuous
 62
     7
370
    15
100
AcDbCircle
 10
400.8463712439
 20
-2159.4082313732
 30
0.0
 40
2599.999999999999
100
AcDbArc
 50
87.9857725674
 51
88.096021218
  0
ARC
  5
27C
330
1F
100
AcDbEntity
  8
0
  6
Continuous
 62
     7
370
    15
100
AcDbCircle
 10
398.614202721
 20
-2159.4082313732
 30
0.0
 40
2599.999999999999
100
AcDbArc
 50
91.903978782
 51
92.0142274326
  0
LINE
  5
27D
330
1F
100
AcDbEntity
  8
0
  6
Continuous
 62
     7
370
    15
100
AcDbLine
 10
329.7086503485
 20
387.2972454059
 30
0.0
 11
329.9360033085
 21
387.0698924459
 31
0.0
  0
LINE
  5
27E
330
1F
100
AcDbEntity
  8
0
  6
Continuous
 62
     7
370
    15
100
AcDbLine
 10
610.3272886211
 20
387.9158836785
 30
0.0
 11
610.5546415811
 21
387.6885307185
 31
0.0
  0
LINE
  5
27F
330
1F
100
AcDbEntity
  8
0
  6
Continuous
 62
     7
370
    15
100
AcDbLine
 10
469.7519236164
 20
387.2972454059
 30
0.0
 11
469.5245706563
 21
387.0698924459
 31
0.0
  0
LINE
  5
280
330
1F
100
AcDbEntity
  8
0
  6
Continuous
 62
     7
370
    15
100
AcDbLine
 10
189.1332853438
 20
387.9158836785
 30
0.0
 11
188.9059323837
 21
387.6885307185
 31
0.0
  0
LINE
  5
281
330
1F
100
AcDbEntity
  8
0
  6
Continuous
 62
     7
370
    15
100
AcDbLine
 10
259.8910498022
 20
357.0915290798
 30
0.0
 11
259.5695241627
 21
357.0915290798
 31
0.0
  0
LINE
  5
282
330
1F
100
AcDbEntity
  8
0
  6
Continuous
 62
     7
370
    15
100
AcDbLine
 10
539.5695241627
 20
357.0915290798
 30
0.0
 11
539.8910498022
 21
357.0915290798
 31
0.0
  0
LINE
  5
283
330
1F
100
AcDbEntity
  8
0
  6
Continuous
 62
     7
370
    15
100
AcDbLine
 10
499.7302869824
 20
317.2522918996
 30
0.0
 11
499.7302869824
 21
316.93076626
 31
0.0
  0
LINE
  5
284
330
1F
100
AcDbEntity
  8
0
  6
Continuous
 62
     7
370
    15
100
AcDbLine
 10
299.7302869824
 20
317.2522918996
 30
0.0
 11
299.7302869824
 21
316.93076626
 31
0.0
  0
LINE
  5
285
330
1F
100
AcDbEntity
  8
0
  6
Continuous
 62
     7
370
    15
100
AcDbLine
 10
219.7302869824
 20
317.2522918996
 30
0.0
 11
219.7302869824
 21
316.93076626
 31
0.0
  0
LINE
  5
286
330
1F
100
AcDbEntity
  8
0
  6
Continuous
 62
     7
370
    15
100
AcDbLine
 10
579.7302869824
 20
317.2522918996
 30
0.0
 11
579.7302869824
 21
316.93076626
 31
0.0
  0
LINE
  5
287
330
1F
100
AcDbEntity
  8
0
  6
Continuous
 62
     7
370
    15
100
AcDbLine
 10
539.5695241627
 20
277.0915290798
 30
0.0
 11
539.8910498022
 21
277.0915290798
 31
0.0
  0
LINE
  5
288
330
1F
100
AcDbEntity
  8
0
  6
Continuous
 62
     7
370
    15
100
AcDbLine
 10
259.8910498022
 20
277.0915290798
 30
0.0
 11
259.5695241627
 21
277.0915290798
 31
0.0
  0
LINE
  5
289
330
1F
100
AcDbEntity
  8
0
  6
Continuous
 62
     7
370
    15
100
AcDbLine
 10
189.1332853438
 20
246.2671744811
 30
0.0
 11
188.9059323837
 21
246.4945274412
 31
0.0
  0
LINE
  5
28A
330
1F
100
AcDbEntity
  8
0
  6
Continuous
 62
     7
370
    15
100
AcDbLine
 10
610.3272886211
 20
246.2671744811
 30
0.0
 11
610.5546415811
 21
246.4945274412
 31
0.0
  0
LINE
  5
28B
330
1F
100
AcDbEntity
  8
0
  6
Continuous
 62
     7
370
    15
100
AcDbLine
 10
469.7519236164
 20
246.8858127537
 30
0.0
 11
469.5245706563
 21
247.1131657138
 31
0.0
  0
LINE
  5
28C
330
1F
100
AcDbEntity
  8
0
  6
Continuous
 62
     7
370
    15
100
AcDbLine
 10
329.7086503485
 20
246.8858127537
 30
0.0
 11
329.9360033085
 21
247.1131657138
 31
0.0
  0
ARC
  5
28D
330
1F
100
AcDbEntity
  8
0
  6
Continuous
 62
     7
370
    15
100
AcDbCircle
 10
-365.2164351979
 20
317.0915290798
 30
0.0
 40
740.0000000000007
100
AcDbArc
 50
0.87196751
 51
3.6802998814
  0
ARC
  5
28E
330
1F
100
AcDbEntity
  8
0
  6
Continuous
 62
     7
370
    15
100
AcDbCircle
 10
1164.6770091628
 20
317.0915290798
 30
0.0
 40
740.0000000000007
100
AcDbArc
 50
176.3197001186
 51
179.12803249
  0
ARC
  5
28F
330
1F
100
AcDbEntity
  8
0
  6
Continuous
 62
     7
370
    15
100
AcDbCircle
 10
1164.6770091628
 20
317.0915290798
 30
0.0
 40
740.0000000000007
100
AcDbArc
 50
180.87196751
 51
183.6802998814
  0
ARC
  5
290
330
1F
100
AcDbEntity
  8
0
  6
Continuous
 62
     7
370
    15
100
AcDbCircle
 10
-365.2164351979
 20
317.0915290798
 30
0.0
 40
740.0000000000007
100
AcDbArc
 50
356.3197001186
 51
359.12803249
  0
ARC
  5
291
330
1F
100
AcDbEntity
  8
0
  6
Continuous
 62
     7
370
    15
100
AcDbCircle
 10
-365.2164351979
 20
317.0915290798
 30
0.0
 40
740.0000000000007
100
AcDbArc
 50
4.0683210212
 51
6.9439124398
  0
ARC
  5
292
330
1F
100
AcDbEntity
  8
0
  6
Continuous
 62
     7
370
    15
100
AcDbCircle
 10
1164.6770091628
 20
317.0915290798
 30
0.0
 40
740.0000000000007
100
AcDbArc
 50
173.0560875602
 51
175.9316789788
  0
ARC
  5
293
330
1F
100
AcDbEntity
  8
0
  6
Continuous
 62
     7
370
    15
100
AcDbCircle
 10
1164.6770091628
 20
317.0915290798
 30
0.0
 40
740.0000000000007
100
AcDbArc
 50
184.0683210212
 51
186.9439124398
  0
ARC
  5
294
330
1F
100
AcDbEntity
  8
0
  6
Continuous
 62
     7
370
    15
100
AcDbCircle
 10
-365.2164351979
 20
317.0915290798
 30
0.0
 40
740.0000000000008
100
AcDbArc
 50
353.0560875602
 51
355.9316789788
  0
ARC
  5
295
330
1F
100
AcDbEntity
  8
0
  6
Continuous
 62
     7
370
    15
100
AcDbCircle
 10
398.614202721
 20
-2159.4082313732
 30
0.0
 40
2599.999999999998
100
AcDbArc
 50
93.3152550659
 51
94.1108382125
  0
ARC
  5
296
330
1F
100
AcDbEntity
  8
0
  6
Continuous
 62
     7
370
    15
100
AcDbCircle
 10
400.8463712439
 20
-2159.4082313732
 30
0.0
 40
2599.999999999998
100
AcDbArc
 50
85.8891617875
 51
86.6847449341
  0
ARC
  5
297
330
1F
100
AcDbEntity
  8
0
  6
Continuous
 62
     7
370
    15
100
AcDbCircle
 10
400.8463712439
 20
2793.5912895329
 30
0.0
 40
2599.999999999998
100
AcDbArc
 50
273.3152550659
 51
274.1108382125
  0
ARC
  5
298
330
1F
100
AcDbEntity
  8
0
  6
Continuous
 62
     7
370
    15
100
AcDbCircle
 10
398.614202721
 20
2793.5912895329
 30
0.0
 40
2599.999999999998
100
AcDbArc
 50
265.8891617875
 51
266.6847449341
  0
ARC
  5
299
330
1F
100
AcDbEntity
  8
0
  6
Continuous
 62
     7
370
    15
100
AcDbCircle
 10
-85.1580636109
 20
317.085230967
 30
0.0
 40
740.0000000000009
100
AcDbArc
 50
0.8724585137
 51
3.6807885315
  0
ARC
  5
29A
330
1F
100
AcDbEntity
  8
0
  6
Continuous
 62
     7
370
    15
100
AcDbCircle
 10
884.6186375757
 20
317.085230967
 30
0.0
 40
740.0000000000009
100
AcDbArc
 50
176.3192114685
 51
179.1275414863
  0
ARC
  5
29B
330
1F
100
AcDbEntity
  8
0
  6
Continuous
 62
     7
370
    15
100
AcDbCircle
 10
398.614202721
 20
-2159.4082313732
 30
0.0
 40
2599.999999999999
100
AcDbArc
 50
91.4365874626
 51
91.903978782
  0
ARC
  5
29C
330
1F
100
AcDbEntity
  8
0
  6
Continuous
 62
     7
370
    15
100
AcDbCircle
 10
400.8463712439
 20
-2159.4082313732
 30
0.0
 40
2599.999999999999
100
AcDbArc
 50
88.096021218
 51
88.5634125374
  0
ARC
  5
29D
330
1F
100
AcDbEntity
  8
0
  6
Continuous
 62
     7
370
    15
100
AcDbCircle
 10
398.614202721
 20
2793.5912895329
 30
0.0
 40
2599.999999999999
100
AcDbArc
 50
268.096021218
 51
268.5634125374
  0
ARC
  5
29E
330
1F
100
AcDbEntity
  8
0
  6
Continuous
 62
     7
370
    15
100
AcDbCircle
 10
400.8463712439
 20
2793.5912895329
 30
0.0
 40
2599.999999999999
100
AcDbArc
 50
271.4365874626
 51
271.903978782
  0
ARC
  5
29F
330
1F
100
AcDbEntity
  8
0
  6
Continuous
 62
     7
370
    15
100
AcDbCircle
 10
398.614202721
 20
2793.5912895329
 30
0.0
 40
2599.999999999999
100
AcDbArc
 50
267.1793924165
 51
267.9857725674
  0
ARC
  5
2A0
330
1F
100
AcDbEntity
  8
0
  6
Continuous
 62
     7
370
    15
100
AcDbCircle
 10
400.8463712439
 20
2793.5912895329
 30
0.0
 40
2599.999999999999
100
AcDbArc
 50
272.0142274326
 51
272.8206075835
  0
ARC
  5
2A1
330
1F
100
AcDbEntity
  8
0
  6
Continuous
 62
     7
370
    15
100
AcDbCircle
 10
400.8463712439
 20
-2159.4082313732
 30
0.0
 40
2599.999999999999
100
AcDbArc
 50
87.1793924165
 51
87.9857725674
  0
ARC
  5
2A2
330
1F
100
AcDbEntity
  8
0
  6
Continuous
 62
     7
370
    15
100
AcDbCircle
 10
398.614202721
 20
-2159.4082313732
 30
0.0
 40
2599.999999999999
100
AcDbArc
 50
92.0142274326
 51
92.8206075835
  0
ARC
  5
2A3
330
1F
100
AcDbEntity
  8
0
  6
Continuous
 62
     7
370
    15
100
AcDbCircle
 10
884.6186375757
 20
317.085230967
 30
0.0
 40
740.0000000000008
100
AcDbArc
 50
173.5233939274
 51
175.9311901045
  0
ARC
  5
2A4
330
1F
100
AcDbEntity
  8
0
  6
Continuous
 62
     7
370
    15
100
AcDbCircle
 10
-85.1580636109
 20
317.085230967
 30
0.0
 40
740.0000000000008
100
AcDbArc
 50
4.0688098955
 51
6.4766060726
  0
ARC
  5
2A5
330
1F
100
AcDbEntity
  8
0
  6
Continuous
 62
     7
370
    15
100
AcDbCircle
 10
400.8463712439
 20
2793.5912895329
 30
0.0
 40
2599.999999999998
100
AcDbArc
 50
274.2213143358
 51
274.7969519984
  0
ARC
  5
2A6
330
1F
100
AcDbEntity
  8
0
  6
Continuous
 62
     7
370
    15
100
AcDbCircle
 10
398.614202721
 20
2793.5912895329
 30
0.0
 40
2599.999999999998
100
AcDbArc
 50
265.2030480016
 51
265.7786856642
  0
ARC
  5
2A7
330
1F
100
AcDbEntity
  8
0
  6
Continuous
 62
     7
370
    15
100
AcDbCircle
 10
398.614202721
 20
-2159.4082313732
 30
0.0
 40
2599.999999999998
100
AcDbArc
 50
94.2213143358
 51
94.7969196389
  0
ARC
  5
2A8
330
1F
100
AcDbEntity
  8
0
  6
Continuous
 62
     7
370
    15
100
AcDbCircle
 10
400.8463712439
 20
-2159.4082313732
 30
0.0
 40
2599.999999999998
100
AcDbArc
 50
85.2030803611
 51
85.7786856642
  0
ELLIPSE
  5
2A9
330
1F
100
AcDbEntity
  8
0
  6
Continuous
 62
     7
370
    15
100
AcDbEllipse
 10
122.7417464951
 20
462.5800695672
 30
0.0
 11
-2.13749582367079
 21
2.137495823670747
 31
0.0
210
0.0
220
0.0
230
1.0
 40
0.9924325091
 41
5.501585242055447
 42
7.064785372303794
  0
ELLIPSE
  5
2AA
330
1F
100
AcDbEntity
  8
0
  6
Continuous
 62
     7
370
    15
100
AcDbEllipse
 10
676.7188274698
 20
462.5800695672
 30
0.0
 11
2.137495823670747
 21
2.137495823670747
 31
0.0
210
0.0
220
0.0
230
1.0
 40
0.9924325091
 41
5.501585242055386
 42
7.064785372303743
  0
ELLIPSE
  5
2AB
330
1F
100
AcDbEntity
  8
0
  6
Continuous
 62
     7
370
    15
100
AcDbEllipse
 10
676.7188274698
 20
171.6029885924
 30
0.0
 11
2.137495823670747
 21
-2.137495823670747
 31
0.0
210
0.0
220
0.0
230
1.0
 40
0.9924325091
 41
5.50158524205545
 42
7.064785372303717
  0
ELLIPSE
  5
2AC
330
1F
100
AcDbEntity
  8
0
  6
Continuous
 62
     7
370
    15
100
AcDbEllipse
 10
122.7417464951
 20
171.6029885924
 30
0.0
 11
-2.13749582367079
 21
-2.137495823670747
 31
0.0
210
0.0
220
0.0
230
1.0
 40
0.9924325091
 41
5.501585242055473
 42
7.064785372303732
  0
LINE
  5
2AD
330
1F
100
AcDbEntity
  8
0
  6
Continuous
 62
     7
370
    15
100
AcDbLine
 10
676.7417028882
 20
465.5915290798
 30
0.0
 11
122.7188710767
 21
465.5915290798
 31
0.0
  0
LINE
  5
2AE
330
1F
100
AcDbEntity
  8
0
  6
Continuous
 62
     7
370
    15
100
AcDbLine
 10
119.7302869824
 20
462.6029449855
 30
0.0
 11
119.7302869824
 21
171.5801131741
 31
0.0
  0
LINE
  5
2AF
330
1F
100
AcDbEntity
  8
0
  6
Continuous
 62
     7
370
    15
100
AcDbLine
 10
679.7302869824
 20
462.6029449855
 30
0.0
 11
679.7302869824
 21
171.5801131741
 31
0.0
  0
LINE
  5
2B0
330
1F
100
AcDbEntity
  8
0
  6
Continuous
 62
     7
370
    15
100
AcDbLine
 10
122.7188710767
 20
168.5915290798
 30
0.0
 11
676.7417028882
 21
168.5915290798
 31
0.0
  0
LINE
  5
2B1
330
1F
100
AcDbEntity
  8
0
  6
Continuous
 62
     7
370
    15
100
AcDbLine
 10
361.0822010937
 20
224.0482528763
 30
0.0
 11
361.1446716605
 21
224.0031429701
 31
0.0
  0
LINE
  5
2B2
330
1F
100
AcDbEntity
  8
0
  6
Continuous
 62
     7
370
    15
100
AcDbLine
 10
438.3783728712
 20
224.0482528763
 30
0.0
 11
438.3159023043
 21
224.0031429701
 31
0.0
  0
LINE
  5
2B3
330
1F
100
AcDbEntity
  8
0
  6
Continuous
 62
     7
370
    15
100
AcDbLine
 10
361.1446716605
 20
410.1799151895
 30
0.0
 11
361.0822010937
 21
410.1348052833
 31
0.0
  0
LINE
  5
2B4
330
1F
100
AcDbEntity
  8
0
  6
Continuous
 62
     7
370
    15
100
AcDbLine
 10
438.3159023043
 20
410.1799151895
 30
0.0
 11
438.3783728712
 21
410.1348052833
 31
0.0
  0
ARC
  5
2B5
330
1F
100
AcDbEntity
  8
0
  6
Continuous
 62
     7
370
    15
100
AcDbCircle
 10
334.3082312106
 20
229.3975094086
 30
0.0
 40
34.99999999999976
100
AcDbArc
 50
268.5634125374
 51
311.3498375628
  0
ARC
  5
2B6
330
1F
100
AcDbEntity
  8
0
  6
Continuous
 62
     7
370
    15
100
AcDbCircle
 10
465.1523427543
 20
229.3975094086
 30
0.0
 40
34.99999999999976
100
AcDbArc
 50
228.6501624372
 51
271.4365874626
  0
ARC
  5
2B7
330
1F
100
AcDbEntity
  8
0
  6
Continuous
 62
     7
370
    15
100
AcDbCircle
 10
334.3082312106
 20
404.7855487511
 30
0.0
 40
35.00000000000007
100
AcDbArc
 50
48.6501624372
 51
91.4365874626
  0
ARC
  5
2B8
330
1F
100
AcDbEntity
  8
0
  6
Continuous
 62
     7
370
    15
100
AcDbCircle
 10
465.1523427543
 20
404.7855487511
 30
0.0
 40
35.00000000000006
100
AcDbArc
 50
88.5634125374
 51
131.3498375628
  0
ARC
  5
2B9
330
1F
100
AcDbEntity
  8
0
  6
Continuous
 62
     7
370
    15
100
AcDbCircle
 10
615.3426220522
 20
396.6074881381
 30
0.0
 40
35.00000000000011
100
AcDbArc
 50
61.2999698761
 51
85.2030803611
  0
ARC
  5
2BA
330
1F
100
AcDbEntity
  8
0
  6
Continuous
 62
     7
370
    15
100
AcDbCircle
 10
184.1179519127
 20
396.6074881381
 30
0.0
 40
35.00000000000011
100
AcDbArc
 50
94.7969196389
 51
118.7000301239
  0
ARC
  5
2BB
330
1F
100
AcDbEntity
  8
0
  6
Continuous
 62
     7
370
    15
100
AcDbCircle
 10
184.1165083281
 20
237.5756911649
 30
0.0
 40
35.00000000000009
100
AcDbArc
 50
241.3021701113
 51
265.2030480016
  0
ARC
  5
2BC
330
1F
100
AcDbEntity
  8
0
  6
Continuous
 62
     7
370
    15
100
AcDbCircle
 10
615.3440656368
 20
237.5756911649
 30
0.0
 40
35.00000000000007
100
AcDbArc
 50
274.7969519984
 51
298.6978298887
  0
ARC
  5
2BD
330
1F
100
AcDbEntity
  8
0
  6
Continuous
 62
     7
370
    15
100
AcDbCircle
 10
184.1165083281
 20
237.5756911649
 30
0.0
 40
35.00000000000011
100
AcDbArc
 50
186.4755658868
 51
198.6850138345
  0
ARC
  5
2BE
330
1F
100
AcDbEntity
  8
0
  6
Continuous
 62
     7
370
    15
100
AcDbCircle
 10
615.3440656368
 20
237.5756911649
 30
0.0
 40
35.00000000000006
100
AcDbArc
 50
341.3149861655
 51
353.5244341132
  0
ARC
  5
2BF
330
1F
100
AcDbEntity
  8
0
  6
Continuous
 62
     7
370
    15
100
AcDbCircle
 10
-85.1580636109
 20
317.085230967
 30
0.0
 40
740.0000000000009
100
AcDbArc
 50
353.5244341132
 51
355.8018789396
  0
ARC
  5
2C0
330
1F
100
AcDbEntity
  8
0
  6
Continuous
 62
     7
370
    15
100
AcDbCircle
 10
884.6186375757
 20
317.085230967
 30
0.0
 40
740.0000000000009
100
AcDbArc
 50
184.1981210604
 51
186.4755658868
  0
ARC
  5
2C1
330
1F
100
AcDbEntity
  8
0
  6
Continuous
 62
     7
370
    15
100
AcDbCircle
 10
615.3426220522
 20
396.6074881381
 30
0.0
 40
35.00000000000008
100
AcDbArc
 50
6.4766060726
 51
18.6838067872
  0
ARC
  5
2C2
330
1F
100
AcDbEntity
  8
0
  6
Continuous
 62
     7
370
    15
100
AcDbCircle
 10
184.1179519127
 20
396.6074881381
 30
0.0
 40
35.00000000000014
100
AcDbArc
 50
161.3161932128
 51
173.5233939274
  0
ARC
  5
2C3
330
1F
100
AcDbEntity
  8
0
  6
Continuous
 62
     7
370
    15
100
AcDbCircle
 10
884.6186375757
 20
317.085230967
 30
0.0
 40
740.0000000000009
100
AcDbArc
 50
180.8714765063
 51
183.5295036962
  0
ARC
  5
2C4
330
1F
100
AcDbEntity
  8
0
  6
Continuous
 62
     7
370
    15
100
AcDbCircle
 10
-85.1580636109
 20
317.085230967
 30
0.0
 40
740.0000000000009
100
AcDbArc
 50
356.4704963038
 51
359.1285234937
  0
SPLINE
  5
2C5
330
1F
100
AcDbEntity
  8
0
  6
Continuous
 62
     7
370
    15
100
AcDbSpline
210
0.0
220
0.0
230
1.0
 70
     8
 71
     3
 72
    13
 73
     9
 74
     0
 42
0.00000001
 43
0.00000001
 12
1.0
 22
0.0
 32
0.0
 13
1.0
 23
0.0
 33
0.0
 40
0.0
 40
0.0
 40
0.0
 40
0.0
 40
0.120388403363328
 40
0.3326175004420902
 40
0.5446000212409445
 40
0.7559675797755516
 40
0.9681303910808288
 40
1.0
 40
1.0
 40
1.0
 40
1.0
 10
649.7875630503651
 20
310.8886218100154
 30
0.0
 10
650.1033915737003
 20
310.8707114558568
 30
0.0
 10
650.9759847061384
 20
310.8212274767874
 30
0.0
 10
652.3403348743076
 20
310.2913393512405
 30
0.0
 10
653.6423867976921
 20
309.2073780759216
 30
0.0
 10
654.5073779533941
 20
307.7478630087828
 30
0.0
 10
654.7559105348328
 20
306.5532222207623
 30
0.0
 10
654.7562896932864
 20
305.9136862194762
 30
0.0
 10
654.7563392097877
 20
305.8301655043517
 30
0.0
  0
SPLINE
  5
2C6
330
1F
100
AcDbEntity
  8
0
  6
Continuous
 62
     7
370
    15
100
AcDbSpline
210
0.0
220
0.0
230
1.0
 70
     8
 71
     3
 72
    13
 73
     9
 74
     0
 42
0.00000001
 43
0.00000001
 12
1.0
 22
0.0
 32
0.0
 13
1.0
 23
0.0
 33
0.0
 40
0.0
 40
0.0
 40
0.0
 40
0.0
 40
0.120388403363329
 40
0.3326175004420731
 40
0.5446000212409401
 40
0.7559675797755524
 40
0.9681303910808285
 40
1.0
 40
1.0
 40
1.0
 40
1.0
 10
149.6730109144863
 20
310.8886218100154
 30
0.0
 10
149.3571823911512
 20
310.8707114558568
 30
0.0
 10
148.4845892587129
 20
310.8212274767874
 30
0.0
 10
147.1202390905438
 20
310.2913393512404
 30
0.0
 10
145.8181871671593
 20
309.2073780759216
 30
0.0
 10
144.9531960114572
 20
307.7478630087828
 30
0.0
 10
144.704663430019
 20
306.5532222207623
 30
0.0
 10
144.7042842715649
 20
305.9136862194762
 30
0.0
 10
144.7042347550637
 20
305.8301655043517
 30
0.0
  0
SPLINE
  5
2C7
330
1F
100
AcDbEntity
  8
0
  6
Continuous
 62
     7
370
    15
100
AcDbSpline
210
0.0
220
0.0
230
1.0
 70
     8
 71
     3
 72
    13
 73
     9
 74
     0
 42
0.00000001
 43
0.00000001
 12
1.0
 22
0.0
 32
0.0
 13
1.0
 23
0.0
 33
0.0
 40
0.0
 40
0.0
 40
0.0
 40
0.0
 40
0.1226328637537356
 40
0.3362662396541891
 40
0.5495221609089747
 40
0.7612321592022172
 40
0.972677363496621
 40
1.0
 40
1.0
 40
1.0
 40
1.0
 10
144.7044277672655
 20
328.3529780156155
 30
0.0
 10
144.7179520427332
 20
328.0310194923244
 30
0.0
 10
144.7550363700201
 20
327.1481910347823
 30
0.0
 10
145.2713994569097
 20
325.764508493776
 30
0.0
 10
146.3440697713052
 20
324.4425348139815
 30
0.0
 10
147.7963603788471
 20
323.5600434994731
 30
0.0
 10
148.975963656157
 20
323.3039994298009
 30
0.0
 10
149.6016086771788
 20
323.2954183034534
 30
0.0
 10
149.673202370167
 20
323.2944363496225
 30
0.0
  0
SPLINE
  5
2C8
330
1F
100
AcDbEntity
  8
0
  6
Continuous
 62
     7
370
    15
100
AcDbSpline
210
0.0
220
0.0
230
1.0
 70
     8
 71
     3
 72
    13
 73
     9
 74
     0
 42
0.00000001
 43
0.00000001
 12
1.0
 22
0.0
 32
0.0
 13
1.0
 23
0.0
 33
0.0
 40
0.0
 40
0.0
 40
0.0
 40
0.0
 40
0.1226328637537365
 40
0.3362662396541858
 40
0.5495221609089673
 40
0.7612321592022164
 40
0.9726773634966207
 40
1.0
 40
1.0
 40
1.0
 40
1.0
 10
654.756146197586
 20
328.3529780156155
 30
0.0
 10
654.7426219221181
 20
328.0310194923244
 30
0.0
 10
654.7055375948312
 20
327.1481910347823
 30
0.0
 10
654.1891745079419
 20
325.764508493776
 30
0.0
 10
653.1165041935462
 20
324.4425348139815
 30
0.0
 10
651.6642135860045
 20
323.5600434994731
 30
0.0
 10
650.4846103086943
 20
323.3039994298009
 30
0.0
 10
649.8589652876727
 20
323.2954183034535
 30
0.0
 10
649.7873715946845
 20
323.2944363496225
 30
0.0
  0
SPLINE
  5
2C9
330
1F
100
AcDbEntity
  8
0
  6
Continuous
 62
     7
370
    15
100
AcDbSpline
210
0.0
220
0.0
230
1.0
 70
     8
 71
     3
 72
    13
 73
     9
 74
     0
 42
0.00000001
 43
0.00000001
 12
1.0
 22
0.0
 32
0.0
 13
1.0
 23
0.0
 33
0.0
 40
0.0
 40
0.0
 40
0.0
 40
0.0
 40
0.0360362544920779
 40
0.1810744237571907
 40
0.3928419161105748
 40
0.6044930040571873
 40
0.8159310179259706
 40
1.0
 40
1.0
 40
1.0
 40
1.0
 10
429.7302869824257
 20
323.2944364913274
 30
0.0
 10
429.6358328977273
 20
323.2961414471401
 30
0.0
 10
429.1612214488031
 20
323.3047084831893
 30
0.0
 10
428.1375921028938
 20
323.4862957800023
 30
0.0
 10
426.770110217923
 20
324.1508630368916
 30
0.0
 10
425.58810948786
 20
325.359536050327
 30
0.0
 10
424.8679879811093
 20
326.82702981094
 30
0.0
 10
424.7961405979247
 20
327.868319189698
 30
0.0
 10
424.762702821038
 20
328.3529353354518
 30
0.0
  0
LINE
  5
2CA
330
1F
100
AcDbEntity
  8
0
  6
Continuous
 62
     7
370
    15
100
AcDbLine
 10
429.7314114834
 20
323.2943511583
 30
0.0
 11
429.7302869824
 21
323.2944364913
 31
0.0
  0
SPLINE
  5
2CB
330
1F
100
AcDbEntity
  8
0
  6
Continuous
 62
     7
370
    15
100
AcDbSpline
210
0.0
220
0.0
230
1.0
 70
     8
 71
     3
 72
    13
 73
     9
 74
     0
 42
0.00000001
 43
0.00000001
 12
1.0
 22
0.0
 32
0.0
 13
1.0
 23
0.0
 33
0.0
 40
0.0
 40
0.0
 40
0.0
 40
0.0
 40
0.0360362544920779
 40
0.1810744237571907
 40
0.3928419161105748
 40
0.6044930040571873
 40
0.8159310179259706
 40
1.0
 40
1.0
 40
1.0
 40
1.0
 10
369.7302869824258
 20
323.2944364913274
 30
0.0
 10
369.8247410671242
 20
323.2961414471401
 30
0.0
 10
370.2993525160484
 20
323.3047084831893
 30
0.0
 10
371.3229818619577
 20
323.4862957800023
 30
0.0
 10
372.6904637469285
 20
324.1508630368916
 30
0.0
 10
373.8724644769915
 20
325.359536050327
 30
0.0
 10
374.5925859837422
 20
326.82702981094
 30
0.0
 10
374.6644333669268
 20
327.868319189698
 30
0.0
 10
374.6978711438135
 20
328.3529353354518
 30
0.0
  0
LINE
  5
2CC
330
1F
100
AcDbEntity
  8
0
  6
Continuous
 62
     7
370
    15
100
AcDbLine
 10
369.7291624815
 20
323.2943511583
 30
0.0
 11
369.7302869824
 21
323.2944364913
 31
0.0
  0
SPLINE
  5
2CD
330
1F
100
AcDbEntity
  8
0
  6
Continuous
 62
     7
370
    15
100
AcDbSpline
210
0.0
220
0.0
230
1.0
 70
     8
 71
     3
 72
    13
 73
     9
 74
     0
 42
0.00000001
 43
0.00000001
 12
1.0
 22
0.0
 32
0.0
 13
1.0
 23
0.0
 33
0.0
 40
0.0
 40
0.0
 40
0.0
 40
0.0
 40
0.0352296131229826
 40
0.1769685889031339
 40
0.3899799536768697
 40
0.602737881501426
 40
0.8142305757928516
 40
1.0
 40
1.0
 40
1.0
 40
1.0
 10
374.6978711438176
 20
305.830122824187
 30
0.0
 10
374.6976806159781
 20
305.9224740121066
 30
0.0
 10
374.6967235392488
 20
306.3863808779756
 30
0.0
 10
374.5377798935796
 20
307.4053555543497
 30
0.0
 10
373.90769407979
 20
308.7864560512222
 30
0.0
 10
372.7224500786996
 20
310.0010908466436
 30
0.0
 10
371.2636168141
 20
310.75674335368
 30
0.0
 10
370.218846827109
 20
310.8466017143631
 30
0.0
 10
369.7302869824257
 20
310.8886216683103
 30
0.0
  0
LINE
  5
2CE
330
1F
100
AcDbEntity
  8
0
  6
Continuous
 62
     7
370
    15
100
AcDbLine
 10
369.7302869824
 20
310.8886216683
 30
0.0
 11
369.7291624815
 21
310.8887070014
 31
0.0
  0
SPLINE
  5
2CF
330
1F
100
AcDbEntity
  8
0
  6
Continuous
 62
     7
370
    15
100
AcDbSpline
210
0.0
220
0.0
230
1.0
 70
     8
 71
     3
 72
    13
 73
     9
 74
     0
 42
0.00000001
 43
0.00000001
 12
1.0
 22
0.0
 32
0.0
 13
1.0
 23
0.0
 33
0.0
 40
0.0
 40
0.0
 40
0.0
 40
0.0
 40
0.0352296131229826
 40
0.1769685889031339
 40
0.3899799536768697
 40
0.602737881501426
 40
0.8142305757928516
 40
1.0
 40
1.0
 40
1.0
 40
1.0
 10
424.7627028210339
 20
305.830122824187
 30
0.0
 10
424.7628933488734
 20
305.9224740121066
 30
0.0
 10
424.7638504256026
 20
306.3863808779756
 30
0.0
 10
424.9227940712719
 20
307.4053555543497
 30
0.0
 10
425.5528798850615
 20
308.7864560512222
 30
0.0
 10
426.7381238861519
 20
310.0010908466436
 30
0.0
 10
428.1969571507515
 20
310.75674335368
 30
0.0
 10
429.2417271377424
 20
310.8466017143631
 30
0.0
 10
429.7302869824258
 20
310.8886216683103
 30
0.0
  0
LINE
  5
2D0
330
1F
100
AcDbEntity
  8
0
  6
Continuous
 62
     7
370
    15
100
AcDbLine
 10
429.7302869824
 20
310.8886216683
 30
0.0
 11
429.7314114834
 21
310.8887070014
 31
0.0
  0
LINE
  5
2D1
330
1F
100
AcDbEntity
  8
0
  6
Continuous
 62
     7
370
    15
100
AcDbLine
 10
653.4383265602
 20
271.5289753446
 30
0.0
 11
653.4331408439
 21
271.4540052835
 31
0.0
  0
LINE
  5
2D2
330
1F
100
AcDbEntity
  8
0
  6
Continuous
 62
     7
370
    15
100
AcDbLine
 10
146.0222474047
 20
271.5289753446
 30
0.0
 11
146.0274331209
 21
271.4540052835
 31
0.0
  0
SPLINE
  5
2D3
330
1F
100
AcDbEntity
  8
0
  6
Continuous
 62
     7
370
    15
100
AcDbSpline
210
0.0
220
0.0
230
1.0
 70
     8
 71
     3
 72
    13
 73
     9
 74
     0
 42
0.00000001
 43
0.00000001
 12
1.0
 22
0.0
 32
0.0
 13
1.0
 23
0.0
 33
0.0
 40
0.0
 40
0.0
 40
0.0
 40
0.0
 40
0.0709425390422495
 40
0.2939620615140793
 40
0.5170363070328853
 40
0.7380442288883214
 40
0.9585382074828124
 40
1.0
 40
1.0
 40
1.0
 40
1.0
 10
270.6707834414623
 20
437.4418762500517
 30
0.0
 10
270.4929445805971
 20
437.4272591385801
 30
0.0
 10
269.7560400538769
 20
437.3666907366089
 30
0.0
 10
268.4978804123431
 20
436.932951342355
 30
0.0
 10
267.1505901357459
 20
435.8839375677608
 30
0.0
 10
266.2377924435987
 20
434.4479517948602
 30
0.0
 10
265.9482557961829
 20
433.2402585040601
 30
0.0
 10
265.9352524014125
 20
432.5818289851952
 30
0.0
 10
265.9331942522307
 20
432.4776141859468
 30
0.0
  0
SPLINE
  5
2D4
330
1F
100
AcDbEntity
  8
0
  6
Continuous
 62
     7
370
    15
100
AcDbSpline
210
0.0
220
0.0
230
1.0
 70
     8
 71
     3
 72
    13
 73
     9
 74
     0
 42
0.00000001
 43
0.00000001
 12
1.0
 22
0.0
 32
0.0
 13
1.0
 23
0.0
 33
0.0
 40
0.0
 40
0.0
 40
0.0
 40
0.0
 40
0.0709425390422358
 40
0.2939620615140685
 40
0.5170363070328775
 40
0.7380442288883166
 40
0.9585382074828122
 40
1.0
 40
1.0
 40
1.0
 40
1.0
 10
528.7897905233891
 20
437.4418762500517
 30
0.0
 10
528.9676293842543
 20
437.4272591385801
 30
0.0
 10
529.7045339109745
 20
437.3666907366089
 30
0.0
 10
530.9626935525082
 20
436.932951342355
 30
0.0
 10
532.3099838291055
 20
435.8839375677607
 30
0.0
 10
533.2227815212527
 20
434.4479517948602
 30
0.0
 10
533.5123181686685
 20
433.24025850406
 30
0.0
 10
533.5253215634389
 20
432.5818289851952
 30
0.0
 10
533.5273797126208
 20
432.4776141859468
 30
0.0
  0
SPLINE
  5
2D5
330
1F
100
AcDbEntity
  8
0
  6
Continuous
 62
     7
370
    15
100
AcDbSpline
210
0.0
220
0.0
230
1.0
 70
     8
 71
     3
 72
    13
 73
     9
 74
     0
 42
0.00000001
 43
0.00000001
 12
1.0
 22
0.0
 32
0.0
 13
1.0
 23
0.0
 33
0.0
 40
0.0
 40
0.0
 40
0.0
 40
0.0
 40
0.07293902535706
 40
0.294366426977178
 40
0.5155974584718469
 40
0.7360694421305044
 40
0.9571696924590285
 40
1.0
 40
1.0
 40
1.0
 40
1.0
 10
533.5273797126223
 20
201.7054439736909
 30
0.0
 10
533.5211589609049
 20
201.5220684250962
 30
0.0
 10
533.4960533271625
 20
200.7820036275401
 30
0.0
 10
533.1203253134657
 20
199.5090242140871
 30
0.0
 10
532.1407872790805
 20
198.1233159874473
 30
0.0
 10
530.7542804423044
 20
197.1452903646039
 30
0.0
 10
529.5591734445259
 20
196.7947002753502
 30
0.0
 10
528.897212658492
 20
196.7486542058567
 30
0.0
 10
528.7897905233867
 20
196.7411819096081
 30
0.0
  0
SPLINE
  5
2D6
330
1F
100
AcDbEntity
  8
0
  6
Continuous
 62
     7
370
    15
100
AcDbSpline
210
0.0
220
0.0
230
1.0
 70
     8
 71
     3
 72
    13
 73
     9
 74
     0
 42
0.00000001
 43
0.00000001
 12
1.0
 22
0.0
 32
0.0
 13
1.0
 23
0.0
 33
0.0
 40
0.0
 40
0.0
 40
0.0
 40
0.0
 40
0.0729390253570603
 40
0.2943664269771812
 40
0.5155974584718468
 40
0.7360694421305173
 40
0.9571696924590282
 40
0.9999999999999999
 40
0.9999999999999999
 40
0.9999999999999999
 40
0.9999999999999999
 10
265.9331942522291
 20
201.7054439736909
 30
0.0
 10
265.9394150039465
 20
201.5220684250962
 30
0.0
 10
265.964520637689
 20
200.7820036275401
 30
0.0
 10
266.3402486513857
 20
199.5090242140872
 30
0.0
 10
267.3197866857709
 20
198.1233159874473
 30
0.0
 10
268.706293522547
 20
197.1452903646039
 30
0.0
 10
269.9014005203257
 20
196.7947002753502
 30
0.0
 10
270.5633613063594
 20
196.7486542058567
 30
0.0
 10
270.6707834414647
 20
196.7411819096081
 30
0.0
  0
LINE
  5
2D7
330
1F
100
AcDbEntity
  8
0
  6
Continuous
 62
     7
370
    15
100
AcDbLine
 10
146.5988157635
 20
262.9948699366
 30
0.0
 11
146.6041475313
 21
262.9131672766
 31
0.0
  0
LINE
  5
2D8
330
1F
100
AcDbEntity
  8
0
  6
Continuous
 62
     7
370
    15
100
AcDbLine
 10
652.8617582014
 20
262.9948699366
 30
0.0
 11
652.8564264336
 21
262.9131672766
 31
0.0
  0
SPLINE
  5
2D9
330
1F
100
AcDbEntity
  8
0
  6
Continuous
 62
     7
370
    15
100
AcDbSpline
210
0.0
220
0.0
230
1.0
 70
     8
 71
     3
 72
    13
 73
     9
 74
     0
 42
0.00000001
 43
0.00000001
 12
1.0
 22
0.0
 32
0.0
 13
1.0
 23
0.0
 33
0.0
 40
0.0
 40
0.0
 40
0.0
 40
0.0
 40
0.0789989333082134
 40
0.3020401779452164
 40
0.5249312666406697
 40
0.7472501791388718
 40
0.9705380704933089
 40
1.0
 40
1.0
 40
1.0
 40
1.0
 10
253.4909559483289
 20
431.8829151070719
 30
0.0
 10
253.4601474399327
 20
432.0774001013191
 30
0.0
 10
253.3423558829013
 20
432.8209833347903
 30
0.0
 10
252.8006328151176
 20
434.0454911494801
 30
0.0
 10
251.6531766128873
 20
435.2914965194646
 30
0.0
 10
250.1539007101958
 20
436.0838111927582
 30
0.0
 10
248.958823669046
 20
436.271422291287
 30
0.0
 10
248.3299391750146
 20
436.2437738142592
 30
0.0
 10
248.2566328891075
 20
436.2405509534936
 30
0.0
  0
LINE
  5
2DA
330
1F
100
AcDbEntity
  8
0
  6
Continuous
 62
     7
370
    15
100
AcDbLine
 10
253.5700317866
 20
431.3154627947
 30
0.0
 11
253.4909559483
 21
431.8829151071
 31
0.0
  0
SPLINE
  5
2DB
330
1F
100
AcDbEntity
  8
0
  6
Continuous
 62
     7
370
    15
100
AcDbSpline
210
0.0
220
0.0
230
1.0
 70
     8
 71
     3
 72
    13
 73
     9
 74
     0
 42
0.00000001
 43
0.00000001
 12
1.0
 22
0.0
 32
0.0
 13
1.0
 23
0.0
 33
0.0
 40
0.0
 40
0.0
 40
0.0
 40
0.0
 40
0.0789989333082117
 40
0.3020401779452195
 40
0.5249312666406768
 40
0.7472501791388583
 40
0.970538070493309
 40
1.0
 40
1.0
 40
1.0
 40
1.0
 10
545.9696180165225
 20
431.8829151070719
 30
0.0
 10
546.0004265249187
 20
432.0774001013191
 30
0.0
 10
546.11821808195
 20
432.8209833347902
 30
0.0
 10
546.6599411497341
 20
434.0454911494802
 30
0.0
 10
547.8073973519641
 20
435.2914965194644
 30
0.0
 10
549.3066732546555
 20
436.0838111927583
 30
0.0
 10
550.5017502958057
 20
436.2714222912872
 30
0.0
 10
551.1306347898369
 20
436.2437738142592
 30
0.0
 10
551.2039410757438
 20
436.2405509534936
 30
0.0
  0
LINE
  5
2DC
330
1F
100
AcDbEntity
  8
0
  6
Continuous
 62
     7
370
    15
100
AcDbLine
 10
545.8905421782
 20
431.3154627947
 30
0.0
 11
545.9696180165
 21
431.8829151071
 31
0.0
  0
SPLINE
  5
2DD
330
1F
100
AcDbEntity
  8
0
  6
Continuous
 62
     7
370
    15
100
AcDbSpline
210
0.0
220
0.0
230
1.0
 70
     8
 71
     3
 72
    12
 73
     8
 74
     0
 42
0.00000001
 43
0.00000001
 12
1.0
 22
0.0
 32
0.0
 13
1.0
 23
0.0
 33
0.0
 40
0.0
 40
0.0
 40
0.0
 40
0.0
 40
0.0813225441019495
 40
0.3066373268933619
 40
0.5316937751192482
 40
0.7547861873577674
 40
1.0
 40
1.0
 40
1.0
 40
1.0
 10
551.203941075744
 20
197.9425072061372
 30
0.0
 10
551.0013961522866
 20
197.938264204608
 30
0.0
 10
550.237673932444
 20
197.922265410408
 30
0.0
 10
548.9184885476053
 20
198.2439371270087
 30
0.0
 10
547.4896932017828
 20
199.1634877417765
 30
0.0
 10
546.3751486277514
 20
200.5494423649989
 30
0.0
 10
546.1089858017191
 20
201.6984837188153
 30
0.0
 10
545.9696180165232
 20
202.3001430525657
 30
0.0
  0
LINE
  5
2DE
330
1F
100
AcDbEntity
  8
0
  6
Continuous
 62
     7
370
    15
100
AcDbLine
 10
545.9696180165
 20
202.3001430526
 30
0.0
 11
545.8905421782
 21
202.8675953649
 31
0.0
  0
SPLINE
  5
2DF
330
1F
100
AcDbEntity
  8
0
  6
Continuous
 62
     7
370
    15
100
AcDbSpline
210
0.0
220
0.0
230
1.0
 70
     8
 71
     3
 72
    12
 73
     8
 74
     0
 42
0.00000001
 43
0.00000001
 12
1.0
 22
0.0
 32
0.0
 13
1.0
 23
0.0
 33
0.0
 40
0.0
 40
0.0
 40
0.0
 40
0.0
 40
0.0813225441019432
 40
0.3066373268933443
 40
0.5316937751192463
 40
0.7547861873577595
 40
1.0
 40
1.0
 40
1.0
 40
1.0
 10
248.2566328891075
 20
197.9425072061372
 30
0.0
 10
248.4591778125649
 20
197.938264204608
 30
0.0
 10
249.2229000324076
 20
197.922265410408
 30
0.0
 10
250.5420854172461
 20
198.2439371270088
 30
0.0
 10
251.9708807630687
 20
199.1634877417764
 30
0.0
 10
253.0854253370999
 20
200.549442364999
 30
0.0
 10
253.3515881631324
 20
201.6984837188153
 30
0.0
 10
253.4909559483282
 20
202.3001430525657
 30
0.0
  0
LINE
  5
2E0
330
1F
100
AcDbEntity
  8
0
  6
Continuous
 62
     7
370
    15
100
AcDbLine
 10
253.4909559483
 20
202.3001430526
 30
0.0
 11
253.5700317866
 21
202.8675953649
 31
0.0
  0
SPLINE
  5
2E1
330
1F
100
AcDbEntity
  8
0
  6
Continuous
 62
     7
370
    15
100
AcDbSpline
210
0.0
220
0.0
230
1.0
 70
     8
 71
     3
 72
    13
 73
     9
 74
     0
 42
0.00000001
 43
0.00000001
 12
1.0
 22
0.0
 32
0.0
 13
1.0
 23
0.0
 33
0.0
 40
0.0
 40
0.0
 40
0.0
 40
0.0
 40
0.0138645511039271
 40
0.2147935619945618
 40
0.4116523981158615
 40
0.6070339619984992
 40
0.8035492250454039
 40
1.0
 40
1.0
 40
1.0
 40
1.0
 10
369.3556466676907
 20
406.555804316649
 30
0.0
 10
369.3506880158013
 20
406.5942004104181
 30
0.0
 10
369.2738671729175
 20
407.1890435961463
 30
0.0
 10
368.9180832880065
 20
408.3077447490504
 30
0.0
 10
367.9175877236393
 20
409.6664784008258
 30
0.0
 10
366.5387725972244
 20
410.607673014215
 30
0.0
 10
364.9141161501153
 20
411.0751153350259
 30
0.0
 10
363.8178644162063
 20
410.9148826888189
 30
0.0
 10
363.269828500006
 20
410.8347795132863
 30
0.0
  0
SPLINE
  5
2E2
330
1F
100
AcDbEntity
  8
0
  6
Continuous
 62
     7
370
    15
100
AcDbSpline
210
0.0
220
0.0
230
1.0
 70
     8
 71
     3
 72
     9
 73
     5
 74
     0
 42
0.00000001
 43
0.00000001
 12
1.0
 22
0.0
 32
0.0
 13
1.0
 23
0.0
 33
0.0
 40
0.0
 40
0.0
 40
0.0
 40
0.0
 40
0.3147650961379987
 40
1.0
 40
1.0
 40
1.0
 40
1.0
 10
363.2698285000059
 20
410.8347795132862
 30
0.0
 10
363.0207992227075
 20
410.8195128156152
 30
0.0
 10
362.229640100067
 20
410.7710109395867
 30
0.0
 10
361.5858316689332
 20
410.4202611724717
 30
0.0
 10
361.1446716605197
 20
410.179915189523
 30
0.0
  0
SPLINE
  5
2E3
330
1F
100
AcDbEntity
  8
0
  6
Continuous
 62
     7
370
    15
100
AcDbSpline
210
0.0
220
0.0
230
1.0
 70
     8
 71
     3
 72
    13
 73
     9
 74
     0
 42
0.00000001
 43
0.00000001
 12
1.0
 22
0.0
 32
0.0
 13
1.0
 23
0.0
 33
0.0
 40
0.0
 40
0.0
 40
0.0
 40
0.0
 40
0.0138645511039271
 40
0.2147935619945618
 40
0.4116523981158615
 40
0.6070339619984992
 40
0.8035492250454039
 40
1.0
 40
1.0
 40
1.0
 40
1.0
 10
430.1049272971608
 20
406.555804316649
 30
0.0
 10
430.1098859490501
 20
406.5942004104181
 30
0.0
 10
430.1867067919339
 20
407.1890435961463
 30
0.0
 10
430.542490676845
 20
408.3077447490504
 30
0.0
 10
431.5429862412122
 20
409.6664784008258
 30
0.0
 10
432.9218013676271
 20
410.607673014215
 30
0.0
 10
434.5464578147362
 20
411.0751153350259
 30
0.0
 10
435.6427095486452
 20
410.9148826888189
 30
0.0
 10
436.1907454648455
 20
410.8347795132863
 30
0.0
  0
SPLINE
  5
2E4
330
1F
100
AcDbEntity
  8
0
  6
Continuous
 62
     7
370
    15
100
AcDbSpline
210
0.0
220
0.0
230
1.0
 70
     8
 71
     3
 72
     9
 73
     5
 74
     0
 42
0.00000001
 43
0.00000001
 12
1.0
 22
0.0
 32
0.0
 13
1.0
 23
0.0
 33
0.0
 40
0.0
 40
0.0
 40
0.0
 40
0.0
 40
0.3147650961379987
 40
1.0
 40
1.0
 40
1.0
 40
1.0
 10
436.1907454648456
 20
410.8347795132862
 30
0.0
 10
436.439774742144
 20
410.8195128156152
 30
0.0
 10
437.2309338647845
 20
410.7710109395867
 30
0.0
 10
437.8747422959183
 20
410.4202611724717
 30
0.0
 10
438.3159023043318
 20
410.179915189523
 30
0.0
  0
SPLINE
  5
2E5
330
1F
100
AcDbEntity
  8
0
  6
Continuous
 62
     7
370
    15
100
AcDbSpline
210
0.0
220
0.0
230
1.0
 70
     8
 71
     3
 72
    14
 73
    10
 74
     0
 42
0.00000001
 43
0.00000001
 12
1.0
 22
0.0
 32
0.0
 13
1.0
 23
0.0
 33
0.0
 40
0.0
 40
0.0
 40
0.0
 40
0.0
 40
0.0349599012486488
 40
0.1757540063613287
 40
0.371097939683771
 40
0.5663976895334644
 40
0.7628207690307408
 40
0.963086188681652
 40
1.0
 40
1.0
 40
1.0
 40
1.0
 10
363.269828500006
 20
223.3482786463518
 30
0.0
 10
363.3651001022014
 20
223.3266259577647
 30
0.0
 10
363.8440592863025
 20
223.2177713377073
 30
0.0
 10
364.8907895405856
 20
223.1563475027582
 30
0.0
 10
366.3658380048481
 20
223.4935058854735
 30
0.0
 10
367.7789985172652
 20
224.3884365991881
 30
0.0
 10
368.8261480687125
 20
225.7048753643861
 30
0.0
 10
369.2487835994077
 20
226.8688852292658
 30
0.0
 10
369.3412547549791
 20
227.5251196345357
 30
0.0
 10
369.3556466676908
 20
227.6272538429895
 30
0.0
  0
SPLINE
  5
2E6
330
1F
100
AcDbEntity
  8
0
  6
Continuous
 62
     7
370
    15
100
AcDbSpline
210
0.0
220
0.0
230
1.0
 70
     8
 71
     3
 72
     9
 73
     5
 74
     0
 42
0.00000001
 43
0.00000001
 12
1.0
 22
0.0
 32
0.0
 13
1.0
 23
0.0
 33
0.0
 40
0.0
 40
0.0
 40
0.0
 40
0.0
 40
0.8702088548882482
 40
0.9999999999999999
 40
0.9999999999999999
 40
0.9999999999999999
 40
0.9999999999999999
 10
361.1446716605218
 20
224.0031429701132
 30
0.0
 10
361.7149845785227
 20
223.7138725662118
 30
0.0
 10
362.3703593368892
 20
223.3814576496356
 30
0.0
 10
363.1664968947101
 20
223.3520902719327
 30
0.0
 10
363.2698285000061
 20
223.3482786463518
 30
0.0
  0
SPLINE
  5
2E7
330
1F
100
AcDbEntity
  8
0
  6
Continuous
 62
     7
370
    15
100
AcDbSpline
210
0.0
220
0.0
230
1.0
 70
     8
 71
     3
 72
    14
 73
    10
 74
     0
 42
0.00000001
 43
0.00000001
 12
1.0
 22
0.0
 32
0.0
 13
1.0
 23
0.0
 33
0.0
 40
0.0
 40
0.0
 40
0.0
 40
0.0
 40
0.0349599012486488
 40
0.1757540063613287
 40
0.371097939683771
 40
0.5663976895334644
 40
0.7628207690307408
 40
0.963086188681652
 40
1.0
 40
1.0
 40
1.0
 40
1.0
 10
436.1907454648454
 20
223.3482786463518
 30
0.0
 10
436.09547386265
 20
223.3266259577647
 30
0.0
 10
435.616514678549
 20
223.2177713377073
 30
0.0
 10
434.5697844242658
 20
223.1563475027582
 30
0.0
 10
433.0947359600034
 20
223.4935058854735
 30
0.0
 10
431.6815754475863
 20
224.3884365991881
 30
0.0
 10
430.6344258961389
 20
225.7048753643861
 30
0.0
 10
430.2117903654438
 20
226.8688852292658
 30
0.0
 10
430.1193192098724
 20
227.5251196345357
 30
0.0
 10
430.1049272971607
 20
227.6272538429895
 30
0.0
  0
SPLINE
  5
2E8
330
1F
100
AcDbEntity
  8
0
  6
Continuous
 62
     7
370
    15
100
AcDbSpline
210
0.0
220
0.0
230
1.0
 70
     8
 71
     3
 72
     9
 73
     5
 74
     0
 42
0.00000001
 43
0.00000001
 12
1.0
 22
0.0
 32
0.0
 13
1.0
 23
0.0
 33
0.0
 40
0.0
 40
0.0
 40
0.0
 40
0.0
 40
0.8702088548882482
 40
0.9999999999999999
 40
0.9999999999999999
 40
0.9999999999999999
 40
0.9999999999999999
 10
438.3159023043297
 20
224.0031429701132
 30
0.0
 10
437.7455893863288
 20
223.7138725662118
 30
0.0
 10
437.0902146279623
 20
223.3814576496356
 30
0.0
 10
436.2940770701414
 20
223.3520902719327
 30
0.0
 10
436.1907454648453
 20
223.3482786463518
 30
0.0
  0
SPLINE
  5
2E9
330
1F
100
AcDbEntity
  8
0
  6
Continuous
 62
     7
370
    15
100
AcDbSpline
210
0.0
220
0.0
230
1.0
 70
     8
 71
     3
 72
    13
 73
     9
 74
     0
 42
0.00000001
 43
0.00000001
 12
1.0
 22
0.0
 32
0.0
 13
1.0
 23
0.0
 33
0.0
 40
0.0
 40
0.0
 40
0.0
 40
0.0
 40
0.0373474601845729
 40
0.1877959427208191
 40
0.3931976309502028
 40
0.5984994954755725
 40
0.8035410884913959
 40
1.0
 40
1.0
 40
1.0
 40
1.0
 10
357.6724872218564
 20
423.8059649063494
 30
0.0
 10
357.7424714873523
 20
423.8786585150687
 30
0.0
 10
358.0943765713781
 20
424.2441871135802
 30
0.0
 10
358.6991641832281
 20
425.1318780844603
 30
0.0
 10
359.1763147854321
 20
426.6029925610432
 30
0.0
 10
359.1245083607352
 20
428.2918676203255
 30
0.0
 10
358.5498862404015
 20
429.8756065526792
 30
0.0
 10
357.7987111509005
 20
430.6706609250177
 30
0.0
 10
357.4311523588873
 20
431.0596903653786
 30
0.0
  0
SPLINE
  5
2EA
330
1F
100
AcDbEntity
  8
0
  6
Continuous
 62
     7
370
    15
100
AcDbSpline
210
0.0
220
0.0
230
1.0
 70
     8
 71
     3
 72
    13
 73
     9
 74
     0
 42
0.00000001
 43
0.00000001
 12
1.0
 22
0.0
 32
0.0
 13
1.0
 23
0.0
 33
0.0
 40
0.0
 40
0.0
 40
0.0
 40
0.0
 40
0.0373474601845729
 40
0.1877959427208191
 40
0.3931976309502028
 40
0.5984994954755725
 40
0.8035410884913959
 40
1.0
 40
1.0
 40
1.0
 40
1.0
 10
441.788086742995
 20
423.8059649063494
 30
0.0
 10
441.7181024774992
 20
423.8786585150687
 30
0.0
 10
441.3661973934734
 20
424.2441871135802
 30
0.0
 10
440.7614097816233
 20
425.1318780844603
 30
0.0
 10
440.2842591794194
 20
426.6029925610432
 30
0.0
 10
440.3360656041162
 20
428.2918676203255
 30
0.0
 10
440.91068772445
 20
429.8756065526792
 30
0.0
 10
441.6618628139509
 20
430.6706609250177
 30
0.0
 10
442.0294216059642
 20
431.0596903653786
 30
0.0
  0
SPLINE
  5
2EB
330
1F
100
AcDbEntity
  8
0
  6
Continuous
 62
     7
370
    15
100
AcDbSpline
210
0.0
220
0.0
230
1.0
 70
     8
 71
     3
 72
    13
 73
     9
 74
     0
 42
0.00000001
 43
0.00000001
 12
1.0
 22
0.0
 32
0.0
 13
1.0
 23
0.0
 33
0.0
 40
0.0
 40
0.0
 40
0.0
 40
0.0
 40
0.0374015104812907
 40
0.1880542498038627
 40
0.3945973441687191
 40
0.6009461518521444
 40
0.8060384259973208
 40
1.0
 40
1.0
 40
1.0
 40
1.0
 10
442.0294216059643
 20
203.1233677942597
 30
0.0
 10
441.9548360404776
 20
203.1915474748968
 30
0.0
 10
441.5798209038351
 20
203.5343539158423
 30
0.0
 10
440.9164604495988
 20
204.3837838175142
 30
0.0
 10
440.3410629199024
 20
205.8264636499209
 30
0.0
 10
440.2828171048728
 20
207.5215605276292
 30
0.0
 10
440.7552774800706
 20
209.1350570248392
 30
0.0
 10
441.4502788162555
 20
209.9708520446456
 30
0.0
 10
441.7880867429954
 20
210.3770932532886
 30
0.0
  0
SPLINE
  5
2EC
330
1F
100
AcDbEntity
  8
0
  6
Continuous
 62
     7
370
    15
100
AcDbSpline
210
0.0
220
0.0
230
1.0
 70
     8
 71
     3
 72
    13
 73
     9
 74
     0
 42
0.00000001
 43
0.00000001
 12
1.0
 22
0.0
 32
0.0
 13
1.0
 23
0.0
 33
0.0
 40
0.0
 40
0.0
 40
0.0
 40
0.0
 40
0.0374015104812907
 40
0.1880542498038627
 40
0.3945973441687191
 40
0.6009461518521444
 40
0.8060384259973208
 40
1.0
 40
1.0
 40
1.0
 40
1.0
 10
357.4311523588872
 20
203.1233677942597
 30
0.0
 10
357.5057379243738
 20
203.1915474748968
 30
0.0
 10
357.8807530610164
 20
203.5343539158423
 30
0.0
 10
358.5441135152527
 20
204.3837838175142
 30
0.0
 10
359.1195110449491
 20
205.8264636499209
 30
0.0
 10
359.1777568599787
 20
207.5215605276292
 30
0.0
 10
358.7052964847809
 20
209.1350570248392
 30
0.0
 10
358.010295148596
 20
209.9708520446456
 30
0.0
 10
357.672487221856
 20
210.3770932532886
 30
0.0
  0
SPLINE
  5
2ED
330
1F
100
AcDbEntity
  8
0
  6
Continuous
 62
     7
370
    15
100
AcDbSpline
210
0.0
220
0.0
230
1.0
 70
     8
 71
     3
 72
    13
 73
     9
 74
     0
 42
0.00000001
 43
0.00000001
 12
1.0
 22
0.0
 32
0.0
 13
1.0
 23
0.0
 33
0.0
 40
0.0
 40
0.0
 40
0.0
 40
0.0
 40
0.1082669535613906
 40
0.3106420004284725
 40
0.5126902572992392
 40
0.7140606621285324
 40
0.9165544196133768
 40
1.0
 40
1.0
 40
1.0
 40
1.0
 10
633.9176169365553
 20
213.9960670828945
 30
0.0
 10
634.0694942581964
 20
213.7402980270068
 30
0.0
 10
634.5052641165172
 20
213.0064396468168
 30
0.0
 10
634.8342827495089
 20
211.6037206699932
 30
0.0
 10
634.6756401919886
 20
209.9213785401878
 30
0.0
 10
633.9603534554752
 20
208.389772031649
 30
0.0
 10
633.019143577632
 20
207.3978823048255
 30
0.0
 10
632.3469045412295
 20
206.9930739396045
 30
0.0
 10
632.1507252503045
 20
206.874938851118
 30
0.0
  0
LINE
  5
2EE
330
1F
100
AcDbEntity
  8
0
  6
Continuous
 62
     7
370
    15
100
AcDbLine
 10
633.4988901331
 20
214.7472780043
 30
0.0
 11
633.9176169366
 21
213.9960670829
 31
0.0
  0
SPLINE
  5
2EF
330
1F
100
AcDbEntity
  8
0
  6
Continuous
 62
     7
370
    15
100
AcDbSpline
210
0.0
220
0.0
230
1.0
 70
     8
 71
     3
 72
    13
 73
     9
 74
     0
 42
0.00000001
 43
0.00000001
 12
1.0
 22
0.0
 32
0.0
 13
1.0
 23
0.0
 33
0.0
 40
0.0
 40
0.0
 40
0.0
 40
0.0
 40
0.1082669535613882
 40
0.3106420004284699
 40
0.5126902572992394
 40
0.714060662128534
 40
0.9165544196133707
 40
1.0
 40
1.0
 40
1.0
 40
1.0
 10
165.542957028296
 20
213.9960670828945
 30
0.0
 10
165.3910797066549
 20
213.7402980270068
 30
0.0
 10
164.9553098483341
 20
213.0064396468168
 30
0.0
 10
164.6262912153425
 20
211.6037206699932
 30
0.0
 10
164.7849337728629
 20
209.9213785401878
 30
0.0
 10
165.5002205093764
 20
208.3897720316491
 30
0.0
 10
166.4414303872195
 20
207.3978823048255
 30
0.0
 10
167.1136694236221
 20
206.9930739396045
 30
0.0
 10
167.309848714547
 20
206.874938851118
 30
0.0
  0
LINE
  5
2F0
330
1F
100
AcDbEntity
  8
0
  6
Continuous
 62
     7
370
    15
100
AcDbLine
 10
165.9616838317
 20
214.7472780043
 30
0.0
 11
165.5429570283
 21
213.9960670829
 31
0.0
  0
SPLINE
  5
2F1
330
1F
100
AcDbEntity
  8
0
  6
Continuous
 62
     7
370
    15
100
AcDbSpline
210
0.0
220
0.0
230
1.0
 70
     8
 71
     3
 72
    13
 73
     9
 74
     0
 42
0.00000001
 43
0.00000001
 12
1.0
 22
0.0
 32
0.0
 13
1.0
 23
0.0
 33
0.0
 40
0.0
 40
0.0
 40
0.0
 40
0.0
 40
0.1075142915225294
 40
0.3128991273569764
 40
0.5176794319226952
 40
0.7200512950403358
 40
0.921440770170316
 40
1.0
 40
1.0
 40
1.0
 40
1.0
 10
167.3101133611958
 20
427.3075950309066
 30
0.0
 10
167.058858622427
 20
427.152427771564
 30
0.0
 10
166.3276312907695
 20
426.7008440857572
 30
0.0
 10
165.3735233312423
 20
425.6030319727067
 30
0.0
 10
164.7246840332589
 20
424.0220296244885
 30
0.0
 10
164.6512317656213
 20
422.3254129366439
 30
0.0
 10
165.0291465585455
 20
421.0257257497295
 30
0.0
 10
165.4304338540724
 20
420.370848803505
 30
0.0
 10
165.5430431296951
 20
420.1870771781423
 30
0.0
  0
LINE
  5
2F2
330
1F
100
AcDbEntity
  8
0
  6
Continuous
 62
     7
370
    15
100
AcDbLine
 10
165.5430431297
 20
420.1870771781
 30
0.0
 11
165.9619954445
 21
419.4353473429
 31
0.0
  0
SPLINE
  5
2F3
330
1F
100
AcDbEntity
  8
0
  6
Continuous
 62
     7
370
    15
100
AcDbSpline
210
0.0
220
0.0
230
1.0
 70
     8
 71
     3
 72
    13
 73
     9
 74
     0
 42
0.00000001
 43
0.00000001
 12
1.0
 22
0.0
 32
0.0
 13
1.0
 23
0.0
 33
0.0
 40
0.0
 40
0.0
 40
0.0
 40
0.0
 40
0.1075142915225294
 40
0.3128991273569676
 40
0.5176794319226916
 40
0.7200512950403324
 40
0.9214407701703126
 40
1.0
 40
1.0
 40
1.0
 40
1.0
 10
632.1504606036557
 20
427.3075950309066
 30
0.0
 10
632.4017153424244
 20
427.152427771564
 30
0.0
 10
633.1329426740818
 20
426.7008440857572
 30
0.0
 10
634.0870506336091
 20
425.6030319727067
 30
0.0
 10
634.7358899315925
 20
424.0220296244885
 30
0.0
 10
634.8093421992302
 20
422.3254129366439
 30
0.0
 10
634.4314274063059
 20
421.0257257497295
 30
0.0
 10
634.030140110779
 20
420.3708488035049
 30
0.0
 10
633.9175308351563
 20
420.1870771781423
 30
0.0
  0
LINE
  5
2F4
330
1F
100
AcDbEntity
  8
0
  6
Continuous
 62
     7
370
    15
100
AcDbLine
 10
633.9175308352
 20
420.1870771781
 30
0.0
 11
633.4985785204
 21
419.4353473429
 31
0.0
  0
SPLINE
  5
2F5
330
1F
100
AcDbEntity
  8
0
  6
Continuous
 62
     7
370
    15
100
AcDbSpline
210
0.0
220
0.0
230
1.0
 70
     8
 71
     3
 72
    10
 73
     6
 74
     0
 42
0.00000001
 43
0.00000001
 12
1.0
 22
0.0
 32
0.0
 13
1.0
 23
0.0
 33
0.0
 40
0.0
 40
0.0
 40
0.0
 40
0.0
 40
0.01816759764598
 40
0.8844435975734903
 40
1.0
 40
1.0
 40
1.0
 40
1.0
 10
152.0056096057699
 20
409.6026681890684
 30
0.0
 10
151.9958639366392
 20
409.5947560882527
 30
0.0
 10
151.5214206538955
 20
409.2095754470808
 30
0.0
 10
151.2189514395113
 20
408.5304730028139
 30
0.0
 10
150.9894349159448
 20
407.8944313648759
 30
0.0
 10
150.9624220533653
 20
407.8195726789154
 30
0.0
  0
SPLINE
  5
2F6
330
1F
100
AcDbEntity
  8
0
  6
Continuous
 62
     7
370
    15
100
AcDbSpline
210
0.0
220
0.0
230
1.0
 70
     8
 71
     3
 72
    10
 73
     6
 74
     0
 42
0.00000001
 43
0.00000001
 12
1.0
 22
0.0
 32
0.0
 13
1.0
 23
0.0
 33
0.0
 40
0.0
 40
0.0
 40
0.0
 40
0.0
 40
0.019608073669534
 40
0.8846131338677615
 40
1.0
 40
1.0
 40
1.0
 40
1.0
 10
647.4526069072058
 20
409.6045951902466
 30
0.0
 10
647.4631432195599
 20
409.5960457803594
 30
0.0
 10
647.9384862057267
 20
409.2103413812138
 30
0.0
 10
648.2416329562841
 20
408.5304838632848
 30
0.0
 10
648.471140147298
 20
407.8944325084969
 30
0.0
 10
648.498151911486
 20
407.8195726789154
 30
0.0
  0
SPLINE
  5
2F7
330
1F
100
AcDbEntity
  8
0
  6
Continuous
 62
     7
370
    15
100
AcDbSpline
210
0.0
220
0.0
230
1.0
 70
     8
 71
     3
 72
     9
 73
     5
 74
     0
 42
0.00000001
 43
0.00000001
 12
1.0
 22
0.0
 32
0.0
 13
1.0
 23
0.0
 33
0.0
 40
0.0
 40
0.0
 40
0.0
 40
0.0
 40
0.8487034137081103
 40
1.0
 40
1.0
 40
1.0
 40
1.0
 10
150.9612146805607
 20
226.3629081407626
 30
0.0
 10
151.1753115382157
 20
225.7961009870687
 30
0.0
 10
151.4275749958581
 20
225.1282503050295
 30
0.0
 10
151.9520113047761
 20
224.6734353132603
 30
0.0
 10
152.0313567280431
 20
224.6046233576113
 30
0.0
  0
SPLINE
  5
2F8
330
1F
100
AcDbEntity
  8
0
  6
Continuous
 62
     7
370
    15
100
AcDbSpline
210
0.0
220
0.0
230
1.0
 70
     8
 71
     3
 72
     9
 73
     5
 74
     0
 42
0.00000001
 43
0.00000001
 12
1.0
 22
0.0
 32
0.0
 13
1.0
 23
0.0
 33
0.0
 40
0.0
 40
0.0
 40
0.0
 40
0.0
 40
0.8453782765116103
 40
1.0
 40
1.0
 40
1.0
 40
1.0
 10
648.4993592842908
 20
226.3629081407626
 30
0.0
 10
648.285006397691
 20
225.7963013865676
 30
0.0
 10
648.0314478517056
 20
225.1260608919417
 30
0.0
 10
647.5046459134846
 20
224.6696940235935
 30
0.0
 10
647.4231908898599
 20
224.5991297918665
 30
0.0
  0
ENDSEC
  0
SECTION
  2
OBJECTS
  0
DICTIONARY
  5
C
330
0
100
AcDbDictionary
281
     1
  3
ACAD_GROUP
350
D
  3
ACAD_LAYOUT
350
1A
  3
ACAD_MLINESTYLE
350
17
  3
ACAD_PLOTSETTINGS
350
19
  3
ACAD_PLOTSTYLENAME
350
E
  0
DICTIONARY
  5
D
102
{ACAD_REACTORS
330
C
102
}
330
C
100
AcDbDictionary
281
     1
  0
DICTIONARY
  5
1A
102
{ACAD_REACTORS
330
C
102
}
330
C
100
AcDbDictionary
281
     1
  3
Layout1
350
1E
  3
Layout2
350
26
  3
Model
350
22
  0
DICTIONARY
  5
17
102
{ACAD_REACTORS
330
C
102
}
330
C
100
AcDbDictionary
281
     1
  3
Standard
350
18
  0
DICTIONARY
  5
19
102
{ACAD_REACTORS
330
C
102
}
330
C
100
AcDbDictionary
281
     1
  0
ACDBDICTIONARYWDFLT
  5
E
102
{ACAD_REACTORS
330
C
102
}
330
C
100
AcDbDictionary
281
     1
  3
Normal
350
F
100
AcDbDictionaryWithDefault
340
F
  0
LAYOUT
  5
1E
102
{ACAD_REACTORS
330
1A
102
}
330
1A
100
AcDbPlotSettings
  1

  2
none_device
  4

  6

 40
0.0
 41
0.0
 42
0.0
 43
0.0
 44
0.0
 45
0.0
 46
0.0
 47
0.0
 48
0.0
 49
0.0
140
0.0
141
0.0
142
1.0
143
1.0
 70
   688
 72
     0
 73
     0
 74
     5
  7

 75
    16
147
1.0
148
0.0
149
0.0
100
AcDbLayout
  1
Layout1
 70
     1
 71
     1
 10
0.0
 20
0.0
 11
420.0
 21
297.0
 12
0.0
 22
0.0
 32
0.0
 14
1.0000000000E+20
 24
1.0000000000E+20
 34
1.0000000000E+20
 15
-1.0000000000E+20
 25
-1.0000000000E+20
 35
-1.0000000000E+20
146
0.0
 13
0.0
 23
0.0
 33
0.0
 16
1.0
 26
0.0
 36
0.0
 17
0.0
 27
1.0
 37
0.0
 76
     0
330
1B
  0
LAYOUT
  5
26
102
{ACAD_REACTORS
330
1A
102
}
330
1A
100
AcDbPlotSettings
  1

  2
none_device
  4

  6

 40
0.0
 41
0.0
 42
0.0
 43
0.0
 44
0.0
 45
0.0
 46
0.0
 47
0.0
 48
0.0
 49
0.0
140
0.0
141
0.0
142
1.0
143
1.0
 70
   688
 72
     0
 73
     0
 74
     5
  7

 75
    16
147
1.0
148
0.0
149
0.0
100
AcDbLayout
  1
Layout2
 70
     1
 71
     2
 10
0.0
 20
0.0
 11
0.0
 21
0.0
 12
0.0
 22
0.0
 32
0.0
 14
0.0
 24
0.0
 34
0.0
 15
0.0
 25
0.0
 35
0.0
146
0.0
 13
0.0
 23
0.0
 33
0.0
 16
1.0
 26
0.0
 36
0.0
 17
0.0
 27
1.0
 37
0.0
 76
     0
330
23
  0
LAYOUT
  5
22
102
{ACAD_REACTORS
330
1A
102
}
330
1A
100
AcDbPlotSettings
  1

  2
none_device
  4

  6

 40
0.0
 41
0.0
 42
0.0
 43
0.0
 44
0.0
 45
0.0
 46
0.0
 47
0.0
 48
0.0
 49
0.0
140
0.0
141
0.0
142
1.0
143
1.0
 70
  1712
 72
     0
 73
     0
 74
     0
  7

 75
     0
147
1.0
148
0.0
149
0.0
100
AcDbLayout
  1
Model
 70
     1
 71
     0
 10
0.0
 20
0.0
 11
841.0
 21
594.0
 12
0.0
 22
0.0
 32
0.0
 14
0.0
 24
0.0
 34
0.0
 15
841.0
 25
594.0
 35
0.0
146
0.0
 13
0.0
 23
0.0
 33
0.0
 16
1.0
 26
0.0
 36
0.0
 17
0.0
 27
1.0
 37
0.0
 76
     0
330
1F
331
29
  0
MLINESTYLE
  5
18
102
{ACAD_REACTORS
330
17
102
}
330
17
100
AcDbMlineStyle
  2
Standard
 70
     0
  3

 62
   256
 51
90.0
 52
90.0
 71
     2
 49
0.5
 62
   256
  6
BYLAYER
 49
-0.5
 62
   256
  6
BYLAYER
  0
ACDBPLACEHOLDER
  5
F
102
{ACAD_REACTORS
330
E
102
}
330
E
  0
ENDSEC
  0
EOF
