  0
SECTION
  2
HEADER
  9
$ACADVER
  1
AC1021
  9
$ACADMAINTVER
 70
    25
  9
$DWGCODEPAGE
  3
ANSI_1252
  9
$INSBASE
 10
0.0
 20
0.0
 30
0.0
  9
$EXTMIN
 10
0.0
 20
0.0
 30
0.0
  9
$EXTMAX
 10
420.0
 20
297.0
 30
0.0
  9
$LIMMIN
 10
0.0
 20
0.0
  9
$LIMMAX
 10
420.0
 20
297.0
  9
$ORTHOMODE
 70
     0
  9
$REGENMODE
 70
     1
  9
$FILLMODE
 70
     1
  9
$QTEXTMODE
 70
     0
  9
$MIRRTEXT
 70
     1
  9
$LTSCALE
 40
1.0
  9
$ATTMODE
 70
     1
  9
$TEXTSIZE
 40
3.5
  9
$TRACEWID
 40
1.0
  9
$TEXTSTYLE
  7
Standard
  9
$CLAYER
  8
0
  9
$CELTYPE
  6
ByLayer
  9
$CECOLOR
 62
   256
  9
$CELTSCALE
 40
1.0
  9
$DISPSILH
 70
     0
  9
$DIMSCALE
 40
1.0
  9
$DIMASZ
 40
3.302
  9
$DIMEXO
 40
1.0
  9
$DIMDLI
 40
3.75
  9
$DIMRND
 40
0.0
  9
$DIMDLE
 40
0.0
  9
$DIMEXE
 40
1.0
  9
$DIMTP
 40
0.0
  9
$DIMTM
 40
0.0
  9
$DIMTXT
 40
3.5
  9
$DIMCEN
 40
2.5
  9
$DIMTSZ
 40
0.0
  9
$DIMTOL
 70
     0
  9
$DIMLIM
 70
     0
  9
$DIMTIH
 70
     1
  9
$DIMTOH
 70
     1
  9
$DIMSE1
 70
     0
  9
$DIMSE2
 70
     0
  9
$DIMTAD
 70
     1
  9
$DIMZIN
 70
     0
  9
$DIMBLK
  1

  9
$DIMASO
 70
     1
  9
$DIMSHO
 70
     1
  9
$DIMPOST
  1

  9
$DIMAPOST
  1

  9
$DIMALT
 70
     0
  9
$DIMALTD
 70
     3
  9
$DIMALTF
 40
0.0393700787
  9
$DIMLFAC
 40
1.0
  9
$DIMTOFL
 70
     1
  9
$DIMTVP
 40
0.0
  9
$DIMTIX
 70
     0
  9
$DIMSOXD
 70
     0
  9
$DIMSAH
 70
     0
  9
$DIMBLK1
  1

  9
$DIMBLK2
  1

  9
$DIMSTYLE
  2
ISO-25
  9
$DIMCLRD
 70
     0
  9
$DIMCLRE
 70
     0
  9
$DIMCLRT
 70
     0
  9
$DIMTFAC
 40
1.0
  9
$DIMGAP
 40
1.524
  9
$DIMJUST
 70
     0
  9
$DIMSD1
 70
     0
  9
$DIMSD2
 70
     0
  9
$DIMTOLJ
 70
     0
  9
$DIMTZIN
 70
     0
  9
$DIMALTZ
 70
     0
  9
$DIMALTTZ
 70
     0
  9
$DIMUPT
 70
     0
  9
$DIMDEC
 70
     1
  9
$DIMTDEC
 70
     1
  9
$DIMALTU
 70
     2
  9
$DIMALTTD
 70
     3
  9
$DIMTXSTY
  7
Standard
  9
$DIMAUNIT
 70
     0
  9
$DIMADEC
 70
     1
  9
$DIMALTRND
 40
0.0
  9
$DIMAZIN
 70
     0
  9
$DIMDSEP
 70
    44
  9
$DIMATFIT
 70
     3
  9
$DIMFRAC
 70
     0
  9
$DIMLDRBLK
  1

  9
$DIMLUNIT
 70
     2
  9
$DIMLWD
 70
    -2
  9
$DIMLWE
 70
    -2
  9
$DIMTMOVE
 70
     0
  9
$DIMFXL
 40
1.0
  9
$DIMFXLON
 70
     0
  9
$DIMJOGANG
 40
0.7853981634
  9
$DIMTFILL
 70
     0
  9
$DIMTFILLCLR
 70
     0
  9
$DIMARCSYM
 70
     0
  9
$DIMLTYPE
  6

  9
$DIMLTEX1
  6

  9
$DIMLTEX2
  6

  9
$LUNITS
 70
     2
  9
$LUPREC
 70
     1
  9
$SKETCHINC
 40
1.0
  9
$FILLETRAD
 40
10.0
  9
$AUNITS
 70
     0
  9
$AUPREC
 70
     1
  9
$MENU
  1
.
  9
$ELEVATION
 40
0.0
  9
$PELEVATION
 40
0.0
  9
$THICKNESS
 40
0.0
  9
$LIMCHECK
 70
     0
  9
$CHAMFERA
 40
10.0
  9
$CHAMFERB
 40
10.0
  9
$CHAMFERC
 40
20.0
  9
$CHAMFERD
 40
0.0
  9
$SKPOLY
 70
     0
  9
$TDCREATE
 40
2455748.377685416
  9
$TDUCREATE
 40
2455748.33601875
  9
$TDUPDATE
 40
2455748.377685428
  9
$TDUUPDATE
 40
2455748.336018762
  9
$TDINDWG
 40
0.0000000116
  9
$TDUSRTIMER
 40
0.0000000116
  9
$USRTIMER
 70
     1
  9
$ANGBASE
 50
0.0
  9
$ANGDIR
 70
     0
  9
$PDMODE
 70
     0
  9
$PDSIZE
 40
-1.0
  9
$PLINEWID
 40
0.0
  9
$SPLFRAME
 70
     0
  9
$SPLINETYPE
 70
     6
  9
$SPLINESEGS
 70
     8
  9
$HANDSEED
  5
223
  9
$SURFTAB1
 70
     6
  9
$SURFTAB2
 70
     6
  9
$SURFTYPE
 70
     6
  9
$SURFU
 70
     6
  9
$SURFV
 70
     6
  9
$UCSBASE
  2

  9
$UCSNAME
  2

  9
$UCSORG
 10
0.0
 20
0.0
 30
0.0
  9
$UCSXDIR
 10
1.0
 20
0.0
 30
0.0
  9
$UCSYDIR
 10
0.0
 20
1.0
 30
0.0
  9
$UCSORTHOREF
  2

  9
$UCSORTHOVIEW
 70
     0
  9
$UCSORGTOP
 10
0.0
 20
0.0
 30
0.0
  9
$UCSORGBOTTOM
 10
0.0
 20
0.0
 30
0.0
  9
$UCSORGLEFT
 10
0.0
 20
0.0
 30
0.0
  9
$UCSORGRIGHT
 10
0.0
 20
0.0
 30
0.0
  9
$UCSORGFRONT
 10
0.0
 20
0.0
 30
0.0
  9
$UCSORGBACK
 10
0.0
 20
0.0
 30
0.0
  9
$PUCSBASE
  2

  9
$PUCSNAME
  2

  9
$PUCSORG
 10
0.0
 20
0.0
 30
0.0
  9
$PUCSXDIR
 10
1.0
 20
0.0
 30
0.0
  9
$PUCSYDIR
 10
0.0
 20
1.0
 30
0.0
  9
$PUCSORTHOREF
  2

  9
$PUCSORTHOVIEW
 70
     0
  9
$PUCSORGTOP
 10
0.0
 20
0.0
 30
0.0
  9
$PUCSORGBOTTOM
 10
0.0
 20
0.0
 30
0.0
  9
$PUCSORGLEFT
 10
0.0
 20
0.0
 30
0.0
  9
$PUCSORGRIGHT
 10
0.0
 20
0.0
 30
0.0
  9
$PUCSORGFRONT
 10
0.0
 20
0.0
 30
0.0
  9
$PUCSORGBACK
 10
0.0
 20
0.0
 30
0.0
  9
$USERI1
 70
     0
  9
$USERI2
 70
     0
  9
$USERI3
 70
     0
  9
$USERI4
 70
     0
  9
$USERI5
 70
     0
  9
$USERR1
 40
0.0
  9
$USERR2
 40
0.0
  9
$USERR3
 40
0.0
  9
$USERR4
 40
0.0
  9
$USERR5
 40
0.0
  9
$WORLDVIEW
 70
     1
  9
$SHADEDGE
 70
     3
  9
$SHADEDIF
 70
    70
  9
$TILEMODE
 70
     1
  9
$MAXACTVP
 70
    64
  9
$PINSBASE
 10
0.0
 20
0.0
 30
0.0
  9
$PLIMCHECK
 70
     0
  9
$PEXTMIN
 10
1.0000000000E+20
 20
1.0000000000E+20
 30
1.0000000000E+20
  9
$PEXTMAX
 10
-1.0000000000E+20
 20
-1.0000000000E+20
 30
-1.0000000000E+20
  9
$PLIMMIN
 10
0.0
 20
0.0
  9
$PLIMMAX
 10
420.0
 20
297.0
  9
$UNITMODE
 70
     0
  9
$VISRETAIN
 70
     1
  9
$PLINEGEN
 70
     0
  9
$PSLTSCALE
 70
     1
  9
$TREEDEPTH
 70
  3020
  9
$CMLSTYLE
  2
Standard
  9
$CMLJUST
 70
     0
  9
$CMLSCALE
 40
20.0
  9
$PROXYGRAPHICS
 70
     1
  9
$MEASUREMENT
 70
     1
  9
$CELWEIGHT
370
    -1
  9
$ENDCAPS
280
     0
  9
$JOINSTYLE
280
     0
  9
$LWDISPLAY
290
     1
  9
$INSUNITS
 70
     4
  9
$HYPERLINKBASE
  1

  9
$STYLESHEET
  1

  9
$XEDIT
290
     1
  9
$CEPSNTYPE
380
     0
  9
$PSTYLEMODE
290
     1
  9
$FINGERPRINTGUID
  2
{3C59E625-F4C5-421D-ADF9-EFAFD8B001C3}
  9
$VERSIONGUID
  2
{FAEB1C32-E019-11D5-929B-00C0DF256EC4}
  9
$EXTNAMES
290
     1
  9
$PSVPSCALE
 40
0.0
  9
$OLESTARTUP
290
     0
  9
$SORTENTS
280
   127
  9
$INDEXCTL
280
     0
  9
$HIDETEXT
280
     1
  9
$XCLIPFRAME
290
     0
  9
$HALOGAP
280
     0
  9
$OBSCOLOR
 70
   257
  9
$OBSLTYPE
280
     0
  9
$INTERSECTIONDISPLAY
280
     0
  9
$INTERSECTIONCOLOR
 70
   257
  9
$DIMASSOC
280
     2
  9
$PROJECTNAME
  1

  9
$CAMERADISPLAY
290
     0
  9
$LENSLENGTH
 40
50.0
  9
$CAMERAHEIGHT
 40
0.0
  9
$STEPSPERSEC
 40
2.0
  9
$STEPSIZE
 40
6.0
  9
$3DDWFPREC
 40
2.0
  9
$PSOLWIDTH
 40
5.0
  9
$PSOLHEIGHT
 40
80.0
  9
$LOFTANG1
 40
1.5707963268
  9
$LOFTANG2
 40
1.5707963268
  9
$LOFTMAG1
 40
0.0
  9
$LOFTMAG2
 40
0.0
  9
$LOFTPARAM
 70
     7
  9
$LOFTNORMALS
280
     1
  9
$LATITUDE
 40
37.795
  9
$LONGITUDE
 40
-122.394
  9
$NORTHDIRECTION
 40
0.0
  9
$TIMEZONE
 70
 -8000
  9
$LIGHTGLYPHDISPLAY
280
     1
  9
$TILEMODELIGHTSYNCH
280
     1
  9
$SOLIDHIST
280
     1
  9
$SHOWHIST
280
     1
  9
$DWFFRAME
280
     2
  9
$DGNFRAME
280
     2
  9
$REALWORLDSCALE
290
     1
  9
$INTERFERECOLOR
 62
   256
  9
$CSHADOW
280
     0
  9
$SHADOWPLANELOCATION
 40
0.0
  0
ENDSEC
  0
SECTION
  2
CLASSES
  0
CLASS
  1
ACDBDICTIONARYWDFLT
  2
AcDbDictionaryWithDefault
  3
ObjectDBX Classes
 90
        0
 91
        4
280
     0
281
     0
  0
CLASS
  1
VISUALSTYLE
  2
AcDbVisualStyle
  3
ObjectDBX Classes
 90
     4095
 91
        4
280
     0
281
     0
  0
CLASS
  1
MATERIAL
  2
AcDbMaterial
  3
ObjectDBX Classes
 90
     1153
 91
        4
280
     0
281
     0
  0
ENDSEC
  0
SECTION
  2
TABLES
  0
TABLE
  2
VPORT
  5
8
330
0
100
AcDbSymbolTable
 70
     1
  0
VPORT
  5
29
330
8
100
AcDbSymbolTableRecord
100
AcDbViewportTableRecord
  2
*Active
 70
     0
 10
0.0
 20
0.0
 11
1.0
 21
1.0
 12
210.0
 22
148.5
 13
0.0
 23
0.0
 14
10.0
 24
10.0
 15
10.0
 25
10.0
 16
0.0
 26
0.0
 36
1.0
 17
0.0
 27
0.0
 37
0.0
 40
297.0
 41
1.4141414141
 42
50.0
 43
0.0
 44
0.0
 50
0.0
 51
0.0
 71
     0
 72
  2000
 73
     1
 74
     3
 75
     0
 76
     0
 77
     0
 78
     0
281
     0
 65
     1
110
0.0
120
0.0
130
0.0
111
1.0
121
0.0
131
0.0
112
0.0
122
1.0
132
0.0
 79
     0
146
0.0
 60
     3
 61
     5
292
     1
282
     1
141
0.0
142
0.0
 63
   250
  0
ENDTAB
  0
TABLE
  2
LTYPE
  5
5
330
0
100
AcDbSymbolTable
 70
     6
  0
LTYPE
  5
14
330
5
100
AcDbSymbolTableRecord
100
AcDbLinetypeTableRecord
  2
ByBlock
 70
     0
  3

 72
    65
 73
     0
 40
0.0
  0
LTYPE
  5
15
330
5
100
AcDbSymbolTableRecord
100
AcDbLinetypeTableRecord
  2
ByLayer
 70
     0
  3

 72
    65
 73
     0
 40
0.0
  0
LTYPE
  5
16
330
5
100
AcDbSymbolTableRecord
100
AcDbLinetypeTableRecord
  2
Continuous
 70
     0
  3
Solid line
 72
    65
 73
     0
 40
0.0
  0
LTYPE
  5
3F
330
5
100
AcDbSymbolTableRecord
100
AcDbLinetypeTableRecord
  2
HIDDEN
 70
     0
  3
Hidden __ __ __ __ __ __ __ __ __ __ __ __ __ __
 72
    65
 73
     2
 40
1.905
 49
1.27
 74
     0
 49
-0.635
 74
     0
  0
LTYPE
  5
40
330
5
100
AcDbSymbolTableRecord
100
AcDbLinetypeTableRecord
  2
PHANTOM
 70
     0
  3
Phantom ______  __  __  ______  __  __  ______
 72
    65
 73
     6
 40
12.7
 49
6.35
 74
     0
 49
-1.27
 74
     0
 49
1.27
 74
     0
 49
-1.27
 74
     0
 49
1.27
 74
     0
 49
-1.27
 74
     0
  0
LTYPE
  5
41
330
5
100
AcDbSymbolTableRecord
100
AcDbLinetypeTableRecord
  2
CENTER
 70
     0
  3
Center ____ _ ____ _ ____ _ ____ _ ____ _ ____
 72
    65
 73
     4
 40
10.16
 49
6.35
 74
     0
 49
-1.27
 74
     0
 49
1.27
 74
     0
 49
-1.27
 74
     0
  0
LTYPE
  5
42
330
5
100
AcDbSymbolTableRecord
100
AcDbLinetypeTableRecord
  2
CENTERX2
 70
     0
  3
Center (2x) ________  __  ________  __  _____
 72
    65
 73
     4
 40
20.32
 49
12.7
 74
     0
 49
-2.54
 74
     0
 49
2.54
 74
     0
 49
-2.54
 74
     0
  0
LTYPE
  5
43
330
5
100
AcDbSymbolTableRecord
100
AcDbLinetypeTableRecord
  2
DOT2
 70
     0
  3
Dot (.5x) ........................................
 72
    65
 73
     2
 40
0.635
 49
0.0
 74
     0
 49
-0.635
 74
     0
  0
ENDTAB
  0
TABLE
  2
LAYER
  5
2
330
0
100
AcDbSymbolTable
 70
     1
  0
LAYER
  5
10
330
2
100
AcDbSymbolTableRecord
100
AcDbLayerTableRecord
  2
0
 70
     0
 62
     7
  6
Continuous
370
    -3
390
F
347
3E
  0
ENDTAB
  0
TABLE
  2
STYLE
  5
3
330
0
100
AcDbSymbolTable
 70
     1
  0
STYLE
  5
11
330
3
100
AcDbSymbolTableRecord
100
AcDbTextStyleTableRecord
  2
Standard
 70
     0
 40
0.0
 41
1.0
 50
0.0
 71
     0
 42
2.5
  3
txt
  4

  0
ENDTAB
  0
TABLE
  2
VIEW
  5
6
330
0
100
AcDbSymbolTable
 70
     0
  0
ENDTAB
  0
TABLE
  2
UCS
  5
7
330
0
100
AcDbSymbolTable
 70
     0
  0
ENDTAB
  0
TABLE
  2
APPID
  5
9
330
0
100
AcDbSymbolTable
 70
     1
  0
APPID
  5
12
330
9
100
AcDbSymbolTableRecord
100
AcDbRegAppTableRecord
  2
ACAD
 70
     0
  0
ENDTAB
  0
TABLE
  2
DIMSTYLE
  5
A
330
0
100
AcDbSymbolTable
 70
     1
100
AcDbDimStyleTable
  0
DIMSTYLE
105
27
330
A
100
AcDbSymbolTableRecord
100
AcDbDimStyleTableRecord
  2
ISO-25
 70
     0
 41
2.5
 42
0.625
 43
3.75
 44
1.25
 73
     0
 74
     0
 77
     1
 78
     8
140
2.5
141
2.5
143
0.0393700787
147
0.625
171
     3
172
     1
271
     2
272
     2
274
     3
278
    44
283
     0
284
     8
340
11
  0
ENDTAB
  0
TABLE
  2
BLOCK_RECORD
  5
1
330
0
100
AcDbSymbolTable
 70
     1
  0
BLOCK_RECORD
  5
1F
330
1
100
AcDbSymbolTableRecord
100
AcDbBlockTableRecord
  2
*Model_Space
340
22
 70
     0
280
     1
281
     0
  0
BLOCK_RECORD
  5
1B
330
1
100
AcDbSymbolTableRecord
100
AcDbBlockTableRecord
  2
*Paper_Space
340
1E
 70
     0
280
     1
281
     0
  0
BLOCK_RECORD
  5
23
330
1
100
AcDbSymbolTableRecord
100
AcDbBlockTableRecord
  2
*Paper_Space0
340
26
 70
     0
280
     1
281
     0
  0
ENDTAB
  0
ENDSEC
  0
SECTION
  2
BLOCKS
  0
BLOCK
  5
20
330
1F
100
AcDbEntity
  8
0
100
AcDbBlockBegin
  2
*Model_Space
 70
     0
 10
0.0
 20
0.0
 30
0.0
  3
*Model_Space
  1

  0
ENDBLK
  5
21
330
1F
100
AcDbEntity
  8
0
100
AcDbBlockEnd
  0
BLOCK
  5
1C
330
1B
100
AcDbEntity
 67
     1
  8
0
100
AcDbBlockBegin
  2
*Paper_Space
 70
     0
 10
0.0
 20
0.0
 30
0.0
  3
*Paper_Space
  1

  0
ENDBLK
  5
1D
330
1B
100
AcDbEntity
 67
     1
  8
0
100
AcDbBlockEnd
  0
BLOCK
  5
24
330
23
100
AcDbEntity
  8
0
100
AcDbBlockBegin
  2
*Paper_Space0
 70
     0
 10
0.0
 20
0.0
 30
0.0
  3
*Paper_Space0
  1

  0
ENDBLK
  5
25
330
23
100
AcDbEntity
  8
0
100
AcDbBlockEnd
  0
ENDSEC
  0
SECTION
  2
ENTITIES
  0
LINE
  5
44
330
1F
100
AcDbEntity
  8
0
  6
Continuous
 62
     7
370
    15
100
AcDbLine
 10
587.8686256369
 20
78.4470030682
 30
0.0
 11
587.8686256369
 21
78.947011532
 31
0.0
  0
LINE
  5
45
330
1F
100
AcDbEntity
  8
0
  6
Continuous
 62
     7
370
    15
100
AcDbLine
 10
579.8686392268
 20
78.947011532
 30
0.0
 11
579.8686392268
 21
78.4470030682
 31
0.0
  0
LINE
  5
46
330
1F
100
AcDbEntity
  8
0
  6
Continuous
 62
     7
370
    15
100
AcDbLine
 10
-184.7313694994
 20
22.0104494707
 30
0.0
 11
-186.7313735525
 21
20.0104454176
 31
0.0
  0
LINE
  5
47
330
1F
100
AcDbEntity
  8
0
  6
Continuous
 62
     7
370
    15
100
AcDbLine
 10
-186.7313735525
 20
2.0104387419
 30
0.0
 11
-184.7313694994
 21
0.0104495899
 31
0.0
  0
LINE
  5
48
330
1F
100
AcDbEntity
  8
0
  6
Continuous
 62
     7
370
    15
100
AcDbLine
 10
-184.7313694994
 20
0.0104495899
 30
0.0
 11
-182.7313654462
 21
2.0104387419
 31
0.0
  0
LINE
  5
49
330
1F
100
AcDbEntity
  8
0
  6
Continuous
 62
     7
370
    15
100
AcDbLine
 10
-182.7313654462
 20
20.0104454176
 30
0.0
 11
-184.7313694994
 21
22.0104494707
 31
0.0
  0
LINE
  5
4A
330
1F
100
AcDbEntity
  8
0
  6
Continuous
 62
     7
370
    15
100
AcDbLine
 10
-59.9313728849
 20
-144.4895675762
 30
0.0
 11
-59.9313728849
 21
-140.48955947
 31
0.0
  0
LINE
  5
4B
330
1F
100
AcDbEntity
  8
0
  6
Continuous
 62
     7
370
    15
100
AcDbLine
 10
-116.9313840906
 20
-140.48955947
 30
0.0
 11
-116.9313840906
 21
-144.4895675762
 31
0.0
  0
ARC
  5
4C
330
1F
100
AcDbEntity
  8
0
  6
Continuous
 62
     7
370
    15
100
AcDbCircle
 10
-61.9313727633
 20
-144.4895556996
 30
0.0
 40
2.0
100
AcDbArc
 50
270.0
 51
0.0
  0
ARC
  5
4D
330
1F
100
AcDbEntity
  8
0
  6
Continuous
 62
     7
370
    15
100
AcDbCircle
 10
-114.9313727633
 20
-144.4895556996
 30
0.0
 40
2.0
100
AcDbArc
 50
180.0
 51
270.0
  0
LINE
  5
4E
330
1F
100
AcDbEntity
  8
0
  6
Continuous
 62
     7
370
    15
100
AcDbLine
 10
602.5686211546
 20
5.4827669279
 30
0.0
 11
602.8686411341
 21
6.167862715
 31
0.0
  0
LINE
  5
4F
330
1F
100
AcDbEntity
  8
0
  6
Continuous
 62
     7
370
    15
100
AcDbLine
 10
602.8686411341
 20
29.0261545794
 30
0.0
 11
602.5686211546
 21
29.7112503664
 31
0.0
  0
ARC
  5
50
330
1F
100
AcDbEntity
  8
0
  6
Continuous
 62
     7
370
    15
100
AcDbCircle
 10
616.8686272367
 20
12.6970099375
 30
0.0
 40
0.5
100
AcDbArc
 50
270.0
 51
0.0
  0
ARC
  5
51
330
1F
100
AcDbEntity
  8
0
  6
Continuous
 62
     7
370
    15
100
AcDbCircle
 10
616.8686272367
 20
22.4970099375
 30
0.0
 40
0.5000000000001137
100
AcDbArc
 50
0.0
 51
90.0
  0
LINE
  5
52
330
1F
100
AcDbEntity
  8
0
  6
Continuous
 62
     7
370
    15
100
AcDbLine
 10
602.8686411341
 20
12.1970066445
 30
0.0
 11
616.8686397036
 21
12.1970066445
 31
0.0
  0
LINE
  5
53
330
1F
100
AcDbEntity
  8
0
  6
Continuous
 62
     7
370
    15
100
AcDbLine
 10
616.8686397036
 20
22.9970106499
 30
0.0
 11
602.8686411341
 21
22.9970106499
 31
0.0
  0
SPLINE
  5
54
330
1F
100
AcDbEntity
  8
0
  6
Continuous
 62
     7
370
    15
100
AcDbSpline
210
0.0
220
0.0
230
1.0
 70
     8
 71
     3
 72
    17
 73
    13
 74
     0
 42
0.00000001
 43
0.00000001
 40
0.0
 40
0.0
 40
0.0
 40
0.0
 40
0.6756326275378375
 40
0.9036424324841011
 40
0.9707490190339592
 40
0.9901958463227526
 40
0.9960809214752862
 40
0.9993029844694898
 40
0.9996712262524158
 40
0.9999263516434148
 40
0.9999631758217075
 40
1.0
 40
1.0
 40
1.0
 40
1.0
 10
601.735974069447
 20
-13.83885353640288
 30
0.0
 10
601.7967004058755
 20
-13.77219561744486
 30
0.0
 10
601.8779204241656
 20
-13.68304224980618
 30
0.0
 10
601.9566436684169
 20
-13.58105460920842
 30
0.0
 10
601.9816595344932
 20
-13.54720924807382
 30
0.0
 10
601.9889041616378
 20
-13.53750286870797
 30
0.0
 10
601.9911654047627
 20
-13.53430128042954
 30
0.0
 10
601.9919249435433
 20
-13.53343169492338
 30
0.0
 10
601.9921950586087
 20
-13.5329022005832
 30
0.0
 10
601.9922761310253
 20
-13.53290589701633
 30
0.0
 10
601.9922738914773
 20
-13.53283558471213
 30
0.0
 10
601.9922739918131
 20
-13.53285065576215
 30
0.0
 10
601.9922740419812
 20
-13.53285819128722
 30
0.0
  0
LINE
  5
55
330
1F
100
AcDbEntity
  8
0
  6
Continuous
 62
     7
370
    15
100
AcDbLine
 10
-188.7313776056
 20
22.0104494707
 30
0.0
 11
-190.7313816587
 21
20.0104454176
 31
0.0
  0
LINE
  5
56
330
1F
100
AcDbEntity
  8
0
  6
Continuous
 62
     7
370
    15
100
AcDbLine
 10
-190.7313816587
 20
2.0104387419
 30
0.0
 11
-188.7313776056
 21
0.0104495899
 31
0.0
  0
LINE
  5
57
330
1F
100
AcDbEntity
  8
0
  6
Continuous
 62
     7
370
    15
100
AcDbLine
 10
-188.7313776056
 20
0.0104495899
 30
0.0
 11
-186.7313735525
 21
2.0104387419
 31
0.0
  0
LINE
  5
58
330
1F
100
AcDbEntity
  8
0
  6
Continuous
 62
     7
370
    15
100
AcDbLine
 10
-186.7313735525
 20
20.0104454176
 30
0.0
 11
-188.7313776056
 21
22.0104494707
 31
0.0
  0
LINE
  5
59
330
1F
100
AcDbEntity
  8
0
  6
Continuous
 62
     7
370
    15
100
AcDbLine
 10
-60.1313762704
 20
-140.48955947
 30
0.0
 11
-60.1313762704
 21
-111.4895454033
 31
0.0
  0
LINE
  5
5A
330
1F
100
AcDbEntity
  8
0
  6
Continuous
 62
     7
370
    15
100
AcDbLine
 10
-116.731380705
 20
-111.4895454033
 30
0.0
 11
-116.731380705
 21
-140.48955947
 31
0.0
  0
LINE
  5
5B
330
1F
100
AcDbEntity
  8
0
  6
Continuous
 62
     7
370
    15
100
AcDbLine
 10
-192.7313857118
 20
0.0104495899
 30
0.0
 11
-190.7313816587
 21
2.0104387419
 31
0.0
  0
LINE
  5
5C
330
1F
100
AcDbEntity
  8
0
  6
Continuous
 62
     7
370
    15
100
AcDbLine
 10
-190.7313816587
 20
20.0104454176
 30
0.0
 11
-192.7313857118
 21
22.0104494707
 31
0.0
  0
LINE
  5
5D
330
1F
100
AcDbEntity
  8
0
  6
Continuous
 62
     7
370
    15
100
AcDbLine
 10
-192.7313857118
 20
22.0104494707
 30
0.0
 11
-194.7313599626
 21
20.0104454176
 31
0.0
  0
LINE
  5
5E
330
1F
100
AcDbEntity
  8
0
  6
Continuous
 62
     7
370
    15
100
AcDbLine
 10
-194.7313599626
 20
2.0104387419
 30
0.0
 11
-192.7313857118
 21
0.0104495899
 31
0.0
  0
ARC
  5
5F
330
1F
100
AcDbEntity
  8
0
  6
Continuous
 62
     7
370
    15
100
AcDbCircle
 10
-55.0313727633
 20
-49.9895556996
 30
0.0
 40
1.5
100
AcDbArc
 50
90.0
 51
180.0
  0
ARC
  5
60
330
1F
100
AcDbEntity
  8
0
  6
Continuous
 62
     7
370
    15
100
AcDbCircle
 10
-121.8313727633
 20
-49.9895556996
 30
0.0
 40
1.5
100
AcDbArc
 50
0.0
 51
90.0
  0
LINE
  5
61
330
1F
100
AcDbEntity
  8
0
  6
Continuous
 62
     7
370
    15
100
AcDbLine
 10
-56.5313749353
 20
-105.4569891079
 30
0.0
 11
-56.5313749353
 21
-49.989562331
 31
0.0
  0
LINE
  5
62
330
1F
100
AcDbEntity
  8
0
  6
Continuous
 62
     7
370
    15
100
AcDbLine
 10
-120.3313820402
 20
-49.989562331
 30
0.0
 11
-120.3313820402
 21
-105.4569891079
 31
0.0
  0
ARC
  5
63
330
1F
100
AcDbEntity
  8
0
  6
Continuous
 62
     7
370
    15
100
AcDbCircle
 10
-61.2313727633
 20
-105.4569897539
 30
0.0
 40
4.699999999999991
100
AcDbArc
 50
350.5402980318
 51
0.0
  0
ARC
  5
64
330
1F
100
AcDbEntity
  8
0
  6
Continuous
 62
     7
370
    15
100
AcDbCircle
 10
-115.6313727633
 20
-105.4569897539
 30
0.0
 40
4.699999999999991
100
AcDbArc
 50
180.0
 51
189.4597019682
  0
LINE
  5
65
330
1F
100
AcDbEntity
  8
0
  6
Continuous
 62
     7
370
    15
100
AcDbLine
 10
-120.2674560587
 20
-106.2294653042
 30
0.0
 11
-119.3910293619
 21
-111.4895454033
 31
0.0
  0
LINE
  5
66
330
1F
100
AcDbEntity
  8
0
  6
Continuous
 62
     7
370
    15
100
AcDbLine
 10
-57.4717276136
 20
-111.4895454033
 30
0.0
 11
-56.5952711145
 21
-106.2294653042
 31
0.0
  0
LINE
  5
67
330
1F
100
AcDbEntity
  8
0
  6
Continuous
 62
     7
370
    15
100
AcDbLine
 10
-196.7313640157
 20
22.0104494707
 30
0.0
 11
-198.7313680688
 21
20.0104454176
 31
0.0
  0
LINE
  5
68
330
1F
100
AcDbEntity
  8
0
  6
Continuous
 62
     7
370
    15
100
AcDbLine
 10
-198.7313680688
 20
2.0104387419
 30
0.0
 11
-196.7313640157
 21
0.0104495899
 31
0.0
  0
LINE
  5
69
330
1F
100
AcDbEntity
  8
0
  6
Continuous
 62
     7
370
    15
100
AcDbLine
 10
-196.7313640157
 20
0.0104495899
 30
0.0
 11
-194.7313599626
 21
2.0104387419
 31
0.0
  0
LINE
  5
6A
330
1F
100
AcDbEntity
  8
0
  6
Continuous
 62
     7
370
    15
100
AcDbLine
 10
-194.7313599626
 20
20.0104454176
 30
0.0
 11
-196.7313640157
 21
22.0104494707
 31
0.0
  0
LINE
  5
6B
330
1F
100
AcDbEntity
  8
0
  6
Continuous
 62
     7
370
    15
100
AcDbLine
 10
-182.7313654462
 20
0.0104495899
 30
0.0
 11
-167.4313597719
 21
0.0104495899
 31
0.0
  0
LINE
  5
6C
330
1F
100
AcDbEntity
  8
0
  6
Continuous
 62
     7
370
    15
100
AcDbLine
 10
-167.4313597719
 20
22.0104494707
 30
0.0
 11
-182.7313654462
 21
22.0104494707
 31
0.0
  0
ARC
  5
6D
330
1F
100
AcDbEntity
  8
0
  6
Continuous
 62
     7
370
    15
100
AcDbCircle
 10
512.0686272367
 20
-144.4895556996
 30
0.0
 40
2.0
100
AcDbArc
 50
270.0
 51
0.0
  0
ARC
  5
6E
330
1F
100
AcDbEntity
  8
0
  6
Continuous
 62
     7
370
    15
100
AcDbCircle
 10
459.0686272367
 20
-144.4895556996
 30
0.0
 40
2.0
100
AcDbArc
 50
180.0
 51
270.0
  0
LINE
  5
6F
330
1F
100
AcDbEntity
  8
0
  6
Continuous
 62
     7
370
    15
100
AcDbLine
 10
514.0686280688
 20
-144.4895675762
 30
0.0
 11
514.0686280688
 21
-140.48955947
 31
0.0
  0
LINE
  5
70
330
1F
100
AcDbEntity
  8
0
  6
Continuous
 62
     7
370
    15
100
AcDbLine
 10
457.0686168631
 20
-140.48955947
 30
0.0
 11
457.0686168631
 21
-144.4895675762
 31
0.0
  0
LINE
  5
71
330
1F
100
AcDbEntity
  8
0
  6
Continuous
 62
     7
370
    15
100
AcDbLine
 10
513.8686246832
 20
-140.48955947
 30
0.0
 11
513.8686246832
 21
-111.4895454033
 31
0.0
  0
LINE
  5
72
330
1F
100
AcDbEntity
  8
0
  6
Continuous
 62
     7
370
    15
100
AcDbLine
 10
457.2686202486
 20
-111.4895454033
 30
0.0
 11
457.2686202486
 21
-140.48955947
 31
0.0
  0
ARC
  5
73
330
1F
100
AcDbEntity
  8
0
  6
Continuous
 62
     7
370
    15
100
AcDbCircle
 10
518.9686272367
 20
-49.9895556996
 30
0.0
 40
1.500000000000007
100
AcDbArc
 50
90.0
 51
180.0
  0
ARC
  5
74
330
1F
100
AcDbEntity
  8
0
  6
Continuous
 62
     7
370
    15
100
AcDbCircle
 10
452.1686272367
 20
-49.9895556996
 30
0.0
 40
1.500000000000007
100
AcDbArc
 50
0.0
 51
90.0
  0
ARC
  5
75
330
1F
100
AcDbEntity
  8
0
  6
Continuous
 62
     7
370
    15
100
AcDbCircle
 10
512.7686272367
 20
-105.4569897539
 30
0.0
 40
4.700000000000045
100
AcDbArc
 50
350.5402980318
 51
0.0
  0
ARC
  5
76
330
1F
100
AcDbEntity
  8
0
  6
Continuous
 62
     7
370
    15
100
AcDbCircle
 10
458.3686272367
 20
-105.4569897539
 30
0.0
 40
4.70000000000006
100
AcDbArc
 50
180.0
 51
189.4597019682
  0
LINE
  5
77
330
1F
100
AcDbEntity
  8
0
  6
Continuous
 62
     7
370
    15
100
AcDbLine
 10
517.4686260184
 20
-105.4569891079
 30
0.0
 11
517.4686260184
 21
-49.989562331
 31
0.0
  0
LINE
  5
78
330
1F
100
AcDbEntity
  8
0
  6
Continuous
 62
     7
370
    15
100
AcDbLine
 10
453.6686189135
 20
-49.989562331
 30
0.0
 11
453.6686189135
 21
-105.4569891079
 31
0.0
  0
LINE
  5
79
330
1F
100
AcDbEntity
  8
0
  6
Continuous
 62
     7
370
    15
100
AcDbLine
 10
453.732544895
 20
-106.2294653042
 30
0.0
 11
454.6089715918
 21
-111.4895454033
 31
0.0
  0
LINE
  5
7A
330
1F
100
AcDbEntity
  8
0
  6
Continuous
 62
     7
370
    15
100
AcDbLine
 10
516.5282733401
 20
-111.4895454033
 30
0.0
 11
517.4047000369
 21
-106.2294653042
 31
0.0
  0
LINE
  5
7B
330
1F
100
AcDbEntity
  8
0
  6
Continuous
 62
     7
370
    15
100
AcDbLine
 10
573.5686368903
 20
78.4470030682
 30
0.0
 11
573.5686368903
 21
78.947011532
 31
0.0
  0
LINE
  5
7C
330
1F
100
AcDbEntity
  8
0
  6
Continuous
 62
     7
370
    15
100
AcDbLine
 10
565.5686206778
 20
78.947011532
 30
0.0
 11
565.5686206778
 21
78.4470030682
 31
0.0
  0
LINE
  5
7D
330
1F
100
AcDbEntity
  8
0
  6
Continuous
 62
     7
370
    15
100
AcDbLine
 10
608.568633314
 20
-14.9029901607
 30
0.0
 11
618.5686237772
 21
-10.9029969557
 31
0.0
  0
LINE
  5
7E
330
1F
100
AcDbEntity
  8
0
  6
Continuous
 62
     7
370
    15
100
AcDbLine
 10
610.8899660071
 20
49.1684713976
 30
0.0
 11
608.568633314
 21
50.0970074551
 31
0.0
  0
LINE
  5
7F
330
1F
100
AcDbEntity
  8
0
  6
Continuous
 62
     7
370
    15
100
AcDbLine
 10
618.5686237772
 20
46.09701425
 30
0.0
 11
615.5322141608
 21
47.3115780966
 31
0.0
  0
LINE
  5
80
330
1F
100
AcDbEntity
  8
0
  6
Continuous
 62
     7
370
    15
100
AcDbLine
 10
618.5686237772
 20
-10.9029969557
 30
0.0
 11
637.9789955576
 21
-2.168323694
 31
0.0
  0
LINE
  5
81
330
1F
100
AcDbEntity
  8
0
  6
Continuous
 62
     7
370
    15
100
AcDbLine
 10
619.0245993098
 20
45.8918252604
 30
0.0
 11
618.5686237772
 21
46.09701425
 31
0.0
  0
ARC
  5
82
330
1F
100
AcDbEntity
  8
0
  6
Continuous
 62
     7
370
    15
100
AcDbCircle
 10
637.5686272367
 20
-1.2564044526
 30
0.0
 40
0.9999999999999776
100
AcDbArc
 50
294.227745318
 51
0.0
  0
LINE
  5
83
330
1F
100
AcDbEntity
  8
0
  6
Continuous
 62
     7
370
    15
100
AcDbLine
 10
606.5686292609
 20
10.48520595
 30
0.0
 11
608.568633314
 21
10.4502925293
 31
0.0
  0
LINE
  5
84
330
1F
100
AcDbEntity
  8
0
  6
Continuous
 62
     7
370
    15
100
AcDbLine
 10
615.5385620554
 20
47.3198184387
 30
0.0
 11
610.8910984953
 21
49.1787979023
 31
0.0
  0
LINE
  5
85
330
1F
100
AcDbEntity
  8
0
  6
Continuous
 62
     7
370
    15
100
AcDbLine
 10
563.3012301882
 20
195.6122649477
 30
0.0
 11
561.8746526202
 21
195.1487401144
 31
0.0
  0
LINE
  5
86
330
1F
100
AcDbEntity
  8
0
  6
Continuous
 62
     7
370
    15
100
AcDbLine
 10
581.5744645556
 20
134.5188879983
 30
0.0
 11
583.001071926
 21
134.982410969
 31
0.0
  0
LINE
  5
87
330
1F
100
AcDbEntity
  8
0
  6
Continuous
 62
     7
370
    15
100
AcDbLine
 10
583.001071926
 20
134.982410969
 30
0.0
 11
563.3012301882
 21
195.6122649477
 31
0.0
  0
LINE
  5
88
330
1F
100
AcDbEntity
  8
0
  6
Continuous
 62
     7
370
    15
100
AcDbLine
 10
584.5461435278
 20
130.2271300571
 30
0.0
 11
583.1195659598
 21
129.7636070864
 31
0.0
  0
LWPOLYLINE
  5
89
330
1F
100
AcDbEntity
  8
0
  6
Continuous
 62
     7
370
    15
100
AcDbPolyline
 90
        9
 70
   128
 43
0.0
 10
583.001071926
 20
134.982410969
 10
583.3024926146
 20
134.054701926
 10
583.5923500021
 20
133.1626439111
 10
583.8594682177
 20
132.3405170457
 10
584.0935952624
 20
131.6199192421
 10
584.2857606371
 20
131.0285368578
 10
584.4285435637
 20
130.5891016142
 10
584.5164604147
 20
130.3185039775
 10
584.5461435278
 20
130.2271300571
  0
ARC
  5
8A
330
1F
100
AcDbEntity
  8
0
  6
Continuous
 62
     7
370
    15
100
AcDbCircle
 10
575.728687069
 20
176.780887898
 30
0.0
 40
24.50000000000015
100
AcDbArc
 50
18.0
 51
108.0
  0
LINE
  5
8B
330
1F
100
AcDbEntity
  8
0
  6
Continuous
 62
     7
370
    15
100
AcDbLine
 10
599.0295655688
 20
184.3518038855
 30
0.0
 11
597.6029880007
 21
183.8882790522
 31
0.0
  0
ARC
  5
8C
330
1F
100
AcDbEntity
  8
0
  6
Continuous
 62
     7
370
    15
100
AcDbCircle
 10
575.728687069
 20
176.780887898
 30
0.0
 40
23.00000000000002
100
AcDbArc
 50
18.0
 51
108.0
  0
LINE
  5
8D
330
1F
100
AcDbEntity
  8
0
  6
Continuous
 62
     7
370
    15
100
AcDbLine
 10
568.6213023623
 20
198.6551882343
 30
0.0
 11
568.1577570399
 21
200.0817723216
 31
0.0
  0
LINE
  5
8E
330
1F
100
AcDbEntity
  8
0
  6
Continuous
 62
     7
370
    15
100
AcDbLine
 10
599.7661001643
 20
177.2308835404
 30
0.0
 11
601.1926777323
 21
177.6944102363
 31
0.0
  0
LWPOLYLINE
  5
8F
330
1F
100
AcDbEntity
  8
0
  6
Continuous
 62
     7
370
    15
100
AcDbPolyline
 90
        9
 70
   128
 43
0.0
 10
601.1926777323
 20
177.6944102363
 10
601.7955489119
 20
175.838988425
 10
602.3752338847
 20
174.0548723952
 10
602.9095001181
 20
172.4106223898
 10
603.3777840098
 20
170.9694230573
 10
603.762084957
 20
169.786662014
 10
604.0476210078
 20
168.9077915268
 10
604.2234845122
 20
168.3665850775
 10
604.2828507384
 20
168.1838446872
  0
LINE
  5
90
330
1F
100
AcDbEntity
  8
0
  6
Continuous
 62
     7
370
    15
100
AcDbLine
 10
604.2828507384
 20
168.1838446872
 30
0.0
 11
602.8562731703
 21
167.7203179912
 31
0.0
  0
LWPOLYLINE
  5
91
330
1F
100
AcDbEntity
  8
0
  6
Continuous
 62
     7
370
    15
100
AcDbPolyline
 90
        9
 70
   128
 43
0.0
 10
602.8562731703
 20
167.7203179912
 10
602.7969069441
 20
167.9030621068
 10
602.6210434397
 20
168.4442648308
 10
602.3354775866
 20
169.3231390433
 10
601.9511766394
 20
170.5058963613
 10
601.4829225501
 20
171.9470956938
 10
600.9486563166
 20
173.5913456993
 10
600.3689713438
 20
175.3754654543
 10
599.7661001643
 20
177.2308835404
  0
LINE
  5
92
330
1F
100
AcDbEntity
  8
0
  6
Continuous
 62
     7
370
    15
100
AcDbLine
 10
597.6029880007
 20
183.8882790522
 30
0.0
 11
599.7661001643
 21
177.2308835404
 31
0.0
  0
LINE
  5
93
330
1F
100
AcDbEntity
  8
0
  6
Continuous
 62
     7
370
    15
100
AcDbLine
 10
599.0295655688
 20
184.3518038855
 30
0.0
 11
601.1926777323
 21
177.6944102363
 31
0.0
  0
ARC
  5
94
330
1F
100
AcDbEntity
  8
0
  6
Continuous
 62
     7
370
    15
100
AcDbCircle
 10
564.4900489889
 20
195.9985364041
 30
0.0
 40
2.750000000000081
100
AcDbArc
 50
108.0
 51
198.0
  0
LINE
  5
95
330
1F
100
AcDbEntity
  8
0
  6
Continuous
 62
     7
370
    15
100
AcDbLine
 10
563.6402614077
 20
198.6139418201
 30
0.0
 11
564.1037769278
 21
197.1873568015
 31
0.0
  0
ARC
  5
96
330
1F
100
AcDbEntity
  8
0
  6
Continuous
 62
     7
370
    15
100
AcDbCircle
 10
564.4900489889
 20
195.9985364041
 30
0.0
 40
1.250000000000067
100
AcDbArc
 50
108.0
 51
198.0
  0
LINE
  5
97
330
1F
100
AcDbEntity
  8
0
  6
Continuous
 62
     7
370
    15
100
AcDbLine
 10
563.6402614077
 20
198.6139418201
 30
0.0
 11
568.1577570399
 21
200.0817723216
 31
0.0
  0
LINE
  5
98
330
1F
100
AcDbEntity
  8
0
  6
Continuous
 62
     7
370
    15
100
AcDbLine
 10
564.1037769278
 20
197.1873568015
 30
0.0
 11
568.6213023623
 21
198.6551882343
 31
0.0
  0
LINE
  5
99
330
1F
100
AcDbEntity
  8
0
  6
Continuous
 62
     7
370
    15
100
AcDbLine
 10
539.3686242064
 20
216.5102271007
 30
0.0
 11
539.3686242064
 21
218.0033732781
 31
0.0
  0
LWPOLYLINE
  5
9A
330
1F
100
AcDbEntity
  8
0
  6
Continuous
 62
     7
370
    15
100
AcDbPolyline
 90
        3
 70
   128
 43
0.0
 10
-132.4652187864
 20
264.7662350552
 10
-132.4578874151
 20
264.7311167435
 10
-132.4313633482
 20
264.555122854
  0
LINE
  5
9B
330
1F
100
AcDbEntity
  8
0
  6
Continuous
 62
     7
370
    15
100
AcDbLine
 10
558.5894234141
 20
199.9346848221
 30
0.0
 11
541.168624874
 21
199.9346848221
 31
0.0
  0
LINE
  5
9C
330
1F
100
AcDbEntity
  8
0
  6
Continuous
 62
     7
370
    15
100
AcDbLine
 10
541.168624874
 20
200.4346849041
 30
0.0
 11
541.168624874
 21
199.9346848221
 31
0.0
  0
LINE
  5
9D
330
1F
100
AcDbEntity
  8
0
  6
Continuous
 62
     7
370
    15
100
AcDbLine
 10
540.1686377486
 20
80.7470121996
 30
0.0
 11
540.1686377486
 21
199.4346847402
 31
0.0
  0
LINE
  5
9E
330
1F
100
AcDbEntity
  8
0
  6
Continuous
 62
     7
370
    15
100
AcDbLine
 10
540.1686377486
 20
199.4346847402
 30
0.0
 11
540.6686313113
 21
199.4346847402
 31
0.0
  0
LINE
  5
9F
330
1F
100
AcDbEntity
  8
0
  6
Continuous
 62
     7
370
    15
100
AcDbLine
 10
540.6686313113
 20
199.4346847402
 30
0.0
 11
540.6686313113
 21
80.7470121996
 31
0.0
  0
LINE
  5
A0
330
1F
100
AcDbEntity
  8
0
  6
Continuous
 62
     7
370
    15
100
AcDbLine
 10
540.6686313113
 20
80.7470121996
 30
0.0
 11
540.1686377486
 21
80.7470121996
 31
0.0
  0
ARC
  5
A1
330
1F
100
AcDbEntity
  8
0
  6
Continuous
 62
     7
370
    15
100
AcDbCircle
 10
541.1686272367
 20
80.7470099375
 30
0.0
 40
0.5000000000001137
100
AcDbArc
 50
180.0
 51
270.0
  0
LINE
  5
A2
330
1F
100
AcDbEntity
  8
0
  6
Continuous
 62
     7
370
    15
100
AcDbLine
 10
541.168624874
 20
80.2470037357
 30
0.0
 11
541.168624874
 21
79.747010173
 31
0.0
  0
ARC
  5
A3
330
1F
100
AcDbEntity
  8
0
  6
Continuous
 62
     7
370
    15
100
AcDbCircle
 10
541.1686272367
 20
80.7470099375
 30
0.0
 40
1.0
100
AcDbArc
 50
180.0
 51
270.0
  0
ARC
  5
A4
330
1F
100
AcDbEntity
  8
0
  6
Continuous
 62
     7
370
    15
100
AcDbCircle
 10
541.1686272367
 20
199.4346844646
 30
0.0
 40
1.0
100
AcDbArc
 50
90.0
 51
180.0
  0
ARC
  5
A5
330
1F
100
AcDbEntity
  8
0
  6
Continuous
 62
     7
370
    15
100
AcDbCircle
 10
541.1686272367
 20
199.4346844646
 30
0.0
 40
0.5000000000001137
100
AcDbArc
 50
90.0
 51
180.0
  0
LWPOLYLINE
  5
A6
330
1F
100
AcDbEntity
  8
0
  6
Continuous
 62
     7
370
    15
100
AcDbPolyline
 90
        9
 70
   128
 43
0.0
 10
583.9207119902
 20
124.7090214507
 10
583.9115924796
 20
124.7060561196
 10
583.8845319708
 20
124.697256984
 10
583.8405735453
 20
124.6829816715
 10
583.7814457377
 20
124.6637666242
 10
583.7093837222
 20
124.6403568999
 10
583.627188917
 20
124.6136391179
 10
583.5379607638
 20
124.5846563594
 10
583.4451861342
 20
124.5545113103
  0
LINE
  5
A7
330
1F
100
AcDbEntity
  8
0
  6
Continuous
 62
     7
370
    15
100
AcDbLine
 10
583.4451861342
 20
124.5545113103
 30
0.0
 11
559.0649492701
 21
199.5891930179
 31
0.0
  0
ARC
  5
A8
330
1F
100
AcDbEntity
  8
0
  6
Continuous
 62
     7
370
    15
100
AcDbCircle
 10
558.5894236846
 20
199.4346844646
 30
0.0
 40
0.5
100
AcDbArc
 50
18.0
 51
90.0
  0
LINE
  5
A9
330
1F
100
AcDbEntity
  8
0
  6
Continuous
 62
     7
370
    15
100
AcDbLine
 10
601.3872272929
 20
80.514926614
 30
0.0
 11
613.8059444388
 21
95.3149536268
 31
0.0
  0
ARC
  5
AA
330
1F
100
AcDbEntity
  8
0
  6
Continuous
 62
     7
370
    15
100
AcDbCircle
 10
600.8126965375
 20
80.9970099375
 30
0.0
 40
0.75
100
AcDbArc
 50
270.0
 51
320.0
  0
LINE
  5
AB
330
1F
100
AcDbEntity
  8
0
  6
Continuous
 62
     7
370
    15
100
AcDbLine
 10
541.168624874
 20
80.2470037357
 30
0.0
 11
600.8126981219
 21
80.2470037357
 31
0.0
  0
ARC
  5
AC
330
1F
100
AcDbEntity
  8
0
  6
Continuous
 62
     7
370
    15
100
AcDbCircle
 10
594.1921360275
 20
128.0464049426
 30
0.0
 40
11.29999999999998
100
AcDbArc
 50
198.0
 51
250.0
  0
LINE
  5
AD
330
1F
100
AcDbEntity
  8
0
  6
Continuous
 62
     7
370
    15
100
AcDbLine
 10
609.7777135333
 20
110.3485116379
 30
0.0
 11
590.3273172339
 21
117.4278819577
 31
0.0
  0
ARC
  5
AE
330
1F
100
AcDbEntity
  8
0
  6
Continuous
 62
     7
370
    15
100
AcDbCircle
 10
606.5285098067
 20
101.4214344207
 30
0.0
 40
9.500000000000005
100
AcDbArc
 50
320.0
 51
70.0
  0
LINE
  5
AF
330
1F
100
AcDbEntity
  8
0
  6
Continuous
 62
     7
370
    15
100
AcDbLine
 10
600.8126981219
 20
80.2470037357
 30
0.0
 11
600.8126981219
 21
79.747010173
 31
0.0
  0
LWPOLYLINE
  5
B0
330
1F
100
AcDbEntity
  8
0
  6
Continuous
 62
     7
370
    15
100
AcDbPolyline
 90
        9
 70
   128
 43
0.0
 10
590.4983229598
 20
117.8977230208
 10
590.4950447043
 20
117.8887003677
 10
590.4852993449
 20
117.8619602339
 10
590.469504114
 20
117.8185382502
 10
590.4482252558
 20
117.7601107971
 10
590.4223270377
 20
117.6889130489
 10
590.3927631339
 20
117.6076793687
 10
590.3606660326
 20
117.5195390002
 10
590.3273172339
 20
117.4278819577
  0
LWPOLYLINE
  5
B1
330
1F
100
AcDbEntity
  8
0
  6
Continuous
 62
     7
370
    15
100
AcDbPolyline
 90
        9
 70
   128
 43
0.0
 10
609.7777135333
 20
110.3485116379
 10
609.811062332
 20
110.440176131
 10
609.8431296309
 20
110.5283164994
 10
609.872723337
 20
110.6095501797
 10
609.8986215552
 20
110.6807479279
 10
609.9199004134
 20
110.7391753809
 10
609.9356956442
 20
110.7825973646
 10
609.9454112013
 20
110.8093300478
 10
609.9487192591
 20
110.8183601515
  0
LWPOLYLINE
  5
B2
330
1F
100
AcDbEntity
  8
0
  6
Continuous
 62
     7
370
    15
100
AcDbPolyline
 90
        9
 70
   128
 43
0.0
 10
601.3872272929
 20
80.514926614
 10
601.4619417151
 20
80.4522225277
 10
601.5337951144
 20
80.3919324295
 10
601.6000158747
 20
80.3363659994
 10
601.6580707987
 20
80.2876541035
 10
601.7056949099
 20
80.2476891892
 10
601.7411000689
 20
80.2179911749
 10
601.7628855666
 20
80.1997074501
 10
601.7702467402
 20
80.1935234682
  0
LWPOLYLINE
  5
B3
330
1F
100
AcDbEntity
  8
0
  6
Continuous
 62
     7
370
    15
100
AcDbPolyline
 90
        9
 70
   128
 43
0.0
 10
613.8059444388
 20
95.3149536268
 10
613.880658861
 20
95.2522495405
 10
613.9525122603
 20
95.1919594423
 10
614.0187330206
 20
95.1363930122
 10
614.0767581423
 20
95.0876960175
 10
614.1244120558
 20
95.0477236526
 10
614.1597874125
 20
95.0180256383
 10
614.1816027125
 20
94.9997344629
 10
614.1889638861
 20
94.9935579316
  0
LINE
  5
B4
330
1F
100
AcDbEntity
  8
0
  6
Continuous
 62
     7
370
    15
100
AcDbLine
 10
-184.7313694994
 20
21.7889437096
 30
0.0
 11
-184.7313694994
 21
22.0104494707
 31
0.0
  0
LINE
  5
B5
330
1F
100
AcDbEntity
  8
0
  6
Continuous
 62
     7
370
    15
100
AcDbLine
 10
-184.7313694994
 20
0.0104495899
 30
0.0
 11
-184.7313694994
 21
21.7889437096
 31
0.0
  0
LINE
  5
B6
330
1F
100
AcDbEntity
  8
0
  6
Continuous
 62
     7
370
    15
100
AcDbLine
 10
-186.7313735525
 20
19.8292174952
 30
0.0
 11
-186.7313735525
 21
20.0104454176
 31
0.0
  0
LINE
  5
B7
330
1F
100
AcDbEntity
  8
0
  6
Continuous
 62
     7
370
    15
100
AcDbLine
 10
-186.7313735525
 20
2.0104387419
 30
0.0
 11
-186.7313735525
 21
19.8292174952
 31
0.0
  0
LINE
  5
B8
330
1F
100
AcDbEntity
  8
0
  6
Continuous
 62
     7
370
    15
100
AcDbLine
 10
-59.9313728849
 20
-140.48955947
 30
0.0
 11
-116.9313840906
 21
-140.48955947
 31
0.0
  0
LINE
  5
B9
330
1F
100
AcDbEntity
  8
0
  6
Continuous
 62
     7
370
    15
100
AcDbLine
 10
-61.931376938
 20
-146.489541827
 30
0.0
 11
-114.9313800375
 21
-146.489541827
 31
0.0
  0
LINE
  5
BA
330
1F
100
AcDbEntity
  8
0
  6
Continuous
 62
     7
370
    15
100
AcDbLine
 10
602.8686411341
 20
17.5970086472
 30
0.0
 11
602.8686411341
 21
29.0261545794
 31
0.0
  0
LINE
  5
BB
330
1F
100
AcDbEntity
  8
0
  6
Continuous
 62
     7
370
    15
100
AcDbLine
 10
602.8686411341
 20
6.167862715
 30
0.0
 11
602.8686411341
 21
17.5970086472
 31
0.0
  0
LINE
  5
BC
330
1F
100
AcDbEntity
  8
0
  6
Continuous
 62
     7
370
    15
100
AcDbLine
 10
617.3686332663
 20
12.6970151083
 30
0.0
 11
617.3686332663
 21
17.5970086472
 31
0.0
  0
SPLINE
  5
BD
330
1F
100
AcDbEntity
  8
0
  6
Continuous
 62
     7
370
    15
100
AcDbSpline
210
0.0
220
0.0
230
1.0
 70
     8
 71
     3
 72
    16
 73
    12
 74
     0
 42
0.00000001
 43
0.00000001
 40
0.0
 40
0.0
 40
0.0
 40
0.0
 40
0.125
 40
0.125
 40
0.25
 40
0.25
 40
0.5
 40
0.5
 40
0.75
 40
0.75
 40
1.0
 40
1.0
 40
1.0
 40
1.0
 10
601.1686272367293
 20
43.70263205775274
 30
0.0
 10
601.2752864829245
 20
43.68823404983455
 30
0.0
 10
601.3775703036562
 20
43.67237497860815
 30
0.0
 10
601.572040049668
 20
43.63804212064964
 30
0.0
 10
601.6642259749483
 20
43.61956833391753
 30
0.0
 10
601.9236163408252
 20
43.56068601712856
 30
0.0
 10
602.0736533714584
 20
43.51681653047915
 30
0.0
 10
602.3171713166257
 20
43.42230762848545
 30
0.0
 10
602.4104750397976
 20
43.37173804704766
 30
0.0
 10
602.5362029998494
 20
43.26722877858508
 30
0.0
 10
602.5686272367294
 20
43.21328909156028
 30
0.0
 10
602.5686272367294
 20
43.15929442938934
 30
0.0
  0
LINE
  5
BE
330
1F
100
AcDbEntity
  8
0
  6
Continuous
 62
     7
370
    15
100
AcDbLine
 10
602.5686211546
 20
43.1592950241
 30
0.0
 11
602.5686211546
 21
-11.7652675493
 31
0.0
  0
SPLINE
  5
BF
330
1F
100
AcDbEntity
  8
0
  6
Continuous
 62
     7
370
    15
100
AcDbSpline
210
0.0
220
0.0
230
1.0
 70
     8
 71
     3
 72
    19
 73
    15
 74
     0
 42
0.00000001
 43
0.00000001
 40
0.0
 40
0.0
 40
0.0
 40
0.0
 40
0.057095908092662
 40
0.115651805237113
 40
0.1756735616979767
 40
0.2371666253302755
 40
0.3001360595090994
 40
0.3645865770444565
 40
0.4305225705602984
 40
0.4979481397533499
 40
0.6162043907298324
 40
0.7486213188526918
 40
0.8538534972356918
 40
1.0
 40
1.0
 40
1.0
 40
1.0
 10
601.1686272367293
 20
-12.30900673261381
 30
0.0
 10
601.2172528037107
 20
-12.30218077645129
 30
0.0
 10
601.315747333178
 20
-12.28835431884631
 30
0.0
 10
601.4575284524384
 20
-12.26499112856916
 30
0.0
 10
601.5961742815414
 20
-12.23940126829029
 30
0.0
 10
601.7301313506736
 20
-12.21140164485607
 30
0.0
 10
601.8584778199014
 20
-12.18104309988999
 30
0.0
 10
601.9800491780567
 20
-12.1483114012646
 30
0.0
 10
602.0937059150465
 20
-12.11321062024337
 30
0.0
 10
602.2236910947372
 20
-12.06659931841936
 30
0.0
 10
602.3617793641523
 20
-12.00445043809545
 30
0.0
 10
602.4732353169873
 20
-11.93163953239479
 30
0.0
 10
602.5520967528233
 20
-11.85053117971183
 30
0.0
 10
602.5625499553151
 20
-11.79661837395871
 30
0.0
 10
602.5686272367294
 20
-11.76527455443085
 30
0.0
  0
LINE
  5
C0
330
1F
100
AcDbEntity
  8
0
  6
Continuous
 62
     7
370
    15
100
AcDbLine
 10
601.1686272582
 20
43.7026360647
 30
0.0
 11
601.1686272582
 21
-12.3090109213
 31
0.0
  0
SPLINE
  5
C1
330
1F
100
AcDbEntity
  8
0
  6
Continuous
 62
     7
370
    15
100
AcDbSpline
210
0.0
220
0.0
230
1.0
 70
     8
 71
     3
 72
    19
 73
    15
 74
     0
 42
0.00000001
 43
0.00000001
 40
0.0
 40
0.0
 40
0.0
 40
0.0
 40
0.0571115640935922
 40
0.115681259286636
 40
0.1757147833893903
 40
0.2372174247608634
 40
0.3001940990521362
 40
0.3646493820584478
 40
0.4305875391447072
 40
0.4980125516486611
 40
0.616261616538448
 40
0.748663192415951
 40
0.8538790033185847
 40
1.0
 40
1.0
 40
1.0
 40
1.0
 10
601.1686272367293
 20
45.69700993747924
 30
0.0
 10
601.2172524327902
 20
45.66519700208391
 30
0.0
 10
601.3157442882078
 20
45.60075890646276
 30
0.0
 10
601.45752575348
 20
45.49213995014398
 30
0.0
 10
601.5961715096179
 20
45.37304055243446
 30
0.0
 10
601.7301286814227
 20
45.2425070352975
 30
0.0
 10
601.8584752515608
 20
45.10070482366368
 30
0.0
 10
601.9800467575748
 20
44.94760655135219
 30
0.0
 10
602.0937036707048
 20
44.78335864848351
 30
0.0
 10
602.2236873784585
 20
44.56551656114624
 30
0.0
 10
602.361775553996
 20
44.27600828390335
 30
0.0
 10
602.4732335469691
 20
43.93565520956097
 30
0.0
 10
602.5520963964616
 20
43.55792478794609
 30
0.0
 10
602.562549854854
 20
43.30584650277841
 30
0.0
 10
602.5686272367294
 20
43.15929442938934
 30
0.0
  0
SPLINE
  5
C2
330
1F
100
AcDbEntity
  8
0
  6
Continuous
 62
     7
370
    15
100
AcDbSpline
210
0.0
220
0.0
230
1.0
 70
     8
 71
     3
 72
    10
 73
     6
 74
     0
 42
0.00000001
 43
0.00000001
 40
0.0
 40
0.0
 40
0.0
 40
0.0
 40
0.5
 40
0.5
 40
1.0
 40
1.0
 40
1.0
 40
1.0
 10
601.1686272367293
 20
45.69700993747924
 30
0.0
 10
601.1680856395271
 20
45.69735140819206
 30
0.0
 10
601.1686272367293
 20
45.4744087567156
 30
0.0
 10
601.1686272367293
 20
44.75141238155827
 30
0.0
 10
601.1691690279828
 20
44.25221767013934
 30
0.0
 10
601.1686272367293
 20
43.70263205775274
 30
0.0
  0
SPLINE
  5
C3
330
1F
100
AcDbEntity
  8
0
  6
Continuous
 62
     7
370
    15
100
AcDbSpline
210
0.0
220
0.0
230
1.0
 70
     8
 71
     3
 72
    19
 73
    15
 74
     0
 42
0.00000001
 43
0.00000001
 40
0.0
 40
0.0
 40
0.0
 40
0.0
 40
0.0571143122037919
 40
0.115685969538609
 40
0.1757206699038281
 40
0.2372237019665135
 40
0.3001999818643183
 40
0.3646540860234619
 40
0.4305902805559922
 40
0.4980125476391977
 40
0.6162771910106116
 40
0.7486631870564172
 40
0.8538896613728942
 40
1.0
 40
1.0
 40
1.0
 40
1.0
 10
601.1686272367293
 20
-14.30299006252075
 30
0.0
 10
601.2172547512915
 20
-14.27117555529422
 30
0.0
 10
601.3157505739904
 20
-14.20673475277248
 30
0.0
 10
601.4575363860371
 20
-14.09811158014027
 30
0.0
 10
601.5961842362271
 20
-13.97900908982941
 30
0.0
 10
601.7301414602176
 20
-13.84847390096261
 30
0.0
 10
601.8584863467302
 20
-13.70667178198329
 30
0.0
 10
601.9800547842289
 20
-13.553575677026
 30
0.0
 10
602.0937076600943
 20
-13.38933226874167
 30
0.0
 10
602.2236965861165
 20
-13.1714807577932
 30
0.0
 10
602.3617814329427
 20
-12.88197363659663
 30
0.0
 10
602.4732400591453
 20
-12.54160983129082
 30
0.0
 10
602.5520978746644
 20
-12.16389417754549
 30
0.0
 10
602.5625506786787
 20
-11.91181591945645
 30
0.0
 10
602.5686272367294
 20
-11.76527455443085
 30
0.0
  0
SPLINE
  5
C4
330
1F
100
AcDbEntity
  8
0
  6
Continuous
 62
     7
370
    15
100
AcDbSpline
210
0.0
220
0.0
230
1.0
 70
     8
 71
     3
 72
    10
 73
     6
 74
     0
 42
0.00000001
 43
0.00000001
 40
0.0
 40
0.0
 40
0.0
 40
0.0
 40
0.5
 40
0.5
 40
1.0
 40
1.0
 40
1.0
 40
1.0
 10
601.1686272367293
 20
-12.30900673261381
 30
0.0
 10
601.1691691349523
 20
-12.85859234448225
 30
0.0
 10
601.1686272367293
 20
-13.35768853695615
 30
0.0
 10
601.1686272367293
 20
-14.08048775597256
 30
0.0
 10
601.1680855325959
 20
-14.30333160065248
 30
0.0
 10
601.1686272367293
 20
-14.30299006252075
 30
0.0
  0
LINE
  5
C5
330
1F
100
AcDbEntity
  8
0
  6
Continuous
 62
     7
370
    15
100
AcDbLine
 10
558.4077782591
 20
200.4346849041
 30
0.0
 11
558.4077782591
 21
201.2346844764
 31
0.0
  0
LINE
  5
C6
330
1F
100
AcDbEntity
  8
0
  6
Continuous
 62
     7
370
    15
100
AcDbLine
 10
542.1686418017
 20
200.4346849041
 30
0.0
 11
558.4077782591
 21
200.4346849041
 31
0.0
  0
LINE
  5
C7
330
1F
100
AcDbEntity
  8
0
  6
Continuous
 62
     7
370
    15
100
AcDbLine
 10
542.1686418017
 20
201.2346844764
 30
0.0
 11
542.1686418017
 21
200.4346849041
 31
0.0
  0
LINE
  5
C8
330
1F
100
AcDbEntity
  8
0
  6
Continuous
 62
     7
370
    15
100
AcDbLine
 10
542.1686418017
 20
201.2346844764
 30
0.0
 11
558.4077782591
 21
201.2346844764
 31
0.0
  0
LINE
  5
C9
330
1F
100
AcDbEntity
  8
0
  6
Continuous
 62
     7
370
    15
100
AcDbLine
 10
559.5966227015
 20
199.5709558593
 30
0.0
 11
560.3574461897
 21
199.8181689174
 31
0.0
  0
ARC
  5
CA
330
1F
100
AcDbEntity
  8
0
  6
Continuous
 62
     7
370
    15
100
AcDbCircle
 10
558.4077880526
 20
199.1846844646
 30
0.0
 40
1.250000000000032
100
AcDbArc
 50
18.0
 51
90.0
  0
ARC
  5
CB
330
1F
100
AcDbEntity
  8
0
  6
Continuous
 62
     7
370
    15
100
AcDbCircle
 10
558.4077880526
 20
199.1846844646
 30
0.0
 40
2.049999999999992
100
AcDbArc
 50
18.0
 51
90.0
  0
LINE
  5
CC
330
1F
100
AcDbEntity
  8
0
  6
Continuous
 62
     7
370
    15
100
AcDbLine
 10
583.9207119902
 20
124.7090214507
 30
0.0
 11
584.6815652808
 21
124.9562317149
 31
0.0
  0
LINE
  5
CD
330
1F
100
AcDbEntity
  8
0
  6
Continuous
 62
     7
370
    15
100
AcDbLine
 10
584.6815652808
 20
124.9562317149
 30
0.0
 11
560.3574461897
 21
199.8181689174
 31
0.0
  0
LINE
  5
CE
330
1F
100
AcDbEntity
  8
0
  6
Continuous
 62
     7
370
    15
100
AcDbLine
 10
583.9207119902
 20
124.7090214507
 30
0.0
 11
559.5966227015
 21
199.5709558593
 31
0.0
  0
LINE
  5
CF
330
1F
100
AcDbEntity
  8
0
  6
Continuous
 62
     7
370
    15
100
AcDbLine
 10
542.1686418017
 20
79.747010173
 30
0.0
 11
542.1686418017
 21
78.947011532
 31
0.0
  0
LINE
  5
D0
330
1F
100
AcDbEntity
  8
0
  6
Continuous
 62
     7
370
    15
100
AcDbLine
 10
542.1686418017
 20
78.947011532
 30
0.0
 11
540.1686377486
 21
78.947011532
 31
0.0
  0
LINE
  5
D1
330
1F
100
AcDbEntity
  8
0
  6
Continuous
 62
     7
370
    15
100
AcDbLine
 10
540.1686377486
 20
78.947011532
 30
0.0
 11
540.1686377486
 21
79.747010173
 31
0.0
  0
LINE
  5
D2
330
1F
100
AcDbEntity
  8
0
  6
Continuous
 62
     7
370
    15
100
AcDbLine
 10
540.1686377486
 20
79.747010173
 30
0.0
 11
542.1686418017
 21
79.747010173
 31
0.0
  0
LINE
  5
D3
330
1F
100
AcDbEntity
  8
0
  6
Continuous
 62
     7
370
    15
100
AcDbLine
 10
600.8126981219
 20
78.947011532
 30
0.0
 11
600.8126981219
 21
79.747010173
 31
0.0
  0
LINE
  5
D4
330
1F
100
AcDbEntity
  8
0
  6
Continuous
 62
     7
370
    15
100
AcDbLine
 10
542.1686418017
 20
78.947011532
 30
0.0
 11
600.8126981219
 21
78.947011532
 31
0.0
  0
LINE
  5
D5
330
1F
100
AcDbEntity
  8
0
  6
Continuous
 62
     7
370
    15
100
AcDbLine
 10
542.1686418017
 20
79.747010173
 30
0.0
 11
600.8126981219
 21
79.747010173
 31
0.0
  0
LINE
  5
D6
330
1F
100
AcDbEntity
  8
0
  6
Continuous
 62
     7
370
    15
100
AcDbLine
 10
540.1686377486
 20
200.4346849041
 30
0.0
 11
540.1686377486
 21
201.2346844764
 31
0.0
  0
LINE
  5
D7
330
1F
100
AcDbEntity
  8
0
  6
Continuous
 62
     7
370
    15
100
AcDbLine
 10
542.1686418017
 20
200.4346849041
 30
0.0
 11
540.1686377486
 21
200.4346849041
 31
0.0
  0
LINE
  5
D8
330
1F
100
AcDbEntity
  8
0
  6
Continuous
 62
     7
370
    15
100
AcDbLine
 10
540.1686377486
 20
201.2346844764
 30
0.0
 11
542.1686418017
 21
201.2346844764
 31
0.0
  0
ARC
  5
D9
330
1F
100
AcDbEntity
  8
0
  6
Continuous
 62
     7
370
    15
100
AcDbCircle
 10
594.1921360275
 20
128.0464049426
 30
0.0
 40
9.999999999999977
100
AcDbArc
 50
198.0
 51
250.0
  0
LINE
  5
DA
330
1F
100
AcDbEntity
  8
0
  6
Continuous
 62
     7
370
    15
100
AcDbLine
 10
590.7719380816
 20
118.6494791524
 30
0.0
 11
590.4983229598
 21
117.8977230208
 31
0.0
  0
ARC
  5
DB
330
1F
100
AcDbEntity
  8
0
  6
Continuous
 62
     7
370
    15
100
AcDbCircle
 10
594.1921360275
 20
128.0464049426
 30
0.0
 40
10.79999999999996
100
AcDbArc
 50
198.0
 51
250.0
  0
LINE
  5
DC
330
1F
100
AcDbEntity
  8
0
  6
Continuous
 62
     7
370
    15
100
AcDbLine
 10
609.9487192591
 20
110.8183601515
 30
0.0
 11
610.222334381
 21
111.5701162831
 31
0.0
  0
LINE
  5
DD
330
1F
100
AcDbEntity
  8
0
  6
Continuous
 62
     7
370
    15
100
AcDbLine
 10
610.222334381
 20
111.5701162831
 30
0.0
 11
590.7719380816
 21
118.6494791524
 31
0.0
  0
LINE
  5
DE
330
1F
100
AcDbEntity
  8
0
  6
Continuous
 62
     7
370
    15
100
AcDbLine
 10
609.9487192591
 20
110.8183601515
 30
0.0
 11
590.4983229598
 21
117.8977230208
 31
0.0
  0
ARC
  5
DF
330
1F
100
AcDbEntity
  8
0
  6
Continuous
 62
     7
370
    15
100
AcDbCircle
 10
606.5285098067
 20
101.4214344207
 30
0.0
 40
9.99999999999999
100
AcDbArc
 50
320.0
 51
70.0
  0
ARC
  5
E0
330
1F
100
AcDbEntity
  8
0
  6
Continuous
 62
     7
370
    15
100
AcDbCircle
 10
606.5285098067
 20
101.4214344207
 30
0.0
 40
10.80000000000001
100
AcDbArc
 50
320.0
 51
70.0
  0
LINE
  5
E1
330
1F
100
AcDbEntity
  8
0
  6
Continuous
 62
     7
370
    15
100
AcDbLine
 10
614.8017890414
 20
94.4793263094
 30
0.0
 11
614.1889638861
 21
94.9935579316
 31
0.0
  0
LINE
  5
E2
330
1F
100
AcDbEntity
  8
0
  6
Continuous
 62
     7
370
    15
100
AcDbLine
 10
601.7702467402
 20
80.1935234682
 30
0.0
 11
602.3831016978
 21
79.6792992966
 31
0.0
  0
LINE
  5
E3
330
1F
100
AcDbEntity
  8
0
  6
Continuous
 62
     7
370
    15
100
AcDbLine
 10
601.7702467402
 20
80.1935234682
 30
0.0
 11
614.1889638861
 21
94.9935579316
 31
0.0
  0
LINE
  5
E4
330
1F
100
AcDbEntity
  8
0
  6
Continuous
 62
     7
370
    15
100
AcDbLine
 10
602.3831016978
 20
79.6792992966
 30
0.0
 11
614.8017890414
 21
94.4793263094
 31
0.0
  0
ARC
  5
E5
330
1F
100
AcDbEntity
  8
0
  6
Continuous
 62
     7
370
    15
100
AcDbCircle
 10
600.8126965375
 20
80.9970099375
 30
0.0
 40
2.050000000000071
100
AcDbArc
 50
270.0
 51
320.0
  0
ARC
  5
E6
330
1F
100
AcDbEntity
  8
0
  6
Continuous
 62
     7
370
    15
100
AcDbCircle
 10
600.8126965375
 20
80.9970099375
 30
0.0
 40
1.250000000000014
100
AcDbArc
 50
270.0
 51
320.0
  0
ARC
  5
E7
330
1F
100
AcDbEntity
  8
0
  6
Continuous
 62
     7
370
    15
100
AcDbCircle
 10
561.1529706731
 20
201.4149054326
 30
0.0
 40
2.050000000000143
100
AcDbArc
 50
168.8814449897
 51
188.7082318932
  0
ARC
  5
E8
330
1F
100
AcDbEntity
  8
0
  6
Continuous
 62
     7
370
    15
100
AcDbCircle
 10
561.1529706731
 20
201.4149054326
 30
0.0
 40
1.250000000000089
100
AcDbArc
 50
161.5632746841
 51
198.0
  0
LINE
  5
E9
330
1F
100
AcDbEntity
  8
0
  6
Continuous
 62
     7
370
    15
100
AcDbLine
 10
559.9641449412
 20
201.0286340134
 30
0.0
 11
560.3574461897
 21
199.8181689174
 31
0.0
  0
ARC
  5
EA
330
1F
100
AcDbEntity
  8
0
  6
Continuous
 62
     7
370
    15
100
AcDbCircle
 10
561.265632071
 20
201.0681693031
 30
0.0
 40
1.2500000000001
100
AcDbArc
 50
143.5838254354
 51
198.0
  0
LINE
  5
EB
330
1F
100
AcDbEntity
  8
0
  6
Continuous
 62
     7
370
    15
100
AcDbLine
 10
-188.7313776056
 20
21.7889437096
 30
0.0
 11
-188.7313776056
 21
22.0104494707
 31
0.0
  0
LINE
  5
EC
330
1F
100
AcDbEntity
  8
0
  6
Continuous
 62
     7
370
    15
100
AcDbLine
 10
-188.7313776056
 20
0.0104495899
 30
0.0
 11
-188.7313776056
 21
21.7889437096
 31
0.0
  0
LINE
  5
ED
330
1F
100
AcDbEntity
  8
0
  6
Continuous
 62
     7
370
    15
100
AcDbLine
 10
-190.7313816587
 20
19.8292174952
 30
0.0
 11
-190.7313816587
 21
20.0104454176
 31
0.0
  0
LINE
  5
EE
330
1F
100
AcDbEntity
  8
0
  6
Continuous
 62
     7
370
    15
100
AcDbLine
 10
-190.7313816587
 20
2.0104387419
 30
0.0
 11
-190.7313816587
 21
19.8292174952
 31
0.0
  0
ARC
  5
EF
330
1F
100
AcDbEntity
  8
0
  6
Continuous
 62
     7
370
    15
100
AcDbCircle
 10
431.5686272367
 20
-52.9895556996
 30
0.0
 40
7.00000000000006
100
AcDbArc
 50
9.8708896061
 51
62.3395501009
  0
ARC
  5
F0
330
1F
100
AcDbEntity
  8
0
  6
Continuous
 62
     7
370
    15
100
AcDbCircle
 10
431.5686272367
 20
-52.9895556996
 30
0.0
 40
4.000000000000015
100
AcDbArc
 50
17.4576031236
 51
90.0
  0
LINE
  5
F1
330
1F
100
AcDbEntity
  8
0
  6
Continuous
 62
     7
370
    15
100
AcDbLine
 10
-192.7313857118
 20
21.7889437096
 30
0.0
 11
-192.7313857118
 21
22.0104494707
 31
0.0
  0
LINE
  5
F2
330
1F
100
AcDbEntity
  8
0
  6
Continuous
 62
     7
370
    15
100
AcDbLine
 10
-192.7313857118
 20
0.0104495899
 30
0.0
 11
-192.7313857118
 21
21.7889437096
 31
0.0
  0
LINE
  5
F3
330
1F
100
AcDbEntity
  8
0
  6
Continuous
 62
     7
370
    15
100
AcDbLine
 10
-194.7313599626
 20
19.8292174952
 30
0.0
 11
-194.7313599626
 21
20.0104454176
 31
0.0
  0
LINE
  5
F4
330
1F
100
AcDbEntity
  8
0
  6
Continuous
 62
     7
370
    15
100
AcDbLine
 10
-194.7313599626
 20
2.0104387419
 30
0.0
 11
-194.7313599626
 21
19.8292174952
 31
0.0
  0
LINE
  5
F5
330
1F
100
AcDbEntity
  8
0
  6
Continuous
 62
     7
370
    15
100
AcDbLine
 10
-43.4313766996
 20
-48.4895518406
 30
0.0
 11
-43.4313766996
 21
-46.7895677669
 31
0.0
  0
LINE
  5
F6
330
1F
100
AcDbEntity
  8
0
  6
Continuous
 62
     7
370
    15
100
AcDbLine
 10
-133.4313802759
 20
-48.4895518406
 30
0.0
 11
-133.4313802759
 21
-46.7895677669
 31
0.0
  0
LINE
  5
F7
330
1F
100
AcDbEntity
  8
0
  6
Continuous
 62
     7
370
    15
100
AcDbLine
 10
-133.4313802759
 20
-48.4895518406
 30
0.0
 11
-43.4313766996
 21
-48.4895518406
 31
0.0
  0
LINE
  5
F8
330
1F
100
AcDbEntity
  8
0
  6
Continuous
 62
     7
370
    15
100
AcDbLine
 10
-57.4717276136
 20
-111.4895454033
 30
0.0
 11
-119.3910293619
 21
-111.4895454033
 31
0.0
  0
LINE
  5
F9
330
1F
100
AcDbEntity
  8
0
  6
Continuous
 62
     7
370
    15
100
AcDbLine
 10
-132.4213795702
 20
254.1604453342
 30
0.0
 11
-132.4213795702
 21
221.2604444118
 31
0.0
  0
LINE
  5
FA
330
1F
100
AcDbEntity
  8
0
  6
Continuous
 62
     7
370
    15
100
AcDbLine
 10
-132.4213795702
 20
254.1604453342
 30
0.0
 11
536.5586228331
 21
254.1604453342
 31
0.0
  0
LINE
  5
FB
330
1F
100
AcDbEntity
  8
0
  6
Continuous
 62
     7
370
    15
100
AcDbLine
 10
536.5586228331
 20
221.2604444118
 30
0.0
 11
536.5586228331
 21
254.1604453342
 31
0.0
  0
LINE
  5
FC
330
1F
100
AcDbEntity
  8
0
  6
Continuous
 62
     7
370
    15
100
AcDbLine
 10
-132.4213795702
 20
221.2604444118
 30
0.0
 11
536.5586228331
 21
221.2604444118
 31
0.0
  0
LINE
  5
FD
330
1F
100
AcDbEntity
  8
0
  6
Continuous
 62
     7
370
    15
100
AcDbLine
 10
536.5586228331
 20
221.2604444118
 30
0.0
 11
536.5586228331
 21
218.8104443827
 31
0.0
  0
LINE
  5
FE
330
1F
100
AcDbEntity
  8
0
  6
Continuous
 62
     7
370
    15
100
AcDbLine
 10
-132.4213795702
 20
218.8104443827
 30
0.0
 11
-132.4213795702
 21
221.2604444118
 31
0.0
  0
LINE
  5
FF
330
1F
100
AcDbEntity
  8
0
  6
Continuous
 62
     7
370
    15
100
AcDbLine
 10
536.5586228331
 20
256.6104458289
 30
0.0
 11
536.5586228331
 21
254.1604453342
 31
0.0
  0
LINE
  5
100
330
1F
100
AcDbEntity
  8
0
  6
Continuous
 62
     7
370
    15
100
AcDbLine
 10
-132.4213795702
 20
254.1604453342
 30
0.0
 11
-132.4213795702
 21
256.6104458289
 31
0.0
  0
LINE
  5
101
330
1F
100
AcDbEntity
  8
0
  6
Continuous
 62
     7
370
    15
100
AcDbLine
 10
-132.4213795702
 20
256.6104458289
 30
0.0
 11
536.5586228331
 21
256.6104458289
 31
0.0
  0
LINE
  5
102
330
1F
100
AcDbEntity
  8
0
  6
Continuous
 62
     7
370
    15
100
AcDbLine
 10
-166.2313692609
 20
264.3604429083
 30
0.0
 11
-167.4313597719
 21
264.3604429083
 31
0.0
  0
ARC
  5
103
330
1F
100
AcDbEntity
  8
0
  6
Continuous
 62
     7
370
    15
100
AcDbCircle
 10
-164.9813727633
 20
264.3604443004
 30
0.0
 40
2.44999999999996
100
AcDbArc
 50
113.3114456814
 51
180.0
  0
LINE
  5
104
330
1F
100
AcDbEntity
  8
0
  6
Continuous
 62
     7
370
    15
100
AcDbLine
 10
-167.4313597719
 20
264.3604429083
 30
0.0
 11
-167.4313597719
 21
218.8104443827
 31
0.0
  0
LINE
  5
105
330
1F
100
AcDbEntity
  8
0
  6
Continuous
 62
     7
370
    15
100
AcDbLine
 10
-166.2313692609
 20
219.1533135825
 30
0.0
 11
-166.2313692609
 21
218.8104443827
 31
0.0
  0
LINE
  5
106
330
1F
100
AcDbEntity
  8
0
  6
Continuous
 62
     7
370
    15
100
AcDbLine
 10
-167.4313597719
 20
218.8104443827
 30
0.0
 11
-166.2313692609
 21
218.8104443827
 31
0.0
  0
ARC
  5
107
330
1F
100
AcDbEntity
  8
0
  6
Continuous
 62
     7
370
    15
100
AcDbCircle
 10
-134.8813727633
 20
264.3604443004
 30
0.0
 40
2.449999999999933
100
AcDbArc
 50
0.0
 51
66.6885543186
  0
LINE
  5
108
330
1F
100
AcDbEntity
  8
0
  6
Continuous
 62
     7
370
    15
100
AcDbLine
 10
561.9748778304
 20
202.0850341411
 30
0.0
 11
562.06932139
 21
201.8678627552
 31
0.0
  0
LINE
  5
109
330
1F
100
AcDbEntity
  8
0
  6
Continuous
 62
     7
370
    15
100
AcDbLine
 10
562.06932139
 20
201.8678627552
 30
0.0
 11
585.2404184302
 21
211.9429445644
 31
0.0
  0
LINE
  5
10A
330
1F
100
AcDbEntity
  8
0
  6
Continuous
 62
     7
370
    15
100
AcDbLine
 10
537.1793754061
 20
255.4104441421
 30
0.0
 11
537.0186216792
 21
255.4104441421
 31
0.0
  0
LINE
  5
10B
330
1F
100
AcDbEntity
  8
0
  6
Continuous
 62
     7
370
    15
100
AcDbLine
 10
575.9495444258
 20
256.6104458289
 30
0.0
 11
537.0186216792
 21
256.6104458289
 31
0.0
  0
LINE
  5
10C
330
1F
100
AcDbEntity
  8
0
  6
Continuous
 62
     7
370
    15
100
AcDbLine
 10
537.0186216792
 20
256.6104458289
 30
0.0
 11
537.0186216792
 21
255.4104441421
 31
0.0
  0
ARC
  5
10D
330
1F
100
AcDbEntity
  8
0
  6
Continuous
 62
     7
370
    15
100
AcDbCircle
 10
575.9495575658
 20
233.3104443004
 30
0.0
 40
23.30000000000004
100
AcDbArc
 50
293.5
 51
90.0
  0
LWPOLYLINE
  5
10E
330
1F
100
AcDbEntity
  8
0
  6
Continuous
 62
     7
370
    15
100
AcDbPolyline
 90
        3
 70
   128
 43
0.0
 10
537.0186216792
 20
255.4104441421
 10
536.7747790774
 20
255.3864271955
 10
536.5586228331
 20
255.3227247314
  0
LINE
  5
10F
330
1F
100
AcDbEntity
  8
0
  6
Continuous
 62
     7
370
    15
100
AcDbLine
 10
537.0186216792
 20
256.6104458289
 30
0.0
 11
536.5586228331
 21
256.5668748335
 31
0.0
  0
LINE
  5
110
330
1F
100
AcDbEntity
  8
0
  6
Continuous
 62
     7
370
    15
100
AcDbLine
 10
-132.4213795702
 20
239.3026465194
 30
0.0
 11
-132.4313633482
 21
239.4604442285
 31
0.0
  0
SPLINE
  5
111
330
1F
100
AcDbEntity
  8
0
  6
Continuous
 62
     7
370
    15
100
AcDbSpline
210
0.0
220
0.0
230
1.0
 70
     8
 71
     3
 72
    24
 73
    20
 74
     0
 42
0.00000001
 43
0.00000001
 40
0.0
 40
0.0
 40
0.0
 40
0.0
 40
0.0644512564079551
 40
0.1250748349618298
 40
0.1818723400885764
 40
0.2348457697409592
 40
0.2839976347069084
 40
0.3293311279772425
 40
0.3708503715759628
 40
0.408560787421501
 40
0.4424696748697147
 40
0.4725871493092095
 40
0.4989277482530396
 40
0.5714944947878869
 40
0.647786523457439
 40
0.7283531857573008
 40
0.8136604203297753
 40
0.9041000269768766
 40
1.0
 40
1.0
 40
1.0
 40
1.0
 10
-165.3813727632654
 20
-44.73955569957602
 30
0.0
 10
-165.4177049638757
 20
-44.77521556622607
 30
0.0
 10
-165.4882116420753
 20
-44.84441750556126
 30
0.0
 10
-165.5905963748164
 20
-44.94440408398345
 30
0.0
 10
-165.6857063832989
 20
-45.03755406727925
 30
0.0
 10
-165.7732917836346
 20
-45.12382992429556
 30
0.0
 10
-165.8532423899181
 20
-45.20324182956389
 30
0.0
 10
-165.9256116836125
 20
-45.27578872373319
 30
0.0
 10
-165.9905703363021
 20
-45.34147306297995
 30
0.0
 10
-166.0483807609014
 20
-45.40029655308506
 30
0.0
 10
-166.0993659778034
 20
-45.45226502811497
 30
0.0
 10
-166.1438961562027
 20
-45.49737762532732
 30
0.0
 10
-166.2066409416538
 20
-45.5598735307148
 30
0.0
 10
-166.2908970005792
 20
-45.63730931130558
 30
0.0
 10
-166.393417816343
 20
-45.72471439891731
 30
0.0
 10
-166.4874192139427
 20
-45.80324513364051
 30
0.0
 10
-166.5647000608404
 20
-45.87268400045294
 30
0.0
 10
-166.620133380777
 20
-45.93395533941749
 30
0.0
 10
-166.627553821281
 20
-45.9659952425823
 30
0.0
 10
-166.6313727632653
 20
-45.98248463176416
 30
0.0
  0
LINE
  5
112
330
1F
100
AcDbEntity
  8
0
  6
Continuous
 62
     7
370
    15
100
AcDbLine
 10
-167.4313597719
 20
-45.9824910744
 30
0.0
 11
-166.631376032
 21
-45.9824910744
 31
0.0
  0
SPLINE
  5
113
330
1F
100
AcDbEntity
  8
0
  6
Continuous
 62
     7
370
    15
100
AcDbSpline
210
0.0
220
0.0
230
1.0
 70
     8
 71
     3
 72
    32
 73
    28
 74
     0
 42
0.00000001
 43
0.00000001
 40
0.0
 40
0.0
 40
0.0
 40
0.0
 40
0.125
 40
0.125
 40
0.25
 40
0.25
 40
0.375
 40
0.375
 40
0.4375
 40
0.4375
 40
0.46875
 40
0.46875
 40
0.484375
 40
0.484375
 40
0.4921875
 40
0.4921875
 40
0.49609375
 40
0.49609375
 40
0.498046875
 40
0.498046875
 40
0.5
 40
0.5
 40
0.625
 40
0.625
 40
0.75
 40
0.75
 40
1.0
 40
1.0
 40
1.0
 40
1.0
 10
-165.3813727632654
 20
-44.73955569957597
 30
0.0
 10
-165.5499779764725
 20
-44.84071450648838
 30
0.0
 10
-165.7057337620876
 20
-44.93310890722766
 30
0.0
 10
-165.9859049567479
 20
-45.10068430394051
 30
0.0
 10
-166.1103312712877
 20
-45.17581273198398
 30
0.0
 10
-166.327797188502
 20
-45.30875104744489
 30
0.0
 10
-166.4209218604389
 20
-45.36656093486238
 30
0.0
 10
-166.5396314286097
 20
-45.44028686051912
 30
0.0
 10
-166.5757227120912
 20
-45.46269735149313
 30
0.0
 10
-166.6250420342141
 20
-45.49306586158677
 30
0.0
 10
-166.6406792045339
 20
-45.50264749389007
 30
0.0
 10
-166.6629824878588
 20
-45.51620813575322
 30
0.0
 10
-166.6702248382747
 20
-45.52059304860903
 30
0.0
 10
-166.6808066459839
 20
-45.52696746624471
 30
0.0
 10
-166.6842869617875
 20
-45.52905844684849
 30
0.0
 10
-166.6894377998304
 20
-45.53214417984233
 30
0.0
 10
-166.6911431398575
 20
-45.53316430118834
 30
0.0
 10
-166.6936838397996
 20
-45.53468179872925
 30
0.0
 10
-166.6945278547607
 20
-45.53518551716321
 30
0.0
 10
-166.6962101310843
 20
-45.53618872587187
 30
0.0
 10
-166.6965618970119
 20
-45.53639856646666
 30
0.0
 10
-166.7824846303
 20
-45.58755524832866
 30
0.0
 10
-166.8689397878489
 20
-45.63460955364032
 30
0.0
 10
-167.0357091477156
 20
-45.72208746291276
 30
0.0
 10
-167.116018764758
 20
-45.76251106687354
 30
0.0
 10
-167.3280910984575
 20
-45.87383582672918
 30
0.0
 10
-167.4313727632654
 20
-45.93456922422975
 30
0.0
 10
-167.4313727632654
 20
-45.98248463176416
 30
0.0
  0
LINE
  5
114
330
1F
100
AcDbEntity
  8
0
  6
Continuous
 62
     7
370
    15
100
AcDbLine
 10
539.361561056
 20
-46.7895677669
 30
0.0
 11
-166.6243128816
 21
-46.7895677669
 31
0.0
  0
SPLINE
  5
115
330
1F
100
AcDbEntity
  8
0
  6
Continuous
 62
     7
370
    15
100
AcDbSpline
210
0.0
220
0.0
230
1.0
 70
     8
 71
     3
 72
    12
 73
     8
 74
     0
 42
0.00000001
 43
0.00000001
 40
0.0
 40
0.0
 40
0.0
 40
0.0
 40
0.2301762522613445
 40
0.4604250144524044
 40
0.6906776721251167
 40
0.920929364752776
 40
1.0
 40
1.0
 40
1.0
 40
1.0
 10
-166.6243128816181
 20
-46.78956776694029
 30
0.0
 10
-166.5289186487724
 20
-46.7634953641918
 30
0.0
 10
-166.3381001320699
 20
-46.71134234538835
 30
0.0
 10
-166.0518016767958
 20
-46.30656769229977
 30
0.0
 10
-165.7656926301396
 20
-45.71858931541586
 30
0.0
 10
-165.5415767662321
 20
-45.1545518353029
 30
0.0
 10
-165.4139913051227
 20
-44.82404209284699
 30
0.0
 10
-165.3813772241169
 20
-44.7395554168579
 30
0.0
  0
LINE
  5
116
330
1F
100
AcDbEntity
  8
0
  6
Continuous
 62
     7
370
    15
100
AcDbLine
 10
-165.3813772241
 20
-44.7395554169
 30
0.0
 11
538.1186253985
 21
-44.7395554169
 31
0.0
  0
SPLINE
  5
117
330
1F
100
AcDbEntity
  8
0
  6
Continuous
 62
     7
370
    15
100
AcDbSpline
210
0.0
220
0.0
230
1.0
 70
     8
 71
     3
 72
    12
 73
     8
 74
     0
 42
0.00000001
 43
0.00000001
 40
0.0
 40
0.0
 40
0.0
 40
0.0
 40
0.2353734045916236
 40
0.5035772641402402
 40
0.7398011841392245
 40
0.9425265395866068
 40
0.9999999999999999
 40
0.9999999999999999
 40
0.9999999999999999
 40
0.9999999999999999
 10
538.1186253984876
 20
-44.7395554168579
 30
0.0
 10
538.2602992978038
 20
-44.9732601820528
 30
0.0
 10
538.5634081164983
 20
-45.47326742151817
 30
0.0
 10
538.974160000959
 20
-46.14279291676529
 30
0.0
 10
539.2298222481677
 20
-46.61902918006042
 30
0.0
 10
539.3312135026935
 20
-46.77847281346772
 30
0.0
 10
539.3560705582865
 20
-46.78756046124569
 30
0.0
 10
539.3615610559888
 20
-46.78956776694029
 30
0.0
  0
LINE
  5
118
330
1F
100
AcDbEntity
  8
0
  6
Continuous
 62
     7
370
    15
100
AcDbLine
 10
-167.4313597719
 20
218.0033732781
 30
0.0
 11
-167.4313597719
 21
-45.9824910744
 31
0.0
  0
SPLINE
  5
119
330
1F
100
AcDbEntity
  8
0
  6
Continuous
 62
     7
370
    15
100
AcDbSpline
210
0.0
220
0.0
230
1.0
 70
     8
 71
     3
 72
    12
 73
     8
 74
     0
 42
0.00000001
 43
0.00000001
 40
0.0
 40
0.0
 40
0.0
 40
0.0
 40
0.1874014378054981
 40
0.3754444837690725
 40
0.5704502914388807
 40
0.7798276459804269
 40
1.0
 40
1.0
 40
1.0
 40
1.0
 10
-167.4313597718769
 20
218.0033732780758
 30
0.0
 10
-167.4110348975562
 20
217.9804063815473
 30
0.0
 10
-167.3703155624416
 20
217.9343939564993
 30
0.0
 10
-167.0590837452832
 20
217.7628692393571
 30
0.0
 10
-166.6010321975041
 20
217.5077682219004
 30
0.0
 10
-166.0279447763052
 20
217.1510276122793
 30
0.0
 10
-165.6004806041568
 20
216.8928017855437
 30
0.0
 10
-165.3813772241169
 20
216.7604441398326
 30
0.0
  0
LINE
  5
11A
330
1F
100
AcDbEntity
  8
0
  6
Continuous
 62
     7
370
    15
100
AcDbLine
 10
-165.3813772241
 20
216.7604441398
 30
0.0
 11
-165.3813772241
 21
-44.7395554169
 31
0.0
  0
SPLINE
  5
11B
330
1F
100
AcDbEntity
  8
0
  6
Continuous
 62
     7
370
    15
100
AcDbSpline
210
0.0
220
0.0
230
1.0
 70
     8
 71
     3
 72
    11
 73
     7
 74
     0
 42
0.00000001
 43
0.00000001
 40
0.0
 40
0.0
 40
0.0
 40
0.0
 40
0.2543170507200838
 40
0.5087733383927819
 40
0.7632519152367461
 40
1.0
 40
1.0
 40
1.0
 40
1.0
 10
-166.6243128816181
 20
-45.989554224765
 30
0.0
 10
-166.5189310618279
 20
-45.97010064021731
 30
0.0
 10
-166.3081097263775
 20
-45.93118282040928
 30
0.0
 10
-165.9918541898698
 20
-45.63218051567472
 30
0.0
 10
-165.6827879665038
 20
-45.21624479873146
 30
0.0
 10
-165.479400426629
 20
-44.89458180856751
 30
0.0
 10
-165.3813772241169
 20
-44.7395554168579
 30
0.0
  0
LINE
  5
11C
330
1F
100
AcDbEntity
  8
0
  6
Continuous
 62
     7
370
    15
100
AcDbLine
 10
-166.6243128816
 20
-46.7895677669
 30
0.0
 11
-166.6243128816
 21
-45.9895542248
 31
0.0
  0
LINE
  5
11D
330
1F
100
AcDbEntity
  8
0
  6
Continuous
 62
     7
370
    15
100
AcDbLine
 10
538.1186253985
 20
216.7604441398
 30
0.0
 11
-165.3813772241
 21
216.7604441398
 31
0.0
  0
LINE
  5
11E
330
1F
100
AcDbEntity
  8
0
  6
Continuous
 62
     7
370
    15
100
AcDbLine
 10
538.1186253985
 20
-44.7395554169
 30
0.0
 11
538.1186253985
 21
216.7604441398
 31
0.0
  0
LINE
  5
11F
330
1F
100
AcDbEntity
  8
0
  6
Continuous
 62
     7
370
    15
100
AcDbLine
 10
539.968634363
 20
-45.9824910744
 30
0.0
 11
539.3686242064
 21
-45.9824910744
 31
0.0
  0
SPLINE
  5
120
330
1F
100
AcDbEntity
  8
0
  6
Continuous
 62
     7
370
    15
100
AcDbSpline
210
0.0
220
0.0
230
1.0
 70
     8
 71
     3
 72
    14
 73
    10
 74
     0
 42
0.00000001
 43
0.00000001
 40
0.0
 40
0.0
 40
0.0
 40
0.0
 40
0.25
 40
0.25
 40
0.5
 40
0.5
 40
0.75
 40
0.75
 40
1.0
 40
1.0
 40
1.0
 40
1.0
 10
539.3686272367346
 20
-45.98248463176199
 30
0.0
 10
539.3686272367346
 20
-45.87890722074625
 30
0.0
 10
539.3360930825702
 20
-45.77532980973068
 30
0.0
 10
539.2108602221773
 20
-45.5681749876993
 30
0.0
 10
539.1182107897323
 20
-45.46459757668362
 30
0.0
 10
538.8868106367033
 20
-45.2574427546523
 30
0.0
 10
538.7481509621983
 20
-45.1538653436366
 30
0.0
 10
538.4458120921838
 20
-44.94671052160529
 30
0.0
 10
538.2822518541091
 20
-44.8431331105896
 30
0.0
 10
538.1186272367346
 20
-44.73955569957391
 30
0.0
  0
SPLINE
  5
121
330
1F
100
AcDbEntity
  8
0
  6
Continuous
 62
     7
370
    15
100
AcDbSpline
210
0.0
220
0.0
230
1.0
 70
     8
 71
     3
 72
    11
 73
     7
 74
     0
 42
0.00000001
 43
0.00000001
 40
0.0
 40
0.0
 40
0.0
 40
0.0
 40
0.0628944145500484
 40
0.3752580719462905
 40
0.6876312759486697
 40
1.0
 40
1.0
 40
1.0
 40
1.0
 10
540.0440044363446
 20
-45.73432713583678
 30
0.0
 10
540.0350364478153
 20
-45.71346478616042
 30
0.0
 10
539.9815291513596
 20
-45.58899005860575
 30
0.0
 10
539.5894355096178
 20
-45.36104147167283
 30
0.0
 10
538.9277018396323
 20
-45.05026423117616
 30
0.0
 10
538.3883162562455
 20
-44.84312452650588
 30
0.0
 10
538.1186253984876
 20
-44.7395554168579
 30
0.0
  0
SPLINE
  5
122
330
1F
100
AcDbEntity
  8
0
  6
Continuous
 62
     7
370
    15
100
AcDbSpline
210
0.0
220
0.0
230
1.0
 70
     8
 71
     3
 72
    12
 73
     8
 74
     0
 42
0.00000001
 43
0.00000001
 40
0.0
 40
0.0
 40
0.0
 40
0.0
 40
0.3486214239796483
 40
0.5715518301102189
 40
0.7575518590857101
 40
0.9445028428141574
 40
0.9999999999999999
 40
0.9999999999999999
 40
0.9999999999999999
 40
0.9999999999999999
 10
538.1186253984876
 20
-44.7395554168579
 30
0.0
 10
538.3145554636721
 20
-44.93464007838929
 30
0.0
 10
538.6357755024507
 20
-45.25447410939018
 30
0.0
 10
539.0124822672907
 20
-45.64029026887908
 30
0.0
 10
539.2310482498643
 20
-45.88564781549884
 30
0.0
 10
539.329697890512
 20
-45.98204258381469
 30
0.0
 10
539.3556260232355
 20
-45.98815505947798
 30
0.0
 10
539.3615610559888
 20
-45.98955422476506
 30
0.0
  0
LINE
  5
123
330
1F
100
AcDbEntity
  8
0
  6
Continuous
 62
     7
370
    15
100
AcDbLine
 10
539.361561056
 20
-46.7895677669
 30
0.0
 11
539.361561056
 21
-45.9895542248
 31
0.0
  0
SPLINE
  5
124
330
1F
100
AcDbEntity
  8
0
  6
Continuous
 62
     7
370
    15
100
AcDbSpline
210
0.0
220
0.0
230
1.0
 70
     8
 71
     3
 72
    12
 73
     8
 74
     0
 42
0.00000001
 43
0.00000001
 40
0.0
 40
0.0
 40
0.0
 40
0.0
 40
0.230166013812602
 40
0.460416808029955
 40
0.6906702036179055
 40
0.9209212773333151
 40
1.0
 40
1.0
 40
1.0
 40
1.0
 10
538.1186253984876
 20
216.7604441398326
 30
0.0
 10
538.3657026382124
 20
216.8558337396185
 30
0.0
 10
538.8599481272254
 20
217.046648075433
 30
0.0
 10
539.5060854002547
 20
217.332941844775
 30
0.0
 10
539.9700263635527
 20
217.6190497442034
 30
0.0
 10
540.152840315196
 20
217.843181055912
 30
0.0
 10
540.1654214420489
 20
217.9707586579308
 30
0.0
 10
540.16863774857
 20
218.0033732780758
 30
0.0
  0
LINE
  5
125
330
1F
100
AcDbEntity
  8
0
  6
Continuous
 62
     7
370
    15
100
AcDbLine
 10
540.1686377486
 20
77.6399412768
 30
0.0
 11
540.1686377486
 21
78.947011532
 31
0.0
  0
LINE
  5
126
330
1F
100
AcDbEntity
  8
0
  6
Continuous
 62
     7
370
    15
100
AcDbLine
 10
540.1686377486
 20
79.747010173
 30
0.0
 11
540.1686377486
 21
80.7470121996
 31
0.0
  0
LINE
  5
127
330
1F
100
AcDbEntity
  8
0
  6
Continuous
 62
     7
370
    15
100
AcDbLine
 10
540.1686377486
 20
199.4346847402
 30
0.0
 11
540.1686377486
 21
200.4346849041
 31
0.0
  0
LINE
  5
128
330
1F
100
AcDbEntity
  8
0
  6
Continuous
 62
     7
370
    15
100
AcDbLine
 10
540.1686377486
 20
201.2346844764
 30
0.0
 11
540.1686377486
 21
218.0033732781
 31
0.0
  0
SPLINE
  5
129
330
1F
100
AcDbEntity
  8
0
  6
Continuous
 62
     7
370
    15
100
AcDbSpline
210
0.0
220
0.0
230
1.0
 70
     8
 71
     3
 72
    32
 73
    28
 74
     0
 42
0.00000001
 43
0.00000001
 40
0.0
 40
0.0
 40
0.0
 40
0.0
 40
0.25
 40
0.25
 40
0.375
 40
0.375
 40
0.4375
 40
0.4375
 40
0.46875
 40
0.46875
 40
0.484375
 40
0.484375
 40
0.4921875
 40
0.4921875
 40
0.49609375
 40
0.49609375
 40
0.498046875
 40
0.498046875
 40
0.5
 40
0.5
 40
0.625
 40
0.625
 40
0.75
 40
0.75
 40
0.875
 40
0.875
 40
1.0
 40
1.0
 40
1.0
 40
1.0
 10
539.3615561689212
 20
218.8104443004262
 30
0.0
 10
539.3208816655552
 20
218.8104443004262
 30
0.0
 10
539.2639194119021
 20
218.7180625354071
 30
0.0
 10
539.1534019249921
 20
218.5131971276949
 30
0.0
 10
539.112419438339
 20
218.4338940390889
 30
0.0
 10
539.0447307218352
 20
218.3064841844341
 30
0.0
 10
539.0211319852468
 20
218.2625918210142
 30
0.0
 10
538.9841801337328
 20
218.1954931482381
 30
0.0
 10
538.9716038921229
 20
218.1729158846593
 30
0.0
 10
538.9523510930503
 20
218.1388332441355
 30
0.0
 10
538.9458687539166
 20
218.1274361736028
 30
0.0
 10
538.9360481360515
 20
218.110298160726
 30
0.0
 10
538.9327584119025
 20
218.104578417752
 30
0.0
 10
538.9277995483876
 20
218.0959896425215
 30
0.0
 10
538.9261425476674
 20
218.0931251903888
 30
0.0
 10
538.9236509772644
 20
218.088826400164
 30
0.0
 10
538.9228194422432
 20
218.0873931180684
 30
0.0
 10
538.9211543490927
 20
218.0845258793998
 30
0.0
 10
538.9199313384765
 20
218.0824226155514
 30
0.0
 10
538.8909987207451
 20
218.0326994472782
 30
0.0
 10
538.8529485331651
 20
217.9711938822634
 30
0.0
 10
538.7577227839174
 20
217.8181945982929
 30
0.0
 10
538.7005472222494
 20
217.7266257616546
 30
0.0
 10
538.5670707248248
 20
217.5092758257427
 30
0.0
 10
538.4907697890683
 20
217.3833877650628
 30
0.0
 10
538.3190425434668
 20
217.096666243869
 30
0.0
 10
538.2236791090319
 20
216.9358091577281
 30
0.0
 10
538.1186272367332
 20
216.7604443004259
 30
0.0
  0
SPLINE
  5
12A
330
1F
100
AcDbEntity
  8
0
  6
Continuous
 62
     7
370
    15
100
AcDbSpline
210
0.0
220
0.0
230
1.0
 70
     8
 71
     3
 72
    14
 73
    10
 74
     0
 42
0.00000001
 43
0.00000001
 40
0.0
 40
0.0
 40
0.0
 40
0.0
 40
0.25
 40
0.25
 40
0.5
 40
0.5
 40
0.75
 40
0.75
 40
1.0
 40
1.0
 40
1.0
 40
1.0
 10
-165.3813727632664
 20
216.760444300424
 30
0.0
 10
-165.4849664275063
 20
217.0288307811462
 30
0.0
 10
-165.5885275852978
 20
217.2970274633605
 30
0.0
 10
-165.7956824073292
 20
217.7928632101844
 30
0.0
 10
-165.8992598183448
 20
218.0202650763727
 30
0.0
 10
-166.1064146403762
 20
218.3997613273404
 30
0.0
 10
-166.2099920513918
 20
218.5517063965504
 30
0.0
 10
-166.4171468734232
 20
218.7570882875942
 30
0.0
 10
-166.5207080312147
 20
218.8104443004241
 30
0.0
 10
-166.6243016954546
 20
218.8104443004241
 30
0.0
  0
LINE
  5
12B
330
1F
100
AcDbEntity
  8
0
  6
Continuous
 62
     7
370
    15
100
AcDbLine
 10
539.361561056
 20
218.8104443827
 30
0.0
 11
-166.2313692609
 21
218.8104443827
 31
0.0
  0
SPLINE
  5
12C
330
1F
100
AcDbEntity
  8
0
  6
Continuous
 62
     7
370
    15
100
AcDbSpline
210
0.0
220
0.0
230
1.0
 70
     8
 71
     3
 72
    14
 73
    10
 74
     0
 42
0.00000001
 43
0.00000001
 40
0.0
 40
0.0
 40
0.0
 40
0.0
 40
0.25
 40
0.25
 40
0.5
 40
0.5
 40
0.75
 40
0.75
 40
1.0
 40
1.0
 40
1.0
 40
1.0
 10
-165.3813727632664
 20
216.760444300424
 30
0.0
 10
-165.484950174282
 20
216.9240689177985
 30
0.0
 10
-165.5885275852978
 20
217.0876291558731
 30
0.0
 10
-165.795682407329
 20
217.3899680258877
 30
0.0
 10
-165.8992598183448
 20
217.5286277003927
 30
0.0
 10
-166.1064146403762
 20
217.7600278534218
 30
0.0
 10
-166.2099920513918
 20
217.8526772858669
 30
0.0
 10
-166.4171468734231
 20
217.9779101462595
 30
0.0
 10
-166.5207242844389
 20
218.0104443004241
 30
0.0
 10
-166.6243016954545
 20
218.0104443004241
 30
0.0
  0
LINE
  5
12D
330
1F
100
AcDbEntity
  8
0
  6
Continuous
 62
     7
370
    15
100
AcDbLine
 10
-166.6243128816
 20
218.0104443447
 30
0.0
 11
-166.6243128816
 21
218.8104443827
 31
0.0
  0
LWPOLYLINE
  5
12E
330
1F
100
AcDbEntity
  8
0
  6
Continuous
 62
     7
370
    15
100
AcDbPolyline
 90
        2
 70
   128
 43
0.0
 10
-165.3813772241
 20
216.7604441398
 10
-165.3813772241
 20
216.7604441398
  0
SPLINE
  5
12F
330
1F
100
AcDbEntity
  8
0
  6
Continuous
 62
     7
370
    15
100
AcDbSpline
210
0.0
220
0.0
230
1.0
 70
     8
 71
     3
 72
    12
 73
     8
 74
     0
 42
0.00000001
 43
0.00000001
 40
0.0
 40
0.0
 40
0.0
 40
0.0
 40
0.1739925108940684
 40
0.3321098246148066
 40
0.5068961763847207
 40
0.7762297250479421
 40
1.0
 40
1.0
 40
1.0
 40
1.0
 10
-166.631376032024
 20
218.0033732780758
 30
0.0
 10
-166.6181068739388
 20
217.9794432950833
 30
0.0
 10
-166.59277924494
 20
217.9337667173167
 30
0.0
 10
-166.4156941287989
 20
217.7729426295588
 30
0.0
 10
-166.1373531836575
 20
217.5199072350522
 30
0.0
 10
-165.7830672600295
 20
217.1585098895089
 30
0.0
 10
-165.5067636622116
 20
216.8846992669631
 30
0.0
 10
-165.3813772241169
 20
216.7604441398326
 30
0.0
  0
LINE
  5
130
330
1F
100
AcDbEntity
  8
0
  6
Continuous
 62
     7
370
    15
100
AcDbLine
 10
-167.4313597719
 20
218.0033732781
 30
0.0
 11
-166.631376032
 21
218.0033732781
 31
0.0
  0
SPLINE
  5
131
330
1F
100
AcDbEntity
  8
0
  6
Continuous
 62
     7
370
    15
100
AcDbSpline
210
0.0
220
0.0
230
1.0
 70
     8
 71
     3
 72
    11
 73
     7
 74
     0
 42
0.00000001
 43
0.00000001
 40
0.0
 40
0.0
 40
0.0
 40
0.0
 40
0.2543058726337893
 40
0.5087714046136685
 40
0.7632529368898407
 40
1.0
 40
1.0
 40
1.0
 40
1.0
 10
538.1186253984876
 20
216.7604441398326
 30
0.0
 10
538.2852611470952
 20
216.8658189451161
 30
0.0
 10
538.618637262243
 20
217.0766347125215
 30
0.0
 10
539.0366082280008
 20
217.3929148099003
 30
0.0
 10
539.3167365790529
 20
217.7019674370114
 30
0.0
 10
539.3517496814821
 20
217.9053522153611
 30
0.0
 10
539.3686242063947
 20
218.0033732780758
 30
0.0
  0
LINE
  5
132
330
1F
100
AcDbEntity
  8
0
  6
Continuous
 62
     7
370
    15
100
AcDbLine
 10
539.3686242064
 20
218.0033732781
 30
0.0
 11
540.1686377486
 21
218.0033732781
 31
0.0
  0
LWPOLYLINE
  5
133
330
1F
100
AcDbEntity
  8
0
  6
Continuous
 62
     7
370
    15
100
AcDbPolyline
 90
        2
 70
   128
 43
0.0
 10
538.1186253985
 20
216.7604441398
 10
538.1186253985
 20
216.7604441398
  0
LINE
  5
134
330
1F
100
AcDbEntity
  8
0
  6
Continuous
 62
     7
370
    15
100
AcDbLine
 10
539.361561056
 20
218.8104443827
 30
0.0
 11
539.361561056
 21
218.0104443447
 31
0.0
  0
SPLINE
  5
135
330
1F
100
AcDbEntity
  8
0
  6
Continuous
 62
     7
370
    15
100
AcDbSpline
210
0.0
220
0.0
230
1.0
 70
     8
 71
     3
 72
    24
 73
    20
 74
     0
 42
0.00000001
 43
0.00000001
 40
0.0
 40
0.0
 40
0.0
 40
0.0
 40
0.0459084819137735
 40
0.0908676285697902
 40
0.1349219452764334
 40
0.1781187407982105
 40
0.2205082016902246
 40
0.2621434405670308
 40
0.3030805121973489
 40
0.3433783912463553
 40
0.3830989057910142
 40
0.4223066214818076
 40
0.4610686724855561
 40
0.4994545371301093
 40
0.5585300488469763
 40
0.6380531470530041
 40
0.7381162600158501
 40
0.8587594596871013
 40
0.9999999999999999
 40
0.9999999999999999
 40
0.9999999999999999
 40
0.9999999999999999
 10
539.3615561689213
 20
218.0104443004261
 30
0.0
 10
539.3545715735823
 20
218.0095635099499
 30
0.0
 10
539.340746816402
 20
218.0078201427438
 30
0.0
 10
539.3161872272567
 20
217.9941368465974
 30
0.0
 10
539.2890790647168
 20
217.9733051033126
 30
0.0
 10
539.2591486715786
 20
217.9453499743635
 30
0.0
 10
539.2264664171403
 20
217.9113070455745
 30
0.0
 10
539.1910133314411
 20
217.8719391637289
 30
0.0
 10
539.1527932095538
 20
217.8280571052353
 30
0.0
 10
539.111805757267
 20
217.7804234377818
 30
0.0
 10
539.068045205271
 20
217.729773795318
 30
0.0
 10
539.0215314785154
 20
217.6767851423334
 30
0.0
 10
538.9721893772929
 20
217.6221490643388
 30
0.0
 10
538.9108389068489
 20
217.5561143919064
 30
0.0
 10
538.8232805677893
 20
217.4693659002129
 30
0.0
 10
538.6991372754803
 20
217.3483498788147
 30
0.0
 10
538.5385635664169
 20
217.1888630756547
 30
0.0
 10
538.3414900545027
 20
216.9884115663143
 30
0.0
 10
538.1967105136181
 20
216.8403159960331
 30
0.0
 10
538.1186272367333
 20
216.760444300426
 30
0.0
  0
LINE
  5
136
330
1F
100
AcDbEntity
  8
0
  6
Continuous
 62
     7
370
    15
100
AcDbLine
 10
-132.4313633482
 20
226.810444297
 30
0.0
 11
-132.4213795702
 21
226.810444297
 31
0.0
  0
LINE
  5
137
330
1F
100
AcDbEntity
  8
0
  6
Continuous
 62
     7
370
    15
100
AcDbLine
 10
540.9343190154
 20
-45.9895542248
 30
0.0
 11
540.9794099291
 21
-45.9895542248
 31
0.0
  0
LINE
  5
138
330
1F
100
AcDbEntity
  8
0
  6
Continuous
 62
     7
370
    15
100
AcDbLine
 10
597.6152963599
 20
-44.8905041798
 30
0.0
 11
597.6950473746
 21
-44.8030045612
 31
0.0
  0
LINE
  5
139
330
1F
100
AcDbEntity
  8
0
  6
Continuous
 62
     7
370
    15
100
AcDbLine
 10
-196.7313640157
 20
21.7889437096
 30
0.0
 11
-196.7313640157
 21
22.0104494707
 31
0.0
  0
LINE
  5
13A
330
1F
100
AcDbEntity
  8
0
  6
Continuous
 62
     7
370
    15
100
AcDbLine
 10
-196.7313640157
 20
0.0104495899
 30
0.0
 11
-196.7313640157
 21
21.7889437096
 31
0.0
  0
LINE
  5
13B
330
1F
100
AcDbEntity
  8
0
  6
Continuous
 62
     7
370
    15
100
AcDbLine
 10
-198.7313680688
 20
19.8292174952
 30
0.0
 11
-198.7313680688
 21
20.0104454176
 31
0.0
  0
LINE
  5
13C
330
1F
100
AcDbEntity
  8
0
  6
Continuous
 62
     7
370
    15
100
AcDbLine
 10
-198.7313680688
 20
2.0104387419
 30
0.0
 11
-198.7313680688
 21
19.8292174952
 31
0.0
  0
LINE
  5
13D
330
1F
100
AcDbEntity
  8
0
  6
Continuous
 62
     7
370
    15
100
AcDbLine
 10
431.5686322411
 20
-95.5395510776
 30
0.0
 11
431.5686322411
 21
-46.7895677669
 31
0.0
  0
LINE
  5
13E
330
1F
100
AcDbEntity
  8
0
  6
Continuous
 62
     7
370
    15
100
AcDbLine
 10
431.0508615931
 20
-97.9895701988
 30
0.0
 11
-56.5313749353
 21
-97.9895701988
 31
0.0
  0
LINE
  5
13F
330
1F
100
AcDbEntity
  8
0
  6
Continuous
 62
     7
370
    15
100
AcDbLine
 10
431.5686322411
 20
-97.9895701988
 30
0.0
 11
431.5686322411
 21
-95.5395510776
 31
0.0
  0
LINE
  5
140
330
1F
100
AcDbEntity
  8
0
  6
Continuous
 62
     7
370
    15
100
AcDbLine
 10
431.5686322411
 20
-97.9895701988
 30
0.0
 11
431.0508615931
 21
-97.9895701988
 31
0.0
  0
SPLINE
  5
141
330
1F
100
AcDbEntity
  8
0
  6
Continuous
 62
     7
370
    15
100
AcDbSpline
210
0.0
220
0.0
230
1.0
 70
     8
 71
     3
 72
     9
 73
     5
 74
     0
 42
0.00000001
 43
0.00000001
 40
0.0
 40
0.0
 40
0.0
 40
0.0
 40
0.6141697461827827
 40
1.0
 40
1.0
 40
1.0
 40
1.0
 10
432.7832705934949
 20
-97.50713020399782
 30
0.0
 10
432.563488406757
 20
-97.31687173765292
 30
0.0
 10
432.2056358943141
 20
-97.00709017070419
 30
0.0
 10
431.7459810040714
 20
-96.91577033224696
 30
0.0
 10
431.5686322411008
 20
-96.88053637579652
 30
0.0
  0
LINE
  5
142
330
1F
100
AcDbEntity
  8
0
  6
Continuous
 62
     7
370
    15
100
AcDbLine
 10
431.9347388705
 20
-98.355661927
 30
0.0
 11
432.7832705935
 21
-97.507130204
 31
0.0
  0
SPLINE
  5
143
330
1F
100
AcDbEntity
  8
0
  6
Continuous
 62
     7
370
    15
100
AcDbSpline
210
0.0
220
0.0
230
1.0
 70
     8
 71
     3
 72
    10
 73
     6
 74
     0
 42
0.00000001
 43
0.00000001
 40
0.0
 40
0.0
 40
0.0
 40
0.0
 40
0.2774480483911304
 40
0.7623388186095355
 40
1.0
 40
1.0
 40
1.0
 40
1.0
 10
431.9347388704724
 20
-98.35566192702028
 30
0.0
 10
431.8665303015124
 20
-98.29594799086594
 30
0.0
 10
431.6791148910183
 20
-98.13187312421456
 30
0.0
 10
431.3637950030252
 20
-98.00755248382076
 30
0.0
 10
431.1283153597087
 20
-97.9940209722402
 30
0.0
 10
431.0508615930981
 20
-97.98957019880983
 30
0.0
  0
LINE
  5
144
330
1F
100
AcDbEntity
  8
0
  6
Continuous
 62
     7
370
    15
100
AcDbLine
 10
432.7832705935
 20
-97.507130204
 30
0.0
 11
439.4882268866
 21
-104.2120864971
 31
0.0
  0
LINE
  5
145
330
1F
100
AcDbEntity
  8
0
  6
Continuous
 62
     7
370
    15
100
AcDbLine
 10
439.4882268866
 20
-104.2120864971
 30
0.0
 11
438.6396951636
 21
-105.0606182201
 31
0.0
  0
LINE
  5
146
330
1F
100
AcDbEntity
  8
0
  6
Continuous
 62
     7
370
    15
100
AcDbLine
 10
431.9347388705
 20
-98.355661927
 30
0.0
 11
438.6396951636
 21
-105.0606182201
 31
0.0
  0
SPLINE
  5
147
330
1F
100
AcDbEntity
  8
0
  6
Continuous
 62
     7
370
    15
100
AcDbSpline
210
0.0
220
0.0
230
1.0
 70
     8
 71
     3
 72
    23
 73
    19
 74
     0
 42
0.00000001
 43
0.00000001
 40
0.0
 40
0.0
 40
0.0
 40
0.0
 40
0.044132531038147
 40
0.0882358852087577
 40
0.1324156167107571
 40
0.1767767347539458
 40
0.2214229688956333
 40
0.2664560787256516
 40
0.3119752294872753
 40
0.3580764502562302
 40
0.4048521855239766
 40
0.4523909451221254
 40
0.500777051979484
 40
0.5500904826578121
 40
0.600406792207551
 40
0.6999560104127999
 40
0.833137763472856
 40
1.0
 40
1.0
 40
1.0
 40
1.0
 10
540.7686272367293
 20
77.63993886966745
 30
0.0
 10
540.7694616275063
 20
77.63526292001858
 30
0.0
 10
540.771129857428
 20
77.62591411208139
 30
0.0
 10
540.7844028874176
 20
77.60546557035386
 30
0.0
 10
540.8051807395764
 20
77.58033091398461
 30
0.0
 10
540.8338899159788
 20
77.55004911260205
 30
0.0
 10
540.8699125443288
 20
77.5147453748391
 30
0.0
 10
540.9128644014037
 20
77.47438742700658
 30
0.0
 10
540.962258034576
 20
77.4289857144391
 30
0.0
 10
541.0176011830295
 20
77.37853933497199
 30
0.0
 10
541.0783767808747
 20
77.32305007624915
 30
0.0
 10
541.144056591244
 20
77.2625205582696
 30
0.0
 10
541.2140985736916
 20
77.19694686411691
 30
0.0
 10
541.2879742943281
 20
77.1263504580578
 30
0.0
 10
541.3896788103206
 20
77.02651557188136
 30
0.0
 10
541.537625552885
 20
76.87602895450365
 30
0.0
 10
541.7562116659027
 20
76.65769774847811
 30
0.0
 10
541.9248455593846
 20
76.49017415064601
 30
0.0
 10
542.0186272367293
 20
76.39700993747914
 30
0.0
  0
LWPOLYLINE
  5
148
330
1F
100
AcDbEntity
  8
0
  6
Continuous
 62
     7
370
    15
100
AcDbPolyline
 90
        2
 70
   128
 43
0.0
 10
542.0186169108
 20
76.3970056193
 10
542.0186169108
 20
76.3970056193
  0
SPLINE
  5
149
330
1F
100
AcDbEntity
  8
0
  6
Continuous
 62
     7
370
    15
100
AcDbSpline
210
0.0
220
0.0
230
1.0
 70
     8
 71
     3
 72
    12
 73
     8
 74
     0
 42
0.00000001
 43
0.00000001
 40
0.0
 40
0.0
 40
0.0
 40
0.0
 40
0.0938522499004172
 40
0.253267594879124
 40
0.4131523520008372
 40
0.6746768561138736
 40
1.0
 40
1.0
 40
1.0
 40
1.0
 10
540.0793499906964
 20
77.55034059449464
 30
0.0
 10
540.1050007326162
 20
77.53403754950614
 30
0.0
 10
540.1742212544453
 20
77.49004251478048
 30
0.0
 10
540.381636915791
 20
77.37618522085327
 30
0.0
 10
540.7336563686174
 20
77.18052738974471
 30
0.0
 10
541.2787121130835
 20
76.8458925961539
 30
0.0
 10
541.754731948555
 20
76.55709989531786
 30
0.0
 10
542.0186169107861
 20
76.39700561925203
 30
0.0
  0
LINE
  5
14A
330
1F
100
AcDbEntity
  8
0
  6
Continuous
 62
     7
370
    15
100
AcDbLine
 10
540.1686377486
 20
77.6399412768
 30
0.0
 11
540.7686181029
 21
77.6399412768
 31
0.0
  0
SPLINE
  5
14B
330
1F
100
AcDbEntity
  8
0
  6
Continuous
 62
     7
370
    15
100
AcDbSpline
210
0.0
220
0.0
230
1.0
 70
     8
 71
     3
 72
    11
 73
     7
 74
     0
 42
0.00000001
 43
0.00000001
 40
0.0
 40
0.0
 40
0.0
 40
0.0
 40
0.2543040018985308
 40
0.5087724240776129
 40
0.7632566301809596
 40
1.0
 40
1.0
 40
1.0
 40
1.0
 10
542.0186169107861
 20
76.39700561925203
 30
0.0
 10
541.9132479527362
 20
76.56364205804975
 30
0.0
 10
541.7024419103251
 20
76.897022674453
 30
0.0
 10
541.3861540575242
 20
77.31498760691399
 30
0.0
 10
541.0770929522062
 20
77.59511453984888
 30
0.0
 10
540.8737234367616
 20
77.63012932128682
 30
0.0
 10
540.7757110556073
 20
77.64700442715913
 30
0.0
  0
LINE
  5
14C
330
1F
100
AcDbEntity
  8
0
  6
Continuous
 62
     7
370
    15
100
AcDbLine
 10
540.7757110556
 20
77.6470044272
 30
0.0
 11
540.7757110556
 21
78.4470030682
 31
0.0
  0
SPLINE
  5
14D
330
1F
100
AcDbEntity
  8
0
  6
Continuous
 62
     7
370
    15
100
AcDbSpline
210
0.0
220
0.0
230
1.0
 70
     8
 71
     3
 72
    12
 73
     8
 74
     0
 42
0.00000001
 43
0.00000001
 40
0.0
 40
0.0
 40
0.0
 40
0.0
 40
0.2301649684096155
 40
0.4604162862580937
 40
0.6906701074337674
 40
0.9209216067286534
 40
0.9999999999999999
 40
0.9999999999999999
 40
0.9999999999999999
 40
0.9999999999999999
 10
542.0186169107861
 20
76.39700561925203
 30
0.0
 10
541.9232337757816
 20
76.64408314580537
 30
0.0
 10
541.7324317215251
 20
77.13833089332122
 30
0.0
 10
541.4461347102009
 20
77.78446638183817
 30
0.0
 10
541.1600307590628
 20
78.24840191177637
 30
0.0
 10
540.9358988885165
 20
78.43123330610516
 30
0.0
 10
540.8083246658467
 20
78.44379240688696
 30
0.0
 10
540.7757110556073
 20
78.44700306817323
 30
0.0
  0
SPLINE
  5
14E
330
1F
100
AcDbEntity
  8
0
  6
Continuous
 62
     7
370
    15
100
AcDbSpline
210
0.0
220
0.0
230
1.0
 70
     8
 71
     3
 72
    26
 73
    22
 74
     0
 42
0.00000001
 43
0.00000001
 40
0.0
 40
0.0
 40
0.0
 40
0.0
 40
0.25
 40
0.25
 40
0.375
 40
0.375
 40
0.4375
 40
0.4375
 40
0.46875
 40
0.46875
 40
0.484375
 40
0.484375
 40
0.4921875
 40
0.4921875
 40
0.49609375
 40
0.49609375
 40
0.5
 40
0.5
 40
0.75
 40
0.75
 40
1.0
 40
1.0
 40
1.0
 40
1.0
 10
542.0186272367293
 20
-44.80299006252083
 30
0.0
 10
541.7141209562731
 20
-44.99325582005606
 30
0.0
 10
541.4456528086615
 20
-45.15457465197778
 30
0.0
 10
541.1141976743323
 20
-45.35501889519175
 30
0.0
 10
541.0152638591918
 20
-45.41480650972093
 30
0.0
 10
540.8834594647483
 20
-45.49394723170161
 30
0.0
 10
540.8422744433515
 20
-45.51857068905965
 30
0.0
 10
540.7844157319271
 20
-45.55287070014344
 30
0.0
 10
540.7657820077335
 20
-45.56386484134581
 30
0.0
 10
540.7387797240254
 20
-45.57969725941111
 30
0.0
 10
540.729936985048
 20
-45.58486493314309
 30
0.0
 10
540.71690587347
 20
-45.59245174530655
 30
0.0
 10
540.712601000978
 20
-45.59495323295529
 30
0.0
 10
540.7062014224617
 20
-45.59866428981971
 30
0.0
 10
540.7040778512455
 20
-45.59989444633975
 30
0.0
 10
540.6998498649784
 20
-45.6023410345103
 30
0.0
 10
540.6983562703368
 20
-45.60320478281901
 30
0.0
 10
540.522485691097
 20
-45.70475119905768
 30
0.0
 10
540.3448686383518
 20
-45.79150594417595
 30
0.0
 10
540.0673442374294
 20
-45.93855659728671
 30
0.0
 10
539.9686272367295
 20
-45.99865390138316
 30
0.0
 10
539.9686272367295
 20
-46.04591899470886
 30
0.0
  0
LINE
  5
14F
330
1F
100
AcDbEntity
  8
0
  6
Continuous
 62
     7
370
    15
100
AcDbLine
 10
539.968634363
 20
-45.9824910744
 30
0.0
 11
539.968634363
 21
-46.0459104164
 31
0.0
  0
LINE
  5
150
330
1F
100
AcDbEntity
  8
0
  6
Continuous
 62
     7
370
    15
100
AcDbLine
 10
542.0186169108
 20
76.3970056193
 30
0.0
 11
542.0186169108
 21
-44.8030045612
 31
0.0
  0
SPLINE
  5
151
330
1F
100
AcDbEntity
  8
0
  6
Continuous
 62
     7
370
    15
100
AcDbSpline
210
0.0
220
0.0
230
1.0
 70
     8
 71
     3
 72
    23
 73
    19
 74
     0
 42
0.00000001
 43
0.00000001
 40
0.0
 40
0.0
 40
0.0
 40
0.0
 40
0.0654535770173011
 40
0.1274920251727576
 40
0.1861214159375385
 40
0.2413489668375934
 40
0.2931833385263131
 40
0.3416350337367203
 40
0.3867169423766471
 40
0.4284451007166195
 40
0.4668397715736972
 40
0.5019270182221454
 40
0.5753258686356146
 40
0.6519788276571424
 40
0.7323769932311444
 40
0.8169455879190904
 40
0.9060494739410335
 40
0.9999999999999999
 40
0.9999999999999999
 40
0.9999999999999999
 40
0.9999999999999999
 10
542.0186272367293
 20
-44.80299006252083
 30
0.0
 10
541.9824291562292
 20
-44.83990732699331
 30
0.0
 10
541.9119216790118
 20
-44.91181564775918
 30
0.0
 10
541.808545160467
 20
-45.01559099096711
 30
0.0
 10
541.7112597964342
 20
-45.1126833821546
 30
0.0
 10
541.6203732320593
 20
-45.20302087290137
 30
0.0
 10
541.536123336306
 20
-45.28662226375232
 30
0.0
 10
541.4585850751791
 20
-45.36348584989583
 30
0.0
 10
541.3877166430676
 20
-45.43361097680168
 30
0.0
 10
541.3233870017377
 20
-45.49701268711551
 30
0.0
 10
541.2653520323718
 20
-45.5536531664861
 30
0.0
 10
541.1929117415035
 20
-45.62342843501035
 30
0.0
 10
541.1036822857773
 20
-45.70384762960458
 30
0.0
 10
541.0011854003031
 20
-45.7905161568056
 30
0.0
 10
540.9084184717113
 20
-45.86839460897554
 30
0.0
 10
540.8329951786926
 20
-45.93719369417712
 30
0.0
 10
540.7794273403458
 20
-45.99784245809948
 30
0.0
 10
540.7722902595732
 20
-46.02961309079293
 30
0.0
 10
540.7686272367293
 20
-46.04591899470886
 30
0.0
  0
LINE
  5
152
330
1F
100
AcDbEntity
  8
0
  6
Continuous
 62
     7
370
    15
100
AcDbLine
 10
539.968634363
 20
-46.0459104164
 30
0.0
 11
540.7686181029
 21
-46.0459104164
 31
0.0
  0
SPLINE
  5
153
330
1F
100
AcDbEntity
  8
0
  6
Continuous
 62
     7
370
    15
100
AcDbSpline
210
0.0
220
0.0
230
1.0
 70
     8
 71
     3
 72
    11
 73
     7
 74
     0
 42
0.00000001
 43
0.00000001
 40
0.0
 40
0.0
 40
0.0
 40
0.0
 40
0.2543130452417579
 40
0.5087853065649851
 40
0.7632598796125887
 40
1.0
 40
1.0
 40
1.0
 40
1.0
 10
540.7757110556073
 20
-46.0530033691284
 30
0.0
 10
540.8810787896504
 20
-46.03354997066558
 30
0.0
 10
541.091880224615
 20
-45.99463099467985
 30
0.0
 10
541.4081765510753
 20
-45.69560861669611
 30
0.0
 10
541.7171926653432
 20
-45.27966126728819
 30
0.0
 10
541.920589930541
 20
-44.95801935586933
 30
0.0
 10
542.0186169107861
 20
-44.8030045612213
 30
0.0
  0
SPLINE
  5
154
330
1F
100
AcDbEntity
  8
0
  6
Continuous
 62
     7
370
    15
100
AcDbSpline
210
0.0
220
0.0
230
1.0
 70
     8
 71
     3
 72
    12
 73
     8
 74
     0
 42
0.00000001
 43
0.00000001
 40
0.0
 40
0.0
 40
0.0
 40
0.0
 40
0.2301751935802982
 40
0.4604218606439525
 40
0.6906829527453462
 40
0.9209367249765309
 40
1.0
 40
1.0
 40
1.0
 40
1.0
 10
540.7757110556073
 20
-46.85298710898137
 30
0.0
 10
540.8710922830098
 20
-46.82691141224163
 30
0.0
 10
541.061884355379
 20
-46.77475192179567
 30
0.0
 10
541.3482025962788
 20
-46.37002247739372
 30
0.0
 10
541.6342980808596
 20
-45.78200852018691
 30
0.0
 10
541.8584056169353
 20
-45.21797682615311
 30
0.0
 10
541.9860024119018
 20
-44.88748120544714
 30
0.0
 10
542.0186169107861
 20
-44.8030045612213
 30
0.0
  0
LINE
  5
155
330
1F
100
AcDbEntity
  8
0
  6
Continuous
 62
     7
370
    15
100
AcDbLine
 10
540.7757110556
 20
-46.0530033691
 30
0.0
 11
540.7757110556
 21
-46.852987109
 31
0.0
  0
SPLINE
  5
156
330
1F
100
AcDbEntity
  8
0
  6
Continuous
 62
     7
370
    15
100
AcDbSpline
210
0.0
220
0.0
230
1.0
 70
     8
 71
     3
 72
    14
 73
    10
 74
     0
 42
0.00000001
 43
0.00000001
 40
0.0
 40
0.0
 40
0.0
 40
0.0
 40
0.25
 40
0.25
 40
0.5
 40
0.5
 40
0.75
 40
0.75
 40
1.0
 40
1.0
 40
1.0
 40
1.0
 10
597.2263938197904
 20
78.4470099374792
 30
0.0
 10
597.2507509594097
 20
78.4470099374792
 30
0.0
 10
597.2750993892803
 20
78.39365392464923
 30
0.0
 10
597.3238049587701
 20
78.18827203360543
 30
0.0
 10
597.348157743515
 20
78.03632696439547
 30
0.0
 10
597.3968633130049
 20
77.65683071342774
 30
0.0
 10
597.4212160977498
 20
77.42942884723955
 30
0.0
 10
597.4699216672396
 20
76.93359310041572
 30
0.0
 10
597.4942700971102
 20
76.6654022965195
 30
0.0
 10
597.5186272367295
 20
76.3970099374792
 30
0.0
  0
LINE
  5
157
330
1F
100
AcDbEntity
  8
0
  6
Continuous
 62
     7
370
    15
100
AcDbLine
 10
597.518617626
 20
76.3970056193
 30
0.0
 11
542.0186169108
 21
76.3970056193
 31
0.0
  0
LINE
  5
158
330
1F
100
AcDbEntity
  8
0
  6
Continuous
 62
     7
370
    15
100
AcDbLine
 10
540.7757110556
 20
78.4470030682
 30
0.0
 11
597.226405855
 21
78.4470030682
 31
0.0
  0
LINE
  5
159
330
1F
100
AcDbEntity
  8
0
  6
Continuous
 62
     7
370
    15
100
AcDbLine
 10
597.518617626
 20
76.3970056193
 30
0.0
 11
597.518617626
 21
-44.8030045612
 31
0.0
  0
LINE
  5
15A
330
1F
100
AcDbEntity
  8
0
  6
Continuous
 62
     7
370
    15
100
AcDbLine
 10
542.0186169108
 20
-44.8030045612
 30
0.0
 11
597.518617626
 21
-44.8030045612
 31
0.0
  0
LINE
  5
15B
330
1F
100
AcDbEntity
  8
0
  6
Continuous
 62
     7
370
    15
100
AcDbLine
 10
540.7757110556
 20
-46.852987109
 30
0.0
 11
597.0686323603
 21
-46.852987109
 31
0.0
  0
SPLINE
  5
15C
330
1F
100
AcDbEntity
  8
0
  6
Continuous
 62
     7
370
    15
100
AcDbSpline
210
0.0
220
0.0
230
1.0
 70
     8
 71
     3
 72
    14
 73
    10
 74
     0
 42
0.00000001
 43
0.00000001
 40
0.0
 40
0.0
 40
0.0
 40
0.0
 40
0.25
 40
0.25
 40
0.5
 40
0.5
 40
0.75
 40
0.75
 40
1.0
 40
1.0
 40
1.0
 40
1.0
 10
597.5186272367295
 20
-44.80299006252083
 30
0.0
 10
597.48112060509
 20
-45.07138189003088
 30
0.0
 10
597.4436272367294
 20
-45.33957322545737
 30
0.0
 10
597.3686272367295
 20
-45.83540897228114
 30
0.0
 10
597.3311272367295
 20
-46.06281083846939
 30
0.0
 10
597.2561272367294
 20
-46.44230708943706
 30
0.0
 10
597.2186272367295
 20
-46.59425215864707
 30
0.0
 10
597.1436272367295
 20
-46.79963404969087
 30
0.0
 10
597.1061338683687
 20
-46.85299006252083
 30
0.0
 10
597.0686272367294
 20
-46.85299006252083
 30
0.0
  0
LINE
  5
15D
330
1F
100
AcDbEntity
  8
0
  6
Continuous
 62
     7
370
    15
100
AcDbLine
 10
599.5686299761
 20
-44.8030045612
 30
0.0
 11
597.518617626
 21
-44.8030045612
 31
0.0
  0
LINE
  5
15E
330
1F
100
AcDbEntity
  8
0
  6
Continuous
 62
     7
370
    15
100
AcDbLine
 10
599.5686299761
 20
76.3970056193
 30
0.0
 11
599.5686299761
 21
-44.8030045612
 31
0.0
  0
LINE
  5
15F
330
1F
100
AcDbEntity
  8
0
  6
Continuous
 62
     7
370
    15
100
AcDbLine
 10
597.518617626
 20
76.3970056193
 30
0.0
 11
599.5686299761
 21
76.3970056193
 31
0.0
  0
SPLINE
  5
160
330
1F
100
AcDbEntity
  8
0
  6
Continuous
 62
     7
370
    15
100
AcDbSpline
210
0.0
220
0.0
230
1.0
 70
     8
 71
     3
 72
    12
 73
     8
 74
     0
 42
0.00000001
 43
0.00000001
 40
0.0
 40
0.0
 40
0.0
 40
0.0
 40
0.198631044252996
 40
0.4263099524603118
 40
0.6540080209203597
 40
0.8817121756678138
 40
1.0
 40
1.0
 40
1.0
 40
1.0
 10
598.768616433949
 20
76.397005619252
 30
0.0
 10
598.7567387759635
 20
76.52688269222097
 30
0.0
 10
598.7312464676984
 20
76.8056301005694
 30
0.0
 10
598.517894810486
 20
77.19011746988106
 30
0.0
 10
598.179284467006
 20
77.48886062294957
 30
0.0
 10
597.821403434575
 20
77.63013487089914
 30
0.0
 10
597.5957604917595
 20
77.642706451902
 30
0.0
 10
597.5186176260419
 20
77.64700442715913
 30
0.0
  0
LINE
  5
161
330
1F
100
AcDbEntity
  8
0
  6
Continuous
 62
     7
370
    15
100
AcDbLine
 10
597.518617626
 20
77.6470044272
 30
0.0
 11
597.518617626
 21
78.4470030682
 31
0.0
  0
SPLINE
  5
162
330
1F
100
AcDbEntity
  8
0
  6
Continuous
 62
     7
370
    15
100
AcDbSpline
210
0.0
220
0.0
230
1.0
 70
     8
 71
     3
 72
    12
 73
     8
 74
     0
 42
0.00000001
 43
0.00000001
 40
0.0
 40
0.0
 40
0.0
 40
0.0
 40
0.2196151396900339
 40
0.4392467440521617
 40
0.6588908998701576
 40
0.8785210343525448
 40
1.0
 40
1.0
 40
1.0
 40
1.0
 10
599.5686299761243
 20
76.39700561925203
 30
0.0
 10
599.5449035334007
 20
76.63276381408443
 30
0.0
 10
599.4974488691685
 20
77.10429787867534
 30
0.0
 10
599.1280395155727
 20
77.7290546448693
 30
0.0
 10
598.5865102741487
 20
78.19337770240902
 30
0.0
 10
598.013328179366
 20
78.41878066928962
 30
0.0
 10
597.6485321888218
 20
78.43959166247969
 30
0.0
 10
597.5186176260419
 20
78.4470030681732
 30
0.0
  0
LINE
  5
163
330
1F
100
AcDbEntity
  8
0
  6
Continuous
 62
     7
370
    15
100
AcDbLine
 10
597.518617626
 20
-46.0530033691
 30
0.0
 11
597.518617626
 21
-46.852987109
 31
0.0
  0
SPLINE
  5
164
330
1F
100
AcDbEntity
  8
0
  6
Continuous
 62
     7
370
    15
100
AcDbSpline
210
0.0
220
0.0
230
1.0
 70
     8
 71
     3
 72
    11
 73
     7
 74
     0
 42
0.00000001
 43
0.00000001
 40
0.0
 40
0.0
 40
0.0
 40
0.0
 40
0.2499998706131751
 40
0.5000051821331638
 40
0.7500171849464777
 40
1.0
 40
1.0
 40
1.0
 40
1.0
 10
597.5186176260419
 20
-46.0530033691284
 30
0.0
 10
597.6824133877441
 20
-46.03420930319938
 30
0.0
 10
598.0100084759405
 20
-45.9966207623139
 30
0.0
 10
598.4232233412577
 20
-45.70756955463731
 30
0.0
 10
598.7122600708894
 20
-45.29438410592942
 30
0.0
 10
598.7498317106913
 20
-44.96679136825918
 30
0.0
 10
598.768616433949
 20
-44.80300456122136
 30
0.0
  0
SPLINE
  5
165
330
1F
100
AcDbEntity
  8
0
  6
Continuous
 62
     7
370
    15
100
AcDbSpline
210
0.0
220
0.0
230
1.0
 70
     8
 71
     3
 72
    11
 73
     7
 74
     0
 42
0.00000001
 43
0.00000001
 40
0.0
 40
0.0
 40
0.0
 40
0.0
 40
0.2500038855412675
 40
0.5000031945725192
 40
0.7500050730619837
 40
1.0
 40
1.0
 40
1.0
 40
1.0
 10
597.5186176260419
 20
-46.85298710898131
 30
0.0
 10
597.787248698142
 20
-46.82217405703978
 30
0.0
 10
598.3245059248475
 20
-46.76054851721292
 30
0.0
 10
599.0021330762809
 20
-46.28648219062617
 30
0.0
 10
599.4761825726903
 20
-45.60887640314718
 30
0.0
 10
599.5378144606061
 20
-45.07162601869815
 30
0.0
 10
599.5686299761243
 20
-44.8030045612213
 30
0.0
  0
LINE
  5
166
330
1F
100
AcDbEntity
  8
0
  6
Continuous
 62
     7
370
    15
100
AcDbLine
 10
597.518617626
 20
-46.852987109
 30
0.0
 11
597.0686323603
 21
-46.852987109
 31
0.0
  0
LINE
  5
167
330
1F
100
AcDbEntity
  8
0
  6
Continuous
 62
     7
370
    15
100
AcDbLine
 10
597.226405855
 20
78.4470030682
 30
0.0
 11
597.518617626
 21
78.4470030682
 31
0.0
  0
LINE
  5
168
330
1F
100
AcDbEntity
  8
0
  6
Continuous
 62
     7
370
    15
100
AcDbLine
 10
-166.2313692609
 20
217.8104442188
 30
0.0
 11
-166.2313692609
 21
217.6182895543
 31
0.0
  0
LINE
  5
169
330
1F
100
AcDbEntity
  8
0
  6
Continuous
 62
     7
370
    15
100
AcDbLine
 10
-182.7313654462
 20
22.0104494707
 30
0.0
 11
-182.7313654462
 21
0.0104495899
 31
0.0
  0
LINE
  5
16A
330
1F
100
AcDbEntity
  8
0
  6
Continuous
 62
     7
370
    15
100
AcDbLine
 10
574.4979031046
 20
-94.7395673378
 30
0.0
 11
574.4979031046
 21
-51.7895629986
 31
0.0
  0
LINE
  5
16B
330
1F
100
AcDbEntity
  8
0
  6
Continuous
 62
     7
370
    15
100
AcDbLine
 10
574.4979031046
 20
-51.7895629986
 30
0.0
 11
517.4686260184
 21
-51.7895629986
 31
0.0
  0
LINE
  5
16C
330
1F
100
AcDbEntity
  8
0
  6
Continuous
 62
     7
370
    15
100
AcDbLine
 10
453.6686189135
 20
-51.7895629986
 30
0.0
 11
431.5686322411
 21
-51.7895629986
 31
0.0
  0
LINE
  5
16D
330
1F
100
AcDbEntity
  8
0
  6
Continuous
 62
     7
370
    15
100
AcDbLine
 10
573.3186252078
 20
-96.7895498855
 30
0.0
 11
556.525731798
 21
-96.7895498855
 31
0.0
  0
LINE
  5
16E
330
1F
100
AcDbEntity
  8
0
  6
Continuous
 62
     7
370
    15
100
AcDbLine
 10
556.525731798
 20
-96.7895498855
 30
0.0
 11
555.2757329901
 21
-96.7895498855
 31
0.0
  0
LINE
  5
16F
330
1F
100
AcDbEntity
  8
0
  6
Continuous
 62
     7
370
    15
100
AcDbLine
 10
555.2757329901
 20
-96.7895498855
 30
0.0
 11
555.2757329901
 21
-96.1891522987
 31
0.0
  0
LINE
  5
170
330
1F
100
AcDbEntity
  8
0
  6
Continuous
 62
     7
370
    15
100
AcDbLine
 10
555.2757329901
 20
-96.1891522987
 30
0.0
 11
517.4686260184
 21
-96.1891522987
 31
0.0
  0
LINE
  5
171
330
1F
100
AcDbEntity
  8
0
  6
Continuous
 62
     7
370
    15
100
AcDbLine
 10
453.6686189135
 20
-96.7895498855
 30
0.0
 11
431.5686322411
 21
-96.7895498855
 31
0.0
  0
SPLINE
  5
172
330
1F
100
AcDbEntity
  8
0
  6
Continuous
 62
     7
370
    15
100
AcDbSpline
210
0.0
220
0.0
230
1.0
 70
     8
 71
     3
 72
    14
 73
    10
 74
     0
 42
0.00000001
 43
0.00000001
 40
0.0
 40
0.0
 40
0.0
 40
0.0
 40
0.25
 40
0.25
 40
0.5
 40
0.5
 40
0.75
 40
0.75
 40
1.0
 40
1.0
 40
1.0
 40
1.0
 10
574.4979165586053
 20
-94.73955569959749
 30
0.0
 10
574.399626825273
 20
-95.00794273227176
 30
0.0
 10
574.3013683382917
 20
-95.27613886253405
 30
0.0
 10
574.1048201179782
 20
-95.77197460935783
 30
0.0
 10
574.0065460078214
 20
-95.99937647554601
 30
0.0
 10
573.8099977875078
 20
-96.3788727265138
 30
0.0
 10
573.711723677351
 20
-96.5308177957237
 30
0.0
 10
573.5151754570375
 20
-96.73619968676749
 30
0.0
 10
573.4169169700563
 20
-96.78955569959746
 30
0.0
 10
573.3186272367238
 20
-96.78955569959746
 30
0.0
  0
SPLINE
  5
173
330
1F
100
AcDbEntity
  8
0
  6
Continuous
 62
     7
370
    15
100
AcDbSpline
210
0.0
220
0.0
230
1.0
 70
     8
 71
     3
 72
    10
 73
     6
 74
     0
 42
0.00000001
 43
0.00000001
 40
0.0
 40
0.0
 40
0.0
 40
0.0
 40
0.0728817223480376
 40
0.5393568861147968
 40
1.0
 40
1.0
 40
1.0
 40
1.0
 10
574.1410798986859
 20
-95.66394597128603
 30
0.0
 10
574.1626109773849
 20
-95.65021151078024
 30
0.0
 10
574.3219504549346
 20
-95.54857044615895
 30
0.0
 10
574.5072561193253
 20
-95.21957594345409
 30
0.0
 10
574.5482540161537
 20
-94.89889779628969
 30
0.0
 10
574.5686240156598
 20
-94.73956733778685
 30
0.0
  0
LINE
  5
174
330
1F
100
AcDbEntity
  8
0
  6
Continuous
 62
     7
370
    15
100
AcDbLine
 10
574.5686240157
 20
-94.7395673378
 30
0.0
 11
575.3686375578
 21
-94.7395673378
 31
0.0
  0
SPLINE
  5
175
330
1F
100
AcDbEntity
  8
0
  6
Continuous
 62
     7
370
    15
100
AcDbSpline
210
0.0
220
0.0
230
1.0
 70
     8
 71
     3
 72
    12
 73
     8
 74
     0
 42
0.00000001
 43
0.00000001
 40
0.0
 40
0.0
 40
0.0
 40
0.0
 40
0.2286733890145263
 40
0.4574129691169241
 40
0.6861525545489651
 40
0.9149068871277267
 40
1.0
 40
1.0
 40
1.0
 40
1.0
 10
573.3186252077527
 20
-96.78954988554689
 30
0.0
 10
573.5640992036299
 20
-96.76381446831184
 30
0.0
 10
574.0551182495242
 20
-96.712336184548
 30
0.0
 10
574.6982703309493
 20
-96.31271408093778
 30
0.0
 10
575.1624644352827
 20
-95.73135782813358
 30
0.0
 10
575.3512468939808
 20
-95.1658794009086
 30
0.0
 10
575.3649281688262
 20
-94.83049873031932
 30
0.0
 10
575.3686375578351
 20
-94.73956733778685
 30
0.0
  0
LINE
  5
176
330
1F
100
AcDbEntity
  8
0
  6
Continuous
 62
     7
370
    15
100
AcDbLine
 10
594.9686415156
 20
-63.5895541294
 30
0.0
 11
594.1686279734
 21
-63.5895541294
 31
0.0
  0
LINE
  5
177
330
1F
100
AcDbEntity
  8
0
  6
Continuous
 62
     7
370
    15
100
AcDbLine
 10
594.9686415156
 20
-68.589549361
 30
0.0
 11
594.9686415156
 21
-63.5895541294
 31
0.0
  0
LINE
  5
178
330
1F
100
AcDbEntity
  8
0
  6
Continuous
 62
     7
370
    15
100
AcDbLine
 10
594.9686415156
 20
-68.589549361
 30
0.0
 11
594.1686279734
 21
-68.589549361
 31
0.0
  0
LINE
  5
179
330
1F
100
AcDbEntity
  8
0
  6
Continuous
 62
     7
370
    15
100
AcDbLine
 10
594.1686279734
 20
-68.589549361
 30
0.0
 11
594.1686279734
 21
-63.5895541294
 31
0.0
  0
LINE
  5
17A
330
1F
100
AcDbEntity
  8
0
  6
Continuous
 62
     7
370
    15
100
AcDbLine
 10
594.1686279734
 20
-53.8395455463
 30
0.0
 11
594.9686415156
 21
-53.8395455463
 31
0.0
  0
LINE
  5
17B
330
1F
100
AcDbEntity
  8
0
  6
Continuous
 62
     7
370
    15
100
AcDbLine
 10
594.9686415156
 20
-63.5895541294
 30
0.0
 11
594.9686415156
 21
-53.8395455463
 31
0.0
  0
LINE
  5
17C
330
1F
100
AcDbEntity
  8
0
  6
Continuous
 62
     7
370
    15
100
AcDbLine
 10
594.1686279734
 20
-63.5895541294
 30
0.0
 11
594.1686279734
 21
-53.8395455463
 31
0.0
  0
LINE
  5
17D
330
1F
100
AcDbEntity
  8
0
  6
Continuous
 62
     7
370
    15
100
AcDbLine
 10
592.9186291655
 20
-52.5895467384
 30
0.0
 11
592.9186291655
 21
-51.7895629986
 31
0.0
  0
ARC
  5
17E
330
1F
100
AcDbEntity
  8
0
  6
Continuous
 62
     7
370
    15
100
AcDbCircle
 10
592.9186272367
 20
-53.8395556996
 30
0.0
 40
2.050000000000068
100
AcDbArc
 50
0.0
 51
90.0
  0
ARC
  5
17F
330
1F
100
AcDbEntity
  8
0
  6
Continuous
 62
     7
370
    15
100
AcDbCircle
 10
592.9186272367
 20
-53.8395556996
 30
0.0
 40
1.250000000000114
100
AcDbArc
 50
0.0
 51
90.0
  0
ARC
  5
180
330
1F
100
AcDbEntity
  8
0
  6
Continuous
 62
     7
370
    15
100
AcDbCircle
 10
576.6186272367
 20
-53.8395556996
 30
0.0
 40
2.050000000000068
100
AcDbArc
 50
90.0
 51
180.0
  0
LINE
  5
181
330
1F
100
AcDbEntity
  8
0
  6
Continuous
 62
     7
370
    15
100
AcDbLine
 10
576.6186363657
 20
-52.5895467384
 30
0.0
 11
576.6186363657
 21
-51.7895629986
 31
0.0
  0
ARC
  5
182
330
1F
100
AcDbEntity
  8
0
  6
Continuous
 62
     7
370
    15
100
AcDbCircle
 10
576.6186272367
 20
-53.8395556996
 30
0.0
 40
1.250000000000085
100
AcDbArc
 50
90.0
 51
180.0
  0
LINE
  5
183
330
1F
100
AcDbEntity
  8
0
  6
Continuous
 62
     7
370
    15
100
AcDbLine
 10
575.3686375578
 20
-53.8395455463
 30
0.0
 11
574.5686240157
 21
-53.8395455463
 31
0.0
  0
LINE
  5
184
330
1F
100
AcDbEntity
  8
0
  6
Continuous
 62
     7
370
    15
100
AcDbLine
 10
576.6186363657
 20
-52.5895467384
 30
0.0
 11
592.9186291655
 21
-52.5895467384
 31
0.0
  0
LINE
  5
185
330
1F
100
AcDbEntity
  8
0
  6
Continuous
 62
     7
370
    15
100
AcDbLine
 10
576.6186363657
 20
-51.7895629986
 30
0.0
 11
592.9186291655
 21
-51.7895629986
 31
0.0
  0
LINE
  5
186
330
1F
100
AcDbEntity
  8
0
  6
Continuous
 62
     7
370
    15
100
AcDbLine
 10
575.3686375578
 20
-94.7395673378
 30
0.0
 11
575.3686375578
 21
-53.8395455463
 31
0.0
  0
LINE
  5
187
330
1F
100
AcDbEntity
  8
0
  6
Continuous
 62
     7
370
    15
100
AcDbLine
 10
574.5686240157
 20
-94.7395673378
 30
0.0
 11
574.5686240157
 21
-53.8395455463
 31
0.0
  0
LWPOLYLINE
  5
188
330
1F
100
AcDbEntity
  8
0
  6
Continuous
 62
     7
370
    15
100
AcDbPolyline
 90
        3
 70
   128
 43
0.0
 10
555.0762064417
 20
-96.1891522987
 10
555.0984687766
 20
-96.211086808
 10
555.2757329901
 20
-96.364360152
  0
LINE
  5
189
330
1F
100
AcDbEntity
  8
0
  6
Continuous
 62
     7
370
    15
100
AcDbLine
 10
555.2757329901
 20
-96.7895498855
 30
0.0
 11
517.4686260184
 21
-96.7895498855
 31
0.0
  0
LINE
  5
18A
330
1F
100
AcDbEntity
  8
0
  6
Continuous
 62
     7
370
    15
100
AcDbLine
 10
-132.4313633482
 20
260.1104454713
 30
0.0
 11
-132.4313633482
 21
266.6104437427
 31
0.0
  0
LINE
  5
18B
330
1F
100
AcDbEntity
  8
0
  6
Continuous
 62
     7
370
    15
100
AcDbLine
 10
-166.4313726465
 20
266.6104437427
 30
0.0
 11
-166.4313726465
 21
296.5104469673
 31
0.0
  0
LINE
  5
18C
330
1F
100
AcDbEntity
  8
0
  6
Continuous
 62
     7
370
    15
100
AcDbLine
 10
-166.4313726465
 20
296.5104469673
 30
0.0
 11
-164.4313685934
 21
296.5104469673
 31
0.0
  0
LINE
  5
18D
330
1F
100
AcDbEntity
  8
0
  6
Continuous
 62
     7
370
    15
100
AcDbLine
 10
-164.4313685934
 20
296.5104469673
 30
0.0
 11
-164.4313685934
 21
326.7104440944
 31
0.0
  0
LINE
  5
18E
330
1F
100
AcDbEntity
  8
0
  6
Continuous
 62
     7
370
    15
100
AcDbLine
 10
-164.4313685934
 20
326.7104440944
 30
0.0
 11
-166.4313726465
 21
326.7104440944
 31
0.0
  0
LINE
  5
18F
330
1F
100
AcDbEntity
  8
0
  6
Continuous
 62
     7
370
    15
100
AcDbLine
 10
-166.4313726465
 20
396.7104443924
 30
0.0
 11
-164.4313685934
 21
396.7104443924
 31
0.0
  0
LINE
  5
190
330
1F
100
AcDbEntity
  8
0
  6
Continuous
 62
     7
370
    15
100
AcDbLine
 10
-164.4313685934
 20
396.7104443924
 30
0.0
 11
-164.4313685934
 21
426.91044897
 31
0.0
  0
LINE
  5
191
330
1F
100
AcDbEntity
  8
0
  6
Continuous
 62
     7
370
    15
100
AcDbLine
 10
-164.4313685934
 20
426.91044897
 30
0.0
 11
-166.4313726465
 21
426.91044897
 31
0.0
  0
LINE
  5
192
330
1F
100
AcDbEntity
  8
0
  6
Continuous
 62
     7
370
    15
100
AcDbLine
 10
-166.4313726465
 20
456.8104484694
 30
0.0
 11
512.5686175784
 21
288.5313743369
 31
0.0
  0
ARC
  5
193
330
1F
100
AcDbEntity
  8
0
  6
Continuous
 62
     7
370
    15
100
AcDbCircle
 10
510.1630661976
 20
278.8250221716
 30
0.0
 40
10.00000000000008
100
AcDbArc
 50
28.590234854
 51
76.0806356206
  0
LINE
  5
194
330
1F
100
AcDbEntity
  8
0
  6
Continuous
 62
     7
370
    15
100
AcDbLine
 10
518.9437217673
 20
283.6104446666
 30
0.0
 11
531.7511208018
 21
260.1104454713
 31
0.0
  0
LINE
  5
195
330
1F
100
AcDbEntity
  8
0
  6
Continuous
 62
     7
370
    15
100
AcDbLine
 10
-132.4313633482
 20
260.1104454713
 30
0.0
 11
531.7511208018
 21
260.1104454713
 31
0.0
  0
LINE
  5
196
330
1F
100
AcDbEntity
  8
0
  6
Continuous
 62
     7
370
    15
100
AcDbLine
 10
-132.4313633482
 20
266.6104437427
 30
0.0
 11
-166.4313726465
 21
266.6104437427
 31
0.0
  0
LINE
  5
197
330
1F
100
AcDbEntity
  8
0
  6
Continuous
 62
     7
370
    15
100
AcDbLine
 10
-166.4313726465
 20
326.7104440944
 30
0.0
 11
-166.4313726465
 21
396.7104443924
 31
0.0
  0
LINE
  5
198
330
1F
100
AcDbEntity
  8
0
  6
Continuous
 62
     7
370
    15
100
AcDbLine
 10
-166.4313726465
 20
426.91044897
 30
0.0
 11
-166.4313726465
 21
456.8104484694
 31
0.0
  0
SPLINE
  5
199
330
1F
100
AcDbEntity
  8
0
  6
Continuous
 62
     7
370
    15
100
AcDbSpline
210
0.0
220
0.0
230
1.0
 70
     8
 71
     3
 72
    12
 73
     8
 74
     0
 42
0.00000001
 43
0.00000001
 40
0.0
 40
0.0
 40
0.0
 40
0.0
 40
0.184083678142221
 40
0.4011019128411218
 40
0.6181288263446073
 40
0.8351601348147527
 40
0.9999999999999999
 40
0.9999999999999999
 40
0.9999999999999999
 40
0.9999999999999999
 10
531.7511208017773
 20
260.1104454712513
 30
0.0
 10
531.8012331748442
 20
259.773534093391
 30
0.0
 10
531.9104235653073
 20
259.0394342563956
 30
0.0
 10
532.0790265015326
 20
258.0066847124789
 30
0.0
 10
532.2565072509373
 20
257.1687950855629
 30
0.0
 10
532.4199428508826
 20
256.6867196326706
 30
0.0
 10
532.5237978778958
 20
256.6334432857457
 30
0.0
 10
532.5686283071942
 20
256.6104458288792
 30
0.0
  0
LINE
  5
19A
330
1F
100
AcDbEntity
  8
0
  6
Continuous
 62
     7
370
    15
100
AcDbLine
 10
-132.4313633482
 20
256.6104458289
 30
0.0
 11
-132.4213795702
 21
256.6104458289
 31
0.0
  0
SPLINE
  5
19B
330
1F
100
AcDbEntity
  8
0
  6
Continuous
 62
     7
370
    15
100
AcDbSpline
210
0.0
220
0.0
230
1.0
 70
     8
 71
     3
 72
    12
 73
     8
 74
     0
 42
0.00000001
 43
0.00000001
 40
0.0
 40
0.0
 40
0.0
 40
0.0
 40
0.2274211971931532
 40
0.4548414167431525
 40
0.6821726083741829
 40
0.9095156240903888
 40
1.0
 40
1.0
 40
1.0
 40
1.0
 10
531.7511208017773
 20
260.1104454712513
 30
0.0
 10
531.8131217246624
 20
259.9318114413663
 30
0.0
 10
531.9371233039019
 20
259.5745441495121
 30
0.0
 10
532.1230624256339
 20
259.1058964786827
 30
0.0
 10
532.308961619368
 20
258.7662374100168
 30
0.0
 10
532.45783687617
 20
258.6242452690124
 30
0.0
 10
532.5440762509239
 20
258.613504124083
 30
0.0
 10
532.5686283071942
 20
258.6104461567047
 30
0.0
  0
LINE
  5
19C
330
1F
100
AcDbEntity
  8
0
  6
Continuous
 62
     7
370
    15
100
AcDbLine
 10
532.5686283072
 20
258.6104461567
 30
0.0
 11
532.5686283072
 21
256.6104458289
 31
0.0
  0
ARC
  5
19D
330
1F
100
AcDbEntity
  8
0
  6
Continuous
 62
     7
370
    15
100
AcDbCircle
 10
-164.3313727633
 20
264.3604443004
 30
0.0
 40
1.900000000000006
100
AcDbArc
 50
90.0
 51
180.0
  0
LINE
  5
19E
330
1F
100
AcDbEntity
  8
0
  6
Continuous
 62
     7
370
    15
100
AcDbLine
 10
-134.3313806097
 20
266.2604452686
 30
0.0
 11
-164.3313818018
 21
266.2604452686
 31
0.0
  0
ARC
  5
19F
330
1F
100
AcDbEntity
  8
0
  6
Continuous
 62
     7
370
    15
100
AcDbCircle
 10
-134.3313727633
 20
264.3604443004
 30
0.0
 40
1.900000000000034
100
AcDbArc
 50
0.0
 51
90.0
  0
LINE
  5
1A0
330
1F
100
AcDbEntity
  8
0
  6
Continuous
 62
     7
370
    15
100
AcDbLine
 10
-132.4313633482
 20
221.2604444118
 30
0.0
 11
-132.4313633482
 21
264.3604429083
 31
0.0
  0
LINE
  5
1A1
330
1F
100
AcDbEntity
  8
0
  6
Continuous
 62
     7
370
    15
100
AcDbLine
 10
-166.2313692609
 20
221.2604444118
 30
0.0
 11
-132.4313633482
 21
221.2604444118
 31
0.0
  0
LINE
  5
1A2
330
1F
100
AcDbEntity
  8
0
  6
Continuous
 62
     7
370
    15
100
AcDbLine
 10
-166.2313692609
 20
264.3604429083
 30
0.0
 11
-166.2313692609
 21
221.2604444118
 31
0.0
  0
LINE
  5
1A3
330
1F
100
AcDbEntity
  8
0
  6
Continuous
 62
     7
370
    15
100
AcDbLine
 10
-132.4313633482
 20
221.2604444118
 30
0.0
 11
-132.4313633482
 21
218.8104443827
 31
0.0
  0
LINE
  5
1A4
330
1F
100
AcDbEntity
  8
0
  6
Continuous
 62
     7
370
    15
100
AcDbLine
 10
-166.2313692609
 20
219.1533135825
 30
0.0
 11
-166.2313692609
 21
221.2604444118
 31
0.0
  0
LINE
  5
1A5
330
1F
100
AcDbEntity
  8
0
  6
Continuous
 62
     7
370
    15
100
AcDbLine
 10
512.0686240157
 20
-146.489541827
 30
0.0
 11
459.0686209162
 21
-146.489541827
 31
0.0
  0
LINE
  5
1A6
330
1F
100
AcDbEntity
  8
0
  6
Continuous
 62
     7
370
    15
100
AcDbLine
 10
514.0686280688
 20
-140.48955947
 30
0.0
 11
457.0686168631
 21
-140.48955947
 31
0.0
  0
LINE
  5
1A7
330
1F
100
AcDbEntity
  8
0
  6
Continuous
 62
     7
370
    15
100
AcDbLine
 10
-166.4313726465
 20
296.6104412095
 30
0.0
 11
-164.4313685934
 21
296.6104412095
 31
0.0
  0
LINE
  5
1A8
330
1F
100
AcDbEntity
  8
0
  6
Continuous
 62
     7
370
    15
100
AcDbLine
 10
-166.4313726465
 20
326.6104424016
 30
0.0
 11
-166.4313726465
 21
296.6104412095
 31
0.0
  0
LINE
  5
1A9
330
1F
100
AcDbEntity
  8
0
  6
Continuous
 62
     7
370
    15
100
AcDbLine
 10
-166.4313726465
 20
326.6104424016
 30
0.0
 11
-164.4313685934
 21
326.6104424016
 31
0.0
  0
LINE
  5
1AA
330
1F
100
AcDbEntity
  8
0
  6
Continuous
 62
     7
370
    15
100
AcDbLine
 10
-164.4313685934
 20
326.6104424016
 30
0.0
 11
-164.4313685934
 21
296.6104412095
 31
0.0
  0
LINE
  5
1AB
330
1F
100
AcDbEntity
  8
0
  6
Continuous
 62
     7
370
    15
100
AcDbLine
 10
-164.4313685934
 20
426.8104472773
 30
0.0
 11
-164.4313685934
 21
396.8104460852
 31
0.0
  0
LINE
  5
1AC
330
1F
100
AcDbEntity
  8
0
  6
Continuous
 62
     7
370
    15
100
AcDbLine
 10
-166.4313726465
 20
426.8104472773
 30
0.0
 11
-166.4313726465
 21
396.8104460852
 31
0.0
  0
LINE
  5
1AD
330
1F
100
AcDbEntity
  8
0
  6
Continuous
 62
     7
370
    15
100
AcDbLine
 10
-166.4313726465
 20
396.8104460852
 30
0.0
 11
-164.4313685934
 21
396.8104460852
 31
0.0
  0
LINE
  5
1AE
330
1F
100
AcDbEntity
  8
0
  6
Continuous
 62
     7
370
    15
100
AcDbLine
 10
-166.4313726465
 20
426.8104472773
 30
0.0
 11
-164.4313685934
 21
426.8104472773
 31
0.0
  0
LINE
  5
1AF
330
1F
100
AcDbEntity
  8
0
  6
Continuous
 62
     7
370
    15
100
AcDbLine
 10
-166.4313726465
 20
396.8104460852
 30
0.0
 11
-166.4313726465
 21
396.7104443924
 31
0.0
  0
LINE
  5
1B0
330
1F
100
AcDbEntity
  8
0
  6
Continuous
 62
     7
370
    15
100
AcDbLine
 10
-166.4313726465
 20
326.7104440944
 30
0.0
 11
-166.4313726465
 21
326.6104424016
 31
0.0
  0
LINE
  5
1B1
330
1F
100
AcDbEntity
  8
0
  6
Continuous
 62
     7
370
    15
100
AcDbLine
 10
-166.4313726465
 20
456.8104484694
 30
0.0
 11
-164.4313685934
 21
456.8104484694
 31
0.0
  0
LINE
  5
1B2
330
1F
100
AcDbEntity
  8
0
  6
Continuous
 62
     7
370
    15
100
AcDbLine
 10
-164.4313685934
 20
456.8104484694
 30
0.0
 11
-164.4313685934
 21
456.3147762434
 31
0.0
  0
LINE
  5
1B3
330
1F
100
AcDbEntity
  8
0
  6
Continuous
 62
     7
370
    15
100
AcDbLine
 10
-166.4313726465
 20
426.91044897
 30
0.0
 11
-166.4313726465
 21
426.8104472773
 31
0.0
  0
LINE
  5
1B4
330
1F
100
AcDbEntity
  8
0
  6
Continuous
 62
     7
370
    15
100
AcDbLine
 10
-166.4313726465
 20
296.6104412095
 30
0.0
 11
-166.4313726465
 21
296.5104469673
 31
0.0
  0
LINE
  5
1B5
330
1F
100
AcDbEntity
  8
0
  6
Continuous
 62
     7
370
    15
100
AcDbLine
 10
530.5686242541
 20
-48.4895518406
 30
0.0
 11
530.5686242541
 21
-46.7895677669
 31
0.0
  0
LINE
  5
1B6
330
1F
100
AcDbEntity
  8
0
  6
Continuous
 62
     7
370
    15
100
AcDbLine
 10
440.5686206778
 20
-48.4895518406
 30
0.0
 11
530.5686242541
 21
-48.4895518406
 31
0.0
  0
LINE
  5
1B7
330
1F
100
AcDbEntity
  8
0
  6
Continuous
 62
     7
370
    15
100
AcDbLine
 10
440.5686206778
 20
-48.4895518406
 30
0.0
 11
440.5686206778
 21
-46.7895677669
 31
0.0
  0
LINE
  5
1B8
330
1F
100
AcDbEntity
  8
0
  6
Continuous
 62
     7
370
    15
100
AcDbLine
 10
516.5282733401
 20
-111.4895454033
 30
0.0
 11
454.6089715918
 21
-111.4895454033
 31
0.0
  0
LINE
  5
1B9
330
1F
100
AcDbEntity
  8
0
  6
Continuous
 62
     7
370
    15
100
AcDbLine
 10
543.3495588263
 20
201.8102269264
 30
0.0
 11
540.8995695075
 21
201.8102269264
 31
0.0
  0
LINE
  5
1BA
330
1F
100
AcDbEntity
  8
0
  6
Continuous
 62
     7
370
    15
100
AcDbLine
 10
540.8995695075
 20
216.5102271007
 30
0.0
 11
540.8995695075
 21
201.8102269264
 31
0.0
  0
LINE
  5
1BB
330
1F
100
AcDbEntity
  8
0
  6
Continuous
 62
     7
370
    15
100
AcDbLine
 10
540.8995695075
 20
216.5102271007
 30
0.0
 11
543.3495588263
 21
216.5102271007
 31
0.0
  0
LINE
  5
1BC
330
1F
100
AcDbEntity
  8
0
  6
Continuous
 62
     7
370
    15
100
AcDbLine
 10
543.3495588263
 20
216.5102271007
 30
0.0
 11
543.3495588263
 21
201.8102269264
 31
0.0
  0
LINE
  5
1BD
330
1F
100
AcDbEntity
  8
0
  6
Continuous
 62
     7
370
    15
100
AcDbLine
 10
543.3495588263
 20
219.3102270009
 30
0.0
 11
543.3495588263
 21
216.5102271007
 31
0.0
  0
LINE
  5
1BE
330
1F
100
AcDbEntity
  8
0
  6
Continuous
 62
     7
370
    15
100
AcDbLine
 10
536.8495531043
 20
219.3102270009
 30
0.0
 11
543.3495588263
 21
219.3102270009
 31
0.0
  0
LINE
  5
1BF
330
1F
100
AcDbEntity
  8
0
  6
Continuous
 62
     7
370
    15
100
AcDbLine
 10
536.8495531043
 20
254.3102280812
 30
0.0
 11
536.8495531043
 21
219.3102270009
 31
0.0
  0
ARC
  5
1C0
330
1F
100
AcDbEntity
  8
0
  6
Continuous
 62
     7
370
    15
100
AcDbCircle
 10
538.8495575658
 20
254.3102269081
 30
0.0
 40
2.000000000000028
100
AcDbArc
 50
90.0
 51
180.0
  0
LINE
  5
1C1
330
1F
100
AcDbEntity
  8
0
  6
Continuous
 62
     7
370
    15
100
AcDbLine
 10
575.8495576342
 20
256.310228409
 30
0.0
 11
538.8495571574
 21
256.310228409
 31
0.0
  0
ARC
  5
1C2
330
1F
100
AcDbEntity
  8
0
  6
Continuous
 62
     7
370
    15
100
AcDbCircle
 10
575.9495575658
 20
233.3104443004
 30
0.0
 40
23.00000000000003
100
AcDbArc
 50
296.1145004007
 51
90.2491128697
  0
LINE
  5
1C3
330
1F
100
AcDbEntity
  8
0
  6
Continuous
 62
     7
370
    15
100
AcDbLine
 10
561.732644554
 20
201.9787571968
 30
0.0
 11
586.0733933409
 21
212.6583715195
 31
0.0
  0
ARC
  5
1C4
330
1F
100
AcDbEntity
  8
0
  6
Continuous
 62
     7
370
    15
100
AcDbCircle
 10
560.9290886125
 20
203.8102269081
 30
0.0
 40
2.000000000000102
100
AcDbArc
 50
270.0
 51
293.6896982314
  0
LINE
  5
1C5
330
1F
100
AcDbEntity
  8
0
  6
Continuous
 62
     7
370
    15
100
AcDbLine
 10
543.3495588263
 20
201.8102269264
 30
0.0
 11
560.9290845355
 21
201.8102269264
 31
0.0
  0
ARC
  5
1C6
330
1F
100
AcDbEntity
  8
0
  6
Continuous
 62
     7
370
    15
100
AcDbCircle
 10
563.9495575658
 20
223.6158852367
 30
0.0
 40
0.2503511010932662
100
AcDbArc
 50
79.8945592916
 51
263.9942235051
  0
ARC
  5
1C7
330
1F
100
AcDbEntity
  8
0
  6
Continuous
 62
     7
370
    15
100
AcDbCircle
 10
563.4495575658
 20
220.8104443004
 30
0.0
 40
2.600000000000018
100
AcDbArc
 50
280.4998591652
 51
79.5001408348
  0
ARC
  5
1C8
330
1F
100
AcDbEntity
  8
0
  6
Continuous
 62
     7
370
    15
100
AcDbCircle
 10
563.9495575658
 20
218.0050033641
 30
0.0
 40
0.2503511010932417
100
AcDbArc
 50
96.005776495
 51
280.1054407084
  0
ARC
  5
1C9
330
1F
100
AcDbEntity
  8
0
  6
Continuous
 62
     7
370
    15
100
AcDbCircle
 10
563.4495575658
 20
220.8104443004
 30
0.0
 40
3.100000000000013
100
AcDbArc
 50
280.1054407084
 51
79.8945592916
  0
ARC
  5
1CA
330
1F
100
AcDbEntity
  8
0
  6
Continuous
 62
     7
370
    15
100
AcDbCircle
 10
563.4495575658
 20
220.8104443004
 30
0.0
 40
3.1
100
AcDbArc
 50
100.8891073053
 51
259.1110070997
  0
ARC
  5
1CB
330
1F
100
AcDbEntity
  8
0
  6
Continuous
 62
     7
370
    15
100
AcDbCircle
 10
562.9112448887
 20
218.0121311525
 30
0.0
 40
0.2503794968157582
100
AcDbArc
 50
259.1110070998
 51
83.3730607602
  0
ARC
  5
1CC
330
1F
100
AcDbEntity
  8
0
  6
Continuous
 62
     7
370
    15
100
AcDbCircle
 10
563.4495575658
 20
220.8104443004
 30
0.0
 40
2.600000000000013
100
AcDbArc
 50
101.3148497955
 51
258.700947069
  0
ARC
  5
1CD
330
1F
100
AcDbEntity
  8
0
  6
Continuous
 62
     7
370
    15
100
AcDbCircle
 10
562.9112448887
 20
223.6087273282
 30
0.0
 40
0.2504090746769058
100
AcDbArc
 50
276.4642622073
 51
100.8891073053
  0
LINE
  5
1CE
330
1F
100
AcDbEntity
  8
0
  6
Continuous
 62
     7
370
    15
100
AcDbLine
 10
540.8995695075
 20
216.5102271007
 30
0.0
 11
540.1686377486
 21
216.5102271007
 31
0.0
  0
LINE
  5
1CF
330
1F
100
AcDbEntity
  8
0
  6
Continuous
 62
     7
370
    15
100
AcDbLine
 10
540.1686377486
 20
201.8102269264
 30
0.0
 11
540.8995695075
 21
201.8102269264
 31
0.0
  0
LINE
  5
1D0
330
1F
100
AcDbEntity
  8
0
  6
Continuous
 62
     7
370
    15
100
AcDbLine
 10
599.5686299761
 20
43.7026360647
 30
0.0
 11
601.1686272582
 21
43.7026360647
 31
0.0
  0
LINE
  5
1D1
330
1F
100
AcDbEntity
  8
0
  6
Continuous
 62
     7
370
    15
100
AcDbLine
 10
599.5686299761
 20
-12.3090109213
 30
0.0
 11
601.1686272582
 21
-12.3090109213
 31
0.0
  0
LINE
  5
1D2
330
1F
100
AcDbEntity
  8
0
  6
Continuous
 62
     7
370
    15
100
AcDbLine
 10
599.5686299761
 20
-14.3029949053
 30
0.0
 11
601.1686272582
 21
-14.3029949053
 31
0.0
  0
SPLINE
  5
1D3
330
1F
100
AcDbEntity
  8
0
  6
Continuous
 62
     7
370
    15
100
AcDbSpline
210
0.0
220
0.0
230
1.0
 70
    24
 71
     3
 72
     8
 73
     4
 74
     0
 42
0.00000001
 43
0.00000001
 40
5.000007566591376
 40
5.000007566591376
 40
5.000007566591376
 40
5.000007566591376
 40
6.0
 40
6.0
 40
6.0
 40
6.0
 10
601.1686272367293
 20
-14.30299011687841
 30
0.0
 10
601.1686272367293
 20
-14.3053779248013
 30
0.0
 10
601.1686272367293
 20
-13.40816963937116
 30
0.0
 10
601.1686272367293
 20
-12.30900673261381
 30
0.0
  0
LINE
  5
1D4
330
1F
100
AcDbEntity
  8
0
  6
Continuous
 62
     7
370
    15
100
AcDbLine
 10
599.5686299761
 20
45.6970074789
 30
0.0
 11
601.1686272582
 21
45.6970074789
 31
0.0
  0
SPLINE
  5
1D5
330
1F
100
AcDbEntity
  8
0
  6
Continuous
 62
     7
370
    15
100
AcDbSpline
210
0.0
220
0.0
230
1.0
 70
    24
 71
     3
 72
     8
 73
     4
 74
     0
 42
0.00000001
 43
0.00000001
 40
7.0
 40
7.0
 40
7.0
 40
7.0
 40
7.999992438221802
 40
7.999992438221802
 40
7.999992438221802
 40
7.999992438221802
 10
601.1686272367293
 20
43.70263205775274
 30
0.0
 10
601.1686272367293
 20
44.80179497083689
 30
0.0
 10
601.1686272367293
 20
45.69939732839764
 30
0.0
 10
601.1686272367293
 20
45.6970099917916
 30
0.0
  0
LINE
  5
1D6
330
1F
100
AcDbEntity
  8
0
  6
Continuous
 62
     7
370
    15
100
AcDbLine
 10
561.7336876353
 20
201.9787702353
 30
0.0
 11
561.975026842
 21
202.0846709253
 31
0.0
  0
ARC
  5
1D7
330
1F
100
AcDbEntity
  8
0
  6
Continuous
 62
     7
370
    15
100
AcDbCircle
 10
560.9300844164
 20
203.8102269081
 30
0.0
 40
2.000000000000024
100
AcDbArc
 50
270.0
 51
293.6906453817
  0
LINE
  5
1D8
330
1F
100
AcDbEntity
  8
0
  6
Continuous
 62
     7
370
    15
100
AcDbLine
 10
618.5686237772
 20
41.2967839853
 30
0.0
 11
618.5686237772
 21
46.09701425
 31
0.0
  0
SPLINE
  5
1D9
330
1F
100
AcDbEntity
  8
0
  6
Continuous
 62
     7
370
    15
100
AcDbSpline
210
0.0
220
0.0
230
1.0
 70
     8
 71
     3
 72
     9
 73
     5
 74
     0
 42
0.00000001
 43
0.00000001
 40
0.0
 40
0.0
 40
0.0
 40
0.0
 40
0.520973358339013
 40
1.0
 40
1.0
 40
1.0
 40
1.0
 10
617.9400033911176
 20
40.1920714990738
 30
0.0
 10
617.9681032143153
 20
40.4358347341241
 30
0.0
 10
618.0220403739571
 20
40.90373435153913
 30
0.0
 10
618.3915965319653
 20
41.16948320469055
 30
0.0
 10
618.5686237772412
 20
41.29678398534089
 30
0.0
  0
LINE
  5
1DA
330
1F
100
AcDbEntity
  8
0
  6
Continuous
 62
     7
370
    15
100
AcDbLine
 10
617.9400033911
 20
-4.9980542047
 30
0.0
 11
617.9400033911
 21
40.1920714991
 31
0.0
  0
SPLINE
  5
1DB
330
1F
100
AcDbEntity
  8
0
  6
Continuous
 62
     7
370
    15
100
AcDbSpline
210
0.0
220
0.0
230
1.0
 70
     8
 71
     3
 72
     9
 73
     5
 74
     0
 42
0.00000001
 43
0.00000001
 40
0.0
 40
0.0
 40
0.0
 40
0.0
 40
0.4790266416609869
 40
1.0
 40
1.0
 40
1.0
 40
1.0
 10
618.5686237772412
 20
-6.102766691004957
 30
0.0
 10
618.3915965319655
 20
-5.975465910354583
 30
0.0
 10
618.0220403739573
 20
-5.709717057203301
 30
0.0
 10
617.9681032143154
 20
-5.241817439788077
 30
0.0
 10
617.9400033911176
 20
-4.99805420473784
 30
0.0
  0
LINE
  5
1DC
330
1F
100
AcDbEntity
  8
0
  6
Continuous
 62
     7
370
    15
100
AcDbLine
 10
618.5686237772
 20
-10.9029969557
 30
0.0
 11
618.5686237772
 21
-6.102766691
 31
0.0
  0
SPLINE
  5
1DD
330
1F
100
AcDbEntity
  8
0
  6
Continuous
 62
     7
370
    15
100
AcDbSpline
210
0.0
220
0.0
230
1.0
 70
     8
 71
     3
 72
    16
 73
    12
 74
     0
 42
0.00000001
 43
0.00000001
 40
0.0
 40
0.0
 40
0.0
 40
0.0
 40
0.0000622906080178
 40
0.1251221366727212
 40
0.2500897921291463
 40
0.3750574396482346
 40
0.5000255769029764
 40
0.6249858402043106
 40
0.7499499948377503
 40
0.8749122486594274
 40
0.9999999999999999
 40
0.9999999999999999
 40
0.9999999999999999
 40
0.9999999999999999
 10
610.8899660070844
 20
49.16847139760286
 30
0.0
 10
610.8899361913403
 20
49.16848133695056
 30
0.0
 10
610.8300457887843
 20
49.18844634386807
 30
0.0
 10
611.0350597001064
 20
49.10156979366492
 30
0.0
 10
611.5028900985267
 20
48.87302603566246
 30
0.0
 10
612.2711354435471
 20
48.52643168389084
 30
0.0
 10
613.173237452853
 20
48.14770516453409
 30
0.0
 10
614.0916893151384
 20
47.79580222395479
 30
0.0
 10
614.8723128568178
 20
47.52285575052792
 30
0.0
 10
615.4234390883573
 20
47.34519827754993
 30
0.0
 10
615.4959436735318
 20
47.32278857264505
 30
0.0
 10
615.5322141607709
 20
47.31157809659273
 30
0.0
  0
LINE
  5
1DE
330
1F
100
AcDbEntity
  8
0
  6
Continuous
 62
     7
370
    15
100
AcDbLine
 10
608.568633314
 20
-14.9029901607
 30
0.0
 11
608.568633314
 21
12.2372397797
 31
0.0
  0
LINE
  5
1DF
330
1F
100
AcDbEntity
  8
0
  6
Continuous
 62
     7
370
    15
100
AcDbLine
 10
608.568633314
 20
22.9970106499
 30
0.0
 11
608.568633314
 21
50.0970074551
 31
0.0
  0
LINE
  5
1E0
330
1F
100
AcDbEntity
  8
0
  6
Continuous
 62
     7
370
    15
100
AcDbLine
 10
618.5686237772
 20
39.4624063389
 30
0.0
 11
618.5686237772
 21
-4.2683890446
 31
0.0
  0
ARC
  5
1E1
330
1F
100
AcDbEntity
  8
0
  6
Continuous
 62
     7
370
    15
100
AcDbCircle
 10
617.7567944971
 20
-4.2045994871
 30
0.0
 40
0.8143315588820954
100
AcDbArc
 50
283.0017439716
 51
355.5072101142
  0
ARC
  5
1E2
330
1F
100
AcDbEntity
  8
0
  6
Continuous
 62
     7
370
    15
100
AcDbCircle
 10
617.7567944971
 20
39.3986167814
 30
0.0
 40
0.814331558882095
100
AcDbArc
 50
4.4927898858
 51
76.9982560284
  0
SPLINE
  5
1E3
330
1F
100
AcDbEntity
  8
0
  6
Continuous
 62
     7
370
    15
100
AcDbSpline
210
0.0
220
0.0
230
1.0
 70
     8
 71
     3
 72
    10
 73
     6
 74
     0
 42
0.00000001
 43
0.00000001
 40
0.0
 40
0.0
 40
0.0
 40
0.0
 40
0.5
 40
0.5
 40
1.0
 40
1.0
 40
1.0
 40
1.0
 10
618.5686272367278
 20
-4.268389314474041
 30
0.0
 10
618.5686272367277
 20
-4.465308723792888
 30
0.0
 10
618.6039583180694
 20
-4.637991414712439
 30
0.0
 10
618.7574851636972
 20
-4.929994233706103
 30
0.0
 10
618.8726919196152
 20
-5.042030176573925
 30
0.0
 10
619.0253375085352
 20
-5.119125644362427
 30
0.0
  0
SPLINE
  5
1E4
330
1F
100
AcDbEntity
  8
0
  6
Continuous
 62
     7
370
    15
100
AcDbSpline
210
0.0
220
0.0
230
1.0
 70
     8
 71
     3
 72
    12
 73
     8
 74
     0
 42
0.00000001
 43
0.00000001
 40
0.0
 40
0.0
 40
0.0
 40
0.0
 40
0.2499999999999829
 40
0.2499999999999829
 40
0.4999999999999658
 40
0.4999999999999658
 40
1.0
 40
1.0
 40
1.0
 40
1.0
 10
618.5816854256032
 20
-6.075010863335089
 30
0.0
 10
618.6513325877696
 20
-6.01906978625244
 30
0.0
 10
618.7141658085395
 20
-5.954758584601594
 30
0.0
 10
618.8265439067467
 20
-5.80981317196963
 30
0.0
 10
618.8751260012065
 20
-5.729882922859003
 30
0.0
 10
618.9915713212993
 20
-5.479212153043894
 30
0.0
 10
619.0309558650779
 20
-5.292600188282343
 30
0.0
 10
619.0253375085351
 20
-5.119125644358707
 30
0.0
  0
SPLINE
  5
1E5
330
1F
100
AcDbEntity
  8
0
  6
Continuous
 62
     7
370
    15
100
AcDbSpline
210
0.0
220
0.0
230
1.0
 70
     8
 71
     3
 72
    14
 73
    10
 74
     0
 42
0.00000001
 43
0.00000001
 40
0.0
 40
0.0
 40
0.0
 40
0.0
 40
0.0000095361705259
 40
0.0000095361705259
 40
0.0000095361705259
 40
0.0000219642949668
 40
0.0000219642949668
 40
0.0000219642949668
 40
0.0000450544384129
 40
0.0000450544384129
 40
0.0000450544384129
 40
0.0000450544384129
 10
618.5816854256032
 20
-6.075010863335089
 30
0.0
 10
618.579314510256
 20
-6.076915198760357
 30
0.0
 10
618.5772650585044
 20
-6.079016150192906
 30
0.0
 10
618.5756533521075
 20
-6.081088886526947
 30
0.0
 10
618.5735514650927
 20
-6.083792020046386
 30
0.0
 10
618.5720884132342
 20
-6.086529250776962
 30
0.0
 10
618.5710658769733
 20
-6.089131005910408
 30
0.0
 10
618.5691704728009
 20
-6.093953697999144
 30
0.0
 10
618.5686272367273
 20
-6.098500426145126
 30
0.0
 10
618.5686272367273
 20
-6.102768377122897
 30
0.0
  0
SPLINE
  5
1E6
330
1F
100
AcDbEntity
  8
0
  6
Continuous
 62
     7
370
    15
100
AcDbSpline
210
0.0
220
0.0
230
1.0
 70
     8
 71
     3
 72
    12
 73
     8
 74
     0
 42
0.00000001
 43
0.00000001
 40
0.0
 40
0.0
 40
0.0
 40
0.0
 40
0.2499999999999829
 40
0.2499999999999829
 40
0.4999999999999658
 40
0.4999999999999658
 40
1.0
 40
1.0
 40
1.0
 40
1.0
 10
618.5816854256032
 20
41.26903073828578
 30
0.0
 10
618.6513325877696
 20
41.21308966120313
 30
0.0
 10
618.7141658085407
 20
41.14877845955287
 30
0.0
 10
618.8265439067482
 20
41.00383304692101
 30
0.0
 10
618.8751260012075
 20
40.92390279781022
 30
0.0
 10
618.991571321301
 20
40.6732320279953
 30
0.0
 10
619.0309558650673
 20
40.48662006322745
 30
0.0
 10
619.0253375085351
 20
40.3131455193092
 30
0.0
  0
SPLINE
  5
1E7
330
1F
100
AcDbEntity
  8
0
  6
Continuous
 62
     7
370
    15
100
AcDbSpline
210
0.0
220
0.0
230
1.0
 70
     8
 71
     3
 72
    10
 73
     6
 74
     0
 42
0.00000001
 43
0.00000001
 40
0.0
 40
0.0
 40
0.0
 40
0.0
 40
0.5
 40
0.5
 40
1.0
 40
1.0
 40
1.0
 40
1.0
 10
619.0253375085352
 20
40.31314551931312
 30
0.0
 10
618.8726919196152
 20
40.23605005152461
 30
0.0
 10
618.7574851636972
 20
40.12401410865674
 30
0.0
 10
618.6039583180694
 20
39.8320112896631
 30
0.0
 10
618.5686272367279
 20
39.65932859874355
 30
0.0
 10
618.5686272367278
 20
39.46240918942473
 30
0.0
  0
SPLINE
  5
1E8
330
1F
100
AcDbEntity
  8
0
  6
Continuous
 62
     7
370
    15
100
AcDbSpline
210
0.0
220
0.0
230
1.0
 70
     8
 71
     3
 72
    11
 73
     7
 74
     0
 42
0.00000001
 43
0.00000001
 40
0.0
 40
0.0
 40
0.0
 40
0.0
 40
0.370599055910639
 40
0.7446273177735617
 40
0.9445097773297352
 40
1.0
 40
1.0
 40
1.0
 40
1.0
 10
618.5686237772412
 20
41.29678398534089
 30
0.0
 10
618.5687956662151
 20
41.29363347670795
 30
0.0
 10
618.5691410346761
 20
41.2873033073361
 30
0.0
 10
618.572890334094
 20
41.2781507815739
 30
0.0
 10
618.5782854026047
 20
41.27188630389411
 30
0.0
 10
618.5810717465738
 20
41.26954645224357
 30
0.0
 10
618.581677194447
 20
41.26903802319795
 30
0.0
  0
SPLINE
  5
1E9
330
1F
100
AcDbEntity
  8
0
  6
Continuous
 62
     7
370
    15
100
AcDbSpline
210
0.0
220
0.0
230
1.0
 70
     8
 71
     3
 72
    11
 73
     7
 74
     0
 42
0.00000001
 43
0.00000001
 40
0.0
 40
0.0
 40
0.0
 40
0.0
 40
0.3658269928458578
 40
0.7252562080318103
 40
0.9820638424409975
 40
1.0
 40
1.0
 40
1.0
 40
1.0
 10
621.516282077641
 20
39.75552708073884
 30
0.0
 10
621.1752062361597
 20
39.92390481577635
 30
0.0
 10
620.4990194695147
 20
40.25771560617294
 30
0.0
 10
619.6390433850524
 20
40.4400964021204
 30
0.0
 10
619.1924343440746
 20
40.38465792057186
 30
0.0
 10
619.0355840584749
 20
40.31752601995725
 30
0.0
 10
619.0253443678326
 20
40.31314343377382
 30
0.0
  0
LINE
  5
1EA
330
1F
100
AcDbEntity
  8
0
  6
Continuous
 62
     7
370
    15
100
AcDbLine
 10
621.5162820776
 20
39.7555270807
 30
0.0
 11
621.5162820776
 21
-4.5614948852
 31
0.0
  0
SPLINE
  5
1EB
330
1F
100
AcDbEntity
  8
0
  6
Continuous
 62
     7
370
    15
100
AcDbSpline
210
0.0
220
0.0
230
1.0
 70
     8
 71
     3
 72
    11
 73
     7
 74
     0
 42
0.00000001
 43
0.00000001
 40
0.0
 40
0.0
 40
0.0
 40
0.0
 40
0.2357953754101363
 40
0.2749043201541513
 40
0.6342530917189384
 40
1.0
 40
1.0
 40
1.0
 40
1.0
 10
619.0253443678326
 20
-5.119126139437852
 30
0.0
 10
619.1731380647221
 20
-5.162475760336793
 30
0.0
 10
619.3454447764032
 20
-5.213015335345128
 30
0.0
 10
619.8286519282037
 20
-5.203942580896154
 30
0.0
 10
620.4994355216851
 20
-5.06439430845429
 30
0.0
 10
621.1753451834591
 20
-4.730111247692403
 30
0.0
 10
621.516282077641
 20
-4.561494885241685
 30
0.0
  0
SPLINE
  5
1EC
330
1F
100
AcDbEntity
  8
0
  6
Continuous
 62
     7
370
    15
100
AcDbSpline
210
0.0
220
0.0
230
1.0
 70
     8
 71
     3
 72
    10
 73
     6
 74
     0
 42
0.00000001
 43
0.00000001
 40
0.0
 40
0.0
 40
0.0
 40
0.0
 40
0.3554467813876823
 40
0.71423312761439
 40
1.0
 40
1.0
 40
1.0
 40
1.0
 10
621.9091958960004
 20
-5.710508523738084
 30
0.0
 10
621.4537062022864
 20
-5.875739155629028
 30
0.0
 10
620.5384473067992
 20
-6.207752827359108
 30
0.0
 10
619.3479839683829
 20
-6.335624996398614
 30
0.0
 10
618.8170640168909
 20
-6.155060343821877
 30
0.0
 10
618.581677194447
 20
-6.075005827700791
 30
0.0
  0
ARC
  5
1ED
330
1F
100
AcDbEntity
  8
0
  6
Continuous
 62
     7
370
    15
100
AcDbCircle
 10
617.7859587861
 20
-6.4787936008
 30
0.0
 40
4.194203884422942
100
AcDbArc
 50
10.5549131848
 51
27.2021013754
  0
LINE
  5
1EE
330
1F
100
AcDbEntity
  8
0
  6
Continuous
 62
     7
370
    15
100
AcDbLine
 10
637.9789955576
 20
1.2763479368
 30
0.0
 11
621.909195896
 21
-5.7105085237
 31
0.0
  0
SPLINE
  5
1EF
330
1F
100
AcDbEntity
  8
0
  6
Continuous
 62
     7
370
    15
100
AcDbSpline
210
0.0
220
0.0
230
1.0
 70
     8
 71
     3
 72
    12
 73
     8
 74
     0
 42
0.00000001
 43
0.00000001
 40
0.0
 40
0.0
 40
0.0
 40
0.0
 40
0.2239093385439392
 40
0.4477876159223846
 40
0.6716366802317323
 40
0.8955493168973597
 40
1.0
 40
1.0
 40
1.0
 40
1.0
 10
619.2373878916211
 20
45.79481870099333
 30
0.0
 10
619.211987053773
 20
45.80629102038214
 30
0.0
 10
619.1611889017335
 20
45.82923406769601
 30
0.0
 10
619.0957112363834
 20
45.85911586638364
 30
0.0
 10
619.0481091890316
 20
45.88095192073646
 30
0.0
 10
619.0269109953432
 20
45.89073135954263
 30
0.0
 10
619.0251571871412
 20
45.89156127008911
 30
0.0
 10
619.024599309773
 20
45.89182526036531
 30
0.0
  0
LINE
  5
1F0
330
1F
100
AcDbEntity
  8
0
  6
Continuous
 62
     7
370
    15
100
AcDbLine
 10
619.2373878916
 20
45.794818701
 30
0.0
 11
636.631125923
 21
37.9135945456
 31
0.0
  0
LINE
  5
1F1
330
1F
100
AcDbEntity
  8
0
  6
Continuous
 62
     7
370
    15
100
AcDbLine
 10
636.631125923
 20
37.9135945456
 30
0.0
 11
637.9789955576
 21
37.3053440468
 31
0.0
  0
LINE
  5
1F2
330
1F
100
AcDbEntity
  8
0
  6
Continuous
 62
     7
370
    15
100
AcDbLine
 10
637.9789955576
 20
33.9176693575
 30
0.0
 11
637.9789955576
 21
37.3053440468
 31
0.0
  0
LINE
  5
1F3
330
1F
100
AcDbEntity
  8
0
  6
Continuous
 62
     7
370
    15
100
AcDbLine
 10
621.909195896
 20
40.9045258181
 30
0.0
 11
637.9789955576
 21
33.9176693575
 31
0.0
  0
SPLINE
  5
1F4
330
1F
100
AcDbEntity
  8
0
  6
Continuous
 62
     7
370
    15
100
AcDbSpline
210
0.0
220
0.0
230
1.0
 70
     8
 71
     3
 72
    10
 73
     6
 74
     0
 42
0.00000001
 43
0.00000001
 40
0.0
 40
0.0
 40
0.0
 40
0.0
 40
0.2857664733854886
 40
0.6445530200450665
 40
1.0
 40
1.0
 40
1.0
 40
1.0
 10
618.581677194447
 20
41.26903802319795
 30
0.0
 10
618.8170641799055
 20
41.34908636637891
 30
0.0
 10
619.3479850768155
 20
41.52963729222975
 30
0.0
 10
620.5384471869846
 20
41.40177145310431
 30
0.0
 10
621.4537061624728
 20
41.06975689238251
 30
0.0
 10
621.9091958960004
 20
40.90452581807405
 30
0.0
  0
ARC
  5
1F5
330
1F
100
AcDbEntity
  8
0
  6
Continuous
 62
     7
370
    15
100
AcDbCircle
 10
617.7863299087
 20
41.6727088504
 30
0.0
 40
4.193820349100857
100
AcDbArc
 50
332.7970018568
 51
349.4455285983
  0
SPLINE
  5
1F6
330
1F
100
AcDbEntity
  8
0
  6
Continuous
 62
     7
370
    15
100
AcDbSpline
210
0.0
220
0.0
230
1.0
 70
     8
 71
     3
 72
    10
 73
     6
 74
     0
 42
0.00000001
 43
0.00000001
 40
0.0
 40
0.0
 40
0.0
 40
0.0
 40
0.5
 40
0.5
 40
1.0
 40
1.0
 40
1.0
 40
1.0
 10
621.5162820149275
 20
-4.561495873438237
 30
0.0
 10
624.2024453132029
 20
-3.462416403694324
 30
0.0
 10
626.8858447349465
 20
-2.345648717154786
 30
0.0
 10
632.2440814292592
 20
-0.0695944916796476
 30
0.0
 10
634.919066974263
 20
1.089341596502397
 30
0.0
 10
637.586079643165
 20
2.278262990188323
 30
0.0
  0
ARC
  5
1F7
330
1F
100
AcDbEntity
  8
0
  6
Continuous
 62
     7
370
    15
100
AcDbCircle
 10
632.5452507719
 20
-0.2765785233
 30
0.0
 40
5.651297460537567
100
AcDbArc
 50
15.9495677397
 51
26.877182181
  0
LINE
  5
1F8
330
1F
100
AcDbEntity
  8
0
  6
Continuous
 62
     7
370
    15
100
AcDbLine
 10
637.5860817393
 20
32.9157599823
 30
0.0
 11
621.5162820776
 21
39.7555270807
 31
0.0
  0
ARC
  5
1F9
330
1F
100
AcDbEntity
  8
0
  6
Continuous
 62
     7
370
    15
100
AcDbCircle
 10
632.5452507719
 20
35.4705958176
 30
0.0
 40
5.651297460537567
100
AcDbArc
 50
333.122817819
 51
344.0504322603
  0
LINE
  5
1FA
330
1F
100
AcDbEntity
  8
0
  6
Continuous
 62
     7
370
    15
100
AcDbLine
 10
637.5860817393
 20
2.278257312
 30
0.0
 11
637.5860817393
 21
32.9157599823
 31
0.0
  0
ARC
  5
1FB
330
1F
100
AcDbEntity
  8
0
  6
Continuous
 62
     7
370
    15
100
AcDbCircle
 10
637.8127753661
 20
34.084638439
 30
0.0
 40
1.1906581570957
100
AcDbArc
 50
259.0242481082
 51
309.4069798071
  0
ARC
  5
1FC
330
1F
100
AcDbEntity
  8
0
  6
Continuous
 62
     7
370
    15
100
AcDbCircle
 10
637.7340919424
 20
33.1185375681
 30
0.0
 40
0.8358166052541471
100
AcDbArc
 50
3.163946408
 51
72.9616823439
  0
ARC
  5
1FD
330
1F
100
AcDbEntity
  8
0
  6
Continuous
 62
     7
370
    15
100
AcDbCircle
 10
637.8127753661
 20
1.1093788553
 30
0.0
 40
1.190658157095691
100
AcDbArc
 50
50.5930201929
 51
100.9757518918
  0
ARC
  5
1FE
330
1F
100
AcDbEntity
  8
0
  6
Continuous
 62
     7
370
    15
100
AcDbCircle
 10
637.7340919424
 20
2.0754797263
 30
0.0
 40
0.8358166052542421
100
AcDbArc
 50
287.0383176561
 51
356.836053592
  0
LINE
  5
1FF
330
1F
100
AcDbEntity
  8
0
  6
Continuous
 62
     7
370
    15
100
AcDbLine
 10
638.5686345061
 20
33.1646689789
 30
0.0
 11
638.5686345061
 21
2.0293483154
 31
0.0
  0
LINE
  5
200
330
1F
100
AcDbEntity
  8
0
  6
Continuous
 62
     7
370
    15
100
AcDbLine
 10
638.5686345061
 20
36.3906660692
 30
0.0
 11
638.5686345061
 21
33.1646689789
 31
0.0
  0
SPLINE
  5
201
330
1F
100
AcDbEntity
  8
0
  6
Continuous
 62
     7
370
    15
100
AcDbSpline
210
0.0
220
0.0
230
1.0
 70
     8
 71
     3
 72
    10
 73
     6
 74
     0
 42
0.00000001
 43
0.00000001
 40
0.0
 40
0.0
 40
0.0
 40
0.0
 40
0.5
 40
0.5
 40
1.0
 40
1.0
 40
1.0
 40
1.0
 10
637.9789919140566
 20
37.30534581471679
 30
0.0
 10
638.1552440516532
 20
37.2258029641385
 30
0.0
 10
638.3045861335754
 20
37.09618042943735
 30
0.0
 10
638.51175927673
 20
36.77507404895691
 30
0.0
 10
638.5686272367279
 20
36.58401441967924
 30
0.0
 10
638.5686272367278
 20
36.3906587093896
 30
0.0
  0
LINE
  5
202
330
1F
100
AcDbEntity
  8
0
  6
Continuous
 62
     7
370
    15
100
AcDbLine
 10
638.5686345061
 20
2.0293483154
 30
0.0
 11
638.5686345061
 21
-1.2564024313
 31
0.0
  0
LINE
  5
203
330
1F
100
AcDbEntity
  8
0
  6
Continuous
 62
     7
370
    15
100
AcDbLine
 10
606.5686292609
 20
12.1970066445
 30
0.0
 11
606.5686292609
 21
11.625114979
 31
0.0
  0
LINE
  5
204
330
1F
100
AcDbEntity
  8
0
  6
Continuous
 62
     7
370
    15
100
AcDbLine
 10
606.5686292609
 20
11.625114979
 30
0.0
 11
606.5686292609
 21
10.5709323303
 31
0.0
  0
LINE
  5
205
330
1F
100
AcDbEntity
  8
0
  6
Continuous
 62
     7
370
    15
100
AcDbLine
 10
606.5686292609
 20
10.5709323303
 30
0.0
 11
606.5686292609
 21
10.48520595
 31
0.0
  0
SPLINE
  5
206
330
1F
100
AcDbEntity
  8
0
  6
Continuous
 62
     7
370
    15
100
AcDbSpline
210
0.0
220
0.0
230
1.0
 70
     8
 71
     3
 72
    16
 73
    12
 74
     0
 42
0.00000001
 43
0.00000001
 40
0.0
 40
0.0
 40
0.0
 40
0.0
 40
0.0001750463261932
 40
0.1252129543650736
 40
0.2502443881813587
 40
0.3752588775172744
 40
0.5002631423419076
 40
0.6252647684166488
 40
0.7502654777351773
 40
0.8753609865068962
 40
1.0
 40
1.0
 40
1.0
 40
1.0
 10
610.8938403089948
 20
49.17768031522066
 30
0.0
 10
610.8937607336005
 20
49.1777151315147
 30
0.0
 10
610.8368394007292
 20
49.20261968755529
 30
0.0
 10
611.0376358599091
 20
49.10845723549903
 30
0.0
 10
611.5075377573404
 20
48.88262882173811
 30
0.0
 10
612.2759647167816
 20
48.53500436655819
 30
0.0
 10
613.1787666020007
 20
48.1562871627465
 30
0.0
 10
614.0975177940169
 20
47.80429017418453
 30
0.0
 10
614.8781186829473
 20
47.53141552073006
 30
0.0
 10
615.4278046800647
 20
47.35428920353033
 30
0.0
 10
615.4999185987305
 20
47.33199049441927
 30
0.0
 10
615.535909648747
 20
47.32086152001649
 30
0.0
  0
LINE
  5
207
330
1F
100
AcDbEntity
  8
0
  6
Continuous
 62
     8
370
    15
100
AcDbLine
 10
558.5894234141
 20
200.4214172827
 30
0.0
 11
558.5894234141
 21
199.9346848221
 31
0.0
  0
LWPOLYLINE
  5
208
330
1F
100
AcDbEntity
  8
0
  6
Continuous
 62
     8
370
    15
100
AcDbPolyline
 90
        8
 70
   128
 43
0.0
 10
559.5278687437
 20
199.7396016137
 10
559.5042951067
 20
199.7319405542
 10
559.4603366812
 20
199.7176624478
 10
559.4012088736
 20
199.6984474005
 10
559.3291468581
 20
199.6750330196
 10
559.2469222506
 20
199.6483208255
 10
559.1577238997
 20
199.6193362044
 10
559.0649492701
 20
199.5891930179
  0
LINE
  5
209
330
1F
100
AcDbEntity
  8
0
  6
Continuous
 62
     8
370
    15
100
AcDbLine
 10
-59.9313728849
 20
-144.4895675762
 30
0.0
 11
-116.9313840906
 21
-144.4895675762
 31
0.0
  0
LINE
  5
20A
330
1F
100
AcDbEntity
  8
0
  6
Continuous
 62
     8
370
    15
100
AcDbLine
 10
616.8686397036
 20
17.5970086472
 30
0.0
 11
616.8686397036
 21
22.9970106499
 31
0.0
  0
LINE
  5
20B
330
1F
100
AcDbEntity
  8
0
  6
Continuous
 62
     8
370
    15
100
AcDbLine
 10
616.8686397036
 20
12.1970066445
 30
0.0
 11
616.8686397036
 21
17.5970086472
 31
0.0
  0
LINE
  5
20C
330
1F
100
AcDbEntity
  8
0
  6
Continuous
 62
     8
370
    15
100
AcDbLine
 10
559.9641449412
 20
201.0286340134
 30
0.0
 11
559.5428593119
 21
200.891752878
 31
0.0
  0
LINE
  5
20D
330
1F
100
AcDbEntity
  8
0
  6
Continuous
 62
     8
370
    15
100
AcDbLine
 10
-56.5313749353
 20
-49.989562331
 30
0.0
 11
-120.3313820402
 21
-49.989562331
 31
0.0
  0
LINE
  5
20E
330
1F
100
AcDbEntity
  8
0
  6
Continuous
 62
     8
370
    15
100
AcDbLine
 10
-56.5313749353
 20
-105.4569891079
 30
0.0
 11
-120.3313820402
 21
-105.4569891079
 31
0.0
  0
LINE
  5
20F
330
1F
100
AcDbEntity
  8
0
  6
Continuous
 62
     8
370
    15
100
AcDbLine
 10
-56.5952711145
 20
-106.2294653042
 30
0.0
 11
-120.2674560587
 21
-106.2294653042
 31
0.0
  0
LINE
  5
210
330
1F
100
AcDbEntity
  8
0
  6
Continuous
 62
     8
370
    15
100
AcDbLine
 10
-164.981370453
 20
266.6104437427
 30
0.0
 11
-164.981370453
 21
266.145803185
 31
0.0
  0
LINE
  5
211
330
1F
100
AcDbEntity
  8
0
  6
Continuous
 62
     8
370
    15
100
AcDbLine
 10
-134.8813824693
 20
266.2604452686
 30
0.0
 11
-134.8813824693
 21
266.6104437427
 31
0.0
  0
LINE
  5
212
330
1F
100
AcDbEntity
  8
0
  6
Continuous
 62
     8
370
    15
100
AcDbLine
 10
585.2404184302
 20
211.9429445644
 30
0.0
 11
585.1126260718
 21
212.2368330071
 31
0.0
  0
LINE
  5
213
330
1F
100
AcDbEntity
  8
0
  6
Continuous
 62
     8
370
    15
100
AcDbLine
 10
575.9495444258
 20
256.3104444759
 30
0.0
 11
575.9495444258
 21
256.6104458289
 31
0.0
  0
LINE
  5
214
330
1F
100
AcDbEntity
  8
0
  6
Continuous
 62
     8
370
    15
100
AcDbLine
 10
-132.4213795702
 20
220.0604445876
 30
0.0
 11
-132.4313633482
 21
220.0604445876
 31
0.0
  0
LINE
  5
215
330
1F
100
AcDbEntity
  8
0
  6
Continuous
 62
     8
370
    15
100
AcDbLine
 10
431.5686322411
 20
-95.5395510776
 30
0.0
 11
-56.5313749353
 21
-95.5395510776
 31
0.0
  0
LINE
  5
216
330
1F
100
AcDbEntity
  8
0
  6
Continuous
 62
     8
370
    15
100
AcDbLine
 10
574.4979031046
 20
-94.7395673378
 30
0.0
 11
517.4686260184
 21
-94.7395673378
 31
0.0
  0
LINE
  5
217
330
1F
100
AcDbEntity
  8
0
  6
Continuous
 62
     8
370
    15
100
AcDbLine
 10
453.6686189135
 20
-94.7395673378
 30
0.0
 11
431.5686322411
 21
-94.7395673378
 31
0.0
  0
LINE
  5
218
330
1F
100
AcDbEntity
  8
0
  6
Continuous
 62
     8
370
    15
100
AcDbLine
 10
-132.4313633482
 20
255.110442789
 30
0.0
 11
-132.4213795702
 21
255.110442789
 31
0.0
  0
LINE
  5
219
330
1F
100
AcDbEntity
  8
0
  6
Continuous
 62
     8
370
    15
100
AcDbLine
 10
-132.4313633482
 20
241.6104433702
 30
0.0
 11
-132.4213795702
 21
241.6104433702
 31
0.0
  0
LINE
  5
21A
330
1F
100
AcDbEntity
  8
0
  6
Continuous
 62
     8
370
    15
100
AcDbLine
 10
514.0686280688
 20
-144.4895675762
 30
0.0
 11
457.0686168631
 21
-144.4895675762
 31
0.0
  0
LINE
  5
21B
330
1F
100
AcDbEntity
  8
0
  6
Continuous
 62
     8
370
    15
100
AcDbLine
 10
517.4686260184
 20
-49.989562331
 30
0.0
 11
453.6686189135
 21
-49.989562331
 31
0.0
  0
LINE
  5
21C
330
1F
100
AcDbEntity
  8
0
  6
Continuous
 62
     8
370
    15
100
AcDbLine
 10
517.4047000369
 20
-106.2294653042
 30
0.0
 11
453.732544895
 21
-106.2294653042
 31
0.0
  0
LINE
  5
21D
330
1F
100
AcDbEntity
  8
0
  6
Continuous
 62
     8
370
    15
100
AcDbLine
 10
517.4686260184
 20
-105.4569891079
 30
0.0
 11
453.6686189135
 21
-105.4569891079
 31
0.0
  0
LINE
  5
21E
330
1F
100
AcDbEntity
  8
0
  6
Continuous
 62
     8
370
    15
100
AcDbLine
 10
637.9789955576
 20
-2.168323694
 30
0.0
 11
637.9789955576
 21
1.2763479368
 31
0.0
  0
LINE
  5
21F
330
1F
100
AcDbEntity
  8
0
  6
Continuous
 62
     8
370
    15
100
AcDbLine
 10
608.568633314
 20
11.6010496037
 30
0.0
 11
606.5686292609
 21
11.625114979
 31
0.0
  0
LINE
  5
220
330
1F
100
AcDbEntity
  8
0
  6
Continuous
 62
     8
370
    15
100
AcDbLine
 10
608.568633314
 20
10.5420091765
 30
0.0
 11
606.5686292609
 21
10.5709323303
 31
0.0
  0
ENDSEC
  0
SECTION
  2
OBJECTS
  0
DICTIONARY
  5
C
330
0
100
AcDbDictionary
281
     1
  3
ACAD_GROUP
350
D
  3
ACAD_LAYOUT
350
1A
  3
ACAD_MATERIAL
350
3B
  3
ACAD_MLEADERSTYLE
350
222
  3
ACAD_MLINESTYLE
350
17
  3
ACAD_PLOTSETTINGS
350
19
  3
ACAD_PLOTSTYLENAME
350
E
  3
ACAD_TABLESTYLE
350
221
  3
ACAD_VISUALSTYLE
350
2A
  0
DICTIONARY
  5
D
102
{ACAD_REACTORS
330
C
102
}
330
C
100
AcDbDictionary
281
     1
  0
DICTIONARY
  5
1A
102
{ACAD_REACTORS
330
C
102
}
330
C
100
AcDbDictionary
281
     1
  3
Layout1
350
1E
  3
Layout2
350
26
  3
Model
350
22
  0
DICTIONARY
  5
3B
102
{ACAD_REACTORS
330
C
102
}
330
C
100
AcDbDictionary
281
     1
  3
ByBlock
350
3D
  3
ByLayer
350
3C
  3
Global
350
3E
  0
DICTIONARY
  5
222
102
{ACAD_REACTORS
330
C
102
}
330
C
100
AcDbDictionary
281
     1
  0
DICTIONARY
  5
17
102
{ACAD_REACTORS
330
C
102
}
330
C
100
AcDbDictionary
281
     1
  3
Standard
350
18
  0
DICTIONARY
  5
19
102
{ACAD_REACTORS
330
C
102
}
330
C
100
AcDbDictionary
281
     1
  0
ACDBDICTIONARYWDFLT
  5
E
102
{ACAD_REACTORS
330
C
102
}
330
C
100
AcDbDictionary
281
     1
  3
Normal
350
F
100
AcDbDictionaryWithDefault
340
F
  0
DICTIONARY
  5
221
102
{ACAD_REACTORS
330
C
102
}
330
C
100
AcDbDictionary
281
     1
  0
DICTIONARY
  5
2A
102
{ACAD_REACTORS
330
C
102
}
330
C
100
AcDbDictionary
281
     1
  3
2dWireframe
350
2F
  3
3D Hidden
350
31
  3
3dWireframe
350
30
  3
Basic
350
32
  3
Brighten
350
36
  3
ColorChange
350
3A
  3
Conceptual
350
34
  3
Dim
350
35
  3
Facepattern
350
39
  3
Flat
350
2B
  3
FlatWithEdges
350
2C
  3
Gouraud
350
2D
  3
GouraudWithEdges
350
2E
  3
Linepattern
350
38
  3
Realistic
350
33
  3
Thicken
350
37
  0
LAYOUT
  5
1E
102
{ACAD_REACTORS
330
1A
102
}
330
1A
100
AcDbPlotSettings
  1

  2
none_device
  4

  6

 40
0.0
 41
0.0
 42
0.0
 43
0.0
 44
0.0
 45
0.0
 46
0.0
 47
0.0
 48
0.0
 49
0.0
140
0.0
141
0.0
142
1.0
143
1.0
 70
   688
 72
     0
 73
     0
 74
     5
  7

 75
    16
 76
     0
 77
     2
 78
   300
147
1.0
148
0.0
149
0.0
100
AcDbLayout
  1
Layout1
 70
     1
 71
     1
 10
0.0
 20
0.0
 11
420.0
 21
297.0
 12
0.0
 22
0.0
 32
0.0
 14
1.0000000000E+20
 24
1.0000000000E+20
 34
1.0000000000E+20
 15
-1.0000000000E+20
 25
-1.0000000000E+20
 35
-1.0000000000E+20
146
0.0
 13
0.0
 23
0.0
 33
0.0
 16
1.0
 26
0.0
 36
0.0
 17
0.0
 27
1.0
 37
0.0
 76
     0
330
1B
  0
LAYOUT
  5
26
102
{ACAD_REACTORS
330
1A
102
}
330
1A
100
AcDbPlotSettings
  1

  2
none_device
  4

  6

 40
0.0
 41
0.0
 42
0.0
 43
0.0
 44
0.0
 45
0.0
 46
0.0
 47
0.0
 48
0.0
 49
0.0
140
0.0
141
0.0
142
1.0
143
1.0
 70
   688
 72
     0
 73
     0
 74
     5
  7

 75
    16
 76
     0
 77
     2
 78
   300
147
1.0
148
0.0
149
0.0
100
AcDbLayout
  1
Layout2
 70
     1
 71
     2
 10
0.0
 20
0.0
 11
0.0
 21
0.0
 12
0.0
 22
0.0
 32
0.0
 14
0.0
 24
0.0
 34
0.0
 15
0.0
 25
0.0
 35
0.0
146
0.0
 13
0.0
 23
0.0
 33
0.0
 16
1.0
 26
0.0
 36
0.0
 17
0.0
 27
1.0
 37
0.0
 76
     0
330
23
  0
LAYOUT
  5
22
102
{ACAD_REACTORS
330
1A
102
}
330
1A
100
AcDbPlotSettings
  1

  2
none_device
  4

  6

 40
0.0
 41
0.0
 42
0.0
 43
0.0
 44
0.0
 45
0.0
 46
0.0
 47
0.0
 48
0.0
 49
0.0
140
0.0
141
0.0
142
1.0
143
1.0
 70
  1712
 72
     0
 73
     0
 74
     0
  7

 75
     0
 76
     0
 77
     2
 78
   300
147
1.0
148
0.0
149
0.0
100
AcDbLayout
  1
Model
 70
     1
 71
     0
 10
0.0
 20
0.0
 11
420.0
 21
297.0
 12
0.0
 22
0.0
 32
0.0
 14
0.0
 24
0.0
 34
0.0
 15
420.0
 25
297.0
 35
0.0
146
0.0
 13
0.0
 23
0.0
 33
0.0
 16
1.0
 26
0.0
 36
0.0
 17
0.0
 27
1.0
 37
0.0
 76
     0
330
1F
331
29
  0
MATERIAL
  5
3D
102
{ACAD_REACTORS
330
3B
102
}
330
3B
100
AcDbMaterial
  1
ByBlock
 72
     1
 94
      127
  0
MATERIAL
  5
3C
102
{ACAD_REACTORS
330
3B
102
}
330
3B
100
AcDbMaterial
  1
ByLayer
 72
     1
 94
      127
  0
MATERIAL
  5
3E
102
{ACAD_REACTORS
330
3B
102
}
330
3B
100
AcDbMaterial
  1
Global
 72
     1
 94
      127
  0
MLINESTYLE
  5
18
102
{ACAD_REACTORS
330
17
102
}
330
17
100
AcDbMlineStyle
  2
Standard
 70
     0
  3

 62
   256
 51
90.0
 52
90.0
 71
     2
 49
0.5
 62
   256
  6
BYLAYER
 49
-0.5
 62
   256
  6
BYLAYER
  0
ACDBPLACEHOLDER
  5
F
102
{ACAD_REACTORS
330
E
102
}
330
E
  0
VISUALSTYLE
  5
2F
102
{ACAD_REACTORS
330
2A
102
}
330
2A
100
AcDbVisualStyle
  2
2dWireframe
 70
     4
 71
     0
 72
     2
 73
     0
 90
        0
 40
-0.6
 41
-30.0
 62
     5
 63
     7
421
 16777215
 74
     1
 91
        4
 64
     7
 65
   257
 75
     1
175
     1
 42
1.0
 92
        0
 66
   257
 43
1.0
 76
     1
 77
     6
 78
     2
 67
     7
 79
     5
170
     0
171
     0
290
     0
174
     0
 93
        1
 44
0.0
173
     0
291
     0
 45
0.0
  0
VISUALSTYLE
  5
31
102
{ACAD_REACTORS
330
2A
102
}
330
2A
100
AcDbVisualStyle
  2
3D Hidden
 70
     6
 71
     1
 72
     2
 73
     2
 90
        0
 40
-0.6
 41
-30.0
 62
     5
 63
     7
421
 16777215
 74
     2
 91
        2
 64
     7
 65
   257
 75
     2
175
     1
 42
40.0
 92
        0
 66
   257
 43
1.0
 76
     1
 77
     6
 78
     2
 67
     7
 79
     3
170
     0
171
     0
290
     0
174
     0
 93
        1
 44
0.0
173
     0
291
     0
 45
0.0
  0
VISUALSTYLE
  5
30
102
{ACAD_REACTORS
330
2A
102
}
330
2A
100
AcDbVisualStyle
  2
3dWireframe
 70
     5
 71
     0
 72
     2
 73
     0
 90
        0
 40
-0.6
 41
-30.0
 62
     5
 63
     7
421
 16777215
 74
     1
 91
        4
 64
     7
 65
   257
 75
     1
175
     1
 42
1.0
 92
        0
 66
   257
 43
1.0
 76
     1
 77
     6
 78
     2
 67
     7
 79
     5
170
     0
171
     0
290
     0
174
     0
 93
        1
 44
0.0
173
     0
291
     0
 45
0.0
  0
VISUALSTYLE
  5
32
102
{ACAD_REACTORS
330
2A
102
}
330
2A
100
AcDbVisualStyle
  2
Basic
 70
     7
 71
     1
 72
     0
 73
     1
 90
        0
 40
-0.6
 41
-30.0
 62
     5
 63
     7
421
 16777215
 74
     0
 91
        4
 64
     7
 65
   257
 75
     1
175
     1
 42
1.0
 92
        8
 66
     7
 43
1.0
 76
     1
 77
     6
 78
     2
 67
     7
 79
     5
170
     0
171
     0
290
     0
174
     0
 93
        1
 44
0.0
173
     0
291
     1
 45
0.0
  0
VISUALSTYLE
  5
36
102
{ACAD_REACTORS
330
2A
102
}
330
2A
100
AcDbVisualStyle
  2
Brighten
 70
    12
 71
     2
 72
     2
 73
     0
 90
        0
 40
-0.6
 41
-30.0
 62
     5
 63
     7
421
 16777215
 74
     1
 91
        4
 64
     7
 65
   257
 75
     1
175
     1
 42
1.0
 92
        8
 66
     7
 43
1.0
 76
     1
 77
     6
 78
     2
 67
     7
 79
     5
170
     0
171
     0
290
     0
174
     0
 93
        1
 44
50.0
173
     0
291
     1
 45
0.0
  0
VISUALSTYLE
  5
3A
102
{ACAD_REACTORS
330
2A
102
}
330
2A
100
AcDbVisualStyle
  2
ColorChange
 70
    16
 71
     2
 72
     2
 73
     3
 90
        0
 40
-0.6
 41
-30.0
 62
     5
 63
     8
421
  8421504
 74
     1
 91
        4
 64
     7
 65
   257
 75
     1
175
     1
 42
1.0
 92
        8
 66
     8
424
  8421504
 43
1.0
 76
     1
 77
     6
 78
     2
 67
     7
 79
     5
170
     0
171
     0
290
     0
174
     0
 93
        1
 44
0.0
173
     0
291
     1
 45
0.0
  0
VISUALSTYLE
  5
34
102
{ACAD_REACTORS
330
2A
102
}
330
2A
100
AcDbVisualStyle
  2
Conceptual
 70
     9
 71
     3
 72
     2
 73
     0
 90
        0
 40
-0.6
 41
-30.0
 62
     5
 63
     7
421
 16777215
 74
     2
 91
        2
 64
     7
 65
   257
 75
     1
175
     1
 42
40.0
 92
        8
 66
     7
 43
1.0
 76
     1
 77
     6
 78
     2
 67
     7
 79
     3
170
     0
171
     0
290
     0
174
     0
 93
        1
 44
0.0
173
     0
291
     0
 45
0.0
  0
VISUALSTYLE
  5
35
102
{ACAD_REACTORS
330
2A
102
}
330
2A
100
AcDbVisualStyle
  2
Dim
 70
    11
 71
     2
 72
     2
 73
     0
 90
        0
 40
-0.6
 41
-30.0
 62
     5
 63
     7
421
 16777215
 74
     1
 91
        4
 64
     7
 65
   257
 75
     1
175
     1
 42
1.0
 92
        8
 66
     7
 43
1.0
 76
     1
 77
     6
 78
     2
 67
     7
 79
     5
170
     0
171
     0
290
     0
174
     0
 93
        1
 44
-50.0
173
     0
291
     1
 45
0.0
  0
VISUALSTYLE
  5
39
102
{ACAD_REACTORS
330
2A
102
}
330
2A
100
AcDbVisualStyle
  2
Facepattern
 70
    15
 71
     2
 72
     2
 73
     0
 90
        0
 40
-0.6
 41
-30.0
 62
     5
 63
     7
421
 16777215
 74
     1
 91
        4
 64
     7
 65
   257
 75
     1
175
     1
 42
1.0
 92
        8
 66
     7
 43
1.0
 76
     1
 77
     6
 78
     2
 67
     7
 79
     5
170
     0
171
     0
290
     0
174
     0
 93
        1
 44
0.0
173
     0
291
     1
 45
0.0
  0
VISUALSTYLE
  5
2B
102
{ACAD_REACTORS
330
2A
102
}
330
2A
100
AcDbVisualStyle
  2
Flat
 70
     0
 71
     2
 72
     1
 73
     1
 90
        2
 40
-0.6
 41
30.0
 62
     5
 63
     7
421
 16777215
 74
     0
 91
        4
 64
     7
 65
   257
 75
     1
175
     1
 42
1.0
 92
        8
 66
     7
 43
1.0
 76
     1
 77
     6
 78
     2
 67
     7
 79
     5
170
     0
171
     0
290
     0
174
     0
 93
       13
 44
0.0
173
     0
291
     1
 45
0.0
  0
VISUALSTYLE
  5
2C
102
{ACAD_REACTORS
330
2A
102
}
330
2A
100
AcDbVisualStyle
  2
FlatWithEdges
 70
     1
 71
     2
 72
     1
 73
     1
 90
        2
 40
-0.6
 41
30.0
 62
     5
 63
     7
421
 16777215
 74
     1
 91
        4
 64
     7
 65
   257
 75
     1
175
     1
 42
1.0
 92
        0
 66
   257
 43
1.0
 76
     1
 77
     6
 78
     2
 67
     7
 79
     5
170
     0
171
     0
290
     0
174
     0
 93
       13
 44
0.0
173
     0
291
     1
 45
0.0
  0
VISUALSTYLE
  5
2D
102
{ACAD_REACTORS
330
2A
102
}
330
2A
100
AcDbVisualStyle
  2
Gouraud
 70
     2
 71
     2
 72
     2
 73
     1
 90
        2
 40
-0.6
 41
30.0
 62
     5
 63
     7
421
 16777215
 74
     0
 91
        4
 64
     7
 65
   257
 75
     1
175
     1
 42
1.0
 92
        0
 66
     7
 43
1.0
 76
     1
 77
     6
 78
     2
 67
     7
 79
     5
170
     0
171
     0
290
     0
174
     0
 93
       13
 44
0.0
173
     0
291
     1
 45
0.0
  0
VISUALSTYLE
  5
2E
102
{ACAD_REACTORS
330
2A
102
}
330
2A
100
AcDbVisualStyle
  2
GouraudWithEdges
 70
     3
 71
     2
 72
     2
 73
     1
 90
        2
 40
-0.6
 41
30.0
 62
     5
 63
     7
421
 16777215
 74
     1
 91
        4
 64
     7
 65
   257
 75
     1
175
     1
 42
1.0
 92
        0
 66
   257
 43
1.0
 76
     1
 77
     6
 78
     2
 67
     7
 79
     5
170
     0
171
     0
290
     0
174
     0
 93
       13
 44
0.0
173
     0
291
     1
 45
0.0
  0
VISUALSTYLE
  5
38
102
{ACAD_REACTORS
330
2A
102
}
330
2A
100
AcDbVisualStyle
  2
Linepattern
 70
    14
 71
     2
 72
     2
 73
     0
 90
        0
 40
-0.6
 41
-30.0
 62
     5
 63
     7
421
 16777215
 74
     1
 91
        4
 64
     7
 65
   257
 75
     7
175
     7
 42
1.0
 92
        8
 66
     7
 43
1.0
 76
     1
 77
     6
 78
     2
 67
     7
 79
     5
170
     0
171
     0
290
     0
174
     0
 93
        1
 44
0.0
173
     0
291
     1
 45
0.0
  0
VISUALSTYLE
  5
33
102
{ACAD_REACTORS
330
2A
102
}
330
2A
100
AcDbVisualStyle
  2
Realistic
 70
     8
 71
     2
 72
     2
 73
     0
 90
        0
 40
-0.6
 41
-30.0
 62
     5
 63
     7
421
 16777215
 74
     1
 91
        0
 64
     7
 65
   257
 75
     1
175
     1
 42
1.0
 92
        8
 66
     8
424
  7895160
 43
1.0
 76
     1
 77
     6
 78
     2
 67
     7
 79
     5
170
     0
171
     0
290
     0
174
     0
 93
       13
 44
0.0
173
     0
291
     0
 45
0.0
  0
VISUALSTYLE
  5
37
102
{ACAD_REACTORS
330
2A
102
}
330
2A
100
AcDbVisualStyle
  2
Thicken
 70
    13
 71
     2
 72
     2
 73
     0
 90
        0
 40
-0.6
 41
-30.0
 62
     5
 63
     7
421
 16777215
 74
     1
 91
        4
 64
     7
 65
   257
 75
     1
175
     1
 42
1.0
 92
       12
 66
     7
 43
1.0
 76
     1
 77
     6
 78
     2
 67
     7
 79
     5
170
     0
171
     0
290
     0
174
     0
 93
        1
 44
0.0
173
     0
291
     1
 45
0.0
  0
ENDSEC
  0
EOF
