  0
SECTION
  2
HEADER
  9
$ACADVER
  1
AC1015
  9
$ACADMAINTVER
 70
     6
  9
$DWGCODEPAGE
  3
ANSI_1252
  9
$INSBASE
 10
0.0
 20
0.0
 30
0.0
  9
$EXTMIN
 10
0.0
 20
0.0
 30
0.0
  9
$EXTMAX
 10
1500.0
 20
1500.0
 30
0.0
  9
$LIMMIN
 10
0.0
 20
0.0
  9
$LIMMAX
 10
1500.0
 20
1500.0
  9
$ORTHOMODE
 70
     0
  9
$REGENMODE
 70
     1
  9
$FILLMODE
 70
     1
  9
$QTEXTMODE
 70
     0
  9
$MIRRTEXT
 70
     1
  9
$LTSCALE
 40
1.0
  9
$ATTMODE
 70
     1
  9
$TEXTSIZE
 40
3.5
  9
$TRACEWID
 40
1.0
  9
$TEXTSTYLE
  7
STANDARD
  9
$CLAYER
  8
0
  9
$CELTYPE
  6
ByLayer
  9
$CECOLOR
 62
   256
  9
$CELTSCALE
 40
1.0
  9
$DISPSILH
 70
     0
  9
$DIMSCALE
 40
1.0
  9
$DIMASZ
 40
3.302
  9
$DIMEXO
 40
1.0
  9
$DIMDLI
 40
3.75
  9
$DIMRND
 40
0.0
  9
$DIMDLE
 40
0.0
  9
$DIMEXE
 40
1.0
  9
$DIMTP
 40
0.0
  9
$DIMTM
 40
0.0
  9
$DIMTXT
 40
3.5
  9
$DIMCEN
 40
2.5
  9
$DIMTSZ
 40
0.0
  9
$DIMTOL
 70
     0
  9
$DIMLIM
 70
     0
  9
$DIMTIH
 70
     1
  9
$DIMTOH
 70
     1
  9
$DIMSE1
 70
     0
  9
$DIMSE2
 70
     0
  9
$DIMTAD
 70
     1
  9
$DIMZIN
 70
     0
  9
$DIMBLK
  1

  9
$DIMASO
 70
     1
  9
$DIMSHO
 70
     1
  9
$DIMPOST
  1

  9
$DIMAPOST
  1

  9
$DIMALT
 70
     0
  9
$DIMALTD
 70
     3
  9
$DIMALTF
 40
0.0393700787
  9
$DIMLFAC
 40
1.0
  9
$DIMTOFL
 70
     1
  9
$DIMTVP
 40
0.0
  9
$DIMTIX
 70
     0
  9
$DIMSOXD
 70
     0
  9
$DIMSAH
 70
     0
  9
$DIMBLK1
  1

  9
$DIMBLK2
  1

  9
$DIMSTYLE
  2
ISO-25
  9
$DIMCLRD
 70
     0
  9
$DIMCLRE
 70
     0
  9
$DIMCLRT
 70
     0
  9
$DIMTFAC
 40
1.0
  9
$DIMGAP
 40
1.524
  9
$DIMJUST
 70
     0
  9
$DIMSD1
 70
     0
  9
$DIMSD2
 70
     0
  9
$DIMTOLJ
 70
     0
  9
$DIMTZIN
 70
     0
  9
$DIMALTZ
 70
     0
  9
$DIMALTTZ
 70
     0
  9
$DIMUPT
 70
     0
  9
$DIMDEC
 70
     1
  9
$DIMTDEC
 70
     1
  9
$DIMALTU
 70
     2
  9
$DIMALTTD
 70
     3
  9
$DIMTXSTY
  7
STANDARD
  9
$DIMAUNIT
 70
     0
  9
$DIMADEC
 70
     1
  9
$DIMALTRND
 40
0.0
  9
$DIMAZIN
 70
     0
  9
$DIMDSEP
 70
    44
  9
$DIMATFIT
 70
     3
  9
$DIMFRAC
 70
     0
  9
$DIMLDRBLK
  1

  9
$DIMLUNIT
 70
     2
  9
$DIMLWD
 70
    -2
  9
$DIMLWE
 70
    -2
  9
$DIMTMOVE
 70
     0
  9
$LUNITS
 70
     2
  9
$LUPREC
 70
     1
  9
$SKETCHINC
 40
1.0
  9
$FILLETRAD
 40
10.0
  9
$AUNITS
 70
     0
  9
$AUPREC
 70
     1
  9
$MENU
  1
.
  9
$ELEVATION
 40
0.0
  9
$PELEVATION
 40
0.0
  9
$THICKNESS
 40
0.0
  9
$LIMCHECK
 70
     0
  9
$CHAMFERA
 40
10.0
  9
$CHAMFERB
 40
10.0
  9
$CHAMFERC
 40
20.0
  9
$CHAMFERD
 40
0.0
  9
$SKPOLY
 70
     0
  9
$TDCREATE
 40
2455638.322397511
  9
$TDUCREATE
 40
2455638.322397511
  9
$TDUPDATE
 40
2455638.322397523
  9
$TDUUPDATE
 40
2455638.322397523
  9
$TDINDWG
 40
0.0000000116
  9
$TDUSRTIMER
 40
0.0000000116
  9
$USRTIMER
 70
     1
  9
$ANGBASE
 50
0.0
  9
$ANGDIR
 70
     0
  9
$PDMODE
 70
     0
  9
$PDSIZE
 40
-1.0
  9
$PLINEWID
 40
0.0
  9
$SPLFRAME
 70
     0
  9
$SPLINETYPE
 70
     6
  9
$SPLINESEGS
 70
     8
  9
$HANDSEED
  5
3B0
  9
$SURFTAB1
 70
     6
  9
$SURFTAB2
 70
     6
  9
$SURFTYPE
 70
     6
  9
$SURFU
 70
     6
  9
$SURFV
 70
     6
  9
$UCSBASE
  2

  9
$UCSNAME
  2

  9
$UCSORG
 10
0.0
 20
0.0
 30
0.0
  9
$UCSXDIR
 10
1.0
 20
0.0
 30
0.0
  9
$UCSYDIR
 10
0.0
 20
1.0
 30
0.0
  9
$UCSORTHOREF
  2

  9
$UCSORTHOVIEW
 70
     0
  9
$UCSORGTOP
 10
0.0
 20
0.0
 30
0.0
  9
$UCSORGBOTTOM
 10
0.0
 20
0.0
 30
0.0
  9
$UCSORGLEFT
 10
0.0
 20
0.0
 30
0.0
  9
$UCSORGRIGHT
 10
0.0
 20
0.0
 30
0.0
  9
$UCSORGFRONT
 10
0.0
 20
0.0
 30
0.0
  9
$UCSORGBACK
 10
0.0
 20
0.0
 30
0.0
  9
$PUCSBASE
  2

  9
$PUCSNAME
  2

  9
$PUCSORG
 10
0.0
 20
0.0
 30
0.0
  9
$PUCSXDIR
 10
1.0
 20
0.0
 30
0.0
  9
$PUCSYDIR
 10
0.0
 20
1.0
 30
0.0
  9
$PUCSORTHOREF
  2

  9
$PUCSORTHOVIEW
 70
     0
  9
$PUCSORGTOP
 10
0.0
 20
0.0
 30
0.0
  9
$PUCSORGBOTTOM
 10
0.0
 20
0.0
 30
0.0
  9
$PUCSORGLEFT
 10
0.0
 20
0.0
 30
0.0
  9
$PUCSORGRIGHT
 10
0.0
 20
0.0
 30
0.0
  9
$PUCSORGFRONT
 10
0.0
 20
0.0
 30
0.0
  9
$PUCSORGBACK
 10
0.0
 20
0.0
 30
0.0
  9
$USERI1
 70
     0
  9
$USERI2
 70
     0
  9
$USERI3
 70
     0
  9
$USERI4
 70
     0
  9
$USERI5
 70
     0
  9
$USERR1
 40
0.0
  9
$USERR2
 40
0.0
  9
$USERR3
 40
0.0
  9
$USERR4
 40
0.0
  9
$USERR5
 40
0.0
  9
$WORLDVIEW
 70
     1
  9
$SHADEDGE
 70
     3
  9
$SHADEDIF
 70
    70
  9
$TILEMODE
 70
     1
  9
$MAXACTVP
 70
    64
  9
$PINSBASE
 10
0.0
 20
0.0
 30
0.0
  9
$PLIMCHECK
 70
     0
  9
$PEXTMIN
 10
1.0000000000E+20
 20
1.0000000000E+20
 30
1.0000000000E+20
  9
$PEXTMAX
 10
-1.0000000000E+20
 20
-1.0000000000E+20
 30
-1.0000000000E+20
  9
$PLIMMIN
 10
0.0
 20
0.0
  9
$PLIMMAX
 10
420.0
 20
297.0
  9
$UNITMODE
 70
     0
  9
$VISRETAIN
 70
     1
  9
$PLINEGEN
 70
     0
  9
$PSLTSCALE
 70
     1
  9
$TREEDEPTH
 70
  3020
  9
$CMLSTYLE
  2
Standard
  9
$CMLJUST
 70
     0
  9
$CMLSCALE
 40
20.0
  9
$PROXYGRAPHICS
 70
     1
  9
$MEASUREMENT
 70
     1
  9
$CELWEIGHT
370
    -1
  9
$ENDCAPS
280
     0
  9
$JOINSTYLE
280
     0
  9
$LWDISPLAY
290
     1
  9
$INSUNITS
 70
     4
  9
$HYPERLINKBASE
  1

  9
$STYLESHEET
  1

  9
$XEDIT
290
     1
  9
$CEPSNTYPE
380
     0
  9
$PSTYLEMODE
290
     1
  9
$FINGERPRINTGUID
  2
{FF990A3D-DAD5-44E6-B54E-7A16898EDB35}
  9
$VERSIONGUID
  2
{FAEB1C32-E019-11D5-929B-00C0DF256EC4}
  9
$EXTNAMES
290
     1
  9
$PSVPSCALE
 40
0.0
  9
$OLESTARTUP
290
     0
  0
ENDSEC
  0
SECTION
  2
CLASSES
  0
CLASS
  1
ACDBDICTIONARYWDFLT
  2
AcDbDictionaryWithDefault
  3
ObjectDBX Classes
 90
        0
280
     0
281
     0
  0
CLASS
  1
VISUALSTYLE
  2
AcDbVisualStyle
  3
ObjectDBX Classes
 90
     4095
280
     0
281
     0
  0
CLASS
  1
MATERIAL
  2
AcDbMaterial
  3
ObjectDBX Classes
 90
     1153
280
     0
281
     0
  0
CLASS
  1
ACDBPLACEHOLDER
  2
AcDbPlaceHolder
  3
ObjectDBX Classes
 90
        0
280
     0
281
     0
  0
CLASS
  1
LAYOUT
  2
AcDbLayout
  3
ObjectDBX Classes
 90
        0
280
     0
281
     0
  0
ENDSEC
  0
SECTION
  2
TABLES
  0
TABLE
  2
VPORT
  5
8
330
0
100
AcDbSymbolTable
 70
     1
  0
VPORT
  5
29
330
8
100
AcDbSymbolTableRecord
100
AcDbViewportTableRecord
  2
*Active
 70
     0
 10
0.0
 20
0.0
 11
1.0
 21
1.0
 12
750.0
 22
750.0
 13
0.0
 23
0.0
 14
10.0
 24
10.0
 15
10.0
 25
10.0
 16
0.0
 26
0.0
 36
1.0
 17
0.0
 27
0.0
 37
0.0
 40
1500.0
 41
1.0
 42
50.0
 43
0.0
 44
0.0
 50
0.0
 51
0.0
 71
     0
 72
  2000
 73
     1
 74
     3
 75
     0
 76
     0
 77
     0
 78
     0
281
     0
 65
     1
110
0.0
120
0.0
130
0.0
111
1.0
121
0.0
131
0.0
112
0.0
122
1.0
132
0.0
 79
     0
146
0.0
  0
ENDTAB
  0
TABLE
  2
LTYPE
  5
5
330
0
100
AcDbSymbolTable
 70
     8
  0
LTYPE
  5
14
330
5
100
AcDbSymbolTableRecord
100
AcDbLinetypeTableRecord
  2
ByBlock
 70
     0
  3

 72
    65
 73
     0
 40
0.0
  0
LTYPE
  5
15
330
5
100
AcDbSymbolTableRecord
100
AcDbLinetypeTableRecord
  2
ByLayer
 70
     0
  3

 72
    65
 73
     0
 40
0.0
  0
LTYPE
  5
16
330
5
100
AcDbSymbolTableRecord
100
AcDbLinetypeTableRecord
  2
Continuous
 70
     0
  3
Solid line
 72
    65
 73
     0
 40
0.0
  0
LTYPE
  5
3F
330
5
100
AcDbSymbolTableRecord
100
AcDbLinetypeTableRecord
  2
SLD-Solid
 70
     0
  3
SolidWorks Line Style
 72
    65
 73
     0
 40
0.0
  0
LTYPE
  5
40
330
5
100
AcDbSymbolTableRecord
100
AcDbLinetypeTableRecord
  2
SLD-Dashed
 70
     0
  3
SolidWorks Line Style
 72
    65
 73
     2
 40
1.905
 49
1.27
 74
     0
 49
-0.635
 74
     0
  0
LTYPE
  5
41
330
5
100
AcDbSymbolTableRecord
100
AcDbLinetypeTableRecord
  2
SLD-Phantom
 70
     0
  3
SolidWorks Line Style
 72
    65
 73
     6
 40
12.7
 49
6.35
 74
     0
 49
-1.27
 74
     0
 49
1.27
 74
     0
 49
-1.27
 74
     0
 49
1.27
 74
     0
 49
-1.27
 74
     0
  0
LTYPE
  5
42
330
5
100
AcDbSymbolTableRecord
100
AcDbLinetypeTableRecord
  2
SLD-Chain
 70
     0
  3
SolidWorks Line Style
 72
    65
 73
     4
 40
10.16
 49
6.35
 74
     0
 49
-1.27
 74
     0
 49
1.27
 74
     0
 49
-1.27
 74
     0
  0
LTYPE
  5
43
330
5
100
AcDbSymbolTableRecord
100
AcDbLinetypeTableRecord
  2
SLD-Center
 70
     0
  3
SolidWorks Line Style
 72
    65
 73
     4
 40
19.05
 49
15.24
 74
     0
 49
-1.27
 74
     0
 49
1.27
 74
     0
 49
-1.27
 74
     0
  0
LTYPE
  5
44
330
5
100
AcDbSymbolTableRecord
100
AcDbLinetypeTableRecord
  2
SLD-Stitch
 70
     0
  3
SolidWorks Line Style
 72
    65
 73
     2
 40
0.635
 49
0.0
 74
     0
 49
-0.635
 74
     0
  0
LTYPE
  5
45
330
5
100
AcDbSymbolTableRecord
100
AcDbLinetypeTableRecord
  2
SLD-Thin-Thick-Chain
 70
     0
  3
SolidWorks Line Style
 72
    65
 73
     4
 40
10.16
 49
6.35
 74
     0
 49
-1.27
 74
     0
 49
1.27
 74
     0
 49
-1.27
 74
     0
  0
ENDTAB
  0
TABLE
  2
LAYER
  5
2
330
0
100
AcDbSymbolTable
 70
     4
  0
LAYER
  5
10
330
2
100
AcDbSymbolTableRecord
100
AcDbLayerTableRecord
  2
0
 70
     0
 62
     7
  6
Continuous
370
    -3
390
F
  0
LAYER
  5
46
330
2
100
AcDbSymbolTableRecord
100
AcDbLayerTableRecord
  2
FORMAT
 70
     0
 62
     7
  6
SLD-Solid
370
    -3
390
F
  0
LAYER
  5
47
330
2
100
AcDbSymbolTableRecord
100
AcDbLayerTableRecord
  2
SLD-0
 70
     0
 62
     1
  6
SLD-Solid
370
    -3
390
F
  0
LAYER
  5
48
330
2
100
AcDbSymbolTableRecord
100
AcDbLayerTableRecord
  2
WATERMARK
 70
     0
 62
    20
  6
SLD-Solid
370
    -3
390
F
  0
ENDTAB
  0
TABLE
  2
STYLE
  5
3
330
0
100
AcDbSymbolTable
 70
     1
  0
STYLE
  5
11
330
3
100
AcDbSymbolTableRecord
100
AcDbTextStyleTableRecord
  2
STANDARD
 70
     0
 40
0.0
 41
1.0
 50
0.0
 71
     0
 42
2.5
  3
GOTHIC.TTF
  4

1001
ACAD
1000
CENTURY GOTHIC
1071
       34
  0
ENDTAB
  0
TABLE
  2
VIEW
  5
6
330
0
100
AcDbSymbolTable
 70
     0
  0
ENDTAB
  0
TABLE
  2
UCS
  5
7
330
0
100
AcDbSymbolTable
 70
     0
  0
ENDTAB
  0
TABLE
  2
APPID
  5
9
330
0
100
AcDbSymbolTable
 70
     1
  0
APPID
  5
12
330
9
100
AcDbSymbolTableRecord
100
AcDbRegAppTableRecord
  2
ACAD
 70
     0
  0
ENDTAB
  0
TABLE
  2
DIMSTYLE
  5
A
330
0
100
AcDbSymbolTable
 70
     1
100
AcDbDimStyleTable
  0
DIMSTYLE
105
27
330
A
100
AcDbSymbolTableRecord
100
AcDbDimStyleTableRecord
  2
ISO-25
 70
     0
 41
2.5
 42
0.625
 43
3.75
 44
1.25
 73
     0
 74
     0
 77
     1
 78
     8
140
2.5
141
2.5
143
0.0393700787
147
0.625
171
     3
172
     1
271
     2
272
     2
274
     3
278
    44
283
     0
284
     8
340
11
  0
ENDTAB
  0
TABLE
  2
BLOCK_RECORD
  5
1
330
0
100
AcDbSymbolTable
 70
     1
  0
BLOCK_RECORD
  5
1F
330
1
100
AcDbSymbolTableRecord
100
AcDbBlockTableRecord
  2
*Model_Space
340
22
  0
BLOCK_RECORD
  5
1B
330
1
100
AcDbSymbolTableRecord
100
AcDbBlockTableRecord
  2
*Paper_Space
340
1E
  0
BLOCK_RECORD
  5
23
330
1
100
AcDbSymbolTableRecord
100
AcDbBlockTableRecord
  2
*Paper_Space0
340
26
  0
ENDTAB
  0
ENDSEC
  0
SECTION
  2
BLOCKS
  0
BLOCK
  5
20
330
1F
100
AcDbEntity
  8
0
100
AcDbBlockBegin
  2
*Model_Space
 70
     0
 10
0.0
 20
0.0
 30
0.0
  3
*Model_Space
  1

  0
ENDBLK
  5
21
330
1F
100
AcDbEntity
  8
0
100
AcDbBlockEnd
  0
BLOCK
  5
1C
330
1B
100
AcDbEntity
 67
     1
  8
0
100
AcDbBlockBegin
  2
*Paper_Space
 70
     0
 10
0.0
 20
0.0
 30
0.0
  3
*Paper_Space
  1

  0
ENDBLK
  5
1D
330
1B
100
AcDbEntity
 67
     1
  8
0
100
AcDbBlockEnd
  0
BLOCK
  5
24
330
23
100
AcDbEntity
  8
0
100
AcDbBlockBegin
  2
*Paper_Space0
 70
     0
 10
0.0
 20
0.0
 30
0.0
  3
*Paper_Space0
  1

  0
ENDBLK
  5
25
330
23
100
AcDbEntity
  8
0
100
AcDbBlockEnd
  0
ENDSEC
  0
SECTION
  2
ENTITIES
  0
LWPOLYLINE
  5
49
330
1F
100
AcDbEntity
  8
0
  6
SLD-Solid
 62
     7
370
    15
100
AcDbPolyline
 90
        5
 70
   128
 43
0.0
 10
1139.0190651781
 20
1022.6706532554
 10
1139.0190651781
 20
1022.6706532554
 10
1139.0190353758
 20
1022.6706830577
 10
1139.0190055735
 20
1022.6707426624
 10
1139.0190055735
 20
1022.6707426624
  0
SPLINE
  5
4A
330
1F
100
AcDbEntity
  8
0
  6
SLD-Solid
 62
     7
370
    15
100
AcDbSpline
210
0.0
220
0.0
230
1.0
 70
     8
 71
     3
 72
    13
 73
     9
 74
     0
 42
0.00000001
 43
0.00000001
 40
0.0
 40
0.0
 40
0.0
 40
0.0
 40
0.1560146730270024
 40
0.4086611322236955
 40
0.5953264783614979
 40
0.7561133752455408
 40
0.924897248705744
 40
1.0
 40
1.0
 40
1.0
 40
1.0
 10
359.3958845503191
 20
983.9976398066933
 30
0.0
 10
359.3956235644682
 20
983.9998543624421
 30
0.0
 10
359.3949399443239
 20
984.0056551172178
 30
0.0
 10
359.405344343439
 20
984.0287239944598
 30
0.0
 10
359.451021949983
 20
984.0684959598316
 30
0.0
 10
359.5188207337222
 20
984.0990144879387
 30
0.0
 10
359.5876785077559
 20
984.1156030478568
 30
0.0
 10
359.6313919726625
 20
984.1144594450565
 30
0.0
 10
359.6448531515459
 20
984.1141072825844
 30
0.0
  0
LINE
  5
4B
330
1F
100
AcDbEntity
  8
0
  6
SLD-Solid
 62
     7
370
    15
100
AcDbLine
 10
359.6448531515
 20
984.1160146312
 30
0.0
 11
364.7448351748
 21
984.1160146312
 31
0.0
  0
ARC
  5
4C
330
1F
100
AcDbEntity
  8
0
  6
SLD-Solid
 62
     7
370
    15
100
AcDbCircle
 10
364.7448428088
 20
984.3660071867
 30
0.0
 40
0.2500000000001137
100
AcDbArc
 50
270.0
 51
0.0
  0
ARC
  5
4D
330
1F
100
AcDbEntity
  8
0
  6
SLD-Solid
 62
     7
370
    15
100
AcDbCircle
 10
364.7448428088
 20
989.1921741588
 30
0.0
 40
0.25
100
AcDbArc
 50
0.0
 51
90.0
  0
LINE
  5
4E
330
1F
100
AcDbEntity
  8
0
  6
SLD-Solid
 62
     7
370
    15
100
AcDbLine
 10
364.7448351748
 20
989.4421664791
 30
0.0
 11
359.6448531515
 21
989.4421664791
 31
0.0
  0
ARC
  5
4F
330
1F
100
AcDbEntity
  8
0
  6
SLD-Solid
 62
     7
370
    15
100
AcDbCircle
 10
358.4448428088
 20
988.8915978507
 30
0.0
 40
0.25
100
AcDbArc
 50
90.0
 51
180.0
  0
LINE
  5
50
330
1F
100
AcDbEntity
  8
0
  6
SLD-Solid
 62
     7
370
    15
100
AcDbLine
 10
358.7080767519
 20
989.1416100578
 30
0.0
 11
358.4448328383
 21
989.1416100578
 31
0.0
  0
LINE
  5
51
330
1F
100
AcDbEntity
  8
0
  6
SLD-Solid
 62
     7
370
    15
100
AcDbLine
 10
360.216372288
 20
971.4410273151
 30
0.0
 11
364.7448351748
 21
971.4410273151
 31
0.0
  0
ARC
  5
52
330
1F
100
AcDbEntity
  8
0
  6
SLD-Solid
 62
     7
370
    15
100
AcDbCircle
 10
364.7448428088
 20
971.6910215427
 30
0.0
 40
0.25
100
AcDbArc
 50
270.0
 51
0.0
  0
SPLINE
  5
53
330
1F
100
AcDbEntity
  8
0
  6
SLD-Solid
 62
     7
370
    15
100
AcDbSpline
210
0.0
220
0.0
230
1.0
 70
     8
 71
     3
 72
    13
 73
     9
 74
     0
 42
0.00000001
 43
0.00000001
 40
0.0
 40
0.0
 40
0.0
 40
0.0
 40
0.1537204984506425
 40
0.4678226401410182
 40
0.6523030622522596
 40
0.814295575132852
 40
0.9818150067181397
 40
1.0
 40
1.0
 40
1.0
 40
1.0
 10
359.3924572832444
 20
976.1036602572855
 30
0.0
 10
359.392823995148
 20
976.09658194154
 30
0.0
 10
359.3939400215245
 20
976.0750402708245
 30
0.0
 10
359.3716669617638
 20
976.0344301261628
 30
0.0
 10
359.3095272776096
 20
975.9863165458739
 30
0.0
 10
359.2380419666304
 20
975.9587604196016
 30
0.0
 10
359.1793438751183
 20
975.9475479680991
 30
0.0
 10
359.148206700982
 20
975.9494279561704
 30
0.0
 10
359.1451576120714
 20
975.9496120528634
 30
0.0
  0
LINE
  5
54
330
1F
100
AcDbEntity
  8
0
  6
SLD-Solid
 62
     7
370
    15
100
AcDbLine
 10
359.1448297865
 20
975.9489862041
 30
0.0
 11
354.0448477633
 21
975.9489862041
 31
0.0
  0
ARC
  5
55
330
1F
100
AcDbEntity
  8
0
  6
SLD-Solid
 62
     7
370
    15
100
AcDbCircle
 10
354.0448428088
 20
975.6989799553
 30
0.0
 40
0.2500000000001137
100
AcDbArc
 50
90.0
 51
180.0
  0
ARC
  5
56
330
1F
100
AcDbEntity
  8
0
  6
SLD-Solid
 62
     7
370
    15
100
AcDbCircle
 10
354.0448428088
 20
971.2611587407
 30
0.0
 40
0.25
100
AcDbArc
 50
180.0
 51
270.0
  0
LINE
  5
57
330
1F
100
AcDbEntity
  8
0
  6
SLD-Solid
 62
     7
370
    15
100
AcDbLine
 10
354.0448477633
 20
971.011158617
 30
0.0
 11
359.1448297865
 21
971.011158617
 31
0.0
  0
ARC
  5
58
330
1F
100
AcDbEntity
  8
0
  6
SLD-Solid
 62
     7
370
    15
100
AcDbCircle
 10
360.3448428088
 20
971.9915978507
 30
0.0
 40
0.25
100
AcDbArc
 50
301.0756875733
 51
0.0
  0
LINE
  5
59
330
1F
100
AcDbEntity
  8
0
  6
SLD-Solid
 62
     7
370
    15
100
AcDbLine
 10
359.1448297865
 20
989.8720351772
 30
0.0
 11
354.0448477633
 21
989.8720351772
 31
0.0
  0
ARC
  5
5A
330
1F
100
AcDbEntity
  8
0
  6
SLD-Solid
 62
     7
370
    15
100
AcDbCircle
 10
354.0448428088
 20
989.6220369608
 30
0.0
 40
0.2500000000001137
100
AcDbArc
 50
90.0
 51
180.0
  0
LINE
  5
5B
330
1F
100
AcDbEntity
  8
0
  6
SLD-Solid
 62
     7
370
    15
100
AcDbLine
 10
365.7948305971
 20
985.4415921287
 30
0.0
 11
365.7066455252
 21
985.5943886356
 31
0.0
  0
LINE
  5
5C
330
1F
100
AcDbEntity
  8
0
  6
SLD-Solid
 62
     7
370
    15
100
AcDbLine
 10
360.59483198
 20
975.4416016654
 30
0.0
 11
360.6830468542
 21
975.2888349609
 31
0.0
  0
LINE
  5
5D
330
1F
100
AcDbEntity
  8
0
  6
SLD-Solid
 62
     7
370
    15
100
AcDbLine
 10
365.7066455252
 20
975.2888349609
 30
0.0
 11
365.7948305971
 21
975.4416016654
 31
0.0
  0
LINE
  5
5E
330
1F
100
AcDbEntity
  8
0
  6
SLD-Solid
 62
     7
370
    15
100
AcDbLine
 10
366.0448422797
 20
975.4416016654
 30
0.0
 11
366.2412097819
 21
975.1014975624
 31
0.0
  0
LINE
  5
5F
330
1F
100
AcDbEntity
  8
0
  6
SLD-Solid
 62
     7
370
    15
100
AcDbLine
 10
366.2412097819
 20
985.7816962318
 30
0.0
 11
366.0448422797
 21
985.4415921287
 31
0.0
  0
LINE
  5
60
330
1F
100
AcDbEntity
  8
0
  6
SLD-Solid
 62
     7
370
    15
100
AcDbLine
 10
366.0448422797
 20
983.4415880756
 30
0.0
 11
365.7948305971
 21
983.4415880756
 31
0.0
  0
LINE
  5
61
330
1F
100
AcDbEntity
  8
0
  6
SLD-Solid
 62
     7
370
    15
100
AcDbLine
 10
365.7948305971
 20
977.4416057186
 30
0.0
 11
366.0448422797
 21
977.4416057186
 31
0.0
  0
SPLINE
  5
62
330
1F
100
AcDbEntity
  8
0
  6
SLD-Solid
 62
     7
370
    15
100
AcDbSpline
210
0.0
220
0.0
230
1.0
 70
     8
 71
     3
 72
    15
 73
    11
 74
     0
 42
0.00000001
 43
0.00000001
 40
0.0
 40
0.0
 40
0.0
 40
0.0
 40
0.066962663377636
 40
0.1596930650372219
 40
0.2716970699634663
 40
0.4172482885595647
 40
0.5763895665150891
 40
0.7432777582304884
 40
0.9132601008514529
 40
1.0
 40
1.0
 40
1.0
 40
1.0
 10
653.6584353215555
 20
1239.5400671081
 30
0.0
 10
653.6562326015827
 20
1239.539918656634
 30
0.0
 10
653.6509795383661
 20
1239.539564628458
 30
0.0
 10
653.344147190245
 20
1239.589411436312
 30
0.0
 10
652.7607600228461
 20
1239.778680819118
 30
0.0
 10
651.9990748692553
 20
1240.194462310752
 30
0.0
 10
651.2163742031619
 20
1240.884755043204
 30
0.0
 10
650.5848559036016
 20
1241.808388300356
 30
0.0
 10
650.2055481181396
 20
1242.71097566617
 30
0.0
 10
650.1608442028763
 20
1243.287652672233
 30
0.0
 10
650.1457398898461
 20
1243.482497127479
 30
0.0
  0
SPLINE
  5
63
330
1F
100
AcDbEntity
  8
0
  6
SLD-Solid
 62
     7
370
    15
100
AcDbSpline
210
0.0
220
0.0
230
1.0
 70
     8
 71
     3
 72
    15
 73
    11
 74
     0
 42
0.00000001
 43
0.00000001
 40
0.0
 40
0.0
 40
0.0
 40
0.0
 40
0.1406046412470151
 40
0.3206290953824403
 40
0.4810187826938369
 40
0.6253598794722669
 40
0.7542645398146247
 40
0.862667720601169
 40
0.9533271233398678
 40
0.9999999999999999
 40
0.9999999999999999
 40
0.9999999999999999
 40
0.9999999999999999
 10
820.8510657913546
 20
1243.412700088447
 30
0.0
 10
820.8008937310834
 20
1243.101579178673
 30
0.0
 10
820.6864834089522
 20
1242.392111731719
 30
0.0
 10
820.1802756601518
 20
1241.420383835885
 30
0.0
 10
819.4853950235532
 20
1240.598920484316
 30
0.0
 10
818.7411672951221
 20
1240.040030017259
 30
0.0
 10
818.0504194359055
 20
1239.710978807313
 30
0.0
 10
817.5475861465709
 20
1239.568675798266
 30
0.0
 10
817.3171814327465
 20
1239.538271754562
 30
0.0
 10
817.3274016853838
 20
1239.539255829485
 30
0.0
 10
817.3308750755648
 20
1239.539590270942
 30
0.0
  0
SPLINE
  5
64
330
1F
100
AcDbEntity
  8
0
  6
SLD-Solid
 62
     7
370
    15
100
AcDbSpline
210
0.0
220
0.0
230
1.0
 70
     8
 71
     3
 72
    15
 73
    11
 74
     0
 42
0.00000001
 43
0.00000001
 40
0.0
 40
0.0
 40
0.0
 40
0.0
 40
0.1129178864560661
 40
0.2961380195932776
 40
0.4591232092053419
 40
0.6055018095210026
 40
0.736248502005583
 40
0.8500101842955637
 40
0.94324741149478
 40
1.0
 40
1.0
 40
1.0
 40
1.0
 10
640.8320373065333
 20
1243.357208164161
 30
0.0
 10
640.7969373635011
 20
1243.108632374322
 30
0.0
 10
640.7048843863901
 20
1242.456718453223
 30
0.0
 10
640.2391372033472
 20
1241.524970298222
 30
0.0
 10
639.5584806441072
 20
1240.677866286476
 30
0.0
 10
638.8140320158162
 20
1240.094842213422
 30
0.0
 10
638.1183795300402
 20
1239.743917934484
 30
0.0
 10
637.5729492398236
 20
1239.579137489691
 30
0.0
 10
637.2955593497004
 20
1239.539095325751
 30
0.0
 10
637.2940136221487
 20
1239.539497646833
 30
0.0
 10
637.2934287555078
 20
1239.539649875587
 30
0.0
  0
SPLINE
  5
65
330
1F
100
AcDbEntity
  8
0
  6
SLD-Solid
 62
     7
370
    15
100
AcDbSpline
210
0.0
220
0.0
230
1.0
 70
     8
 71
     3
 72
    16
 73
    12
 74
     0
 42
0.00000001
 43
0.00000001
 40
0.0
 40
0.0
 40
0.0
 40
0.0
 40
0.0013576365654999
 40
0.0878429646779704
 40
0.1823042783198488
 40
0.3120979216608226
 40
0.4594147949073689
 40
0.6200077588737025
 40
0.7870600094189708
 40
0.9723651786703861
 40
0.9999999999999999
 40
0.9999999999999999
 40
0.9999999999999999
 40
0.9999999999999999
 10
833.7140312559466
 20
1239.537861736243
 30
0.0
 10
833.7146004262645
 20
1239.537861553262
 30
0.0
 10
833.7514273720162
 20
1239.537849713839
 30
0.0
 10
833.6221182947842
 20
1239.542594556722
 30
0.0
 10
833.2435987877154
 20
1239.622408500301
 30
0.0
 10
832.5700553837348
 20
1239.86857709397
 30
0.0
 10
831.7835845962078
 20
1240.365959922377
 30
0.0
 10
831.0238264550643
 20
1241.122546418882
 30
0.0
 10
830.4369088571111
 20
1242.128042608038
 30
0.0
 10
830.1330567962844
 20
1242.970504718793
 30
0.0
 10
830.1255141104193
 20
1243.45001074772
 30
0.0
 10
830.1245352394442
 20
1243.512239845222
 30
0.0
  0
SPLINE
  5
66
330
1F
100
AcDbEntity
  8
0
  6
SLD-Solid
 62
     7
370
    15
100
AcDbSpline
210
0.0
220
0.0
230
1.0
 70
     8
 71
     3
 72
    15
 73
    11
 74
     0
 42
0.00000001
 43
0.00000001
 40
0.0
 40
0.0
 40
0.0
 40
0.0
 40
0.0204164147599227
 40
0.1289781699851416
 40
0.2366660106409254
 40
0.3640267966548918
 40
0.5130043603038288
 40
0.6761099463931013
 40
0.8429390755268382
 40
1.0
 40
1.0
 40
1.0
 40
1.0
 10
603.7138035662035
 20
1239.539828689521
 30
0.0
 10
603.72025573307
 20
1239.539638649723
 30
0.0
 10
603.7610164976151
 20
1239.538438096849
 30
0.0
 10
603.5324577573613
 20
1239.556160956497
 30
0.0
 10
603.0389851112774
 20
1239.68519474756
 30
0.0
 10
602.3255841967712
 20
1240.000650288517
 30
0.0
 10
601.5363334437146
 20
1240.572964037755
 30
0.0
 10
600.821771230869
 20
1241.408838235535
 30
0.0
 10
600.2958599816834
 20
1242.41731076343
 30
0.0
 10
600.1761557174641
 20
1243.151264326683
 30
0.0
 10
600.1181086666444
 20
1243.507173450416
 30
0.0
  0
SPLINE
  5
67
330
1F
100
AcDbEntity
  8
0
  6
SLD-Solid
 62
     7
370
    15
100
AcDbSpline
210
0.0
220
0.0
230
1.0
 70
     8
 71
     3
 72
    16
 73
    12
 74
     0
 42
0.00000001
 43
0.00000001
 40
0.0
 40
0.0
 40
0.0
 40
0.0
 40
0.0329343143388818
 40
0.2022247011067985
 40
0.3774371418547826
 40
0.5337438669863256
 40
0.6681383741605186
 40
0.7846271756977109
 40
0.8853745601351336
 40
0.9806330939355387
 40
1.0
 40
1.0
 40
1.0
 40
1.0
 10
870.8498707182268
 20
1243.403342159217
 30
0.0
 10
870.8469257598401
 20
1243.329837721778
 30
0.0
 10
870.8288429990037
 20
1242.87850259641
 30
0.0
 10
870.5192097714054
 20
1242.055411310497
 30
0.0
 10
869.937051515907
 20
1241.082714682917
 30
0.0
 10
869.1816413090542
 20
1240.351348121269
 30
0.0
 10
868.4476726400395
 20
1239.890353182163
 30
0.0
 10
867.8207468587151
 20
1239.64634364922
 30
0.0
 10
867.4173494090372
 20
1239.552416710847
 30
0.0
 10
867.2314266577337
 20
1239.538373684111
 30
0.0
 10
867.2684536118903
 20
1239.53956739727
 30
0.0
 10
867.2747096187929
 20
1239.539769084876
 30
0.0
  0
SPLINE
  5
68
330
1F
100
AcDbEntity
  8
0
  6
SLD-Solid
 62
     7
370
    15
100
AcDbSpline
210
0.0
220
0.0
230
1.0
 70
     8
 71
     3
 72
    16
 73
    12
 74
     0
 42
0.00000001
 43
0.00000001
 40
0.0
 40
0.0
 40
0.0
 40
0.0
 40
0.0187511161096472
 40
0.1864594644671878
 40
0.3603685011689517
 40
0.516121050317116
 40
0.6559086579052109
 40
0.7730797434704896
 40
0.8725948374330582
 40
0.9652413618124087
 40
1.0
 40
1.0
 40
1.0
 40
1.0
 10
590.8614626295428
 20
1243.436243923133
 30
0.0
 10
590.8605097280915
 20
1243.393963373689
 30
0.0
 10
590.8510341591057
 20
1242.973529274692
 30
0.0
 10
590.5645921335665
 20
1242.172917503166
 30
0.0
 10
590.0072101821311
 20
1241.182433346803
 30
0.0
 10
589.2585775156211
 20
1240.420877715028
 30
0.0
 10
588.5049249167979
 20
1239.926970906766
 30
0.0
 10
587.8518839026347
 20
1239.66211961643
 30
0.0
 10
587.4169566131716
 20
1239.557535012319
 30
0.0
 10
587.2219076171222
 20
1239.539575278092
 30
0.0
 10
587.2477033001923
 20
1239.540664120196
 30
0.0
 10
587.2547408707003
 20
1239.540961177772
 30
0.0
  0
SPLINE
  5
69
330
1F
100
AcDbEntity
  8
0
  6
SLD-Solid
 62
     7
370
    15
100
AcDbSpline
210
0.0
220
0.0
230
1.0
 70
     8
 71
     3
 72
    15
 73
    11
 74
     0
 42
0.00000001
 43
0.00000001
 40
0.0
 40
0.0
 40
0.0
 40
0.0
 40
0.0911645087241598
 40
0.1923013248620596
 40
0.3082808606753495
 40
0.4497061777590047
 40
0.609572253265181
 40
0.7742771439676991
 40
0.9550164857535473
 40
0.9999999999999999
 40
0.9999999999999999
 40
0.9999999999999999
 40
0.9999999999999999
 10
883.7540378935198
 20
1239.540543945258
 30
0.0
 10
883.7362987286343
 20
1239.54113723051
 30
0.0
 10
883.6988799462908
 20
1239.542388699329
 30
0.0
 10
883.2981626240542
 20
1239.613755903815
 30
0.0
 10
882.6649005538331
 20
1239.837996013515
 30
0.0
 10
881.8786159542886
 20
1240.300565995981
 30
0.0
 10
881.1026563085022
 20
1241.0330124271
 30
0.0
 10
880.4848517681007
 20
1242.023145241357
 30
0.0
 10
880.1542483193895
 20
1242.892772308152
 30
0.0
 10
880.136105164774
 20
1243.408358081256
 30
0.0
 10
880.1324894792895
 20
1243.511107356971
 30
0.0
  0
SPLINE
  5
6A
330
1F
100
AcDbEntity
  8
0
  6
SLD-Solid
 62
     7
370
    15
100
AcDbSpline
210
0.0
220
0.0
230
1.0
 70
     8
 71
     3
 72
    16
 73
    12
 74
     0
 42
0.00000001
 43
0.00000001
 40
0.0
 40
0.0
 40
0.0
 40
0.0
 40
0.0089163536376531
 40
0.0950916610262386
 40
0.1884915419853712
 40
0.3242483637843432
 40
0.4709817906572237
 40
0.6287426537875177
 40
0.7924059888170062
 40
0.9732568763009787
 40
0.9999999999999999
 40
0.9999999999999999
 40
0.9999999999999999
 40
0.9999999999999999
 10
553.845353997455
 20
1239.540484340614
 30
0.0
 10
553.8488223854221
 20
1239.540455056707
 30
0.0
 10
553.88581225665
 20
1239.540142747951
 30
0.0
 10
553.743186935342
 20
1239.545892128879
 30
0.0
 10
553.3323842240853
 20
1239.625034216995
 30
0.0
 10
552.6097245565476
 20
1239.882898722836
 30
0.0
 10
551.7897245827979
 20
1240.402745720118
 30
0.0
 10
551.0200136598748
 20
1241.172242812464
 30
0.0
 10
550.4315192067996
 20
1242.184332131877
 30
0.0
 10
550.1271103957346
 20
1243.027663730112
 30
0.0
 10
550.1188745938908
 20
1243.508157185795
 30
0.0
 10
550.1178136236529
 20
1243.570056350654
 30
0.0
  0
SPLINE
  5
6B
330
1F
100
AcDbEntity
  8
0
  6
SLD-Solid
 62
     7
370
    15
100
AcDbSpline
210
0.0
220
0.0
230
1.0
 70
     8
 71
     3
 72
    15
 73
    11
 74
     0
 42
0.00000001
 43
0.00000001
 40
0.0
 40
0.0
 40
0.0
 40
0.0
 40
0.0899064060783291
 40
0.2721963563128196
 40
0.4343489677129453
 40
0.580081123555649
 40
0.7109424241805976
 40
0.8250652198927337
 40
0.9175199876753292
 40
1.0
 40
1.0
 40
1.0
 40
1.0
 10
920.8302727110247
 20
1243.381586463874
 30
0.0
 10
920.8051238922203
 20
1243.178989571265
 30
0.0
 10
920.7289845252647
 20
1242.565616860979
 30
0.0
 10
920.2908313439978
 20
1241.655749836755
 30
0.0
 10
919.6150741314349
 20
1240.777169104857
 30
0.0
 10
918.8590787971283
 20
1240.163676978623
 30
0.0
 10
918.1365687319643
 20
1239.784590892289
 30
0.0
 10
917.544777509481
 20
1239.598196751142
 30
0.0
 10
917.1875946323576
 20
1239.542523545022
 30
0.0
 10
917.1512198350622
 20
1239.541056723236
 30
0.0
 10
917.1340694792132
 20
1239.540365131324
 30
0.0
  0
SPLINE
  5
6C
330
1F
100
AcDbEntity
  8
0
  6
SLD-Solid
 62
     7
370
    15
100
AcDbSpline
210
0.0
220
0.0
230
1.0
 70
     8
 71
     3
 72
    15
 73
    11
 74
     0
 42
0.00000001
 43
0.00000001
 40
0.0
 40
0.0
 40
0.0
 40
0.0
 40
0.1972310364897016
 40
0.3744432230975381
 40
0.5335069807670201
 40
0.6761834470888379
 40
0.8012336853536141
 40
0.9096174113088253
 40
0.9983236007380226
 40
1.0
 40
1.0
 40
1.0
 40
1.0
 10
540.7381883032183
 20
1242.810931594795
 30
0.0
 10
540.5960157026677
 20
1242.422689053479
 30
0.0
 10
540.3261009482062
 20
1241.685610391313
 30
0.0
 10
539.630773238284
 20
1240.80894119798
 30
0.0
 10
538.8818030001121
 20
1240.187036483868
 30
0.0
 10
538.1586283344683
 20
1239.800827339963
 30
0.0
 10
537.5434163134058
 20
1239.604292101281
 30
0.0
 10
537.1825879455405
 20
1239.542755825778
 30
0.0
 10
537.0699433296277
 20
1239.540358223115
 30
0.0
 10
537.0985556256151
 20
1239.540365005525
 30
0.0
 10
537.0990863211015
 20
1239.540365131324
 30
0.0
  0
SPLINE
  5
6D
330
1F
100
AcDbEntity
  8
0
  6
SLD-Solid
 62
     7
370
    15
100
AcDbSpline
210
0.0
220
0.0
230
1.0
 70
     8
 71
     3
 72
    15
 73
    11
 74
     0
 42
0.00000001
 43
0.00000001
 40
0.0
 40
0.0
 40
0.0
 40
0.0
 40
0.0335868464487945
 40
0.1155053619677002
 40
0.2251669795824852
 40
0.3554510705253048
 40
0.5033842776342975
 40
0.6616749912124686
 40
0.8249797777276928
 40
1.0
 40
1.0
 40
1.0
 40
1.0
 10
933.8645121223788
 20
1239.54143801493
 30
0.0
 10
933.8718270135058
 20
1239.541189370384
 30
0.0
 10
933.8969829670035
 20
1239.540334280334
 30
0.0
 10
933.6874390902946
 20
1239.557239186307
 30
0.0
 10
933.1731480181968
 20
1239.674427276459
 30
0.0
 10
932.4278234318108
 20
1239.988536167179
 30
0.0
 10
931.6163121156379
 20
1240.554709652852
 30
0.0
 10
930.8856558906753
 20
1241.374205831824
 30
0.0
 10
930.3139273733992
 20
1242.412736490498
 30
0.0
 10
930.1703844250131
 20
1243.199205976485
 30
0.0
 10
930.0961276657442
 20
1243.606057556098
 30
0.0
  0
SPLINE
  5
6E
330
1F
100
AcDbEntity
  8
0
  6
SLD-Solid
 62
     7
370
    15
100
AcDbSpline
210
0.0
220
0.0
230
1.0
 70
     8
 71
     3
 72
     9
 73
     5
 74
     0
 42
0.00000001
 43
0.00000001
 40
0.0
 40
0.0
 40
0.0
 40
0.0
 40
0.1606370439180687
 40
1.0
 40
1.0
 40
1.0
 40
1.0
 10
466.1419322855333
 20
1239.60235396189
 30
0.0
 10
466.2860012399313
 20
1239.607582855566
 30
0.0
 10
467.1828613344902
 20
1239.640133838499
 30
0.0
 10
468.1103783353317
 20
1239.609905076301
 30
0.0
 10
468.8889017469743
 20
1239.584532173103
 30
0.0
  0
SPLINE
  5
6F
330
1F
100
AcDbEntity
  8
0
  6
SLD-Solid
 62
     7
370
    15
100
AcDbSpline
210
0.0
220
0.0
230
1.0
 70
     8
 71
     3
 72
     9
 73
     5
 74
     0
 42
0.00000001
 43
0.00000001
 40
0.0
 40
0.0
 40
0.0
 40
0.0
 40
0.7175331607158989
 40
1.0
 40
1.0
 40
1.0
 40
1.0
 10
1002.099179304347
 20
1239.586022289222
 30
0.0
 10
1002.723137392924
 20
1239.607276156722
 30
0.0
 10
1003.592725201179
 20
1239.636896902722
 30
0.0
 10
1004.429626628351
 20
1239.609125561315
 30
0.0
 10
1004.666023529277
 20
1239.601281078285
 30
0.0
  0
ARC
  5
70
330
1F
100
AcDbEntity
  8
0
  6
SLD-Solid
 62
     7
370
    15
100
AcDbCircle
 10
463.1439371132
 20
1244.5415088917
 30
0.0
 40
4.999892063157742
100
AcDbArc
 50
269.9993255541
 51
336.652229274
  0
ARC
  5
71
330
1F
100
AcDbEntity
  8
0
  6
SLD-Solid
 62
     7
370
    15
100
AcDbCircle
 10
1007.8457266856
 20
1244.5414819446
 30
0.0
 40
4.999865116479277
100
AcDbArc
 50
203.4063530754
 51
270.0009790185
  0
ARC
  5
72
330
1F
100
AcDbEntity
  8
0
  6
SLD-Solid
 62
     7
370
    15
100
AcDbCircle
 10
726.7850694741
 20
1244.5415174468
 30
0.0
 40
4.99990072142514
100
AcDbArc
 50
203.2533865585
 51
269.9883400176
  0
ARC
  5
73
330
1F
100
AcDbEntity
  8
0
  6
SLD-Solid
 62
     7
370
    15
100
AcDbCircle
 10
744.2046007806
 20
1244.5415456143
 30
0.0
 40
4.999928892193786
100
AcDbArc
 50
270.0118424769
 51
336.8697514721
  0
SPLINE
  5
74
330
1F
100
AcDbEntity
  8
0
  6
SLD-Solid
 62
     7
370
    15
100
AcDbSpline
210
0.0
220
0.0
230
1.0
 70
     8
 71
     3
 72
    20
 73
    16
 74
     0
 42
0.00000001
 43
0.00000001
 40
0.0
 40
0.0
 40
0.0
 40
0.0
 40
0.0465871124828146
 40
0.1303858720756379
 40
0.2144068410627426
 40
0.2988510532859455
 40
0.383775626277426
 40
0.4691689003911532
 40
0.5549691596992407
 40
0.6410918468259957
 40
0.7274513152881951
 40
0.8139802996950097
 40
0.9006211892779167
 40
0.9873414614420947
 40
1.0
 40
1.0
 40
1.0
 40
1.0
 10
491.9253518946031
 20
1262.041595371192
 30
0.0
 10
491.4778659958916
 20
1262.031860480854
 30
0.0
 10
490.2254630021114
 20
1262.004614916608
 30
0.0
 10
488.1596383215446
 20
1261.711041794711
 30
0.0
 10
485.7505354876679
 20
1261.073370999558
 30
0.0
 10
483.3733602484541
 20
1260.126198108999
 30
0.0
 10
481.0478720527495
 20
1258.882081573624
 30
0.0
 10
478.7945627582355
 20
1257.348865537223
 30
0.0
 10
476.6342372964166
 20
1255.539888730265
 30
0.0
 10
474.5871105770725
 20
1253.471194781305
 30
0.0
 10
472.6727624104262
 20
1251.1617433315
 30
0.0
 10
470.9072885143611
 20
1248.634041213797
 30
0.0
 10
469.3128801346292
 20
1245.907616502918
 30
0.0
 10
468.2883371588039
 20
1243.844827012232
 30
0.0
 10
467.7986691873821
 20
1242.701778958427
 30
0.0
 10
467.7362969286302
 20
1242.556181343024
 30
0.0
  0
SPLINE
  5
75
330
1F
100
AcDbEntity
  8
0
  6
SLD-Solid
 62
     7
370
    15
100
AcDbSpline
210
0.0
220
0.0
230
1.0
 70
     8
 71
     3
 72
    20
 73
    16
 74
     0
 42
0.00000001
 43
0.00000001
 40
0.0
 40
0.0
 40
0.0
 40
0.0
 40
0.0296686870414641
 40
0.1164968816946808
 40
0.2033420893441662
 40
0.2901567459947507
 40
0.3769213881727833
 40
0.4635956172545059
 40
0.5501215682305064
 40
0.6364205365698198
 40
0.7223952991419956
 40
0.8079483010316125
 40
0.8930052970613664
 40
0.9775499905186239
 40
0.9999999999999999
 40
0.9999999999999999
 40
0.9999999999999999
 40
0.9999999999999999
 10
1003.24889329742
 20
1242.555585296577
 30
0.0
 10
1003.101529582833
 20
1242.896019666839
 30
0.0
 10
1002.522892139246
 20
1244.232767144132
 30
0.0
 10
1001.37343583822
 20
1246.462362894348
 30
0.0
 10
999.7410094607952
 20
1249.158772076738
 30
0.0
 10
997.9369719389352
 20
1251.653158433557
 30
0.0
 10
995.9835554271341
 20
1253.926552155305
 30
0.0
 10
993.8957674305826
 20
1255.955949921625
 30
0.0
 10
991.6925754229935
 20
1257.721666538545
 30
0.0
 10
989.3942545473553
 20
1259.206109725633
 30
0.0
 10
987.0230167223199
 20
1260.393960193587
 30
0.0
 10
984.6025542377749
 20
1261.274472007489
 30
0.0
 10
982.1579727047882
 20
1261.836568787076
 30
0.0
 10
980.3067036642079
 20
1262.028019524788
 30
0.0
 10
979.2797935227416
 20
1262.039240868835
 30
0.0
 10
979.0643235809664
 20
1262.041595371192
 30
0.0
  0
SPLINE
  5
76
330
1F
100
AcDbEntity
  8
0
  6
SLD-Solid
 62
     7
370
    15
100
AcDbSpline
210
0.0
220
0.0
230
1.0
 70
     8
 71
     3
 72
    20
 73
    16
 74
     0
 42
0.00000001
 43
0.00000001
 40
0.0
 40
0.0
 40
0.0
 40
0.0
 40
0.0292060349783815
 40
0.1160819287061501
 40
0.2029736198729918
 40
0.2898369653492829
 40
0.3766476559568515
 40
0.4633697491143829
 40
0.5499434027568055
 40
0.6362893349224775
 40
0.72231126266891
 40
0.8079104182762168
 40
0.8930133515752323
 40
0.9776039986063367
 40
1.0
 40
1.0
 40
1.0
 40
1.0
 10
722.1799964226345
 20
1242.574360759681
 30
0.0
 10
722.0349711038184
 20
1242.909276243737
 30
0.0
 10
721.458555348244
 20
1244.240426992943
 30
0.0
 10
720.3115294419455
 20
1246.464519902552
 30
0.0
 10
718.6789968513896
 20
1249.160828298698
 30
0.0
 10
716.8748550801288
 20
1251.655053227016
 30
0.0
 10
714.9213030683246
 20
1253.928231361444
 30
0.0
 10
712.833430140402
 20
1255.957436998504
 30
0.0
 10
710.6301524392975
 20
1257.722986918985
 30
0.0
 10
708.3317516250767
 20
1259.207185291649
 30
0.0
 10
705.9604821155488
 20
1260.394784223406
 30
0.0
 10
703.539982752569
 20
1261.275090384155
 30
0.0
 10
701.0953780392206
 20
1261.836851214733
 30
0.0
 10
699.2447782574271
 20
1262.028058909669
 30
0.0
 10
698.2185036410636
 20
1262.039252223857
 30
0.0
 10
698.0036689109663
 20
1262.041595371192
 30
0.0
  0
SPLINE
  5
77
330
1F
100
AcDbEntity
  8
0
  6
SLD-Solid
 62
     7
370
    15
100
AcDbSpline
210
0.0
220
0.0
230
1.0
 70
     8
 71
     3
 72
    20
 73
    16
 74
     0
 42
0.00000001
 43
0.00000001
 40
0.0
 40
0.0
 40
0.0
 40
0.0
 40
0.0466117641737785
 40
0.1304553731919663
 40
0.2145204141400887
 40
0.2990090284414563
 40
0.3839787108752695
 40
0.4694174684080723
 40
0.5552630976164248
 40
0.6414316115353913
 40
0.7278368883713926
 40
0.8144110812776568
 40
0.9010978055637908
 40
0.9878639864530095
 40
1.0
 40
1.0
 40
1.0
 40
1.0
 10
772.9860140151839
 20
1262.041595371192
 30
0.0
 10
772.5385272161012
 20
1262.03186033167
 30
0.0
 10
771.2861168341394
 20
1262.004614243985
 30
0.0
 10
769.2203216299368
 20
1261.711045070239
 30
0.0
 10
766.8111805544684
 20
1261.073370514003
 30
0.0
 10
764.434033041723
 20
1260.126194954791
 30
0.0
 10
762.1085330336266
 20
1258.882079984715
 30
0.0
 10
759.8552094555711
 20
1257.34887010513
 30
0.0
 10
757.6948778491643
 20
1255.539884283424
 30
0.0
 10
755.6477726546607
 20
1253.471196416579
 30
0.0
 10
753.7334121482
 20
1251.161753664543
 30
0.0
 10
751.9679422057036
 20
1248.634038983741
 30
0.0
 10
750.3736008305923
 20
1245.907581234594
 30
0.0
 10
749.3517926855952
 20
1243.850778861698
 30
0.0
 10
748.8645855507554
 20
1242.713921030775
 30
0.0
 10
748.8048017166118
 20
1242.574420364326
 30
0.0
  0
SPLINE
  5
78
330
1F
100
AcDbEntity
  8
0
  6
SLD-Solid
 62
     7
370
    15
100
AcDbSpline
210
0.0
220
0.0
230
1.0
 70
     8
 71
     3
 72
     9
 73
     5
 74
     0
 42
0.00000001
 43
0.00000001
 40
0.0
 40
0.0
 40
0.0
 40
0.0
 40
0.4999822999599114
 40
1.0
 40
1.0
 40
1.0
 40
1.0
 10
525.9506931669572
 20
1251.809862049049
 30
0.0
 10
525.8506052973305
 20
1253.228711163231
 30
0.0
 10
525.6504224715889
 20
1256.066509849895
 30
0.0
 10
525.4535985870609
 20
1258.904543590979
 30
0.0
 10
525.3551831610064
 20
1260.323610694831
 30
0.0
  0
SPLINE
  5
79
330
1F
100
AcDbEntity
  8
0
  6
SLD-Solid
 62
     7
370
    15
100
AcDbSpline
210
0.0
220
0.0
230
1.0
 70
     8
 71
     3
 72
     9
 73
     5
 74
     0
 42
0.00000001
 43
0.00000001
 40
0.0
 40
0.0
 40
0.0
 40
0.0
 40
0.5000177612768134
 40
1.0
 40
1.0
 40
1.0
 40
1.0
 10
945.6344923145632
 20
1260.323610694831
 30
0.0
 10
945.5360756527596
 20
1258.904543677872
 30
0.0
 10
945.3392493209263
 20
1256.066510458142
 30
0.0
 10
945.139078876636
 20
1253.228711250121
 30
0.0
 10
945.0389972097735
 20
1251.809862049049
 30
0.0
  0
SPLINE
  5
7A
330
1F
100
AcDbEntity
  8
0
  6
SLD-Solid
 62
     7
370
    15
100
AcDbSpline
210
0.0
220
0.0
230
1.0
 70
     8
 71
     3
 72
     9
 73
     5
 74
     0
 42
0.00000001
 43
0.00000001
 40
0.0
 40
0.0
 40
0.0
 40
0.0
 40
0.4999857544950004
 40
1.0
 40
1.0
 40
1.0
 40
1.0
 10
665.0158619649271
 20
1260.323610694831
 30
0.0
 10
664.917238494595
 20
1258.915132871778
 30
0.0
 10
664.7199859340064
 20
1256.098096965472
 30
0.0
 10
664.5261326515109
 20
1253.280825012691
 30
0.0
 10
664.4292032487253
 20
1251.872148902839
 30
0.0
  0
SPLINE
  5
7B
330
1F
100
AcDbEntity
  8
0
  6
SLD-Solid
 62
     7
370
    15
100
AcDbSpline
210
0.0
220
0.0
230
1.0
 70
     8
 71
     3
 72
     9
 73
     5
 74
     0
 42
0.00000001
 43
0.00000001
 40
0.0
 40
0.0
 40
0.0
 40
0.0
 40
0.5000143063845283
 40
1.0
 40
1.0
 40
1.0
 40
1.0
 10
806.5604871280054
 20
1251.872148902839
 30
0.0
 10
806.4635540058803
 20
1253.280824926938
 30
0.0
 10
806.2696933085214
 20
1256.098096365198
 30
0.0
 10
806.0724481627997
 20
1258.915132786025
 30
0.0
 10
805.9738284118037
 20
1260.323610694831
 30
0.0
  0
ARC
  5
7C
330
1F
100
AcDbEntity
  8
0
  6
SLD-Solid
 62
     7
370
    15
100
AcDbCircle
 10
523.3751715284
 20
1260.0415978505
 30
0.0
 40
2.0
100
AcDbArc
 50
8.1460564929
 51
90.0
  0
ARC
  5
7D
330
1F
100
AcDbEntity
  8
0
  6
SLD-Solid
 62
     7
370
    15
100
AcDbCircle
 10
947.61451408
 20
1260.0415978505
 30
0.0
 40
2.000000000000086
100
AcDbArc
 50
90.0
 51
171.8968628339
  0
ARC
  5
7E
330
1F
100
AcDbEntity
  8
0
  6
SLD-Solid
 62
     7
370
    15
100
AcDbCircle
 10
666.9958758074
 20
1260.0415978505
 30
0.0
 40
2.0
100
AcDbArc
 50
90.0
 51
171.8973955384
  0
ARC
  5
7F
330
1F
100
AcDbEntity
  8
0
  6
SLD-Solid
 62
     7
370
    15
100
AcDbCircle
 10
803.993809801
 20
1260.0415978505
 30
0.0
 40
2.0
100
AcDbArc
 50
8.1447798754
 51
90.0
  0
LINE
  5
80
330
1F
100
AcDbEntity
  8
0
  6
SLD-Solid
 62
     7
370
    15
100
AcDbLine
 10
479.6658983595
 20
1257.8853038864
 30
0.0
 11
479.4416656859
 21
1260.2330116348
 31
0.0
  0
LINE
  5
81
330
1F
100
AcDbEntity
  8
0
  6
SLD-Solid
 62
     7
370
    15
100
AcDbLine
 10
991.5552368529
 20
1260.2323559837
 30
0.0
 11
991.3311233885
 21
1257.898118885
 31
0.0
  0
LINE
  5
82
330
1F
100
AcDbEntity
  8
0
  6
SLD-Solid
 62
     7
370
    15
100
AcDbLine
 10
711.5030294425
 20
1260.5930236892
 30
0.0
 11
711.1808104582
 21
1257.2220233993
 31
0.0
  0
LINE
  5
83
330
1F
100
AcDbEntity
  8
0
  6
SLD-Solid
 62
     7
370
    15
100
AcDbLine
 10
759.808442197
 20
1257.2503356056
 30
0.0
 11
759.4880076266
 21
1260.5931428985
 31
0.0
  0
ARC
  5
84
330
1F
100
AcDbEntity
  8
0
  6
SLD-Solid
 62
     7
370
    15
100
AcDbCircle
 10
477.4365147641
 20
1260.0415978505
 30
0.0
 40
2.000000000000084
100
AcDbArc
 50
5.4535414403
 51
90.0
  0
ARC
  5
85
330
1F
100
AcDbEntity
  8
0
  6
SLD-Solid
 62
     7
370
    15
100
AcDbCircle
 10
993.5531708442
 20
1260.0415978505
 30
0.0
 40
2.0
100
AcDbArc
 50
90.0
 51
174.5464585597
  0
LINE
  5
86
330
1F
100
AcDbEntity
  8
0
  6
SLD-Solid
 62
     7
370
    15
100
AcDbLine
 10
1001.494847811
 20
1229.5416263656
 30
0.0
 11
1002.9773047335
 21
1218.8581494407
 31
0.0
  0
LINE
  5
87
330
1F
100
AcDbEntity
  8
0
  6
SLD-Solid
 62
     7
370
    15
100
AcDbLine
 10
1010.0123813517
 20
1218.8581494407
 30
0.0
 11
1011.3488963015
 21
1228.4899024085
 31
0.0
  0
LINE
  5
88
330
1F
100
AcDbEntity
  8
0
  6
SLD-Solid
 62
     7
370
    15
100
AcDbLine
 10
459.6407642729
 20
1228.4899024085
 30
0.0
 11
460.977309025
 21
1218.8581494407
 31
0.0
  0
LINE
  5
89
330
1F
100
AcDbEntity
  8
0
  6
SLD-Solid
 62
     7
370
    15
100
AcDbLine
 10
468.0123856432
 20
1218.8581494407
 30
0.0
 11
469.4948425658
 21
1229.5416263656
 31
0.0
  0
LINE
  5
8A
330
1F
100
AcDbEntity
  8
0
  6
SLD-Solid
 62
     7
370
    15
100
AcDbLine
 10
759.8084403343
 20
1257.2503356056
 30
0.0
 11
759.4880076266
 21
1260.5931428985
 31
0.0
  0
LINE
  5
8B
330
1F
100
AcDbEntity
  8
0
  6
SLD-Solid
 62
     7
370
    15
100
AcDbLine
 10
540.6975975401
 20
1242.7199153022
 30
0.0
 11
540.451042927
 21
1242.1441940383
 31
0.0
  0
LINE
  5
8C
330
1F
100
AcDbEntity
  8
0
  6
SLD-Solid
 62
     7
370
    15
100
AcDbLine
 10
830.1963215835
 20
1243.0996564941
 30
0.0
 11
830.1436683304
 21
1243.4990076141
 31
0.0
  0
LINE
  5
8D
330
1F
100
AcDbEntity
  8
0
  6
SLD-Solid
 62
     7
370
    15
100
AcDbLine
 10
468.1459298498
 20
1198.4415916519
 30
0.0
 11
467.9459264643
 21
1199.0415720062
 31
0.0
  0
LINE
  5
8E
330
1F
100
AcDbEntity
  8
0
  6
SLD-Solid
 62
     7
370
    15
100
AcDbLine
 10
461.043768204
 20
1199.0415720062
 30
0.0
 11
460.8437648184
 21
1198.4415916519
 31
0.0
  0
LINE
  5
8F
330
1F
100
AcDbEntity
  8
0
  6
SLD-Solid
 62
     7
370
    15
100
AcDbLine
 10
1010.1459255583
 20
1198.4415916519
 30
0.0
 11
1010.0792577631
 21
1198.6416248397
 31
0.0
  0
LINE
  5
90
330
1F
100
AcDbEntity
  8
0
  6
SLD-Solid
 62
     7
370
    15
100
AcDbLine
 10
1002.9104283221
 20
1198.6416248397
 30
0.0
 11
1002.8437605269
 21
1198.4415916519
 31
0.0
  0
ARC
  5
91
330
1F
100
AcDbEntity
  8
0
  6
SLD-Solid
 62
     7
370
    15
100
AcDbCircle
 10
1012.2448428042
 20
1217.2915978521
 30
0.0
 40
0.25
100
AcDbArc
 50
270.0
 51
52.629836736
  0
ARC
  5
92
330
1F
100
AcDbEntity
  8
0
  6
SLD-Solid
 62
     7
370
    15
100
AcDbCircle
 10
1000.7448428042
 20
1217.2915978521
 30
0.0
 40
0.25
100
AcDbArc
 50
127.370163264
 51
270.0
  0
ARC
  5
93
330
1F
100
AcDbEntity
  8
0
  6
SLD-Solid
 62
     7
370
    15
100
AcDbCircle
 10
1006.6898350919
 20
1210.5871430652
 30
0.0
 40
8.956577612210886
100
AcDbArc
 50
50.4198331668
 51
56.3345247097
  0
ARC
  5
94
330
1F
100
AcDbEntity
  8
0
  6
SLD-Solid
 62
     7
370
    15
100
AcDbCircle
 10
1006.2998505165
 20
1210.5871430652
 30
0.0
 40
8.956577612210886
100
AcDbArc
 50
123.6654752903
 51
129.5801668332
  0
ARC
  5
95
330
1F
100
AcDbEntity
  8
0
  6
SLD-Solid
 62
     7
370
    15
100
AcDbCircle
 10
470.2448428042
 20
1217.2915978509
 30
0.0
 40
0.2500000000002274
100
AcDbArc
 50
270.0
 51
52.6298367359
  0
ARC
  5
96
330
1F
100
AcDbEntity
  8
0
  6
SLD-Solid
 62
     7
370
    15
100
AcDbCircle
 10
458.7448428042
 20
1217.2915978509
 30
0.0
 40
0.2500000000002274
100
AcDbArc
 50
127.3701632641
 51
270.0
  0
ARC
  5
97
330
1F
100
AcDbEntity
  8
0
  6
SLD-Solid
 62
     7
370
    15
100
AcDbCircle
 10
464.6898350919
 20
1210.587143064
 30
0.0
 40
8.956577612210666
100
AcDbArc
 50
50.4198331668
 51
56.3345247097
  0
ARC
  5
98
330
1F
100
AcDbEntity
  8
0
  6
SLD-Solid
 62
     7
370
    15
100
AcDbCircle
 10
464.2998505165
 20
1210.587143064
 30
0.0
 40
8.956577612210666
100
AcDbArc
 50
123.6654752903
 51
129.5801668332
  0
ARC
  5
99
330
1F
100
AcDbEntity
  8
0
  6
SLD-Solid
 62
     7
370
    15
100
AcDbCircle
 10
645.8806829973
 20
1222.4610166589
 30
0.0
 40
2.099600000000146
100
AcDbArc
 50
0.0
 51
87.0082842346
  0
ARC
  5
9A
330
1F
100
AcDbEntity
  8
0
  6
SLD-Solid
 62
     7
370
    15
100
AcDbCircle
 10
545.1090026099
 20
1222.4610166589
 30
0.0
 40
2.09960000000014
100
AcDbArc
 50
92.9917157654
 51
180.0
  0
ARC
  5
9B
330
1F
100
AcDbEntity
  8
0
  6
SLD-Solid
 62
     7
370
    15
100
AcDbCircle
 10
647.4553829973
 20
1221.2860378376
 30
0.0
 40
0.5249000000000024
100
AcDbArc
 50
290.140195206
 51
0.0
  0
ARC
  5
9C
330
1F
100
AcDbEntity
  8
0
  6
SLD-Solid
 62
     7
370
    15
100
AcDbCircle
 10
543.5343026099
 20
1221.2860378376
 30
0.0
 40
0.5248999999998887
100
AcDbArc
 50
180.0
 51
249.859804794
  0
LINE
  5
9D
330
1F
100
AcDbEntity
  8
0
  6
SLD-Solid
 62
     7
370
    15
100
AcDbLine
 10
647.9802807934
 20
1221.2860254363
 30
0.0
 11
647.9802807934
 21
1222.4610117988
 31
0.0
  0
LINE
  5
9E
330
1F
100
AcDbEntity
  8
0
  6
SLD-Solid
 62
     7
370
    15
100
AcDbLine
 10
543.0094083912
 20
1222.4610117988
 30
0.0
 11
543.0094083912
 21
1221.2860254363
 31
0.0
  0
LINE
  5
9F
330
1F
100
AcDbEntity
  8
0
  6
SLD-Solid
 62
     7
370
    15
100
AcDbLine
 10
543.3535656102
 20
1220.7932142333
 30
0.0
 11
544.0094104178
 21
1220.5527094917
 31
0.0
  0
LINE
  5
A0
330
1F
100
AcDbEntity
  8
0
  6
SLD-Solid
 62
     7
370
    15
100
AcDbLine
 10
646.9802787669
 20
1220.5527094917
 30
0.0
 11
647.6361161239
 21
1220.7932142333
 31
0.0
  0
LINE
  5
A1
330
1F
100
AcDbEntity
  8
0
  6
SLD-Solid
 62
     7
370
    15
100
AcDbLine
 10
645.9902679689
 20
1224.5577839927
 30
0.0
 11
595.4948445923
 21
1227.1967796401
 31
0.0
  0
LINE
  5
A2
330
1F
100
AcDbEntity
  8
0
  6
SLD-Solid
 62
     7
370
    15
100
AcDbLine
 10
595.4948445923
 20
1227.1967796401
 30
0.0
 11
544.9994137652
 21
1224.5577839927
 31
0.0
  0
ARC
  5
A3
330
1F
100
AcDbEntity
  8
0
  6
SLD-Solid
 62
     7
370
    15
100
AcDbCircle
 10
645.0164608674
 20
1220.0278088488
 30
0.0
 40
0.524900000000116
100
AcDbArc
 50
90.0
 51
180.0
  0
ARC
  5
A4
330
1F
100
AcDbEntity
  8
0
  6
SLD-Solid
 62
     7
370
    15
100
AcDbCircle
 10
545.9732247398
 20
1220.0278088488
 30
0.0
 40
0.5249000000000024
100
AcDbArc
 50
0.0
 51
90.0
  0
ARC
  5
A5
330
1F
100
AcDbEntity
  8
0
  6
SLD-Solid
 62
     7
370
    15
100
AcDbCircle
 10
644.0716408674
 20
1219.4570174897
 30
0.0
 40
0.4199199999999337
100
AcDbArc
 50
289.9336222061
 51
0.0
  0
ARC
  5
A6
330
1F
100
AcDbEntity
  8
0
  6
SLD-Solid
 62
     7
370
    15
100
AcDbCircle
 10
546.9180447398
 20
1219.4570174897
 30
0.0
 40
0.4199200000000474
100
AcDbArc
 50
180.0
 51
250.0663777939
  0
LINE
  5
A7
330
1F
100
AcDbEntity
  8
0
  6
SLD-Solid
 62
     7
370
    15
100
AcDbLine
 10
644.4915613301
 20
1219.4569973068
 30
0.0
 11
644.4915613301
 21
1220.0278309898
 31
0.0
  0
LINE
  5
A8
330
1F
100
AcDbEntity
  8
0
  6
SLD-Solid
 62
     7
370
    15
100
AcDbLine
 10
546.4981278546
 20
1220.0278309898
 30
0.0
 11
546.4981278546
 21
1219.4569973068
 31
0.0
  0
LINE
  5
A9
330
1F
100
AcDbEntity
  8
0
  6
SLD-Solid
 62
     7
370
    15
100
AcDbLine
 10
546.7748871214
 20
1219.0622357444
 30
0.0
 11
546.8438943989
 21
1219.0372017936
 31
0.0
  0
LINE
  5
AA
330
1F
100
AcDbEntity
  8
0
  6
SLD-Solid
 62
     7
370
    15
100
AcDbLine
 10
644.1457947857
 20
1219.0372017936
 30
0.0
 11
644.2148020632
 21
1219.0622357444
 31
0.0
  0
ARC
  5
AB
330
1F
100
AcDbEntity
  8
0
  6
SLD-Solid
 62
     7
370
    15
100
AcDbCircle
 10
925.8806829979
 20
1222.4610166608
 30
0.0
 40
2.099600000000009
100
AcDbArc
 50
0.0
 51
87.0082842346
  0
ARC
  5
AC
330
1F
100
AcDbEntity
  8
0
  6
SLD-Solid
 62
     7
370
    15
100
AcDbCircle
 10
825.1090026105
 20
1222.4610166608
 30
0.0
 40
2.099600000000146
100
AcDbArc
 50
92.9917157654
 51
180.0
  0
ARC
  5
AD
330
1F
100
AcDbEntity
  8
0
  6
SLD-Solid
 62
     7
370
    15
100
AcDbCircle
 10
927.4553829979
 20
1221.2860378395
 30
0.0
 40
0.5249000000000024
100
AcDbArc
 50
290.140195206
 51
0.0
  0
ARC
  5
AE
330
1F
100
AcDbEntity
  8
0
  6
SLD-Solid
 62
     7
370
    15
100
AcDbCircle
 10
823.5343026105
 20
1221.2860378395
 30
0.0
 40
0.5249000000000039
100
AcDbArc
 50
180.0
 51
249.859804794
  0
LINE
  5
AF
330
1F
100
AcDbEntity
  8
0
  6
SLD-Solid
 62
     7
370
    15
100
AcDbLine
 10
927.9802819855
 20
1221.2860254363
 30
0.0
 11
927.9802819855
 21
1222.4610117988
 31
0.0
  0
LINE
  5
B0
330
1F
100
AcDbEntity
  8
0
  6
SLD-Solid
 62
     7
370
    15
100
AcDbLine
 10
823.0094021327
 20
1222.4610117988
 30
0.0
 11
823.0094021327
 21
1221.2860254363
 31
0.0
  0
LINE
  5
B1
330
1F
100
AcDbEntity
  8
0
  6
SLD-Solid
 62
     7
370
    15
100
AcDbLine
 10
823.3535668022
 20
1220.7932142333
 30
0.0
 11
824.0094116099
 21
1220.5527094917
 31
0.0
  0
LINE
  5
B2
330
1F
100
AcDbEntity
  8
0
  6
SLD-Solid
 62
     7
370
    15
100
AcDbLine
 10
926.9802799589
 20
1220.5527094917
 30
0.0
 11
927.6361098654
 21
1220.7932142333
 31
0.0
  0
LINE
  5
B3
330
1F
100
AcDbEntity
  8
0
  6
SLD-Solid
 62
     7
370
    15
100
AcDbLine
 10
925.9902617104
 20
1224.5577839927
 30
0.0
 11
875.4948457844
 21
1227.1967796401
 31
0.0
  0
LINE
  5
B4
330
1F
100
AcDbEntity
  8
0
  6
SLD-Solid
 62
     7
370
    15
100
AcDbLine
 10
875.4948457844
 20
1227.1967796401
 30
0.0
 11
824.9994224079
 21
1224.5577839927
 31
0.0
  0
ARC
  5
B5
330
1F
100
AcDbEntity
  8
0
  6
SLD-Solid
 62
     7
370
    15
100
AcDbCircle
 10
925.016460868
 20
1220.0278088508
 30
0.0
 40
0.524900000000116
100
AcDbArc
 50
90.0
 51
180.0
  0
ARC
  5
B6
330
1F
100
AcDbEntity
  8
0
  6
SLD-Solid
 62
     7
370
    15
100
AcDbCircle
 10
825.9732247404
 20
1220.0278088508
 30
0.0
 40
0.5249000000000024
100
AcDbArc
 50
0.0
 51
90.0
  0
ARC
  5
B7
330
1F
100
AcDbEntity
  8
0
  6
SLD-Solid
 62
     7
370
    15
100
AcDbCircle
 10
924.071640868
 20
1219.4570174917
 30
0.0
 40
0.4199200000000859
100
AcDbArc
 50
289.9336222061
 51
0.0
  0
ARC
  5
B8
330
1F
100
AcDbEntity
  8
0
  6
SLD-Solid
 62
     7
370
    15
100
AcDbCircle
 10
826.9180447404
 20
1219.4570174917
 30
0.0
 40
0.4199200000000474
100
AcDbArc
 50
180.0
 51
250.0663777939
  0
LINE
  5
B9
330
1F
100
AcDbEntity
  8
0
  6
SLD-Solid
 62
     7
370
    15
100
AcDbLine
 10
924.4915625222
 20
1219.4569973068
 30
0.0
 11
924.4915625222
 21
1220.0278309898
 31
0.0
  0
LINE
  5
BA
330
1F
100
AcDbEntity
  8
0
  6
SLD-Solid
 62
     7
370
    15
100
AcDbLine
 10
826.4981215961
 20
1220.0278309898
 30
0.0
 11
826.4981215961
 21
1219.4569973068
 31
0.0
  0
LINE
  5
BB
330
1F
100
AcDbEntity
  8
0
  6
SLD-Solid
 62
     7
370
    15
100
AcDbLine
 10
826.7748808629
 20
1219.0622357444
 30
0.0
 11
826.8438881404
 21
1219.0372017936
 31
0.0
  0
LINE
  5
BC
330
1F
100
AcDbEntity
  8
0
  6
SLD-Solid
 62
     7
370
    15
100
AcDbLine
 10
924.1457959778
 20
1219.0372017936
 30
0.0
 11
924.2148032553
 21
1219.0622357444
 31
0.0
  0
LINE
  5
BD
330
1F
100
AcDbEntity
  8
0
  6
SLD-Solid
 62
     7
370
    15
100
AcDbLine
 10
546.4608004458
 20
1218.7372116165
 30
0.0
 11
546.4608004458
 21
1217.0415786819
 31
0.0
  0
LINE
  5
BE
330
1F
100
AcDbEntity
  8
0
  6
SLD-Solid
 62
     7
370
    15
100
AcDbLine
 10
644.5288887389
 20
1217.0415786819
 30
0.0
 11
644.5288887389
 21
1218.7372116165
 31
0.0
  0
ARC
  5
BF
330
1F
100
AcDbEntity
  8
0
  6
SLD-Solid
 62
     7
370
    15
100
AcDbCircle
 10
546.7607988036
 20
1218.7372287655
 30
0.0
 40
0.3000000000001819
100
AcDbArc
 50
90.0
 51
180.0
  0
ARC
  5
C0
330
1F
100
AcDbEntity
  8
0
  6
SLD-Solid
 62
     7
370
    15
100
AcDbCircle
 10
644.2288868036
 20
1218.7372287655
 30
0.0
 40
0.3000000000001819
100
AcDbArc
 50
0.0
 51
90.0
  0
LINE
  5
C1
330
1F
100
AcDbEntity
  8
0
  6
SLD-Solid
 62
     7
370
    15
100
AcDbLine
 10
644.2288836605
 20
1219.0372017936
 30
0.0
 11
546.7608055241
 21
1219.0372017936
 31
0.0
  0
LINE
  5
C2
330
1F
100
AcDbEntity
  8
0
  6
SLD-Solid
 62
     7
370
    15
100
AcDbLine
 10
826.4608016379
 20
1218.7372116165
 30
0.0
 11
826.4608016379
 21
1217.0415786819
 31
0.0
  0
LINE
  5
C3
330
1F
100
AcDbEntity
  8
0
  6
SLD-Solid
 62
     7
370
    15
100
AcDbLine
 10
924.5288899309
 20
1217.0415786819
 30
0.0
 11
924.5288899309
 21
1218.7372116165
 31
0.0
  0
ARC
  5
C4
330
1F
100
AcDbEntity
  8
0
  6
SLD-Solid
 62
     7
370
    15
100
AcDbCircle
 10
826.7607988042
 20
1218.7372287674
 30
0.0
 40
0.2999999999999545
100
AcDbArc
 50
90.0
 51
180.0
  0
ARC
  5
C5
330
1F
100
AcDbEntity
  8
0
  6
SLD-Solid
 62
     7
370
    15
100
AcDbCircle
 10
924.2288868042
 20
1218.7372287674
 30
0.0
 40
0.3000000000000682
100
AcDbArc
 50
0.0
 51
90.0
  0
LINE
  5
C6
330
1F
100
AcDbEntity
  8
0
  6
SLD-Solid
 62
     7
370
    15
100
AcDbLine
 10
924.2288848526
 20
1219.0372017936
 30
0.0
 11
826.7607992656
 21
1219.0372017936
 31
0.0
  0
LINE
  5
C7
330
1F
100
AcDbEntity
  8
0
  6
SLD-Solid
 62
     7
370
    15
100
AcDbLine
 10
1132.7941646941
 20
1112.1190456466
 30
0.0
 11
1141.0686602957
 21
1119.0134553031
 31
0.0
  0
LINE
  5
C8
330
1F
100
AcDbEntity
  8
0
  6
SLD-Solid
 62
     7
370
    15
100
AcDbLine
 10
1115.2027180559
 20
1173.7719444351
 30
0.0
 11
1112.7080550558
 21
1173.9377049522
 31
0.0
  0
LINE
  5
C9
330
1F
100
AcDbEntity
  8
0
  6
SLD-Solid
 62
     7
370
    15
100
AcDbLine
 10
1123.4546831019
 20
1173.2236413078
 30
0.0
 11
1120.1915374167
 21
1173.4404830055
 31
0.0
  0
LINE
  5
CA
330
1F
100
AcDbEntity
  8
0
  6
SLD-Solid
 62
     7
370
    15
100
AcDbLine
 10
1123.9517262347
 20
1173.169401081
 30
0.0
 11
1123.4546831019
 21
1173.2236413078
 31
0.0
  0
LINE
  5
CB
330
1F
100
AcDbEntity
  8
0
  6
SLD-Solid
 62
     7
370
    15
100
AcDbLine
 10
1141.0686602957
 20
1119.0134553031
 30
0.0
 11
1156.829856909
 21
1133.3187488632
 31
0.0
  0
ARC
  5
CC
330
1F
100
AcDbEntity
  8
0
  6
SLD-Solid
 62
     7
370
    15
100
AcDbCircle
 10
1156.1577667435
 20
1134.0592097653
 30
0.0
 40
1.00000000000004
100
AcDbArc
 50
312.2277453179
 51
18.0
  0
LINE
  5
CD
330
1F
100
AcDbEntity
  8
0
  6
SLD-Solid
 62
     7
370
    15
100
AcDbLine
 10
1123.0466595061
 20
1135.6466082649
 30
0.0
 11
1124.9595513708
 21
1136.2314490394
 31
0.0
  0
LINE
  5
CE
330
1F
100
AcDbEntity
  8
0
  6
SLD-Solid
 62
     7
370
    15
100
AcDbLine
 10
1120.1950540907
 20
1173.4502581672
 30
0.0
 11
1115.2006020911
 21
1173.7821368293
 31
0.0
  0
LINE
  5
CF
330
1F
100
AcDbEntity
  8
0
  6
SLD-Solid
 62
     7
370
    15
100
AcDbLine
 10
1119.6129253275
 20
1146.2145713882
 30
0.0
 11
1109.7764006026
 21
1143.0185107307
 31
0.0
  0
LINE
  5
D0
330
1F
100
AcDbEntity
  8
0
  6
SLD-Solid
 62
     7
370
    15
100
AcDbLine
 10
1112.2485330469
 20
1135.4100374298
 30
0.0
 11
1122.0850577719
 21
1138.6060980873
 31
0.0
  0
LINE
  5
D1
330
1F
100
AcDbEntity
  8
0
  6
SLD-Solid
 62
     7
370
    15
100
AcDbLine
 10
1060.9948566325
 20
347.4415955858
 30
0.0
 11
1060.9948566325
 21
351.441603692
 31
0.0
  0
LINE
  5
D2
330
1F
100
AcDbEntity
  8
0
  6
SLD-Solid
 62
     7
370
    15
100
AcDbLine
 10
1003.9948454268
 20
351.441603692
 30
0.0
 11
1003.9948454268
 21
347.4415955858
 31
0.0
  0
ARC
  5
D3
330
1F
100
AcDbEntity
  8
0
  6
SLD-Solid
 62
     7
370
    15
100
AcDbCircle
 10
1058.9948428042
 20
347.4415978507
 30
0.0
 40
2.0
100
AcDbArc
 50
270.0
 51
0.0
  0
ARC
  5
D4
330
1F
100
AcDbEntity
  8
0
  6
SLD-Solid
 62
     7
370
    15
100
AcDbCircle
 10
1005.9948428042
 20
347.4415978507
 30
0.0
 40
2.000000000000227
100
AcDbArc
 50
180.0
 51
270.0
  0
LINE
  5
D5
330
1F
100
AcDbEntity
  8
0
  6
SLD-Solid
 62
     7
370
    15
100
AcDbLine
 10
471.9948401816
 20
347.4415955858
 30
0.0
 11
471.9948401816
 21
351.441603692
 31
0.0
  0
LINE
  5
D6
330
1F
100
AcDbEntity
  8
0
  6
SLD-Solid
 62
     7
370
    15
100
AcDbLine
 10
414.9948289759
 20
351.441603692
 30
0.0
 11
414.9948289759
 21
347.4415955858
 31
0.0
  0
ARC
  5
D7
330
1F
100
AcDbEntity
  8
0
  6
SLD-Solid
 62
     7
370
    15
100
AcDbCircle
 10
469.9948428042
 20
347.4415978507
 30
0.0
 40
2.0
100
AcDbArc
 50
270.0
 51
0.0
  0
ARC
  5
D8
330
1F
100
AcDbEntity
  8
0
  6
SLD-Solid
 62
     7
370
    15
100
AcDbCircle
 10
416.9948428042
 20
347.4415978507
 30
0.0
 40
2.0
100
AcDbArc
 50
180.0
 51
270.0
  0
LINE
  5
D9
330
1F
100
AcDbEntity
  8
0
  6
SLD-Solid
 62
     7
370
    15
100
AcDbLine
 10
471.794836796
 20
351.441603692
 30
0.0
 11
471.794836796
 21
419.4415924863
 31
0.0
  0
LINE
  5
DA
330
1F
100
AcDbEntity
  8
0
  6
SLD-Solid
 62
     7
370
    15
100
AcDbLine
 10
415.1948323614
 20
419.4415924863
 30
0.0
 11
415.1948323614
 21
351.441603692
 31
0.0
  0
LINE
  5
DB
330
1F
100
AcDbEntity
  8
0
  6
SLD-Solid
 62
     7
370
    15
100
AcDbLine
 10
1060.7948532469
 20
351.441603692
 30
0.0
 11
1060.7948532469
 21
419.4415924863
 31
0.0
  0
LINE
  5
DC
330
1F
100
AcDbEntity
  8
0
  6
SLD-Solid
 62
     7
370
    15
100
AcDbLine
 10
1004.1948488123
 20
419.4415924863
 30
0.0
 11
1004.1948488123
 21
351.441603692
 31
0.0
  0
ARC
  5
DD
330
1F
100
AcDbEntity
  8
0
  6
SLD-Solid
 62
     7
370
    15
100
AcDbCircle
 10
476.8948428042
 20
511.9415978507
 30
0.0
 40
1.500000000000057
100
AcDbArc
 50
90.0
 51
180.0
  0
ARC
  5
DE
330
1F
100
AcDbEntity
  8
0
  6
SLD-Solid
 62
     7
370
    15
100
AcDbCircle
 10
410.0948428042
 20
511.9415978507
 30
0.0
 40
1.500000000000057
100
AcDbArc
 50
0.0
 51
90.0
  0
ARC
  5
DF
330
1F
100
AcDbEntity
  8
0
  6
SLD-Solid
 62
     7
370
    15
100
AcDbCircle
 10
470.6948428042
 20
425.4741637964
 30
0.0
 40
4.699999999999954
100
AcDbArc
 50
350.5402980318
 51
0.0
  0
ARC
  5
E0
330
1F
100
AcDbEntity
  8
0
  6
SLD-Solid
 62
     7
370
    15
100
AcDbCircle
 10
416.2948428042
 20
425.4741637964
 30
0.0
 40
4.70000000000001
100
AcDbArc
 50
180.0
 51
189.4597019682
  0
LINE
  5
E1
330
1F
100
AcDbEntity
  8
0
  6
SLD-Solid
 62
     7
370
    15
100
AcDbLine
 10
475.3948381312
 20
425.4741636829
 30
0.0
 11
475.3948381312
 21
511.9415974037
 31
0.0
  0
LINE
  5
E2
330
1F
100
AcDbEntity
  8
0
  6
SLD-Solid
 62
     7
370
    15
100
AcDbLine
 10
411.5948310263
 20
511.9415974037
 30
0.0
 11
411.5948310263
 21
425.4741636829
 31
0.0
  0
LINE
  5
E3
330
1F
100
AcDbEntity
  8
0
  6
SLD-Solid
 62
     7
370
    15
100
AcDbLine
 10
411.6587570078
 20
424.7017023878
 30
0.0
 11
412.5351837046
 21
419.4415924863
 31
0.0
  0
LINE
  5
E4
330
1F
100
AcDbEntity
  8
0
  6
SLD-Solid
 62
     7
370
    15
100
AcDbLine
 10
474.4544854529
 20
419.4415924863
 30
0.0
 11
475.330941952
 21
424.7017023878
 31
0.0
  0
ARC
  5
E5
330
1F
100
AcDbEntity
  8
0
  6
SLD-Solid
 62
     7
370
    15
100
AcDbCircle
 10
1065.8948428042
 20
511.9415978507
 30
0.0
 40
1.500000000000057
100
AcDbArc
 50
90.0
 51
180.0
  0
ARC
  5
E6
330
1F
100
AcDbEntity
  8
0
  6
SLD-Solid
 62
     7
370
    15
100
AcDbCircle
 10
999.0948428042
 20
511.9415978507
 30
0.0
 40
1.500000000000057
100
AcDbArc
 50
0.0
 51
90.0
  0
ARC
  5
E7
330
1F
100
AcDbEntity
  8
0
  6
SLD-Solid
 62
     7
370
    15
100
AcDbCircle
 10
1059.6948428042
 20
425.4741637964
 30
0.0
 40
4.700000000000235
100
AcDbArc
 50
350.5402980318
 51
0.0
  0
ARC
  5
E8
330
1F
100
AcDbEntity
  8
0
  6
SLD-Solid
 62
     7
370
    15
100
AcDbCircle
 10
1005.2948428042
 20
425.4741637964
 30
0.0
 40
4.699999999999932
100
AcDbArc
 50
180.0
 51
189.4597019682
  0
LINE
  5
E9
330
1F
100
AcDbEntity
  8
0
  6
SLD-Solid
 62
     7
370
    15
100
AcDbLine
 10
1064.3948545821
 20
425.4741636829
 30
0.0
 11
1064.3948545821
 21
511.9415974037
 31
0.0
  0
LINE
  5
EA
330
1F
100
AcDbEntity
  8
0
  6
SLD-Solid
 62
     7
370
    15
100
AcDbLine
 10
1000.5948474772
 20
511.9415974037
 30
0.0
 11
1000.5948474772
 21
425.4741636829
 31
0.0
  0
LINE
  5
EB
330
1F
100
AcDbEntity
  8
0
  6
SLD-Solid
 62
     7
370
    15
100
AcDbLine
 10
1000.6587436564
 20
424.7017023878
 30
0.0
 11
1001.5352001555
 21
419.4415924863
 31
0.0
  0
LINE
  5
EC
330
1F
100
AcDbEntity
  8
0
  6
SLD-Solid
 62
     7
370
    15
100
AcDbLine
 10
1063.4545019038
 20
419.4415924863
 30
0.0
 11
1064.3309286005
 21
424.7017023878
 31
0.0
  0
LINE
  5
ED
330
1F
100
AcDbEntity
  8
0
  6
SLD-Solid
 62
     7
370
    15
100
AcDbLine
 10
498.6948451168
 20
932.2415856437
 30
0.0
 11
498.6948451168
 21
932.7416090087
 31
0.0
  0
LINE
  5
EE
330
1F
100
AcDbEntity
  8
0
  6
SLD-Solid
 62
     7
370
    15
100
AcDbLine
 10
488.2948478825
 20
932.7416090087
 30
0.0
 11
488.2948478825
 21
932.2415856437
 31
0.0
  0
LINE
  5
EF
330
1F
100
AcDbEntity
  8
0
  6
SLD-Solid
 62
     7
370
    15
100
AcDbLine
 10
1087.6948466666
 20
932.2415856437
 30
0.0
 11
1087.6948466666
 21
932.7416090087
 31
0.0
  0
LINE
  5
F0
330
1F
100
AcDbEntity
  8
0
  6
SLD-Solid
 62
     7
370
    15
100
AcDbLine
 10
1077.2948494322
 20
932.7416090087
 30
0.0
 11
1077.2948494322
 21
932.2415856437
 31
0.0
  0
LINE
  5
F1
330
1F
100
AcDbEntity
  8
0
  6
SLD-Solid
 62
     7
370
    15
100
AcDbLine
 10
987.6948377259
 20
932.2415856437
 30
0.0
 11
987.6948377259
 21
932.7416090087
 31
0.0
  0
LINE
  5
F2
330
1F
100
AcDbEntity
  8
0
  6
SLD-Solid
 62
     7
370
    15
100
AcDbLine
 10
977.2948404915
 20
932.7416090087
 30
0.0
 11
977.2948404915
 21
932.2415856437
 31
0.0
  0
LINE
  5
F3
330
1F
100
AcDbEntity
  8
0
  6
SLD-Solid
 62
     7
370
    15
100
AcDbLine
 10
398.6948361761
 20
932.2415856437
 30
0.0
 11
398.6948361761
 21
932.7416090087
 31
0.0
  0
LINE
  5
F4
330
1F
100
AcDbEntity
  8
0
  6
SLD-Solid
 62
     7
370
    15
100
AcDbLine
 10
388.2948389418
 20
932.7416090087
 30
0.0
 11
388.2948389418
 21
932.2415856437
 31
0.0
  0
LINE
  5
F5
330
1F
100
AcDbEntity
  8
0
  6
SLD-Solid
 62
     7
370
    15
100
AcDbLine
 10
1010.1948311694
 20
515.4415970461
 30
0.0
 11
1010.1948311694
 21
515.9415980594
 31
0.0
  0
LINE
  5
F6
330
1F
100
AcDbEntity
  8
0
  6
SLD-Solid
 62
     7
370
    15
100
AcDbLine
 10
999.794833935
 20
515.9415980594
 30
0.0
 11
999.794833935
 21
515.4415970461
 31
0.0
  0
LINE
  5
F7
330
1F
100
AcDbEntity
  8
0
  6
SLD-Solid
 62
     7
370
    15
100
AcDbLine
 10
476.1948516734
 20
515.4415970461
 30
0.0
 11
476.1948516734
 21
515.9415980594
 31
0.0
  0
LINE
  5
F8
330
1F
100
AcDbEntity
  8
0
  6
SLD-Solid
 62
     7
370
    15
100
AcDbLine
 10
465.794854439
 20
515.9415980594
 30
0.0
 11
465.794854439
 21
515.4415970461
 31
0.0
  0
LINE
  5
F9
330
1F
100
AcDbEntity
  8
0
  6
SLD-Solid
 62
     7
370
    15
100
AcDbLine
 10
421.1948445208
 20
515.4415970461
 30
0.0
 11
421.1948445208
 21
515.9415980594
 31
0.0
  0
LINE
  5
FA
330
1F
100
AcDbEntity
  8
0
  6
SLD-Solid
 62
     7
370
    15
100
AcDbLine
 10
410.7948472864
 20
515.9415980594
 30
0.0
 11
410.7948472864
 21
515.4415970461
 31
0.0
  0
LINE
  5
FB
330
1F
100
AcDbEntity
  8
0
  6
SLD-Solid
 62
     7
370
    15
100
AcDbLine
 10
1065.1948383219
 20
515.4415970461
 30
0.0
 11
1065.1948383219
 21
515.9415980594
 31
0.0
  0
LINE
  5
FC
330
1F
100
AcDbEntity
  8
0
  6
SLD-Solid
 62
     7
370
    15
100
AcDbLine
 10
1054.7948410876
 20
515.9415980594
 30
0.0
 11
1054.7948410876
 21
515.4415970461
 31
0.0
  0
LINE
  5
FD
330
1F
100
AcDbEntity
  8
0
  6
SLD-Solid
 62
     7
370
    15
100
AcDbLine
 10
1052.6948502428
 20
908.7415901737
 30
0.0
 11
1052.6948502428
 21
870.7416025714
 31
0.0
  0
LINE
  5
FE
330
1F
100
AcDbEntity
  8
0
  6
SLD-Solid
 62
     7
370
    15
100
AcDbLine
 10
1052.6948502428
 20
870.7416025714
 30
0.0
 11
1052.6948502428
 21
869.7415856437
 31
0.0
  0
LINE
  5
FF
330
1F
100
AcDbEntity
  8
0
  6
SLD-Solid
 62
     7
370
    15
100
AcDbLine
 10
1052.6948502428
 20
869.7415856437
 30
0.0
 11
1052.4948468573
 21
869.7415856437
 31
0.0
  0
LINE
  5
100
330
1F
100
AcDbEntity
  8
0
  6
SLD-Solid
 62
     7
370
    15
100
AcDbLine
 10
1052.6948502428
 20
909.7416071014
 30
0.0
 11
1052.4948468573
 21
909.7416071014
 31
0.0
  0
LINE
  5
101
330
1F
100
AcDbEntity
  8
0
  6
SLD-Solid
 62
     7
370
    15
100
AcDbLine
 10
1052.6948502428
 20
909.7416071014
 30
0.0
 11
1052.6948502428
 21
908.7415901737
 31
0.0
  0
LINE
  5
102
330
1F
100
AcDbEntity
  8
0
  6
SLD-Solid
 62
     7
370
    15
100
AcDbLine
 10
371.594839371
 20
1225.4416016654
 30
0.0
 11
371.4948525793
 21
1225.4416016654
 31
0.0
  0
LINE
  5
103
330
1F
100
AcDbEntity
  8
0
  6
SLD-Solid
 62
     7
370
    15
100
AcDbLine
 10
371.594839371
 20
1222.4415806846
 30
0.0
 11
371.594839371
 21
1225.4416016654
 31
0.0
  0
LINE
  5
104
330
1F
100
AcDbEntity
  8
0
  6
SLD-Solid
 62
     7
370
    15
100
AcDbLine
 10
371.4948525793
 20
1222.4415806846
 30
0.0
 11
371.4948525793
 21
1225.4416016654
 31
0.0
  0
LINE
  5
105
330
1F
100
AcDbEntity
  8
0
  6
SLD-Solid
 62
     7
370
    15
100
AcDbLine
 10
371.594839371
 20
1203.4415868835
 30
0.0
 11
371.594839371
 21
1222.4415806846
 31
0.0
  0
LINE
  5
106
330
1F
100
AcDbEntity
  8
0
  6
SLD-Solid
 62
     7
370
    15
100
AcDbLine
 10
371.4948525793
 20
1203.4415868835
 30
0.0
 11
371.4948525793
 21
1222.4415806846
 31
0.0
  0
LINE
  5
107
330
1F
100
AcDbEntity
  8
0
  6
SLD-Solid
 62
     7
370
    15
100
AcDbLine
 10
371.594839371
 20
1200.4416255073
 30
0.0
 11
371.4948525793
 21
1200.4416255073
 31
0.0
  0
LINE
  5
108
330
1F
100
AcDbEntity
  8
0
  6
SLD-Solid
 62
     7
370
    15
100
AcDbLine
 10
371.594839371
 20
1200.4416255073
 30
0.0
 11
371.594839371
 21
1203.4415868835
 31
0.0
  0
LINE
  5
109
330
1F
100
AcDbEntity
  8
0
  6
SLD-Solid
 62
     7
370
    15
100
AcDbLine
 10
371.4948525793
 20
1200.4416255073
 30
0.0
 11
371.4948525793
 21
1203.4415868835
 31
0.0
  0
LINE
  5
10A
330
1F
100
AcDbEntity
  8
0
  6
SLD-Solid
 62
     7
370
    15
100
AcDbLine
 10
371.484838999
 20
1203.6100892143
 30
0.0
 11
371.4948525793
 21
1203.6100892143
 31
0.0
  0
LINE
  5
10B
330
1F
100
AcDbEntity
  8
0
  6
SLD-Solid
 62
     7
370
    15
100
AcDbLine
 10
371.484838999
 20
1203.6100892143
 30
0.0
 11
371.484838999
 21
1203.9889363365
 31
0.0
  0
LINE
  5
10C
330
1F
100
AcDbEntity
  8
0
  6
SLD-Solid
 62
     7
370
    15
100
AcDbLine
 10
371.484838999
 20
1203.9889363365
 30
0.0
 11
371.4948525793
 21
1203.9889363365
 31
0.0
  0
LINE
  5
10D
330
1F
100
AcDbEntity
  8
0
  6
SLD-Solid
 62
     7
370
    15
100
AcDbLine
 10
371.484838999
 20
1211.0858229713
 30
0.0
 11
371.4948525793
 21
1211.0858229713
 31
0.0
  0
LINE
  5
10E
330
1F
100
AcDbEntity
  8
0
  6
SLD-Solid
 62
     7
370
    15
100
AcDbLine
 10
371.484838999
 20
1210.7837466316
 30
0.0
 11
371.4948525793
 21
1210.7837466316
 31
0.0
  0
LINE
  5
10F
330
1F
100
AcDbEntity
  8
0
  6
SLD-Solid
 62
     7
370
    15
100
AcDbLine
 10
371.484838999
 20
1210.7837466316
 30
0.0
 11
371.484838999
 21
1211.0858229713
 31
0.0
  0
LINE
  5
110
330
1F
100
AcDbEntity
  8
0
  6
SLD-Solid
 62
     7
370
    15
100
AcDbLine
 10
371.484838999
 20
1205.4136065559
 30
0.0
 11
371.4948525793
 21
1205.4136065559
 31
0.0
  0
LINE
  5
111
330
1F
100
AcDbEntity
  8
0
  6
SLD-Solid
 62
     7
370
    15
100
AcDbLine
 10
371.484838999
 20
1208.9135912971
 30
0.0
 11
371.484838999
 21
1205.4136065559
 31
0.0
  0
LINE
  5
112
330
1F
100
AcDbEntity
  8
0
  6
SLD-Solid
 62
     7
370
    15
100
AcDbLine
 10
371.484838999
 20
1208.9135912971
 30
0.0
 11
371.4948525793
 21
1208.9135912971
 31
0.0
  0
LINE
  5
113
330
1F
100
AcDbEntity
  8
0
  6
SLD-Solid
 62
     7
370
    15
100
AcDbLine
 10
371.484838999
 20
1209.0032962875
 30
0.0
 11
371.4948525793
 21
1209.0032962875
 31
0.0
  0
LINE
  5
114
330
1F
100
AcDbEntity
  8
0
  6
SLD-Solid
 62
     7
370
    15
100
AcDbLine
 10
371.484838999
 20
1205.3238419609
 30
0.0
 11
371.4948525793
 21
1205.3238419609
 31
0.0
  0
LINE
  5
115
330
1F
100
AcDbEntity
  8
0
  6
SLD-Solid
 62
     7
370
    15
100
AcDbLine
 10
371.484838999
 20
1218.3380393104
 30
0.0
 11
371.4948525793
 21
1218.3380393104
 31
0.0
  0
LINE
  5
116
330
1F
100
AcDbEntity
  8
0
  6
SLD-Solid
 62
     7
370
    15
100
AcDbLine
 10
371.484838999
 20
1218.5431388931
 30
0.0
 11
371.484838999
 21
1218.3380393104
 31
0.0
  0
LINE
  5
117
330
1F
100
AcDbEntity
  8
0
  6
SLD-Solid
 62
     7
370
    15
100
AcDbLine
 10
371.484838999
 20
1218.5431388931
 30
0.0
 11
371.4948525793
 21
1218.5431388931
 31
0.0
  0
LINE
  5
118
330
1F
100
AcDbEntity
  8
0
  6
SLD-Solid
 62
     7
370
    15
100
AcDbLine
 10
371.484838999
 20
1217.3636225776
 30
0.0
 11
371.4948525793
 21
1217.3636225776
 31
0.0
  0
LINE
  5
119
330
1F
100
AcDbEntity
  8
0
  6
SLD-Solid
 62
     7
370
    15
100
AcDbLine
 10
371.484838999
 20
1217.5687817649
 30
0.0
 11
371.4948525793
 21
1217.5687817649
 31
0.0
  0
LINE
  5
11A
330
1F
100
AcDbEntity
  8
0
  6
SLD-Solid
 62
     7
370
    15
100
AcDbLine
 10
371.484838999
 20
1217.5687817649
 30
0.0
 11
371.484838999
 21
1217.3636225776
 31
0.0
  0
LINE
  5
11B
330
1F
100
AcDbEntity
  8
0
  6
SLD-Solid
 62
     7
370
    15
100
AcDbLine
 10
371.484838999
 20
1219.1584972457
 30
0.0
 11
371.4948525793
 21
1219.1584972457
 31
0.0
  0
LINE
  5
11C
330
1F
100
AcDbEntity
  8
0
  6
SLD-Solid
 62
     7
370
    15
100
AcDbLine
 10
371.484838999
 20
1219.3636564331
 30
0.0
 11
371.4948525793
 21
1219.3636564331
 31
0.0
  0
LINE
  5
11D
330
1F
100
AcDbEntity
  8
0
  6
SLD-Solid
 62
     7
370
    15
100
AcDbLine
 10
371.484838999
 20
1219.3636564331
 30
0.0
 11
371.484838999
 21
1219.1584972457
 31
0.0
  0
LINE
  5
11E
330
1F
100
AcDbEntity
  8
0
  6
SLD-Solid
 62
     7
370
    15
100
AcDbLine
 10
371.484838999
 20
1218.3380393104
 30
0.0
 11
371.484838999
 21
1217.5687817649
 31
0.0
  0
LINE
  5
11F
330
1F
100
AcDbEntity
  8
0
  6
SLD-Solid
 62
     7
370
    15
100
AcDbLine
 10
371.484838999
 20
1219.1584972457
 30
0.0
 11
371.484838999
 21
1218.5431388931
 31
0.0
  0
LINE
  5
120
330
1F
100
AcDbEntity
  8
0
  6
SLD-Solid
 62
     7
370
    15
100
AcDbLine
 10
371.484838999
 20
1224.6284751014
 30
0.0
 11
371.4948525793
 21
1224.6284751014
 31
0.0
  0
LINE
  5
121
330
1F
100
AcDbEntity
  8
0
  6
SLD-Solid
 62
     7
370
    15
100
AcDbLine
 10
371.484838999
 20
1211.0858229713
 30
0.0
 11
371.484838999
 21
1217.1886233406
 31
0.0
  0
LINE
  5
122
330
1F
100
AcDbEntity
  8
0
  6
SLD-Solid
 62
     7
370
    15
100
AcDbLine
 10
371.484838999
 20
1219.4076446609
 30
0.0
 11
371.484838999
 21
1224.6284751014
 31
0.0
  0
LINE
  5
123
330
1F
100
AcDbEntity
  8
0
  6
SLD-Solid
 62
     7
370
    15
100
AcDbLine
 10
371.484838999
 20
1210.3971509056
 30
0.0
 11
371.4948525793
 21
1210.3971509056
 31
0.0
  0
LINE
  5
124
330
1F
100
AcDbEntity
  8
0
  6
SLD-Solid
 62
     7
370
    15
100
AcDbLine
 10
371.484838999
 20
1210.4612258987
 30
0.0
 11
371.4948525793
 21
1210.4612258987
 31
0.0
  0
LINE
  5
125
330
1F
100
AcDbEntity
  8
0
  6
SLD-Solid
 62
     7
370
    15
100
AcDbLine
 10
1136.5948548682
 20
1023.4416095333
 30
0.0
 11
1138.1948521502
 21
1023.4416095333
 31
0.0
  0
SPLINE
  5
126
330
1F
100
AcDbEntity
  8
0
  6
SLD-Solid
 62
     7
370
    15
100
AcDbSpline
210
0.0
220
0.0
230
1.0
 70
    24
 71
     3
 72
    11
 73
     7
 74
     0
 42
0.00000001
 43
0.00000001
 40
0.0
 40
0.0
 40
0.0
 40
0.0
 40
0.2833559736322016
 40
0.5581167102363007
 40
0.7754825069789778
 40
1.0
 40
1.0
 40
1.0
 40
1.0
 10
1138.194852150188
 20
1021.447208316749
 30
0.0
 10
1138.194852150188
 20
1021.744257523799
 30
0.0
 10
1138.194852150188
 20
1022.329345334343
 30
0.0
 10
1138.194852150188
 20
1022.977483325189
 30
0.0
 10
1138.194852150188
 20
1023.371349018485
 30
0.0
 10
1138.194852150188
 20
1023.417938020493
 30
0.0
 10
1138.194852150188
 20
1023.441609533256
 30
0.0
  0
LINE
  5
127
330
1F
100
AcDbEntity
  8
0
  6
SLD-Solid
 62
     7
370
    15
100
AcDbLine
 10
1138.1948521502
 20
965.4355911331
 30
0.0
 11
1138.1948521502
 21
1021.4472083167
 31
0.0
  0
LINE
  5
128
330
1F
100
AcDbEntity
  8
0
  6
SLD-Solid
 62
     7
370
    15
100
AcDbLine
 10
1136.5948548682
 20
963.4416071491
 30
0.0
 11
1138.1948521502
 21
963.4416071491
 31
0.0
  0
SPLINE
  5
129
330
1F
100
AcDbEntity
  8
0
  6
SLD-Solid
 62
     7
370
    15
100
AcDbSpline
210
0.0
220
0.0
230
1.0
 70
    24
 71
     3
 72
    11
 73
     7
 74
     0
 42
0.00000001
 43
0.00000001
 40
0.0
 40
0.0
 40
0.0
 40
0.0
 40
0.2832710275635138
 40
0.5579968152134644
 40
0.7754019412480836
 40
1.0
 40
1.0
 40
1.0
 40
1.0
 10
1138.194852150188
 20
963.44160714907
 30
0.0
 10
1138.194852150188
 20
963.4798915341792
 30
0.0
 10
1138.194852150188
 20
963.5553054059999
 30
0.0
 10
1138.194852150188
 20
964.0882222330303
 30
0.0
 10
1138.194852150188
 20
964.7386615898059
 30
0.0
 10
1138.194852150188
 20
965.2007745556571
 30
0.0
 10
1138.194852150188
 20
965.4355911330636
 30
0.0
  0
LINE
  5
12A
330
1F
100
AcDbEntity
  8
0
  6
SLD-Solid
 62
     7
370
    15
100
AcDbLine
 10
1139.5948460467
 20
1020.9038821773
 30
0.0
 11
1139.5948460467
 21
965.9793047027
 31
0.0
  0
SPLINE
  5
12B
330
1F
100
AcDbEntity
  8
0
  6
SLD-Solid
 62
     7
370
    15
100
AcDbSpline
210
0.0
220
0.0
230
1.0
 70
     8
 71
     3
 72
    11
 73
     7
 74
     0
 42
0.00000001
 43
0.00000001
 40
0.0
 40
0.0
 40
0.0
 40
0.0
 40
0.2371951497233989
 40
0.4978636009383561
 40
0.7485781574998701
 40
1.0
 40
1.0
 40
1.0
 40
1.0
 10
1138.194852150188
 20
1023.441609533256
 30
0.0
 10
1138.389826342496
 20
1023.298684890248
 30
0.0
 10
1138.799069759091
 20
1022.998691498672
 30
0.0
 10
1139.242697307482
 20
1022.375334006362
 30
0.0
 10
1139.539953386276
 20
1021.659612553608
 30
0.0
 10
1139.576531319216
 20
1021.156028744299
 30
0.0
 10
1139.594846046672
 20
1020.903882177299
 30
0.0
  0
SPLINE
  5
12C
330
1F
100
AcDbEntity
  8
0
  6
SLD-Solid
 62
     7
370
    15
100
AcDbSpline
210
0.0
220
0.0
230
1.0
 70
    24
 71
     3
 72
    13
 73
     9
 74
     0
 42
0.00000001
 43
0.00000001
 40
0.0
 40
0.0
 40
0.0
 40
0.0
 40
0.1275292042791591
 40
0.254582589787142
 40
0.4999444775069758
 40
0.7453230503454341
 40
0.8725022763056968
 40
1.0
 40
1.0
 40
1.0
 40
1.0
 10
1138.194852150188
 20
1023.441609533256
 30
0.0
 10
1138.194852150188
 20
1023.434335726539
 30
0.0
 10
1138.194852150188
 20
1023.419815252093
 30
0.0
 10
1138.194852150188
 20
1023.259340885136
 30
0.0
 10
1138.194852150188
 20
1022.893547656814
 30
0.0
 10
1138.194852150188
 20
1022.345978537004
 30
0.0
 10
1138.194852150188
 20
1021.846129664327
 30
0.0
 10
1138.194852150188
 20
1021.580292917315
 30
0.0
 10
1138.194852150188
 20
1021.447208316749
 30
0.0
  0
SPLINE
  5
12D
330
1F
100
AcDbEntity
  8
0
  6
SLD-Solid
 62
     7
370
    15
100
AcDbSpline
210
0.0
220
0.0
230
1.0
 70
     8
 71
     3
 72
    11
 73
     7
 74
     0
 42
0.00000001
 43
0.00000001
 40
0.0
 40
0.0
 40
0.0
 40
0.0
 40
0.2514144844658407
 40
0.5021399863571047
 40
0.7628028845874214
 40
1.0
 40
1.0
 40
1.0
 40
1.0
 10
1139.594846046672
 20
965.9793047027047
 30
0.0
 10
1139.576528464584
 20
965.7271693435737
 30
0.0
 10
1139.539943498369
 20
965.2235895833894
 30
0.0
 10
1139.242713919795
 20
964.5078616718463
 30
0.0
 10
1138.799058956664
 20
963.8845238695601
 30
0.0
 10
1138.389824902568
 20
963.584532867787
 30
0.0
 10
1138.194852150188
 20
963.4416071490701
 30
0.0
  0
SPLINE
  5
12E
330
1F
100
AcDbEntity
  8
0
  6
SLD-Solid
 62
     7
370
    15
100
AcDbSpline
210
0.0
220
0.0
230
1.0
 70
    24
 71
     3
 72
    13
 73
     9
 74
     0
 42
0.00000001
 43
0.00000001
 40
0.0
 40
0.0
 40
0.0
 40
0.0
 40
0.1275936735265971
 40
0.2546833513105314
 40
0.5000506941728047
 40
0.7454062990215146
 40
0.8725465754723438
 40
1.0
 40
1.0
 40
1.0
 40
1.0
 10
1138.194852150188
 20
965.4355911330636
 30
0.0
 10
1138.194852150188
 20
965.3024126576836
 30
0.0
 10
1138.194852150188
 20
965.0365817626656
 30
0.0
 10
1138.194852150188
 20
964.5368344794566
 30
0.0
 10
1138.194852150188
 20
963.9894262417399
 30
0.0
 10
1138.194852150188
 20
963.62366799676
 30
0.0
 10
1138.194852150188
 20
963.4634404780682
 30
0.0
 10
1138.194852150188
 20
963.4488908906922
 30
0.0
 10
1138.194852150188
 20
963.44160714907
 30
0.0
  0
LINE
  5
12F
330
1F
100
AcDbEntity
  8
0
  6
SLD-Solid
 62
     7
370
    15
100
AcDbLine
 10
1077.7948429949
 20
1058.441605957
 30
0.0
 11
1077.7948429949
 21
1056.3916234092
 31
0.0
  0
LWPOLYLINE
  5
130
330
1F
100
AcDbEntity
  8
0
  6
SLD-Solid
 62
     7
370
    15
100
AcDbPolyline
 90
       10
 70
   128
 43
0.0
 10
1134.5448425181
 20
1056.3916234092
 10
1134.5325639613
 20
1056.7475823478
 10
1134.5206728346
 20
1057.0927528457
 10
1134.5094969637
 20
1057.4165848808
 10
1134.4993939764
 20
1057.7093032913
 10
1134.490661896
 20
1057.9619673805
 10
1134.4835987456
 20
1058.1669477539
 10
1134.4783833392
 20
1058.3179859237
 10
1134.4751944907
 20
1058.4104327278
 10
1134.4741216071
 20
1058.441605957
  0
LINE
  5
131
330
1F
100
AcDbEntity
  8
0
  6
SLD-Solid
 62
     7
370
    15
100
AcDbLine
 10
1134.5448425181
 20
934.2486826496
 30
0.0
 11
1077.7948429949
 21
934.2486826496
 31
0.0
  0
LINE
  5
132
330
1F
100
AcDbEntity
  8
0
  6
SLD-Solid
 62
     7
370
    15
100
AcDbLine
 10
1077.7948429949
 20
1056.3916234092
 30
0.0
 11
1077.7948429949
 21
934.2486826496
 31
0.0
  0
LINE
  5
133
330
1F
100
AcDbEntity
  8
0
  6
SLD-Solid
 62
     7
370
    15
100
AcDbLine
 10
1136.5948548682
 20
1056.3916234092
 30
0.0
 11
1136.5948548682
 21
935.4915885047
 31
0.0
  0
SPLINE
  5
134
330
1F
100
AcDbEntity
  8
0
  6
SLD-Solid
 62
     7
370
    15
100
AcDbSpline
210
0.0
220
0.0
230
1.0
 70
     8
 71
     3
 72
    12
 73
     8
 74
     0
 42
0.00000001
 43
0.00000001
 40
0.0
 40
0.0
 40
0.0
 40
0.0
 40
0.230166884376417
 40
0.4604201189104969
 40
0.6906758567926109
 40
0.920929272774609
 40
1.0
 40
1.0
 40
1.0
 40
1.0
 10
1136.59485486816
 20
935.4915885047371
 30
0.0
 10
1136.568775800138
 20
935.3962052960177
 30
0.0
 10
1136.516607880186
 20
935.2054030943035
 30
0.0
 10
1136.111908024938
 20
934.9191071892334
 30
0.0
 10
1135.523863927808
 20
934.6329990339732
 30
0.0
 10
1134.959841817396
 20
934.4088828927797
 30
0.0
 10
1134.629329463949
 20
934.2812967510758
 30
0.0
 10
1134.544842518077
 20
934.2486826495583
 30
0.0
  0
LINE
  5
135
330
1F
100
AcDbEntity
  8
0
  6
SLD-Solid
 62
     7
370
    15
100
AcDbLine
 10
1134.5448425181
 20
1056.3916234092
 30
0.0
 11
1136.5948548682
 21
1056.3916234092
 31
0.0
  0
LINE
  5
136
330
1F
100
AcDbEntity
  8
0
  6
SLD-Solid
 62
     7
370
    15
100
AcDbLine
 10
1134.5448425181
 20
933.441605957
 30
0.0
 11
1134.5448425181
 21
934.2415896968
 31
0.0
  0
SPLINE
  5
137
330
1F
100
AcDbEntity
  8
0
  6
SLD-Solid
 62
     7
370
    15
100
AcDbSpline
210
0.0
220
0.0
230
1.0
 70
     8
 71
     3
 72
     9
 73
     5
 74
     0
 42
0.00000001
 43
0.00000001
 40
0.0
 40
0.0
 40
0.0
 40
0.0
 40
0.5275226561791011
 40
1.0
 40
1.0
 40
1.0
 40
1.0
 10
1134.544842518077
 20
934.24158969683
 30
0.0
 10
1134.713653683837
 20
934.2584503040923
 30
0.0
 10
1135.033661106804
 20
934.2904121678428
 30
0.0
 10
1135.281048878948
 20
934.4943419156904
 30
0.0
 10
1135.397933996425
 20
934.5906941012795
 30
0.0
  0
SPLINE
  5
138
330
1F
100
AcDbEntity
  8
0
  6
SLD-Solid
 62
     7
370
    15
100
AcDbSpline
210
0.0
220
0.0
230
1.0
 70
     8
 71
     3
 72
    12
 73
     8
 74
     0
 42
0.00000001
 43
0.00000001
 40
0.0
 40
0.0
 40
0.0
 40
0.0
 40
0.2301706475488005
 40
0.4604245077746228
 40
0.6906745163934634
 40
0.920928558067697
 40
1.0
 40
1.0
 40
1.0
 40
1.0
 10
1134.544842518077
 20
933.4416059569771
 30
0.0
 10
1134.791919715188
 20
933.4676841096989
 30
0.0
 10
1135.286163434242
 20
933.5198498430732
 30
0.0
 10
1135.932292698298
 20
933.924553806572
 30
0.0
 10
1136.396251083572
 20
934.5125675784241
 30
0.0
 10
1136.579053909292
 20
935.0765915295023
 30
0.0
 10
1136.591638044031
 20
935.4071017153944
 30
0.0
 10
1136.59485486816
 20
935.4915885047371
 30
0.0
  0
LINE
  5
139
330
1F
100
AcDbEntity
  8
0
  6
SLD-Solid
 62
     7
370
    15
100
AcDbLine
 10
1077.7948429949
 20
933.441605957
 30
0.0
 11
1077.7948429949
 21
934.2415896968
 31
0.0
  0
LINE
  5
13A
330
1F
100
AcDbEntity
  8
0
  6
SLD-Solid
 62
     7
370
    15
100
AcDbLine
 10
1134.5448425181
 20
933.441605957
 30
0.0
 11
1077.7948429949
 21
933.441605957
 31
0.0
  0
LINE
  5
13B
330
1F
100
AcDbEntity
  8
0
  6
SLD-Solid
 62
     7
370
    15
100
AcDbLine
 10
1134.5448425181
 20
934.2415896968
 30
0.0
 11
1077.7948429949
 21
934.2415896968
 31
0.0
  0
LINE
  5
13C
330
1F
100
AcDbEntity
  8
0
  6
SLD-Solid
 62
     7
370
    15
100
AcDbLine
 10
1134.5448425181
 20
1057.6415924148
 30
0.0
 11
1134.5448425181
 21
1058.441605957
 31
0.0
  0
ARC
  5
13D
330
1F
100
AcDbEntity
  8
0
  6
SLD-Solid
 62
     7
370
    15
100
AcDbCircle
 10
1134.5448428037
 20
1056.3915978507
 30
0.0
 40
1.250000000000227
100
AcDbArc
 50
0.0
 51
90.0
  0
ARC
  5
13E
330
1F
100
AcDbEntity
  8
0
  6
SLD-Solid
 62
     7
370
    15
100
AcDbCircle
 10
1134.5448428037
 20
1056.3915978507
 30
0.0
 40
2.050000000000182
100
AcDbArc
 50
0.0
 51
90.0
  0
LINE
  5
13F
330
1F
100
AcDbEntity
  8
0
  6
SLD-Solid
 62
     7
370
    15
100
AcDbLine
 10
1134.5017185576
 20
1057.6415924148
 30
0.0
 11
1134.5448425181
 21
1057.6415924148
 31
0.0
  0
LWPOLYLINE
  5
140
330
1F
100
AcDbEntity
  8
0
  6
SLD-Solid
 62
     7
370
    15
100
AcDbPolyline
 90
        5
 70
   128
 43
0.0
 10
1134.5017185576
 20
1057.6415924148
 10
1134.5094969637
 20
1057.4165848808
 10
1134.5206728346
 20
1057.0927528457
 10
1134.5325639613
 20
1056.7475823478
 10
1134.5448425181
 20
1056.3916234092
  0
LINE
  5
141
330
1F
100
AcDbEntity
  8
0
  6
SLD-Solid
 62
     7
370
    15
100
AcDbLine
 10
1077.7948429949
 20
1060.2416066245
 30
0.0
 11
1077.7948429949
 21
1178.9292959289
 31
0.0
  0
ARC
  5
142
330
1F
100
AcDbEntity
  8
0
  6
SLD-Solid
 62
     7
370
    15
100
AcDbCircle
 10
1078.7948428037
 20
1178.9292723779
 30
0.0
 40
1.000000000000227
100
AcDbArc
 50
90.0
 51
180.0
  0
ARC
  5
143
330
1F
100
AcDbEntity
  8
0
  6
SLD-Solid
 62
     7
370
    15
100
AcDbCircle
 10
1078.7948428037
 20
1060.2415978507
 30
0.0
 40
1.000000000000227
100
AcDbArc
 50
180.0
 51
270.0
  0
LINE
  5
144
330
1F
100
AcDbEntity
  8
0
  6
SLD-Solid
 62
     7
370
    15
100
AcDbLine
 10
1077.7948429949
 20
1059.2416194992
 30
0.0
 11
1077.7948429949
 21
1058.441605957
 31
0.0
  0
LINE
  5
145
330
1F
100
AcDbEntity
  8
0
  6
SLD-Solid
 62
     7
370
    15
100
AcDbLine
 10
1077.7948429949
 20
1058.441605957
 30
0.0
 11
1138.4389033682
 21
1058.441605957
 31
0.0
  0
LINE
  5
146
330
1F
100
AcDbEntity
  8
0
  6
SLD-Solid
 62
     7
370
    15
100
AcDbLine
 10
1077.7948429949
 20
1059.2416194992
 30
0.0
 11
1138.4389033682
 21
1059.2416194992
 31
0.0
  0
LINE
  5
147
330
1F
100
AcDbEntity
  8
0
  6
SLD-Solid
 62
     7
370
    15
100
AcDbLine
 10
1077.7948429949
 20
1179.9292830543
 30
0.0
 11
1096.0340133078
 21
1179.9292830543
 31
0.0
  0
LINE
  5
148
330
1F
100
AcDbEntity
  8
0
  6
SLD-Solid
 62
     7
370
    15
100
AcDbLine
 10
1077.7948429949
 20
1180.7292965965
 30
0.0
 11
1077.7948429949
 21
1179.9292830543
 31
0.0
  0
LINE
  5
149
330
1F
100
AcDbEntity
  8
0
  6
SLD-Solid
 62
     7
370
    15
100
AcDbLine
 10
1077.7948429949
 20
1180.7292965965
 30
0.0
 11
1096.0340133078
 21
1180.7292965965
 31
0.0
  0
LINE
  5
14A
330
1F
100
AcDbEntity
  8
0
  6
SLD-Solid
 62
     7
370
    15
100
AcDbLine
 10
1122.3078003294
 20
1104.4508484916
 30
0.0
 11
1097.9836812384
 21
1179.3127326087
 31
0.0
  0
LINE
  5
14B
330
1F
100
AcDbEntity
  8
0
  6
SLD-Solid
 62
     7
370
    15
100
AcDbLine
 10
1121.5469470389
 20
1104.2036084251
 30
0.0
 11
1097.2228279478
 21
1179.0655521469
 31
0.0
  0
ARC
  5
14C
330
1F
100
AcDbEntity
  8
0
  6
SLD-Solid
 62
     7
370
    15
100
AcDbCircle
 10
1096.0340036196
 20
1178.6792723779
 30
0.0
 40
2.049999999999984
100
AcDbArc
 50
18.0
 51
90.0
  0
ARC
  5
14D
330
1F
100
AcDbEntity
  8
0
  6
SLD-Solid
 62
     7
370
    15
100
AcDbCircle
 10
1096.0340036196
 20
1178.6792723779
 30
0.0
 40
1.249999999999853
100
AcDbArc
 50
18.0
 51
90.0
  0
ARC
  5
14E
330
1F
100
AcDbEntity
  8
0
  6
SLD-Solid
 62
     7
370
    15
100
AcDbCircle
 10
1131.8183515945
 20
1107.5409928558
 30
0.0
 40
10.8000000000001
100
AcDbArc
 50
198.0
 51
250.0
  0
ARC
  5
14F
330
1F
100
AcDbEntity
  8
0
  6
SLD-Solid
 62
     7
370
    15
100
AcDbCircle
 10
1131.8183515945
 20
1107.5409928558
 30
0.0
 40
10.00000000000039
100
AcDbArc
 50
198.0
 51
250.0
  0
LINE
  5
150
330
1F
100
AcDbEntity
  8
0
  6
SLD-Solid
 62
     7
370
    15
100
AcDbLine
 10
1147.5749245055
 20
1090.3129247741
 30
0.0
 11
1128.1245282061
 21
1097.3922876434
 31
0.0
  0
LINE
  5
151
330
1F
100
AcDbEntity
  8
0
  6
SLD-Solid
 62
     7
370
    15
100
AcDbLine
 10
1147.8485396273
 20
1091.0647181587
 30
0.0
 11
1128.3981433279
 21
1098.1440810279
 31
0.0
  0
LINE
  5
152
330
1F
100
AcDbEntity
  8
0
  6
SLD-Solid
 62
     7
370
    15
100
AcDbLine
 10
1140.0093069441
 20
1059.1739086227
 30
0.0
 11
1152.4279942877
 21
1073.9739207344
 31
0.0
  0
LINE
  5
153
330
1F
100
AcDbEntity
  8
0
  6
SLD-Solid
 62
     7
370
    15
100
AcDbLine
 10
1139.3964817889
 20
1059.6881178932
 30
0.0
 11
1151.8151691325
 21
1074.4881300048
 31
0.0
  0
ARC
  5
154
330
1F
100
AcDbEntity
  8
0
  6
SLD-Solid
 62
     7
370
    15
100
AcDbCircle
 10
1138.4389121045
 20
1060.4915978507
 30
0.0
 40
1.25
100
AcDbArc
 50
270.0
 51
320.0
  0
ARC
  5
155
330
1F
100
AcDbEntity
  8
0
  6
SLD-Solid
 62
     7
370
    15
100
AcDbCircle
 10
1138.4389121045
 20
1060.4915978507
 30
0.0
 40
2.050000000000182
100
AcDbArc
 50
270.0
 51
320.0
  0
ARC
  5
156
330
1F
100
AcDbEntity
  8
0
  6
SLD-Solid
 62
     7
370
    15
100
AcDbCircle
 10
1144.1547253737
 20
1080.9160223339
 30
0.0
 40
10.8000000000001
100
AcDbArc
 50
320.0
 51
70.0
  0
ARC
  5
157
330
1F
100
AcDbEntity
  8
0
  6
SLD-Solid
 62
     7
370
    15
100
AcDbCircle
 10
1144.1547253737
 20
1080.9160223339
 30
0.0
 40
10.00000000000017
100
AcDbArc
 50
320.0
 51
70.0
  0
LINE
  5
158
330
1F
100
AcDbEntity
  8
0
  6
SLD-Solid
 62
     7
370
    15
100
AcDbLine
 10
1097.5873103506
 20
1180.5326608734
 30
0.0
 11
1097.9836812384
 21
1179.3127326087
 31
0.0
  0
LINE
  5
159
330
1F
100
AcDbEntity
  8
0
  6
SLD-Solid
 62
     7
370
    15
100
AcDbLine
 10
1099.2889931567
 20
1183.3912996368
 30
0.0
 11
1099.5390048392
 21
1183.5025815086
 31
0.0
  0
LINE
  5
15A
330
1F
100
AcDbEntity
  8
0
  6
SLD-Solid
 62
     7
370
    15
100
AcDbLine
 10
1099.2889931567
 20
1182.5155881957
 30
0.0
 11
1099.5390048392
 21
1182.6268700675
 31
0.0
  0
ARC
  5
15B
330
1F
100
AcDbEntity
  8
0
  6
SLD-Solid
 62
     7
370
    15
100
AcDbCircle
 10
1098.7761223358
 20
1180.9189230738
 30
0.0
 40
1.250000000000426
100
AcDbArc
 50
165.0402857006
 51
198.0
  0
ARC
  5
15C
330
1F
100
AcDbEntity
  8
0
  6
SLD-Solid
 62
     7
370
    15
100
AcDbCircle
 10
1098.7761223358
 20
1180.9189230738
 30
0.0
 40
2.050000000000288
100
AcDbArc
 50
170.9438498065
 51
188.9570163868
  0
SPLINE
  5
15D
330
1F
100
AcDbEntity
  8
0
  6
SLD-Solid
 62
     7
370
    15
100
AcDbSpline
210
0.0
220
0.0
230
1.0
 70
     8
 71
     3
 72
    12
 73
     8
 74
     0
 42
0.00000001
 43
0.00000001
 40
0.0
 40
0.0
 40
0.0
 40
0.0
 40
0.2301616661749439
 40
0.4604245605617368
 40
0.6906716814589761
 40
0.920927833386513
 40
1.0
 40
1.0
 40
1.0
 40
1.0
 10
372.2448280222276
 20
1194.991615207618
 30
0.0
 10
372.1494425281153
 20
1195.238680577041
 30
0.0
 10
371.9586295880611
 20
1195.732919978577
 30
0.0
 10
371.6723632197287
 20
1196.379066683246
 30
0.0
 10
371.3862276688103
 20
1196.842987889935
 30
0.0
 10
371.1621221225712
 20
1197.025797355211
 30
0.0
 10
371.0345363322178
 20
1197.038381044992
 30
0.0
 10
371.0019221670488
 20
1197.041597755378
 30
0.0
  0
LINE
  5
15E
330
1F
100
AcDbEntity
  8
0
  6
SLD-Solid
 62
     7
370
    15
100
AcDbLine
 10
371.001922167
 20
1197.0415977554
 30
0.0
 11
1076.9877663023
 21
1197.0415977554
 31
0.0
  0
SPLINE
  5
15F
330
1F
100
AcDbEntity
  8
0
  6
SLD-Solid
 62
     7
370
    15
100
AcDbSpline
210
0.0
220
0.0
230
1.0
 70
     8
 71
     3
 72
    12
 73
     8
 74
     0
 42
0.00000001
 43
0.00000001
 40
0.0
 40
0.0
 40
0.0
 40
0.0
 40
0.2301680234991262
 40
0.4604223975832724
 40
0.690679275027842
 40
0.9209338305608044
 40
0.9999999999999999
 40
0.9999999999999999
 40
0.9999999999999999
 40
0.9999999999999999
 10
1076.987766302333
 20
1197.041597755378
 30
0.0
 10
1076.892382836327
 20
1197.015518786974
 30
0.0
 10
1076.701580119943
 20
1196.963351066294
 30
0.0
 10
1076.415288076023
 20
1196.558649716071
 30
0.0
 10
1076.129165247149
 20
1195.970611300328
 30
0.0
 10
1075.905093992762
 20
1195.40657777965
 30
0.0
 10
1075.777456382736
 20
1195.076091541663
 30
0.0
 10
1075.744830644832
 20
1194.991615207618
 30
0.0
  0
SPLINE
  5
160
330
1F
100
AcDbEntity
  8
0
  6
SLD-Solid
 62
     7
370
    15
100
AcDbSpline
210
0.0
220
0.0
230
1.0
 70
     8
 71
     3
 72
    11
 73
     7
 74
     0
 42
0.00000001
 43
0.00000001
 40
0.0
 40
0.0
 40
0.0
 40
0.0
 40
0.2542948235553728
 40
0.5087819759523438
 40
0.7632639345724702
 40
1.0
 40
1.0
 40
1.0
 40
1.0
 10
372.2448280222276
 20
1194.991615207618
 30
0.0
 10
372.1394553895
 20
1195.158239357154
 30
0.0
 10
371.9286304283746
 20
1195.491613677783
 30
0.0
 10
371.6123833032163
 20
1195.909598731096
 30
0.0
 10
371.3033058163925
 20
1196.189683261097
 30
0.0
 10
371.0999343636438
 20
1196.224705638893
 30
0.0
 10
371.0019221670487
 20
1196.241584213203
 30
0.0
  0
LINE
  5
161
330
1F
100
AcDbEntity
  8
0
  6
SLD-Solid
 62
     7
370
    15
100
AcDbLine
 10
371.001922167
 20
1197.0415977554
 30
0.0
 11
371.001922167
 21
1196.2415842132
 31
0.0
  0
SPLINE
  5
162
330
1F
100
AcDbEntity
  8
0
  6
SLD-Solid
 62
     7
370
    15
100
AcDbSpline
210
0.0
220
0.0
230
1.0
 70
     8
 71
     3
 72
    12
 73
     8
 74
     0
 42
0.00000001
 43
0.00000001
 40
0.0
 40
0.0
 40
0.0
 40
0.0
 40
0.2301742099083225
 40
0.4604284946420266
 40
0.6906852827351827
 40
0.9209320363215474
 40
1.0
 40
1.0
 40
1.0
 40
1.0
 10
370.1948454744676
 20
1196.234550865119
 30
0.0
 10
370.2209236159522
 20
1196.139143434383
 30
0.0
 10
370.2730889711916
 20
1195.948295381818
 30
0.0
 10
370.6777909226083
 20
1195.662010399704
 30
0.0
 10
371.2658352432622
 20
1195.375916236575
 30
0.0
 10
371.8298242956508
 20
1195.151760305251
 30
0.0
 10
372.1603404763368
 20
1195.024217966145
 30
0.0
 10
372.2448280222276
 20
1194.991615207618
 30
0.0
  0
LINE
  5
163
330
1F
100
AcDbEntity
  8
0
  6
SLD-Solid
 62
     7
370
    15
100
AcDbLine
 10
370.1948454745
 20
1196.2345508651
 30
0.0
 11
370.9948292143
 21
1196.2345508651
 31
0.0
  0
SPLINE
  5
164
330
1F
100
AcDbEntity
  8
0
  6
SLD-Solid
 62
     7
370
    15
100
AcDbSpline
210
0.0
220
0.0
230
1.0
 70
     8
 71
     3
 72
    11
 73
     7
 74
     0
 42
0.00000001
 43
0.00000001
 40
0.0
 40
0.0
 40
0.0
 40
0.0
 40
0.2543126461665865
 40
0.5087958436314277
 40
0.7632657095840184
 40
1.0
 40
1.0
 40
1.0
 40
1.0
 10
370.9948292143205
 20
1196.234550865119
 30
0.0
 10
371.0143004595926
 20
1196.129171998931
 30
0.0
 10
371.053256008261
 20
1195.91834359566
 30
0.0
 10
371.3521975266574
 20
1195.602032525947
 30
0.0
 10
371.7681737834296
 20
1195.29300257309
 30
0.0
 10
372.0898143620835
 20
1195.089629984033
 30
0.0
 10
372.2448280222276
 20
1194.991615207618
 30
0.0
  0
SPLINE
  5
165
330
1F
100
AcDbEntity
  8
0
  6
SLD-Solid
 62
     7
370
    15
100
AcDbSpline
210
0.0
220
0.0
230
1.0
 70
     8
 71
     3
 72
    12
 73
     8
 74
     0
 42
0.00000001
 43
0.00000001
 40
0.0
 40
0.0
 40
0.0
 40
0.0
 40
0.2301698256740285
 40
0.4604190788120897
 40
0.6906714041015131
 40
0.9209277624869083
 40
1.0
 40
1.0
 40
1.0
 40
1.0
 10
372.2448280222276
 20
935.4915885047371
 30
0.0
 10
371.9977487120368
 20
935.396206033807
 30
0.0
 10
371.5035048290324
 20
935.2054081771727
 30
0.0
 10
370.857407096379
 20
934.9191067056926
 30
0.0
 10
370.3934481281853
 20
934.6329944717497
 30
0.0
 10
370.210646514606
 20
934.4088823000372
 30
0.0
 10
370.1980623151417
 20
934.2812967526253
 30
0.0
 10
370.1948454744676
 20
934.2486826495583
 30
0.0
  0
LINE
  5
166
330
1F
100
AcDbEntity
  8
0
  6
SLD-Solid
 62
     7
370
    15
100
AcDbLine
 10
370.1948454745
 20
1196.2345508651
 30
0.0
 11
370.1948454745
 21
934.2486826496
 31
0.0
  0
SPLINE
  5
167
330
1F
100
AcDbEntity
  8
0
  6
SLD-Solid
 62
     7
370
    15
100
AcDbSpline
210
0.0
220
0.0
230
1.0
 70
     8
 71
     3
 72
    11
 73
     7
 74
     0
 42
0.00000001
 43
0.00000001
 40
0.0
 40
0.0
 40
0.0
 40
0.0
 40
0.2542950995441873
 40
0.5087735569339977
 40
0.7632616691104585
 40
1.0
 40
1.0
 40
1.0
 40
1.0
 10
372.2448280222276
 20
935.4915885047371
 30
0.0
 10
372.078201487212
 20
935.3862173355576
 30
0.0
 10
371.7448282721896
 20
935.1753990199945
 30
0.0
 10
371.326879280212
 20
934.8591312026749
 30
0.0
 10
371.0467601638582
 20
934.5500703779
 30
0.0
 10
371.0117174577559
 20
934.3466956720437
 30
0.0
 10
370.9948292143205
 20
934.2486826495584
 30
0.0
  0
LINE
  5
168
330
1F
100
AcDbEntity
  8
0
  6
SLD-Solid
 62
     7
370
    15
100
AcDbLine
 10
370.1948454745
 20
934.2486826496
 30
0.0
 11
370.9948292143
 21
934.2486826496
 31
0.0
  0
SPLINE
  5
169
330
1F
100
AcDbEntity
  8
0
  6
SLD-Solid
 62
     7
370
    15
100
AcDbSpline
210
0.0
220
0.0
230
1.0
 70
     8
 71
     3
 72
    12
 73
     8
 74
     0
 42
0.00000001
 43
0.00000001
 40
0.0
 40
0.0
 40
0.0
 40
0.0
 40
0.2301712056730954
 40
0.4604256242249892
 40
0.6906761911605617
 40
0.9209283663330285
 40
1.0
 40
1.0
 40
1.0
 40
1.0
 10
1075.744830644832
 20
935.4915885047371
 30
0.0
 10
1075.840226310799
 20
935.2445110532707
 30
0.0
 10
1076.031052130747
 20
934.7502668254112
 30
0.0
 10
1076.317334744035
 20
934.1041413784262
 30
0.0
 10
1076.60345361263
 20
933.6401701160662
 30
0.0
 10
1076.827567859486
 20
933.4574095082047
 30
0.0
 10
1076.955152241506
 20
933.4448233289556
 30
0.0
 10
1076.987766302333
 20
933.4416059569771
 30
0.0
  0
LINE
  5
16A
330
1F
100
AcDbEntity
  8
0
  6
SLD-Solid
 62
     7
370
    15
100
AcDbLine
 10
1076.9877663023
 20
933.441605957
 30
0.0
 11
371.001922167
 21
933.441605957
 31
0.0
  0
SPLINE
  5
16B
330
1F
100
AcDbEntity
  8
0
  6
SLD-Solid
 62
     7
370
    15
100
AcDbSpline
210
0.0
220
0.0
230
1.0
 70
     8
 71
     3
 72
    12
 73
     8
 74
     0
 42
0.00000001
 43
0.00000001
 40
0.0
 40
0.0
 40
0.0
 40
0.0
 40
0.2301683470834997
 40
0.4604230448734163
 40
0.6906738910423407
 40
0.9209287702813286
 40
1.0
 40
1.0
 40
1.0
 40
1.0
 10
371.0019221670488
 20
933.4416059569771
 30
0.0
 10
371.0973056173901
 20
933.4676846444933
 30
0.0
 10
371.2881083024384
 20
933.5198518032907
 30
0.0
 10
371.5743979472552
 20
933.9245536451388
 30
0.0
 10
371.8605172532759
 20
934.5125681024599
 30
0.0
 10
372.0846275651401
 20
935.0765896104081
 30
0.0
 10
372.2122138771705
 20
935.4071016413144
 30
0.0
 10
372.2448280222276
 20
935.4915885047371
 30
0.0
  0
LINE
  5
16C
330
1F
100
AcDbEntity
  8
0
  6
SLD-Solid
 62
     7
370
    15
100
AcDbLine
 10
371.001922167
 20
933.441605957
 30
0.0
 11
371.001922167
 21
934.2415896968
 31
0.0
  0
SPLINE
  5
16D
330
1F
100
AcDbEntity
  8
0
  6
SLD-Solid
 62
     7
370
    15
100
AcDbSpline
210
0.0
220
0.0
230
1.0
 70
     8
 71
     3
 72
    11
 73
     7
 74
     0
 42
0.00000001
 43
0.00000001
 40
0.0
 40
0.0
 40
0.0
 40
0.0
 40
0.2543043165121326
 40
0.5087874704021046
 40
0.7632650110576324
 40
1.0
 40
1.0
 40
1.0
 40
1.0
 10
371.0019221670488
 20
934.24158969683
 30
0.0
 10
371.1072933404639
 20
934.2610455001457
 30
0.0
 10
371.3181097886882
 20
934.299970788907
 30
0.0
 10
371.6343674644004
 20
934.5989786197428
 30
0.0
 10
371.9434464818598
 20
935.0149234034152
 30
0.0
 10
372.1468160724521
 20
935.3365727864103
 30
0.0
 10
372.2448280222276
 20
935.4915885047371
 30
0.0
  0
SPLINE
  5
16E
330
1F
100
AcDbEntity
  8
0
  6
SLD-Solid
 62
     7
370
    15
100
AcDbSpline
210
0.0
220
0.0
230
1.0
 70
     8
 71
     3
 72
    12
 73
     8
 74
     0
 42
0.00000001
 43
0.00000001
 40
0.0
 40
0.0
 40
0.0
 40
0.0
 40
0.2301675127611397
 40
0.4604213759156892
 40
0.690671387463208
 40
0.9209254320661711
 40
1.0
 40
1.0
 40
1.0
 40
1.0
 10
1075.744830644832
 20
1194.991615207618
 30
0.0
 10
1075.991908618469
 20
1195.086998839279
 30
0.0
 10
1076.486157260321
 20
1195.277801887035
 30
0.0
 10
1077.132280094303
 20
1195.564088810776
 30
0.0
 10
1077.596239368969
 20
1195.850218457581
 30
0.0
 10
1077.779043204627
 20
1196.074300089993
 30
0.0
 10
1077.791626333328
 20
1196.201925589526
 30
0.0
 10
1077.794842994914
 20
1196.234550865119
 30
0.0
  0
LINE
  5
16F
330
1F
100
AcDbEntity
  8
0
  6
SLD-Solid
 62
     7
370
    15
100
AcDbLine
 10
1077.7948429949
 20
1059.2416194992
 30
0.0
 11
1077.7948429949
 21
1060.2416066245
 31
0.0
  0
LINE
  5
170
330
1F
100
AcDbEntity
  8
0
  6
SLD-Solid
 62
     7
370
    15
100
AcDbLine
 10
1077.7948429949
 20
1178.9292959289
 30
0.0
 11
1077.7948429949
 21
1179.9292830543
 31
0.0
  0
LINE
  5
171
330
1F
100
AcDbEntity
  8
0
  6
SLD-Solid
 62
     7
370
    15
100
AcDbLine
 10
1077.7948429949
 20
1180.7292965965
 30
0.0
 11
1077.7948429949
 21
1196.2345508651
 31
0.0
  0
SPLINE
  5
172
330
1F
100
AcDbEntity
  8
0
  6
SLD-Solid
 62
     7
370
    15
100
AcDbSpline
210
0.0
220
0.0
230
1.0
 70
     8
 71
     3
 72
    12
 73
     8
 74
     0
 42
0.00000001
 43
0.00000001
 40
0.0
 40
0.0
 40
0.0
 40
0.0
 40
0.230166884376417
 40
0.4604201189104969
 40
0.6906758567926109
 40
0.920929272774609
 40
1.0
 40
1.0
 40
1.0
 40
1.0
 10
1077.794842994914
 20
934.2486826495583
 30
0.0
 10
1077.768763926893
 20
934.3440658582776
 30
0.0
 10
1077.716596006941
 20
934.5348680599917
 30
0.0
 10
1077.311896151693
 20
934.8211639650618
 30
0.0
 10
1076.723852054563
 20
935.1072721203221
 30
0.0
 10
1076.15982994415
 20
935.3313882615159
 30
0.0
 10
1075.829317590704
 20
935.4589744032196
 30
0.0
 10
1075.744830644832
 20
935.4915885047371
 30
0.0
  0
LINE
  5
173
330
1F
100
AcDbEntity
  8
0
  6
SLD-Solid
 62
     7
370
    15
100
AcDbLine
 10
1076.9877663023
 20
1197.0415977554
 30
0.0
 11
1076.9877663023
 21
1196.2415842132
 31
0.0
  0
SPLINE
  5
174
330
1F
100
AcDbEntity
  8
0
  6
SLD-Solid
 62
     7
370
    15
100
AcDbSpline
210
0.0
220
0.0
230
1.0
 70
     8
 71
     3
 72
    11
 73
     7
 74
     0
 42
0.00000001
 43
0.00000001
 40
0.0
 40
0.0
 40
0.0
 40
0.0
 40
0.2543013416630972
 40
0.5087836757908978
 40
0.763269534789607
 40
1.0
 40
1.0
 40
1.0
 40
1.0
 10
1076.987766302333
 20
1196.241584213203
 30
0.0
 10
1076.882395459672
 20
1196.222140208678
 30
0.0
 10
1076.671578779353
 20
1196.183238360856
 30
0.0
 10
1076.355310563791
 20
1195.884226060812
 30
0.0
 10
1076.046260845962
 20
1195.468247706737
 30
0.0
 10
1075.842856644505
 20
1195.146617516703
 30
0.0
 10
1075.744830644832
 20
1194.991615207618
 30
0.0
  0
SPLINE
  5
175
330
1F
100
AcDbEntity
  8
0
  6
SLD-Solid
 62
     7
370
    15
100
AcDbSpline
210
0.0
220
0.0
230
1.0
 70
     8
 71
     3
 72
    11
 73
     7
 74
     0
 42
0.00000001
 43
0.00000001
 40
0.0
 40
0.0
 40
0.0
 40
0.0
 40
0.2542948692660616
 40
0.508776291869946
 40
0.763253521329196
 40
1.0
 40
1.0
 40
1.0
 40
1.0
 10
1075.744830644832
 20
1194.991615207618
 30
0.0
 10
1075.911470800071
 20
1195.096970038161
 30
0.0
 10
1076.244873359485
 20
1195.307756988638
 30
0.0
 10
1076.662792226098
 20
1195.624088056158
 30
0.0
 10
1076.94294631138
 20
1195.933089327145
 30
0.0
 10
1076.977956301556
 20
1196.136511194176
 30
0.0
 10
1076.994829452739
 20
1196.234550865119
 30
0.0
  0
LINE
  5
176
330
1F
100
AcDbEntity
  8
0
  6
SLD-Solid
 62
     7
370
    15
100
AcDbLine
 10
1077.7948429949
 20
1196.2345508651
 30
0.0
 11
1076.9948294527
 21
1196.2345508651
 31
0.0
  0
SPLINE
  5
177
330
1F
100
AcDbEntity
  8
0
  6
SLD-Solid
 62
     7
370
    15
100
AcDbSpline
210
0.0
220
0.0
230
1.0
 70
     8
 71
     3
 72
    11
 73
     7
 74
     0
 42
0.00000001
 43
0.00000001
 40
0.0
 40
0.0
 40
0.0
 40
0.0
 40
0.2542984933281148
 40
0.508782389000492
 40
0.7632600447064671
 40
1.0
 40
1.0
 40
1.0
 40
1.0
 10
1075.744830644832
 20
935.4915885047371
 30
0.0
 10
1075.850214107281
 20
935.3249644298553
 30
0.0
 10
1076.061057864491
 20
934.9915947988605
 30
0.0
 10
1076.377315184645
 20
934.5736156682065
 30
0.0
 10
1076.686341433173
 20
934.2934783270636
 30
0.0
 10
1076.889739558257
 20
934.2584644606493
 30
0.0
 10
1076.987766302333
 20
934.24158969683
 30
0.0
  0
LINE
  5
178
330
1F
100
AcDbEntity
  8
0
  6
SLD-Solid
 62
     7
370
    15
100
AcDbLine
 10
1076.9877663023
 20
933.441605957
 30
0.0
 11
1076.9877663023
 21
934.2415896968
 31
0.0
  0
LINE
  5
179
330
1F
100
AcDbEntity
  8
0
  6
SLD-Solid
 62
     7
370
    15
100
AcDbLine
 10
1077.7948429949
 20
934.2486826496
 30
0.0
 11
1076.9948294527
 21
934.2486826496
 31
0.0
  0
SPLINE
  5
17A
330
1F
100
AcDbEntity
  8
0
  6
SLD-Solid
 62
     7
370
    15
100
AcDbSpline
210
0.0
220
0.0
230
1.0
 70
     8
 71
     3
 72
    11
 73
     7
 74
     0
 42
0.00000001
 43
0.00000001
 40
0.0
 40
0.0
 40
0.0
 40
0.0
 40
0.2543031590974361
 40
0.5087790249366614
 40
0.7632554073890981
 40
1.0
 40
1.0
 40
1.0
 40
1.0
 10
1076.994829452739
 20
934.2486826495583
 30
0.0
 10
1076.975371268511
 20
934.3540530494998
 30
0.0
 10
1076.936441685277
 20
934.5648654103439
 30
0.0
 10
1076.63747489912
 20
934.8811321582774
 30
0.0
 10
1076.221520018354
 20
935.1902146149383
 30
0.0
 10
1075.899856701761
 20
935.3935774971671
 30
0.0
 10
1075.744830644832
 20
935.4915885047371
 30
0.0
  0
LINE
  5
17B
330
1F
100
AcDbEntity
  8
0
  6
SLD-Solid
 62
     7
370
    15
100
AcDbLine
 10
1078.5948565371
 20
1182.7416090087
 30
0.0
 11
1078.5948565371
 21
1180.7292965965
 31
0.0
  0
LINE
  5
17C
330
1F
100
AcDbEntity
  8
0
  6
SLD-Solid
 62
     7
370
    15
100
AcDbLine
 10
1078.5948565371
 20
1179.9292830543
 30
0.0
 11
1078.5948565371
 21
1179.9090770797
 31
0.0
  0
LINE
  5
17D
330
1F
100
AcDbEntity
  8
0
  6
SLD-Solid
 62
     7
370
    15
100
AcDbLine
 10
1078.5948565371
 20
1059.2618254737
 30
0.0
 11
1078.5948565371
 21
1059.2416194992
 31
0.0
  0
SPLINE
  5
17E
330
1F
100
AcDbEntity
  8
0
  6
SLD-Solid
 62
     7
370
    15
100
AcDbSpline
210
0.0
220
0.0
230
1.0
 70
     8
 71
     3
 72
    13
 73
     9
 74
     0
 42
0.00000001
 43
0.00000001
 40
0.0
 40
0.0
 40
0.0
 40
0.0
 40
0.0075452400015535
 40
0.2722795167804411
 40
0.4815265224124993
 40
0.6613584833376809
 40
0.8304798049818819
 40
1.0
 40
1.0
 40
1.0
 40
1.0
 10
358.1948509580949
 20
983.7749270514901
 30
0.0
 10
358.1948492308564
 20
983.7747084767473
 30
0.0
 10
358.1947869012732
 20
983.7668209310466
 30
0.0
 10
358.2066100285336
 20
983.7530402303145
 30
0.0
 10
358.249245278985
 20
983.7356049780548
 30
0.0
 10
358.3049323505231
 20
983.7234912791799
 30
0.0
 10
358.3710662362414
 20
983.7153570907542
 30
0.0
 10
358.4202246702992
 20
983.7143012354361
 30
0.0
 10
358.4448328382829
 20
983.7137726859505
 30
0.0
  0
LINE
  5
17F
330
1F
100
AcDbEntity
  8
0
  6
SLD-Solid
 62
     7
370
    15
100
AcDbLine
 10
358.1948509581
 20
975.9489862041
 30
0.0
 11
358.1948509581
 21
983.7749270515
 31
0.0
  0
SPLINE
  5
180
330
1F
100
AcDbEntity
  8
0
  6
SLD-Solid
 62
     7
370
    15
100
AcDbSpline
210
0.0
220
0.0
230
1.0
 70
     8
 71
     3
 72
    13
 73
     9
 74
     0
 42
0.00000001
 43
0.00000001
 40
0.0
 40
0.0
 40
0.0
 40
0.0
 40
0.1695785711241518
 40
0.3386306346023931
 40
0.5184999398427509
 40
0.7277354463207321
 40
0.9924551746465657
 40
1.0
 40
1.0
 40
1.0
 40
1.0
 10
359.1448297865251
 20
983.7137726859506
 30
0.0
 10
359.169449644787
 20
983.7143004821594
 30
0.0
 10
359.2186129215605
 20
983.7153544358752
 30
0.0
 10
359.2847344266767
 20
983.7234952814562
 30
0.0
 10
359.3404510388124
 20
983.7356022113563
 30
0.0
 10
359.3830796854117
 20
983.7530408169831
 30
0.0
 10
359.3949055406371
 20
983.7668209278517
 30
0.0
 10
359.3948431966725
 20
983.7747084766613
 30
0.0
 10
359.3948414690354
 20
983.7749270514902
 30
0.0
  0
LINE
  5
181
330
1F
100
AcDbEntity
  8
0
  6
SLD-Solid
 62
     7
370
    15
100
AcDbLine
 10
359.394841469
 20
983.7749270515
 30
0.0
 11
359.394841469
 21
976.2717453556
 31
0.0
  0
LINE
  5
182
330
1F
100
AcDbEntity
  8
0
  6
SLD-Solid
 62
     7
370
    15
100
AcDbLine
 10
359.1448297865
 20
983.713772686
 30
0.0
 11
358.4448328383
 21
983.713772686
 31
0.0
  0
SPLINE
  5
183
330
1F
100
AcDbEntity
  8
0
  6
SLD-Solid
 62
     7
370
    15
100
AcDbSpline
210
0.0
220
0.0
230
1.0
 70
     8
 71
     3
 72
    12
 73
     8
 74
     0
 42
0.00000001
 43
0.00000001
 40
0.0
 40
0.0
 40
0.0
 40
0.0
 40
0.2028297033053097
 40
0.4049486365881947
 40
0.609830623098089
 40
0.8227025270229229
 40
1.0
 40
1.0
 40
1.0
 40
1.0
 10
359.6448531515459
 20
989.4120363311226
 30
0.0
 10
359.4877028164692
 20
989.400829042566
 30
0.0
 10
359.1739528435035
 20
989.3784537388166
 30
0.0
 10
358.7535690749628
 20
989.204354920376
 30
0.0
 10
358.4264996606383
 20
988.9453332986808
 30
0.0
 10
358.2282509584681
 20
988.6333112930463
 30
0.0
 10
358.2052863441705
 20
988.4119610628408
 30
0.0
 10
358.1948509580949
 20
988.3113769607003
 30
0.0
  0
SPLINE
  5
184
330
1F
100
AcDbEntity
  8
0
  6
SLD-Solid
 62
     7
370
    15
100
AcDbSpline
210
0.0
220
0.0
230
1.0
 70
     8
 71
     3
 72
    12
 73
     8
 74
     0
 42
0.00000001
 43
0.00000001
 40
0.0
 40
0.0
 40
0.0
 40
0.0
 40
0.2289471961733922
 40
0.4594195140378173
 40
0.6825267325924012
 40
0.8947081368485773
 40
1.0
 40
1.0
 40
1.0
 40
1.0
 10
358.1948509580949
 20
983.9974013881142
 30
0.0
 10
358.2121819260472
 20
984.1134520783683
 30
0.0
 10
358.2469593114335
 20
984.3463265254518
 30
0.0
 10
358.5208381750655
 20
984.6552006794784
 30
0.0
 10
358.9178585933807
 20
984.8780561247812
 30
0.0
 10
359.3187383534744
 20
984.9783407032386
 30
0.0
 10
359.5636325583412
 20
984.9868481632252
 30
0.0
 10
359.6448531515459
 20
984.9896697120125
 30
0.0
  0
LINE
  5
185
330
1F
100
AcDbEntity
  8
0
  6
SLD-Solid
 62
     7
370
    15
100
AcDbLine
 10
358.1948509581
 20
983.9974013881
 30
0.0
 11
358.1948509581
 21
988.3113769607
 31
0.0
  0
LINE
  5
186
330
1F
100
AcDbEntity
  8
0
  6
SLD-Solid
 62
     7
370
    15
100
AcDbLine
 10
364.9948468573
 20
989.1921845989
 30
0.0
 11
364.9948468573
 21
984.8782090263
 31
0.0
  0
LINE
  5
187
330
1F
100
AcDbEntity
  8
0
  6
SLD-Solid
 62
     7
370
    15
100
AcDbLine
 10
364.9948468573
 20
984.8782090263
 30
0.0
 11
364.9948468573
 21
984.3659965114
 31
0.0
  0
LINE
  5
188
330
1F
100
AcDbEntity
  8
0
  6
SLD-Solid
 62
     7
370
    15
100
AcDbLine
 10
358.1948509581
 20
983.7749270515
 30
0.0
 11
358.1948509581
 21
983.9974013881
 31
0.0
  0
LINE
  5
189
330
1F
100
AcDbEntity
  8
0
  6
SLD-Solid
 62
     7
370
    15
100
AcDbLine
 10
359.394841469
 20
983.9974013881
 30
0.0
 11
359.394841469
 21
983.7749270515
 31
0.0
  0
LINE
  5
18A
330
1F
100
AcDbEntity
  8
0
  6
SLD-Solid
 62
     7
370
    15
100
AcDbLine
 10
359.6448531515
 20
989.4421664791
 30
0.0
 11
359.6448531515
 21
989.4120363311
 31
0.0
  0
LINE
  5
18B
330
1F
100
AcDbEntity
  8
0
  6
SLD-Solid
 62
     7
370
    15
100
AcDbLine
 10
358.1948509581
 20
988.3113769607
 30
0.0
 11
358.1948509581
 21
988.8915983753
 31
0.0
  0
LINE
  5
18C
330
1F
100
AcDbEntity
  8
0
  6
SLD-Solid
 62
     7
370
    15
100
AcDbLine
 10
364.9948468573
 20
972.2032217102
 30
0.0
 11
364.9948468573
 21
971.6910091953
 31
0.0
  0
LINE
  5
18D
330
1F
100
AcDbEntity
  8
0
  6
SLD-Solid
 62
     7
370
    15
100
AcDbLine
 10
364.9948468573
 20
974.9402669982
 30
0.0
 11
364.9948468573
 21
972.2032217102
 31
0.0
  0
SPLINE
  5
18E
330
1F
100
AcDbEntity
  8
0
  6
SLD-Solid
 62
     7
370
    15
100
AcDbSpline
210
0.0
220
0.0
230
1.0
 70
     8
 71
     3
 72
    13
 73
     9
 74
     0
 42
0.00000001
 43
0.00000001
 40
0.0
 40
0.0
 40
0.0
 40
0.0
 40
0.0075672705703346
 40
0.2722968532991902
 40
0.4815303380301606
 40
0.6613595861159949
 40
0.8304802048266375
 40
1.0
 40
1.0
 40
1.0
 40
1.0
 10
360.594831979976
 20
976.3482777194436
 30
0.0
 10
360.594833717046
 20
976.3483869985477
 30
0.0
 10
360.5948962228986
 20
976.352319242797
 30
0.0
 10
360.5830743990675
 20
976.3592460904496
 30
0.0
 10
360.5404361493581
 20
976.3681469727654
 30
0.0
 10
360.4847503203474
 20
976.3743958815552
 30
0.0
 10
360.4186166334051
 20
976.378632466967
 30
0.0
 10
360.3694582596686
 20
976.3791977675263
 30
0.0
 10
360.3448500997881
 20
976.3794807509835
 30
0.0
  0
LINE
  5
18F
330
1F
100
AcDbEntity
  8
0
  6
SLD-Solid
 62
     7
370
    15
100
AcDbLine
 10
360.59483198
 20
984.1160146312
 30
0.0
 11
360.59483198
 21
976.3482777194
 31
0.0
  0
SPLINE
  5
190
330
1F
100
AcDbEntity
  8
0
  6
SLD-Solid
 62
     7
370
    15
100
AcDbSpline
210
0.0
220
0.0
230
1.0
 70
     8
 71
     3
 72
    13
 73
     9
 74
     0
 42
0.00000001
 43
0.00000001
 40
0.0
 40
0.0
 40
0.0
 40
0.0
 40
0.1695827851603245
 40
0.3386387510397076
 40
0.5184630124323746
 40
0.7277218424122295
 40
0.9924326268797025
 40
0.9999999999999999
 40
0.9999999999999999
 40
0.9999999999999999
 40
0.9999999999999999
 10
359.6448531515459
 20
976.3794807509835
 30
0.0
 10
359.6202344231469
 20
976.3791981042295
 30
0.0
 10
359.5710734459324
 20
976.378633688781
 30
0.0
 10
359.5049410454896
 20
976.3743948621515
 30
0.0
 10
359.4492980634625
 20
976.3681463228111
 30
0.0
 10
359.4064557371569
 20
976.3592474898961
 30
0.0
 10
359.3951508389242
 20
976.3523189101369
 30
0.0
 10
359.3948498347841
 20
976.3483869982939
 30
0.0
 10
359.3948414690355
 20
976.3482777194436
 30
0.0
  0
LINE
  5
191
330
1F
100
AcDbEntity
  8
0
  6
SLD-Solid
 62
     7
370
    15
100
AcDbLine
 10
359.394841469
 20
976.3482777194
 30
0.0
 11
359.394841469
 21
983.7749270515
 31
0.0
  0
LINE
  5
192
330
1F
100
AcDbEntity
  8
0
  6
SLD-Solid
 62
     7
370
    15
100
AcDbLine
 10
359.6448531515
 20
976.379480751
 30
0.0
 11
360.3448500998
 21
976.379480751
 31
0.0
  0
SPLINE
  5
193
330
1F
100
AcDbEntity
  8
0
  6
SLD-Solid
 62
     7
370
    15
100
AcDbSpline
210
0.0
220
0.0
230
1.0
 70
     8
 71
     3
 72
    12
 73
     8
 74
     0
 42
0.00000001
 43
0.00000001
 40
0.0
 40
0.0
 40
0.0
 40
0.0
 40
0.2028292495073988
 40
0.4049437821177522
 40
0.6098346001564775
 40
0.8226975517541621
 40
1.0
 40
1.0
 40
1.0
 40
1.0
 10
359.1448297865251
 20
971.0305003241953
 30
0.0
 10
359.3019799210584
 20
971.0427216429127
 30
0.0
 10
359.6157264344079
 20
971.067121215637
 30
0.0
 10
360.0361174015691
 20
971.2567780652113
 30
0.0
 10
360.3632181106026
 20
971.5388879645376
 30
0.0
 10
360.5614279822271
 20
971.8785457471406
 30
0.0
 10
360.584395070463
 20
972.1192979348438
 30
0.0
 10
360.594831979976
 20
972.2287026957924
 30
0.0
  0
SPLINE
  5
194
330
1F
100
AcDbEntity
  8
0
  6
SLD-Solid
 62
     7
370
    15
100
AcDbSpline
210
0.0
220
0.0
230
1.0
 70
     8
 71
     3
 72
    12
 73
     8
 74
     0
 42
0.00000001
 43
0.00000001
 40
0.0
 40
0.0
 40
0.0
 40
0.0
 40
0.2289493019740874
 40
0.4594249947704342
 40
0.6825307576396911
 40
0.8947081437524027
 40
1.0
 40
1.0
 40
1.0
 40
1.0
 10
360.594831979976
 20
976.1038986758645
 30
0.0
 10
360.5775007202193
 20
975.9750071240318
 30
0.0
 10
360.5427226542702
 20
975.7163647083695
 30
0.0
 10
360.2688484544531
 20
975.3737758649297
 30
0.0
 10
359.8718283149854
 20
975.126685923883
 30
0.0
 10
359.4709403228242
 20
975.0156458029197
 30
0.0
 10
359.2260500875933
 20
975.0061725788868
 30
0.0
 10
359.1448297865251
 20
975.0030306891854
 30
0.0
  0
LINE
  5
195
330
1F
100
AcDbEntity
  8
0
  6
SLD-Solid
 62
     7
370
    15
100
AcDbLine
 10
360.59483198
 20
976.1038986759
 30
0.0
 11
360.59483198
 21
972.2287026958
 31
0.0
  0
LINE
  5
196
330
1F
100
AcDbEntity
  8
0
  6
SLD-Solid
 62
     7
370
    15
100
AcDbLine
 10
353.7948360808
 20
971.2611702995
 30
0.0
 11
353.7948360808
 21
975.1363364772
 31
0.0
  0
LINE
  5
197
330
1F
100
AcDbEntity
  8
0
  6
SLD-Solid
 62
     7
370
    15
100
AcDbLine
 10
353.7948360808
 20
975.1363364772
 30
0.0
 11
353.7948360808
 21
975.6989745216
 31
0.0
  0
LINE
  5
198
330
1F
100
AcDbEntity
  8
0
  6
SLD-Solid
 62
     7
370
    15
100
AcDbLine
 10
360.59483198
 20
976.3482777194
 30
0.0
 11
360.59483198
 21
976.1038986759
 31
0.0
  0
LINE
  5
199
330
1F
100
AcDbEntity
  8
0
  6
SLD-Solid
 62
     7
370
    15
100
AcDbLine
 10
359.394841469
 20
976.1038986759
 30
0.0
 11
359.394841469
 21
976.3482777194
 31
0.0
  0
LINE
  5
19A
330
1F
100
AcDbEntity
  8
0
  6
SLD-Solid
 62
     7
370
    15
100
AcDbLine
 10
359.1448297865
 20
971.011158617
 30
0.0
 11
359.1448297865
 21
971.0305003242
 31
0.0
  0
LINE
  5
19B
330
1F
100
AcDbEntity
  8
0
  6
SLD-Solid
 62
     7
370
    15
100
AcDbLine
 10
360.59483198
 20
972.2287026958
 30
0.0
 11
360.59483198
 21
971.9915954189
 31
0.0
  0
SPLINE
  5
19C
330
1F
100
AcDbEntity
  8
0
  6
SLD-Solid
 62
     7
370
    15
100
AcDbSpline
210
0.0
220
0.0
230
1.0
 70
     8
 71
     3
 72
    10
 73
     6
 74
     0
 42
0.00000001
 43
0.00000001
 40
0.0
 40
0.0
 40
0.0
 40
0.0
 40
0.3816961329435264
 40
0.7620472691648631
 40
0.9999999999999999
 40
0.9999999999999999
 40
0.9999999999999999
 40
0.9999999999999999
 10
359.1448297865251
 20
989.8526934699471
 30
0.0
 10
359.3010899494233
 20
989.8398384345275
 30
0.0
 10
359.6130596555281
 20
989.81417366145
 30
0.0
 10
359.9910076484029
 20
989.6571968467287
 30
0.0
 10
360.1537437119708
 20
989.5019231726997
 30
0.0
 10
360.2163722879747
 20
989.4421664790566
 30
0.0
  0
LINE
  5
19D
330
1F
100
AcDbEntity
  8
0
  6
SLD-Solid
 62
     7
370
    15
100
AcDbLine
 10
353.7948360808
 20
989.0593854503
 30
0.0
 11
353.7948360808
 21
989.6220234947
 31
0.0
  0
LINE
  5
19E
330
1F
100
AcDbEntity
  8
0
  6
SLD-Solid
 62
     7
370
    15
100
AcDbLine
 10
353.7948360808
 20
985.7583014087
 30
0.0
 11
353.7948360808
 21
989.0593854503
 31
0.0
  0
LINE
  5
19F
330
1F
100
AcDbEntity
  8
0
  6
SLD-Solid
 62
     7
370
    15
100
AcDbLine
 10
365.3482725985
 20
985.9429267959
 30
0.0
 11
365.7948305971
 21
983.8090209083
 31
0.0
  0
SPLINE
  5
1A0
330
1F
100
AcDbEntity
  8
0
  6
SLD-Solid
 62
     7
370
    15
100
AcDbSpline
210
0.0
220
0.0
230
1.0
 70
     8
 71
     3
 72
     9
 73
     5
 74
     0
 42
0.00000001
 43
0.00000001
 40
0.0
 40
0.0
 40
0.0
 40
0.0
 40
0.070196574127332
 40
1.0
 40
1.0
 40
1.0
 40
1.0
 10
365.7948305971483
 20
983.8090209083016
 30
0.0
 10
365.7943899875942
 20
983.758442665178
 30
0.0
 10
365.7881131919014
 20
983.0379197087174
 30
0.0
 10
365.5601932973082
 20
982.331746806635
 30
0.0
 10
365.3482725984911
 20
981.6751448230202
 30
0.0
  0
LINE
  5
1A1
330
1F
100
AcDbEntity
  8
0
  6
SLD-Solid
 62
     7
370
    15
100
AcDbLine
 10
365.3482725985
 20
981.675144823
 30
0.0
 11
361.041419781
 21
981.675144823
 31
0.0
  0
SPLINE
  5
1A2
330
1F
100
AcDbEntity
  8
0
  6
SLD-Solid
 62
     7
370
    15
100
AcDbSpline
210
0.0
220
0.0
230
1.0
 70
     8
 71
     3
 72
     9
 73
     5
 74
     0
 42
0.00000001
 43
0.00000001
 40
0.0
 40
0.0
 40
0.0
 40
0.0
 40
0.0701966863255995
 40
1.0
 40
1.0
 40
1.0
 40
1.0
 10
360.594831979976
 20
983.8090209083016
 30
0.0
 10
360.595282871052
 20
983.75844266815
 30
0.0
 10
360.6017061240525
 20
983.0379209056694
 30
0.0
 10
360.8295602549825
 20
982.3317473422846
 30
0.0
 10
361.0414197809557
 20
981.6751448230202
 30
0.0
  0
LINE
  5
1A3
330
1F
100
AcDbEntity
  8
0
  6
SLD-Solid
 62
     7
370
    15
100
AcDbLine
 10
360.659085787
 20
984.1160146312
 30
0.0
 11
360.59483198
 21
983.8090209083
 31
0.0
  0
LINE
  5
1A4
330
1F
100
AcDbEntity
  8
0
  6
SLD-Solid
 62
     7
370
    15
100
AcDbLine
 10
365.3482725985
 20
985.9429267959
 30
0.0
 11
364.9948468573
 21
985.9429267959
 31
0.0
  0
SPLINE
  5
1A5
330
1F
100
AcDbEntity
  8
0
  6
SLD-Solid
 62
     7
370
    15
100
AcDbSpline
210
0.0
220
0.0
230
1.0
 70
     8
 71
     3
 72
     9
 73
     5
 74
     0
 42
0.00000001
 43
0.00000001
 40
0.0
 40
0.0
 40
0.0
 40
0.0
 40
0.2686355910035718
 40
1.0
 40
1.0
 40
1.0
 40
1.0
 10
365.7948305971483
 20
978.9244798736031
 30
0.0
 10
365.7882052318744
 20
979.1745954292592
 30
0.0
 10
365.7635422106826
 20
980.1056543210532
 30
0.0
 10
365.5236911371398
 20
981.0121593258989
 30
0.0
 10
365.3482725984911
 20
981.6751448230202
 30
0.0
  0
LINE
  5
1A6
330
1F
100
AcDbEntity
  8
0
  6
SLD-Solid
 62
     7
370
    15
100
AcDbLine
 10
365.7948305971
 20
978.9244798736
 30
0.0
 11
365.7948305971
 21
983.8090209083
 31
0.0
  0
SPLINE
  5
1A7
330
1F
100
AcDbEntity
  8
0
  6
SLD-Solid
 62
     7
370
    15
100
AcDbSpline
210
0.0
220
0.0
230
1.0
 70
     8
 71
     3
 72
     9
 73
     5
 74
     0
 42
0.00000001
 43
0.00000001
 40
0.0
 40
0.0
 40
0.0
 40
0.0
 40
0.2686359263578032
 40
1.0
 40
1.0
 40
1.0
 40
1.0
 10
360.594831979976
 20
978.9244798736031
 30
0.0
 10
360.6014685956832
 20
979.1745953737972
 30
0.0
 10
360.6261734659407
 20
980.105652896836
 30
0.0
 10
360.8660111299748
 20
981.0121588998644
 30
0.0
 10
361.0414197809557
 20
981.6751448230202
 30
0.0
  0
SPLINE
  5
1A8
330
1F
100
AcDbEntity
  8
0
  6
SLD-Solid
 62
     7
370
    15
100
AcDbSpline
210
0.0
220
0.0
230
1.0
 70
     8
 71
     3
 72
     9
 73
     5
 74
     0
 42
0.00000001
 43
0.00000001
 40
0.0
 40
0.0
 40
0.0
 40
0.0
 40
0.25755819111981
 40
1.0
 40
1.0
 40
1.0
 40
1.0
 10
365.3482725984911
 20
976.173814924186
 30
0.0
 10
365.4156809735674
 20
976.4047463567754
 30
0.0
 10
365.6774019259598
 20
977.3013648319449
 30
0.0
 10
365.744795092601
 20
978.2328823342145
 30
0.0
 10
365.7948305971483
 20
978.9244798736031
 30
0.0
  0
LINE
  5
1A9
330
1F
100
AcDbEntity
  8
0
  6
SLD-Solid
 62
     7
370
    15
100
AcDbLine
 10
365.3482725985
 20
976.1738149242
 30
0.0
 11
361.041419781
 21
976.1738149242
 31
0.0
  0
SPLINE
  5
1AA
330
1F
100
AcDbEntity
  8
0
  6
SLD-Solid
 62
     7
370
    15
100
AcDbSpline
210
0.0
220
0.0
230
1.0
 70
     8
 71
     3
 72
     9
 73
     5
 74
     0
 42
0.00000001
 43
0.00000001
 40
0.0
 40
0.0
 40
0.0
 40
0.0
 40
0.2575578805292772
 40
1.0
 40
1.0
 40
1.0
 40
1.0
 10
361.0414197809557
 20
976.173814924186
 30
0.0
 10
360.974011848638
 20
976.4047464074241
 30
0.0
 10
360.7122922997002
 20
977.3013661604815
 30
0.0
 10
360.6448809817508
 20
978.2328827342513
 30
0.0
 10
360.594831979976
 20
978.9244798736032
 30
0.0
  0
LINE
  5
1AB
330
1F
100
AcDbEntity
  8
0
  6
SLD-Solid
 62
     7
370
    15
100
AcDbLine
 10
361.041419781
 20
976.1738149242
 30
0.0
 11
360.59483198
 21
975.5570558624
 31
0.0
  0
LINE
  5
1AC
330
1F
100
AcDbEntity
  8
0
  6
SLD-Solid
 62
     7
370
    15
100
AcDbLine
 10
365.3482725985
 20
976.1738149242
 30
0.0
 11
365.7948305971
 21
975.5570558624
 31
0.0
  0
LINE
  5
1AD
330
1F
100
AcDbEntity
  8
0
  6
SLD-Solid
 62
     7
370
    15
100
AcDbLine
 10
365.7948305971
 20
978.9244798736
 30
0.0
 11
365.7948305971
 21
975.5570558624
 31
0.0
  0
LINE
  5
1AE
330
1F
100
AcDbEntity
  8
0
  6
SLD-Solid
 62
     7
370
    15
100
AcDbLine
 10
365.6457295782
 20
985.5591920928
 30
0.0
 11
365.3482725985
 21
985.9429267959
 31
0.0
  0
LINE
  5
1AF
330
1F
100
AcDbEntity
  8
0
  6
SLD-Solid
 62
     7
370
    15
100
AcDbLine
 10
365.7948305971
 20
985.4415921287
 30
0.0
 11
365.7948305971
 21
983.8090209083
 31
0.0
  0
SPLINE
  5
1B0
330
1F
100
AcDbEntity
  8
0
  6
SLD-Solid
 62
     7
370
    15
100
AcDbSpline
210
0.0
220
0.0
230
1.0
 70
     8
 71
     3
 72
     9
 73
     5
 74
     0
 42
0.00000001
 43
0.00000001
 40
0.0
 40
0.0
 40
0.0
 40
0.0
 40
0.0702001799102693
 40
1.0
 40
1.0
 40
1.0
 40
1.0
 10
365.7948305971483
 20
975.5570558623726
 30
0.0
 10
365.794390027968
 20
975.5424359886354
 30
0.0
 10
365.7881141298025
 20
975.3341762127204
 30
0.0
 10
365.5601933233372
 20
975.1300570028507
 30
0.0
 10
365.3482725984911
 20
974.9402669982369
 30
0.0
  0
LINE
  5
1B1
330
1F
100
AcDbEntity
  8
0
  6
SLD-Solid
 62
     7
370
    15
100
AcDbLine
 10
365.3482725985
 20
974.9402669982
 30
0.0
 11
361.041419781
 21
974.9402669982
 31
0.0
  0
LINE
  5
1B2
330
1F
100
AcDbEntity
  8
0
  6
SLD-Solid
 62
     7
370
    15
100
AcDbLine
 10
360.7439628012
 20
975.3240017013
 30
0.0
 11
361.041419781
 21
974.9402669982
 31
0.0
  0
LINE
  5
1B3
330
1F
100
AcDbEntity
  8
0
  6
SLD-Solid
 62
     7
370
    15
100
AcDbLine
 10
365.7948305971
 20
975.5570558624
 30
0.0
 11
365.7948305971
 21
975.4416016654
 31
0.0
  0
LINE
  5
1B4
330
1F
100
AcDbEntity
  8
0
  6
SLD-Solid
 62
     7
370
    15
100
AcDbLine
 10
357.7482631571
 20
985.0491849498
 30
0.0
 11
358.1948509581
 21
982.3908177928
 31
0.0
  0
SPLINE
  5
1B5
330
1F
100
AcDbEntity
  8
0
  6
SLD-Solid
 62
     7
370
    15
100
AcDbSpline
210
0.0
220
0.0
230
1.0
 70
     8
 71
     3
 72
     9
 73
     5
 74
     0
 42
0.00000001
 43
0.00000001
 40
0.0
 40
0.0
 40
0.0
 40
0.0
 40
0.0702028691591181
 40
1.0
 40
1.0
 40
1.0
 40
1.0
 10
358.1948509580949
 20
982.3908177928383
 30
0.0
 10
358.1944001362187
 20
982.3277959997298
 30
0.0
 10
358.1879784346336
 20
981.4300863496342
 30
0.0
 10
357.9601227339015
 20
980.5504053280772
 30
0.0
 10
357.7482631571153
 20
979.7324804381783
 30
0.0
  0
LINE
  5
1B6
330
1F
100
AcDbEntity
  8
0
  6
SLD-Solid
 62
     7
370
    15
100
AcDbLine
 10
357.7482631571
 20
979.7324804382
 30
0.0
 11
353.4414103396
 21
979.7324804382
 31
0.0
  0
SPLINE
  5
1B7
330
1F
100
AcDbEntity
  8
0
  6
SLD-Solid
 62
     7
370
    15
100
AcDbSpline
210
0.0
220
0.0
230
1.0
 70
     8
 71
     3
 72
     9
 73
     5
 74
     0
 42
0.00000001
 43
0.00000001
 40
0.0
 40
0.0
 40
0.0
 40
0.0
 40
0.0702027569701948
 40
1.0
 40
1.0
 40
1.0
 40
1.0
 10
352.9948523409227
 20
982.3908177928383
 30
0.0
 10
352.9952928812463
 20
982.3277959960277
 30
0.0
 10
353.0015681379825
 20
981.4300848585953
 30
0.0
 10
353.2294895961492
 20
980.5504046608187
 30
0.0
 10
353.4414103395799
 20
979.7324804381784
 30
0.0
  0
LINE
  5
1B8
330
1F
100
AcDbEntity
  8
0
  6
SLD-Solid
 62
     7
370
    15
100
AcDbLine
 10
353.4414103396
 20
985.0491849498
 30
0.0
 11
352.9948523409
 21
982.3908177928
 31
0.0
  0
LINE
  5
1B9
330
1F
100
AcDbEntity
  8
0
  6
SLD-Solid
 62
     7
370
    15
100
AcDbLine
 10
357.7482631571
 20
985.0491849498
 30
0.0
 11
353.4414103396
 21
985.0491849498
 31
0.0
  0
SPLINE
  5
1BA
330
1F
100
AcDbEntity
  8
0
  6
SLD-Solid
 62
     7
370
    15
100
AcDbSpline
210
0.0
220
0.0
230
1.0
 70
     8
 71
     3
 72
     9
 73
     5
 74
     0
 42
0.00000001
 43
0.00000001
 40
0.0
 40
0.0
 40
0.0
 40
0.0
 40
0.2686328001086878
 40
1.0
 40
1.0
 40
1.0
 40
1.0
 10
358.1948509580949
 20
977.4286715106423
 30
0.0
 10
358.1882141745749
 20
977.638149523026
 30
0.0
 10
358.1635083921188
 20
978.4179426543893
 30
0.0
 10
357.9236717849395
 20
979.1771910586975
 30
0.0
 10
357.7482631571153
 20
979.7324804381783
 30
0.0
  0
SPLINE
  5
1BB
330
1F
100
AcDbEntity
  8
0
  6
SLD-Solid
 62
     7
370
    15
100
AcDbSpline
210
0.0
220
0.0
230
1.0
 70
     8
 71
     3
 72
     9
 73
     5
 74
     0
 42
0.00000001
 43
0.00000001
 40
0.0
 40
0.0
 40
0.0
 40
0.0
 40
0.2686324647524856
 40
1.0
 40
1.0
 40
1.0
 40
1.0
 10
352.9948523409227
 20
977.4286715106423
 30
0.0
 10
353.0014778740247
 20
977.6381495694784
 30
0.0
 10
353.0261418069864
 20
978.4179438472441
 30
0.0
 10
353.2659918238889
 20
979.1771914155233
 30
0.0
 10
353.4414103395799
 20
979.7324804381783
 30
0.0
  0
LINE
  5
1BC
330
1F
100
AcDbEntity
  8
0
  6
SLD-Solid
 62
     7
370
    15
100
AcDbLine
 10
352.9948523409
 20
977.4286715106
 30
0.0
 11
352.9948523409
 21
982.3908177928
 31
0.0
  0
LINE
  5
1BD
330
1F
100
AcDbEntity
  8
0
  6
SLD-Solid
 62
     7
370
    15
100
AcDbLine
 10
357.9737475283
 20
975.9489862041
 30
0.0
 11
358.1948509581
 21
977.4286715106
 31
0.0
  0
LINE
  5
1BE
330
1F
100
AcDbEntity
  8
0
  6
SLD-Solid
 62
     7
370
    15
100
AcDbLine
 10
353.7948360808
 20
975.1248923854
 30
0.0
 11
353.4414103396
 21
975.1248923854
 31
0.0
  0
SPLINE
  5
1BF
330
1F
100
AcDbEntity
  8
0
  6
SLD-Solid
 62
     7
370
    15
100
AcDbSpline
210
0.0
220
0.0
230
1.0
 70
     8
 71
     3
 72
     9
 73
     5
 74
     0
 42
0.00000001
 43
0.00000001
 40
0.0
 40
0.0
 40
0.0
 40
0.0
 40
0.2575507381473895
 40
1.0
 40
1.0
 40
1.0
 40
1.0
 10
353.4414103395799
 20
975.1248923854287
 30
0.0
 10
353.3740019395584
 20
975.318298778836
 30
0.0
 10
353.1122733166611
 20
976.0692436015863
 30
0.0
 10
353.0448848547362
 20
976.8494258076441
 30
0.0
 10
352.9948523409227
 20
977.4286715106423
 30
0.0
  0
SPLINE
  5
1C0
330
1F
100
AcDbEntity
  8
0
  6
SLD-Solid
 62
     7
370
    15
100
AcDbSpline
210
0.0
220
0.0
230
1.0
 70
     8
 71
     3
 72
     9
 73
     5
 74
     0
 42
0.00000001
 43
0.00000001
 40
0.0
 40
0.0
 40
0.0
 40
0.0
 40
0.0702025313643047
 40
1.0
 40
1.0
 40
1.0
 40
1.0
 10
352.9948523409227
 20
985.4037431792672
 30
0.0
 10
352.9952928837725
 20
985.3953348738737
 30
0.0
 10
353.001568196661
 20
985.2755627626686
 30
0.0
 10
353.2294895977756
 20
985.1582562491475
 30
0.0
 10
353.4414103395799
 20
985.0491849498208
 30
0.0
  0
LINE
  5
1C1
330
1F
100
AcDbEntity
  8
0
  6
SLD-Solid
 62
     7
370
    15
100
AcDbLine
 10
352.9948523409
 20
982.3908177928
 30
0.0
 11
352.9948523409
 21
985.4037431793
 31
0.0
  0
SPLINE
  5
1C2
330
1F
100
AcDbEntity
  8
0
  6
SLD-Solid
 62
     7
370
    15
100
AcDbSpline
210
0.0
220
0.0
230
1.0
 70
     8
 71
     3
 72
     9
 73
     5
 74
     0
 42
0.00000001
 43
0.00000001
 40
0.0
 40
0.0
 40
0.0
 40
0.0
 40
0.0702026435521819
 40
0.9999999999999999
 40
0.9999999999999999
 40
0.9999999999999999
 40
0.9999999999999999
 10
358.1948509580949
 20
985.4037431792672
 30
0.0
 10
358.1944001336936
 20
985.3953348743673
 30
0.0
 10
358.1879783755017
 20
985.2755629615955
 30
0.0
 10
357.9601227320492
 20
985.1582563381729
 30
0.0
 10
357.7482631571153
 20
985.0491849498209
 30
0.0
  0
LINE
  5
1C3
330
1F
100
AcDbEntity
  8
0
  6
SLD-Solid
 62
     7
370
    15
100
AcDbLine
 10
353.4414103396
 20
975.1248923854
 30
0.0
 11
352.9948523409
 21
975.4794506149
 31
0.0
  0
LINE
  5
1C4
330
1F
100
AcDbEntity
  8
0
  6
SLD-Solid
 62
     7
370
    15
100
AcDbLine
 10
352.9948523409
 20
977.4286715106
 30
0.0
 11
352.9948523409
 21
975.4417506771
 31
0.0
  0
LINE
  5
1C5
330
1F
100
AcDbEntity
  8
0
  6
SLD-Solid
 62
     7
370
    15
100
AcDbLine
 10
357.7482631571
 20
985.7583014087
 30
0.0
 11
358.1948509581
 21
985.4037431793
 31
0.0
  0
LINE
  5
1C6
330
1F
100
AcDbEntity
  8
0
  6
SLD-Solid
 62
     7
370
    15
100
AcDbLine
 10
353.4414103396
 20
985.7583014087
 30
0.0
 11
352.9948523409
 21
985.4037431793
 31
0.0
  0
LINE
  5
1C7
330
1F
100
AcDbEntity
  8
0
  6
SLD-Solid
 62
     7
370
    15
100
AcDbLine
 10
357.7482631571
 20
985.7583014087
 30
0.0
 11
353.4414103396
 21
985.7583014087
 31
0.0
  0
LINE
  5
1C8
330
1F
100
AcDbEntity
  8
0
  6
SLD-Solid
 62
     7
370
    15
100
AcDbLine
 10
370.1948454745
 20
974.7693506793
 30
0.0
 11
366.4914300806
 21
974.7693506793
 31
0.0
  0
SPLINE
  5
1C9
330
1F
100
AcDbEntity
  8
0
  6
SLD-Solid
 62
     7
370
    15
100
AcDbSpline
210
0.0
220
0.0
230
1.0
 70
     8
 71
     3
 72
     9
 73
     5
 74
     0
 42
0.00000001
 43
0.00000001
 40
0.0
 40
0.0
 40
0.0
 40
0.0
 40
0.0701995956380939
 40
1.0
 40
1.0
 40
1.0
 40
1.0
 10
366.0448422796587
 20
976.6535429076607
 30
0.0
 10
366.0452931381739
 20
976.6088781140116
 30
0.0
 10
366.0517156611397
 20
975.9726238273139
 30
0.0
 10
366.2795705307442
 20
975.3491017546421
 30
0.0
 10
366.4914300806382
 20
974.7693506793436
 30
0.0
  0
LINE
  5
1CA
330
1F
100
AcDbEntity
  8
0
  6
SLD-Solid
 62
     7
370
    15
100
AcDbLine
 10
366.4914300806
 20
978.5377649383
 30
0.0
 11
366.0448422797
 21
976.6535429077
 31
0.0
  0
LINE
  5
1CB
330
1F
100
AcDbEntity
  8
0
  6
SLD-Solid
 62
     7
370
    15
100
AcDbLine
 10
370.1948454745
 20
978.5377649383
 30
0.0
 11
366.4914300806
 21
978.5377649383
 31
0.0
  0
SPLINE
  5
1CC
330
1F
100
AcDbEntity
  8
0
  6
SLD-Solid
 62
     7
370
    15
100
AcDbSpline
210
0.0
220
0.0
230
1.0
 70
     8
 71
     3
 72
     9
 73
     5
 74
     0
 42
0.00000001
 43
0.00000001
 40
0.0
 40
0.0
 40
0.0
 40
0.0
 40
0.2575528930803259
 40
0.9999999999999999
 40
0.9999999999999999
 40
0.9999999999999999
 40
0.9999999999999999
 10
366.4914300806383
 20
978.5377649383004
 30
0.0
 10
366.4240104744416
 20
978.7758642656886
 30
0.0
 10
366.162240531226
 20
979.7003319528526
 30
0.0
 10
366.094865027487
 20
980.6608035728098
 30
0.0
 10
366.0448422796587
 20
981.3739029483254
 30
0.0
  0
LINE
  5
1CD
330
1F
100
AcDbEntity
  8
0
  6
SLD-Solid
 62
     7
370
    15
100
AcDbLine
 10
366.0448422797
 20
976.6535429077
 30
0.0
 11
366.0448422797
 21
981.3739029483
 31
0.0
  0
SPLINE
  5
1CE
330
1F
100
AcDbEntity
  8
0
  6
SLD-Solid
 62
     7
370
    15
100
AcDbSpline
210
0.0
220
0.0
230
1.0
 70
     8
 71
     3
 72
     9
 73
     5
 74
     0
 42
0.00000001
 43
0.00000001
 40
0.0
 40
0.0
 40
0.0
 40
0.0
 40
0.2686336456515641
 40
1.0
 40
1.0
 40
1.0
 40
1.0
 10
366.0448422796587
 20
981.3739029483254
 30
0.0
 10
366.0514672592663
 20
981.6317853586983
 30
0.0
 10
366.0761290234004
 20
982.5917634349642
 30
0.0
 10
366.3159979894311
 20
983.5264285432467
 30
0.0
 10
366.4914300806383
 20
984.210011156028
 30
0.0
  0
LINE
  5
1CF
330
1F
100
AcDbEntity
  8
0
  6
SLD-Solid
 62
     7
370
    15
100
AcDbLine
 10
370.1948454745
 20
984.210011156
 30
0.0
 11
366.4914300806
 21
984.210011156
 31
0.0
  0
SPLINE
  5
1D0
330
1F
100
AcDbEntity
  8
0
  6
SLD-Solid
 62
     7
370
    15
100
AcDbSpline
210
0.0
220
0.0
230
1.0
 70
     8
 71
     3
 72
     9
 73
     5
 74
     0
 42
0.00000001
 43
0.00000001
 40
0.0
 40
0.0
 40
0.0
 40
0.0
 40
0.0702004279719304
 40
1.0
 40
1.0
 40
1.0
 40
1.0
 10
366.0448422796587
 20
985.1619271354134
 30
0.0
 10
366.0452931288581
 20
985.1393663129935
 30
0.0
 10
366.0517154429726
 20
984.8179890355071
 30
0.0
 10
366.2795705239041
 20
984.5029418729459
 30
0.0
 10
366.4914300806383
 20
984.210011156028
 30
0.0
  0
LINE
  5
1D1
330
1F
100
AcDbEntity
  8
0
  6
SLD-Solid
 62
     7
370
    15
100
AcDbLine
 10
366.0448422797
 20
981.3739029483
 30
0.0
 11
366.0448422797
 21
985.1619271354
 31
0.0
  0
LINE
  5
1D2
330
1F
100
AcDbEntity
  8
0
  6
SLD-Solid
 62
     7
370
    15
100
AcDbLine
 10
366.4914300806
 20
986.1138431148
 30
0.0
 11
366.0448422797
 21
985.1619271354
 31
0.0
  0
LINE
  5
1D3
330
1F
100
AcDbEntity
  8
0
  6
SLD-Solid
 62
     7
370
    15
100
AcDbLine
 10
370.1948454745
 20
986.1138431148
 30
0.0
 11
366.4914300806
 21
986.1138431148
 31
0.0
  0
LINE
  5
1D4
330
1F
100
AcDbEntity
  8
0
  6
SLD-Solid
 62
     7
370
    15
100
AcDbLine
 10
366.4914300806
 20
974.7693506793
 30
0.0
 11
366.3154771693
 21
975.1443831043
 31
0.0
  0
LINE
  5
1D5
330
1F
100
AcDbEntity
  8
0
  6
SLD-Solid
 62
     7
370
    15
100
AcDbLine
 10
366.0448422797
 20
975.4416016654
 30
0.0
 11
366.0448422797
 21
976.6535429077
 31
0.0
  0
LINE
  5
1D6
330
1F
100
AcDbEntity
  8
0
  6
SLD-Solid
 62
     7
370
    15
100
AcDbLine
 10
366.0448422797
 20
985.1619271354
 30
0.0
 11
366.0448422797
 21
985.4415921287
 31
0.0
  0
LINE
  5
1D7
330
1F
100
AcDbEntity
  8
0
  6
SLD-Solid
 62
     7
370
    15
100
AcDbLine
 10
371.7948427565
 20
930.4415849761
 30
0.0
 11
372.5948562987
 21
930.4415849761
 31
0.0
  0
LINE
  5
1D8
330
1F
100
AcDbEntity
  8
0
  6
SLD-Solid
 62
     7
370
    15
100
AcDbLine
 10
372.5948562987
 20
1199.0617779808
 30
0.0
 11
372.5948562987
 21
1197.0415977554
 31
0.0
  0
LINE
  5
1D9
330
1F
100
AcDbEntity
  8
0
  6
SLD-Solid
 62
     7
370
    15
100
AcDbLine
 10
372.5948562987
 20
933.441605957
 30
0.0
 11
372.5948562987
 21
930.4415849761
 31
0.0
  0
LINE
  5
1DA
330
1F
100
AcDbEntity
  8
0
  6
SLD-Solid
 62
     7
370
    15
100
AcDbLine
 10
371.7948427565
 20
1200.0416187362
 30
0.0
 11
371.7948427565
 21
1197.0415977554
 31
0.0
  0
LINE
  5
1DB
330
1F
100
AcDbEntity
  8
0
  6
SLD-Solid
 62
     7
370
    15
100
AcDbLine
 10
371.7948427565
 20
1195.6512598113
 30
0.0
 11
371.7948427565
 21
1195.2831415252
 31
0.0
  0
LINE
  5
1DC
330
1F
100
AcDbEntity
  8
0
  6
SLD-Solid
 62
     7
370
    15
100
AcDbLine
 10
371.7948427565
 20
935.1990191059
 30
0.0
 11
371.7948427565
 21
934.831854494
 31
0.0
  0
LINE
  5
1DD
330
1F
100
AcDbEntity
  8
0
  6
SLD-Solid
 62
     7
370
    15
100
AcDbLine
 10
371.7948427565
 20
933.441605957
 30
0.0
 11
371.7948427565
 21
930.4415849761
 31
0.0
  0
LINE
  5
1DE
330
1F
100
AcDbEntity
  8
0
  6
SLD-Solid
 62
     7
370
    15
100
AcDbLine
 10
455.4948439963
 20
1229.5416263656
 30
0.0
 11
456.1301401026
 21
1236.8030814247
 31
0.0
  0
LINE
  5
1DF
330
1F
100
AcDbEntity
  8
0
  6
SLD-Solid
 62
     7
370
    15
100
AcDbLine
 10
458.4834208853
 20
1229.5416263656
 30
0.0
 11
455.4948439963
 21
1229.5416263656
 31
0.0
  0
LINE
  5
1E0
330
1F
100
AcDbEntity
  8
0
  6
SLD-Solid
 62
     7
370
    15
100
AcDbLine
 10
458.4834208853
 20
1229.5416263656
 30
0.0
 11
1012.5062694914
 21
1229.5416263656
 31
0.0
  0
LINE
  5
1E1
330
1F
100
AcDbEntity
  8
0
  6
SLD-Solid
 62
     7
370
    15
100
AcDbLine
 10
1015.4948463805
 20
1229.5416263656
 30
0.0
 11
1014.8595502741
 21
1236.8030814247
 31
0.0
  0
LINE
  5
1E2
330
1F
100
AcDbEntity
  8
0
  6
SLD-Solid
 62
     7
370
    15
100
AcDbLine
 10
1012.5062694914
 20
1229.5416263656
 30
0.0
 11
1015.4948463805
 21
1229.5416263656
 31
0.0
  0
LINE
  5
1E3
330
1F
100
AcDbEntity
  8
0
  6
SLD-Solid
 62
     7
370
    15
100
AcDbLine
 10
459.1187169916
 20
1239.5416168289
 30
0.0
 11
1011.8709733851
 21
1239.5416168289
 31
0.0
  0
ARC
  5
1E4
330
1F
100
AcDbEntity
  8
0
  6
SLD-Solid
 62
     7
370
    15
100
AcDbCircle
 10
459.1187229615
 20
1236.5415978505
 30
0.0
 40
3.0
100
AcDbArc
 50
90.0
 51
175.0
  0
ARC
  5
1E5
330
1F
100
AcDbEntity
  8
0
  6
SLD-Solid
 62
     7
370
    15
100
AcDbCircle
 10
1011.8709626469
 20
1236.5415978505
 30
0.0
 40
3.0
100
AcDbArc
 50
5.0
 51
90.0
  0
SPLINE
  5
1E6
330
1F
100
AcDbEntity
  8
0
  6
SLD-Solid
 62
     7
370
    15
100
AcDbSpline
210
0.0
220
0.0
230
1.0
 70
     8
 71
     3
 72
     9
 73
     5
 74
     0
 42
0.00000001
 43
0.00000001
 40
0.0
 40
0.0
 40
0.0
 40
0.0
 40
0.7433178469935456
 40
1.0
 40
1.0
 40
1.0
 40
1.0
 10
467.5245514280656
 20
1229.376938732093
 30
0.0
 10
467.5367073031291
 20
1229.441974938412
 30
0.0
 10
467.5530608389856
 20
1229.529469415481
 30
0.0
 10
467.6008795283773
 20
1229.539143261885
 30
0.0
 10
467.6131537325243
 20
1229.541626365607
 30
0.0
  0
SPLINE
  5
1E7
330
1F
100
AcDbEntity
  8
0
  6
SLD-Solid
 62
     7
370
    15
100
AcDbSpline
210
0.0
220
0.0
230
1.0
 70
     8
 71
     3
 72
     9
 73
     5
 74
     0
 42
0.00000001
 43
0.00000001
 40
0.0
 40
0.0
 40
0.0
 40
0.0
 40
0.7522009422180332
 40
1.0
 40
1.0
 40
1.0
 40
1.0
 10
1003.376536644206
 20
1229.541626365607
 30
0.0
 10
1003.408774591403
 20
1229.521159968048
 30
0.0
 10
1003.45163274989
 20
1229.493951284291
 30
0.0
 10
1003.46245676734
 20
1229.400176127572
 30
0.0
 10
1003.465138948665
 20
1229.376938732093
 30
0.0
  0
ARC
  5
1E8
330
1F
100
AcDbEntity
  8
0
  6
SLD-Solid
 62
     7
370
    15
100
AcDbCircle
 10
458.5689904597
 20
1228.5415978505
 30
0.0
 40
1.0
100
AcDbArc
 50
18.5
 51
90.0
  0
SPLINE
  5
1E9
330
1F
100
AcDbEntity
  8
0
  6
SLD-Solid
 62
     7
370
    15
100
AcDbSpline
210
0.0
220
0.0
230
1.0
 70
     8
 71
     3
 72
    10
 73
     6
 74
     0
 42
0.00000001
 43
0.00000001
 40
0.0
 40
0.0
 40
0.0
 40
0.0
 40
0.3994138353636228
 40
0.9948692247726524
 40
1.0
 40
1.0
 40
1.0
 40
1.0
 10
467.5245514280656
 20
1229.376938732093
 30
0.0
 10
467.5175241738233
 20
1229.296584357345
 30
0.0
 10
467.5000205263248
 20
1229.096435821078
 30
0.0
 10
467.4743209163173
 20
1228.804695567652
 30
0.0
 10
467.4592048614219
 20
1228.630271327751
 30
0.0
 10
467.4590757257799
 20
1228.628781230872
 30
0.0
  0
SPLINE
  5
1EA
330
1F
100
AcDbEntity
  8
0
  6
SLD-Solid
 62
     7
370
    15
100
AcDbSpline
210
0.0
220
0.0
230
1.0
 70
     8
 71
     3
 72
    10
 73
     6
 74
     0
 42
0.00000001
 43
0.00000001
 40
0.0
 40
0.0
 40
0.0
 40
0.0
 40
0.0051307752273476
 40
0.6005861646363772
 40
1.0
 40
1.0
 40
1.0
 40
1.0
 10
1003.530614650951
 20
1228.628781230872
 30
0.0
 10
1003.530485515309
 20
1228.630271327751
 30
0.0
 10
1003.515369460414
 20
1228.804695567655
 30
0.0
 10
1003.489669850406
 20
1229.096435821077
 30
0.0
 10
1003.472166202907
 20
1229.296584357345
 30
0.0
 10
1003.465138948665
 20
1229.376938732093
 30
0.0
  0
ARC
  5
1EB
330
1F
100
AcDbEntity
  8
0
  6
SLD-Solid
 62
     7
370
    15
100
AcDbCircle
 10
1012.4206951486
 20
1228.5415978505
 30
0.0
 40
1.0
100
AcDbArc
 50
90.0
 51
161.5
  0
ARC
  5
1EC
330
1F
100
AcDbEntity
  8
0
  6
SLD-Solid
 62
     7
370
    15
100
AcDbCircle
 10
723.6785116302
 20
1228.5415978505
 30
0.0
 40
1.0
100
AcDbArc
 50
5.0
 51
90.0
  0
ARC
  5
1ED
330
1F
100
AcDbEntity
  8
0
  6
SLD-Solid
 62
     7
370
    15
100
AcDbCircle
 10
747.3111739782
 20
1228.5415978505
 30
0.0
 40
1.000000000000067
100
AcDbArc
 50
90.0
 51
175.0
  0
LINE
  5
1EE
330
1F
100
AcDbEntity
  8
0
  6
SLD-Solid
 62
     7
370
    15
100
AcDbLine
 10
463.2429113753
 20
1217.7242902831
 30
0.0
 11
459.5173230536
 21
1228.8589147644
 31
0.0
  0
LINE
  5
1EF
330
1F
100
AcDbEntity
  8
0
  6
SLD-Solid
 62
     7
370
    15
100
AcDbLine
 10
1011.4723673231
 20
1228.8589147644
 30
0.0
 11
1007.7467790015
 21
1217.7242902831
 31
0.0
  0
LINE
  5
1F0
330
1F
100
AcDbEntity
  8
0
  6
SLD-Solid
 62
     7
370
    15
100
AcDbLine
 10
467.4590757258
 20
1228.6287812309
 30
0.0
 11
466.5251901514
 21
1217.9544238166
 31
0.0
  0
LINE
  5
1F1
330
1F
100
AcDbEntity
  8
0
  6
SLD-Solid
 62
     7
370
    15
100
AcDbLine
 10
1004.4645002253
 20
1217.9544238166
 30
0.0
 11
1003.530614651
 21
1228.6287812309
 31
0.0
  0
LINE
  5
1F2
330
1F
100
AcDbEntity
  8
0
  6
SLD-Solid
 62
     7
370
    15
100
AcDbLine
 10
725.4773542426
 20
1219.454434307
 30
0.0
 11
724.6747059889
 21
1228.6287812309
 31
0.0
  0
LINE
  5
1F3
330
1F
100
AcDbEntity
  8
0
  6
SLD-Solid
 62
     7
370
    15
100
AcDbLine
 10
746.3149797312
 20
1228.6287812309
 30
0.0
 11
745.5123310118
 21
1219.454434307
 31
0.0
  0
ARC
  5
1F4
330
1F
100
AcDbEntity
  8
0
  6
SLD-Solid
 62
     7
370
    15
100
AcDbCircle
 10
464.1912259307
 20
1218.0415978505
 30
0.0
 40
1.000000000000227
100
AcDbArc
 50
198.5
 51
270.0
  0
ARC
  5
1F5
330
1F
100
AcDbEntity
  8
0
  6
SLD-Solid
 62
     7
370
    15
100
AcDbCircle
 10
465.5290051499
 20
1218.0415978505
 30
0.0
 40
1.000000000000227
100
AcDbArc
 50
270.0
 51
355.0
  0
ARC
  5
1F6
330
1F
100
AcDbEntity
  8
0
  6
SLD-Solid
 62
     7
370
    15
100
AcDbCircle
 10
1006.7984596777
 20
1218.0415978505
 30
0.0
 40
1.000000000000227
100
AcDbArc
 50
270.0
 51
341.5
  0
ARC
  5
1F7
330
1F
100
AcDbEntity
  8
0
  6
SLD-Solid
 62
     7
370
    15
100
AcDbCircle
 10
1005.4606804584
 20
1218.0415978505
 30
0.0
 40
1.000000000000227
100
AcDbArc
 50
185.0
 51
270.0
  0
LINE
  5
1F8
330
1F
100
AcDbEntity
  8
0
  6
SLD-Solid
 62
     7
370
    15
100
AcDbLine
 10
744.516136232
 20
1218.5415891723
 30
0.0
 11
726.4735490225
 21
1218.5415891723
 31
0.0
  0
ARC
  5
1F9
330
1F
100
AcDbEntity
  8
0
  6
SLD-Solid
 62
     7
370
    15
100
AcDbCircle
 10
726.473549277
 20
1219.5415978505
 30
0.0
 40
1.000000000000227
100
AcDbArc
 50
185.0
 51
270.0
  0
ARC
  5
1FA
330
1F
100
AcDbEntity
  8
0
  6
SLD-Solid
 62
     7
370
    15
100
AcDbCircle
 10
744.5161363314
 20
1219.5415978505
 30
0.0
 40
1.000000000000227
100
AcDbArc
 50
270.0
 51
355.0
  0
LINE
  5
1FB
330
1F
100
AcDbEntity
  8
0
  6
SLD-Solid
 62
     7
370
    15
100
AcDbLine
 10
540.7372346289
 20
1242.7971033172
 30
0.0
 11
540.8901801474
 21
1243.5692218856
 31
0.0
  0
ARC
  5
1FC
330
1F
100
AcDbEntity
  8
0
  6
SLD-Solid
 62
     7
370
    15
100
AcDbCircle
 10
594.779911053
 20
1260.0415978505
 30
0.0
 40
2.0
100
AcDbArc
 50
90.0
 51
173.5
  0
LWPOLYLINE
  5
1FD
330
1F
100
AcDbEntity
  8
0
  6
SLD-Solid
 62
     7
370
    15
100
AcDbPolyline
 90
       11
 70
   128
 43
0.0
 10
590.881936825
 20
1243.4968022422
 10
591.2169000275
 20
1246.4368609504
 10
591.5275147326
 20
1249.1630581932
 10
591.8102940686
 20
1251.6449956016
 10
592.0620938904
 20
1253.8550166206
 10
592.2801127798
 20
1255.7684449272
 10
592.4618920452
 20
1257.3640016632
 10
592.605434931
 20
1258.6238054351
 10
592.7091172106
 20
1259.5338491516
 10
592.7717914946
 20
1260.0839404182
 10
592.7927723296
 20
1260.2679995613
  0
ARC
  5
1FE
330
1F
100
AcDbEntity
  8
0
  6
SLD-Solid
 62
     7
370
    15
100
AcDbCircle
 10
876.2097745554
 20
1260.0415978505
 30
0.0
 40
2.0
100
AcDbArc
 50
6.5
 51
90.0
  0
LWPOLYLINE
  5
1FF
330
1F
100
AcDbEntity
  8
0
  6
SLD-Solid
 62
     7
370
    15
100
AcDbPolyline
 90
       11
 70
   128
 43
0.0
 10
880.1077535517
 20
1243.4968022422
 10
879.7727754481
 20
1246.4368609504
 10
879.4621756441
 20
1249.1630581932
 10
879.179381407
 20
1251.6449956016
 10
878.9275815852
 20
1253.8550166206
 10
878.7095775969
 20
1255.7684449272
 10
878.5277834303
 20
1257.3640016632
 10
878.3842554457
 20
1258.6238054351
 10
878.2805731661
 20
1259.5338491516
 10
878.217883981
 20
1260.0839404182
 10
878.1969180472
 20
1260.2679995613
  0
ARC
  5
200
330
1F
100
AcDbEntity
  8
0
  6
SLD-Solid
 62
     7
370
    15
100
AcDbCircle
 10
596.2097745554
 20
1260.0415978505
 30
0.0
 40
2.0
100
AcDbArc
 50
6.5
 51
90.0
  0
LWPOLYLINE
  5
201
330
1F
100
AcDbEntity
  8
0
  6
SLD-Solid
 62
     7
370
    15
100
AcDbPolyline
 90
       11
 70
   128
 43
0.0
 10
598.1969168551
 20
1260.2679995613
 10
598.2179125912
 20
1260.0837616043
 10
598.2806464798
 20
1259.5330742912
 10
598.3844330675
 20
1258.6221365051
 10
598.5281249649
 20
1257.3610810356
 10
598.7100830443
 20
1255.7640341834
 10
598.9282956488
 20
1253.8487581329
 10
599.1803338892
 20
1251.6366509513
 10
599.4633665449
 20
1249.1524485664
 10
599.7742494709
 20
1246.4239267425
 10
600.1094957955
 20
1243.4814838485
  0
LWPOLYLINE
  5
202
330
1F
100
AcDbEntity
  8
0
  6
SLD-Solid
 62
     7
370
    15
100
AcDbPolyline
 90
       11
 70
   128
 43
0.0
 10
872.7927735216
 20
1260.2679995613
 10
872.7717777855
 20
1260.0837616043
 10
872.7090289957
 20
1259.5330742912
 10
872.605242408
 20
1258.6221365051
 10
872.4615654118
 20
1257.3610810356
 10
872.2796073325
 20
1255.7640341834
 10
872.0613798268
 20
1253.8487581329
 10
871.8093564875
 20
1251.6366509513
 10
871.5263089306
 20
1249.1524485664
 10
871.2154260046
 20
1246.4239267425
 10
870.8801796801
 20
1243.4814838485
  0
ARC
  5
203
330
1F
100
AcDbEntity
  8
0
  6
SLD-Solid
 62
     7
370
    15
100
AcDbCircle
 10
874.779911053
 20
1260.0415978505
 30
0.0
 40
2.0
100
AcDbArc
 50
90.0
 51
173.5
  0
LINE
  5
204
330
1F
100
AcDbEntity
  8
0
  6
SLD-Solid
 62
     7
370
    15
100
AcDbLine
 10
596.2097725041
 20
1262.0415953712
 30
0.0
 11
594.7799166806
 21
1262.0415953712
 31
0.0
  0
LINE
  5
205
330
1F
100
AcDbEntity
  8
0
  6
SLD-Solid
 62
     7
370
    15
100
AcDbLine
 10
874.7799178727
 20
1262.0415953712
 30
0.0
 11
876.2097736962
 21
1262.0415953712
 31
0.0
  0
LINE
  5
206
330
1F
100
AcDbEntity
  8
0
  6
SLD-Solid
 62
     7
370
    15
100
AcDbLine
 10
540.8901801474
 20
1243.5692218856
 30
0.0
 11
542.7927604086
 21
1260.2679995613
 31
0.0
  0
LINE
  5
207
330
1F
100
AcDbEntity
  8
0
  6
SLD-Solid
 62
     7
370
    15
100
AcDbLine
 10
548.1969198353
 20
1260.2679995613
 30
0.0
 11
550.1012137301
 21
1243.5541419105
 31
0.0
  0
LINE
  5
208
330
1F
100
AcDbEntity
  8
0
  6
SLD-Solid
 62
     7
370
    15
100
AcDbLine
 10
648.1969213254
 20
1260.2679995613
 30
0.0
 11
650.1103719838
 21
1243.473854454
 31
0.0
  0
LINE
  5
209
330
1F
100
AcDbEntity
  8
0
  6
SLD-Solid
 62
     7
370
    15
100
AcDbLine
 10
640.8811217315
 20
1243.4897092895
 30
0.0
 11
642.7927693493
 21
1260.2679995613
 31
0.0
  0
LINE
  5
20A
330
1F
100
AcDbEntity
  8
0
  6
SLD-Solid
 62
     7
370
    15
100
AcDbLine
 10
822.7927690513
 20
1260.2679995613
 30
0.0
 11
820.879318393
 21
1243.473854454
 31
0.0
  0
LINE
  5
20B
330
1F
100
AcDbEntity
  8
0
  6
SLD-Solid
 62
     7
370
    15
100
AcDbLine
 10
830.1085611946
 20
1243.4897092895
 30
0.0
 11
828.1969210274
 21
1260.2679995613
 31
0.0
  0
LINE
  5
20C
330
1F
100
AcDbEntity
  8
0
  6
SLD-Solid
 62
     7
370
    15
100
AcDbLine
 10
922.7927705414
 20
1260.2679995613
 30
0.0
 11
920.8884617455
 21
1243.5541419105
 31
0.0
  0
LINE
  5
20D
330
1F
100
AcDbEntity
  8
0
  6
SLD-Solid
 62
     7
370
    15
100
AcDbLine
 10
930.0995102293
 20
1243.5692218856
 30
0.0
 11
928.1969150669
 21
1260.2679995613
 31
0.0
  0
ARC
  5
20E
330
1F
100
AcDbEntity
  8
0
  6
SLD-Solid
 62
     7
370
    15
100
AcDbCircle
 10
546.2097745554
 20
1260.0415978505
 30
0.0
 40
2.000000000000083
100
AcDbArc
 50
6.5
 51
90.0
  0
LINE
  5
20F
330
1F
100
AcDbEntity
  8
0
  6
SLD-Solid
 62
     7
370
    15
100
AcDbLine
 10
544.7799047596
 20
1262.0415953712
 30
0.0
 11
546.2097754843
 21
1262.0415953712
 31
0.0
  0
ARC
  5
210
330
1F
100
AcDbEntity
  8
0
  6
SLD-Solid
 62
     7
370
    15
100
AcDbCircle
 10
544.779911053
 20
1260.0415978505
 30
0.0
 40
2.0
100
AcDbArc
 50
90.0
 51
173.5
  0
LINE
  5
211
330
1F
100
AcDbEntity
  8
0
  6
SLD-Solid
 62
     7
370
    15
100
AcDbLine
 10
644.7799137003
 20
1262.0415953712
 30
0.0
 11
646.2097769744
 21
1262.0415953712
 31
0.0
  0
ARC
  5
212
330
1F
100
AcDbEntity
  8
0
  6
SLD-Solid
 62
     7
370
    15
100
AcDbCircle
 10
646.2097745554
 20
1260.0415978505
 30
0.0
 40
2.0
100
AcDbArc
 50
6.5
 51
90.0
  0
ARC
  5
213
330
1F
100
AcDbEntity
  8
0
  6
SLD-Solid
 62
     7
370
    15
100
AcDbCircle
 10
644.779911053
 20
1260.0415978505
 30
0.0
 40
2.0
100
AcDbArc
 50
90.0
 51
173.5
  0
ARC
  5
214
330
1F
100
AcDbEntity
  8
0
  6
SLD-Solid
 62
     7
370
    15
100
AcDbCircle
 10
824.779911053
 20
1260.0415978505
 30
0.0
 40
2.000000000000083
100
AcDbArc
 50
90.0
 51
173.5
  0
LINE
  5
215
330
1F
100
AcDbEntity
  8
0
  6
SLD-Solid
 62
     7
370
    15
100
AcDbLine
 10
826.2097766764
 20
1262.0415953712
 30
0.0
 11
824.7799134023
 21
1262.0415953712
 31
0.0
  0
ARC
  5
216
330
1F
100
AcDbEntity
  8
0
  6
SLD-Solid
 62
     7
370
    15
100
AcDbCircle
 10
826.2097745554
 20
1260.0415978505
 30
0.0
 40
2.000000000000083
100
AcDbArc
 50
6.5
 51
90.0
  0
ARC
  5
217
330
1F
100
AcDbEntity
  8
0
  6
SLD-Solid
 62
     7
370
    15
100
AcDbCircle
 10
926.2097745554
 20
1260.0415978505
 30
0.0
 40
2.000000000000083
100
AcDbArc
 50
6.5
 51
90.0
  0
ARC
  5
218
330
1F
100
AcDbEntity
  8
0
  6
SLD-Solid
 62
     7
370
    15
100
AcDbCircle
 10
924.779911053
 20
1260.0415978505
 30
0.0
 40
2.0
100
AcDbArc
 50
90.0
 51
173.5
  0
LINE
  5
219
330
1F
100
AcDbEntity
  8
0
  6
SLD-Solid
 62
     7
370
    15
100
AcDbLine
 10
926.2097707159
 20
1262.0415953712
 30
0.0
 11
924.7799148924
 21
1262.0415953712
 31
0.0
  0
ELLIPSE
  5
21A
330
1F
100
AcDbEntity
  8
0
  6
SLD-Solid
 62
     7
370
    15
100
AcDbEllipse
 10
489.2667223108
 20
1227.0415978505
 30
0.0
 11
5.229180776432599
 21
34.80854219515594
 31
0.0
210
0.0
220
0.0
230
0.9999999999999999
 40
0.6991287568
 41
0.1046443262353249
 42
1.222624058285298
  0
LINE
  5
21B
330
1F
100
AcDbEntity
  8
0
  6
SLD-Solid
 62
     7
370
    15
100
AcDbLine
 10
492.9364254839
 20
1262.0415953712
 30
0.0
 11
491.9253518946
 21
1262.0415953712
 31
0.0
  0
LINE
  5
21C
330
1F
100
AcDbEntity
  8
0
  6
SLD-Solid
 62
     7
370
    15
100
AcDbLine
 10
978.0532648928
 20
1262.0415953712
 30
0.0
 11
979.064323581
 21
1262.0415953712
 31
0.0
  0
ELLIPSE
  5
21D
330
1F
100
AcDbEntity
  8
0
  6
SLD-Solid
 62
     7
370
    15
100
AcDbEllipse
 10
533.002843881
 20
1202.0941959295
 30
0.0
 11
-7.907130209246475
 21
49.69431533888177
 31
0.0
210
0.0
220
0.0
230
1.0
 40
0.6981570542
 41
0.0045629715855885
 42
0.6136893060892971
  0
ELLIPSE
  5
21E
330
1F
100
AcDbEntity
  8
0
  6
SLD-Solid
 62
     7
370
    15
100
AcDbEllipse
 10
937.9868417274
 20
1202.0941959295
 30
0.0
 11
7.907130209246362
 21
49.69431533888179
 31
0.0
210
0.0
220
0.0
230
1.0
 40
0.6981570542
 41
5.669496001090303
 42
6.278622335594014
  0
LINE
  5
21F
330
1F
100
AcDbEntity
  8
0
  6
SLD-Solid
 62
     7
370
    15
100
AcDbLine
 10
696.9926027722
 20
1262.0415953712
 30
0.0
 11
698.003668911
 21
1262.0415953712
 31
0.0
  0
ELLIPSE
  5
220
330
1F
100
AcDbEntity
  8
0
  6
SLD-Solid
 62
     7
370
    15
100
AcDbEllipse
 10
770.3273824826
 20
1227.0415978505
 30
0.0
 11
5.229180776432599
 21
34.80854219515594
 31
0.0
210
0.0
220
0.0
230
1.0
 40
0.6991287568
 41
0.104644326235323
 42
1.222891578588129
  0
LINE
  5
221
330
1F
100
AcDbEntity
  8
0
  6
SLD-Solid
 62
     7
370
    15
100
AcDbLine
 10
773.9970801539
 20
1262.0415953712
 30
0.0
 11
772.9860140152
 21
1262.0415953712
 31
0.0
  0
ELLIPSE
  5
222
330
1F
100
AcDbEntity
  8
0
  6
SLD-Solid
 62
     7
370
    15
100
AcDbEllipse
 10
657.9995601058
 20
1202.0610948195
 30
0.0
 11
7.907130209246362
 21
49.69431533888179
 31
0.0
210
0.0
220
0.0
230
1.0
 40
0.6981570542
 41
5.670495650653997
 42
6.296555982904366
  0
ELLIPSE
  5
223
330
1F
100
AcDbEntity
  8
0
  6
SLD-Solid
 62
     7
370
    15
100
AcDbEllipse
 10
812.9901255026
 20
1202.0610948195
 30
0.0
 11
-7.907130209246362
 21
49.69431533888179
 31
0.0
210
0.0
220
0.0
230
1.0
 40
0.6981570542
 41
6.269814631454846
 42
6.895874963705206
  0
LINE
  5
224
330
1F
100
AcDbEntity
  8
0
  6
SLD-Solid
 62
     7
370
    15
100
AcDbLine
 10
492.9364254839
 20
1262.0415953712
 30
0.0
 11
523.3751764662
 21
1262.0415953712
 31
0.0
  0
LINE
  5
225
330
1F
100
AcDbEntity
  8
0
  6
SLD-Solid
 62
     7
370
    15
100
AcDbLine
 10
978.0532648928
 20
1262.0415953712
 30
0.0
 11
947.6145139105
 21
1262.0415953712
 31
0.0
  0
LINE
  5
226
330
1F
100
AcDbEntity
  8
0
  6
SLD-Solid
 62
     7
370
    15
100
AcDbLine
 10
666.9958761103
 20
1262.0415953712
 30
0.0
 11
696.9926027722
 21
1262.0415953712
 31
0.0
  0
LINE
  5
227
330
1F
100
AcDbEntity
  8
0
  6
SLD-Solid
 62
     7
370
    15
100
AcDbLine
 10
803.9938068158
 20
1262.0415953712
 30
0.0
 11
773.9970801539
 21
1262.0415953712
 31
0.0
  0
SPLINE
  5
228
330
1F
100
AcDbEntity
  8
0
  6
SLD-Solid
 62
     7
370
    15
100
AcDbSpline
210
0.0
220
0.0
230
1.0
 70
     8
 71
     3
 72
    10
 73
     6
 74
     0
 42
0.00000001
 43
0.00000001
 40
0.0
 40
0.0
 40
0.0
 40
0.0
 40
0.253859456995923
 40
0.6873557834770622
 40
1.0
 40
1.0
 40
1.0
 40
1.0
 10
525.8780649072985
 20
1251.980688960975
 30
0.0
 10
525.8848655818475
 20
1251.97039284882
 30
0.0
 10
525.903279246787
 20
1251.942514855535
 30
0.0
 10
525.5479677356647
 20
1251.867766985233
 30
0.0
 10
525.1177545630408
 20
1251.793819220519
 30
0.0
 10
524.9374887115816
 20
1251.762833984321
 30
0.0
  0
SPLINE
  5
229
330
1F
100
AcDbEntity
  8
0
  6
SLD-Solid
 62
     7
370
    15
100
AcDbSpline
210
0.0
220
0.0
230
1.0
 70
     8
 71
     3
 72
    10
 73
     6
 74
     0
 42
0.00000001
 43
0.00000001
 40
0.0
 40
0.0
 40
0.0
 40
0.0
 40
0.253859198810776
 40
0.6873529546984318
 40
1.0
 40
1.0
 40
1.0
 40
1.0
 10
945.1116105682711
 20
1251.980688960975
 30
0.0
 10
945.1048166367334
 20
1251.970392891551
 30
0.0
 10
945.0864212863255
 20
1251.942515100344
 30
0.0
 10
945.4417017108183
 20
1251.867766060984
 30
0.0
 10
945.871928527796
 20
1251.793819137612
 30
0.0
 10
946.0522016651491
 20
1251.762833984321
 30
0.0
  0
SPLINE
  5
22A
330
1F
100
AcDbEntity
  8
0
  6
SLD-Solid
 62
     7
370
    15
100
AcDbSpline
210
0.0
220
0.0
230
1.0
 70
     8
 71
     3
 72
    10
 73
     6
 74
     0
 42
0.00000001
 43
0.00000001
 40
0.0
 40
0.0
 40
0.0
 40
0.0
 40
0.3720609093043245
 40
0.8045473072705032
 40
1.0
 40
1.0
 40
1.0
 40
1.0
 10
665.4421096808771
 20
1251.824763210243
 30
0.0
 10
665.2306909861629
 20
1251.855277294747
 30
0.0
 10
664.77351761136
 20
1251.921261180471
 30
0.0
 10
664.4480960849609
 20
1251.977007816174
 30
0.0
 10
664.4848031949971
 20
1251.994179240906
 30
0.0
 10
664.4962286717752
 20
1251.999524028724
 30
0.0
  0
SPLINE
  5
22B
330
1F
100
AcDbEntity
  8
0
  6
SLD-Solid
 62
     7
370
    15
100
AcDbSpline
210
0.0
220
0.0
230
1.0
 70
     8
 71
     3
 72
    10
 73
     6
 74
     0
 42
0.00000001
 43
0.00000001
 40
0.0
 40
0.0
 40
0.0
 40
0.0
 40
0.3720622356260945
 40
0.8045474553130709
 40
1.0
 40
1.0
 40
1.0
 40
1.0
 10
805.547573245273
 20
1251.824763210243
 30
0.0
 10
805.7589956085852
 20
1251.855277260815
 30
0.0
 10
806.2161753707637
 20
1251.921260850087
 30
0.0
 10
806.5415857555213
 20
1251.977007876303
 30
0.0
 10
806.5048794852468
 20
1251.994179249658
 30
0.0
 10
806.4934542543749
 20
1251.999524028724
 30
0.0
  0
ARC
  5
22C
330
1F
100
AcDbEntity
  8
0
  6
SLD-Solid
 62
     7
370
    15
100
AcDbCircle
 10
462.2454773587
 20
1244.5415978505
 30
0.0
 40
5.0
100
AcDbArc
 50
270.0
 51
336.0375110254
  0
ARC
  5
22D
330
1F
100
AcDbEntity
  8
0
  6
SLD-Solid
 62
     7
370
    15
100
AcDbCircle
 10
1008.7442082496
 20
1244.5415978505
 30
0.0
 40
5.0
100
AcDbArc
 50
203.9624889746
 51
270.0
  0
ARC
  5
22E
330
1F
100
AcDbEntity
  8
0
  6
SLD-Solid
 62
     7
370
    15
100
AcDbCircle
 10
727.7442082496
 20
1244.5415978505
 30
0.0
 40
5.0
100
AcDbArc
 50
203.9624889746
 51
270.0
  0
ARC
  5
22F
330
1F
100
AcDbEntity
  8
0
  6
SLD-Solid
 62
     7
370
    15
100
AcDbCircle
 10
743.2454773587
 20
1244.5415978505
 30
0.0
 40
5.0
100
AcDbArc
 50
270.0
 51
336.0375110254
  0
SPLINE
  5
230
330
1F
100
AcDbEntity
  8
0
  6
SLD-Solid
 62
     7
370
    15
100
AcDbSpline
210
0.0
220
0.0
230
1.0
 70
     8
 71
     3
 72
     9
 73
     5
 74
     0
 42
0.00000001
 43
0.00000001
 40
0.0
 40
0.0
 40
0.0
 40
0.0
 40
0.5599663259030508
 40
1.0
 40
1.0
 40
1.0
 40
1.0
 10
714.9301642693142
 20
1261.062112243598
 30
0.0
 10
716.4686296538132
 20
1257.600587961419
 30
0.0
 10
719.2160544780079
 20
1251.418922882547
 30
0.0
 10
721.9653627118354
 20
1245.232927909105
 30
0.0
 10
723.1751509151916
 20
1242.510881812995
 30
0.0
  0
SPLINE
  5
231
330
1F
100
AcDbEntity
  8
0
  6
SLD-Solid
 62
     7
370
    15
100
AcDbSpline
210
0.0
220
0.0
230
1.0
 70
     8
 71
     3
 72
     9
 73
     5
 74
     0
 42
0.00000001
 43
0.00000001
 40
0.0
 40
0.0
 40
0.0
 40
0.0
 40
0.5599663340455066
 40
1.0
 40
1.0
 40
1.0
 40
1.0
 10
756.0595223821263
 20
1261.062112243598
 30
0.0
 10
754.5210566145133
 20
1257.600587993471
 30
0.0
 10
751.7736311460959
 20
1251.418923061726
 30
0.0
 10
749.0243229633976
 20
1245.232927928879
 30
0.0
 10
747.8145348049263
 20
1242.510881812995
 30
0.0
  0
LINE
  5
232
330
1F
100
AcDbEntity
  8
0
  6
SLD-Solid
 62
     7
370
    15
100
AcDbLine
 10
466.8145408995
 20
1242.510881813
 30
0.0
 11
474.9669661887
 21
1260.8538536148
 31
0.0
  0
LINE
  5
233
330
1F
100
AcDbEntity
  8
0
  6
SLD-Solid
 62
     7
370
    15
100
AcDbLine
 10
1004.1751494772
 20
1242.510881813
 30
0.0
 11
996.0227241881
 21
1260.8538536148
 31
0.0
  0
ARC
  5
234
330
1F
100
AcDbEntity
  8
0
  6
SLD-Solid
 62
     7
370
    15
100
AcDbCircle
 10
476.7945889824
 20
1260.0415978505
 30
0.0
 40
2.000000000000005
100
AcDbArc
 50
90.0
 51
156.0375110254
  0
LINE
  5
235
330
1F
100
AcDbEntity
  8
0
  6
SLD-Solid
 62
     7
370
    15
100
AcDbLine
 10
476.7945936091
 20
1262.0415953712
 30
0.0
 11
477.436505831
 21
1262.0415953712
 31
0.0
  0
ARC
  5
236
330
1F
100
AcDbEntity
  8
0
  6
SLD-Solid
 62
     7
370
    15
100
AcDbCircle
 10
994.195096626
 20
1260.0415978505
 30
0.0
 40
2.0
100
AcDbArc
 50
23.9624889746
 51
90.0
  0
LINE
  5
237
330
1F
100
AcDbEntity
  8
0
  6
SLD-Solid
 62
     7
370
    15
100
AcDbLine
 10
994.1950967677
 20
1262.0415953712
 30
0.0
 11
993.5531845457
 21
1262.0415953712
 31
0.0
  0
SPLINE
  5
238
330
1F
100
AcDbEntity
  8
0
  6
SLD-Solid
 62
     7
370
    15
100
AcDbSpline
210
0.0
220
0.0
230
1.0
 70
     8
 71
     3
 72
    14
 73
    10
 74
     0
 42
0.00000001
 43
0.00000001
 40
0.0
 40
0.0
 40
0.0
 40
0.0
 40
0.1883931208655784
 40
0.3596873201823907
 40
0.6003405766455769
 40
0.7898537094675834
 40
0.9055953201065723
 40
0.9965042302866198
 40
1.0
 40
1.0
 40
1.0
 40
1.0
 10
711.5101112193922
 20
1260.622706802314
 30
0.0
 10
711.5383806841073
 20
1260.767079964359
 30
0.0
 10
711.5923538226152
 20
1261.042722702923
 30
0.0
 10
711.8300527196927
 20
1261.451460201755
 30
0.0
 10
712.1748874993413
 20
1261.778964011415
 30
0.0
 10
712.563118738737
 20
1261.962392953365
 30
0.0
 10
712.864259179876
 20
1262.029663746316
 30
0.0
 10
713.0274248445733
 20
1262.041665245974
 30
0.0
 10
713.1006630558475
 20
1262.041597866238
 30
0.0
 10
713.103375039206
 20
1262.041595371192
 30
0.0
  0
LINE
  5
239
330
1F
100
AcDbEntity
  8
0
  6
SLD-Solid
 62
     7
370
    15
100
AcDbLine
 10
711.5101112194
 20
1260.6227068023
 30
0.0
 11
711.5079840786
 21
1260.6345681266
 31
0.0
  0
LINE
  5
23A
330
1F
100
AcDbEntity
  8
0
  6
SLD-Solid
 62
     7
370
    15
100
AcDbLine
 10
713.1033750392
 20
1262.0415953712
 30
0.0
 11
713.4550461687
 21
1262.0415953712
 31
0.0
  0
SPLINE
  5
23B
330
1F
100
AcDbEntity
  8
0
  6
SLD-Solid
 62
     7
370
    15
100
AcDbSpline
210
0.0
220
0.0
230
1.0
 70
     8
 71
     3
 72
    14
 73
    10
 74
     0
 42
0.00000001
 43
0.00000001
 40
0.0
 40
0.0
 40
0.0
 40
0.0
 40
0.188393197496562
 40
0.3596878600393523
 40
0.6003412143909097
 40
0.789854424299477
 40
0.9055960820176451
 40
0.9965050291758963
 40
1.0
 40
1.0
 40
1.0
 40
1.0
 10
759.4795754320483
 20
1260.622706802314
 30
0.0
 10
759.4513061334981
 20
1260.767080059613
 30
0.0
 10
759.397333253185
 20
1261.042723281635
 30
0.0
 10
759.1596315354061
 20
1261.45145955719
 30
0.0
 10
758.8147974712675
 20
1261.778964111041
 30
0.0
 10
758.4265660243893
 20
1261.962392947285
 30
0.0
 10
758.1254256135194
 20
1262.029663732093
 30
0.0
 10
757.9622605652074
 20
1262.041665229486
 30
0.0
 10
757.8890229747228
 20
1262.041597865119
 30
0.0
 10
757.8863116122345
 20
1262.041595371192
 30
0.0
  0
LINE
  5
23C
330
1F
100
AcDbEntity
  8
0
  6
SLD-Solid
 62
     7
370
    15
100
AcDbLine
 10
759.479575432
 20
1260.6227068023
 30
0.0
 11
759.4817025728
 21
1260.6345681266
 31
0.0
  0
LINE
  5
23D
330
1F
100
AcDbEntity
  8
0
  6
SLD-Solid
 62
     7
370
    15
100
AcDbLine
 10
757.8863116122
 20
1262.0415953712
 30
0.0
 11
757.5346404828
 21
1262.0415953712
 31
0.0
  0
LINE
  5
23E
330
1F
100
AcDbEntity
  8
0
  6
SLD-Solid
 62
     7
370
    15
100
AcDbLine
 10
714.9171443797
 20
1261.0914377288
 30
0.0
 11
714.9301642693
 21
1261.0621122436
 31
0.0
  0
LINE
  5
23F
330
1F
100
AcDbEntity
  8
0
  6
SLD-Solid
 62
     7
370
    15
100
AcDbLine
 10
756.0725404091
 20
1261.0914377288
 30
0.0
 11
756.0595223821
 21
1261.0621122436
 31
0.0
  0
ARC
  5
240
330
1F
100
AcDbEntity
  8
0
  6
SLD-Solid
 62
     7
370
    15
100
AcDbCircle
 10
713.4550458616
 20
1260.4415978505
 30
0.0
 40
1.600000000000364
100
AcDbArc
 50
23.9624889746
 51
90.0
  0
ARC
  5
241
330
1F
100
AcDbEntity
  8
0
  6
SLD-Solid
 62
     7
370
    15
100
AcDbCircle
 10
757.5346397467
 20
1260.4415978505
 30
0.0
 40
1.600000000000364
100
AcDbArc
 50
90.0
 51
156.0375110254
  0
ARC
  5
242
330
1F
100
AcDbEntity
  8
0
  6
SLD-Solid
 62
     7
370
    15
100
AcDbCircle
 10
560.2447610067
 20
1117.1251856648
 30
0.0
 40
135.0000000000001
100
AcDbArc
 50
93.487847246
 51
94.7028122098
  0
ARC
  5
243
330
1F
100
AcDbEntity
  8
0
  6
SLD-Solid
 62
     7
370
    15
100
AcDbCircle
 10
560.2447610067
 20
1117.1251856648
 30
0.0
 40
135.0000000000001
100
AcDbArc
 50
97.9001814258
 51
112.6591189244
  0
ARC
  5
244
330
1F
100
AcDbEntity
  8
0
  6
SLD-Solid
 62
     7
370
    15
100
AcDbCircle
 10
910.7449246016
 20
1117.1251856648
 30
0.0
 40
135.0000000000002
100
AcDbArc
 50
85.2971877902
 51
86.512152754
  0
ARC
  5
245
330
1F
100
AcDbEntity
  8
0
  6
SLD-Solid
 62
     7
370
    15
100
AcDbCircle
 10
910.7449246016
 20
1117.1251856648
 30
0.0
 40
135.0000000000002
100
AcDbArc
 50
67.3408810756
 51
82.0998185742
  0
ARC
  5
246
330
1F
100
AcDbEntity
  8
0
  6
SLD-Solid
 62
     7
370
    15
100
AcDbCircle
 10
630.7449246016
 20
1117.1251856648
 30
0.0
 40
135.0000000000001
100
AcDbArc
 50
67.3515265346
 51
82.1127497541
  0
ARC
  5
247
330
1F
100
AcDbEntity
  8
0
  6
SLD-Solid
 62
     7
370
    15
100
AcDbCircle
 10
630.7449246016
 20
1117.1251856648
 30
0.0
 40
135.0000000000002
100
AcDbArc
 50
85.2971877902
 51
86.512152754
  0
ARC
  5
248
330
1F
100
AcDbEntity
  8
0
  6
SLD-Solid
 62
     7
370
    15
100
AcDbCircle
 10
840.2447610067
 20
1117.1251856648
 30
0.0
 40
135.0000000000002
100
AcDbArc
 50
97.8872502459
 51
112.6484734654
  0
ARC
  5
249
330
1F
100
AcDbEntity
  8
0
  6
SLD-Solid
 62
     7
370
    15
100
AcDbCircle
 10
840.2447610067
 20
1117.1251856648
 30
0.0
 40
135.0000000000002
100
AcDbArc
 50
93.487847246
 51
94.7028122098
  0
SPLINE
  5
24A
330
1F
100
AcDbEntity
  8
0
  6
SLD-Solid
 62
     7
370
    15
100
AcDbSpline
210
0.0
220
0.0
230
1.0
 70
     8
 71
     3
 72
    11
 73
     7
 74
     0
 42
0.00000001
 43
0.00000001
 40
0.0
 40
0.0
 40
0.0
 40
0.0
 40
0.2779846225100516
 40
0.561644247687298
 40
0.7829876573112443
 40
1.0
 40
1.0
 40
1.0
 40
1.0
 10
635.4948436982493
 20
1252.041604907935
 30
0.0
 10
635.5615026988089
 20
1252.803526229478
 30
0.0
 10
635.6961815306195
 20
1254.342923349977
 30
0.0
 10
635.8811617018163
 20
1256.457193386412
 30
0.0
 10
636.0529966121657
 20
1258.421304344394
 30
0.0
 10
636.1580131193751
 20
1259.621658116693
 30
0.0
 10
636.2100025780062
 20
1260.215905101722
 30
0.0
  0
SPLINE
  5
24B
330
1F
100
AcDbEntity
  8
0
  6
SLD-Solid
 62
     7
370
    15
100
AcDbSpline
210
0.0
220
0.0
230
1.0
 70
     8
 71
     3
 72
    12
 73
     8
 74
     0
 42
0.00000001
 43
0.00000001
 40
0.0
 40
0.0
 40
0.0
 40
0.0
 40
0.1949236837198036
 40
0.4099388686942471
 40
0.6250666446001109
 40
0.8407029206919161
 40
1.0
 40
1.0
 40
1.0
 40
1.0
 10
638.9578959114413
 20
1251.875129135078
 30
0.0
 10
638.6039293257859
 20
1251.89587021115
 30
0.0
 10
637.8595115161593
 20
1251.939490222317
 30
0.0
 10
636.834768049081
 20
1251.988743449962
 30
0.0
 10
636.024592298234
 20
1252.022444668233
 30
0.0
 10
635.5661222215314
 20
1252.039129209281
 30
0.0
 10
635.5160975614486
 20
1252.04086670296
 30
0.0
 10
635.4948436982493
 20
1252.041604907935
 30
0.0
  0
SPLINE
  5
24C
330
1F
100
AcDbEntity
  8
0
  6
SLD-Solid
 62
     7
370
    15
100
AcDbSpline
210
0.0
220
0.0
230
1.0
 70
     8
 71
     3
 72
    11
 73
     7
 74
     0
 42
0.00000001
 43
0.00000001
 40
0.0
 40
0.0
 40
0.0
 40
0.0
 40
0.2779846223135498
 40
0.5616441691918667
 40
0.7829875786593496
 40
1.0
 40
1.0
 40
1.0
 40
1.0
 10
835.4948392279009
 20
1252.041604907935
 30
0.0
 10
835.4281794522243
 20
1252.803526163226
 30
0.0
 10
835.2934990730838
 20
1254.342922935809
 30
0.0
 10
835.1085299698565
 20
1256.45719371026
 30
0.0
 10
834.9366953111735
 20
1258.421304696792
 30
0.0
 10
834.831672792395
 20
1259.621658160501
 30
0.0
 10
834.779680348144
 20
1260.215905101722
 30
0.0
  0
SPLINE
  5
24D
330
1F
100
AcDbEntity
  8
0
  6
SLD-Solid
 62
     7
370
    15
100
AcDbSpline
210
0.0
220
0.0
230
1.0
 70
     8
 71
     3
 72
    12
 73
     8
 74
     0
 42
0.00000001
 43
0.00000001
 40
0.0
 40
0.0
 40
0.0
 40
0.0
 40
0.1949250065015072
 40
0.4099389496623205
 40
0.6250666960483927
 40
0.8407029425506303
 40
0.9999999999999999
 40
0.9999999999999999
 40
0.9999999999999999
 40
0.9999999999999999
 10
832.0317870147089
 20
1251.875129135078
 30
0.0
 10
832.3857563392074
 20
1251.895870159439
 30
0.0
 10
833.1301750041184
 20
1251.939489774458
 30
0.0
 10
834.1549159456185
 20
1251.988743666012
 30
0.0
 10
834.9650907501181
 20
1252.022444626961
 30
0.0
 10
835.4235606831588
 20
1252.039129216529
 30
0.0
 10
835.4735853583026
 20
1252.040866705122
 30
0.0
 10
835.4948392279009
 20
1252.041604907935
 30
0.0
  0
SPLINE
  5
24E
330
1F
100
AcDbEntity
  8
0
  6
SLD-Solid
 62
     7
370
    15
100
AcDbSpline
210
0.0
220
0.0
230
1.0
 70
     8
 71
     3
 72
    11
 73
     7
 74
     0
 42
0.00000001
 43
0.00000001
 40
0.0
 40
0.0
 40
0.0
 40
0.0
 40
0.2768026832909441
 40
0.559981323042305
 40
0.7821022168755347
 40
1.0
 40
1.0
 40
1.0
 40
1.0
 10
554.7796866066317
 20
1260.215905101722
 30
0.0
 10
554.8460775534206
 20
1259.457063321877
 30
0.0
 10
554.9803887160833
 20
1257.921900371847
 30
0.0
 10
555.1655681028057
 20
1255.805317554421
 30
0.0
 10
555.3371235120239
 20
1253.844244350501
 30
0.0
 10
555.4426039799906
 20
1252.638627724873
 30
0.0
 10
555.494838035808
 20
1252.041604907935
 30
0.0
  0
SPLINE
  5
24F
330
1F
100
AcDbEntity
  8
0
  6
SLD-Solid
 62
     7
370
    15
100
AcDbSpline
210
0.0
220
0.0
230
1.0
 70
     8
 71
     3
 72
    12
 73
     8
 74
     0
 42
0.00000001
 43
0.00000001
 40
0.0
 40
0.0
 40
0.0
 40
0.0
 40
0.1857068643302489
 40
0.4017200115355413
 40
0.6178896274704236
 40
0.8334746390078002
 40
1.0
 40
1.0
 40
1.0
 40
1.0
 10
555.494838035808
 20
1252.041604907935
 30
0.0
 10
555.4661068275971
 20
1252.040593275124
 30
0.0
 10
555.4039556446803
 20
1252.038404916896
 30
0.0
 10
554.8790754808207
 20
1252.019130390276
 30
0.0
 10
554.0301414551348
 20
1251.983181229196
 30
0.0
 10
553.0269200349023
 20
1251.93374521873
 30
0.0
 10
552.3338403931723
 20
1251.892920656653
 30
0.0
 10
552.0317932731966
 20
1251.875129135078
 30
0.0
  0
SPLINE
  5
250
330
1F
100
AcDbEntity
  8
0
  6
SLD-Solid
 62
     7
370
    15
100
AcDbSpline
210
0.0
220
0.0
230
1.0
 70
     8
 71
     3
 72
    11
 73
     7
 74
     0
 42
0.00000001
 43
0.00000001
 40
0.0
 40
0.0
 40
0.0
 40
0.0
 40
0.2768026399747298
 40
0.5599812354121174
 40
0.782102250973857
 40
1.0
 40
1.0
 40
1.0
 40
1.0
 10
916.2100037700991
 20
1260.215905101722
 30
0.0
 10
916.1436122134161
 20
1259.457063374509
 30
0.0
 10
916.0092998169174
 20
1257.921900530955
 30
0.0
 10
915.8241291284601
 20
1255.8053165362
 30
0.0
 10
915.6525472463333
 20
1253.844245188048
 30
0.0
 10
915.5470699208441
 20
1252.638627860259
 30
0.0
 10
915.4948374397616
 20
1252.041604907935
 30
0.0
  0
SPLINE
  5
251
330
1F
100
AcDbEntity
  8
0
  6
SLD-Solid
 62
     7
370
    15
100
AcDbSpline
210
0.0
220
0.0
230
1.0
 70
     8
 71
     3
 72
    12
 73
     8
 74
     0
 42
0.00000001
 43
0.00000001
 40
0.0
 40
0.0
 40
0.0
 40
0.0
 40
0.185706639568697
 40
0.4017207356355316
 40
0.6178900899397063
 40
0.8334748405539233
 40
0.9999999999999999
 40
0.9999999999999999
 40
0.9999999999999999
 40
0.9999999999999999
 10
915.4948374397616
 20
1252.041604907935
 30
0.0
 10
915.5235676279508
 20
1252.040593262501
 30
0.0
 10
915.5857167916059
 20
1252.038404870372
 30
0.0
 10
916.1106179078471
 20
1252.01913048864
 30
0.0
 10
916.9595476881876
 20
1251.983181220828
 30
0.0
 10
917.9627705695527
 20
1251.933745220275
 30
0.0
 10
918.6558500526787
 20
1251.892920657122
 30
0.0
 10
918.9578971035342
 20
1251.875129135078
 30
0.0
  0
LINE
  5
252
330
1F
100
AcDbEntity
  8
0
  6
SLD-Solid
 62
     7
370
    15
100
AcDbLine
 10
523.3751764662
 20
1262.0415953712
 30
0.0
 11
544.7799047596
 21
1262.0415953712
 31
0.0
  0
LINE
  5
253
330
1F
100
AcDbEntity
  8
0
  6
SLD-Solid
 62
     7
370
    15
100
AcDbLine
 10
546.2097754843
 20
1262.0415953712
 30
0.0
 11
552.7872970469
 21
1262.0415953712
 31
0.0
  0
ARC
  5
254
330
1F
100
AcDbEntity
  8
0
  6
SLD-Solid
 62
     7
370
    15
100
AcDbCircle
 10
552.7872938209
 20
1260.0415978505
 30
0.0
 40
2.0
100
AcDbArc
 50
5.0
 51
90.0
  0
LINE
  5
255
330
1F
100
AcDbEntity
  8
0
  6
SLD-Solid
 62
     7
370
    15
100
AcDbLine
 10
638.2023921378
 20
1262.0415953712
 30
0.0
 11
644.7799137003
 21
1262.0415953712
 31
0.0
  0
LINE
  5
256
330
1F
100
AcDbEntity
  8
0
  6
SLD-Solid
 62
     7
370
    15
100
AcDbLine
 10
646.2097769744
 20
1262.0415953712
 30
0.0
 11
666.9958761103
 21
1262.0415953712
 31
0.0
  0
ARC
  5
257
330
1F
100
AcDbEntity
  8
0
  6
SLD-Solid
 62
     7
370
    15
100
AcDbCircle
 10
638.2023917875
 20
1260.0415978505
 30
0.0
 40
2.000000000000153
100
AcDbArc
 50
90.0
 51
175.0
  0
LINE
  5
258
330
1F
100
AcDbEntity
  8
0
  6
SLD-Solid
 62
     7
370
    15
100
AcDbLine
 10
832.7872907884
 20
1262.0415953712
 30
0.0
 11
826.2097766764
 21
1262.0415953712
 31
0.0
  0
LINE
  5
259
330
1F
100
AcDbEntity
  8
0
  6
SLD-Solid
 62
     7
370
    15
100
AcDbLine
 10
824.7799134023
 20
1262.0415953712
 30
0.0
 11
803.9938068158
 21
1262.0415953712
 31
0.0
  0
ARC
  5
25A
330
1F
100
AcDbEntity
  8
0
  6
SLD-Solid
 62
     7
370
    15
100
AcDbCircle
 10
832.7872938209
 20
1260.0415978505
 30
0.0
 40
2.00000000000004
100
AcDbArc
 50
5.0
 51
90.0
  0
ARC
  5
25B
330
1F
100
AcDbEntity
  8
0
  6
SLD-Solid
 62
     7
370
    15
100
AcDbCircle
 10
918.2023917875
 20
1260.0415978505
 30
0.0
 40
2.00000000000002
100
AcDbArc
 50
90.0
 51
175.0
  0
LINE
  5
25C
330
1F
100
AcDbEntity
  8
0
  6
SLD-Solid
 62
     7
370
    15
100
AcDbLine
 10
947.6145139105
 20
1262.0415953712
 30
0.0
 11
926.2097707159
 21
1262.0415953712
 31
0.0
  0
LINE
  5
25D
330
1F
100
AcDbEntity
  8
0
  6
SLD-Solid
 62
     7
370
    15
100
AcDbLine
 10
924.7799148924
 20
1262.0415953712
 30
0.0
 11
918.2023933298
 21
1262.0415953712
 31
0.0
  0
LINE
  5
25E
330
1F
100
AcDbEntity
  8
0
  6
SLD-Solid
 62
     7
370
    15
100
AcDbLine
 10
640.829541362
 20
1243.0370120124
 30
0.0
 11
640.9377088911
 21
1243.9863351898
 31
0.0
  0
LINE
  5
25F
330
1F
100
AcDbEntity
  8
0
  6
SLD-Solid
 62
     7
370
    15
100
AcDbLine
 10
830.1085611946
 20
1243.4897092895
 30
0.0
 11
830.0519814856
 21
1243.9863351898
 31
0.0
  0
LINE
  5
260
330
1F
100
AcDbEntity
  8
0
  6
SLD-Solid
 62
     7
370
    15
100
AcDbLine
 10
870.8801796801
 20
1243.4814838485
 30
0.0
 11
870.8677670128
 21
1243.3818844871
 31
0.0
  0
LINE
  5
261
330
1F
100
AcDbEntity
  8
0
  6
SLD-Solid
 62
     7
370
    15
100
AcDbLine
 10
540.8901801474
 20
1243.5692218856
 30
0.0
 11
540.708773411
 21
1242.7010802345
 31
0.0
  0
LINE
  5
262
330
1F
100
AcDbEntity
  8
0
  6
SLD-Solid
 62
     7
370
    15
100
AcDbLine
 10
474.1948476202
 20
1199.0415720062
 30
0.0
 11
372.7948298819
 21
1199.0415720062
 31
0.0
  0
ARC
  5
263
330
1F
100
AcDbEntity
  8
0
  6
SLD-Solid
 62
     7
370
    15
100
AcDbCircle
 10
372.7948428042
 20
1200.0415978509
 30
0.0
 40
1.000000000000455
100
AcDbArc
 50
180.0
 51
270.0
  0
LINE
  5
264
330
1F
100
AcDbEntity
  8
0
  6
SLD-Solid
 62
     7
370
    15
100
AcDbLine
 10
371.7948427565
 20
1200.0416187362
 30
0.0
 11
371.7948427565
 21
1235.4415921287
 31
0.0
  0
LINE
  5
265
330
1F
100
AcDbEntity
  8
0
  6
SLD-Solid
 62
     7
370
    15
100
AcDbLine
 10
425.194852627
 20
1252.3757485465
 30
0.0
 11
425.194852627
 21
1252.3584035949
 31
0.0
  0
LINE
  5
266
330
1F
100
AcDbEntity
  8
0
  6
SLD-Solid
 62
     7
370
    15
100
AcDbLine
 10
475.1948347456
 20
1205.4416207389
 30
0.0
 11
475.1948347456
 21
1200.0416187362
 31
0.0
  0
ARC
  5
267
330
1F
100
AcDbEntity
  8
0
  6
SLD-Solid
 62
     7
370
    15
100
AcDbCircle
 10
474.1948428042
 20
1200.0415978509
 30
0.0
 40
1.000000000000227
100
AcDbArc
 50
270.0
 51
0.0
  0
LINE
  5
268
330
1F
100
AcDbEntity
  8
0
  6
SLD-Solid
 62
     7
370
    15
100
AcDbLine
 10
370.9948292143
 20
1235.4415921287
 30
0.0
 11
371.7948427565
 21
1235.4415921287
 31
0.0
  0
LINE
  5
269
330
1F
100
AcDbEntity
  8
0
  6
SLD-Solid
 62
     7
370
    15
100
AcDbLine
 10
370.9948292143
 20
1235.4415921287
 30
0.0
 11
370.9948292143
 21
1284.2210797386
 31
0.0
  0
LINE
  5
26A
330
1F
100
AcDbEntity
  8
0
  6
SLD-Solid
 62
     7
370
    15
100
AcDbLine
 10
371.7948427565
 20
1235.4415921287
 30
0.0
 11
371.7948427565
 21
1284.2210797386
 31
0.0
  0
LINE
  5
26B
330
1F
100
AcDbEntity
  8
0
  6
SLD-Solid
 62
     7
370
    15
100
AcDbLine
 10
373.5754123099
 20
1286.2012056426
 30
0.0
 11
406.8723848231
 21
1277.2792843894
 31
0.0
  0
LINE
  5
26C
330
1F
100
AcDbEntity
  8
0
  6
SLD-Solid
 62
     7
370
    15
100
AcDbLine
 10
373.3683755762
 20
1285.4284314231
 30
0.0
 11
406.6653182871
 21
1276.5065697746
 31
0.0
  0
ARC
  5
26D
330
1F
100
AcDbEntity
  8
0
  6
SLD-Solid
 62
     7
370
    15
100
AcDbCircle
 10
373.0448428042
 20
1284.2210530107
 30
0.0
 40
1.250000000000046
100
AcDbArc
 50
75.0
 51
180.0
  0
ARC
  5
26E
330
1F
100
AcDbEntity
  8
0
  6
SLD-Solid
 62
     7
370
    15
100
AcDbCircle
 10
373.0448428042
 20
1284.2210530107
 30
0.0
 40
2.050000000000011
100
AcDbArc
 50
75.0
 51
180.0
  0
ARC
  5
26F
330
1F
100
AcDbEntity
  8
0
  6
SLD-Solid
 62
     7
370
    15
100
AcDbCircle
 10
400.1948428042
 20
1252.3584231515
 30
0.0
 40
25.80000000000006
100
AcDbArc
 50
0.0
 51
75.0
  0
ARC
  5
270
330
1F
100
AcDbEntity
  8
0
  6
SLD-Solid
 62
     7
370
    15
100
AcDbCircle
 10
400.1948428042
 20
1252.3584231515
 30
0.0
 40
25.0
100
AcDbArc
 50
0.0
 51
75.0
  0
LINE
  5
271
330
1F
100
AcDbEntity
  8
0
  6
SLD-Solid
 62
     7
370
    15
100
AcDbLine
 10
425.9948363669
 20
1252.3584035949
 30
0.0
 11
425.9948363669
 21
1237.4915746765
 31
0.0
  0
LINE
  5
272
330
1F
100
AcDbEntity
  8
0
  6
SLD-Solid
 62
     7
370
    15
100
AcDbLine
 10
425.194852627
 20
1252.3584035949
 30
0.0
 11
425.194852627
 21
1237.4915746765
 31
0.0
  0
LINE
  5
273
330
1F
100
AcDbEntity
  8
0
  6
SLD-Solid
 62
     7
370
    15
100
AcDbLine
 10
427.2448351748
 20
1235.4415921287
 30
0.0
 11
448.4448364146
 21
1235.4415921287
 31
0.0
  0
LINE
  5
274
330
1F
100
AcDbEntity
  8
0
  6
SLD-Solid
 62
     7
370
    15
100
AcDbLine
 10
427.2448351748
 20
1236.2416056709
 30
0.0
 11
448.4448364146
 21
1236.2416056709
 31
0.0
  0
ARC
  5
275
330
1F
100
AcDbEntity
  8
0
  6
SLD-Solid
 62
     7
370
    15
100
AcDbCircle
 10
427.2448428042
 20
1237.4915978509
 30
0.0
 40
2.050000000000182
100
AcDbArc
 50
180.0
 51
270.0
  0
ARC
  5
276
330
1F
100
AcDbEntity
  8
0
  6
SLD-Solid
 62
     7
370
    15
100
AcDbCircle
 10
427.2448428042
 20
1237.4915978509
 30
0.0
 40
1.250000000000227
100
AcDbArc
 50
180.0
 51
270.0
  0
ARC
  5
277
330
1F
100
AcDbEntity
  8
0
  6
SLD-Solid
 62
     7
370
    15
100
AcDbCircle
 10
451.7448428042
 20
1217.4915978509
 30
0.0
 40
1.250000000000227
100
AcDbArc
 50
180.0
 51
270.0
  0
ARC
  5
278
330
1F
100
AcDbEntity
  8
0
  6
SLD-Solid
 62
     7
370
    15
100
AcDbCircle
 10
451.7448428042
 20
1217.4915978509
 30
0.0
 40
2.050000000000182
100
AcDbArc
 50
180.0
 51
270.0
  0
LINE
  5
279
330
1F
100
AcDbEntity
  8
0
  6
SLD-Solid
 62
     7
370
    15
100
AcDbLine
 10
451.7448475726
 20
1215.4416112022
 30
0.0
 11
473.9448359377
 21
1215.4416112022
 31
0.0
  0
LINE
  5
27A
330
1F
100
AcDbEntity
  8
0
  6
SLD-Solid
 62
     7
370
    15
100
AcDbLine
 10
451.7448475726
 20
1216.2416247444
 30
0.0
 11
473.9448359377
 21
1216.2416247444
 31
0.0
  0
ARC
  5
27B
330
1F
100
AcDbEntity
  8
0
  6
SLD-Solid
 62
     7
370
    15
100
AcDbCircle
 10
448.4448428042
 20
1234.1915978509
 30
0.0
 40
2.050000000000182
100
AcDbArc
 50
0.0
 51
90.0
  0
ARC
  5
27C
330
1F
100
AcDbEntity
  8
0
  6
SLD-Solid
 62
     7
370
    15
100
AcDbCircle
 10
448.4448428042
 20
1234.1915978509
 30
0.0
 40
1.250000000000227
100
AcDbArc
 50
0.0
 51
90.0
  0
LINE
  5
27D
330
1F
100
AcDbEntity
  8
0
  6
SLD-Solid
 62
     7
370
    15
100
AcDbLine
 10
449.6948352225
 20
1234.1916231231
 30
0.0
 11
449.6948352225
 21
1217.4915937499
 31
0.0
  0
LINE
  5
27E
330
1F
100
AcDbEntity
  8
0
  6
SLD-Solid
 62
     7
370
    15
100
AcDbLine
 10
450.4948487646
 20
1234.1916231231
 30
0.0
 11
450.4948487646
 21
1217.4915937499
 31
0.0
  0
ARC
  5
27F
330
1F
100
AcDbEntity
  8
0
  6
SLD-Solid
 62
     7
370
    15
100
AcDbCircle
 10
473.9448428042
 20
1214.1915978509
 30
0.0
 40
2.050000000000011
100
AcDbArc
 50
0.0
 51
90.0
  0
ARC
  5
280
330
1F
100
AcDbEntity
  8
0
  6
SLD-Solid
 62
     7
370
    15
100
AcDbCircle
 10
473.9448428042
 20
1214.1915978509
 30
0.0
 40
1.25
100
AcDbArc
 50
0.0
 51
90.0
  0
LINE
  5
281
330
1F
100
AcDbEntity
  8
0
  6
SLD-Solid
 62
     7
370
    15
100
AcDbLine
 10
475.9948482878
 20
1214.191582592
 30
0.0
 11
475.9948482878
 21
1205.4416207389
 31
0.0
  0
LINE
  5
282
330
1F
100
AcDbEntity
  8
0
  6
SLD-Solid
 62
     7
370
    15
100
AcDbLine
 10
475.1948347456
 20
1205.4416207389
 30
0.0
 11
475.9948482878
 21
1205.4416207389
 31
0.0
  0
LINE
  5
283
330
1F
100
AcDbEntity
  8
0
  6
SLD-Solid
 62
     7
370
    15
100
AcDbLine
 10
475.1948347456
 20
1214.191582592
 30
0.0
 11
475.1948347456
 21
1205.4416207389
 31
0.0
  0
LINE
  5
284
330
1F
100
AcDbEntity
  8
0
  6
SLD-Solid
 62
     7
370
    15
100
AcDbLine
 10
996.2048461802
 20
1213.7915758209
 30
0.0
 11
996.2048461802
 21
1201.0916141586
 31
0.0
  0
ARC
  5
285
330
1F
100
AcDbEntity
  8
0
  6
SLD-Solid
 62
     7
370
    15
100
AcDbCircle
 10
997.4448428042
 20
1213.7915978503
 30
0.0
 40
1.239999999999895
100
AcDbArc
 50
90.0
 51
180.0
  0
LINE
  5
286
330
1F
100
AcDbEntity
  8
0
  6
SLD-Solid
 62
     7
370
    15
100
AcDbLine
 10
1019.2448428042
 20
1215.0315908508
 30
0.0
 11
997.4448314078
 21
1215.0315908508
 31
0.0
  0
ARC
  5
287
330
1F
100
AcDbEntity
  8
0
  6
SLD-Solid
 62
     7
370
    15
100
AcDbCircle
 10
1019.2448428042
 20
1217.4915978503
 30
0.0
 40
2.460000000000264
100
AcDbArc
 50
270.0
 51
0.0
  0
LINE
  5
288
330
1F
100
AcDbEntity
  8
0
  6
SLD-Solid
 62
     7
370
    15
100
AcDbLine
 10
1021.7048457033
 20
1233.7416080551
 30
0.0
 11
1021.7048457033
 21
1217.4915937499
 31
0.0
  0
LINE
  5
289
330
1F
100
AcDbEntity
  8
0
  6
SLD-Solid
 62
     7
370
    15
100
AcDbLine
 10
1022.9448309309
 20
1233.7416080551
 30
0.0
 11
1021.7048457033
 21
1233.7416080551
 31
0.0
  0
LINE
  5
28A
330
1F
100
AcDbEntity
  8
0
  6
SLD-Solid
 62
     7
370
    15
100
AcDbLine
 10
1022.9448309309
 20
1233.791616352
 30
0.0
 11
1022.9448309309
 21
1233.7416080551
 31
0.0
  0
LINE
  5
28B
330
1F
100
AcDbEntity
  8
0
  6
SLD-Solid
 62
     7
370
    15
100
AcDbLine
 10
1114.2616501219
 20
1233.7416080551
 30
0.0
 11
1114.2616501219
 21
1233.791616352
 31
0.0
  0
LINE
  5
28C
330
1F
100
AcDbEntity
  8
0
  6
SLD-Solid
 62
     7
370
    15
100
AcDbLine
 10
1114.7616436846
 20
1233.7416080551
 30
0.0
 11
1114.2616501219
 21
1233.7416080551
 31
0.0
  0
LINE
  5
28D
330
1F
100
AcDbEntity
  8
0
  6
SLD-Solid
 62
     7
370
    15
100
AcDbLine
 10
1114.7616436846
 20
1234.9359063224
 30
0.0
 11
1114.7616436846
 21
1233.7416080551
 31
0.0
  0
ARC
  5
28E
330
1F
100
AcDbEntity
  8
0
  6
SLD-Solid
 62
     7
370
    15
100
AcDbCircle
 10
1114.2616513027
 20
1212.9415978503
 30
0.0
 40
22.00000000000101
100
AcDbArc
 50
293.5
 51
88.6977110648
  0
LINE
  5
28F
330
1F
100
AcDbEntity
  8
0
  6
SLD-Solid
 62
     7
370
    15
100
AcDbLine
 10
1099.5390048392
 20
1182.550278099
 30
0.0
 11
1123.0341425307
 21
1192.7662757949
 31
0.0
  0
LINE
  5
290
330
1F
100
AcDbEntity
  8
0
  6
SLD-Solid
 62
     7
370
    15
100
AcDbLine
 10
1099.5390048392
 20
1182.550278099
 30
0.0
 11
1099.5390048392
 21
1183.6915878372
 31
0.0
  0
ARC
  5
291
330
1F
100
AcDbEntity
  8
0
  6
SLD-Solid
 62
     7
370
    15
100
AcDbCircle
 10
1099.413996232
 20
1183.6915978503
 30
0.0
 40
0.1250000000002274
100
AcDbArc
 50
0.0
 51
180.0
  0
LINE
  5
292
330
1F
100
AcDbEntity
  8
0
  6
SLD-Solid
 62
     7
370
    15
100
AcDbLine
 10
1079.0948500998
 20
1201.1416224555
 30
0.0
 11
1079.0948500998
 21
1183.6915878372
 31
0.0
  0
LINE
  5
293
330
1F
100
AcDbEntity
  8
0
  6
SLD-Solid
 62
     7
370
    15
100
AcDbLine
 10
1079.084419287
 20
1201.1416224555
 30
0.0
 11
1079.0948500998
 21
1201.1416224555
 31
0.0
  0
ARC
  5
294
330
1F
100
AcDbEntity
  8
0
  6
SLD-Solid
 62
     7
370
    15
100
AcDbCircle
 10
1078.9698428042
 20
1201.0915978503
 30
0.0
 40
0.1250000000001222
100
AcDbArc
 50
23.5781784783
 51
156.4218215217
  0
LINE
  5
295
330
1F
100
AcDbEntity
  8
0
  6
SLD-Solid
 62
     7
370
    15
100
AcDbLine
 10
1078.8448384173
 20
1201.1416224555
 30
0.0
 11
1078.8552692301
 21
1201.1416224555
 31
0.0
  0
LINE
  5
296
330
1F
100
AcDbEntity
  8
0
  6
SLD-Solid
 62
     7
370
    15
100
AcDbLine
 10
1078.8448384173
 20
1201.0916141586
 30
0.0
 11
1078.8448384173
 21
1201.1416224555
 31
0.0
  0
ARC
  5
297
330
1F
100
AcDbEntity
  8
0
  6
SLD-Solid
 62
     7
370
    15
100
AcDbCircle
 10
1101.7616513027
 20
1200.4415978503
 30
0.0
 40
3.100000000000049
100
AcDbArc
 50
279.9421486627
 51
80.0578513373
  0
ARC
  5
298
330
1F
100
AcDbEntity
  8
0
  6
SLD-Solid
 62
     7
370
    15
100
AcDbCircle
 10
1102.2537144405
 20
1203.2487982116
 30
0.0
 40
0.2500000000001912
100
AcDbArc
 50
80.0578513374
 51
260.0578513373
  0
ARC
  5
299
330
1F
100
AcDbEntity
  8
0
  6
SLD-Solid
 62
     7
370
    15
100
AcDbCircle
 10
1101.7616513027
 20
1200.4415978503
 30
0.0
 40
2.600000000000154
100
AcDbArc
 50
279.9421486627
 51
80.0578513373
  0
ARC
  5
29A
330
1F
100
AcDbEntity
  8
0
  6
SLD-Solid
 62
     7
370
    15
100
AcDbCircle
 10
1102.2537144405
 20
1197.634397489
 30
0.0
 40
0.2499999999999673
100
AcDbArc
 50
99.9421486627
 51
279.9421486626
  0
ARC
  5
29B
330
1F
100
AcDbEntity
  8
0
  6
SLD-Solid
 62
     7
370
    15
100
AcDbCircle
 10
1101.2695881648
 20
1203.2487982116
 30
0.0
 40
0.250000000000152
100
AcDbArc
 50
279.9421486626
 51
99.9421486627
  0
ARC
  5
29C
330
1F
100
AcDbEntity
  8
0
  6
SLD-Solid
 62
     7
370
    15
100
AcDbCircle
 10
1101.7616513027
 20
1200.4415978503
 30
0.0
 40
3.100000000000089
100
AcDbArc
 50
99.9421486627
 51
260.0578513373
  0
ARC
  5
29D
330
1F
100
AcDbEntity
  8
0
  6
SLD-Solid
 62
     7
370
    15
100
AcDbCircle
 10
1101.2695881648
 20
1197.634397489
 30
0.0
 40
0.2499999999999673
100
AcDbArc
 50
260.0578513373
 51
80.0578513374
  0
ARC
  5
29E
330
1F
100
AcDbEntity
  8
0
  6
SLD-Solid
 62
     7
370
    15
100
AcDbCircle
 10
1101.7616513027
 20
1200.4415978503
 30
0.0
 40
2.600000000000194
100
AcDbArc
 50
99.9421486627
 51
260.0578513373
  0
LINE
  5
29F
330
1F
100
AcDbEntity
  8
0
  6
SLD-Solid
 62
     7
370
    15
100
AcDbLine
 10
1078.8448384173
 20
1201.0916141586
 30
0.0
 11
1078.8448384173
 21
1198.6416248397
 31
0.0
  0
LINE
  5
2A0
330
1F
100
AcDbEntity
  8
0
  6
SLD-Solid
 62
     7
370
    15
100
AcDbLine
 10
1078.8448384173
 20
1198.6416248397
 30
0.0
 11
996.2048461802
 21
1198.6416248397
 31
0.0
  0
LINE
  5
2A1
330
1F
100
AcDbEntity
  8
0
  6
SLD-Solid
 62
     7
370
    15
100
AcDbLine
 10
996.2048461802
 20
1198.6416248397
 30
0.0
 11
996.2048461802
 21
1201.0916141586
 31
0.0
  0
LINE
  5
2A2
330
1F
100
AcDbEntity
  8
0
  6
SLD-Solid
 62
     7
370
    15
100
AcDbLine
 10
1099.2889931567
 20
1183.6915878372
 30
0.0
 11
1099.2889931567
 21
1181.2415985183
 31
0.0
  0
LINE
  5
2A3
330
1F
100
AcDbEntity
  8
0
  6
SLD-Solid
 62
     7
370
    15
100
AcDbLine
 10
1079.0948500998
 20
1181.2415985183
 30
0.0
 11
1099.2889931567
 21
1181.2415985183
 31
0.0
  0
LINE
  5
2A4
330
1F
100
AcDbEntity
  8
0
  6
SLD-Solid
 62
     7
370
    15
100
AcDbLine
 10
1079.0948500998
 20
1181.2415985183
 30
0.0
 11
1079.0948500998
 21
1183.6915878372
 31
0.0
  0
LINE
  5
2A5
330
1F
100
AcDbEntity
  8
0
  6
SLD-Solid
 62
     7
370
    15
100
AcDbLine
 10
1114.2616501219
 20
1236.2416056709
 30
0.0
 11
1114.2616501219
 21
1233.791616352
 31
0.0
  0
LINE
  5
2A6
330
1F
100
AcDbEntity
  8
0
  6
SLD-Solid
 62
     7
370
    15
100
AcDbLine
 10
1022.9448309309
 20
1236.2416056709
 30
0.0
 11
1114.2616501219
 21
1236.2416056709
 31
0.0
  0
LINE
  5
2A7
330
1F
100
AcDbEntity
  8
0
  6
SLD-Solid
 62
     7
370
    15
100
AcDbLine
 10
1022.9448309309
 20
1233.791616352
 30
0.0
 11
1022.9448309309
 21
1236.2416056709
 31
0.0
  0
LINE
  5
2A8
330
1F
100
AcDbEntity
  8
0
  6
SLD-Solid
 62
     7
370
    15
100
AcDbLine
 10
1019.2448428042
 20
1215.0416044311
 30
0.0
 11
997.4448314078
 21
1215.0416044311
 31
0.0
  0
LINE
  5
2A9
330
1F
100
AcDbEntity
  8
0
  6
SLD-Solid
 62
     7
370
    15
100
AcDbLine
 10
1019.2448428042
 20
1216.2416247444
 30
0.0
 11
1014.3949916727
 21
1216.2416247444
 31
0.0
  0
LINE
  5
2AA
330
1F
100
AcDbEntity
  8
0
  6
SLD-Solid
 62
     7
370
    15
100
AcDbLine
 10
996.1948325999
 20
1213.7915758209
 30
0.0
 11
996.1948325999
 21
1207.2416214065
 31
0.0
  0
LINE
  5
2AB
330
1F
100
AcDbEntity
  8
0
  6
SLD-Solid
 62
     7
370
    15
100
AcDbLine
 10
994.9948420889
 20
1213.7915758209
 30
0.0
 11
994.9948420889
 21
1207.2416214065
 31
0.0
  0
LINE
  5
2AC
330
1F
100
AcDbEntity
  8
0
  6
SLD-Solid
 62
     7
370
    15
100
AcDbLine
 10
996.1948325999
 20
1207.2416214065
 30
0.0
 11
996.1948325999
 21
1206.2415746765
 31
0.0
  0
LINE
  5
2AD
330
1F
100
AcDbEntity
  8
0
  6
SLD-Solid
 62
     7
370
    15
100
AcDbLine
 10
996.1948325999
 20
1206.2415746765
 30
0.0
 11
994.9948420889
 21
1206.2415746765
 31
0.0
  0
LINE
  5
2AE
330
1F
100
AcDbEntity
  8
0
  6
SLD-Solid
 62
     7
370
    15
100
AcDbLine
 10
994.9948420889
 20
1206.2415746765
 30
0.0
 11
994.9948420889
 21
1207.2416214065
 31
0.0
  0
ARC
  5
2AF
330
1F
100
AcDbEntity
  8
0
  6
SLD-Solid
 62
     7
370
    15
100
AcDbCircle
 10
997.4448428042
 20
1213.7915978503
 30
0.0
 40
1.25
100
AcDbArc
 50
90.0
 51
180.0
  0
ARC
  5
2B0
330
1F
100
AcDbEntity
  8
0
  6
SLD-Solid
 62
     7
370
    15
100
AcDbCircle
 10
997.4448428042
 20
1213.7915978503
 30
0.0
 40
2.450000000000045
100
AcDbArc
 50
90.0
 51
180.0
  0
LINE
  5
2B1
330
1F
100
AcDbEntity
  8
0
  6
SLD-Solid
 62
     7
370
    15
100
AcDbLine
 10
1021.694832123
 20
1233.791616352
 30
0.0
 11
1020.4948416121
 21
1233.791616352
 31
0.0
  0
LINE
  5
2B2
330
1F
100
AcDbEntity
  8
0
  6
SLD-Solid
 62
     7
370
    15
100
AcDbLine
 10
1021.694832123
 20
1233.791616352
 30
0.0
 11
1021.694832123
 21
1217.4915937499
 31
0.0
  0
LINE
  5
2B3
330
1F
100
AcDbEntity
  8
0
  6
SLD-Solid
 62
     7
370
    15
100
AcDbLine
 10
1020.4948416121
 20
1233.791616352
 30
0.0
 11
1020.4948416121
 21
1217.4915937499
 31
0.0
  0
ARC
  5
2B4
330
1F
100
AcDbEntity
  8
0
  6
SLD-Solid
 62
     7
370
    15
100
AcDbCircle
 10
1019.2448428042
 20
1217.4915978503
 30
0.0
 40
2.450000000000045
100
AcDbArc
 50
270.0
 51
0.0
  0
ARC
  5
2B5
330
1F
100
AcDbEntity
  8
0
  6
SLD-Solid
 62
     7
370
    15
100
AcDbCircle
 10
1019.2448428042
 20
1217.4915978503
 30
0.0
 40
1.25
100
AcDbArc
 50
270.0
 51
0.0
  0
LINE
  5
2B6
330
1F
100
AcDbEntity
  8
0
  6
SLD-Solid
 62
     7
370
    15
100
AcDbLine
 10
1100.81996826
 20
1182.9982666091
 30
0.0
 11
1123.074018038
 21
1192.6745442466
 31
0.0
  0
LINE
  5
2B7
330
1F
100
AcDbEntity
  8
0
  6
SLD-Solid
 62
     7
370
    15
100
AcDbLine
 10
1101.2984743483
 20
1181.8977860526
 30
0.0
 11
1123.552494324
 21
1191.5741232948
 31
0.0
  0
LINE
  5
2B8
330
1F
100
AcDbEntity
  8
0
  6
SLD-Solid
 62
     7
370
    15
100
AcDbLine
 10
1100.3813972838
 20
1181.4990309791
 30
0.0
 11
1099.9028911955
 21
1182.5995115356
 31
0.0
  0
LWPOLYLINE
  5
2B9
330
1F
100
AcDbEntity
  8
0
  6
SLD-Solid
 62
     7
370
    15
100
AcDbPolyline
 90
        9
 70
   128
 43
0.0
 10
1099.9028911955
 20
1182.5995115356
 10
1099.9205341704
 20
1182.6071409301
 10
1099.9727180369
 20
1182.6298502998
 10
1100.0574460394
 20
1182.6666859703
 10
1100.1714995272
 20
1182.7162770347
 10
1100.3104677565
 20
1182.7767161445
 10
1100.4690161116
 20
1182.8456191139
 10
1100.6410649187
 20
1182.9204229431
 10
1100.81996826
 20
1182.9982666091
  0
LWPOLYLINE
  5
2BA
330
1F
100
AcDbEntity
  8
0
  6
SLD-Solid
 62
     7
370
    15
100
AcDbPolyline
 90
        9
 70
   128
 43
0.0
 10
1101.2984743483
 20
1181.8977860526
 10
1101.1195412047
 20
1181.8200019912
 10
1100.9475221999
 20
1181.745198162
 10
1100.7889738448
 20
1181.676235588
 10
1100.6500056155
 20
1181.6157964782
 10
1100.5359521277
 20
1181.5662054138
 10
1100.4511943228
 20
1181.5293697433
 10
1100.3990104563
 20
1181.5066603736
 10
1100.3813972838
 20
1181.4990309791
  0
LINE
  5
2BB
330
1F
100
AcDbEntity
  8
0
  6
SLD-Solid
 62
     7
370
    15
100
AcDbLine
 10
1114.7616436846
 20
1235.0359229164
 30
0.0
 11
1114.7616436846
 21
1236.2362412528
 31
0.0
  0
ARC
  5
2BC
330
1F
100
AcDbEntity
  8
0
  6
SLD-Solid
 62
     7
370
    15
100
AcDbCircle
 10
1114.2616513027
 20
1212.9415978503
 30
0.0
 40
23.30000000000013
100
AcDbArc
 50
293.5
 51
88.7703824493
  0
ARC
  5
2BD
330
1F
100
AcDbEntity
  8
0
  6
SLD-Solid
 62
     7
370
    15
100
AcDbCircle
 10
1114.2616513027
 20
1212.9415978503
 30
0.0
 40
22.10000000000023
100
AcDbArc
 50
293.5
 51
88.703604783
  0
ARC
  5
2BE
330
1F
100
AcDbEntity
  8
0
  6
SLD-Solid
 62
     7
370
    15
100
AcDbCircle
 10
1022.9448428042
 20
1233.7915978503
 30
0.0
 40
1.25
100
AcDbArc
 50
90.0
 51
180.0
  0
ARC
  5
2BF
330
1F
100
AcDbEntity
  8
0
  6
SLD-Solid
 62
     7
370
    15
100
AcDbCircle
 10
1022.9448428042
 20
1233.7915978503
 30
0.0
 40
2.450000000000045
100
AcDbArc
 50
90.0
 51
180.0
  0
ARC
  5
2C0
330
1F
100
AcDbEntity
  8
0
  6
SLD-Solid
 62
     7
370
    15
100
AcDbCircle
 10
1114.2616513027
 20
1212.9415978503
 30
0.0
 40
23.30000000000018
100
AcDbArc
 50
88.7703824493
 51
90.0
  0
ARC
  5
2C1
330
1F
100
AcDbEntity
  8
0
  6
SLD-Solid
 62
     7
370
    15
100
AcDbCircle
 10
1114.2616513027
 20
1212.9415978503
 30
0.0
 40
22.10000000000023
100
AcDbArc
 50
88.703604783
 51
90.0
  0
LINE
  5
2C2
330
1F
100
AcDbEntity
  8
0
  6
SLD-Solid
 62
     7
370
    15
100
AcDbLine
 10
1012.396596945
 20
1217.4902824478
 30
0.0
 11
1007.632755316
 21
1217.4902824478
 31
0.0
  0
LINE
  5
2C3
330
1F
100
AcDbEntity
  8
0
  6
SLD-Solid
 62
     7
370
    15
100
AcDbLine
 10
1004.6263864405
 20
1217.4902824478
 30
0.0
 11
1000.5930891402
 21
1217.4902824478
 31
0.0
  0
SPLINE
  5
2C4
330
1F
100
AcDbEntity
  8
0
  6
SLD-Solid
 62
     7
370
    15
100
AcDbSpline
210
0.0
220
0.0
230
1.0
 70
     8
 71
     3
 72
    10
 73
     6
 74
     0
 42
0.00000001
 43
0.00000001
 40
0.0
 40
0.0
 40
0.0
 40
0.0
 40
0.0874734129434497
 40
0.9244920038495757
 40
1.0
 40
1.0
 40
1.0
 40
1.0
 10
1011.610501087413
 20
1218.041625411933
 30
0.0
 10
1011.522634496817
 20
1218.097931243042
 30
0.0
 10
1010.593987063521
 20
1218.69301824009
 30
0.0
 10
1009.466850615135
 20
1219.243337882075
 30
0.0
 10
1008.380557850842
 20
1219.341689910821
 30
0.0
 10
1008.290671385036
 20
1219.349828155463
 30
0.0
  0
SPLINE
  5
2C5
330
1F
100
AcDbEntity
  8
0
  6
SLD-Solid
 62
     7
370
    15
100
AcDbSpline
210
0.0
220
0.0
230
1.0
 70
     8
 71
     3
 72
     9
 73
     5
 74
     0
 42
0.00000001
 43
0.00000001
 40
0.0
 40
0.0
 40
0.0
 40
0.0
 40
0.3836806842072344
 40
1.0
 40
1.0
 40
1.0
 40
1.0
 10
1004.355423725353
 20
1219.200995357459
 30
0.0
 10
1003.945572555033
 20
1219.135122918004
 30
0.0
 10
1002.877363528128
 20
1218.963437341518
 30
0.0
 10
1001.950456007005
 20
1218.39312185956
 30
0.0
 10
1001.379184997783
 20
1218.041625411933
 30
0.0
  0
LINE
  5
2C6
330
1F
100
AcDbEntity
  8
0
  6
SLD-Solid
 62
     7
370
    15
100
AcDbLine
 10
1011.6548469431
 20
1218.0416254119
 30
0.0
 11
1011.6105010874
 21
1218.0416254119
 31
0.0
  0
LINE
  5
2C7
330
1F
100
AcDbEntity
  8
0
  6
SLD-Solid
 62
     7
370
    15
100
AcDbLine
 10
1001.3791849978
 20
1218.0416254119
 30
0.0
 11
1001.3348391421
 21
1218.0416254119
 31
0.0
  0
LINE
  5
2C8
330
1F
100
AcDbEntity
  8
0
  6
SLD-Solid
 62
     7
370
    15
100
AcDbLine
 10
470.3965714342
 20
1217.4902824478
 30
0.0
 11
466.3633039362
 21
1217.4902824478
 31
0.0
  0
LINE
  5
2C9
330
1F
100
AcDbEntity
  8
0
  6
SLD-Solid
 62
     7
370
    15
100
AcDbLine
 10
463.3569350607
 20
1217.4902824478
 30
0.0
 11
458.5930934317
 21
1217.4902824478
 31
0.0
  0
SPLINE
  5
2CA
330
1F
100
AcDbEntity
  8
0
  6
SLD-Solid
 62
     7
370
    15
100
AcDbSpline
210
0.0
220
0.0
230
1.0
 70
     8
 71
     3
 72
     9
 73
     5
 74
     0
 42
0.00000001
 43
0.00000001
 40
0.0
 40
0.0
 40
0.0
 40
0.0
 40
0.0972193913070555
 40
0.9999999999999999
 40
0.9999999999999999
 40
0.9999999999999999
 40
0.9999999999999999
 10
469.6105053789476
 20
1218.041625411933
 30
0.0
 10
469.5227203138407
 20
1218.098513467018
 30
0.0
 10
468.6197619232697
 20
1218.683664786314
 30
0.0
 10
467.5803794234097
 20
1219.002251749906
 30
0.0
 10
466.6420450575212
 20
1219.289865882819
 30
0.0
  0
SPLINE
  5
2CB
330
1F
100
AcDbEntity
  8
0
  6
SLD-Solid
 62
     7
370
    15
100
AcDbSpline
210
0.0
220
0.0
230
1.0
 70
     8
 71
     3
 72
     9
 73
     5
 74
     0
 42
0.00000001
 43
0.00000001
 40
0.0
 40
0.0
 40
0.0
 40
0.0
 40
0.4480438581018322
 40
1.0
 40
1.0
 40
1.0
 40
1.0
 10
462.7227416403154
 20
1219.278898628181
 30
0.0
 10
462.1868186674757
 20
1219.197281494569
 30
0.0
 10
460.9906791308012
 20
1219.015118226094
 30
0.0
 10
459.9523187042541
 20
1218.387849975478
 30
0.0
 10
459.3791892893175
 20
1218.041625411933
 30
0.0
  0
LINE
  5
2CC
330
1F
100
AcDbEntity
  8
0
  6
SLD-Solid
 62
     7
370
    15
100
AcDbLine
 10
469.6548512347
 20
1218.0416254119
 30
0.0
 11
469.6105053789
 21
1218.0416254119
 31
0.0
  0
LINE
  5
2CD
330
1F
100
AcDbEntity
  8
0
  6
SLD-Solid
 62
     7
370
    15
100
AcDbLine
 10
459.3791892893
 20
1218.0416254119
 30
0.0
 11
459.3348434336
 21
1218.0416254119
 31
0.0
  0
LINE
  5
2CE
330
1F
100
AcDbEntity
  8
0
  6
SLD-Solid
 62
     7
370
    15
100
AcDbLine
 10
1001.6448428995
 20
1198.5917357521
 30
0.0
 11
1001.6448428995
 21
1198.6416248397
 31
0.0
  0
LINE
  5
2CF
330
1F
100
AcDbEntity
  8
0
  6
SLD-Solid
 62
     7
370
    15
100
AcDbLine
 10
997.6948430903
 20
1198.5917357521
 30
0.0
 11
997.6948430903
 21
1198.6416248397
 31
0.0
  0
LINE
  5
2D0
330
1F
100
AcDbEntity
  8
0
  6
SLD-Solid
 62
     7
370
    15
100
AcDbLine
 10
1015.2948429949
 20
1198.5917357521
 30
0.0
 11
1015.2948429949
 21
1198.6416248397
 31
0.0
  0
LINE
  5
2D1
330
1F
100
AcDbEntity
  8
0
  6
SLD-Solid
 62
     7
370
    15
100
AcDbLine
 10
1011.3448431856
 20
1198.6416248397
 30
0.0
 11
1011.3448431856
 21
1198.5917357521
 31
0.0
  0
LINE
  5
2D2
330
1F
100
AcDbEntity
  8
0
  6
SLD-Solid
 62
     7
370
    15
100
AcDbLine
 10
997.6948430903
 20
1198.4415916519
 30
0.0
 11
997.6948430903
 21
1198.5917357521
 31
0.0
  0
LINE
  5
2D3
330
1F
100
AcDbEntity
  8
0
  6
SLD-Solid
 62
     7
370
    15
100
AcDbLine
 10
1001.6448428995
 20
1198.4415916519
 30
0.0
 11
1001.6448428995
 21
1198.5917357521
 31
0.0
  0
LINE
  5
2D4
330
1F
100
AcDbEntity
  8
0
  6
SLD-Solid
 62
     7
370
    15
100
AcDbLine
 10
1015.2948429949
 20
1198.4415916519
 30
0.0
 11
1015.2948429949
 21
1198.5917357521
 31
0.0
  0
LINE
  5
2D5
330
1F
100
AcDbEntity
  8
0
  6
SLD-Solid
 62
     7
370
    15
100
AcDbLine
 10
1011.3448431856
 20
1198.5917357521
 30
0.0
 11
1011.3448431856
 21
1198.4415916519
 31
0.0
  0
LINE
  5
2D6
330
1F
100
AcDbEntity
  8
0
  6
SLD-Solid
 62
     7
370
    15
100
AcDbLine
 10
459.6448471911
 20
1198.9917425231
 30
0.0
 11
459.6448471911
 21
1199.0415720062
 31
0.0
  0
LINE
  5
2D7
330
1F
100
AcDbEntity
  8
0
  6
SLD-Solid
 62
     7
370
    15
100
AcDbLine
 10
455.6948473818
 20
1198.9917425231
 30
0.0
 11
455.6948473818
 21
1199.0415720062
 31
0.0
  0
LINE
  5
2D8
330
1F
100
AcDbEntity
  8
0
  6
SLD-Solid
 62
     7
370
    15
100
AcDbLine
 10
473.2948472864
 20
1198.9917425231
 30
0.0
 11
473.2948472864
 21
1199.0415720062
 31
0.0
  0
LINE
  5
2D9
330
1F
100
AcDbEntity
  8
0
  6
SLD-Solid
 62
     7
370
    15
100
AcDbLine
 10
469.3448474772
 20
1199.0415720062
 30
0.0
 11
469.3448474772
 21
1198.9917425231
 31
0.0
  0
LINE
  5
2DA
330
1F
100
AcDbEntity
  8
0
  6
SLD-Solid
 62
     7
370
    15
100
AcDbLine
 10
455.6948473818
 20
1198.4415916519
 30
0.0
 11
455.6948473818
 21
1198.9917425231
 31
0.0
  0
LINE
  5
2DB
330
1F
100
AcDbEntity
  8
0
  6
SLD-Solid
 62
     7
370
    15
100
AcDbLine
 10
459.6448471911
 20
1198.4415916519
 30
0.0
 11
459.6448471911
 21
1198.9917425231
 31
0.0
  0
LINE
  5
2DC
330
1F
100
AcDbEntity
  8
0
  6
SLD-Solid
 62
     7
370
    15
100
AcDbLine
 10
473.2948472864
 20
1198.4415916519
 30
0.0
 11
473.2948472864
 21
1198.9917425231
 31
0.0
  0
LINE
  5
2DD
330
1F
100
AcDbEntity
  8
0
  6
SLD-Solid
 62
     7
370
    15
100
AcDbLine
 10
469.3448474772
 20
1198.9917425231
 30
0.0
 11
469.3448474772
 21
1198.4415916519
 31
0.0
  0
LINE
  5
2DE
330
1F
100
AcDbEntity
  8
0
  6
SLD-Solid
 62
     7
370
    15
100
AcDbLine
 10
454.401128567
 20
1217.849996479
 30
0.0
 11
453.8297584421
 21
1219.6621564941
 31
0.0
  0
LINE
  5
2DF
330
1F
100
AcDbEntity
  8
0
  6
SLD-Solid
 62
     7
370
    15
100
AcDbLine
 10
455.1641276247
 20
1218.0905608253
 30
0.0
 11
454.5927276976
 21
1219.9027208404
 31
0.0
  0
LINE
  5
2E0
330
1F
100
AcDbEntity
  8
0
  6
SLD-Solid
 62
     7
370
    15
100
AcDbLine
 10
477.5946965582
 20
1216.2416247444
 30
0.0
 11
477.5946965582
 21
1217.0415786819
 31
0.0
  0
LINE
  5
2E1
330
1F
100
AcDbEntity
  8
0
  6
SLD-Solid
 62
     7
370
    15
100
AcDbLine
 10
456.594698704
 20
1216.2416247444
 30
0.0
 11
477.5946965582
 21
1216.2416247444
 31
0.0
  0
LINE
  5
2E2
330
1F
100
AcDbEntity
  8
0
  6
SLD-Solid
 62
     7
370
    15
100
AcDbLine
 10
456.594698704
 20
1217.0415786819
 30
0.0
 11
477.5946965582
 21
1217.0415786819
 31
0.0
  0
LINE
  5
2E3
330
1F
100
AcDbEntity
  8
0
  6
SLD-Solid
 62
     7
370
    15
100
AcDbLine
 10
452.3262312777
 20
1224.4307664947
 30
0.0
 11
453.0892005331
 21
1224.671330841
 31
0.0
  0
LWPOLYLINE
  5
2E4
330
1F
100
AcDbEntity
  8
0
  6
SLD-Solid
 62
     7
370
    15
100
AcDbPolyline
 90
        9
 70
   128
 43
0.0
 10
453.8297584421
 20
1219.6621564941
 10
453.5364141829
 20
1220.5924657897
 10
453.2543650038
 20
1221.4870719032
 10
452.9944291479
 20
1222.3114637451
 10
452.7665903933
 20
1223.0341104583
 10
452.5796106226
 20
1223.6271170692
 10
452.4406721957
 20
1224.067774208
 10
452.3551097281
 20
1224.3391541557
 10
452.3262312777
 20
1224.4307664947
  0
LWPOLYLINE
  5
2E5
330
1F
100
AcDbEntity
  8
0
  6
SLD-Solid
 62
     7
370
    15
100
AcDbPolyline
 90
        9
 70
   128
 43
0.0
 10
453.0892005331
 20
1224.671330841
 10
453.1180789835
 20
1224.579718502
 10
453.2036414511
 20
1224.3083385543
 10
453.3425798781
 20
1223.8676814155
 10
453.5295596487
 20
1223.2746748046
 10
453.7573984034
 20
1222.5520280914
 10
454.0173640616
 20
1221.7276362495
 10
454.2994132407
 20
1220.8330301361
 10
454.5927276976
 20
1219.9027208404
  0
ARC
  5
2E6
330
1F
100
AcDbEntity
  8
0
  6
SLD-Solid
 62
     7
370
    15
100
AcDbCircle
 10
456.5946883086
 20
1218.5415978509
 30
0.0
 40
2.300000000000048
100
AcDbArc
 50
197.5
 51
270.0
  0
ARC
  5
2E7
330
1F
100
AcDbEntity
  8
0
  6
SLD-Solid
 62
     7
370
    15
100
AcDbCircle
 10
456.5946883086
 20
1218.5415978509
 30
0.0
 40
1.500000000000021
100
AcDbArc
 50
197.5
 51
270.0
  0
ARC
  5
2E8
330
1F
100
AcDbEntity
  8
0
  6
SLD-Solid
 62
     7
370
    15
100
AcDbCircle
 10
482.9946883086
 20
1205.2415978509
 30
0.0
 40
5.0
100
AcDbArc
 50
180.0
 51
270.0
  0
LINE
  5
2E9
330
1F
100
AcDbEntity
  8
0
  6
SLD-Solid
 62
     7
370
    15
100
AcDbLine
 10
477.994673527
 20
1205.2415875511
 30
0.0
 11
477.994673527
 21
1214.7416142539
 31
0.0
  0
LINE
  5
2EA
330
1F
100
AcDbEntity
  8
0
  6
SLD-Solid
 62
     7
370
    15
100
AcDbLine
 10
992.9946890242
 20
1214.7416142539
 30
0.0
 11
992.9946890242
 21
1205.2415875511
 31
0.0
  0
ARC
  5
2EB
330
1F
100
AcDbEntity
  8
0
  6
SLD-Solid
 62
     7
370
    15
100
AcDbCircle
 10
987.9946883086
 20
1205.2415978509
 30
0.0
 40
5.0
100
AcDbArc
 50
270.0
 51
0.0
  0
LINE
  5
2EC
330
1F
100
AcDbEntity
  8
0
  6
SLD-Solid
 62
     7
370
    15
100
AcDbLine
 10
987.9946937926
 20
1200.2415923194
 30
0.0
 11
482.9946985609
 21
1200.2415923194
 31
0.0
  0
LINE
  5
2ED
330
1F
100
AcDbEntity
  8
0
  6
SLD-Solid
 62
     7
370
    15
100
AcDbLine
 10
992.9946890242
 20
1217.0415786819
 30
0.0
 11
992.9946890242
 21
1214.7416142539
 31
0.0
  0
LINE
  5
2EE
330
1F
100
AcDbEntity
  8
0
  6
SLD-Solid
 62
     7
370
    15
100
AcDbLine
 10
477.994673527
 20
1214.7416142539
 30
0.0
 11
477.994673527
 21
1217.0415786819
 31
0.0
  0
LINE
  5
2EF
330
1F
100
AcDbEntity
  8
0
  6
SLD-Solid
 62
     7
370
    15
100
AcDbLine
 10
477.994673527
 20
1217.0415786819
 30
0.0
 11
992.9946890242
 21
1217.0415786819
 31
0.0
  0
LINE
  5
2F0
330
1F
100
AcDbEntity
  8
0
  6
SLD-Solid
 62
     7
370
    15
100
AcDbLine
 10
993.3946957953
 20
1216.2416247444
 30
0.0
 11
993.3946957953
 21
1217.0415786819
 31
0.0
  0
LINE
  5
2F1
330
1F
100
AcDbEntity
  8
0
  6
SLD-Solid
 62
     7
370
    15
100
AcDbLine
 10
993.3946957953
 20
1216.2416247444
 30
0.0
 11
1014.3949916727
 21
1216.2416247444
 31
0.0
  0
LINE
  5
2F2
330
1F
100
AcDbEntity
  8
0
  6
SLD-Solid
 62
     7
370
    15
100
AcDbLine
 10
993.3946957953
 20
1217.0415786819
 30
0.0
 11
1014.3949916727
 21
1217.0415786819
 31
0.0
  0
LINE
  5
2F3
330
1F
100
AcDbEntity
  8
0
  6
SLD-Solid
 62
     7
370
    15
100
AcDbLine
 10
1016.3969626791
 20
1219.9027208404
 30
0.0
 11
1015.825562752
 21
1218.0905608253
 31
0.0
  0
LINE
  5
2F4
330
1F
100
AcDbEntity
  8
0
  6
SLD-Solid
 62
     7
370
    15
100
AcDbLine
 10
1017.1599319346
 20
1219.6621564941
 30
0.0
 11
1016.5885320074
 21
1217.849996479
 31
0.0
  0
ARC
  5
2F5
330
1F
100
AcDbEntity
  8
0
  6
SLD-Solid
 62
     7
370
    15
100
AcDbCircle
 10
1014.3949972998
 20
1218.5415978509
 30
0.0
 40
2.299999999999955
100
AcDbArc
 50
270.0
 51
342.5
  0
ARC
  5
2F6
330
1F
100
AcDbEntity
  8
0
  6
SLD-Solid
 62
     7
370
    15
100
AcDbCircle
 10
1014.3949972998
 20
1218.5415978509
 30
0.0
 40
1.500000000000021
100
AcDbArc
 50
270.0
 51
342.5
  0
LINE
  5
2F7
330
1F
100
AcDbEntity
  8
0
  6
SLD-Solid
 62
     7
370
    15
100
AcDbLine
 10
1017.9004898436
 20
1224.671330841
 30
0.0
 11
1018.663459099
 21
1224.4307664947
 31
0.0
  0
LWPOLYLINE
  5
2F8
330
1F
100
AcDbEntity
  8
0
  6
SLD-Solid
 62
     7
370
    15
100
AcDbPolyline
 90
        9
 70
   128
 43
0.0
 10
1018.663459099
 20
1224.4307664947
 10
1018.6345806486
 20
1224.3391541557
 10
1018.5490181811
 20
1224.067774208
 10
1018.4100797541
 20
1223.6271170692
 10
1018.2230999834
 20
1223.0341104583
 10
1017.9952612288
 20
1222.3114637451
 10
1017.7352955706
 20
1221.4870719032
 10
1017.4532463915
 20
1220.5924657897
 10
1017.1599319346
 20
1219.6621564941
  0
LWPOLYLINE
  5
2F9
330
1F
100
AcDbEntity
  8
0
  6
SLD-Solid
 62
     7
370
    15
100
AcDbPolyline
 90
        9
 70
   128
 43
0.0
 10
1016.3969626791
 20
1219.9027208404
 10
1016.6902771361
 20
1220.8330301361
 10
1016.9723263152
 20
1221.7276362495
 10
1017.232262171
 20
1222.5520280914
 10
1017.4601009257
 20
1223.2746748046
 10
1017.6471104987
 20
1223.8676814155
 10
1017.7860489256
 20
1224.3083385543
 10
1017.8716113932
 20
1224.579718502
 10
1017.9004898436
 20
1224.671330841
  0
LINE
  5
2FA
330
1F
100
AcDbEntity
  8
0
  6
SLD-Solid
 62
     7
370
    15
100
AcDbLine
 10
477.5946965582
 20
1216.2416247444
 30
0.0
 11
477.994673527
 21
1216.2416247444
 31
0.0
  0
LINE
  5
2FB
330
1F
100
AcDbEntity
  8
0
  6
SLD-Solid
 62
     7
370
    15
100
AcDbLine
 10
477.5946965582
 20
1217.0415786819
 30
0.0
 11
477.994673527
 21
1217.0415786819
 31
0.0
  0
LINE
  5
2FC
330
1F
100
AcDbEntity
  8
0
  6
SLD-Solid
 62
     7
370
    15
100
AcDbLine
 10
992.9946890242
 20
1216.2416247444
 30
0.0
 11
993.3946957953
 21
1216.2416247444
 31
0.0
  0
LINE
  5
2FD
330
1F
100
AcDbEntity
  8
0
  6
SLD-Solid
 62
     7
370
    15
100
AcDbLine
 10
992.9946890242
 20
1217.0415786819
 30
0.0
 11
993.3946957953
 21
1217.0415786819
 31
0.0
  0
ARC
  5
2FE
330
1F
100
AcDbEntity
  8
0
  6
SLD-Solid
 62
     7
370
    15
100
AcDbCircle
 10
476.4948428042
 20
1213.0415978509
 30
0.0
 40
3.200000000000089
100
AcDbArc
 50
62.0436814777
 51
90.0
  0
ARC
  5
2FF
330
1F
100
AcDbEntity
  8
0
  6
SLD-Solid
 62
     7
370
    15
100
AcDbCircle
 10
994.4948428042
 20
1213.0415978509
 30
0.0
 40
3.200000000000047
100
AcDbArc
 50
90.0
 51
117.9500553353
  0
LWPOLYLINE
  5
300
330
1F
100
AcDbEntity
  8
0
  6
SLD-Solid
 62
     7
370
    15
100
AcDbPolyline
 90
        3
 70
   128
 43
0.0
 10
486.6587152846
 20
1200.2415923194
 10
487.0865574248
 20
1199.7042564468
 10
488.1900182135
 20
1198.4415916519
  0
LWPOLYLINE
  5
301
330
1F
100
AcDbEntity
  8
0
  6
SLD-Solid
 62
     7
370
    15
100
AcDbPolyline
 90
        3
 70
   128
 43
0.0
 10
984.330960191
 20
1200.2415923194
 10
983.903132952
 20
1199.7042564468
 10
982.7996572621
 20
1198.4415916519
  0
LINE
  5
302
330
1F
100
AcDbEntity
  8
0
  6
SLD-Solid
 62
     7
370
    15
100
AcDbLine
 10
992.9949870474
 20
1214.7416142539
 30
0.0
 11
992.9949870474
 21
1215.8683208541
 31
0.0
  0
LINE
  5
303
330
1F
100
AcDbEntity
  8
0
  6
SLD-Solid
 62
     7
370
    15
100
AcDbLine
 10
992.9949870474
 20
1205.2415875511
 30
0.0
 11
992.9949870474
 21
1214.7416142539
 31
0.0
  0
ARC
  5
304
330
1F
100
AcDbEntity
  8
0
  6
SLD-Solid
 62
     7
370
    15
100
AcDbCircle
 10
987.9949972998
 20
1205.2415978509
 30
0.0
 40
4.999999999999886
100
AcDbArc
 50
270.0
 51
0.0
  0
LINE
  5
305
330
1F
100
AcDbEntity
  8
0
  6
SLD-Solid
 62
     7
370
    15
100
AcDbLine
 10
646.9802787669
 20
1220.5527094917
 30
0.0
 11
544.0094104178
 21
1220.5527094917
 31
0.0
  0
LINE
  5
306
330
1F
100
AcDbEntity
  8
0
  6
SLD-Solid
 62
     7
370
    15
100
AcDbLine
 10
926.9802799589
 20
1220.5527094917
 30
0.0
 11
824.0094116099
 21
1220.5527094917
 31
0.0
  0
LINE
  5
307
330
1F
100
AcDbEntity
  8
0
  6
SLD-Solid
 62
     7
370
    15
100
AcDbLine
 10
474.4948377974
 20
1198.4415916519
 30
0.0
 11
474.4948377974
 21
1199.0876463966
 31
0.0
  0
LINE
  5
308
330
1F
100
AcDbEntity
  8
0
  6
SLD-Solid
 62
     7
370
    15
100
AcDbLine
 10
996.4948525793
 20
1198.6416248397
 30
0.0
 11
996.4948525793
 21
1198.4415916519
 31
0.0
  0
LWPOLYLINE
  5
309
330
1F
100
AcDbEntity
  8
0
  6
SLD-Solid
 62
     7
370
    15
100
AcDbPolyline
 90
        6
 70
   128
 43
0.0
 10
1124.9380340941
 20
1168.6584023551
 10
1124.4139900572
 20
1170.2711848335
 10
1123.9986946947
 20
1171.549346836
 10
1123.6978700526
 20
1172.4751857833
 10
1123.5156884558
 20
1173.0358866767
 10
1123.4546831019
 20
1173.2236413078
  0
LWPOLYLINE
  5
30A
330
1F
100
AcDbEntity
  8
0
  6
SLD-Solid
 62
     7
370
    15
100
AcDbPolyline
 90
        6
 70
   128
 43
0.0
 10
1141.0686602957
 20
1119.0134553031
 10
1141.0076549418
 20
1119.2012099342
 10
1140.825473345
 20
1119.7619108276
 10
1140.5246487028
 20
1120.6877497749
 10
1140.1093235381
 20
1121.9659117774
 10
1139.5853093035
 20
1123.5786942558
  0
SPLINE
  5
30B
330
1F
100
AcDbEntity
  8
0
  6
SLD-Solid
 62
     7
370
    15
100
AcDbSpline
210
0.0
220
0.0
230
1.0
 70
     8
 71
     3
 72
    16
 73
    12
 74
     0
 42
0.00000001
 43
0.00000001
 40
0.0
 40
0.0
 40
0.0
 40
0.0
 40
0.0000584240341882
 40
0.1251200251076266
 40
0.2500898894356239
 40
0.3750590937433366
 40
0.5000252195055779
 40
0.6249881667248649
 40
0.7499529199775465
 40
0.8749154702526563
 40
1.0
 40
1.0
 40
1.0
 40
1.0
 10
1115.20271805595
 20
1173.771944435066
 30
0.0
 10
1115.202688240883
 20
1173.77194443574
 30
0.0
 10
1115.138836746959
 20
1173.771945879569
 30
0.0
 10
1115.36169573086
 20
1173.753407302077
 30
0.0
 10
1115.876821316552
 20
1173.680270879071
 30
0.0
 10
1116.714716452351
 20
1173.588209518192
 30
0.0
 10
1117.689655798373
 20
1173.50672561628
 30
0.0
 10
1118.671903900045
 20
1173.4558709595
 30
0.0
 10
1119.498679783227
 20
1173.437500076601
 30
0.0
 10
1120.077683600621
 20
1173.438815596439
 30
0.0
 10
1120.153573804257
 20
1173.439927021732
 30
0.0
 10
1120.191537416683
 20
1173.44048300547
 30
0.0
  0
LWPOLYLINE
  5
30C
330
1F
100
AcDbEntity
  8
0
  6
SLD-Solid
 62
     7
370
    15
100
AcDbPolyline
 90
       31
 70
   128
 43
0.0
 10
1132.7941646941
 20
1112.1190456466
 10
1132.7391496069
 20
1112.2883824424
 10
1132.574700392
 20
1112.7944854812
 10
1132.3026051886
 20
1113.6318711357
 10
1131.9258740313
 20
1114.7913006858
 10
1131.4486494429
 20
1116.260137947
 10
1130.8761170275
 20
1118.0222300605
 10
1130.2145352728
 20
1120.0582651214
 10
1129.4712057478
 20
1122.3460105972
 10
1128.6542644865
 20
1124.8603133277
 10
1127.7726223833
 20
1127.5736955718
 10
1126.835965193
 20
1130.4564146118
 10
1125.8545747168
 20
1133.4768799858
 10
1124.8391797907
 20
1136.6019515113
 10
1123.8008966811
 20
1139.797475727
 10
1122.7511098749
 20
1143.0284051017
 10
1121.7013230688
 20
1146.2592748718
 10
1120.6630399592
 20
1149.4547990875
 10
1119.6476152308
 20
1152.579870613
 10
1118.6662247546
 20
1155.600335987
 10
1117.7295675642
 20
1158.483055027
 10
1116.8479552634
 20
1161.1964372711
 10
1116.0309841997
 20
1163.7107400016
 10
1115.2876546748
 20
1165.9984854774
 10
1114.6261027224
 20
1168.0345801429
 10
1114.053570307
 20
1169.7966722564
 10
1113.5763159163
 20
1171.265449913
 10
1113.199584759
 20
1172.4248794631
 10
1112.9275193579
 20
1173.2622651176
 10
1112.763070143
 20
1173.7683681564
 10
1112.7080550558
 20
1173.9377049522
  0
LWPOLYLINE
  5
30D
330
1F
100
AcDbEntity
  8
0
  6
SLD-Solid
 62
     7
370
    15
100
AcDbPolyline
 90
       17
 70
   128
 43
0.0
 10
1125.5048742659
 20
1166.9137744026
 10
1126.1475911505
 20
1164.9357942657
 10
1126.8682709105
 20
1162.7177266197
 10
1127.6577940352
 20
1160.2878836708
 10
1128.506027735
 20
1157.6772002296
 10
1129.4021835692
 20
1154.9191145019
 10
1130.3348472483
 20
1152.0487336235
 10
1131.2920680411
 20
1149.1026548461
 10
1132.2616567976
 20
1146.1185483055
 10
1133.2312753565
 20
1143.1344417648
 10
1134.1884961493
 20
1140.1883629875
 10
1135.1211300261
 20
1137.317982109
 10
1136.0173156626
 20
1134.5598963813
 10
1136.8655493624
 20
1131.9492129402
 10
1137.6550724871
 20
1129.5193699912
 10
1138.3757522471
 20
1127.3013023452
 10
1139.0184393294
 20
1125.3233222084
  0
SPLINE
  5
30E
330
1F
100
AcDbEntity
  8
0
  6
SLD-Solid
 62
     7
370
    15
100
AcDbSpline
210
0.0
220
0.0
230
1.0
 70
     8
 71
     3
 72
    12
 73
     8
 74
     0
 42
0.00000001
 43
0.00000001
 40
0.0
 40
0.0
 40
0.0
 40
0.0
 40
0.0304743043792302
 40
0.0888360498896028
 40
0.3925937943385409
 40
0.6963163383492829
 40
1.0
 40
1.0
 40
1.0
 40
1.0
 10
1125.676356828914
 20
1167.863991649574
 30
0.0
 10
1125.673310278825
 20
1167.874151122869
 30
0.0
 10
1125.664429240151
 20
1167.903767138557
 30
0.0
 10
1125.618103005861
 20
1168.033881549677
 30
0.0
 10
1125.497432358667
 20
1168.246992374381
 30
0.0
 10
1125.255769472018
 20
1168.493613088207
 30
0.0
 10
1125.057948757166
 20
1168.588533727281
 30
0.0
 10
1124.959044731365
 20
1168.635991008704
 30
0.0
  0
SPLINE
  5
30F
330
1F
100
AcDbEntity
  8
0
  6
SLD-Solid
 62
     7
370
    15
100
AcDbSpline
210
0.0
220
0.0
230
1.0
 70
     8
 71
     3
 72
    11
 73
     7
 74
     0
 42
0.00000001
 43
0.00000001
 40
0.0
 40
0.0
 40
0.0
 40
0.0
 40
0.3704927385200431
 40
0.7436840839425131
 40
0.9435841932757196
 40
1.0
 40
1.0
 40
1.0
 40
1.0
 10
1124.938034094081
 20
1168.65840235514
 30
0.0
 10
1124.939165009938
 20
1168.655442845081
 30
0.0
 10
1124.941435079051
 20
1168.64950226839
 30
0.0
 10
1124.947843641738
 20
1168.641951785055
 30
0.0
 10
1124.95492560728
 20
1168.637726514047
 30
0.0
 10
1124.9583016545
 20
1168.63630408834
 30
0.0
 10
1124.959044731365
 20
1168.635991008704
 30
0.0
  0
SPLINE
  5
310
330
1F
100
AcDbEntity
  8
0
  6
SLD-Solid
 62
     7
370
    15
100
AcDbSpline
210
0.0
220
0.0
230
1.0
 70
     8
 71
     3
 72
    12
 73
     8
 74
     0
 42
0.00000001
 43
0.00000001
 40
0.0
 40
0.0
 40
0.0
 40
0.0
 40
0.0304600233455948
 40
0.0888205135330858
 40
0.3925427862486828
 40
0.6962547921736895
 40
1.0
 40
1.0
 40
1.0
 40
1.0
 10
1139.715694463954
 20
1124.655332954353
 30
0.0
 10
1139.71920809088
 20
1124.645331581128
 30
0.0
 10
1139.729453721501
 20
1124.61616787709
 30
0.0
 10
1139.768358299982
 20
1124.483662684605
 30
0.0
 10
1139.796075783161
 20
1124.240373271051
 30
0.0
 10
1139.74546686602
 20
1123.898809676214
 30
0.0
 10
1139.641260055954
 20
1123.705708229702
 30
0.0
 10
1139.589153803096
 20
1123.609152229255
 30
0.0
  0
SPLINE
  5
311
330
1F
100
AcDbEntity
  8
0
  6
SLD-Solid
 62
     7
370
    15
100
AcDbSpline
210
0.0
220
0.0
230
1.0
 70
     8
 71
     3
 72
    10
 73
     6
 74
     0
 42
0.00000001
 43
0.00000001
 40
0.0
 40
0.0
 40
0.0
 40
0.0
 40
0.2115061260613487
 40
0.4876939027647053
 40
1.0
 40
1.0
 40
1.0
 40
1.0
 10
1139.589153803096
 20
1123.609152229255
 30
0.0
 10
1139.58770670944
 20
1123.606573223939
 30
0.0
 10
1139.584369979835
 20
1123.60062651596
 30
0.0
 10
1139.582619077582
 20
1123.589606266411
 30
0.0
 10
1139.584249786922
 20
1123.582991833962
 30
0.0
 10
1139.585309303508
 20
1123.578694255775
 30
0.0
  0
LINE
  5
312
330
1F
100
AcDbEntity
  8
0
  6
SLD-Solid
 62
     7
370
    15
100
AcDbLine
 10
1123.9517262347
 20
1173.169401081
 30
0.0
 11
1123.9610245592
 21
1173.1683281974
 31
0.0
  0
SPLINE
  5
313
330
1F
100
AcDbEntity
  8
0
  6
SLD-Solid
 62
     7
370
    15
100
AcDbSpline
210
0.0
220
0.0
230
1.0
 70
     8
 71
     3
 72
    12
 73
     8
 74
     0
 42
0.00000001
 43
0.00000001
 40
0.0
 40
0.0
 40
0.0
 40
0.0
 40
0.2239129513465114
 40
0.4477924656902575
 40
0.671667041135808
 40
0.8955513813834028
 40
1.0
 40
1.0
 40
1.0
 40
1.0
 10
1124.184094942317
 20
1173.142936618751
 30
0.0
 10
1124.156389673919
 20
1173.145991559959
 30
0.0
 10
1124.100983274359
 20
1173.152100986181
 30
0.0
 10
1124.029479921649
 20
1173.160277875673
 30
0.0
 10
1123.977476702673
 20
1173.166330480914
 30
0.0
 10
1123.954264896825
 20
1173.169106630733
 30
0.0
 10
1123.952338921914
 20
1173.169330017639
 30
0.0
 10
1123.951726234661
 20
1173.169401081031
 30
0.0
  0
LINE
  5
314
330
1F
100
AcDbEntity
  8
0
  6
SLD-Solid
 62
     7
370
    15
100
AcDbLine
 10
1124.1840949423
 20
1173.1429366188
 30
0.0
 11
1143.1619456179
 21
1171.0223821716
 31
0.0
  0
LINE
  5
315
330
1F
100
AcDbEntity
  8
0
  6
SLD-Solid
 62
     7
370
    15
100
AcDbLine
 10
1143.1619456179
 20
1171.0223821716
 30
0.0
 11
1144.6317961581
 21
1170.8604363517
 31
0.0
  0
LWPOLYLINE
  5
316
330
1F
100
AcDbEntity
  8
0
  6
SLD-Solid
 62
     7
370
    15
100
AcDbPolyline
 90
        9
 70
   128
 43
0.0
 10
1146.4721193678
 20
1167.1046284751
 10
1147.6580431826
 20
1163.4547380523
 10
1148.8583019144
 20
1159.7607401924
 10
1150.0681569941
 20
1156.0371784286
 10
1151.2828102476
 20
1152.2988943176
 10
1152.4974336989
 20
1148.5606102065
 10
1153.7072887785
 20
1144.8370484428
 10
1154.9075475104
 20
1141.1430505828
 10
1156.0934713251
 20
1137.49316016
  0
LWPOLYLINE
  5
317
330
1F
100
AcDbEntity
  8
0
  6
SLD-Solid
 62
     7
370
    15
100
AcDbPolyline
 90
        9
 70
   128
 43
0.0
 10
1145.475231684
 20
1170.1727179603
 10
1145.5175807841
 20
1170.0424222068
 10
1145.5842485792
 20
1169.8372630195
 10
1145.6749370463
 20
1169.558134468
 10
1145.7892885573
 20
1169.2062286453
 10
1145.9267964728
 20
1168.7829760627
 10
1146.086924351
 20
1168.2901648597
 10
1146.2689569361
 20
1167.7299408035
 10
1146.4721193678
 20
1167.1046284751
  0
SPLINE
  5
318
330
1F
100
AcDbEntity
  8
0
  6
SLD-Solid
 62
     7
370
    15
100
AcDbSpline
210
0.0
220
0.0
230
1.0
 70
     8
 71
     3
 72
    11
 73
     7
 74
     0
 42
0.00000001
 43
0.00000001
 40
0.0
 40
0.0
 40
0.0
 40
0.0
 40
0.2933281822782436
 40
0.5866031030300872
 40
0.8805289086319866
 40
1.0
 40
1.0
 40
1.0
 40
1.0
 10
1144.631796158061
 20
1170.860436351722
 30
0.0
 10
1144.742478630108
 20
1170.83708770837
 30
0.0
 10
1144.963823476857
 20
1170.790394661232
 30
0.0
 10
1145.241748565336
 20
1170.585829222929
 30
0.0
 10
1145.404307416469
 20
1170.363740823602
 30
0.0
 10
1145.459330185223
 20
1170.2155460349
 30
0.0
 10
1145.475231683956
 20
1170.172717960304
 30
0.0
  0
LWPOLYLINE
  5
319
330
1F
100
AcDbEntity
  8
0
  6
SLD-Solid
 62
     7
370
    15
100
AcDbPolyline
 90
        5
 70
   128
 43
0.0
 10
1156.0934713251
 20
1137.49316016
 10
1156.5301349528
 20
1136.1492542343
 10
1156.8491986163
 20
1135.1672677116
 10
1157.0435395605
 20
1134.5691351013
 10
1157.1088364489
 20
1134.3682078437
  0
LWPOLYLINE
  5
31A
330
1F
100
AcDbEntity
  8
0
  6
SLD-Solid
 62
     7
370
    15
100
AcDbPolyline
 90
        9
 70
   128
 43
0.0
 10
1120.4627087481
 20
1143.5991791801
 10
1120.4649439223
 20
1143.5923246459
 10
1120.4715302355
 20
1143.5720590667
 10
1120.4822888739
 20
1143.5389188842
 10
1120.4969516165
 20
1143.4937981681
 10
1120.5150416262
 20
1143.4381274299
 10
1120.5360820658
 20
1143.3733967857
 10
1120.5594470866
 20
1143.3014539794
 10
1120.5844810374
 20
1143.2244447784
  0
SPLINE
  5
31B
330
1F
100
AcDbEntity
  8
0
  6
SLD-Solid
 62
     7
370
    15
100
AcDbSpline
210
0.0
220
0.0
230
1.0
 70
     8
 71
     3
 72
    15
 73
    11
 74
     0
 42
0.00000001
 43
0.00000001
 40
0.0
 40
0.0
 40
0.0
 40
0.0
 40
0.0013085458865555
 40
0.0031157972169782
 40
0.0059079425343282
 40
0.0102765905373091
 40
0.0184845490436641
 40
0.0492184670543138
 40
0.1106040073787825
 40
1.0
 40
1.0
 40
1.0
 40
1.0
 10
1120.462708748088
 20
1143.599179180091
 30
0.0
 10
1120.462792871264
 20
1143.599205119851
 30
0.0
 10
1120.462993178154
 20
1143.599266885382
 30
0.0
 10
1120.464824951042
 20
1143.599828962725
 30
0.0
 10
1120.468824378653
 20
1143.60118689677
 30
0.0
 10
1120.477102114229
 20
1143.603784143819
 30
0.0
 10
1120.502492546054
 20
1143.61217006547
 30
0.0
 10
1120.565085836379
 20
1143.632369163777
 30
0.0
 10
1121.184474611258
 20
1143.833968264564
 30
0.0
 10
1121.794345928266
 20
1144.031986348111
 30
0.0
 10
1122.364841974483
 20
1144.217219741767
 30
0.0
  0
LWPOLYLINE
  5
31C
330
1F
100
AcDbEntity
  8
0
  6
SLD-Solid
 62
     7
370
    15
100
AcDbPolyline
 90
        9
 70
   128
 43
0.0
 10
1120.5844810374
 20
1143.2244447784
 10
1120.6457248099
 20
1143.035915287
 10
1120.7072964079
 20
1142.8464321212
 10
1120.7691362269
 20
1142.6561144905
 10
1120.8311846621
 20
1142.4651412086
 10
1120.8934119112
 20
1142.2735718803
 10
1120.955788172
 20
1142.0816449241
 10
1121.0182538397
 20
1141.8894199447
 10
1121.0807493098
 20
1141.697075756
  0
LWPOLYLINE
  5
31D
330
1F
100
AcDbEntity
  8
0
  6
SLD-Solid
 62
     7
370
    15
100
AcDbPolyline
 90
        9
 70
   128
 43
0.0
 10
1121.0807493098
 20
1141.697075756
 10
1121.11090926
 20
1141.6042713241
 10
1121.1398771174
 20
1141.5151027755
 10
1121.1665799982
 20
1141.4328483657
 10
1121.1900046236
 20
1141.3607863502
 10
1121.2092271216
 20
1141.3016585426
 10
1121.223502434
 20
1141.2577299194
 10
1121.2322941191
 20
1141.2306694107
 10
1121.2352743513
 20
1141.2215499
  0
LINE
  5
31E
330
1F
100
AcDbEntity
  8
0
  6
SLD-Solid
 62
     7
370
    15
100
AcDbLine
 10
1123.1481662161
 20
1141.8063310699
 30
0.0
 11
1121.2352743513
 21
1141.2215499
 31
0.0
  0
LINE
  5
31F
330
1F
100
AcDbEntity
  8
0
  6
SLD-Solid
 62
     7
370
    15
100
AcDbLine
 10
1124.0678360827
 20
1138.9758853034
 30
0.0
 11
1122.164570368
 21
1138.3613614158
 31
0.0
  0
LWPOLYLINE
  5
320
330
1F
100
AcDbEntity
  8
0
  6
SLD-Solid
 62
     7
370
    15
100
AcDbPolyline
 90
        9
 70
   128
 43
0.0
 10
1121.2352743513
 20
1141.2215499
 10
1121.3626196749
 20
1140.8295301513
 10
1121.4878192313
 20
1140.4441861228
 10
1121.6103365786
 20
1140.0671867446
 10
1121.7296054728
 20
1139.7001413421
 10
1121.8451192744
 20
1139.3445400314
 10
1121.9564607508
 20
1139.0019325332
 10
1122.0630934603
 20
1138.6737493591
 10
1122.164570368
 20
1138.3613614158
  0
LWPOLYLINE
  5
321
330
1F
100
AcDbEntity
  8
0
  6
SLD-Solid
 62
     7
370
    15
100
AcDbPolyline
 90
        9
 70
   128
 43
0.0
 10
1122.5106349356
 20
1137.2962860183
 10
1122.5330164797
 20
1137.2274426536
 10
1122.5568285353
 20
1137.1541885452
 10
1122.5814154513
 20
1137.0784906463
 10
1122.6061513789
 20
1137.0023159103
 10
1122.6304402716
 20
1136.9275716857
 10
1122.6536562807
 20
1136.8561653213
 10
1122.6751437552
 20
1136.7900041656
 10
1122.6943960554
 20
1136.7307571487
  0
LINE
  5
322
330
1F
100
AcDbEntity
  8
0
  6
SLD-Solid
 62
     7
370
    15
100
AcDbLine
 10
1122.164570368
 20
1138.3613614158
 30
0.0
 11
1122.5106349356
 21
1137.2962860183
 31
0.0
  0
LWPOLYLINE
  5
323
330
1F
100
AcDbEntity
  8
0
  6
SLD-Solid
 62
     7
370
    15
100
AcDbPolyline
 90
        9
 70
   128
 43
0.0
 10
1122.6943960554
 20
1136.7307571487
 10
1122.7395763762
 20
1136.5917591171
 10
1122.7835348017
 20
1136.4564565734
 10
1122.8262415297
 20
1136.3249687271
 10
1122.8676965601
 20
1136.1974147872
 10
1122.9078402884
 20
1136.0739139633
 10
1122.9466429121
 20
1135.9544662551
 10
1122.9841044314
 20
1135.8391908721
 10
1123.0201652415
 20
1135.7281474189
  0
LINE
  5
324
330
1F
100
AcDbEntity
  8
0
  6
SLD-Solid
 62
     7
370
    15
100
AcDbLine
 10
1123.0201652415
 20
1135.7281474189
 30
0.0
 11
1123.0466595061
 21
1135.6466082649
 31
0.0
  0
SPLINE
  5
325
330
1F
100
AcDbEntity
  8
0
  6
SLD-Solid
 62
     7
370
    15
100
AcDbSpline
210
0.0
220
0.0
230
1.0
 70
     8
 71
     3
 72
    16
 73
    12
 74
     0
 42
0.00000001
 43
0.00000001
 40
0.0
 40
0.0
 40
0.0
 40
0.0
 40
0.0001754108679038
 40
0.1252141068734419
 40
0.2502430031025872
 40
0.3752595924652664
 40
0.5002613962516494
 40
0.6252651546700854
 40
0.7502651742773806
 40
0.8753597663996421
 40
1.0
 40
1.0
 40
1.0
 40
1.0
 10
1115.203552520976
 20
1173.781898410743
 30
0.0
 10
1115.203462999176
 20
1173.781918301125
 30
0.0
 10
1115.139559363068
 20
1173.796116716869
 30
0.0
 10
1115.362671695335
 20
1173.756769832642
 30
0.0
 10
1115.878126408447
 20
1173.691934018229
 30
0.0
 10
1116.716684764746
 20
1173.597564690293
 30
0.0
 10
1117.692247077422
 20
1173.516671405021
 30
0.0
 10
1118.674818471361
 20
1173.465738171793
 30
0.0
 10
1119.501550661401
 20
1173.44744983184
 30
0.0
 10
1120.079031356058
 20
1173.448856105169
 30
0.0
 10
1120.154538156866
 20
1173.449910662029
 30
0.0
 10
1120.192222870098
 20
1173.450436981147
 30
0.0
  0
LWPOLYLINE
  5
326
330
1F
100
AcDbEntity
  8
0
  6
SLD-Solid
 62
     7
370
    15
100
AcDbPolyline
 90
        6
 70
   128
 43
0.0
 10
1120.4589536555
 20
1143.6106828765
 10
1120.1526751883
 20
1144.5533303337
 10
1119.8826065428
 20
1145.3846363143
 10
1119.6983685858
 20
1145.9515956954
 10
1119.6163823969
 20
1146.2039617614
 10
1119.6129253275
 20
1146.2145713882
  0
LINE
  5
327
330
1F
100
AcDbEntity
  8
0
  6
SLD-Solid
 62
     7
370
    15
100
AcDbLine
 10
1122.2103169329
 20
1144.6927455978
 30
0.0
 11
1120.3082135088
 21
1144.0747050361
 31
0.0
  0
LINE
  5
328
330
1F
100
AcDbEntity
  8
0
  6
SLD-Solid
 62
     7
370
    15
100
AcDbLine
 10
1031.5448573
 20
1198.4415916519
 30
0.0
 11
1079.0948500998
 21
1198.4415916519
 31
0.0
  0
LINE
  5
329
330
1F
100
AcDbEntity
  8
0
  6
SLD-Solid
 62
     7
370
    15
100
AcDbLine
 10
1031.5448573
 20
1198.4415916519
 30
0.0
 11
1031.5448573
 21
1198.6416248397
 31
0.0
  0
LINE
  5
32A
330
1F
100
AcDbEntity
  8
0
  6
SLD-Solid
 62
     7
370
    15
100
AcDbLine
 10
998.4948566325
 20
1215.0315908508
 30
0.0
 11
998.4948566325
 21
1215.0416044311
 31
0.0
  0
LINE
  5
32B
330
1F
100
AcDbEntity
  8
0
  6
SLD-Solid
 62
     7
370
    15
100
AcDbLine
 10
1019.4664230711
 20
1215.0416044311
 30
0.0
 11
1019.2448428042
 21
1215.0416044311
 31
0.0
  0
LINE
  5
32C
330
1F
100
AcDbEntity
  8
0
  6
SLD-Solid
 62
     7
370
    15
100
AcDbLine
 10
1117.0227756865
 20
1190.0434164123
 30
0.0
 11
1116.7088082201
 21
1190.0159386711
 31
0.0
  0
LINE
  5
32D
330
1F
100
AcDbEntity
  8
0
  6
SLD-Solid
 62
     7
370
    15
100
AcDbLine
 10
1117.7924504645
 20
1190.487113388
 30
0.0
 11
1117.8016295798
 21
1190.3820900039
 31
0.0
  0
LINE
  5
32E
330
1F
100
AcDbEntity
  8
0
  6
SLD-Solid
 62
     7
370
    15
100
AcDbLine
 10
439.4948413737
 20
1198.4415916519
 30
0.0
 11
439.4948413737
 21
1199.0415720062
 31
0.0
  0
LINE
  5
32F
330
1F
100
AcDbEntity
  8
0
  6
SLD-Solid
 62
     7
370
    15
100
AcDbLine
 10
1077.7948429949
 20
1181.9415954666
 30
0.0
 11
1079.0948500998
 21
1183.2415727691
 31
0.0
  0
LINE
  5
330
330
1F
100
AcDbEntity
  8
0
  6
SLD-Solid
 62
     7
370
    15
100
AcDbLine
 10
438.2948508627
 20
1197.0415977554
 30
0.0
 11
438.2948508627
 21
1198.4415916519
 31
0.0
  0
LINE
  5
331
330
1F
100
AcDbEntity
  8
0
  6
SLD-Solid
 62
     7
370
    15
100
AcDbLine
 10
438.2948508627
 20
1198.4415916519
 30
0.0
 11
1031.5448573
 21
1198.4415916519
 31
0.0
  0
LINE
  5
332
330
1F
100
AcDbEntity
  8
0
  6
SLD-Solid
 62
     7
370
    15
100
AcDbLine
 10
437.7948573
 20
1197.2415713386
 30
0.0
 11
428.2948305971
 21
1197.2415713386
 31
0.0
  0
LINE
  5
333
330
1F
100
AcDbEntity
  8
0
  6
SLD-Solid
 62
     7
370
    15
100
AcDbLine
 10
437.7948573
 20
1197.2415713386
 30
0.0
 11
437.7948573
 21
1197.0415977554
 31
0.0
  0
LINE
  5
334
330
1F
100
AcDbEntity
  8
0
  6
SLD-Solid
 62
     7
370
    15
100
AcDbLine
 10
428.2948305971
 20
1197.2415713386
 30
0.0
 11
428.2948305971
 21
1199.0415720062
 31
0.0
  0
LINE
  5
335
330
1F
100
AcDbEntity
  8
0
  6
SLD-Solid
 62
     7
370
    15
100
AcDbLine
 10
378.2948484785
 20
1199.0415720062
 30
0.0
 11
378.2948484785
 21
1197.0415977554
 31
0.0
  0
LINE
  5
336
330
1F
100
AcDbEntity
  8
0
  6
SLD-Solid
 62
     7
370
    15
100
AcDbLine
 10
1060.9948566325
 20
351.441603692
 30
0.0
 11
1003.9948454268
 21
351.441603692
 31
0.0
  0
LINE
  5
337
330
1F
100
AcDbEntity
  8
0
  6
SLD-Solid
 62
     7
370
    15
100
AcDbLine
 10
1058.9948525793
 20
345.4415915327
 30
0.0
 11
1005.9948494799
 21
345.4415915327
 31
0.0
  0
LINE
  5
338
330
1F
100
AcDbEntity
  8
0
  6
SLD-Solid
 62
     7
370
    15
100
AcDbLine
 10
471.9948401816
 20
351.441603692
 30
0.0
 11
414.9948289759
 21
351.441603692
 31
0.0
  0
LINE
  5
339
330
1F
100
AcDbEntity
  8
0
  6
SLD-Solid
 62
     7
370
    15
100
AcDbLine
 10
469.9948361285
 20
345.4415915327
 30
0.0
 11
416.994833029
 21
345.4415915327
 31
0.0
  0
LINE
  5
33A
330
1F
100
AcDbEntity
  8
0
  6
SLD-Solid
 62
     7
370
    15
100
AcDbLine
 10
478.4948459036
 20
513.4415967183
 30
0.0
 11
478.4948459036
 21
515.4415970461
 31
0.0
  0
LINE
  5
33B
330
1F
100
AcDbEntity
  8
0
  6
SLD-Solid
 62
     7
370
    15
100
AcDbLine
 10
408.4948530562
 20
515.4415970461
 30
0.0
 11
478.4948459036
 21
515.4415970461
 31
0.0
  0
LINE
  5
33C
330
1F
100
AcDbEntity
  8
0
  6
SLD-Solid
 62
     7
370
    15
100
AcDbLine
 10
408.4948530562
 20
513.4415967183
 30
0.0
 11
478.4948459036
 21
513.4415967183
 31
0.0
  0
LINE
  5
33D
330
1F
100
AcDbEntity
  8
0
  6
SLD-Solid
 62
     7
370
    15
100
AcDbLine
 10
408.4948530562
 20
513.4415967183
 30
0.0
 11
408.4948530562
 21
515.4415970461
 31
0.0
  0
LINE
  5
33E
330
1F
100
AcDbEntity
  8
0
  6
SLD-Solid
 62
     7
370
    15
100
AcDbLine
 10
474.4544854529
 20
419.4415924863
 30
0.0
 11
412.5351837046
 21
419.4415924863
 31
0.0
  0
LINE
  5
33F
330
1F
100
AcDbEntity
  8
0
  6
SLD-Solid
 62
     7
370
    15
100
AcDbLine
 10
1067.4948325522
 20
513.4415967183
 30
0.0
 11
1067.4948325522
 21
515.4415970461
 31
0.0
  0
LINE
  5
340
330
1F
100
AcDbEntity
  8
0
  6
SLD-Solid
 62
     7
370
    15
100
AcDbLine
 10
997.4948397047
 20
515.4415970461
 30
0.0
 11
1067.4948325522
 21
515.4415970461
 31
0.0
  0
LINE
  5
341
330
1F
100
AcDbEntity
  8
0
  6
SLD-Solid
 62
     7
370
    15
100
AcDbLine
 10
997.4948397047
 20
513.4415967183
 30
0.0
 11
1067.4948325522
 21
513.4415967183
 31
0.0
  0
LINE
  5
342
330
1F
100
AcDbEntity
  8
0
  6
SLD-Solid
 62
     7
370
    15
100
AcDbLine
 10
997.4948397047
 20
513.4415967183
 30
0.0
 11
997.4948397047
 21
515.4415970461
 31
0.0
  0
LINE
  5
343
330
1F
100
AcDbEntity
  8
0
  6
SLD-Solid
 62
     7
370
    15
100
AcDbLine
 10
1063.4545019038
 20
419.4415924863
 30
0.0
 11
1001.5352001555
 21
419.4415924863
 31
0.0
  0
LINE
  5
344
330
1F
100
AcDbEntity
  8
0
  6
SLD-Solid
 62
     7
370
    15
100
AcDbLine
 10
1097.9948571093
 20
933.441605957
 30
0.0
 11
1097.9948571093
 21
932.7416090087
 31
0.0
  0
LINE
  5
345
330
1F
100
AcDbEntity
  8
0
  6
SLD-Solid
 62
     7
370
    15
100
AcDbLine
 10
1097.9948571093
 20
932.7416090087
 30
0.0
 11
375.501923836
 21
932.7416090087
 31
0.0
  0
LINE
  5
346
330
1F
100
AcDbEntity
  8
0
  6
SLD-Solid
 62
     7
370
    15
100
AcDbLine
 10
375.501923836
 20
932.7416090087
 30
0.0
 11
375.501923836
 21
933.441605957
 31
0.0
  0
LINE
  5
347
330
1F
100
AcDbEntity
  8
0
  6
SLD-Solid
 62
     7
370
    15
100
AcDbLine
 10
1077.9948463805
 20
1059.6416262702
 30
0.0
 11
1077.9948463805
 21
1059.2416194992
 31
0.0
  0
LINE
  5
348
330
1F
100
AcDbEntity
  8
0
  6
SLD-Solid
 62
     7
370
    15
100
AcDbLine
 10
972.4948486454
 20
929.7415880279
 30
0.0
 11
974.9948462612
 21
929.7415880279
 31
0.0
  0
LINE
  5
349
330
1F
100
AcDbEntity
  8
0
  6
SLD-Solid
 62
     7
370
    15
100
AcDbLine
 10
972.4948486454
 20
929.7415880279
 30
0.0
 11
972.4948486454
 21
932.2415856437
 31
0.0
  0
LINE
  5
34A
330
1F
100
AcDbEntity
  8
0
  6
SLD-Solid
 62
     7
370
    15
100
AcDbLine
 10
972.4948486454
 20
932.2415856437
 30
0.0
 11
974.9948462612
 21
932.2415856437
 31
0.0
  0
LINE
  5
34B
330
1F
100
AcDbEntity
  8
0
  6
SLD-Solid
 62
     7
370
    15
100
AcDbLine
 10
974.9948462612
 20
932.2415856437
 30
0.0
 11
990.6948438055
 21
932.2415856437
 31
0.0
  0
LINE
  5
34C
330
1F
100
AcDbEntity
  8
0
  6
SLD-Solid
 62
     7
370
    15
100
AcDbLine
 10
974.9948462612
 20
929.7415880279
 30
0.0
 11
990.6948438055
 21
929.7415880279
 31
0.0
  0
LINE
  5
34D
330
1F
100
AcDbEntity
  8
0
  6
SLD-Solid
 62
     7
370
    15
100
AcDbLine
 10
996.6948559649
 20
932.2415856437
 30
0.0
 11
1068.2948460944
 21
932.2415856437
 31
0.0
  0
LINE
  5
34E
330
1F
100
AcDbEntity
  8
0
  6
SLD-Solid
 62
     7
370
    15
100
AcDbLine
 10
996.6948559649
 20
929.7415880279
 30
0.0
 11
1012.5806262858
 21
929.7415880279
 31
0.0
  0
LINE
  5
34F
330
1F
100
AcDbEntity
  8
0
  6
SLD-Solid
 62
     7
370
    15
100
AcDbLine
 10
1052.4090459711
 20
929.7415880279
 30
0.0
 11
1068.2948460944
 21
929.7415880279
 31
0.0
  0
LINE
  5
350
330
1F
100
AcDbEntity
  8
0
  6
SLD-Solid
 62
     7
370
    15
100
AcDbLine
 10
993.1948414214
 20
929.7415880279
 30
0.0
 11
993.1948414214
 21
932.2415856437
 31
0.0
  0
LINE
  5
351
330
1F
100
AcDbEntity
  8
0
  6
SLD-Solid
 62
     7
370
    15
100
AcDbLine
 10
990.6948438055
 20
932.2415856437
 30
0.0
 11
993.1948414214
 21
932.2415856437
 31
0.0
  0
LINE
  5
352
330
1F
100
AcDbEntity
  8
0
  6
SLD-Solid
 62
     7
370
    15
100
AcDbLine
 10
990.6948438055
 20
929.7415880279
 30
0.0
 11
993.1948414214
 21
929.7415880279
 31
0.0
  0
LINE
  5
353
330
1F
100
AcDbEntity
  8
0
  6
SLD-Solid
 62
     7
370
    15
100
AcDbLine
 10
994.1948285467
 20
929.7415880279
 30
0.0
 11
994.1948285467
 21
932.2415856437
 31
0.0
  0
LINE
  5
354
330
1F
100
AcDbEntity
  8
0
  6
SLD-Solid
 62
     7
370
    15
100
AcDbLine
 10
994.1948285467
 20
932.2415856437
 30
0.0
 11
996.6948559649
 21
932.2415856437
 31
0.0
  0
LINE
  5
355
330
1F
100
AcDbEntity
  8
0
  6
SLD-Solid
 62
     7
370
    15
100
AcDbLine
 10
994.1948285467
 20
929.7415880279
 30
0.0
 11
996.6948559649
 21
929.7415880279
 31
0.0
  0
LINE
  5
356
330
1F
100
AcDbEntity
  8
0
  6
SLD-Solid
 62
     7
370
    15
100
AcDbLine
 10
1074.2948284514
 20
932.2415856437
 30
0.0
 11
1089.9948408968
 21
932.2415856437
 31
0.0
  0
LINE
  5
357
330
1F
100
AcDbEntity
  8
0
  6
SLD-Solid
 62
     7
370
    15
100
AcDbLine
 10
1074.2948284514
 20
929.7415880279
 30
0.0
 11
1089.9948408968
 21
929.7415880279
 31
0.0
  0
LINE
  5
358
330
1F
100
AcDbEntity
  8
0
  6
SLD-Solid
 62
     7
370
    15
100
AcDbLine
 10
1070.7948437102
 20
929.7415880279
 30
0.0
 11
1070.7948437102
 21
932.2415856437
 31
0.0
  0
LINE
  5
359
330
1F
100
AcDbEntity
  8
0
  6
SLD-Solid
 62
     7
370
    15
100
AcDbLine
 10
1068.2948460944
 20
932.2415856437
 30
0.0
 11
1070.7948437102
 21
932.2415856437
 31
0.0
  0
LINE
  5
35A
330
1F
100
AcDbEntity
  8
0
  6
SLD-Solid
 62
     7
370
    15
100
AcDbLine
 10
1068.2948460944
 20
929.7415880279
 30
0.0
 11
1070.7948437102
 21
929.7415880279
 31
0.0
  0
LINE
  5
35B
330
1F
100
AcDbEntity
  8
0
  6
SLD-Solid
 62
     7
370
    15
100
AcDbLine
 10
1071.7948308356
 20
929.7415880279
 30
0.0
 11
1071.7948308356
 21
932.2415856437
 31
0.0
  0
LINE
  5
35C
330
1F
100
AcDbEntity
  8
0
  6
SLD-Solid
 62
     7
370
    15
100
AcDbLine
 10
1071.7948308356
 20
932.2415856437
 30
0.0
 11
1074.2948284514
 21
932.2415856437
 31
0.0
  0
LINE
  5
35D
330
1F
100
AcDbEntity
  8
0
  6
SLD-Solid
 62
     7
370
    15
100
AcDbLine
 10
1071.7948308356
 20
929.7415880279
 30
0.0
 11
1074.2948284514
 21
929.7415880279
 31
0.0
  0
LINE
  5
35E
330
1F
100
AcDbEntity
  8
0
  6
SLD-Solid
 62
     7
370
    15
100
AcDbLine
 10
1092.4948385126
 20
929.7415880279
 30
0.0
 11
1092.4948385126
 21
932.2415856437
 31
0.0
  0
LINE
  5
35F
330
1F
100
AcDbEntity
  8
0
  6
SLD-Solid
 62
     7
370
    15
100
AcDbLine
 10
1089.9948408968
 20
932.2415856437
 30
0.0
 11
1092.4948385126
 21
932.2415856437
 31
0.0
  0
LINE
  5
360
330
1F
100
AcDbEntity
  8
0
  6
SLD-Solid
 62
     7
370
    15
100
AcDbLine
 10
1089.9948408968
 20
929.7415880279
 30
0.0
 11
1092.4948385126
 21
929.7415880279
 31
0.0
  0
LINE
  5
361
330
1F
100
AcDbEntity
  8
0
  6
SLD-Solid
 62
     7
370
    15
100
AcDbLine
 10
993.1948414214
 20
932.2415856437
 30
0.0
 11
994.1948285467
 21
932.2415856437
 31
0.0
  0
LINE
  5
362
330
1F
100
AcDbEntity
  8
0
  6
SLD-Solid
 62
     7
370
    15
100
AcDbLine
 10
993.1948414214
 20
929.7415880279
 30
0.0
 11
994.1948285467
 21
929.7415880279
 31
0.0
  0
LINE
  5
363
330
1F
100
AcDbEntity
  8
0
  6
SLD-Solid
 62
     7
370
    15
100
AcDbLine
 10
1070.7948437102
 20
932.2415856437
 30
0.0
 11
1071.7948308356
 21
932.2415856437
 31
0.0
  0
LINE
  5
364
330
1F
100
AcDbEntity
  8
0
  6
SLD-Solid
 62
     7
370
    15
100
AcDbLine
 10
1070.7948437102
 20
929.7415880279
 30
0.0
 11
1071.7948308356
 21
929.7415880279
 31
0.0
  0
LINE
  5
365
330
1F
100
AcDbEntity
  8
0
  6
SLD-Solid
 62
     7
370
    15
100
AcDbLine
 10
383.4948470957
 20
929.7415880279
 30
0.0
 11
383.4948470957
 21
932.2415856437
 31
0.0
  0
LINE
  5
366
330
1F
100
AcDbEntity
  8
0
  6
SLD-Solid
 62
     7
370
    15
100
AcDbLine
 10
383.4948470957
 20
932.2415856437
 30
0.0
 11
385.9948447115
 21
932.2415856437
 31
0.0
  0
LINE
  5
367
330
1F
100
AcDbEntity
  8
0
  6
SLD-Solid
 62
     7
370
    15
100
AcDbLine
 10
383.4948470957
 20
929.7415880279
 30
0.0
 11
385.9948447115
 21
929.7415880279
 31
0.0
  0
LINE
  5
368
330
1F
100
AcDbEntity
  8
0
  6
SLD-Solid
 62
     7
370
    15
100
AcDbLine
 10
385.9948447115
 20
932.2415856437
 30
0.0
 11
401.694857157
 21
932.2415856437
 31
0.0
  0
LINE
  5
369
330
1F
100
AcDbEntity
  8
0
  6
SLD-Solid
 62
     7
370
    15
100
AcDbLine
 10
385.9948447115
 20
929.7415880279
 30
0.0
 11
401.694857157
 21
929.7415880279
 31
0.0
  0
LINE
  5
36A
330
1F
100
AcDbEntity
  8
0
  6
SLD-Solid
 62
     7
370
    15
100
AcDbLine
 10
404.1948547728
 20
929.7415880279
 30
0.0
 11
404.1948547728
 21
932.2415856437
 31
0.0
  0
LINE
  5
36B
330
1F
100
AcDbEntity
  8
0
  6
SLD-Solid
 62
     7
370
    15
100
AcDbLine
 10
401.694857157
 20
932.2415856437
 30
0.0
 11
404.1948547728
 21
932.2415856437
 31
0.0
  0
LINE
  5
36C
330
1F
100
AcDbEntity
  8
0
  6
SLD-Solid
 62
     7
370
    15
100
AcDbLine
 10
401.694857157
 20
929.7415880279
 30
0.0
 11
404.1948547728
 21
929.7415880279
 31
0.0
  0
LINE
  5
36D
330
1F
100
AcDbEntity
  8
0
  6
SLD-Solid
 62
     7
370
    15
100
AcDbLine
 10
405.1948418982
 20
929.7415880279
 30
0.0
 11
405.1948418982
 21
932.2415856437
 31
0.0
  0
LINE
  5
36E
330
1F
100
AcDbEntity
  8
0
  6
SLD-Solid
 62
     7
370
    15
100
AcDbLine
 10
405.1948418982
 20
932.2415856437
 30
0.0
 11
407.694839514
 21
932.2415856437
 31
0.0
  0
LINE
  5
36F
330
1F
100
AcDbEntity
  8
0
  6
SLD-Solid
 62
     7
370
    15
100
AcDbLine
 10
405.1948418982
 20
929.7415880279
 30
0.0
 11
407.694839514
 21
929.7415880279
 31
0.0
  0
LINE
  5
370
330
1F
100
AcDbEntity
  8
0
  6
SLD-Solid
 62
     7
370
    15
100
AcDbLine
 10
407.694839514
 20
932.2415856437
 30
0.0
 11
479.2948296435
 21
932.2415856437
 31
0.0
  0
LINE
  5
371
330
1F
100
AcDbEntity
  8
0
  6
SLD-Solid
 62
     7
370
    15
100
AcDbLine
 10
407.694839514
 20
929.7415880279
 30
0.0
 11
423.5806396372
 21
929.7415880279
 31
0.0
  0
LINE
  5
372
330
1F
100
AcDbEntity
  8
0
  6
SLD-Solid
 62
     7
370
    15
100
AcDbLine
 10
463.4090593226
 20
929.7415880279
 30
0.0
 11
479.2948296435
 21
929.7415880279
 31
0.0
  0
LINE
  5
373
330
1F
100
AcDbEntity
  8
0
  6
SLD-Solid
 62
     7
370
    15
100
AcDbLine
 10
481.7948570616
 20
929.7415880279
 30
0.0
 11
481.7948570616
 21
932.2415856437
 31
0.0
  0
LINE
  5
374
330
1F
100
AcDbEntity
  8
0
  6
SLD-Solid
 62
     7
370
    15
100
AcDbLine
 10
479.2948296435
 20
932.2415856437
 30
0.0
 11
481.7948570616
 21
932.2415856437
 31
0.0
  0
LINE
  5
375
330
1F
100
AcDbEntity
  8
0
  6
SLD-Solid
 62
     7
370
    15
100
AcDbLine
 10
479.2948296435
 20
929.7415880279
 30
0.0
 11
481.7948570616
 21
929.7415880279
 31
0.0
  0
LINE
  5
376
330
1F
100
AcDbEntity
  8
0
  6
SLD-Solid
 62
     7
370
    15
100
AcDbLine
 10
482.794844187
 20
929.7415880279
 30
0.0
 11
482.794844187
 21
932.2415856437
 31
0.0
  0
LINE
  5
377
330
1F
100
AcDbEntity
  8
0
  6
SLD-Solid
 62
     7
370
    15
100
AcDbLine
 10
482.794844187
 20
932.2415856437
 30
0.0
 11
485.2948418028
 21
932.2415856437
 31
0.0
  0
LINE
  5
378
330
1F
100
AcDbEntity
  8
0
  6
SLD-Solid
 62
     7
370
    15
100
AcDbLine
 10
482.794844187
 20
929.7415880279
 30
0.0
 11
485.2948418028
 21
929.7415880279
 31
0.0
  0
LINE
  5
379
330
1F
100
AcDbEntity
  8
0
  6
SLD-Solid
 62
     7
370
    15
100
AcDbLine
 10
485.2948418028
 20
932.2415856437
 30
0.0
 11
500.9948393471
 21
932.2415856437
 31
0.0
  0
LINE
  5
37A
330
1F
100
AcDbEntity
  8
0
  6
SLD-Solid
 62
     7
370
    15
100
AcDbLine
 10
485.2948418028
 20
929.7415880279
 30
0.0
 11
500.9948393471
 21
929.7415880279
 31
0.0
  0
LINE
  5
37B
330
1F
100
AcDbEntity
  8
0
  6
SLD-Solid
 62
     7
370
    15
100
AcDbLine
 10
503.4948369629
 20
929.7415880279
 30
0.0
 11
503.4948369629
 21
932.2415856437
 31
0.0
  0
LINE
  5
37C
330
1F
100
AcDbEntity
  8
0
  6
SLD-Solid
 62
     7
370
    15
100
AcDbLine
 10
500.9948393471
 20
932.2415856437
 30
0.0
 11
503.4948369629
 21
932.2415856437
 31
0.0
  0
LINE
  5
37D
330
1F
100
AcDbEntity
  8
0
  6
SLD-Solid
 62
     7
370
    15
100
AcDbLine
 10
500.9948393471
 20
929.7415880279
 30
0.0
 11
503.4948369629
 21
929.7415880279
 31
0.0
  0
LINE
  5
37E
330
1F
100
AcDbEntity
  8
0
  6
SLD-Solid
 62
     7
370
    15
100
AcDbLine
 10
404.1948547728
 20
932.2415856437
 30
0.0
 11
405.1948418982
 21
932.2415856437
 31
0.0
  0
LINE
  5
37F
330
1F
100
AcDbEntity
  8
0
  6
SLD-Solid
 62
     7
370
    15
100
AcDbLine
 10
404.1948547728
 20
929.7415880279
 30
0.0
 11
405.1948418982
 21
929.7415880279
 31
0.0
  0
LINE
  5
380
330
1F
100
AcDbEntity
  8
0
  6
SLD-Solid
 62
     7
370
    15
100
AcDbLine
 10
481.7948570616
 20
932.2415856437
 30
0.0
 11
482.794844187
 21
932.2415856437
 31
0.0
  0
LINE
  5
381
330
1F
100
AcDbEntity
  8
0
  6
SLD-Solid
 62
     7
370
    15
100
AcDbLine
 10
481.7948570616
 20
929.7415880279
 30
0.0
 11
482.794844187
 21
929.7415880279
 31
0.0
  0
LINE
  5
382
330
1F
100
AcDbEntity
  8
0
  6
SLD-Solid
 62
     7
370
    15
100
AcDbLine
 10
1013.99483589
 20
929.7415880279
 30
0.0
 11
1050.9948363669
 21
929.7415880279
 31
0.0
  0
LINE
  5
383
330
1F
100
AcDbEntity
  8
0
  6
SLD-Solid
 62
     7
370
    15
100
AcDbLine
 10
1012.4948552019
 20
929.7415880279
 30
0.0
 11
1012.4948552019
 21
556.7415979018
 31
0.0
  0
LINE
  5
384
330
1F
100
AcDbEntity
  8
0
  6
SLD-Solid
 62
     7
370
    15
100
AcDbLine
 10
1012.5806262858
 20
929.7415880279
 30
0.0
 11
1013.99483589
 21
929.7415880279
 31
0.0
  0
LINE
  5
385
330
1F
100
AcDbEntity
  8
0
  6
SLD-Solid
 62
     7
370
    15
100
AcDbLine
 10
1052.4948468573
 20
929.7415880279
 30
0.0
 11
1052.4948468573
 21
556.7415979018
 31
0.0
  0
LINE
  5
386
330
1F
100
AcDbEntity
  8
0
  6
SLD-Solid
 62
     7
370
    15
100
AcDbLine
 10
1050.9948363669
 20
929.7415880279
 30
0.0
 11
1052.4090459711
 21
929.7415880279
 31
0.0
  0
LINE
  5
387
330
1F
100
AcDbEntity
  8
0
  6
SLD-Solid
 62
     7
370
    15
100
AcDbLine
 10
423.4948387511
 20
929.7415880279
 30
0.0
 11
423.4948387511
 21
556.7415979018
 31
0.0
  0
LINE
  5
388
330
1F
100
AcDbEntity
  8
0
  6
SLD-Solid
 62
     7
370
    15
100
AcDbLine
 10
423.5806396372
 20
929.7415880279
 30
0.0
 11
424.9948492415
 21
929.7415880279
 31
0.0
  0
LINE
  5
389
330
1F
100
AcDbEntity
  8
0
  6
SLD-Solid
 62
     7
370
    15
100
AcDbLine
 10
424.9948492415
 20
929.7415880279
 30
0.0
 11
461.9948497183
 21
929.7415880279
 31
0.0
  0
LINE
  5
38A
330
1F
100
AcDbEntity
  8
0
  6
SLD-Solid
 62
     7
370
    15
100
AcDbLine
 10
463.4948304064
 20
929.7415880279
 30
0.0
 11
463.4948304064
 21
556.7415979018
 31
0.0
  0
LINE
  5
38B
330
1F
100
AcDbEntity
  8
0
  6
SLD-Solid
 62
     7
370
    15
100
AcDbLine
 10
461.9948497183
 20
929.7415880279
 30
0.0
 11
463.4090593226
 21
929.7415880279
 31
0.0
  0
LINE
  5
38C
330
1F
100
AcDbEntity
  8
0
  6
SLD-Solid
 62
     7
370
    15
100
AcDbLine
 10
373.3019163973
 20
521.7415993826
 30
0.0
 11
1131.6877832777
 21
521.7415993826
 31
0.0
  0
LINE
  5
38D
330
1F
100
AcDbEntity
  8
0
  6
SLD-Solid
 62
     7
370
    15
100
AcDbLine
 10
373.3019163973
 20
554.6915978626
 30
0.0
 11
373.3019163973
 21
521.7415993826
 31
0.0
  0
LINE
  5
38E
330
1F
100
AcDbEntity
  8
0
  6
SLD-Solid
 62
     7
370
    15
100
AcDbLine
 10
1131.6877832777
 20
554.6915978626
 30
0.0
 11
1131.6877832777
 21
521.7415993826
 31
0.0
  0
SPLINE
  5
38F
330
1F
100
AcDbEntity
  8
0
  6
SLD-Solid
 62
     7
370
    15
100
AcDbSpline
210
0.0
220
0.0
230
1.0
 70
     8
 71
     3
 72
    12
 73
     8
 74
     0
 42
0.00000001
 43
0.00000001
 40
0.0
 40
0.0
 40
0.0
 40
0.0
 40
0.2301681800692822
 40
0.460416372102168
 40
0.69067077987764
 40
0.9209281822189119
 40
1.0
 40
1.0
 40
1.0
 40
1.0
 10
1130.444847620235
 20
556.7415979017819
 30
0.0
 10
1130.540229790613
 20
556.7155214696804
 30
0.0
 10
1130.731027288492
 20
556.6633595406859
 30
0.0
 10
1131.017335058567
 20
556.2586396588969
 30
0.0
 10
1131.303428685901
 20
555.6706125693099
 30
0.0
 10
1131.527585531905
 20
555.1065991296745
 30
0.0
 10
1131.655169752716
 20
554.7760850327484
 30
0.0
 10
1131.687783277736
 20
554.6915978626198
 30
0.0
  0
LINE
  5
390
330
1F
100
AcDbEntity
  8
0
  6
SLD-Solid
 62
     7
370
    15
100
AcDbLine
 10
374.5448520548
 20
556.7415979018
 30
0.0
 11
1130.4448476202
 21
556.7415979018
 31
0.0
  0
SPLINE
  5
391
330
1F
100
AcDbEntity
  8
0
  6
SLD-Solid
 62
     7
370
    15
100
AcDbSpline
210
0.0
220
0.0
230
1.0
 70
     8
 71
     3
 72
    12
 73
     8
 74
     0
 42
0.00000001
 43
0.00000001
 40
0.0
 40
0.0
 40
0.0
 40
0.0
 40
0.2301684720203016
 40
0.460421357166228
 40
0.690674505395101
 40
0.920928556298993
 40
1.0
 40
1.0
 40
1.0
 40
1.0
 10
373.3019163973192
 20
554.6915978626198
 30
0.0
 10
373.3973003911403
 20
554.9386768079764
 30
0.0
 10
373.5881033603808
 20
555.4329253136464
 30
0.0
 10
373.8743849481729
 20
556.0790500875855
 30
0.0
 10
374.1605494073334
 20
556.5429979889699
 30
0.0
 10
374.384651649506
 20
556.725806414808
 30
0.0
 10
374.5122377984234
 20
556.7383830060139
 30
0.0
 10
374.5448520548204
 20
556.7415979017819
 30
0.0
  0
SPLINE
  5
392
330
1F
100
AcDbEntity
  8
0
  6
SLD-Solid
 62
     7
370
    15
100
AcDbSpline
210
0.0
220
0.0
230
1.0
 70
     8
 71
     3
 72
    10
 73
     6
 74
     0
 42
0.00000001
 43
0.00000001
 40
0.0
 40
0.0
 40
0.0
 40
0.0
 40
0.0101006998617114
 40
0.5229258260503246
 40
1.0
 40
1.0
 40
1.0
 40
1.0
 10
373.6568322546343
 20
555.5686139992754
 30
0.0
 10
373.6541331601127
 20
555.5667847778308
 30
0.0
 10
373.5143976713307
 20
555.4720837028528
 30
0.0
 10
373.3540675212259
 20
555.1577314756358
 30
0.0
 10
373.3141103101818
 20
554.843189089256
 30
0.0
 10
373.2948532469132
 20
554.6915978626198
 30
0.0
  0
LINE
  5
393
330
1F
100
AcDbEntity
  8
0
  6
SLD-Solid
 62
     7
370
    15
100
AcDbLine
 10
372.4948397047
 20
554.6915978626
 30
0.0
 11
373.2948532469
 21
554.6915978626
 31
0.0
  0
SPLINE
  5
394
330
1F
100
AcDbEntity
  8
0
  6
SLD-Solid
 62
     7
370
    15
100
AcDbSpline
210
0.0
220
0.0
230
1.0
 70
     8
 71
     3
 72
    12
 73
     8
 74
     0
 42
0.00000001
 43
0.00000001
 40
0.0
 40
0.0
 40
0.0
 40
0.0
 40
0.230167308684687
 40
0.4604215527386376
 40
0.6906750888030685
 40
0.9209284815737745
 40
1.0
 40
1.0
 40
1.0
 40
1.0
 10
374.5448520548204
 20
556.7415979017819
 30
0.0
 10
374.2977741095933
 20
556.7155199719062
 30
0.0
 10
373.8035248965359
 20
556.6633542623875
 30
0.0
 10
373.1573977218
 20
556.2586478912336
 30
0.0
 10
372.6934479822967
 20
555.670618363519
 30
0.0
 10
372.510640329368
 20
555.1065948929732
 30
0.0
 10
372.4980564680404
 20
554.7760848527919
 30
0.0
 10
372.494839704738
 20
554.6915978626198
 30
0.0
  0
LINE
  5
395
330
1F
100
AcDbEntity
  8
0
  6
SLD-Solid
 62
     7
370
    15
100
AcDbLine
 10
1132.494830168
 20
554.6915978626
 30
0.0
 11
1131.6948464281
 21
554.6915978626
 31
0.0
  0
SPLINE
  5
396
330
1F
100
AcDbEntity
  8
0
  6
SLD-Solid
 62
     7
370
    15
100
AcDbSpline
210
0.0
220
0.0
230
1.0
 70
     8
 71
     3
 72
     9
 73
     5
 74
     0
 42
0.00000001
 43
0.00000001
 40
0.0
 40
0.0
 40
0.0
 40
0.0
 40
0.5275126862115131
 40
1.0
 40
1.0
 40
1.0
 40
1.0
 10
1131.694846428142
 20
554.6915978626198
 30
0.0
 10
1131.677984535156
 20
554.8604068933945
 30
0.0
 10
1131.646019629995
 20
555.1804163172194
 30
0.0
 10
1131.442094201578
 20
555.4277980187577
 30
0.0
 10
1131.345742023693
 20
555.5446827343981
 30
0.0
  0
SPLINE
  5
397
330
1F
100
AcDbEntity
  8
0
  6
SLD-Solid
 62
     7
370
    15
100
AcDbSpline
210
0.0
220
0.0
230
1.0
 70
     8
 71
     3
 72
    12
 73
     8
 74
     0
 42
0.00000001
 43
0.00000001
 40
0.0
 40
0.0
 40
0.0
 40
0.0
 40
0.2301691942692667
 40
0.4604228019290393
 40
0.6906735347581741
 40
0.9209283081795703
 40
0.9999999999999999
 40
0.9999999999999999
 40
0.9999999999999999
 40
0.9999999999999999
 10
1132.494830167995
 20
554.6915978626198
 30
0.0
 10
1132.468751876009
 20
554.9386769752902
 30
0.0
 10
1132.416585727957
 20
555.4329258156487
 30
0.0
 10
1132.011881022569
 20
556.0790451432237
 30
0.0
 10
1131.423868660238
 20
556.5430017208716
 30
0.0
 10
1130.859844592007
 20
556.7258062230125
 30
0.0
 10
1130.529334407985
 20
556.7383829669675
 30
0.0
 10
1130.444847620235
 20
556.7415979017819
 30
0.0
  0
LINE
  5
398
330
1F
100
AcDbEntity
  8
0
  6
SLD-Solid
 62
     7
370
    15
100
AcDbLine
 10
373.2948532469
 20
554.6915978626
 30
0.0
 11
373.2948532469
 21
521.7415993826
 31
0.0
  0
LINE
  5
399
330
1F
100
AcDbEntity
  8
0
  6
SLD-Solid
 62
     7
370
    15
100
AcDbLine
 10
372.4948397047
 20
521.7415993826
 30
0.0
 11
373.2948532469
 21
521.7415993826
 31
0.0
  0
LINE
  5
39A
330
1F
100
AcDbEntity
  8
0
  6
SLD-Solid
 62
     7
370
    15
100
AcDbLine
 10
372.4948397047
 20
554.6915978626
 30
0.0
 11
372.4948397047
 21
521.7415993826
 31
0.0
  0
LINE
  5
39B
330
1F
100
AcDbEntity
  8
0
  6
SLD-Solid
 62
     7
370
    15
100
AcDbLine
 10
1131.6948464281
 20
554.6915978626
 30
0.0
 11
1131.6948464281
 21
521.7415993826
 31
0.0
  0
LINE
  5
39C
330
1F
100
AcDbEntity
  8
0
  6
SLD-Solid
 62
     7
370
    15
100
AcDbLine
 10
1132.494830168
 20
554.6915978626
 30
0.0
 11
1132.494830168
 21
521.7415993826
 31
0.0
  0
LINE
  5
39D
330
1F
100
AcDbEntity
  8
0
  6
SLD-Solid
 62
     7
370
    15
100
AcDbLine
 10
1132.494830168
 20
521.7415993826
 30
0.0
 11
1131.6948464281
 21
521.7415993826
 31
0.0
  0
LINE
  5
39E
330
1F
100
AcDbEntity
  8
0
  6
SLD-Solid
 62
     7
370
    15
100
AcDbLine
 10
1080.9877744086
 20
521.7415993826
 30
0.0
 11
1080.9877744086
 21
518.6915961818
 31
0.0
  0
LINE
  5
39F
330
1F
100
AcDbEntity
  8
0
  6
SLD-Solid
 62
     7
370
    15
100
AcDbLine
 10
395.0019111998
 20
521.7415993826
 30
0.0
 11
395.0019111998
 21
518.6915961818
 31
0.0
  0
LINE
  5
3A0
330
1F
100
AcDbEntity
  8
0
  6
SLD-Solid
 62
     7
370
    15
100
AcDbLine
 10
1080.9877744086
 20
518.6915961818
 30
0.0
 11
1080.9877744086
 21
515.9415980594
 31
0.0
  0
LINE
  5
3A1
330
1F
100
AcDbEntity
  8
0
  6
SLD-Solid
 62
     7
370
    15
100
AcDbLine
 10
395.0019111998
 20
515.9415980594
 30
0.0
 11
1080.9877744086
 21
515.9415980594
 31
0.0
  0
LINE
  5
3A2
330
1F
100
AcDbEntity
  8
0
  6
SLD-Solid
 62
     7
370
    15
100
AcDbLine
 10
395.0019111998
 20
515.9415980594
 30
0.0
 11
395.0019111998
 21
518.6915961818
 31
0.0
  0
LINE
  5
3A3
330
1F
100
AcDbEntity
  8
0
  6
SLD-Solid
 62
     7
370
    15
100
AcDbLine
 10
394.9948480494
 20
521.7415993826
 30
0.0
 11
394.9948480494
 21
517.4415973739
 31
0.0
  0
LINE
  5
3A4
330
1F
100
AcDbEntity
  8
0
  6
SLD-Solid
 62
     7
370
    15
100
AcDbLine
 10
394.9948480494
 20
517.4415973739
 30
0.0
 11
393.494837559
 21
517.4415973739
 31
0.0
  0
LINE
  5
3A5
330
1F
100
AcDbEntity
  8
0
  6
SLD-Solid
 62
     7
370
    15
100
AcDbLine
 10
393.494837559
 20
521.7415993826
 30
0.0
 11
393.494837559
 21
517.4415973739
 31
0.0
  0
LINE
  5
3A6
330
1F
100
AcDbEntity
  8
0
  6
SLD-Solid
 62
     7
370
    15
100
AcDbLine
 10
1080.994837559
 20
517.4415973739
 30
0.0
 11
1082.4948480494
 21
517.4415973739
 31
0.0
  0
LINE
  5
3A7
330
1F
100
AcDbEntity
  8
0
  6
SLD-Solid
 62
     7
370
    15
100
AcDbLine
 10
1080.994837559
 20
521.7415993826
 30
0.0
 11
1080.994837559
 21
517.4415973739
 31
0.0
  0
LINE
  5
3A8
330
1F
100
AcDbEntity
  8
0
  6
SLD-Solid
 62
     7
370
    15
100
AcDbLine
 10
1082.4948480494
 20
517.4415973739
 30
0.0
 11
1082.4948480494
 21
521.7415993826
 31
0.0
  0
ARC
  5
3A9
330
1F
100
AcDbEntity
  8
0
  6
SLD-Solid
 62
     7
370
    15
100
AcDbCircle
 10
396.2448428042
 20
518.6915978507
 30
0.0
 40
2.749999999999929
100
AcDbArc
 50
207.0356917894
 51
243.1295854597
  0
LINE
  5
3AA
330
1F
100
AcDbEntity
  8
0
  6
SLD-Solid
 62
     7
370
    15
100
AcDbLine
 10
394.9948480494
 20
518.6915961818
 30
0.0
 11
395.0019111998
 21
518.5588268356
 31
0.0
  0
ARC
  5
3AB
330
1F
100
AcDbEntity
  8
0
  6
SLD-Solid
 62
     7
370
    15
100
AcDbCircle
 10
1079.7448428042
 20
518.6915978507
 30
0.0
 40
2.749999999999903
100
AcDbArc
 50
296.8704145403
 51
332.9643082106
  0
LINE
  5
3AC
330
1F
100
AcDbEntity
  8
0
  6
SLD-Solid
 62
     7
370
    15
100
AcDbLine
 10
1080.9877744086
 20
518.5588268356
 30
0.0
 11
1080.994837559
 21
518.6915961818
 31
0.0
  0
LINE
  5
3AD
330
1F
100
AcDbEntity
  8
0
  6
SLD-Center
 62
     7
370
     0
100
AcDbLine
 10
350.7178845103
 20
1155.9698987152
 30
0.0
 11
443.4948428042
 21
1155.9698987152
 31
0.0
  0
LINE
  5
3AE
330
1F
100
AcDbEntity
  8
0
  6
SLD-Center
 62
     7
370
     0
100
AcDbLine
 10
1032.4948428042
 20
347.4415978507
 30
0.0
 11
1032.4948428042
 21
663.9385786009
 31
0.0
  0
LINE
  5
3AF
330
1F
100
AcDbEntity
  8
0
  6
SLD-Center
 62
     7
370
     0
100
AcDbLine
 10
443.4948428042
 20
345.4415978507
 30
0.0
 11
443.4948428042
 21
667.2106029855
 31
0.0
  0
ENDSEC
  0
SECTION
  2
OBJECTS
  0
DICTIONARY
  5
C
330
0
100
AcDbDictionary
281
     1
  3
ACAD_GROUP
350
D
  3
ACAD_LAYOUT
350
1A
  3
ACAD_MLINESTYLE
350
17
  3
ACAD_PLOTSETTINGS
350
19
  3
ACAD_PLOTSTYLENAME
350
E
  0
DICTIONARY
  5
D
102
{ACAD_REACTORS
330
C
102
}
330
C
100
AcDbDictionary
281
     1
  0
DICTIONARY
  5
1A
102
{ACAD_REACTORS
330
C
102
}
330
C
100
AcDbDictionary
281
     1
  3
Layout1
350
1E
  3
Layout2
350
26
  3
Model
350
22
  0
DICTIONARY
  5
17
102
{ACAD_REACTORS
330
C
102
}
330
C
100
AcDbDictionary
281
     1
  3
Standard
350
18
  0
DICTIONARY
  5
19
102
{ACAD_REACTORS
330
C
102
}
330
C
100
AcDbDictionary
281
     1
  0
ACDBDICTIONARYWDFLT
  5
E
102
{ACAD_REACTORS
330
C
102
}
330
C
100
AcDbDictionary
281
     1
  3
Normal
350
F
100
AcDbDictionaryWithDefault
340
F
  0
LAYOUT
  5
1E
102
{ACAD_REACTORS
330
1A
102
}
330
1A
100
AcDbPlotSettings
  1

  2
none_device
  4

  6

 40
0.0
 41
0.0
 42
0.0
 43
0.0
 44
0.0
 45
0.0
 46
0.0
 47
0.0
 48
0.0
 49
0.0
140
0.0
141
0.0
142
1.0
143
1.0
 70
   688
 72
     0
 73
     0
 74
     5
  7

 75
    16
147
1.0
148
0.0
149
0.0
100
AcDbLayout
  1
Layout1
 70
     1
 71
     1
 10
0.0
 20
0.0
 11
420.0
 21
297.0
 12
0.0
 22
0.0
 32
0.0
 14
1.0000000000E+20
 24
1.0000000000E+20
 34
1.0000000000E+20
 15
-1.0000000000E+20
 25
-1.0000000000E+20
 35
-1.0000000000E+20
146
0.0
 13
0.0
 23
0.0
 33
0.0
 16
1.0
 26
0.0
 36
0.0
 17
0.0
 27
1.0
 37
0.0
 76
     0
330
1B
  0
LAYOUT
  5
26
102
{ACAD_REACTORS
330
1A
102
}
330
1A
100
AcDbPlotSettings
  1

  2
none_device
  4

  6

 40
0.0
 41
0.0
 42
0.0
 43
0.0
 44
0.0
 45
0.0
 46
0.0
 47
0.0
 48
0.0
 49
0.0
140
0.0
141
0.0
142
1.0
143
1.0
 70
   688
 72
     0
 73
     0
 74
     5
  7

 75
    16
147
1.0
148
0.0
149
0.0
100
AcDbLayout
  1
Layout2
 70
     1
 71
     2
 10
0.0
 20
0.0
 11
0.0
 21
0.0
 12
0.0
 22
0.0
 32
0.0
 14
0.0
 24
0.0
 34
0.0
 15
0.0
 25
0.0
 35
0.0
146
0.0
 13
0.0
 23
0.0
 33
0.0
 16
1.0
 26
0.0
 36
0.0
 17
0.0
 27
1.0
 37
0.0
 76
     0
330
23
  0
LAYOUT
  5
22
102
{ACAD_REACTORS
330
1A
102
}
330
1A
100
AcDbPlotSettings
  1

  2
none_device
  4

  6

 40
0.0
 41
0.0
 42
0.0
 43
0.0
 44
0.0
 45
0.0
 46
0.0
 47
0.0
 48
0.0
 49
0.0
140
0.0
141
0.0
142
1.0
143
1.0
 70
  1712
 72
     0
 73
     0
 74
     0
  7

 75
     0
147
1.0
148
0.0
149
0.0
100
AcDbLayout
  1
Model
 70
     1
 71
     0
 10
0.0
 20
0.0
 11
1500.0
 21
1500.0
 12
0.0
 22
0.0
 32
0.0
 14
0.0
 24
0.0
 34
0.0
 15
1500.0
 25
1500.0
 35
0.0
146
0.0
 13
0.0
 23
0.0
 33
0.0
 16
1.0
 26
0.0
 36
0.0
 17
0.0
 27
1.0
 37
0.0
 76
     0
330
1F
331
29
  0
MLINESTYLE
  5
18
102
{ACAD_REACTORS
330
17
102
}
330
17
100
AcDbMlineStyle
  2
Standard
 70
     0
  3

 62
   256
 51
90.0
 52
90.0
 71
     2
 49
0.5
 62
   256
  6
BYLAYER
 49
-0.5
 62
   256
  6
BYLAYER
  0
ACDBPLACEHOLDER
  5
F
102
{ACAD_REACTORS
330
E
102
}
330
E
  0
ENDSEC
  0
EOF
