  0
SECTION
  2
HEADER
  9
$ACADVER
  1
AC1015
  9
$ACADMAINTVER
 70
     6
  9
$DWGCODEPAGE
  3
ANSI_1252
  9
$INSBASE
 10
0.0
 20
0.0
 30
0.0
  9
$EXTMIN
 10
0.0
 20
0.0
 30
0.0
  9
$EXTMAX
 10
1189.0
 20
841.0
 30
0.0
  9
$LIMMIN
 10
0.0
 20
0.0
  9
$LIMMAX
 10
1189.0
 20
841.0
  9
$ORTHOMODE
 70
     0
  9
$REGENMODE
 70
     1
  9
$FILLMODE
 70
     1
  9
$QTEXTMODE
 70
     0
  9
$MIRRTEXT
 70
     1
  9
$LTSCALE
 40
1.0
  9
$ATTMODE
 70
     1
  9
$TEXTSIZE
 40
3.5
  9
$TRACEWID
 40
1.0
  9
$TEXTSTYLE
  7
STANDARD
  9
$CLAYER
  8
0
  9
$CELTYPE
  6
ByLayer
  9
$CECOLOR
 62
   256
  9
$CELTSCALE
 40
1.0
  9
$DISPSILH
 70
     0
  9
$DIMSCALE
 40
1.0
  9
$DIMASZ
 40
3.302
  9
$DIMEXO
 40
1.0
  9
$DIMDLI
 40
3.75
  9
$DIMRND
 40
0.0
  9
$DIMDLE
 40
0.0
  9
$DIMEXE
 40
1.0
  9
$DIMTP
 40
0.0
  9
$DIMTM
 40
0.0
  9
$DIMTXT
 40
3.5
  9
$DIMCEN
 40
2.5
  9
$DIMTSZ
 40
0.0
  9
$DIMTOL
 70
     0
  9
$DIMLIM
 70
     0
  9
$DIMTIH
 70
     1
  9
$DIMTOH
 70
     1
  9
$DIMSE1
 70
     0
  9
$DIMSE2
 70
     0
  9
$DIMTAD
 70
     1
  9
$DIMZIN
 70
     1
  9
$DIMBLK
  1

  9
$DIMASO
 70
     1
  9
$DIMSHO
 70
     1
  9
$DIMPOST
  1

  9
$DIMAPOST
  1

  9
$DIMALT
 70
     0
  9
$DIMALTD
 70
     3
  9
$DIMALTF
 40
0.0393700787
  9
$DIMLFAC
 40
1.0
  9
$DIMTOFL
 70
     1
  9
$DIMTVP
 40
0.0
  9
$DIMTIX
 70
     0
  9
$DIMSOXD
 70
     0
  9
$DIMSAH
 70
     0
  9
$DIMBLK1
  1

  9
$DIMBLK2
  1

  9
$DIMSTYLE
  2
ISO-25
  9
$DIMCLRD
 70
     0
  9
$DIMCLRE
 70
     0
  9
$DIMCLRT
 70
     0
  9
$DIMTFAC
 40
1.0
  9
$DIMGAP
 40
1.524
  9
$DIMJUST
 70
     0
  9
$DIMSD1
 70
     0
  9
$DIMSD2
 70
     0
  9
$DIMTOLJ
 70
     0
  9
$DIMTZIN
 70
     1
  9
$DIMALTZ
 70
     0
  9
$DIMALTTZ
 70
     0
  9
$DIMUPT
 70
     0
  9
$DIMDEC
 70
     1
  9
$DIMTDEC
 70
     1
  9
$DIMALTU
 70
     2
  9
$DIMALTTD
 70
     3
  9
$DIMTXSTY
  7
STANDARD
  9
$DIMAUNIT
 70
     0
  9
$DIMADEC
 70
     1
  9
$DIMALTRND
 40
0.0
  9
$DIMAZIN
 70
     0
  9
$DIMDSEP
 70
    44
  9
$DIMATFIT
 70
     3
  9
$DIMFRAC
 70
     0
  9
$DIMLDRBLK
  1

  9
$DIMLUNIT
 70
     2
  9
$DIMLWD
 70
    -2
  9
$DIMLWE
 70
    -2
  9
$DIMTMOVE
 70
     0
  9
$LUNITS
 70
     2
  9
$LUPREC
 70
     1
  9
$SKETCHINC
 40
1.0
  9
$FILLETRAD
 40
10.0
  9
$AUNITS
 70
     0
  9
$AUPREC
 70
     1
  9
$MENU
  1
.
  9
$ELEVATION
 40
0.0
  9
$PELEVATION
 40
0.0
  9
$THICKNESS
 40
0.0
  9
$LIMCHECK
 70
     0
  9
$CHAMFERA
 40
10.0
  9
$CHAMFERB
 40
10.0
  9
$CHAMFERC
 40
20.0
  9
$CHAMFERD
 40
0.0
  9
$SKPOLY
 70
     0
  9
$TDCREATE
 40
2455637.334772697
  9
$TDUCREATE
 40
2455637.334772697
  9
$TDUPDATE
 40
2455637.334772708
  9
$TDUUPDATE
 40
2455637.334772708
  9
$TDINDWG
 40
0.0000000116
  9
$TDUSRTIMER
 40
0.0000000116
  9
$USRTIMER
 70
     1
  9
$ANGBASE
 50
0.0
  9
$ANGDIR
 70
     0
  9
$PDMODE
 70
     0
  9
$PDSIZE
 40
-1.0
  9
$PLINEWID
 40
0.0
  9
$SPLFRAME
 70
     0
  9
$SPLINETYPE
 70
     6
  9
$SPLINESEGS
 70
     8
  9
$HANDSEED
  5
4FF
  9
$SURFTAB1
 70
     6
  9
$SURFTAB2
 70
     6
  9
$SURFTYPE
 70
     6
  9
$SURFU
 70
     6
  9
$SURFV
 70
     6
  9
$UCSBASE
  2

  9
$UCSNAME
  2

  9
$UCSORG
 10
0.0
 20
0.0
 30
0.0
  9
$UCSXDIR
 10
1.0
 20
0.0
 30
0.0
  9
$UCSYDIR
 10
0.0
 20
1.0
 30
0.0
  9
$UCSORTHOREF
  2

  9
$UCSORTHOVIEW
 70
     0
  9
$UCSORGTOP
 10
0.0
 20
0.0
 30
0.0
  9
$UCSORGBOTTOM
 10
0.0
 20
0.0
 30
0.0
  9
$UCSORGLEFT
 10
0.0
 20
0.0
 30
0.0
  9
$UCSORGRIGHT
 10
0.0
 20
0.0
 30
0.0
  9
$UCSORGFRONT
 10
0.0
 20
0.0
 30
0.0
  9
$UCSORGBACK
 10
0.0
 20
0.0
 30
0.0
  9
$PUCSBASE
  2

  9
$PUCSNAME
  2

  9
$PUCSORG
 10
0.0
 20
0.0
 30
0.0
  9
$PUCSXDIR
 10
1.0
 20
0.0
 30
0.0
  9
$PUCSYDIR
 10
0.0
 20
1.0
 30
0.0
  9
$PUCSORTHOREF
  2

  9
$PUCSORTHOVIEW
 70
     0
  9
$PUCSORGTOP
 10
0.0
 20
0.0
 30
0.0
  9
$PUCSORGBOTTOM
 10
0.0
 20
0.0
 30
0.0
  9
$PUCSORGLEFT
 10
0.0
 20
0.0
 30
0.0
  9
$PUCSORGRIGHT
 10
0.0
 20
0.0
 30
0.0
  9
$PUCSORGFRONT
 10
0.0
 20
0.0
 30
0.0
  9
$PUCSORGBACK
 10
0.0
 20
0.0
 30
0.0
  9
$USERI1
 70
     0
  9
$USERI2
 70
     0
  9
$USERI3
 70
     0
  9
$USERI4
 70
     0
  9
$USERI5
 70
     0
  9
$USERR1
 40
0.0
  9
$USERR2
 40
0.0
  9
$USERR3
 40
0.0
  9
$USERR4
 40
0.0
  9
$USERR5
 40
0.0
  9
$WORLDVIEW
 70
     1
  9
$SHADEDGE
 70
     3
  9
$SHADEDIF
 70
    70
  9
$TILEMODE
 70
     1
  9
$MAXACTVP
 70
    64
  9
$PINSBASE
 10
0.0
 20
0.0
 30
0.0
  9
$PLIMCHECK
 70
     0
  9
$PEXTMIN
 10
1.0000000000E+20
 20
1.0000000000E+20
 30
1.0000000000E+20
  9
$PEXTMAX
 10
-1.0000000000E+20
 20
-1.0000000000E+20
 30
-1.0000000000E+20
  9
$PLIMMIN
 10
0.0
 20
0.0
  9
$PLIMMAX
 10
420.0
 20
297.0
  9
$UNITMODE
 70
     0
  9
$VISRETAIN
 70
     1
  9
$PLINEGEN
 70
     0
  9
$PSLTSCALE
 70
     1
  9
$TREEDEPTH
 70
  3020
  9
$CMLSTYLE
  2
Standard
  9
$CMLJUST
 70
     0
  9
$CMLSCALE
 40
20.0
  9
$PROXYGRAPHICS
 70
     1
  9
$MEASUREMENT
 70
     1
  9
$CELWEIGHT
370
    -1
  9
$ENDCAPS
280
     0
  9
$JOINSTYLE
280
     0
  9
$LWDISPLAY
290
     1
  9
$INSUNITS
 70
     4
  9
$HYPERLINKBASE
  1

  9
$STYLESHEET
  1

  9
$XEDIT
290
     1
  9
$CEPSNTYPE
380
     0
  9
$PSTYLEMODE
290
     1
  9
$FINGERPRINTGUID
  2
{E3890933-D1EC-4D73-BB67-84D8D2BCA533}
  9
$VERSIONGUID
  2
{FAEB1C32-E019-11D5-929B-00C0DF256EC4}
  9
$EXTNAMES
290
     1
  9
$PSVPSCALE
 40
0.0
  9
$OLESTARTUP
290
     0
  0
ENDSEC
  0
SECTION
  2
CLASSES
  0
CLASS
  1
ACDBDICTIONARYWDFLT
  2
AcDbDictionaryWithDefault
  3
ObjectDBX Classes
 90
        0
280
     0
281
     0
  0
CLASS
  1
VISUALSTYLE
  2
AcDbVisualStyle
  3
ObjectDBX Classes
 90
     4095
280
     0
281
     0
  0
CLASS
  1
MATERIAL
  2
AcDbMaterial
  3
ObjectDBX Classes
 90
     1153
280
     0
281
     0
  0
CLASS
  1
ACDBPLACEHOLDER
  2
AcDbPlaceHolder
  3
ObjectDBX Classes
 90
        0
280
     0
281
     0
  0
CLASS
  1
LAYOUT
  2
AcDbLayout
  3
ObjectDBX Classes
 90
        0
280
     0
281
     0
  0
ENDSEC
  0
SECTION
  2
TABLES
  0
TABLE
  2
VPORT
  5
8
330
0
100
AcDbSymbolTable
 70
     1
  0
VPORT
  5
29
330
8
100
AcDbSymbolTableRecord
100
AcDbViewportTableRecord
  2
*Active
 70
     0
 10
0.0
 20
0.0
 11
1.0
 21
1.0
 12
594.5
 22
420.5
 13
0.0
 23
0.0
 14
10.0
 24
10.0
 15
10.0
 25
10.0
 16
0.0
 26
0.0
 36
1.0
 17
0.0
 27
0.0
 37
0.0
 40
841.0
 41
1.4137931034
 42
50.0
 43
0.0
 44
0.0
 50
0.0
 51
0.0
 71
     0
 72
  2000
 73
     1
 74
     3
 75
     0
 76
     0
 77
     0
 78
     0
281
     0
 65
     1
110
0.0
120
0.0
130
0.0
111
1.0
121
0.0
131
0.0
112
0.0
122
1.0
132
0.0
 79
     0
146
0.0
  0
ENDTAB
  0
TABLE
  2
LTYPE
  5
5
330
0
100
AcDbSymbolTable
 70
     8
  0
LTYPE
  5
14
330
5
100
AcDbSymbolTableRecord
100
AcDbLinetypeTableRecord
  2
ByBlock
 70
     0
  3

 72
    65
 73
     0
 40
0.0
  0
LTYPE
  5
15
330
5
100
AcDbSymbolTableRecord
100
AcDbLinetypeTableRecord
  2
ByLayer
 70
     0
  3

 72
    65
 73
     0
 40
0.0
  0
LTYPE
  5
16
330
5
100
AcDbSymbolTableRecord
100
AcDbLinetypeTableRecord
  2
Continuous
 70
     0
  3
Solid line
 72
    65
 73
     0
 40
0.0
  0
LTYPE
  5
3F
330
5
100
AcDbSymbolTableRecord
100
AcDbLinetypeTableRecord
  2
SLD-Solid
 70
     0
  3
SolidWorks Line Style
 72
    65
 73
     0
 40
0.0
  0
LTYPE
  5
40
330
5
100
AcDbSymbolTableRecord
100
AcDbLinetypeTableRecord
  2
SLD-Dashed
 70
     0
  3
SolidWorks Line Style
 72
    65
 73
     2
 40
1.905
 49
1.27
 74
     0
 49
-0.635
 74
     0
  0
LTYPE
  5
41
330
5
100
AcDbSymbolTableRecord
100
AcDbLinetypeTableRecord
  2
SLD-Phantom
 70
     0
  3
SolidWorks Line Style
 72
    65
 73
     6
 40
12.7
 49
6.35
 74
     0
 49
-1.27
 74
     0
 49
1.27
 74
     0
 49
-1.27
 74
     0
 49
1.27
 74
     0
 49
-1.27
 74
     0
  0
LTYPE
  5
42
330
5
100
AcDbSymbolTableRecord
100
AcDbLinetypeTableRecord
  2
SLD-Chain
 70
     0
  3
SolidWorks Line Style
 72
    65
 73
     4
 40
10.16
 49
6.35
 74
     0
 49
-1.27
 74
     0
 49
1.27
 74
     0
 49
-1.27
 74
     0
  0
LTYPE
  5
43
330
5
100
AcDbSymbolTableRecord
100
AcDbLinetypeTableRecord
  2
SLD-Center
 70
     0
  3
SolidWorks Line Style
 72
    65
 73
     4
 40
19.05
 49
15.24
 74
     0
 49
-1.27
 74
     0
 49
1.27
 74
     0
 49
-1.27
 74
     0
  0
LTYPE
  5
44
330
5
100
AcDbSymbolTableRecord
100
AcDbLinetypeTableRecord
  2
SLD-Stitch
 70
     0
  3
SolidWorks Line Style
 72
    65
 73
     2
 40
0.635
 49
0.0
 74
     0
 49
-0.635
 74
     0
  0
LTYPE
  5
45
330
5
100
AcDbSymbolTableRecord
100
AcDbLinetypeTableRecord
  2
SLD-Thin-Thick-Chain
 70
     0
  3
SolidWorks Line Style
 72
    65
 73
     4
 40
10.16
 49
6.35
 74
     0
 49
-1.27
 74
     0
 49
1.27
 74
     0
 49
-1.27
 74
     0
  0
ENDTAB
  0
TABLE
  2
LAYER
  5
2
330
0
100
AcDbSymbolTable
 70
     5
  0
LAYER
  5
10
330
2
100
AcDbSymbolTableRecord
100
AcDbLayerTableRecord
  2
0
 70
     0
 62
     7
  6
Continuous
370
    -3
390
F
  0
LAYER
  5
46
330
2
100
AcDbSymbolTableRecord
100
AcDbLayerTableRecord
  2
SLD-0_0
 70
     0
 62
   179
  6
SLD-Solid
370
    -3
390
F
  0
LAYER
  5
47
330
2
100
AcDbSymbolTableRecord
100
AcDbLayerTableRecord
  2
FORMAT
 70
     0
 62
   179
  6
SLD-Solid
370
    -3
390
F
  0
LAYER
  5
48
330
2
100
AcDbSymbolTableRecord
100
AcDbLayerTableRecord
  2
SLD-0
 70
     0
 62
     1
  6
SLD-Solid
370
    -3
390
F
  0
LAYER
  5
49
330
2
100
AcDbSymbolTableRecord
100
AcDbLayerTableRecord
  2
WATERMARK
 70
     0
 62
    20
  6
SLD-Solid
370
    -3
390
F
  0
ENDTAB
  0
TABLE
  2
STYLE
  5
3
330
0
100
AcDbSymbolTable
 70
     1
  0
STYLE
  5
11
330
3
100
AcDbSymbolTableRecord
100
AcDbTextStyleTableRecord
  2
STANDARD
 70
     0
 40
0.0
 41
1.0
 50
0.0
 71
     0
 42
2.5
  3
GOTHIC.TTF
  4

1001
ACAD
1000
CENTURY GOTHIC
1071
       34
  0
ENDTAB
  0
TABLE
  2
VIEW
  5
6
330
0
100
AcDbSymbolTable
 70
     0
  0
ENDTAB
  0
TABLE
  2
UCS
  5
7
330
0
100
AcDbSymbolTable
 70
     0
  0
ENDTAB
  0
TABLE
  2
APPID
  5
9
330
0
100
AcDbSymbolTable
 70
     1
  0
APPID
  5
12
330
9
100
AcDbSymbolTableRecord
100
AcDbRegAppTableRecord
  2
ACAD
 70
     0
  0
ENDTAB
  0
TABLE
  2
DIMSTYLE
  5
A
330
0
100
AcDbSymbolTable
 70
     1
100
AcDbDimStyleTable
  0
DIMSTYLE
105
27
330
A
100
AcDbSymbolTableRecord
100
AcDbDimStyleTableRecord
  2
ISO-25
 70
     0
 41
2.5
 42
0.625
 43
3.75
 44
1.25
 73
     0
 74
     0
 77
     1
 78
     8
140
2.5
141
2.5
143
0.0393700787
147
0.625
171
     3
172
     1
271
     2
272
     2
274
     3
278
    44
283
     0
284
     8
340
11
  0
ENDTAB
  0
TABLE
  2
BLOCK_RECORD
  5
1
330
0
100
AcDbSymbolTable
 70
     1
  0
BLOCK_RECORD
  5
1F
330
1
100
AcDbSymbolTableRecord
100
AcDbBlockTableRecord
  2
*Model_Space
340
22
  0
BLOCK_RECORD
  5
1B
330
1
100
AcDbSymbolTableRecord
100
AcDbBlockTableRecord
  2
*Paper_Space
340
1E
  0
BLOCK_RECORD
  5
23
330
1
100
AcDbSymbolTableRecord
100
AcDbBlockTableRecord
  2
*Paper_Space0
340
26
  0
ENDTAB
  0
ENDSEC
  0
SECTION
  2
BLOCKS
  0
BLOCK
  5
20
330
1F
100
AcDbEntity
  8
0
100
AcDbBlockBegin
  2
*Model_Space
 70
     0
 10
0.0
 20
0.0
 30
0.0
  3
*Model_Space
  1

  0
ENDBLK
  5
21
330
1F
100
AcDbEntity
  8
0
100
AcDbBlockEnd
  0
BLOCK
  5
1C
330
1B
100
AcDbEntity
 67
     1
  8
0
100
AcDbBlockBegin
  2
*Paper_Space
 70
     0
 10
0.0
 20
0.0
 30
0.0
  3
*Paper_Space
  1

  0
ENDBLK
  5
1D
330
1B
100
AcDbEntity
 67
     1
  8
0
100
AcDbBlockEnd
  0
BLOCK
  5
24
330
23
100
AcDbEntity
  8
0
100
AcDbBlockBegin
  2
*Paper_Space0
 70
     0
 10
0.0
 20
0.0
 30
0.0
  3
*Paper_Space0
  1

  0
ENDBLK
  5
25
330
23
100
AcDbEntity
  8
0
100
AcDbBlockEnd
  0
ENDSEC
  0
SECTION
  2
ENTITIES
  0
LINE
  5
4A
330
1F
100
AcDbEntity
  8
SLD-0_0
  6
SLD-Solid
 62
   179
370
    15
100
AcDbLine
 10
631.0617265676
 20
1024.3741446304
 30
0.0
 11
631.0617265676
 21
1024.3647270965
 31
0.0
  0
LINE
  5
4B
330
1F
100
AcDbEntity
  8
SLD-0_0
  6
SLD-Solid
 62
   179
370
    15
100
AcDbLine
 10
638.0617267836
 20
1024.3647270965
 30
0.0
 11
638.0617267836
 21
1024.3741446304
 31
0.0
  0
LINE
  5
4C
330
1F
100
AcDbEntity
  8
SLD-0_0
  6
SLD-Solid
 62
   179
370
    15
100
AcDbLine
 10
633.5617269774
 20
1024.3741446304
 30
0.0
 11
633.5617269774
 21
1024.3647270965
 31
0.0
  0
LINE
  5
4D
330
1F
100
AcDbEntity
  8
SLD-0_0
  6
SLD-Solid
 62
   179
370
    15
100
AcDbLine
 10
635.5617263739
 20
1024.3647270965
 30
0.0
 11
635.5617263739
 21
1024.3741446304
 31
0.0
  0
LINE
  5
4E
330
1F
100
AcDbEntity
  8
SLD-0_0
  6
SLD-Solid
 62
   179
370
    15
100
AcDbLine
 10
322.9117387359
 20
521.7111357617
 30
0.0
 11
322.4117153708
 21
521.7111357617
 31
0.0
  0
LINE
  5
4F
330
1F
100
AcDbEntity
  8
SLD-0_0
  6
SLD-Solid
 62
   179
370
    15
100
AcDbLine
 10
322.4117153708
 20
511.3111385274
 30
0.0
 11
322.9117387359
 21
511.3111385274
 31
0.0
  0
LINE
  5
50
330
1F
100
AcDbEntity
  8
SLD-0_0
  6
SLD-Solid
 62
   179
370
    15
100
AcDbLine
 10
1099.9117189471
 20
511.3111385274
 30
0.0
 11
1100.4117125098
 21
511.3111385274
 31
0.0
  0
LINE
  5
51
330
1F
100
AcDbEntity
  8
SLD-0_0
  6
SLD-Solid
 62
   179
370
    15
100
AcDbLine
 10
1100.4117125098
 20
521.7111357617
 30
0.0
 11
1099.9117189471
 21
521.7111357617
 31
0.0
  0
LINE
  5
52
330
1F
100
AcDbEntity
  8
SLD-0_0
  6
SLD-Solid
 62
   179
370
    15
100
AcDbLine
 10
1055.6117290084
 20
445.2111364937
 30
0.0
 11
1055.6117290084
 21
445.7111365757
 31
0.0
  0
LINE
  5
53
330
1F
100
AcDbEntity
  8
SLD-0_0
  6
SLD-Solid
 62
   179
370
    15
100
AcDbLine
 10
1045.211731774
 20
445.7111365757
 30
0.0
 11
1045.211731774
 21
445.2111364937
 31
0.0
  0
LINE
  5
54
330
1F
100
AcDbEntity
  8
SLD-0_0
  6
SLD-Solid
 62
   179
370
    15
100
AcDbLine
 10
1125.6117218558
 20
445.2111364937
 30
0.0
 11
1125.6117218558
 21
445.7111365757
 31
0.0
  0
LINE
  5
55
330
1F
100
AcDbEntity
  8
SLD-0_0
  6
SLD-Solid
 62
   179
370
    15
100
AcDbLine
 10
1115.2117246215
 20
445.7111365757
 30
0.0
 11
1115.2117246215
 21
445.2111364937
 31
0.0
  0
LINE
  5
56
330
1F
100
AcDbEntity
  8
SLD-0_0
  6
SLD-Solid
 62
   179
370
    15
100
AcDbLine
 10
377.6117259089
 20
445.2111364937
 30
0.0
 11
377.6117259089
 21
445.7111365757
 31
0.0
  0
LINE
  5
57
330
1F
100
AcDbEntity
  8
SLD-0_0
  6
SLD-Solid
 62
   179
370
    15
100
AcDbLine
 10
367.2117286746
 20
445.7111365757
 30
0.0
 11
367.2117286746
 21
445.2111364937
 31
0.0
  0
LINE
  5
58
330
1F
100
AcDbEntity
  8
SLD-0_0
  6
SLD-Solid
 62
   179
370
    15
100
AcDbLine
 10
307.6117330615
 20
445.2111364937
 30
0.0
 11
307.6117330615
 21
445.7111365757
 31
0.0
  0
LINE
  5
59
330
1F
100
AcDbEntity
  8
SLD-0_0
  6
SLD-Solid
 62
   179
370
    15
100
AcDbLine
 10
297.2117358272
 20
445.7111365757
 30
0.0
 11
297.2117358272
 21
445.2111364937
 31
0.0
  0
LINE
  5
5A
330
1F
100
AcDbEntity
  8
SLD-0_0
  6
SLD-Solid
 62
   179
370
    15
100
AcDbLine
 10
991.1117249553
 20
760.5111473369
 30
0.0
 11
991.1117249553
 21
761.0111408996
 31
0.0
  0
LINE
  5
5B
330
1F
100
AcDbEntity
  8
SLD-0_0
  6
SLD-Solid
 62
   179
370
    15
100
AcDbLine
 10
980.7117277209
 20
761.0111408996
 30
0.0
 11
980.7117277209
 21
760.5111473369
 31
0.0
  0
LINE
  5
5C
330
1F
100
AcDbEntity
  8
SLD-0_0
  6
SLD-Solid
 62
   179
370
    15
100
AcDbLine
 10
1125.911712033
 20
862.0111220646
 30
0.0
 11
1125.911712033
 21
862.5111454296
 31
0.0
  0
LINE
  5
5D
330
1F
100
AcDbEntity
  8
SLD-0_0
  6
SLD-Solid
 62
   179
370
    15
100
AcDbLine
 10
1115.5117147986
 20
862.5111454296
 30
0.0
 11
1115.5117147986
 21
862.0111220646
 31
0.0
  0
LINE
  5
5E
330
1F
100
AcDbEntity
  8
SLD-0_0
  6
SLD-Solid
 62
   179
370
    15
100
AcDbLine
 10
307.6117330615
 20
862.0111220646
 30
0.0
 11
307.6117330615
 21
862.5111454296
 31
0.0
  0
LINE
  5
5F
330
1F
100
AcDbEntity
  8
SLD-0_0
  6
SLD-Solid
 62
   179
370
    15
100
AcDbLine
 10
297.2117358272
 20
862.5111454296
 30
0.0
 11
297.2117358272
 21
862.0111220646
 31
0.0
  0
LINE
  5
60
330
1F
100
AcDbEntity
  8
SLD-0_0
  6
SLD-Solid
 62
   179
370
    15
100
AcDbLine
 10
442.1117299621
 20
760.5111473369
 30
0.0
 11
442.1117299621
 21
761.0111408996
 31
0.0
  0
LINE
  5
61
330
1F
100
AcDbEntity
  8
SLD-0_0
  6
SLD-Solid
 62
   179
370
    15
100
AcDbLine
 10
431.7117327277
 20
761.0111408996
 30
0.0
 11
431.7117327277
 21
760.5111473369
 31
0.0
  0
LINE
  5
62
330
1F
100
AcDbEntity
  8
SLD-0_0
  6
SLD-Solid
 62
   179
370
    15
100
AcDbLine
 10
1113.7565666263
 20
1112.2111254501
 30
0.0
 11
1113.236277682
 21
1112.2111254501
 31
0.0
  0
LINE
  5
63
330
1F
100
AcDbEntity
  8
SLD-0_0
  6
SLD-Solid
 62
   179
370
    15
100
AcDbLine
 10
1161.5617269103
 20
1215.5406051445
 30
0.0
 11
261.5617209498
 21
1215.5406051445
 31
0.0
  0
LINE
  5
64
330
1F
100
AcDbEntity
  8
SLD-0_0
  6
SLD-Solid
 62
   179
370
    15
100
AcDbLine
 10
1113.9117175166
 20
277.2111320066
 30
0.0
 11
1113.9117175166
 21
281.2111401128
 31
0.0
  0
LINE
  5
65
330
1F
100
AcDbEntity
  8
SLD-0_0
  6
SLD-Solid
 62
   179
370
    15
100
AcDbLine
 10
1056.9117361133
 20
281.2111401128
 30
0.0
 11
1056.9117361133
 21
277.2111320066
 31
0.0
  0
LINE
  5
66
330
1F
100
AcDbEntity
  8
SLD-0_0
  6
SLD-Solid
 62
   179
370
    15
100
AcDbLine
 10
365.9117266449
 20
277.2111365126
 30
0.0
 11
365.9117215697
 21
281.2111401128
 31
0.0
  0
LINE
  5
67
330
1F
100
AcDbEntity
  8
SLD-0_0
  6
SLD-Solid
 62
   179
370
    15
100
AcDbLine
 10
308.9117401664
 20
281.2111401128
 30
0.0
 11
308.9117401664
 21
277.2111320066
 31
0.0
  0
LINE
  5
68
330
1F
100
AcDbEntity
  8
SLD-0_0
  6
SLD-Solid
 62
   179
370
    15
100
AcDbLine
 10
1113.7117141311
 20
281.2111401128
 30
0.0
 11
1113.7117141311
 21
349.2111363577
 31
0.0
  0
LINE
  5
69
330
1F
100
AcDbEntity
  8
SLD-0_0
  6
SLD-Solid
 62
   179
370
    15
100
AcDbLine
 10
1057.1117394988
 20
349.2111363577
 30
0.0
 11
1057.1117394988
 21
281.2111401128
 31
0.0
  0
LINE
  5
6A
330
1F
100
AcDbEntity
  8
SLD-0_0
  6
SLD-Solid
 62
   179
370
    15
100
AcDbLine
 10
365.7117181842
 20
281.2111401128
 30
0.0
 11
365.7117181842
 21
349.2111363577
 31
0.0
  0
LINE
  5
6B
330
1F
100
AcDbEntity
  8
SLD-0_0
  6
SLD-Solid
 62
   179
370
    15
100
AcDbLine
 10
309.1117137496
 20
349.2111363577
 30
0.0
 11
309.1117137496
 21
281.2111401128
 31
0.0
  0
LINE
  5
6C
330
1F
100
AcDbEntity
  8
SLD-0_0
  6
SLD-Solid
 62
   179
370
    15
100
AcDbLine
 10
369.3117265965
 20
355.2436995181
 30
0.0
 11
369.3117337221
 21
441.711135927
 31
0.0
  0
LINE
  5
6D
330
1F
100
AcDbEntity
  8
SLD-0_0
  6
SLD-Solid
 62
   179
370
    15
100
AcDbLine
 10
305.5117124144
 20
441.7111366185
 30
0.0
 11
305.5117124144
 21
355.2437001037
 31
0.0
  0
LINE
  5
6E
330
1F
100
AcDbEntity
  8
SLD-0_0
  6
SLD-Solid
 62
   179
370
    15
100
AcDbLine
 10
305.5756398719
 20
354.4712392338
 30
0.0
 11
306.4520650927
 21
349.2111363577
 31
0.0
  0
LINE
  5
6F
330
1F
100
AcDbEntity
  8
SLD-0_0
  6
SLD-Solid
 62
   179
370
    15
100
AcDbLine
 10
368.371366841
 20
349.2111363577
 30
0.0
 11
369.2478134179
 21
354.4712392338
 31
0.0
  0
LINE
  5
70
330
1F
100
AcDbEntity
  8
SLD-0_0
  6
SLD-Solid
 62
   179
370
    15
100
AcDbLine
 10
1117.3117154662
 20
355.2437001037
 30
0.0
 11
1117.3117154662
 21
441.7111366185
 31
0.0
  0
LINE
  5
71
330
1F
100
AcDbEntity
  8
SLD-0_0
  6
SLD-Solid
 62
   179
370
    15
100
AcDbLine
 10
1053.5117381637
 20
441.7111366185
 30
0.0
 11
1053.5117381637
 21
355.2437001037
 31
0.0
  0
LINE
  5
72
330
1F
100
AcDbEntity
  8
SLD-0_0
  6
SLD-Solid
 62
   179
370
    15
100
AcDbLine
 10
1053.5756398719
 20
354.4712392338
 30
0.0
 11
1054.452090842
 21
349.2111363577
 31
0.0
  0
LINE
  5
73
330
1F
100
AcDbEntity
  8
SLD-0_0
  6
SLD-Solid
 62
   179
370
    15
100
AcDbLine
 10
1116.3713627879
 20
349.2111363577
 30
0.0
 11
1117.2478134179
 21
354.4712392338
 31
0.0
  0
LINE
  5
74
330
1F
100
AcDbEntity
  8
SLD-0_0
  6
SLD-Solid
 62
   179
370
    15
100
AcDbLine
 10
1113.9117175166
 20
800.5111389923
 30
0.0
 11
1113.9117175166
 21
838.5111265945
 31
0.0
  0
LINE
  5
75
330
1F
100
AcDbEntity
  8
SLD-0_0
  6
SLD-Solid
 62
   179
370
    15
100
AcDbLine
 10
1123.9117377822
 20
838.5111265945
 30
0.0
 11
1123.9117377822
 21
800.5111389923
 31
0.0
  0
LINE
  5
76
330
1F
100
AcDbEntity
  8
SLD-0_0
  6
SLD-Solid
 62
   179
370
    15
100
AcDbLine
 10
1122.9117208545
 20
799.5111220646
 30
0.0
 11
1114.9117344443
 21
799.5111220646
 31
0.0
  0
LINE
  5
77
330
1F
100
AcDbEntity
  8
SLD-0_0
  6
SLD-Solid
 62
   179
370
    15
100
AcDbLine
 10
1114.9117220807
 20
839.5111410767
 30
0.0
 11
1122.9117220807
 21
839.5111410767
 31
0.0
  0
LINE
  5
78
330
1F
100
AcDbEntity
  8
SLD-0_0
  6
SLD-Solid
 62
   179
370
    15
100
AcDbLine
 10
329.5633786742
 20
893.2111435699
 30
0.0
 11
293.5640507762
 21
893.2111435699
 31
0.0
  0
LINE
  5
79
330
1F
100
AcDbEntity
  8
SLD-0_0
  6
SLD-Solid
 62
   179
370
    15
100
AcDbLine
 10
293.5640507762
 20
953.2111459541
 30
0.0
 11
329.5633786742
 21
953.2111459541
 31
0.0
  0
LINE
  5
7A
330
1F
100
AcDbEntity
  8
SLD-0_0
  6
SLD-Solid
 62
   179
370
    15
100
AcDbLine
 10
331.5617137973
 20
951.2123637962
 30
0.0
 11
331.5617137973
 21
895.209478693
 31
0.0
  0
LINE
  5
7B
330
1F
100
AcDbEntity
  8
SLD-0_0
  6
SLD-Solid
 62
   179
370
    15
100
AcDbLine
 10
291.5617221419
 20
895.2051275539
 30
0.0
 11
291.5617221419
 21
951.2167745399
 31
0.0
  0
LINE
  5
7C
330
1F
100
AcDbEntity
  8
SLD-0_0
  6
SLD-Solid
 62
   179
370
    15
100
AcDbLine
 10
261.5617209498
 20
864.0182190704
 30
0.0
 11
262.361734492
 21
864.0182190704
 31
0.0
  0
LINE
  5
7D
330
1F
100
AcDbEntity
  8
SLD-0_0
  6
SLD-Solid
 62
   179
370
    15
100
AcDbLine
 10
261.5617209498
 20
986.1611300277
 30
0.0
 11
261.5617209498
 21
864.0182190704
 31
0.0
  0
LINE
  5
7E
330
1F
100
AcDbEntity
  8
SLD-0_0
  6
SLD-Solid
 62
   179
370
    15
100
AcDbLine
 10
261.5617209498
 20
986.1611300277
 30
0.0
 11
263.6117332999
 21
986.1611300277
 31
0.0
  0
LINE
  5
7F
330
1F
100
AcDbEntity
  8
SLD-0_0
  6
SLD-Solid
 62
   179
370
    15
100
AcDbLine
 10
262.3687976424
 20
863.2111423778
 30
0.0
 11
262.3687976424
 21
864.0111261177
 31
0.0
  0
LINE
  5
80
330
1F
100
AcDbEntity
  8
SLD-0_0
  6
SLD-Solid
 62
   179
370
    15
100
AcDbLine
 10
262.3687976424
 20
863.2111423778
 30
0.0
 11
1160.75468002
 21
863.2111423778
 31
0.0
  0
LINE
  5
81
330
1F
100
AcDbEntity
  8
SLD-0_0
  6
SLD-Solid
 62
   179
370
    15
100
AcDbLine
 10
263.6824244086
 20
988.2111125755
 30
0.0
 11
263.6810833041
 21
988.1717735099
 31
0.0
  0
LINE
  5
82
330
1F
100
AcDbEntity
  8
SLD-0_0
  6
SLD-Solid
 62
   179
370
    15
100
AcDbLine
 10
263.6810833041
 20
988.1717735099
 30
0.0
 11
263.6770599906
 21
988.0550676155
 31
0.0
  0
LINE
  5
83
330
1F
100
AcDbEntity
  8
SLD-0_0
  6
SLD-Solid
 62
   179
370
    15
100
AcDbLine
 10
263.6770599906
 20
988.0550676155
 30
0.0
 11
263.670533282
 21
987.8656440544
 31
0.0
  0
LINE
  5
84
330
1F
100
AcDbEntity
  8
SLD-0_0
  6
SLD-Solid
 62
   179
370
    15
100
AcDbLine
 10
263.670533282
 20
987.8656440544
 30
0.0
 11
263.6617117946
 21
987.6107149887
 31
0.0
  0
LINE
  5
85
330
1F
100
AcDbEntity
  8
SLD-0_0
  6
SLD-Solid
 62
   179
370
    15
100
AcDbLine
 10
263.6617117946
 20
987.6107149887
 30
0.0
 11
263.6510127608
 21
987.3000555801
 31
0.0
  0
LINE
  5
86
330
1F
100
AcDbEntity
  8
SLD-0_0
  6
SLD-Solid
 62
   179
370
    15
100
AcDbLine
 10
263.6510127608
 20
987.3000555801
 30
0.0
 11
263.6387938086
 21
986.9456463623
 31
0.0
  0
LINE
  5
87
330
1F
100
AcDbEntity
  8
SLD-0_0
  6
SLD-Solid
 62
   179
370
    15
100
AcDbLine
 10
263.6387938086
 20
986.9456463623
 30
0.0
 11
263.6255317752
 21
986.5610771942
 31
0.0
  0
LINE
  5
88
330
1F
100
AcDbEntity
  8
SLD-0_0
  6
SLD-Solid
 62
   179
370
    15
100
AcDbLine
 10
263.6255317752
 20
986.5610771942
 30
0.0
 11
263.6117332999
 21
986.1611300277
 31
0.0
  0
LINE
  5
89
330
1F
100
AcDbEntity
  8
SLD-0_0
  6
SLD-Solid
 62
   179
370
    15
100
AcDbLine
 10
1159.5117443625
 20
986.1611300277
 30
0.0
 11
1159.4979160849
 21
986.5610771942
 31
0.0
  0
LINE
  5
8A
330
1F
100
AcDbEntity
  8
SLD-0_0
  6
SLD-Solid
 62
   179
370
    15
100
AcDbLine
 10
1159.4979160849
 20
986.5610771942
 30
0.0
 11
1159.4846838538
 21
986.9456463623
 31
0.0
  0
LINE
  5
8B
330
1F
100
AcDbEntity
  8
SLD-0_0
  6
SLD-Solid
 62
   179
370
    15
100
AcDbLine
 10
1159.4846838538
 20
986.9456463623
 30
0.0
 11
1159.4724649016
 21
987.3000555801
 31
0.0
  0
LINE
  5
8C
330
1F
100
AcDbEntity
  8
SLD-0_0
  6
SLD-Solid
 62
   179
370
    15
100
AcDbLine
 10
1159.4724649016
 20
987.3000555801
 30
0.0
 11
1159.4617360656
 21
987.6107149887
 31
0.0
  0
LINE
  5
8D
330
1F
100
AcDbEntity
  8
SLD-0_0
  6
SLD-Solid
 62
   179
370
    15
100
AcDbLine
 10
1159.4617360656
 20
987.6107149887
 30
0.0
 11
1159.4529145781
 21
987.8656440544
 31
0.0
  0
LINE
  5
8E
330
1F
100
AcDbEntity
  8
SLD-0_0
  6
SLD-Solid
 62
   179
370
    15
100
AcDbLine
 10
1159.4529145781
 20
987.8656440544
 30
0.0
 11
1159.4464176719
 21
988.0550676155
 31
0.0
  0
LINE
  5
8F
330
1F
100
AcDbEntity
  8
SLD-0_0
  6
SLD-Solid
 62
   179
370
    15
100
AcDbLine
 10
1159.4464176719
 20
988.0550676155
 30
0.0
 11
1159.442364556
 21
988.1717735099
 31
0.0
  0
LINE
  5
90
330
1F
100
AcDbEntity
  8
SLD-0_0
  6
SLD-Solid
 62
   179
370
    15
100
AcDbLine
 10
1159.442364556
 20
988.1717735099
 30
0.0
 11
1159.4409936492
 21
988.2111125755
 31
0.0
  0
LINE
  5
91
330
1F
100
AcDbEntity
  8
SLD-0_0
  6
SLD-Solid
 62
   179
370
    15
100
AcDbLine
 10
1160.75468002
 20
863.2111423778
 30
0.0
 11
1160.75468002
 21
864.0111261177
 31
0.0
  0
LINE
  5
92
330
1F
100
AcDbEntity
  8
SLD-0_0
  6
SLD-Solid
 62
   179
370
    15
100
AcDbLine
 10
1159.5117443625
 20
986.1611300277
 30
0.0
 11
1161.5617269103
 21
986.1611300277
 31
0.0
  0
LINE
  5
93
330
1F
100
AcDbEntity
  8
SLD-0_0
  6
SLD-Solid
 62
   179
370
    15
100
AcDbLine
 10
1161.5617269103
 20
864.0182190704
 30
0.0
 11
1161.5617269103
 21
986.1611300277
 31
0.0
  0
LINE
  5
94
330
1F
100
AcDbEntity
  8
SLD-0_0
  6
SLD-Solid
 62
   179
370
    15
100
AcDbLine
 10
1161.5617269103
 20
864.0182190704
 30
0.0
 11
1160.7617133681
 21
864.0182190704
 31
0.0
  0
LINE
  5
95
330
1F
100
AcDbEntity
  8
SLD-0_0
  6
SLD-Solid
 62
   179
370
    15
100
AcDbLine
 10
263.6117332999
 20
987.411158638
 30
0.0
 11
263.6117332999
 21
988.2111125755
 31
0.0
  0
LINE
  5
96
330
1F
100
AcDbEntity
  8
SLD-0_0
  6
SLD-Solid
 62
   179
370
    15
100
AcDbLine
 10
1159.5117443625
 20
987.411158638
 30
0.0
 11
1159.5117443625
 21
988.2111125755
 31
0.0
  0
LINE
  5
97
330
1F
100
AcDbEntity
  8
SLD-0_0
  6
SLD-Solid
 62
   179
370
    15
100
AcDbLine
 10
1159.4685905997
 20
987.411158638
 30
0.0
 11
1159.5117443625
 21
987.411158638
 31
0.0
  0
LINE
  5
98
330
1F
100
AcDbEntity
  8
SLD-0_0
  6
SLD-Solid
 62
   179
370
    15
100
AcDbLine
 10
263.6117332999
 20
987.411158638
 30
0.0
 11
263.6548572604
 21
987.411158638
 31
0.0
  0
LINE
  5
99
330
1F
100
AcDbEntity
  8
SLD-0_0
  6
SLD-Solid
 62
   179
370
    15
100
AcDbLine
 10
261.5617209498
 20
1003.7434273529
 30
0.0
 11
261.5617209498
 21
1020.8342247772
 31
0.0
  0
LINE
  5
9A
330
1F
100
AcDbEntity
  8
SLD-0_0
  6
SLD-Solid
 62
   179
370
    15
100
AcDbLine
 10
1161.5617269103
 20
1003.7434273529
 30
0.0
 11
1161.5617269103
 21
1020.8342247772
 31
0.0
  0
LINE
  5
9B
330
1F
100
AcDbEntity
  8
SLD-0_0
  6
SLD-Solid
 62
   179
370
    15
100
AcDbLine
 10
261.5617209498
 20
988.9434152412
 30
0.0
 11
261.5617209498
 21
1003.7434273529
 31
0.0
  0
LINE
  5
9C
330
1F
100
AcDbEntity
  8
SLD-0_0
  6
SLD-Solid
 62
   179
370
    15
100
AcDbLine
 10
1161.5617269103
 20
988.9434152412
 30
0.0
 11
1161.5617269103
 21
1003.7434273529
 31
0.0
  0
LINE
  5
9D
330
1F
100
AcDbEntity
  8
SLD-0_0
  6
SLD-Solid
 62
   179
370
    15
100
AcDbLine
 10
1161.5617269103
 20
1020.8342247772
 30
0.0
 11
1161.5617269103
 21
1027.9135876464
 31
0.0
  0
LINE
  5
9E
330
1F
100
AcDbEntity
  8
SLD-0_0
  6
SLD-Solid
 62
   179
370
    15
100
AcDbLine
 10
261.5617209498
 20
1020.8342247772
 30
0.0
 11
261.5617209498
 21
1027.9135876464
 31
0.0
  0
LINE
  5
9F
330
1F
100
AcDbEntity
  8
SLD-0_0
  6
SLD-Solid
 62
   179
370
    15
100
AcDbLine
 10
624.5617264335
 20
1026.9392901229
 30
0.0
 11
624.1715451155
 21
1026.9261771011
 31
0.0
  0
LINE
  5
A0
330
1F
100
AcDbEntity
  8
SLD-0_0
  6
SLD-Solid
 62
   179
370
    15
100
AcDbLine
 10
624.1715451155
 20
1026.9261771011
 30
0.0
 11
623.7963599537
 21
1026.8872552681
 31
0.0
  0
LINE
  5
A1
330
1F
100
AcDbEntity
  8
SLD-0_0
  6
SLD-Solid
 62
   179
370
    15
100
AcDbLine
 10
623.7963599537
 20
1026.8872552681
 30
0.0
 11
623.4505859588
 21
1026.82401474
 31
0.0
  0
LINE
  5
A2
330
1F
100
AcDbEntity
  8
SLD-0_0
  6
SLD-Solid
 62
   179
370
    15
100
AcDbLine
 10
623.4505859588
 20
1026.82401474
 30
0.0
 11
623.1475131039
 21
1026.7389589119
 31
0.0
  0
LINE
  5
A3
330
1F
100
AcDbEntity
  8
SLD-0_0
  6
SLD-Solid
 62
   179
370
    15
100
AcDbLine
 10
623.1475131039
 20
1026.7389589119
 30
0.0
 11
622.8987866465
 21
1026.6353064346
 31
0.0
  0
LINE
  5
A4
330
1F
100
AcDbEntity
  8
SLD-0_0
  6
SLD-Solid
 62
   179
370
    15
100
AcDbLine
 10
622.8987866465
 20
1026.6353064346
 30
0.0
 11
622.7139675443
 21
1026.5170508194
 31
0.0
  0
LINE
  5
A5
330
1F
100
AcDbEntity
  8
SLD-0_0
  6
SLD-Solid
 62
   179
370
    15
100
AcDbLine
 10
622.7139675443
 20
1026.5170508194
 30
0.0
 11
622.6001562004
 21
1026.3887220192
 31
0.0
  0
LINE
  5
A6
330
1F
100
AcDbEntity
  8
SLD-0_0
  6
SLD-Solid
 62
   179
370
    15
100
AcDbLine
 10
622.6001562004
 20
1026.3887220192
 30
0.0
 11
622.5617261056
 21
1026.2552672195
 31
0.0
  0
LINE
  5
A7
330
1F
100
AcDbEntity
  8
SLD-0_0
  6
SLD-Solid
 62
   179
370
    15
100
AcDbLine
 10
622.5617261056
 20
1026.2552672195
 30
0.0
 11
622.5617261056
 21
1022.4930220413
 31
0.0
  0
LINE
  5
A8
330
1F
100
AcDbEntity
  8
SLD-0_0
  6
SLD-Solid
 62
   179
370
    15
100
AcDbLine
 10
622.5617261056
 20
1022.4930220413
 30
0.0
 11
622.6001562004
 21
1022.3595672416
 31
0.0
  0
LINE
  5
A9
330
1F
100
AcDbEntity
  8
SLD-0_0
  6
SLD-Solid
 62
   179
370
    15
100
AcDbLine
 10
622.6001562004
 20
1022.3595672416
 30
0.0
 11
622.7139675443
 21
1022.2312384414
 31
0.0
  0
LINE
  5
AA
330
1F
100
AcDbEntity
  8
SLD-0_0
  6
SLD-Solid
 62
   179
370
    15
100
AcDbLine
 10
622.7139675443
 20
1022.2312384414
 30
0.0
 11
622.8987866465
 21
1022.1129828262
 31
0.0
  0
LINE
  5
AB
330
1F
100
AcDbEntity
  8
SLD-0_0
  6
SLD-Solid
 62
   179
370
    15
100
AcDbLine
 10
622.8987866465
 20
1022.1129828262
 30
0.0
 11
623.1475131039
 21
1022.0093303489
 31
0.0
  0
LINE
  5
AC
330
1F
100
AcDbEntity
  8
SLD-0_0
  6
SLD-Solid
 62
   179
370
    15
100
AcDbLine
 10
623.1475131039
 20
1022.0093303489
 30
0.0
 11
623.4505859588
 21
1021.9242745208
 31
0.0
  0
LINE
  5
AD
330
1F
100
AcDbEntity
  8
SLD-0_0
  6
SLD-Solid
 62
   179
370
    15
100
AcDbLine
 10
623.4505859588
 20
1021.9242745208
 30
0.0
 11
623.7963599537
 21
1021.8610935974
 31
0.0
  0
LINE
  5
AE
330
1F
100
AcDbEntity
  8
SLD-0_0
  6
SLD-Solid
 62
   179
370
    15
100
AcDbLine
 10
623.7963599537
 20
1021.8610935974
 30
0.0
 11
624.1715451155
 21
1021.8221717643
 31
0.0
  0
LINE
  5
AF
330
1F
100
AcDbEntity
  8
SLD-0_0
  6
SLD-Solid
 62
   179
370
    15
100
AcDbLine
 10
624.1715451155
 20
1021.8221717643
 30
0.0
 11
624.5617264335
 21
1021.8089991378
 31
0.0
  0
LINE
  5
B0
330
1F
100
AcDbEntity
  8
SLD-0_0
  6
SLD-Solid
 62
   179
370
    15
100
AcDbLine
 10
644.5617266849
 20
1021.8089991378
 30
0.0
 11
624.5617264335
 21
1021.8089991378
 31
0.0
  0
LINE
  5
B1
330
1F
100
AcDbEntity
  8
SLD-0_0
  6
SLD-Solid
 62
   179
370
    15
100
AcDbLine
 10
644.5617266849
 20
1021.8089991378
 30
0.0
 11
644.9519073043
 21
1021.8221717643
 31
0.0
  0
LINE
  5
B2
330
1F
100
AcDbEntity
  8
SLD-0_0
  6
SLD-Solid
 62
   179
370
    15
100
AcDbLine
 10
644.9519073043
 20
1021.8221717643
 30
0.0
 11
645.3270935139
 21
1021.8610935974
 31
0.0
  0
LINE
  5
B3
330
1F
100
AcDbEntity
  8
SLD-0_0
  6
SLD-Solid
 62
   179
370
    15
100
AcDbLine
 10
645.3270935139
 20
1021.8610935974
 30
0.0
 11
645.6728671596
 21
1021.9242745208
 31
0.0
  0
LINE
  5
B4
330
1F
100
AcDbEntity
  8
SLD-0_0
  6
SLD-Solid
 62
   179
370
    15
100
AcDbLine
 10
645.6728671596
 20
1021.9242745208
 30
0.0
 11
645.9759402473
 21
1022.0093303489
 31
0.0
  0
LINE
  5
B5
330
1F
100
AcDbEntity
  8
SLD-0_0
  6
SLD-Solid
 62
   179
370
    15
100
AcDbLine
 10
645.9759402473
 20
1022.0093303489
 30
0.0
 11
646.2246657733
 21
1022.1129828262
 31
0.0
  0
LINE
  5
B6
330
1F
100
AcDbEntity
  8
SLD-0_0
  6
SLD-Solid
 62
   179
370
    15
100
AcDbLine
 10
646.2246657733
 20
1022.1129828262
 30
0.0
 11
646.4094858069
 21
1022.2312384414
 31
0.0
  0
LINE
  5
B7
330
1F
100
AcDbEntity
  8
SLD-0_0
  6
SLD-Solid
 62
   179
370
    15
100
AcDbLine
 10
646.4094858069
 20
1022.2312384414
 30
0.0
 11
646.5232971509
 21
1022.3595672416
 31
0.0
  0
LINE
  5
B8
330
1F
100
AcDbEntity
  8
SLD-0_0
  6
SLD-Solid
 62
   179
370
    15
100
AcDbLine
 10
646.5232971509
 20
1022.3595672416
 30
0.0
 11
646.5617265471
 21
1022.4930220413
 31
0.0
  0
LINE
  5
B9
330
1F
100
AcDbEntity
  8
SLD-0_0
  6
SLD-Solid
 62
   179
370
    15
100
AcDbLine
 10
646.5617265471
 20
1026.2552672195
 30
0.0
 11
646.5617265471
 21
1022.4930220413
 31
0.0
  0
LINE
  5
BA
330
1F
100
AcDbEntity
  8
SLD-0_0
  6
SLD-Solid
 62
   179
370
    15
100
AcDbLine
 10
646.5617265471
 20
1026.2552672195
 30
0.0
 11
646.5232971509
 21
1026.3887220192
 31
0.0
  0
LINE
  5
BB
330
1F
100
AcDbEntity
  8
SLD-0_0
  6
SLD-Solid
 62
   179
370
    15
100
AcDbLine
 10
646.5232971509
 20
1026.3887220192
 30
0.0
 11
646.4094858069
 21
1026.5170508194
 31
0.0
  0
LINE
  5
BC
330
1F
100
AcDbEntity
  8
SLD-0_0
  6
SLD-Solid
 62
   179
370
    15
100
AcDbLine
 10
646.4094858069
 20
1026.5170508194
 30
0.0
 11
646.2246657733
 21
1026.6353064346
 31
0.0
  0
LINE
  5
BD
330
1F
100
AcDbEntity
  8
SLD-0_0
  6
SLD-Solid
 62
   179
370
    15
100
AcDbLine
 10
646.2246657733
 20
1026.6353064346
 30
0.0
 11
645.9759402473
 21
1026.7389589119
 31
0.0
  0
LINE
  5
BE
330
1F
100
AcDbEntity
  8
SLD-0_0
  6
SLD-Solid
 62
   179
370
    15
100
AcDbLine
 10
645.9759402473
 20
1026.7389589119
 30
0.0
 11
645.6728671596
 21
1026.82401474
 31
0.0
  0
LINE
  5
BF
330
1F
100
AcDbEntity
  8
SLD-0_0
  6
SLD-Solid
 62
   179
370
    15
100
AcDbLine
 10
645.6728671596
 20
1026.82401474
 30
0.0
 11
645.3270935139
 21
1026.8872552681
 31
0.0
  0
LINE
  5
C0
330
1F
100
AcDbEntity
  8
SLD-0_0
  6
SLD-Solid
 62
   179
370
    15
100
AcDbLine
 10
645.3270935139
 20
1026.8872552681
 30
0.0
 11
644.9519073043
 21
1026.9261771011
 31
0.0
  0
LINE
  5
C1
330
1F
100
AcDbEntity
  8
SLD-0_0
  6
SLD-Solid
 62
   179
370
    15
100
AcDbLine
 10
644.9519073043
 20
1026.9261771011
 30
0.0
 11
644.5617266849
 21
1026.9392901229
 31
0.0
  0
LINE
  5
C2
330
1F
100
AcDbEntity
  8
SLD-0_0
  6
SLD-Solid
 62
   179
370
    15
100
AcDbLine
 10
644.5617266849
 20
1026.9392901229
 30
0.0
 11
624.5617264335
 21
1026.9392901229
 31
0.0
  0
LINE
  5
C3
330
1F
100
AcDbEntity
  8
SLD-0_0
  6
SLD-Solid
 62
   179
370
    15
100
AcDbLine
 10
646.5617265471
 20
1026.2458496856
 30
0.0
 11
646.5232971509
 21
1026.3793044853
 31
0.0
  0
LINE
  5
C4
330
1F
100
AcDbEntity
  8
SLD-0_0
  6
SLD-Solid
 62
   179
370
    15
100
AcDbLine
 10
646.5232971509
 20
1026.3793044853
 30
0.0
 11
646.4094858069
 21
1026.5076332855
 31
0.0
  0
LINE
  5
C5
330
1F
100
AcDbEntity
  8
SLD-0_0
  6
SLD-Solid
 62
   179
370
    15
100
AcDbLine
 10
646.4094858069
 20
1026.5076332855
 30
0.0
 11
646.2246657733
 21
1026.6258889007
 31
0.0
  0
LINE
  5
C6
330
1F
100
AcDbEntity
  8
SLD-0_0
  6
SLD-Solid
 62
   179
370
    15
100
AcDbLine
 10
646.2246657733
 20
1026.6258889007
 30
0.0
 11
645.9759402473
 21
1026.729541378
 31
0.0
  0
LINE
  5
C7
330
1F
100
AcDbEntity
  8
SLD-0_0
  6
SLD-Solid
 62
   179
370
    15
100
AcDbLine
 10
645.9759402473
 20
1026.729541378
 30
0.0
 11
645.6728671596
 21
1026.8145972061
 31
0.0
  0
LINE
  5
C8
330
1F
100
AcDbEntity
  8
SLD-0_0
  6
SLD-Solid
 62
   179
370
    15
100
AcDbLine
 10
645.6728671596
 20
1026.8145972061
 30
0.0
 11
645.3270935139
 21
1026.8778377342
 31
0.0
  0
LINE
  5
C9
330
1F
100
AcDbEntity
  8
SLD-0_0
  6
SLD-Solid
 62
   179
370
    15
100
AcDbLine
 10
645.3270935139
 20
1026.8778377342
 30
0.0
 11
644.9519073043
 21
1026.9167595672
 31
0.0
  0
LINE
  5
CA
330
1F
100
AcDbEntity
  8
SLD-0_0
  6
SLD-Solid
 62
   179
370
    15
100
AcDbLine
 10
644.9519073043
 20
1026.9167595672
 30
0.0
 11
644.5617266849
 21
1026.9299321937
 31
0.0
  0
LINE
  5
CB
330
1F
100
AcDbEntity
  8
SLD-0_0
  6
SLD-Solid
 62
   179
370
    15
100
AcDbLine
 10
624.5617264335
 20
1026.9299321937
 30
0.0
 11
624.1715451155
 21
1026.9167595672
 31
0.0
  0
LINE
  5
CC
330
1F
100
AcDbEntity
  8
SLD-0_0
  6
SLD-Solid
 62
   179
370
    15
100
AcDbLine
 10
624.1715451155
 20
1026.9167595672
 30
0.0
 11
623.7963599537
 21
1026.8778377342
 31
0.0
  0
LINE
  5
CD
330
1F
100
AcDbEntity
  8
SLD-0_0
  6
SLD-Solid
 62
   179
370
    15
100
AcDbLine
 10
623.7963599537
 20
1026.8778377342
 30
0.0
 11
623.4505859588
 21
1026.8145972061
 31
0.0
  0
LINE
  5
CE
330
1F
100
AcDbEntity
  8
SLD-0_0
  6
SLD-Solid
 62
   179
370
    15
100
AcDbLine
 10
623.4505859588
 20
1026.8145972061
 30
0.0
 11
623.1475131039
 21
1026.729541378
 31
0.0
  0
LINE
  5
CF
330
1F
100
AcDbEntity
  8
SLD-0_0
  6
SLD-Solid
 62
   179
370
    15
100
AcDbLine
 10
623.1475131039
 20
1026.729541378
 30
0.0
 11
622.8987866465
 21
1026.6258889007
 31
0.0
  0
LINE
  5
D0
330
1F
100
AcDbEntity
  8
SLD-0_0
  6
SLD-Solid
 62
   179
370
    15
100
AcDbLine
 10
622.8987866465
 20
1026.6258889007
 30
0.0
 11
622.7139675443
 21
1026.5076332855
 31
0.0
  0
LINE
  5
D1
330
1F
100
AcDbEntity
  8
SLD-0_0
  6
SLD-Solid
 62
   179
370
    15
100
AcDbLine
 10
622.7139675443
 20
1026.5076332855
 30
0.0
 11
622.6001562004
 21
1026.3793044853
 31
0.0
  0
LINE
  5
D2
330
1F
100
AcDbEntity
  8
SLD-0_0
  6
SLD-Solid
 62
   179
370
    15
100
AcDbLine
 10
622.6001562004
 20
1026.3793044853
 30
0.0
 11
622.5617261056
 21
1026.2458496856
 31
0.0
  0
LINE
  5
D3
330
1F
100
AcDbEntity
  8
SLD-0_0
  6
SLD-Solid
 62
   179
370
    15
100
AcDbLine
 10
644.5617266849
 20
1026.9299321937
 30
0.0
 11
624.5617264335
 21
1026.9299321937
 31
0.0
  0
LINE
  5
D4
330
1F
100
AcDbEntity
  8
SLD-0_0
  6
SLD-Solid
 62
   179
370
    15
100
AcDbLine
 10
623.5617262695
 20
1022.4836641121
 30
0.0
 11
623.5809413169
 21
1022.4169069099
 31
0.0
  0
LINE
  5
D5
330
1F
100
AcDbEntity
  8
SLD-0_0
  6
SLD-Solid
 62
   179
370
    15
100
AcDbLine
 10
623.5809413169
 20
1022.4169069099
 30
0.0
 11
623.6378469889
 21
1022.3527723121
 31
0.0
  0
LINE
  5
D6
330
1F
100
AcDbEntity
  8
SLD-0_0
  6
SLD-Solid
 62
   179
370
    15
100
AcDbLine
 10
623.6378469889
 20
1022.3527723121
 30
0.0
 11
623.73025654
 21
1022.2936445045
 31
0.0
  0
LINE
  5
D7
330
1F
100
AcDbEntity
  8
SLD-0_0
  6
SLD-Solid
 62
   179
370
    15
100
AcDbLine
 10
623.73025654
 20
1022.2936445045
 30
0.0
 11
623.8546197687
 21
1022.2417884636
 31
0.0
  0
LINE
  5
D8
330
1F
100
AcDbEntity
  8
SLD-0_0
  6
SLD-Solid
 62
   179
370
    15
100
AcDbLine
 10
623.8546197687
 20
1022.2417884636
 30
0.0
 11
624.0061571274
 21
1022.1992903518
 31
0.0
  0
LINE
  5
D9
330
1F
100
AcDbEntity
  8
SLD-0_0
  6
SLD-Solid
 62
   179
370
    15
100
AcDbLine
 10
624.0061571274
 20
1022.1992903518
 30
0.0
 11
624.1790441249
 21
1022.1676402855
 31
0.0
  0
LINE
  5
DA
330
1F
100
AcDbEntity
  8
SLD-0_0
  6
SLD-Solid
 62
   179
370
    15
100
AcDbLine
 10
624.1790441249
 20
1022.1676402855
 30
0.0
 11
624.3666367058
 21
1022.1482091713
 31
0.0
  0
LINE
  5
DB
330
1F
100
AcDbEntity
  8
SLD-0_0
  6
SLD-Solid
 62
   179
370
    15
100
AcDbLine
 10
624.3666367058
 20
1022.1482091713
 30
0.0
 11
624.5617264335
 21
1022.1415930557
 31
0.0
  0
LINE
  5
DC
330
1F
100
AcDbEntity
  8
SLD-0_0
  6
SLD-Solid
 62
   179
370
    15
100
AcDbLine
 10
644.5617266849
 20
1022.1415930557
 30
0.0
 11
624.5617264335
 21
1022.1415930557
 31
0.0
  0
LINE
  5
DD
330
1F
100
AcDbEntity
  8
SLD-0_0
  6
SLD-Solid
 62
   179
370
    15
100
AcDbLine
 10
644.5617266849
 20
1022.1415930557
 30
0.0
 11
644.7568169946
 21
1022.1482091713
 31
0.0
  0
LINE
  5
DE
330
1F
100
AcDbEntity
  8
SLD-0_0
  6
SLD-Solid
 62
   179
370
    15
100
AcDbLine
 10
644.7568169946
 20
1022.1482091713
 30
0.0
 11
644.9444100412
 21
1022.1676402855
 31
0.0
  0
LINE
  5
DF
330
1F
100
AcDbEntity
  8
SLD-0_0
  6
SLD-Solid
 62
   179
370
    15
100
AcDbLine
 10
644.9444100412
 20
1022.1676402855
 30
0.0
 11
645.1172969223
 21
1022.1992903518
 31
0.0
  0
LINE
  5
E0
330
1F
100
AcDbEntity
  8
SLD-0_0
  6
SLD-Solid
 62
   179
370
    15
100
AcDbLine
 10
645.1172969223
 20
1022.1992903518
 30
0.0
 11
645.2688334661
 21
1022.2417884636
 31
0.0
  0
LINE
  5
E1
330
1F
100
AcDbEntity
  8
SLD-0_0
  6
SLD-Solid
 62
   179
370
    15
100
AcDbLine
 10
645.2688334661
 20
1022.2417884636
 30
0.0
 11
645.3931963455
 21
1022.2936445045
 31
0.0
  0
LINE
  5
E2
330
1F
100
AcDbEntity
  8
SLD-0_0
  6
SLD-Solid
 62
   179
370
    15
100
AcDbLine
 10
645.3931963455
 20
1022.2936445045
 30
0.0
 11
645.4856061295
 21
1022.3527723121
 31
0.0
  0
LINE
  5
E3
330
1F
100
AcDbEntity
  8
SLD-0_0
  6
SLD-Solid
 62
   179
370
    15
100
AcDbLine
 10
645.4856061295
 20
1022.3527723121
 30
0.0
 11
645.5425120343
 21
1022.4169069099
 31
0.0
  0
LINE
  5
E4
330
1F
100
AcDbEntity
  8
SLD-0_0
  6
SLD-Solid
 62
   179
370
    15
100
AcDbLine
 10
645.5425120343
 20
1022.4169069099
 30
0.0
 11
645.561726616
 21
1022.4836641121
 31
0.0
  0
LINE
  5
E5
330
1F
100
AcDbEntity
  8
SLD-0_0
  6
SLD-Solid
 62
   179
370
    15
100
AcDbLine
 10
644.5617266849
 20
1022.1510105896
 30
0.0
 11
644.7568169946
 21
1022.1575671005
 31
0.0
  0
LINE
  5
E6
330
1F
100
AcDbEntity
  8
SLD-0_0
  6
SLD-Solid
 62
   179
370
    15
100
AcDbLine
 10
644.7568169946
 20
1022.1575671005
 30
0.0
 11
644.9444100412
 21
1022.1770578193
 31
0.0
  0
LINE
  5
E7
330
1F
100
AcDbEntity
  8
SLD-0_0
  6
SLD-Solid
 62
   179
370
    15
100
AcDbLine
 10
644.9444100412
 20
1022.1770578193
 30
0.0
 11
645.1172969223
 21
1022.2086482811
 31
0.0
  0
LINE
  5
E8
330
1F
100
AcDbEntity
  8
SLD-0_0
  6
SLD-Solid
 62
   179
370
    15
100
AcDbLine
 10
645.1172969223
 20
1022.2086482811
 30
0.0
 11
645.2688334661
 21
1022.2512059974
 31
0.0
  0
LINE
  5
E9
330
1F
100
AcDbEntity
  8
SLD-0_0
  6
SLD-Solid
 62
   179
370
    15
100
AcDbLine
 10
645.2688334661
 20
1022.2512059974
 30
0.0
 11
645.3931963455
 21
1022.3030024337
 31
0.0
  0
LINE
  5
EA
330
1F
100
AcDbEntity
  8
SLD-0_0
  6
SLD-Solid
 62
   179
370
    15
100
AcDbLine
 10
645.3931963455
 20
1022.3030024337
 30
0.0
 11
645.4856061295
 21
1022.3621302414
 31
0.0
  0
LINE
  5
EB
330
1F
100
AcDbEntity
  8
SLD-0_0
  6
SLD-Solid
 62
   179
370
    15
100
AcDbLine
 10
645.4856061295
 20
1022.3621302414
 30
0.0
 11
645.5425120343
 21
1022.4263244438
 31
0.0
  0
LINE
  5
EC
330
1F
100
AcDbEntity
  8
SLD-0_0
  6
SLD-Solid
 62
   179
370
    15
100
AcDbLine
 10
645.5425120343
 20
1022.4263244438
 30
0.0
 11
645.561726616
 21
1022.4930220413
 31
0.0
  0
LINE
  5
ED
330
1F
100
AcDbEntity
  8
SLD-0_0
  6
SLD-Solid
 62
   179
370
    15
100
AcDbLine
 10
644.5617266849
 20
1022.1510105896
 30
0.0
 11
624.5617264335
 21
1022.1510105896
 31
0.0
  0
LINE
  5
EE
330
1F
100
AcDbEntity
  8
SLD-0_0
  6
SLD-Solid
 62
   179
370
    15
100
AcDbLine
 10
623.5617262695
 20
1022.4930220413
 30
0.0
 11
623.5809413169
 21
1022.4263244438
 31
0.0
  0
LINE
  5
EF
330
1F
100
AcDbEntity
  8
SLD-0_0
  6
SLD-Solid
 62
   179
370
    15
100
AcDbLine
 10
623.5809413169
 20
1022.4263244438
 30
0.0
 11
623.6378469889
 21
1022.3621302414
 31
0.0
  0
LINE
  5
F0
330
1F
100
AcDbEntity
  8
SLD-0_0
  6
SLD-Solid
 62
   179
370
    15
100
AcDbLine
 10
623.6378469889
 20
1022.3621302414
 30
0.0
 11
623.73025654
 21
1022.3030024337
 31
0.0
  0
LINE
  5
F1
330
1F
100
AcDbEntity
  8
SLD-0_0
  6
SLD-Solid
 62
   179
370
    15
100
AcDbLine
 10
623.73025654
 20
1022.3030024337
 30
0.0
 11
623.8546197687
 21
1022.2512059974
 31
0.0
  0
LINE
  5
F2
330
1F
100
AcDbEntity
  8
SLD-0_0
  6
SLD-Solid
 62
   179
370
    15
100
AcDbLine
 10
623.8546197687
 20
1022.2512059974
 30
0.0
 11
624.0061571274
 21
1022.2086482811
 31
0.0
  0
LINE
  5
F3
330
1F
100
AcDbEntity
  8
SLD-0_0
  6
SLD-Solid
 62
   179
370
    15
100
AcDbLine
 10
624.0061571274
 20
1022.2086482811
 30
0.0
 11
624.1790441249
 21
1022.1770578193
 31
0.0
  0
LINE
  5
F4
330
1F
100
AcDbEntity
  8
SLD-0_0
  6
SLD-Solid
 62
   179
370
    15
100
AcDbLine
 10
624.1790441249
 20
1022.1770578193
 30
0.0
 11
624.3666367058
 21
1022.1575671005
 31
0.0
  0
LINE
  5
F5
330
1F
100
AcDbEntity
  8
SLD-0_0
  6
SLD-Solid
 62
   179
370
    15
100
AcDbLine
 10
624.3666367058
 20
1022.1575671005
 30
0.0
 11
624.5617264335
 21
1022.1510105896
 31
0.0
  0
LINE
  5
F6
330
1F
100
AcDbEntity
  8
SLD-0_0
  6
SLD-Solid
 62
   179
370
    15
100
AcDbLine
 10
623.5617262695
 20
1026.2552672195
 30
0.0
 11
623.5617262695
 21
1022.4930220413
 31
0.0
  0
LINE
  5
F7
330
1F
100
AcDbEntity
  8
SLD-0_0
  6
SLD-Solid
 62
   179
370
    15
100
AcDbLine
 10
624.5617264335
 20
1026.5972786712
 30
0.0
 11
624.3666367058
 21
1026.5907221603
 31
0.0
  0
LINE
  5
F8
330
1F
100
AcDbEntity
  8
SLD-0_0
  6
SLD-Solid
 62
   179
370
    15
100
AcDbLine
 10
624.3666367058
 20
1026.5907221603
 30
0.0
 11
624.1790441249
 21
1026.5712314415
 31
0.0
  0
LINE
  5
F9
330
1F
100
AcDbEntity
  8
SLD-0_0
  6
SLD-Solid
 62
   179
370
    15
100
AcDbLine
 10
624.1790441249
 20
1026.5712314415
 30
0.0
 11
624.0061571274
 21
1026.5396409797
 31
0.0
  0
LINE
  5
FA
330
1F
100
AcDbEntity
  8
SLD-0_0
  6
SLD-Solid
 62
   179
370
    15
100
AcDbLine
 10
624.0061571274
 20
1026.5396409797
 30
0.0
 11
623.8546197687
 21
1026.4970832634
 31
0.0
  0
LINE
  5
FB
330
1F
100
AcDbEntity
  8
SLD-0_0
  6
SLD-Solid
 62
   179
370
    15
100
AcDbLine
 10
623.8546197687
 20
1026.4970832634
 30
0.0
 11
623.73025654
 21
1026.445286827
 31
0.0
  0
LINE
  5
FC
330
1F
100
AcDbEntity
  8
SLD-0_0
  6
SLD-Solid
 62
   179
370
    15
100
AcDbLine
 10
623.73025654
 20
1026.445286827
 30
0.0
 11
623.6378469889
 21
1026.3861590194
 31
0.0
  0
LINE
  5
FD
330
1F
100
AcDbEntity
  8
SLD-0_0
  6
SLD-Solid
 62
   179
370
    15
100
AcDbLine
 10
623.6378469889
 20
1026.3861590194
 30
0.0
 11
623.5809413169
 21
1026.321964817
 31
0.0
  0
LINE
  5
FE
330
1F
100
AcDbEntity
  8
SLD-0_0
  6
SLD-Solid
 62
   179
370
    15
100
AcDbLine
 10
623.5809413169
 20
1026.321964817
 30
0.0
 11
623.5617262695
 21
1026.2552672195
 31
0.0
  0
LINE
  5
FF
330
1F
100
AcDbEntity
  8
SLD-0_0
  6
SLD-Solid
 62
   179
370
    15
100
AcDbLine
 10
644.5617266849
 20
1026.5972786712
 30
0.0
 11
624.5617264335
 21
1026.5972786712
 31
0.0
  0
LINE
  5
100
330
1F
100
AcDbEntity
  8
SLD-0_0
  6
SLD-Solid
 62
   179
370
    15
100
AcDbLine
 10
645.561726616
 20
1026.2552672195
 30
0.0
 11
645.5425120343
 21
1026.321964817
 31
0.0
  0
LINE
  5
101
330
1F
100
AcDbEntity
  8
SLD-0_0
  6
SLD-Solid
 62
   179
370
    15
100
AcDbLine
 10
645.5425120343
 20
1026.321964817
 30
0.0
 11
645.4856061295
 21
1026.3861590194
 31
0.0
  0
LINE
  5
102
330
1F
100
AcDbEntity
  8
SLD-0_0
  6
SLD-Solid
 62
   179
370
    15
100
AcDbLine
 10
645.4856061295
 20
1026.3861590194
 30
0.0
 11
645.3931963455
 21
1026.445286827
 31
0.0
  0
LINE
  5
103
330
1F
100
AcDbEntity
  8
SLD-0_0
  6
SLD-Solid
 62
   179
370
    15
100
AcDbLine
 10
645.3931963455
 20
1026.445286827
 30
0.0
 11
645.2688334661
 21
1026.4970832634
 31
0.0
  0
LINE
  5
104
330
1F
100
AcDbEntity
  8
SLD-0_0
  6
SLD-Solid
 62
   179
370
    15
100
AcDbLine
 10
645.2688334661
 20
1026.4970832634
 30
0.0
 11
645.1172969223
 21
1026.5396409797
 31
0.0
  0
LINE
  5
105
330
1F
100
AcDbEntity
  8
SLD-0_0
  6
SLD-Solid
 62
   179
370
    15
100
AcDbLine
 10
645.1172969223
 20
1026.5396409797
 30
0.0
 11
644.9444100412
 21
1026.5712314415
 31
0.0
  0
LINE
  5
106
330
1F
100
AcDbEntity
  8
SLD-0_0
  6
SLD-Solid
 62
   179
370
    15
100
AcDbLine
 10
644.9444100412
 20
1026.5712314415
 30
0.0
 11
644.7568169946
 21
1026.5907221603
 31
0.0
  0
LINE
  5
107
330
1F
100
AcDbEntity
  8
SLD-0_0
  6
SLD-Solid
 62
   179
370
    15
100
AcDbLine
 10
644.7568169946
 20
1026.5907221603
 30
0.0
 11
644.5617266849
 21
1026.5972786712
 31
0.0
  0
LINE
  5
108
330
1F
100
AcDbEntity
  8
SLD-0_0
  6
SLD-Solid
 62
   179
370
    15
100
AcDbLine
 10
645.561726616
 20
1026.2552672195
 30
0.0
 11
645.561726616
 21
1022.4930220413
 31
0.0
  0
LINE
  5
109
330
1F
100
AcDbEntity
  8
SLD-0_0
  6
SLD-Solid
 62
   179
370
    15
100
AcDbLine
 10
634.5617262099
 20
1022.835033493
 30
0.0
 11
635.8295230579
 21
1022.8973799514
 31
0.0
  0
LINE
  5
10A
330
1F
100
AcDbEntity
  8
SLD-0_0
  6
SLD-Solid
 62
   179
370
    15
100
AcDbLine
 10
635.8295230579
 20
1022.8973799514
 30
0.0
 11
636.9946103927
 21
1023.0794125366
 31
0.0
  0
LINE
  5
10B
330
1F
100
AcDbEntity
  8
SLD-0_0
  6
SLD-Solid
 62
   179
370
    15
100
AcDbLine
 10
636.9946103927
 20
1023.0794125366
 30
0.0
 11
637.9625996028
 21
1023.3662300872
 31
0.0
  0
LINE
  5
10C
330
1F
100
AcDbEntity
  8
SLD-0_0
  6
SLD-Solid
 62
   179
370
    15
100
AcDbLine
 10
637.9625996028
 20
1023.3662300872
 30
0.0
 11
638.6550705333
 21
1023.7347656059
 31
0.0
  0
LINE
  5
10D
330
1F
100
AcDbEntity
  8
SLD-0_0
  6
SLD-Solid
 62
   179
370
    15
100
AcDbLine
 10
638.6550705333
 20
1023.7347656059
 30
0.0
 11
639.0159231063
 21
1024.1550975608
 31
0.0
  0
LINE
  5
10E
330
1F
100
AcDbEntity
  8
SLD-0_0
  6
SLD-Solid
 62
   179
370
    15
100
AcDbLine
 10
639.0159231063
 20
1024.1550975608
 30
0.0
 11
639.0159231063
 21
1024.5931916999
 31
0.0
  0
LINE
  5
10F
330
1F
100
AcDbEntity
  8
SLD-0_0
  6
SLD-Solid
 62
   179
370
    15
100
AcDbLine
 10
639.0159231063
 20
1024.5931916999
 30
0.0
 11
638.6550705333
 21
1025.0135236549
 31
0.0
  0
LINE
  5
110
330
1F
100
AcDbEntity
  8
SLD-0_0
  6
SLD-Solid
 62
   179
370
    15
100
AcDbLine
 10
638.6550705333
 20
1025.0135236549
 30
0.0
 11
637.9625996028
 21
1025.3820591735
 31
0.0
  0
LINE
  5
111
330
1F
100
AcDbEntity
  8
SLD-0_0
  6
SLD-Solid
 62
   179
370
    15
100
AcDbLine
 10
637.9625996028
 20
1025.3820591735
 30
0.0
 11
636.9946103927
 21
1025.6689363288
 31
0.0
  0
LINE
  5
112
330
1F
100
AcDbEntity
  8
SLD-0_0
  6
SLD-Solid
 62
   179
370
    15
100
AcDbLine
 10
636.9946103927
 20
1025.6689363288
 30
0.0
 11
635.8295230579
 21
1025.8509093093
 31
0.0
  0
LINE
  5
113
330
1F
100
AcDbEntity
  8
SLD-0_0
  6
SLD-Solid
 62
   179
370
    15
100
AcDbLine
 10
635.8295230579
 20
1025.8509093093
 30
0.0
 11
634.5617262099
 21
1025.9132557678
 31
0.0
  0
LINE
  5
114
330
1F
100
AcDbEntity
  8
SLD-0_0
  6
SLD-Solid
 62
   179
370
    15
100
AcDbLine
 10
634.5617262099
 20
1025.9132557678
 30
0.0
 11
633.2939298276
 21
1025.8509093093
 31
0.0
  0
LINE
  5
115
330
1F
100
AcDbEntity
  8
SLD-0_0
  6
SLD-Solid
 62
   179
370
    15
100
AcDbLine
 10
633.2939298276
 20
1025.8509093093
 30
0.0
 11
632.1288434241
 21
1025.6689363288
 31
0.0
  0
LINE
  5
116
330
1F
100
AcDbEntity
  8
SLD-0_0
  6
SLD-Solid
 62
   179
370
    15
100
AcDbLine
 10
632.1288434241
 20
1025.6689363288
 30
0.0
 11
631.1608537484
 21
1025.3820591735
 31
0.0
  0
LINE
  5
117
330
1F
100
AcDbEntity
  8
SLD-0_0
  6
SLD-Solid
 62
   179
370
    15
100
AcDbLine
 10
631.1608537484
 20
1025.3820591735
 30
0.0
 11
630.4683828179
 21
1025.0135236549
 31
0.0
  0
LINE
  5
118
330
1F
100
AcDbEntity
  8
SLD-0_0
  6
SLD-Solid
 62
   179
370
    15
100
AcDbLine
 10
630.4683828179
 20
1025.0135236549
 30
0.0
 11
630.1075297792
 21
1024.5931916999
 31
0.0
  0
LINE
  5
119
330
1F
100
AcDbEntity
  8
SLD-0_0
  6
SLD-Solid
 62
   179
370
    15
100
AcDbLine
 10
630.1075297792
 20
1024.5931916999
 30
0.0
 11
630.1075297792
 21
1024.1550975608
 31
0.0
  0
LINE
  5
11A
330
1F
100
AcDbEntity
  8
SLD-0_0
  6
SLD-Solid
 62
   179
370
    15
100
AcDbLine
 10
630.1075297792
 20
1024.1550975608
 30
0.0
 11
630.4683828179
 21
1023.7347656059
 31
0.0
  0
LINE
  5
11B
330
1F
100
AcDbEntity
  8
SLD-0_0
  6
SLD-Solid
 62
   179
370
    15
100
AcDbLine
 10
630.4683828179
 20
1023.7347656059
 30
0.0
 11
631.1608537484
 21
1023.3662300872
 31
0.0
  0
LINE
  5
11C
330
1F
100
AcDbEntity
  8
SLD-0_0
  6
SLD-Solid
 62
   179
370
    15
100
AcDbLine
 10
631.1608537484
 20
1023.3662300872
 30
0.0
 11
632.1288434241
 21
1023.0794125366
 31
0.0
  0
LINE
  5
11D
330
1F
100
AcDbEntity
  8
SLD-0_0
  6
SLD-Solid
 62
   179
370
    15
100
AcDbLine
 10
632.1288434241
 20
1023.0794125366
 30
0.0
 11
633.2939298276
 21
1022.8973799514
 31
0.0
  0
LINE
  5
11E
330
1F
100
AcDbEntity
  8
SLD-0_0
  6
SLD-Solid
 62
   179
370
    15
100
AcDbLine
 10
633.2939298276
 20
1022.8973799514
 30
0.0
 11
634.5617262099
 21
1022.835033493
 31
0.0
  0
LINE
  5
11F
330
1F
100
AcDbEntity
  8
SLD-0_0
  6
SLD-Solid
 62
   179
370
    15
100
AcDbLine
 10
645.561726616
 20
1022.4836641121
 30
0.0
 11
645.561726616
 21
1022.4930220413
 31
0.0
  0
LINE
  5
120
330
1F
100
AcDbEntity
  8
SLD-0_0
  6
SLD-Solid
 62
   179
370
    15
100
AcDbLine
 10
623.5617262695
 20
1022.4836641121
 30
0.0
 11
623.5617262695
 21
1022.4930220413
 31
0.0
  0
LINE
  5
121
330
1F
100
AcDbEntity
  8
SLD-0_0
  6
SLD-Solid
 62
   179
370
    15
100
AcDbLine
 10
639.0617264819
 20
1024.3647270965
 30
0.0
 11
639.0159231063
 21
1024.5837741661
 31
0.0
  0
LINE
  5
122
330
1F
100
AcDbEntity
  8
SLD-0_0
  6
SLD-Solid
 62
   179
370
    15
100
AcDbLine
 10
639.0159231063
 20
1024.5837741661
 30
0.0
 11
638.6550705333
 21
1025.004106121
 31
0.0
  0
LINE
  5
123
330
1F
100
AcDbEntity
  8
SLD-0_0
  6
SLD-Solid
 62
   179
370
    15
100
AcDbLine
 10
638.6550705333
 20
1025.004106121
 30
0.0
 11
637.9625996028
 21
1025.3726416397
 31
0.0
  0
LINE
  5
124
330
1F
100
AcDbEntity
  8
SLD-0_0
  6
SLD-Solid
 62
   179
370
    15
100
AcDbLine
 10
637.9625996028
 20
1025.3726416397
 30
0.0
 11
636.9946103927
 21
1025.659518795
 31
0.0
  0
LINE
  5
125
330
1F
100
AcDbEntity
  8
SLD-0_0
  6
SLD-Solid
 62
   179
370
    15
100
AcDbLine
 10
636.9946103927
 20
1025.659518795
 30
0.0
 11
635.8295230579
 21
1025.8414917755
 31
0.0
  0
LINE
  5
126
330
1F
100
AcDbEntity
  8
SLD-0_0
  6
SLD-Solid
 62
   179
370
    15
100
AcDbLine
 10
635.8295230579
 20
1025.8414917755
 30
0.0
 11
634.5617262099
 21
1025.9038382339
 31
0.0
  0
LINE
  5
127
330
1F
100
AcDbEntity
  8
SLD-0_0
  6
SLD-Solid
 62
   179
370
    15
100
AcDbLine
 10
634.5617262099
 20
1025.9038382339
 30
0.0
 11
633.2939298276
 21
1025.8414917755
 31
0.0
  0
LINE
  5
128
330
1F
100
AcDbEntity
  8
SLD-0_0
  6
SLD-Solid
 62
   179
370
    15
100
AcDbLine
 10
633.2939298276
 20
1025.8414917755
 30
0.0
 11
632.1288434241
 21
1025.659518795
 31
0.0
  0
LINE
  5
129
330
1F
100
AcDbEntity
  8
SLD-0_0
  6
SLD-Solid
 62
   179
370
    15
100
AcDbLine
 10
632.1288434241
 20
1025.659518795
 30
0.0
 11
631.1608537484
 21
1025.3726416397
 31
0.0
  0
LINE
  5
12A
330
1F
100
AcDbEntity
  8
SLD-0_0
  6
SLD-Solid
 62
   179
370
    15
100
AcDbLine
 10
631.1608537484
 20
1025.3726416397
 30
0.0
 11
630.4683828179
 21
1025.004106121
 31
0.0
  0
LINE
  5
12B
330
1F
100
AcDbEntity
  8
SLD-0_0
  6
SLD-Solid
 62
   179
370
    15
100
AcDbLine
 10
630.4683828179
 20
1025.004106121
 30
0.0
 11
630.1075297792
 21
1024.5837741661
 31
0.0
  0
LINE
  5
12C
330
1F
100
AcDbEntity
  8
SLD-0_0
  6
SLD-Solid
 62
   179
370
    15
100
AcDbLine
 10
630.1075297792
 20
1024.5837741661
 30
0.0
 11
630.0617264037
 21
1024.3647270965
 31
0.0
  0
LINE
  5
12D
330
1F
100
AcDbEntity
  8
SLD-0_0
  6
SLD-Solid
 62
   179
370
    15
100
AcDbLine
 10
634.5617262099
 20
1023.1676870155
 30
0.0
 11
635.6981749099
 21
1023.232536869
 31
0.0
  0
LINE
  5
12E
330
1F
100
AcDbEntity
  8
SLD-0_0
  6
SLD-Solid
 62
   179
370
    15
100
AcDbLine
 10
635.6981749099
 20
1023.232536869
 30
0.0
 11
636.7114711006
 21
1023.4201126861
 31
0.0
  0
LINE
  5
12F
330
1F
100
AcDbEntity
  8
SLD-0_0
  6
SLD-Solid
 62
   179
370
    15
100
AcDbLine
 10
636.7114711006
 20
1023.4201126861
 30
0.0
 11
637.491809522
 21
1023.7100296783
 31
0.0
  0
LINE
  5
130
330
1F
100
AcDbEntity
  8
SLD-0_0
  6
SLD-Solid
 62
   179
370
    15
100
AcDbLine
 10
637.491809522
 20
1023.7100296783
 30
0.0
 11
637.9546274815
 21
1024.0708761978
 31
0.0
  0
LINE
  5
131
330
1F
100
AcDbEntity
  8
SLD-0_0
  6
SLD-Solid
 62
   179
370
    15
100
AcDbLine
 10
637.9546274815
 20
1024.0708761978
 30
0.0
 11
638.0617267836
 21
1024.3647270965
 31
0.0
  0
LINE
  5
132
330
1F
100
AcDbEntity
  8
SLD-0_0
  6
SLD-Solid
 62
   179
370
    15
100
AcDbLine
 10
631.0617265676
 20
1024.3647270965
 30
0.0
 11
631.1688258697
 21
1024.0708761978
 31
0.0
  0
LINE
  5
133
330
1F
100
AcDbEntity
  8
SLD-0_0
  6
SLD-Solid
 62
   179
370
    15
100
AcDbLine
 10
631.1688258697
 20
1024.0708761978
 30
0.0
 11
631.6316438292
 21
1023.7100296783
 31
0.0
  0
LINE
  5
134
330
1F
100
AcDbEntity
  8
SLD-0_0
  6
SLD-Solid
 62
   179
370
    15
100
AcDbLine
 10
631.6316438292
 20
1023.7100296783
 30
0.0
 11
632.4119822506
 21
1023.4201126861
 31
0.0
  0
LINE
  5
135
330
1F
100
AcDbEntity
  8
SLD-0_0
  6
SLD-Solid
 62
   179
370
    15
100
AcDbLine
 10
632.4119822506
 20
1023.4201126861
 30
0.0
 11
633.4252789069
 21
1023.232536869
 31
0.0
  0
LINE
  5
136
330
1F
100
AcDbEntity
  8
SLD-0_0
  6
SLD-Solid
 62
   179
370
    15
100
AcDbLine
 10
633.4252789069
 20
1023.232536869
 30
0.0
 11
634.5617262099
 21
1023.1676870155
 31
0.0
  0
LINE
  5
137
330
1F
100
AcDbEntity
  8
SLD-0_0
  6
SLD-Solid
 62
   179
370
    15
100
AcDbLine
 10
634.5617262099
 20
1023.1771045494
 30
0.0
 11
635.6981749099
 21
1023.2419544029
 31
0.0
  0
LINE
  5
138
330
1F
100
AcDbEntity
  8
SLD-0_0
  6
SLD-Solid
 62
   179
370
    15
100
AcDbLine
 10
635.6981749099
 20
1023.2419544029
 30
0.0
 11
636.7114711006
 21
1023.4294706153
 31
0.0
  0
LINE
  5
139
330
1F
100
AcDbEntity
  8
SLD-0_0
  6
SLD-Solid
 62
   179
370
    15
100
AcDbLine
 10
636.7114711006
 20
1023.4294706153
 30
0.0
 11
637.491809522
 21
1023.7193876075
 31
0.0
  0
LINE
  5
13A
330
1F
100
AcDbEntity
  8
SLD-0_0
  6
SLD-Solid
 62
   179
370
    15
100
AcDbLine
 10
637.491809522
 20
1023.7193876075
 30
0.0
 11
637.9546274815
 21
1024.0802937317
 31
0.0
  0
LINE
  5
13B
330
1F
100
AcDbEntity
  8
SLD-0_0
  6
SLD-Solid
 62
   179
370
    15
100
AcDbLine
 10
637.9546274815
 20
1024.0802937317
 30
0.0
 11
638.0497723271
 21
1024.4730287361
 31
0.0
  0
LINE
  5
13C
330
1F
100
AcDbEntity
  8
SLD-0_0
  6
SLD-Solid
 62
   179
370
    15
100
AcDbLine
 10
638.0497723271
 20
1024.4730287361
 30
0.0
 11
637.7669333864
 21
1024.8550349044
 31
0.0
  0
LINE
  5
13D
330
1F
100
AcDbEntity
  8
SLD-0_0
  6
SLD-Solid
 62
   179
370
    15
100
AcDbLine
 10
637.7669333864
 20
1024.8550349044
 30
0.0
 11
637.1367604856
 21
1025.1848870086
 31
0.0
  0
LINE
  5
13E
330
1F
100
AcDbEntity
  8
SLD-0_0
  6
SLD-Solid
 62
   179
370
    15
100
AcDbLine
 10
637.1367604856
 20
1025.1848870086
 30
0.0
 11
636.2275423866
 21
1025.4269414711
 31
0.0
  0
LINE
  5
13F
330
1F
100
AcDbEntity
  8
SLD-0_0
  6
SLD-Solid
 62
   179
370
    15
100
AcDbLine
 10
636.2275423866
 20
1025.4269414711
 30
0.0
 11
635.1378078957
 21
1025.5549126434
 31
0.0
  0
LINE
  5
140
330
1F
100
AcDbEntity
  8
SLD-0_0
  6
SLD-Solid
 62
   179
370
    15
100
AcDbLine
 10
635.1378078957
 20
1025.5549126434
 30
0.0
 11
633.9856454555
 21
1025.5549126434
 31
0.0
  0
LINE
  5
141
330
1F
100
AcDbEntity
  8
SLD-0_0
  6
SLD-Solid
 62
   179
370
    15
100
AcDbLine
 10
633.9856454555
 20
1025.5549126434
 30
0.0
 11
632.8959104989
 21
1025.4269414711
 31
0.0
  0
LINE
  5
142
330
1F
100
AcDbEntity
  8
SLD-0_0
  6
SLD-Solid
 62
   179
370
    15
100
AcDbLine
 10
632.8959104989
 20
1025.4269414711
 30
0.0
 11
631.9866928656
 21
1025.1848870086
 31
0.0
  0
LINE
  5
143
330
1F
100
AcDbEntity
  8
SLD-0_0
  6
SLD-Solid
 62
   179
370
    15
100
AcDbLine
 10
631.9866928656
 20
1025.1848870086
 30
0.0
 11
631.3565199648
 21
1024.8550349044
 31
0.0
  0
LINE
  5
144
330
1F
100
AcDbEntity
  8
SLD-0_0
  6
SLD-Solid
 62
   179
370
    15
100
AcDbLine
 10
631.3565199648
 20
1024.8550349044
 30
0.0
 11
631.0736810241
 21
1024.4730287361
 31
0.0
  0
LINE
  5
145
330
1F
100
AcDbEntity
  8
SLD-0_0
  6
SLD-Solid
 62
   179
370
    15
100
AcDbLine
 10
631.0736810241
 20
1024.4730287361
 30
0.0
 11
631.1688258697
 21
1024.0802937317
 31
0.0
  0
LINE
  5
146
330
1F
100
AcDbEntity
  8
SLD-0_0
  6
SLD-Solid
 62
   179
370
    15
100
AcDbLine
 10
631.1688258697
 20
1024.0802937317
 30
0.0
 11
631.6316438292
 21
1023.7193876075
 31
0.0
  0
LINE
  5
147
330
1F
100
AcDbEntity
  8
SLD-0_0
  6
SLD-Solid
 62
   179
370
    15
100
AcDbLine
 10
631.6316438292
 20
1023.7193876075
 30
0.0
 11
632.4119822506
 21
1023.4294706153
 31
0.0
  0
LINE
  5
148
330
1F
100
AcDbEntity
  8
SLD-0_0
  6
SLD-Solid
 62
   179
370
    15
100
AcDbLine
 10
632.4119822506
 20
1023.4294706153
 30
0.0
 11
633.4252789069
 21
1023.2419544029
 31
0.0
  0
LINE
  5
149
330
1F
100
AcDbEntity
  8
SLD-0_0
  6
SLD-Solid
 62
   179
370
    15
100
AcDbLine
 10
633.4252789069
 20
1023.2419544029
 30
0.0
 11
634.5617262099
 21
1023.1771045494
 31
0.0
  0
LINE
  5
14A
330
1F
100
AcDbEntity
  8
SLD-0_0
  6
SLD-Solid
 62
   179
370
    15
100
AcDbLine
 10
634.5617262099
 20
1023.690121727
 30
0.0
 11
635.327093621
 21
1023.7421565818
 31
0.0
  0
LINE
  5
14B
330
1F
100
AcDbEntity
  8
SLD-0_0
  6
SLD-Solid
 62
   179
370
    15
100
AcDbLine
 10
635.327093621
 20
1023.7421565818
 30
0.0
 11
635.9759400052
 21
1023.890452938
 31
0.0
  0
LINE
  5
14C
330
1F
100
AcDbEntity
  8
SLD-0_0
  6
SLD-Solid
 62
   179
370
    15
100
AcDbLine
 10
635.9759400052
 20
1023.890452938
 30
0.0
 11
636.4094855648
 21
1024.1123610305
 31
0.0
  0
LINE
  5
14D
330
1F
100
AcDbEntity
  8
SLD-0_0
  6
SLD-Solid
 62
   179
370
    15
100
AcDbLine
 10
636.4094855648
 20
1024.1123610305
 30
0.0
 11
636.5617265378
 21
1024.3741446304
 31
0.0
  0
LINE
  5
14E
330
1F
100
AcDbEntity
  8
SLD-0_0
  6
SLD-Solid
 62
   179
370
    15
100
AcDbLine
 10
636.5617265378
 20
1024.3741446304
 30
0.0
 11
636.4094855648
 21
1024.6359282302
 31
0.0
  0
LINE
  5
14F
330
1F
100
AcDbEntity
  8
SLD-0_0
  6
SLD-Solid
 62
   179
370
    15
100
AcDbLine
 10
636.4094855648
 20
1024.6359282302
 30
0.0
 11
635.9759400052
 21
1024.8578363227
 31
0.0
  0
LINE
  5
150
330
1F
100
AcDbEntity
  8
SLD-0_0
  6
SLD-Solid
 62
   179
370
    15
100
AcDbLine
 10
635.9759400052
 20
1024.8578363227
 30
0.0
 11
635.327093621
 21
1025.0061326789
 31
0.0
  0
LINE
  5
151
330
1F
100
AcDbEntity
  8
SLD-0_0
  6
SLD-Solid
 62
   179
370
    15
100
AcDbLine
 10
635.327093621
 20
1025.0061326789
 30
0.0
 11
634.5617262099
 21
1025.0581675338
 31
0.0
  0
LINE
  5
152
330
1F
100
AcDbEntity
  8
SLD-0_0
  6
SLD-Solid
 62
   179
370
    15
100
AcDbLine
 10
634.5617262099
 20
1025.0581675338
 30
0.0
 11
633.7963597302
 21
1025.0061326789
 31
0.0
  0
LINE
  5
153
330
1F
100
AcDbEntity
  8
SLD-0_0
  6
SLD-Solid
 62
   179
370
    15
100
AcDbLine
 10
633.7963597302
 20
1025.0061326789
 30
0.0
 11
633.1475128804
 21
1024.8578363227
 31
0.0
  0
LINE
  5
154
330
1F
100
AcDbEntity
  8
SLD-0_0
  6
SLD-Solid
 62
   179
370
    15
100
AcDbLine
 10
633.1475128804
 20
1024.8578363227
 30
0.0
 11
632.7139673207
 21
1024.6359282302
 31
0.0
  0
LINE
  5
155
330
1F
100
AcDbEntity
  8
SLD-0_0
  6
SLD-Solid
 62
   179
370
    15
100
AcDbLine
 10
632.7139673207
 20
1024.6359282302
 30
0.0
 11
632.5617268134
 21
1024.3741446304
 31
0.0
  0
LINE
  5
156
330
1F
100
AcDbEntity
  8
SLD-0_0
  6
SLD-Solid
 62
   179
370
    15
100
AcDbLine
 10
632.5617268134
 20
1024.3741446304
 30
0.0
 11
632.7139673207
 21
1024.1123610305
 31
0.0
  0
LINE
  5
157
330
1F
100
AcDbEntity
  8
SLD-0_0
  6
SLD-Solid
 62
   179
370
    15
100
AcDbLine
 10
632.7139673207
 20
1024.1123610305
 30
0.0
 11
633.1475128804
 21
1023.890452938
 31
0.0
  0
LINE
  5
158
330
1F
100
AcDbEntity
  8
SLD-0_0
  6
SLD-Solid
 62
   179
370
    15
100
AcDbLine
 10
633.1475128804
 20
1023.890452938
 30
0.0
 11
633.7963597302
 21
1023.7421565818
 31
0.0
  0
LINE
  5
159
330
1F
100
AcDbEntity
  8
SLD-0_0
  6
SLD-Solid
 62
   179
370
    15
100
AcDbLine
 10
633.7963597302
 20
1023.7421565818
 30
0.0
 11
634.5617262099
 21
1023.690121727
 31
0.0
  0
LINE
  5
15A
330
1F
100
AcDbEntity
  8
SLD-0_0
  6
SLD-Solid
 62
   179
370
    15
100
AcDbLine
 10
1161.5617269103
 20
988.2111125755
 30
0.0
 11
261.5617209498
 21
988.2111125755
 31
0.0
  0
LINE
  5
15B
330
1F
100
AcDbEntity
  8
SLD-0_0
  6
SLD-Solid
 62
   179
370
    15
100
AcDbLine
 10
261.5617209498
 20
988.2111125755
 30
0.0
 11
261.5617209498
 21
988.9434152412
 31
0.0
  0
LINE
  5
15C
330
1F
100
AcDbEntity
  8
SLD-0_0
  6
SLD-Solid
 62
   179
370
    15
100
AcDbLine
 10
1161.5617269103
 20
988.2111125755
 30
0.0
 11
1161.5617269103
 21
988.9434152412
 31
0.0
  0
LINE
  5
15D
330
1F
100
AcDbEntity
  8
SLD-0_0
  6
SLD-Solid
 62
   179
370
    15
100
AcDbLine
 10
636.5617265378
 20
1024.3647270965
 30
0.0
 11
636.4094855648
 21
1024.6265106964
 31
0.0
  0
LINE
  5
15E
330
1F
100
AcDbEntity
  8
SLD-0_0
  6
SLD-Solid
 62
   179
370
    15
100
AcDbLine
 10
636.4094855648
 20
1024.6265106964
 30
0.0
 11
635.9759400052
 21
1024.8484187889
 31
0.0
  0
LINE
  5
15F
330
1F
100
AcDbEntity
  8
SLD-0_0
  6
SLD-Solid
 62
   179
370
    15
100
AcDbLine
 10
635.9759400052
 20
1024.8484187889
 30
0.0
 11
635.327093621
 21
1024.9967151451
 31
0.0
  0
LINE
  5
160
330
1F
100
AcDbEntity
  8
SLD-0_0
  6
SLD-Solid
 62
   179
370
    15
100
AcDbLine
 10
635.327093621
 20
1024.9967151451
 30
0.0
 11
634.5617262099
 21
1025.0488096046
 31
0.0
  0
LINE
  5
161
330
1F
100
AcDbEntity
  8
SLD-0_0
  6
SLD-Solid
 62
   179
370
    15
100
AcDbLine
 10
634.5617262099
 20
1025.0488096046
 30
0.0
 11
633.7963597302
 21
1024.9967151451
 31
0.0
  0
LINE
  5
162
330
1F
100
AcDbEntity
  8
SLD-0_0
  6
SLD-Solid
 62
   179
370
    15
100
AcDbLine
 10
633.7963597302
 20
1024.9967151451
 30
0.0
 11
633.1475128804
 21
1024.8484187889
 31
0.0
  0
LINE
  5
163
330
1F
100
AcDbEntity
  8
SLD-0_0
  6
SLD-Solid
 62
   179
370
    15
100
AcDbLine
 10
633.1475128804
 20
1024.8484187889
 30
0.0
 11
632.7139673207
 21
1024.6265106964
 31
0.0
  0
LINE
  5
164
330
1F
100
AcDbEntity
  8
SLD-0_0
  6
SLD-Solid
 62
   179
370
    15
100
AcDbLine
 10
632.7139673207
 20
1024.6265106964
 30
0.0
 11
632.5617268134
 21
1024.3647270965
 31
0.0
  0
LINE
  5
165
330
1F
100
AcDbEntity
  8
SLD-0_0
  6
SLD-Solid
 62
   179
370
    15
100
AcDbLine
 10
634.5617262099
 20
1024.0227156448
 30
0.0
 11
634.9444103811
 21
1024.0487628746
 31
0.0
  0
LINE
  5
166
330
1F
100
AcDbEntity
  8
SLD-0_0
  6
SLD-Solid
 62
   179
370
    15
100
AcDbLine
 10
634.9444103811
 20
1024.0487628746
 30
0.0
 11
635.268833806
 21
1024.1229110527
 31
0.0
  0
LINE
  5
167
330
1F
100
AcDbEntity
  8
SLD-0_0
  6
SLD-Solid
 62
   179
370
    15
100
AcDbLine
 10
635.268833806
 20
1024.1229110527
 30
0.0
 11
635.4856065859
 21
1024.2338949012
 31
0.0
  0
LINE
  5
168
330
1F
100
AcDbEntity
  8
SLD-0_0
  6
SLD-Solid
 62
   179
370
    15
100
AcDbLine
 10
635.4856065859
 20
1024.2338949012
 30
0.0
 11
635.5617263739
 21
1024.3647270965
 31
0.0
  0
LINE
  5
169
330
1F
100
AcDbEntity
  8
SLD-0_0
  6
SLD-Solid
 62
   179
370
    15
100
AcDbLine
 10
633.5617269774
 20
1024.3647270965
 30
0.0
 11
633.6378467653
 21
1024.2338949012
 31
0.0
  0
LINE
  5
16A
330
1F
100
AcDbEntity
  8
SLD-0_0
  6
SLD-Solid
 62
   179
370
    15
100
AcDbLine
 10
633.6378467653
 20
1024.2338949012
 30
0.0
 11
633.8546195452
 21
1024.1229110527
 31
0.0
  0
LINE
  5
16B
330
1F
100
AcDbEntity
  8
SLD-0_0
  6
SLD-Solid
 62
   179
370
    15
100
AcDbLine
 10
633.8546195452
 20
1024.1229110527
 30
0.0
 11
634.1790429701
 21
1024.0487628746
 31
0.0
  0
LINE
  5
16C
330
1F
100
AcDbEntity
  8
SLD-0_0
  6
SLD-Solid
 62
   179
370
    15
100
AcDbLine
 10
634.1790429701
 20
1024.0487628746
 30
0.0
 11
634.5617262099
 21
1024.0227156448
 31
0.0
  0
LINE
  5
16D
330
1F
100
AcDbEntity
  8
SLD-0_0
  6
SLD-Solid
 62
   179
370
    15
100
AcDbLine
 10
634.5617262099
 20
1024.0321331787
 30
0.0
 11
634.9444103811
 21
1024.0581804084
 31
0.0
  0
LINE
  5
16E
330
1F
100
AcDbEntity
  8
SLD-0_0
  6
SLD-Solid
 62
   179
370
    15
100
AcDbLine
 10
634.9444103811
 20
1024.0581804084
 30
0.0
 11
635.268833806
 21
1024.1323285865
 31
0.0
  0
LINE
  5
16F
330
1F
100
AcDbEntity
  8
SLD-0_0
  6
SLD-Solid
 62
   179
370
    15
100
AcDbLine
 10
635.268833806
 20
1024.1323285865
 30
0.0
 11
635.4856065859
 21
1024.2432528305
 31
0.0
  0
LINE
  5
170
330
1F
100
AcDbEntity
  8
SLD-0_0
  6
SLD-Solid
 62
   179
370
    15
100
AcDbLine
 10
635.4856065859
 20
1024.2432528305
 30
0.0
 11
635.5617263739
 21
1024.3741446304
 31
0.0
  0
LINE
  5
171
330
1F
100
AcDbEntity
  8
SLD-0_0
  6
SLD-Solid
 62
   179
370
    15
100
AcDbLine
 10
635.5617263739
 20
1024.3741446304
 30
0.0
 11
635.4856065859
 21
1024.5050364303
 31
0.0
  0
LINE
  5
172
330
1F
100
AcDbEntity
  8
SLD-0_0
  6
SLD-Solid
 62
   179
370
    15
100
AcDbLine
 10
635.4856065859
 20
1024.5050364303
 30
0.0
 11
635.268833806
 21
1024.6160202789
 31
0.0
  0
LINE
  5
173
330
1F
100
AcDbEntity
  8
SLD-0_0
  6
SLD-Solid
 62
   179
370
    15
100
AcDbLine
 10
635.268833806
 20
1024.6160202789
 30
0.0
 11
634.9444103811
 21
1024.6901088523
 31
0.0
  0
LINE
  5
174
330
1F
100
AcDbEntity
  8
SLD-0_0
  6
SLD-Solid
 62
   179
370
    15
100
AcDbLine
 10
634.9444103811
 20
1024.6901088523
 30
0.0
 11
634.5617262099
 21
1024.7161560821
 31
0.0
  0
LINE
  5
175
330
1F
100
AcDbEntity
  8
SLD-0_0
  6
SLD-Solid
 62
   179
370
    15
100
AcDbLine
 10
634.5617262099
 20
1024.7161560821
 30
0.0
 11
634.1790429701
 21
1024.6901088523
 31
0.0
  0
LINE
  5
176
330
1F
100
AcDbEntity
  8
SLD-0_0
  6
SLD-Solid
 62
   179
370
    15
100
AcDbLine
 10
634.1790429701
 20
1024.6901088523
 30
0.0
 11
633.8546195452
 21
1024.6160202789
 31
0.0
  0
LINE
  5
177
330
1F
100
AcDbEntity
  8
SLD-0_0
  6
SLD-Solid
 62
   179
370
    15
100
AcDbLine
 10
633.8546195452
 20
1024.6160202789
 30
0.0
 11
633.6378467653
 21
1024.5050364303
 31
0.0
  0
LINE
  5
178
330
1F
100
AcDbEntity
  8
SLD-0_0
  6
SLD-Solid
 62
   179
370
    15
100
AcDbLine
 10
633.6378467653
 20
1024.5050364303
 30
0.0
 11
633.5617269774
 21
1024.3741446304
 31
0.0
  0
LINE
  5
179
330
1F
100
AcDbEntity
  8
SLD-0_0
  6
SLD-Solid
 62
   179
370
    15
100
AcDbLine
 10
633.5617269774
 20
1024.3741446304
 30
0.0
 11
633.6378467653
 21
1024.2432528305
 31
0.0
  0
LINE
  5
17A
330
1F
100
AcDbEntity
  8
SLD-0_0
  6
SLD-Solid
 62
   179
370
    15
100
AcDbLine
 10
633.6378467653
 20
1024.2432528305
 30
0.0
 11
633.8546195452
 21
1024.1323285865
 31
0.0
  0
LINE
  5
17B
330
1F
100
AcDbEntity
  8
SLD-0_0
  6
SLD-Solid
 62
   179
370
    15
100
AcDbLine
 10
633.8546195452
 20
1024.1323285865
 30
0.0
 11
634.1790429701
 21
1024.0581804084
 31
0.0
  0
LINE
  5
17C
330
1F
100
AcDbEntity
  8
SLD-0_0
  6
SLD-Solid
 62
   179
370
    15
100
AcDbLine
 10
634.1790429701
 20
1024.0581804084
 30
0.0
 11
634.5617262099
 21
1024.0321331787
 31
0.0
  0
LINE
  5
17D
330
1F
100
AcDbEntity
  8
SLD-0_0
  6
SLD-Solid
 62
   179
370
    15
100
AcDbLine
 10
1161.5617269103
 20
1027.9135876464
 30
0.0
 11
1161.5617269103
 21
1034.2203551101
 31
0.0
  0
LINE
  5
17E
330
1F
100
AcDbEntity
  8
SLD-0_0
  6
SLD-Solid
 62
   179
370
    15
100
AcDbLine
 10
261.5617209498
 20
1027.9135876464
 30
0.0
 11
261.5617209498
 21
1034.2203551101
 31
0.0
  0
LINE
  5
17F
330
1F
100
AcDbEntity
  8
SLD-0_0
  6
SLD-Solid
 62
   179
370
    15
100
AcDbLine
 10
261.5617209498
 20
1034.2203551101
 30
0.0
 11
261.5617209498
 21
1109.0822988319
 31
0.0
  0
LINE
  5
180
330
1F
100
AcDbEntity
  8
SLD-0_0
  6
SLD-Solid
 62
   179
370
    15
100
AcDbLine
 10
277.0617300097
 20
1109.0822988319
 30
0.0
 11
276.561736447
 21
1109.0822988319
 31
0.0
  0
LINE
  5
181
330
1F
100
AcDbEntity
  8
SLD-0_0
  6
SLD-Solid
 62
   179
370
    15
100
AcDbLine
 10
277.0617300097
 20
1110.3021674919
 30
0.0
 11
277.0617300097
 21
1109.0822988319
 31
0.0
  0
LINE
  5
182
330
1F
100
AcDbEntity
  8
SLD-0_0
  6
SLD-Solid
 62
   179
370
    15
100
AcDbLine
 10
292.0617157046
 20
1110.3021674919
 30
0.0
 11
292.0617157046
 21
1109.9460297393
 31
0.0
  0
LINE
  5
183
330
1F
100
AcDbEntity
  8
SLD-0_0
  6
SLD-Solid
 62
   179
370
    15
100
AcDbLine
 10
311.5617328708
 20
1109.9460297393
 30
0.0
 11
292.0617157046
 21
1109.9460297393
 31
0.0
  0
LINE
  5
184
330
1F
100
AcDbEntity
  8
SLD-0_0
  6
SLD-Solid
 62
   179
370
    15
100
AcDbLine
 10
311.5617328708
 20
1109.0822988319
 30
0.0
 11
311.5617328708
 21
1109.9460297393
 31
0.0
  0
LINE
  5
185
330
1F
100
AcDbEntity
  8
SLD-0_0
  6
SLD-Solid
 62
   179
370
    15
100
AcDbLine
 10
312.0617264335
 20
1109.0822988319
 30
0.0
 11
311.5617328708
 21
1109.0822988319
 31
0.0
  0
LINE
  5
186
330
1F
100
AcDbEntity
  8
SLD-0_0
  6
SLD-Solid
 62
   179
370
    15
100
AcDbLine
 10
1111.5617149894
 20
1109.0822988319
 30
0.0
 11
1111.0617214267
 21
1109.0822988319
 31
0.0
  0
LINE
  5
187
330
1F
100
AcDbEntity
  8
SLD-0_0
  6
SLD-Solid
 62
   179
370
    15
100
AcDbLine
 10
1111.5617149894
 20
1109.9460297393
 30
0.0
 11
1111.5617149894
 21
1109.0822988319
 31
0.0
  0
LINE
  5
188
330
1F
100
AcDbEntity
  8
SLD-0_0
  6
SLD-Solid
 62
   179
370
    15
100
AcDbLine
 10
1131.0617321555
 20
1109.9460297393
 30
0.0
 11
1111.5617149894
 21
1109.9460297393
 31
0.0
  0
LINE
  5
189
330
1F
100
AcDbEntity
  8
SLD-0_0
  6
SLD-Solid
 62
   179
370
    15
100
AcDbLine
 10
1131.0617321555
 20
1110.3021674919
 30
0.0
 11
1131.0617321555
 21
1109.9460297393
 31
0.0
  0
LINE
  5
18A
330
1F
100
AcDbEntity
  8
SLD-0_0
  6
SLD-Solid
 62
   179
370
    15
100
AcDbLine
 10
1146.0617178504
 20
1110.3021674919
 30
0.0
 11
1146.0617178504
 21
1109.0822988319
 31
0.0
  0
LINE
  5
18B
330
1F
100
AcDbEntity
  8
SLD-0_0
  6
SLD-Solid
 62
   179
370
    15
100
AcDbLine
 10
1146.5617412154
 20
1109.0822988319
 30
0.0
 11
1146.0617178504
 21
1109.0822988319
 31
0.0
  0
LINE
  5
18C
330
1F
100
AcDbEntity
  8
SLD-0_0
  6
SLD-Solid
 62
   179
370
    15
100
AcDbLine
 10
1161.5617269103
 20
1034.2203551101
 30
0.0
 11
1161.5617269103
 21
1109.0822988319
 31
0.0
  0
LINE
  5
18D
330
1F
100
AcDbEntity
  8
SLD-0_0
  6
SLD-Solid
 62
   179
370
    15
100
AcDbLine
 10
292.0617157046
 20
1110.3021674919
 30
0.0
 11
292.0617157046
 21
1110.7685738372
 31
0.0
  0
LINE
  5
18E
330
1F
100
AcDbEntity
  8
SLD-0_0
  6
SLD-Solid
 62
   179
370
    15
100
AcDbLine
 10
277.0617300097
 20
1110.7685738372
 30
0.0
 11
277.0617300097
 21
1110.3021674919
 31
0.0
  0
LINE
  5
18F
330
1F
100
AcDbEntity
  8
SLD-0_0
  6
SLD-Solid
 62
   179
370
    15
100
AcDbLine
 10
1131.0617321555
 20
1110.7685738372
 30
0.0
 11
1131.0617321555
 21
1110.3021674919
 31
0.0
  0
LINE
  5
190
330
1F
100
AcDbEntity
  8
SLD-0_0
  6
SLD-Solid
 62
   179
370
    15
100
AcDbLine
 10
1146.0617178504
 20
1110.3021674919
 30
0.0
 11
1146.0617178504
 21
1110.7685738372
 31
0.0
  0
LINE
  5
191
330
1F
100
AcDbEntity
  8
SLD-0_0
  6
SLD-Solid
 62
   179
370
    15
100
AcDbLine
 10
1111.0617214267
 20
1110.498803215
 30
0.0
 11
312.0617264335
 21
1110.498803215
 31
0.0
  0
LINE
  5
192
330
1F
100
AcDbEntity
  8
SLD-0_0
  6
SLD-Solid
 62
   179
370
    15
100
AcDbLine
 10
1111.0617214267
 20
1110.498803215
 30
0.0
 11
1111.0617214267
 21
1109.0822988319
 31
0.0
  0
LINE
  5
193
330
1F
100
AcDbEntity
  8
SLD-0_0
  6
SLD-Solid
 62
   179
370
    15
100
AcDbLine
 10
312.0617264335
 20
1109.0822988319
 30
0.0
 11
312.0617264335
 21
1110.498803215
 31
0.0
  0
LINE
  5
194
330
1F
100
AcDbEntity
  8
SLD-0_0
  6
SLD-Solid
 62
   179
370
    15
100
AcDbLine
 10
1146.5617412154
 20
1109.0822988319
 30
0.0
 11
1146.5617412154
 21
1110.498803215
 31
0.0
  0
LINE
  5
195
330
1F
100
AcDbEntity
  8
SLD-0_0
  6
SLD-Solid
 62
   179
370
    15
100
AcDbLine
 10
1161.5617269103
 20
1110.498803215
 30
0.0
 11
1146.5617412154
 21
1110.498803215
 31
0.0
  0
LINE
  5
196
330
1F
100
AcDbEntity
  8
SLD-0_0
  6
SLD-Solid
 62
   179
370
    15
100
AcDbLine
 10
1161.5617269103
 20
1110.498803215
 30
0.0
 11
1161.5617269103
 21
1109.0822988319
 31
0.0
  0
LINE
  5
197
330
1F
100
AcDbEntity
  8
SLD-0_0
  6
SLD-Solid
 62
   179
370
    15
100
AcDbLine
 10
261.5617209498
 20
1109.0822988319
 30
0.0
 11
261.5617209498
 21
1110.498803215
 31
0.0
  0
LINE
  5
198
330
1F
100
AcDbEntity
  8
SLD-0_0
  6
SLD-Solid
 62
   179
370
    15
100
AcDbLine
 10
276.561736447
 20
1110.498803215
 30
0.0
 11
261.5617209498
 21
1110.498803215
 31
0.0
  0
LINE
  5
199
330
1F
100
AcDbEntity
  8
SLD-0_0
  6
SLD-Solid
 62
   179
370
    15
100
AcDbLine
 10
276.561736447
 20
1110.498803215
 30
0.0
 11
276.561736447
 21
1109.0822988319
 31
0.0
  0
LINE
  5
19A
330
1F
100
AcDbEntity
  8
SLD-0_0
  6
SLD-Solid
 62
   179
370
    15
100
AcDbLine
 10
273.5617154662
 20
862.5111454296
 30
0.0
 11
280.6617313449
 21
862.5111454296
 31
0.0
  0
LINE
  5
19B
330
1F
100
AcDbEntity
  8
SLD-0_0
  6
SLD-Solid
 62
   179
370
    15
100
AcDbLine
 10
312.1617132251
 20
862.5111454296
 30
0.0
 11
1110.9617346351
 21
862.5111454296
 31
0.0
  0
LINE
  5
19C
330
1F
100
AcDbEntity
  8
SLD-0_0
  6
SLD-Solid
 62
   179
370
    15
100
AcDbLine
 10
1142.4617165152
 20
862.5111454296
 30
0.0
 11
1149.5617025916
 21
862.5111454296
 31
0.0
  0
LINE
  5
19D
330
1F
100
AcDbEntity
  8
SLD-0_0
  6
SLD-Solid
 62
   179
370
    15
100
AcDbLine
 10
1115.1426130359
 20
1111.3075786399
 30
0.0
 11
1114.7617393557
 21
1110.9925084877
 31
0.0
  0
LINE
  5
19E
330
1F
100
AcDbEntity
  8
SLD-0_0
  6
SLD-Solid
 62
   179
370
    15
100
AcDbLine
 10
273.5617154662
 20
863.2111423778
 30
0.0
 11
273.5617154662
 21
862.5111454296
 31
0.0
  0
LINE
  5
19F
330
1F
100
AcDbEntity
  8
SLD-0_0
  6
SLD-Solid
 62
   179
370
    15
100
AcDbLine
 10
1149.5617025916
 20
862.5111454296
 30
0.0
 11
1149.5617025916
 21
863.2111423778
 31
0.0
  0
LINE
  5
1A0
330
1F
100
AcDbEntity
  8
SLD-0_0
  6
SLD-Solid
 62
   179
370
    15
100
AcDbLine
 10
322.9117387359
 20
521.7111357617
 30
0.0
 11
322.9117387359
 21
511.3111385274
 31
0.0
  0
LINE
  5
1A1
330
1F
100
AcDbEntity
  8
SLD-0_0
  6
SLD-Solid
 62
   179
370
    15
100
AcDbLine
 10
1099.9117189471
 20
511.3111385274
 30
0.0
 11
1099.9117189471
 21
521.7111357617
 31
0.0
  0
LINE
  5
1A2
330
1F
100
AcDbEntity
  8
SLD-0_0
  6
SLD-Solid
 62
   179
370
    15
100
AcDbLine
 10
283.4117406432
 20
859.5111244487
 30
0.0
 11
285.911738259
 21
859.5111244487
 31
0.0
  0
LINE
  5
1A3
330
1F
100
AcDbEntity
  8
SLD-0_0
  6
SLD-Solid
 62
   179
370
    15
100
AcDbLine
 10
283.4117406432
 20
859.5111244487
 30
0.0
 11
283.4117406432
 21
862.0111220646
 31
0.0
  0
LINE
  5
1A4
330
1F
100
AcDbEntity
  8
SLD-0_0
  6
SLD-Solid
 62
   179
370
    15
100
AcDbLine
 10
283.4117406432
 20
862.0111220646
 30
0.0
 11
285.911738259
 21
862.0111220646
 31
0.0
  0
LINE
  5
1A5
330
1F
100
AcDbEntity
  8
SLD-0_0
  6
SLD-Solid
 62
   179
370
    15
100
AcDbLine
 10
285.911738259
 20
859.5111244487
 30
0.0
 11
318.9117306296
 21
859.5111244487
 31
0.0
  0
LINE
  5
1A6
330
1F
100
AcDbEntity
  8
SLD-0_0
  6
SLD-Solid
 62
   179
370
    15
100
AcDbLine
 10
285.911738259
 20
862.0111220646
 30
0.0
 11
318.9117306296
 21
862.0111220646
 31
0.0
  0
LINE
  5
1A7
330
1F
100
AcDbEntity
  8
SLD-0_0
  6
SLD-Solid
 62
   179
370
    15
100
AcDbLine
 10
321.4117282454
 20
859.5111244487
 30
0.0
 11
321.4117282454
 21
862.0111220646
 31
0.0
  0
LINE
  5
1A8
330
1F
100
AcDbEntity
  8
SLD-0_0
  6
SLD-Solid
 62
   179
370
    15
100
AcDbLine
 10
318.9117306296
 20
859.5111244487
 30
0.0
 11
321.4117282454
 21
859.5111244487
 31
0.0
  0
LINE
  5
1A9
330
1F
100
AcDbEntity
  8
SLD-0_0
  6
SLD-Solid
 62
   179
370
    15
100
AcDbLine
 10
318.9117306296
 20
862.0111220646
 30
0.0
 11
321.4117282454
 21
862.0111220646
 31
0.0
  0
LINE
  5
1AA
330
1F
100
AcDbEntity
  8
SLD-0_0
  6
SLD-Solid
 62
   179
370
    15
100
AcDbLine
 10
1103.9117270533
 20
862.0111220646
 30
0.0
 11
1136.911719424
 21
862.0111220646
 31
0.0
  0
LINE
  5
1AB
330
1F
100
AcDbEntity
  8
SLD-0_0
  6
SLD-Solid
 62
   179
370
    15
100
AcDbLine
 10
1103.9117270533
 20
859.5111244487
 30
0.0
 11
1136.911719424
 21
859.5111244487
 31
0.0
  0
LINE
  5
1AC
330
1F
100
AcDbEntity
  8
SLD-0_0
  6
SLD-Solid
 62
   179
370
    15
100
AcDbLine
 10
1139.4117170398
 20
859.5111244487
 30
0.0
 11
1139.4117170398
 21
862.0111220646
 31
0.0
  0
LINE
  5
1AD
330
1F
100
AcDbEntity
  8
SLD-0_0
  6
SLD-Solid
 62
   179
370
    15
100
AcDbLine
 10
1136.911719424
 20
862.0111220646
 30
0.0
 11
1139.4117170398
 21
862.0111220646
 31
0.0
  0
LINE
  5
1AE
330
1F
100
AcDbEntity
  8
SLD-0_0
  6
SLD-Solid
 62
   179
370
    15
100
AcDbLine
 10
1136.911719424
 20
859.5111244487
 30
0.0
 11
1139.4117170398
 21
859.5111244487
 31
0.0
  0
LINE
  5
1AF
330
1F
100
AcDbEntity
  8
SLD-0_0
  6
SLD-Solid
 62
   179
370
    15
100
AcDbLine
 10
1101.4117294375
 20
859.5111244487
 30
0.0
 11
1101.4117294375
 21
862.0111220646
 31
0.0
  0
LINE
  5
1B0
330
1F
100
AcDbEntity
  8
SLD-0_0
  6
SLD-Solid
 62
   179
370
    15
100
AcDbLine
 10
1101.4117294375
 20
862.0111220646
 30
0.0
 11
1103.9117270533
 21
862.0111220646
 31
0.0
  0
LINE
  5
1B1
330
1F
100
AcDbEntity
  8
SLD-0_0
  6
SLD-Solid
 62
   179
370
    15
100
AcDbLine
 10
1101.4117294375
 20
859.5111244487
 30
0.0
 11
1103.9117270533
 21
859.5111244487
 31
0.0
  0
LINE
  5
1B2
330
1F
100
AcDbEntity
  8
SLD-0_0
  6
SLD-Solid
 62
   179
370
    15
100
AcDbLine
 10
282.4117237155
 20
859.5111244487
 30
0.0
 11
282.4117237155
 21
486.5111359524
 31
0.0
  0
LINE
  5
1B3
330
1F
100
AcDbEntity
  8
SLD-0_0
  6
SLD-Solid
 62
   179
370
    15
100
AcDbLine
 10
282.4117237155
 20
859.5111244487
 30
0.0
 11
283.4117406432
 21
859.5111244487
 31
0.0
  0
LINE
  5
1B4
330
1F
100
AcDbEntity
  8
SLD-0_0
  6
SLD-Solid
 62
   179
370
    15
100
AcDbLine
 10
321.4117282454
 20
859.5111244487
 30
0.0
 11
322.4117153708
 21
859.5111244487
 31
0.0
  0
LINE
  5
1B5
330
1F
100
AcDbEntity
  8
SLD-0_0
  6
SLD-Solid
 62
   179
370
    15
100
AcDbLine
 10
322.4117153708
 20
859.5111244487
 30
0.0
 11
322.4117153708
 21
486.5111359524
 31
0.0
  0
LINE
  5
1B6
330
1F
100
AcDbEntity
  8
SLD-0_0
  6
SLD-Solid
 62
   179
370
    15
100
AcDbLine
 10
1100.4117125098
 20
859.5111244487
 30
0.0
 11
1100.4117125098
 21
486.5111359524
 31
0.0
  0
LINE
  5
1B7
330
1F
100
AcDbEntity
  8
SLD-0_0
  6
SLD-Solid
 62
   179
370
    15
100
AcDbLine
 10
1100.4117125098
 20
859.5111244487
 30
0.0
 11
1101.4117294375
 21
859.5111244487
 31
0.0
  0
LINE
  5
1B8
330
1F
100
AcDbEntity
  8
SLD-0_0
  6
SLD-Solid
 62
   179
370
    15
100
AcDbLine
 10
1139.4117170398
 20
859.5111244487
 30
0.0
 11
1140.4117339675
 21
859.5111244487
 31
0.0
  0
LINE
  5
1B9
330
1F
100
AcDbEntity
  8
SLD-0_0
  6
SLD-Solid
 62
   179
370
    15
100
AcDbLine
 10
1140.4117339675
 20
859.5111244487
 30
0.0
 11
1140.4117339675
 21
486.5111359524
 31
0.0
  0
LINE
  5
1BA
330
1F
100
AcDbEntity
  8
SLD-0_0
  6
SLD-Solid
 62
   179
370
    15
100
AcDbLine
 10
325.1617246692
 20
799.0111285019
 30
0.0
 11
325.1617246692
 21
796.2611490059
 31
0.0
  0
LINE
  5
1BB
330
1F
100
AcDbEntity
  8
SLD-0_0
  6
SLD-Solid
 62
   179
370
    15
100
AcDbLine
 10
1097.6617330138
 20
799.0111285019
 30
0.0
 11
325.1617246692
 21
799.0111285019
 31
0.0
  0
LINE
  5
1BC
330
1F
100
AcDbEntity
  8
SLD-0_0
  6
SLD-Solid
 62
   179
370
    15
100
AcDbLine
 10
1097.6617330138
 20
796.2611490059
 30
0.0
 11
1097.6617330138
 21
799.0111285019
 31
0.0
  0
LINE
  5
1BD
330
1F
100
AcDbEntity
  8
SLD-0_0
  6
SLD-Solid
 62
   179
370
    15
100
AcDbLine
 10
1098.9117318217
 20
796.2611490059
 30
0.0
 11
1097.6617330138
 21
796.2611490059
 31
0.0
  0
LINE
  5
1BE
330
1F
100
AcDbEntity
  8
SLD-0_0
  6
SLD-Solid
 62
   179
370
    15
100
AcDbLine
 10
1098.9117318217
 20
763.7611501979
 30
0.0
 11
1097.6617330138
 21
763.7611501979
 31
0.0
  0
LINE
  5
1BF
330
1F
100
AcDbEntity
  8
SLD-0_0
  6
SLD-Solid
 62
   179
370
    15
100
AcDbLine
 10
325.1617246692
 20
763.7611501979
 30
0.0
 11
323.9117258613
 21
763.7611501979
 31
0.0
  0
LINE
  5
1C0
330
1F
100
AcDbEntity
  8
SLD-0_0
  6
SLD-Solid
 62
   179
370
    15
100
AcDbLine
 10
323.9117258613
 20
763.7611501979
 30
0.0
 11
323.9117258613
 21
796.2611490059
 31
0.0
  0
LINE
  5
1C1
330
1F
100
AcDbEntity
  8
SLD-0_0
  6
SLD-Solid
 62
   179
370
    15
100
AcDbLine
 10
1098.9117318217
 20
763.7611501979
 30
0.0
 11
1098.9117318217
 21
796.2611490059
 31
0.0
  0
LINE
  5
1C2
330
1F
100
AcDbEntity
  8
SLD-0_0
  6
SLD-Solid
 62
   179
370
    15
100
AcDbLine
 10
325.1617246692
 20
796.2611490059
 30
0.0
 11
323.9117258613
 21
796.2611490059
 31
0.0
  0
LINE
  5
1C3
330
1F
100
AcDbEntity
  8
SLD-0_0
  6
SLD-Solid
 62
   179
370
    15
100
AcDbLine
 10
325.1617246692
 20
763.7611501979
 30
0.0
 11
325.1617246692
 21
761.0111408996
 31
0.0
  0
LINE
  5
1C4
330
1F
100
AcDbEntity
  8
SLD-0_0
  6
SLD-Solid
 62
   179
370
    15
100
AcDbLine
 10
1097.6617330138
 20
761.0111408996
 30
0.0
 11
1097.6617330138
 21
763.7611501979
 31
0.0
  0
LINE
  5
1C5
330
1F
100
AcDbEntity
  8
SLD-0_0
  6
SLD-Solid
 62
   179
370
    15
100
AcDbLine
 10
1097.6617330138
 20
761.0111408996
 30
0.0
 11
325.1617246692
 21
761.0111408996
 31
0.0
  0
LINE
  5
1C6
330
1F
100
AcDbEntity
  8
SLD-0_0
  6
SLD-Solid
 62
   179
370
    15
100
AcDbLine
 10
323.9117240596
 20
731.0111415092
 30
0.0
 11
322.4117135691
 21
731.0111415092
 31
0.0
  0
LINE
  5
1C7
330
1F
100
AcDbEntity
  8
SLD-0_0
  6
SLD-Solid
 62
   179
370
    15
100
AcDbLine
 10
323.9117240596
 20
736.0111367409
 30
0.0
 11
323.9117240596
 21
731.0111415092
 31
0.0
  0
LINE
  5
1C8
330
1F
100
AcDbEntity
  8
SLD-0_0
  6
SLD-Solid
 62
   179
370
    15
100
AcDbLine
 10
322.4117117573
 20
829.0111260803
 30
0.0
 11
323.9117222478
 21
829.0111260803
 31
0.0
  0
LINE
  5
1C9
330
1F
100
AcDbEntity
  8
SLD-0_0
  6
SLD-Solid
 62
   179
370
    15
100
AcDbLine
 10
323.9117222478
 20
829.0111260803
 30
0.0
 11
323.9117222478
 21
824.0111308487
 31
0.0
  0
LINE
  5
1CA
330
1F
100
AcDbEntity
  8
SLD-0_0
  6
SLD-Solid
 62
   179
370
    15
100
AcDbLine
 10
323.9117240596
 20
736.0111367409
 30
0.0
 11
323.9117240596
 21
759.7611438934
 31
0.0
  0
LINE
  5
1CB
330
1F
100
AcDbEntity
  8
SLD-0_0
  6
SLD-Solid
 62
   179
370
    15
100
AcDbLine
 10
323.9117240596
 20
759.7611438934
 30
0.0
 11
322.4117135691
 21
759.7611438934
 31
0.0
  0
LINE
  5
1CC
330
1F
100
AcDbEntity
  8
SLD-0_0
  6
SLD-Solid
 62
   179
370
    15
100
AcDbLine
 10
1098.9117332386
 20
824.0111330453
 30
0.0
 11
1098.9117332386
 21
800.2611258928
 31
0.0
  0
LINE
  5
1CD
330
1F
100
AcDbEntity
  8
SLD-0_0
  6
SLD-Solid
 62
   179
370
    15
100
AcDbLine
 10
1098.9117332386
 20
800.2611258928
 30
0.0
 11
1100.4117139267
 21
800.2611258928
 31
0.0
  0
LINE
  5
1CE
330
1F
100
AcDbEntity
  8
SLD-0_0
  6
SLD-Solid
 62
   179
370
    15
100
AcDbLine
 10
1098.9117314268
 20
759.7611416968
 30
0.0
 11
1100.4117121149
 21
759.7611416968
 31
0.0
  0
LINE
  5
1CF
330
1F
100
AcDbEntity
  8
SLD-0_0
  6
SLD-Solid
 62
   179
370
    15
100
AcDbLine
 10
1098.9117314268
 20
759.7611416968
 30
0.0
 11
1098.9117314268
 21
736.0111345443
 31
0.0
  0
LINE
  5
1D0
330
1F
100
AcDbEntity
  8
SLD-0_0
  6
SLD-Solid
 62
   179
370
    15
100
AcDbLine
 10
323.9117222478
 20
800.2611236962
 30
0.0
 11
323.9117222478
 21
824.0111308487
 31
0.0
  0
LINE
  5
1D1
330
1F
100
AcDbEntity
  8
SLD-0_0
  6
SLD-Solid
 62
   179
370
    15
100
AcDbLine
 10
323.9117222478
 20
800.2611236962
 30
0.0
 11
322.4117117573
 21
800.2611236962
 31
0.0
  0
LINE
  5
1D2
330
1F
100
AcDbEntity
  8
SLD-0_0
  6
SLD-Solid
 62
   179
370
    15
100
AcDbLine
 10
1098.9117332386
 20
829.0111282769
 30
0.0
 11
1100.4117139267
 21
829.0111282769
 31
0.0
  0
LINE
  5
1D3
330
1F
100
AcDbEntity
  8
SLD-0_0
  6
SLD-Solid
 62
   179
370
    15
100
AcDbLine
 10
1098.9117332386
 20
824.0111330453
 30
0.0
 11
1098.9117332386
 21
829.0111282769
 31
0.0
  0
LINE
  5
1D4
330
1F
100
AcDbEntity
  8
SLD-0_0
  6
SLD-Solid
 62
   179
370
    15
100
AcDbLine
 10
1100.4117121149
 20
731.0111393126
 30
0.0
 11
1098.9117314268
 21
731.0111393126
 31
0.0
  0
LINE
  5
1D5
330
1F
100
AcDbEntity
  8
SLD-0_0
  6
SLD-Solid
 62
   179
370
    15
100
AcDbLine
 10
1098.9117314268
 20
731.0111393126
 30
0.0
 11
1098.9117314268
 21
736.0111345443
 31
0.0
  0
LINE
  5
1D6
330
1F
100
AcDbEntity
  8
SLD-0_0
  6
SLD-Solid
 62
   179
370
    15
100
AcDbLine
 10
263.2187896793
 20
484.4611347782
 30
0.0
 11
263.2187896793
 21
451.5111365019
 31
0.0
  0
LINE
  5
1D7
330
1F
100
AcDbEntity
  8
SLD-0_0
  6
SLD-Solid
 62
   179
370
    15
100
AcDbLine
 10
1159.6046680037
 20
484.4611347782
 30
0.0
 11
1159.6046680037
 21
451.5111365019
 31
0.0
  0
LINE
  5
1D8
330
1F
100
AcDbEntity
  8
SLD-0_0
  6
SLD-Solid
 62
   179
370
    15
100
AcDbLine
 10
263.2187896793
 20
451.5111365019
 30
0.0
 11
1159.6046680037
 21
451.5111365019
 31
0.0
  0
LINE
  5
1D9
330
1F
100
AcDbEntity
  8
SLD-0_0
  6
SLD-Solid
 62
   179
370
    15
100
AcDbLine
 10
264.4617253368
 20
486.5111359524
 30
0.0
 11
1158.3617323462
 21
486.5111359524
 31
0.0
  0
LINE
  5
1DA
330
1F
100
AcDbEntity
  8
SLD-0_0
  6
SLD-Solid
 62
   179
370
    15
100
AcDbLine
 10
1160.411714894
 20
484.4611347782
 30
0.0
 11
1159.6117013518
 21
484.4611347782
 31
0.0
  0
LINE
  5
1DB
330
1F
100
AcDbEntity
  8
SLD-0_0
  6
SLD-Solid
 62
   179
370
    15
100
AcDbLine
 10
262.4117129867
 20
484.4611347782
 30
0.0
 11
263.2117265288
 21
484.4611347782
 31
0.0
  0
LINE
  5
1DC
330
1F
100
AcDbEntity
  8
SLD-0_0
  6
SLD-Solid
 62
   179
370
    15
100
AcDbLine
 10
1159.6117013518
 20
484.4611347782
 30
0.0
 11
1159.6117013518
 21
451.5111365019
 31
0.0
  0
LINE
  5
1DD
330
1F
100
AcDbEntity
  8
SLD-0_0
  6
SLD-Solid
 62
   179
370
    15
100
AcDbLine
 10
1160.411714894
 20
484.4611347782
 30
0.0
 11
1160.411714894
 21
451.5111365019
 31
0.0
  0
LINE
  5
1DE
330
1F
100
AcDbEntity
  8
SLD-0_0
  6
SLD-Solid
 62
   179
370
    15
100
AcDbLine
 10
1160.411714894
 20
451.5111365019
 30
0.0
 11
1159.6117013518
 21
451.5111365019
 31
0.0
  0
LINE
  5
1DF
330
1F
100
AcDbEntity
  8
SLD-0_0
  6
SLD-Solid
 62
   179
370
    15
100
AcDbLine
 10
262.4117129867
 20
451.5111365019
 30
0.0
 11
263.2117265288
 21
451.5111365019
 31
0.0
  0
LINE
  5
1E0
330
1F
100
AcDbEntity
  8
SLD-0_0
  6
SLD-Solid
 62
   179
370
    15
100
AcDbLine
 10
262.4117129867
 20
484.4611347782
 30
0.0
 11
262.4117129867
 21
451.5111365019
 31
0.0
  0
LINE
  5
1E1
330
1F
100
AcDbEntity
  8
SLD-0_0
  6
SLD-Solid
 62
   179
370
    15
100
AcDbLine
 10
263.2117265288
 20
484.4611347782
 30
0.0
 11
263.2117265288
 21
451.5111365019
 31
0.0
  0
LINE
  5
1E2
330
1F
100
AcDbEntity
  8
SLD-0_0
  6
SLD-Solid
 62
   179
370
    15
100
AcDbLine
 10
1097.4117212998
 20
448.4611364711
 30
0.0
 11
1097.4117212998
 21
445.7111365442
 31
0.0
  0
LINE
  5
1E3
330
1F
100
AcDbEntity
  8
SLD-0_0
  6
SLD-Solid
 62
   179
370
    15
100
AcDbLine
 10
1097.4117212998
 20
445.7111365442
 30
0.0
 11
325.4117363202
 21
445.7111365442
 31
0.0
  0
LINE
  5
1E4
330
1F
100
AcDbEntity
  8
SLD-0_0
  6
SLD-Solid
 62
   179
370
    15
100
AcDbLine
 10
325.4117363202
 20
445.7111365442
 30
0.0
 11
325.4117363202
 21
448.4611364711
 31
0.0
  0
LINE
  5
1E5
330
1F
100
AcDbEntity
  8
SLD-0_0
  6
SLD-Solid
 62
   179
370
    15
100
AcDbLine
 10
324.661731075
 20
449.2111365358
 30
0.0
 11
325.4117363202
 21
449.2111365358
 31
0.0
  0
LINE
  5
1E6
330
1F
100
AcDbEntity
  8
SLD-0_0
  6
SLD-Solid
 62
   179
370
    15
100
AcDbLine
 10
324.661731075
 20
447.211136499
 30
0.0
 11
324.661731075
 21
449.2111365358
 31
0.0
  0
LINE
  5
1E7
330
1F
100
AcDbEntity
  8
SLD-0_0
  6
SLD-Solid
 62
   179
370
    15
100
AcDbLine
 10
324.661731075
 20
447.211136499
 30
0.0
 11
281.418799709
 21
447.211136499
 31
0.0
  0
LINE
  5
1E8
330
1F
100
AcDbEntity
  8
SLD-0_0
  6
SLD-Solid
 62
   179
370
    15
100
AcDbLine
 10
1097.4117212998
 20
448.4611364711
 30
0.0
 11
1097.4117212998
 21
449.2111365358
 31
0.0
  0
LINE
  5
1E9
330
1F
100
AcDbEntity
  8
SLD-0_0
  6
SLD-Solid
 62
   179
370
    15
100
AcDbLine
 10
325.4117363202
 20
449.2111365358
 30
0.0
 11
325.4117363202
 21
448.4611364711
 31
0.0
  0
LINE
  5
1EA
330
1F
100
AcDbEntity
  8
SLD-0_0
  6
SLD-Solid
 62
   179
370
    15
100
AcDbLine
 10
1097.4117212998
 20
449.2111365358
 30
0.0
 11
1098.161726545
 21
449.2111365358
 31
0.0
  0
LINE
  5
1EB
330
1F
100
AcDbEntity
  8
SLD-0_0
  6
SLD-Solid
 62
   179
370
    15
100
AcDbLine
 10
1098.161726545
 20
449.2111365358
 30
0.0
 11
1098.161726545
 21
447.211136499
 31
0.0
  0
LINE
  5
1EC
330
1F
100
AcDbEntity
  8
SLD-0_0
  6
SLD-Solid
 62
   179
370
    15
100
AcDbLine
 10
1141.404657911
 20
447.211136499
 30
0.0
 11
1098.161726545
 21
447.211136499
 31
0.0
  0
LINE
  5
1ED
330
1F
100
AcDbEntity
  8
SLD-0_0
  6
SLD-Solid
 62
   179
370
    15
100
AcDbLine
 10
1141.404657911
 20
447.211136499
 30
0.0
 11
1141.404657911
 21
451.5111364704
 31
0.0
  0
LINE
  5
1EE
330
1F
100
AcDbEntity
  8
SLD-0_0
  6
SLD-Solid
 62
   179
370
    15
100
AcDbLine
 10
281.418799709
 20
447.211136499
 30
0.0
 11
281.418799709
 21
451.5111364704
 31
0.0
  0
LINE
  5
1EF
330
1F
100
AcDbEntity
  8
SLD-0_0
  6
SLD-Solid
 62
   179
370
    15
100
AcDbLine
 10
1141.4117210929
 20
451.5111365019
 30
0.0
 11
1141.4117210929
 21
448.4611365026
 31
0.0
  0
LINE
  5
1F0
330
1F
100
AcDbEntity
  8
SLD-0_0
  6
SLD-Solid
 62
   179
370
    15
100
AcDbLine
 10
1142.9117290826
 20
451.5111390027
 30
0.0
 11
1142.9117290826
 21
448.4611390034
 31
0.0
  0
LINE
  5
1F1
330
1F
100
AcDbEntity
  8
SLD-0_0
  6
SLD-Solid
 62
   179
370
    15
100
AcDbLine
 10
1141.4046579425
 20
448.3283672727
 30
0.0
 11
1141.4117210929
 21
448.4611365026
 31
0.0
  0
LINE
  5
1F2
330
1F
100
AcDbEntity
  8
SLD-0_0
  6
SLD-Solid
 62
   179
370
    15
100
AcDbLine
 10
324.9117129552
 20
445.7111365442
 30
0.0
 11
324.9117129552
 21
447.211136499
 31
0.0
  0
LINE
  5
1F3
330
1F
100
AcDbEntity
  8
SLD-0_0
  6
SLD-Solid
 62
   179
370
    15
100
AcDbLine
 10
282.6617353665
 20
445.7111365442
 30
0.0
 11
324.9117129552
 21
445.7111365442
 31
0.0
  0
LINE
  5
1F4
330
1F
100
AcDbEntity
  8
SLD-0_0
  6
SLD-Solid
 62
   179
370
    15
100
AcDbLine
 10
324.661731075
 20
447.211136499
 30
0.0
 11
324.9117129552
 21
447.211136499
 31
0.0
  0
LINE
  5
1F5
330
1F
100
AcDbEntity
  8
SLD-0_0
  6
SLD-Solid
 62
   179
370
    15
100
AcDbLine
 10
281.4117365901
 20
448.4611365026
 30
0.0
 11
281.4187997405
 21
448.3283672727
 31
0.0
  0
LINE
  5
1F6
330
1F
100
AcDbEntity
  8
SLD-0_0
  6
SLD-Solid
 62
   179
370
    15
100
AcDbLine
 10
1140.1617266134
 20
445.7111365442
 30
0.0
 11
1097.9117148625
 21
445.7111365442
 31
0.0
  0
LINE
  5
1F7
330
1F
100
AcDbEntity
  8
SLD-0_0
  6
SLD-Solid
 62
   179
370
    15
100
AcDbLine
 10
1097.9117148625
 20
445.7111365442
 30
0.0
 11
1097.9117148625
 21
447.211136499
 31
0.0
  0
LINE
  5
1F8
330
1F
100
AcDbEntity
  8
SLD-0_0
  6
SLD-Solid
 62
   179
370
    15
100
AcDbLine
 10
1098.161726545
 20
447.211136499
 30
0.0
 11
1097.9117148625
 21
447.211136499
 31
0.0
  0
LINE
  5
1F9
330
1F
100
AcDbEntity
  8
SLD-0_0
  6
SLD-Solid
 62
   179
370
    15
100
AcDbLine
 10
279.9117260997
 20
451.5111365019
 30
0.0
 11
279.9117266449
 21
448.4611365126
 31
0.0
  0
LINE
  5
1FA
330
1F
100
AcDbEntity
  8
SLD-0_0
  6
SLD-Solid
 62
   179
370
    15
100
AcDbLine
 10
281.4117365901
 20
451.5111365019
 30
0.0
 11
281.4117365901
 21
448.4611365026
 31
0.0
  0
LINE
  5
1FB
330
1F
100
AcDbEntity
  8
SLD-0_0
  6
SLD-Solid
 62
   179
370
    15
100
AcDbLine
 10
261.5617209498
 20
986.1611300277
 30
0.0
 11
261.5617209498
 21
988.2111125755
 31
0.0
  0
LINE
  5
1FC
330
1F
100
AcDbEntity
  8
SLD-0_0
  6
SLD-Solid
 62
   179
370
    15
100
AcDbLine
 10
261.5617209498
 20
1110.498803215
 30
0.0
 11
261.5617209498
 21
1111.8198209571
 31
0.0
  0
LINE
  5
1FD
330
1F
100
AcDbEntity
  8
SLD-0_0
  6
SLD-Solid
 62
   179
370
    15
100
AcDbLine
 10
1161.5617269103
 20
1111.8198209571
 30
0.0
 11
1161.5617269103
 21
1110.498803215
 31
0.0
  0
LINE
  5
1FE
330
1F
100
AcDbEntity
  8
SLD-0_0
  6
SLD-Solid
 62
   179
370
    15
100
AcDbLine
 10
1161.5617269103
 20
988.2111125755
 30
0.0
 11
1161.5617269103
 21
986.1611300277
 31
0.0
  0
LINE
  5
1FF
330
1F
100
AcDbEntity
  8
SLD-0_0
  6
SLD-Solid
 62
   179
370
    15
100
AcDbLine
 10
1160.2457159583
 20
864.278870182
 30
0.0
 11
1160.3648060386
 21
864.3602603244
 31
0.0
  0
LINE
  5
200
330
1F
100
AcDbEntity
  8
SLD-0_0
  6
SLD-Solid
 62
   179
370
    15
100
AcDbLine
 10
1110.9617346351
 20
862.5111454296
 30
0.0
 11
1142.4617165152
 21
862.5111454296
 31
0.0
  0
LINE
  5
201
330
1F
100
AcDbEntity
  8
SLD-0_0
  6
SLD-Solid
 62
   179
370
    15
100
AcDbLine
 10
991.1117249553
 20
760.5111473369
 30
0.0
 11
980.7117277209
 21
760.5111473369
 31
0.0
  0
LINE
  5
202
330
1F
100
AcDbEntity
  8
SLD-0_0
  6
SLD-Solid
 62
   179
370
    15
100
AcDbLine
 10
442.1117299621
 20
760.5111473369
 30
0.0
 11
431.7117327277
 21
760.5111473369
 31
0.0
  0
LINE
  5
203
330
1F
100
AcDbEntity
  8
SLD-0_0
  6
SLD-Solid
 62
   179
370
    15
100
AcDbLine
 10
312.1617132251
 20
862.5111454296
 30
0.0
 11
280.6617313449
 21
862.5111454296
 31
0.0
  0
LINE
  5
204
330
1F
100
AcDbEntity
  8
SLD-0_0
  6
SLD-Solid
 62
   179
370
    15
100
AcDbLine
 10
1011.0617273871
 20
1116.7497807312
 30
0.0
 11
1011.0617273871
 21
1110.498803215
 31
0.0
  0
LINE
  5
205
330
1F
100
AcDbEntity
  8
SLD-0_0
  6
SLD-Solid
 62
   179
370
    15
100
AcDbLine
 10
541.0617285792
 20
1110.498803215
 30
0.0
 11
541.0617285792
 21
1116.7497807312
 31
0.0
  0
LINE
  5
206
330
1F
100
AcDbEntity
  8
SLD-0_0
  6
SLD-Solid
 62
   179
370
    15
100
AcDbLine
 10
1062.5617199962
 20
1116.7497807312
 30
0.0
 11
1062.5617199962
 21
1110.498803215
 31
0.0
  0
LINE
  5
207
330
1F
100
AcDbEntity
  8
SLD-0_0
  6
SLD-Solid
 62
   179
370
    15
100
AcDbLine
 10
522.5617283408
 20
1110.498803215
 30
0.0
 11
522.5617283408
 21
1116.7497807312
 31
0.0
  0
LINE
  5
208
330
1F
100
AcDbEntity
  8
SLD-0_0
  6
SLD-Solid
 62
   179
370
    15
100
AcDbLine
 10
1064.0617304866
 20
1110.498803215
 30
0.0
 11
1064.0617304866
 21
1116.7497807312
 31
0.0
  0
LINE
  5
209
330
1F
100
AcDbEntity
  8
SLD-0_0
  6
SLD-Solid
 62
   179
370
    15
100
AcDbLine
 10
359.0617173736
 20
1116.7497807312
 30
0.0
 11
359.0617173736
 21
1110.498803215
 31
0.0
  0
LINE
  5
20A
330
1F
100
AcDbEntity
  8
SLD-0_0
  6
SLD-Solid
 62
   179
370
    15
100
AcDbLine
 10
595.4668478493
 20
1058.5877471733
 30
0.0
 11
597.9585566942
 21
1070.0586014556
 31
0.0
  0
LINE
  5
20B
330
1F
100
AcDbEntity
  8
SLD-0_0
  6
SLD-Solid
 62
   179
370
    15
100
AcDbLine
 10
597.9430445854
 20
1069.9953013229
 30
0.0
 11
597.9479098145
 21
1070.0190239715
 31
0.0
  0
LINE
  5
20C
330
1F
100
AcDbEntity
  8
SLD-0_0
  6
SLD-Solid
 62
   179
370
    15
100
AcDbLine
 10
621.1804089521
 20
1069.9953013229
 30
0.0
 11
621.1755437229
 21
1070.0190239715
 31
0.0
  0
LINE
  5
20D
330
1F
100
AcDbEntity
  8
SLD-0_0
  6
SLD-Solid
 62
   179
370
    15
100
AcDbLine
 10
621.1648968433
 20
1070.0586014556
 30
0.0
 11
623.6566075508
 21
1058.5877471733
 31
0.0
  0
LINE
  5
20E
330
1F
100
AcDbEntity
  8
SLD-0_0
  6
SLD-Solid
 62
   179
370
    15
100
AcDbLine
 10
611.061725152
 20
1068.7632733154
 30
0.0
 11
611.061725152
 21
1102.8050356674
 31
0.0
  0
LINE
  5
20F
330
1F
100
AcDbEntity
  8
SLD-0_0
  6
SLD-Solid
 62
   179
370
    15
100
AcDbLine
 10
608.0617265229
 20
1102.8050356674
 30
0.0
 11
608.0617265229
 21
1068.7632733154
 31
0.0
  0
LINE
  5
210
330
1F
100
AcDbEntity
  8
SLD-0_0
  6
SLD-Solid
 62
   179
370
    15
100
AcDbLine
 10
609.8268510227
 20
1105.7752543259
 30
0.0
 11
611.061725152
 21
1103.6546998788
 31
0.0
  0
LINE
  5
211
330
1F
100
AcDbEntity
  8
SLD-0_0
  6
SLD-Solid
 62
   179
370
    15
100
AcDbLine
 10
609.2966043775
 20
1105.7752543258
 30
0.0
 11
608.0617265229
 21
1103.6546998787
 31
0.0
  0
LINE
  5
212
330
1F
100
AcDbEntity
  8
SLD-0_0
  6
SLD-Solid
 62
   179
370
    15
100
AcDbLine
 10
611.061725152
 20
1103.4927540588
 30
0.0
 11
611.061725152
 21
1103.6546998788
 31
0.0
  0
LINE
  5
213
330
1F
100
AcDbEntity
  8
SLD-0_0
  6
SLD-Solid
 62
   179
370
    15
100
AcDbLine
 10
609.2966043775
 20
1105.5163317489
 30
0.0
 11
609.2966043775
 21
1105.7752543258
 31
0.0
  0
LINE
  5
214
330
1F
100
AcDbEntity
  8
SLD-0_0
  6
SLD-Solid
 62
   179
370
    15
100
AcDbLine
 10
609.5617258374
 20
1106.5700822639
 30
0.0
 11
612.9589018796
 21
1106.4007454681
 31
0.0
  0
LINE
  5
215
330
1F
100
AcDbEntity
  8
SLD-0_0
  6
SLD-Solid
 62
   179
370
    15
100
AcDbLine
 10
612.9589018796
 20
1106.4007454681
 30
0.0
 11
616.3188566838
 21
1105.8946424293
 31
0.0
  0
LINE
  5
216
330
1F
100
AcDbEntity
  8
SLD-0_0
  6
SLD-Solid
 62
   179
370
    15
100
AcDbLine
 10
616.3188566838
 20
1105.8946424293
 30
0.0
 11
619.6047787939
 21
1105.0572567749
 31
0.0
  0
LINE
  5
217
330
1F
100
AcDbEntity
  8
SLD-0_0
  6
SLD-Solid
 62
   179
370
    15
100
AcDbLine
 10
619.6047787939
 20
1105.0572567749
 30
0.0
 11
622.7806670044
 21
1103.8978272247
 31
0.0
  0
LINE
  5
218
330
1F
100
AcDbEntity
  8
SLD-0_0
  6
SLD-Solid
 62
   179
370
    15
100
AcDbLine
 10
622.7806670044
 20
1103.8978272247
 30
0.0
 11
625.811727104
 21
1102.4289899635
 31
0.0
  0
LINE
  5
219
330
1F
100
AcDbEntity
  8
SLD-0_0
  6
SLD-Solid
 62
   179
370
    15
100
AcDbLine
 10
625.811727104
 20
1102.4289899635
 30
0.0
 11
628.6647471983
 21
1100.66689785
 31
0.0
  0
LINE
  5
21A
330
1F
100
AcDbEntity
  8
SLD-0_0
  6
SLD-Solid
 62
   179
370
    15
100
AcDbLine
 10
628.6647471983
 20
1100.66689785
 30
0.0
 11
631.3084711705
 21
1098.6308627891
 31
0.0
  0
LINE
  5
21B
330
1F
100
AcDbEntity
  8
SLD-0_0
  6
SLD-Solid
 62
   179
370
    15
100
AcDbLine
 10
631.3084711705
 20
1098.6308627891
 30
0.0
 11
633.7139330257
 21
1096.3431173133
 31
0.0
  0
LINE
  5
21C
330
1F
100
AcDbEntity
  8
SLD-0_0
  6
SLD-Solid
 62
   179
370
    15
100
AcDbLine
 10
633.7139330257
 20
1096.3431173133
 30
0.0
 11
635.8547791291
 21
1093.8287549781
 31
0.0
  0
LINE
  5
21D
330
1F
100
AcDbEntity
  8
SLD-0_0
  6
SLD-Solid
 62
   179
370
    15
100
AcDbLine
 10
635.8547791291
 20
1093.8287549781
 30
0.0
 11
637.7075522591
 21
1091.115372734
 31
0.0
  0
LINE
  5
21E
330
1F
100
AcDbEntity
  8
SLD-0_0
  6
SLD-Solid
 62
   179
370
    15
100
AcDbLine
 10
637.7075522591
 20
1091.115372734
 30
0.0
 11
639.25195424
 21
1088.2327132988
 31
0.0
  0
LINE
  5
21F
330
1F
100
AcDbEntity
  8
SLD-0_0
  6
SLD-Solid
 62
   179
370
    15
100
AcDbLine
 10
639.25195424
 20
1088.2327132988
 30
0.0
 11
640.4710634064
 21
1085.2122479248
 31
0.0
  0
LINE
  5
220
330
1F
100
AcDbEntity
  8
SLD-0_0
  6
SLD-Solid
 62
   179
370
    15
100
AcDbLine
 10
640.4710634064
 20
1085.2122479248
 30
0.0
 11
641.3515236613
 21
1082.0871167945
 31
0.0
  0
LINE
  5
221
330
1F
100
AcDbEntity
  8
SLD-0_0
  6
SLD-Solid
 62
   179
370
    15
100
AcDbLine
 10
641.3515236613
 20
1082.0871167945
 30
0.0
 11
641.8836882489
 21
1078.8916521835
 31
0.0
  0
LINE
  5
222
330
1F
100
AcDbEntity
  8
SLD-0_0
  6
SLD-Solid
 62
   179
370
    15
100
AcDbLine
 10
641.8836882489
 20
1078.8916521835
 30
0.0
 11
642.0617266244
 21
1075.6607228088
 31
0.0
  0
LINE
  5
223
330
1F
100
AcDbEntity
  8
SLD-0_0
  6
SLD-Solid
 62
   179
370
    15
100
AcDbLine
 10
642.0617266244
 20
1075.6607228088
 30
0.0
 11
641.8836882489
 21
1072.4297934341
 31
0.0
  0
LINE
  5
224
330
1F
100
AcDbEntity
  8
SLD-0_0
  6
SLD-Solid
 62
   179
370
    15
100
AcDbLine
 10
641.8836882489
 20
1072.4297934341
 30
0.0
 11
641.3515236613
 21
1069.2343288231
 31
0.0
  0
LINE
  5
225
330
1F
100
AcDbEntity
  8
SLD-0_0
  6
SLD-Solid
 62
   179
370
    15
100
AcDbLine
 10
641.3515236613
 20
1069.2343288231
 30
0.0
 11
640.4710634064
 21
1066.1091976928
 31
0.0
  0
LINE
  5
226
330
1F
100
AcDbEntity
  8
SLD-0_0
  6
SLD-Solid
 62
   179
370
    15
100
AcDbLine
 10
640.4710634064
 20
1066.1091976928
 30
0.0
 11
639.25195424
 21
1063.0887919235
 31
0.0
  0
LINE
  5
227
330
1F
100
AcDbEntity
  8
SLD-0_0
  6
SLD-Solid
 62
   179
370
    15
100
AcDbLine
 10
639.25195424
 20
1063.0887919235
 30
0.0
 11
637.7075522591
 21
1060.2060728836
 31
0.0
  0
LINE
  5
228
330
1F
100
AcDbEntity
  8
SLD-0_0
  6
SLD-Solid
 62
   179
370
    15
100
AcDbLine
 10
637.7075522591
 20
1060.2060728836
 30
0.0
 11
635.8547791291
 21
1057.4926906395
 31
0.0
  0
LINE
  5
229
330
1F
100
AcDbEntity
  8
SLD-0_0
  6
SLD-Solid
 62
   179
370
    15
100
AcDbLine
 10
635.8547791291
 20
1057.4926906395
 30
0.0
 11
633.7139330257
 21
1054.9783283043
 31
0.0
  0
LINE
  5
22A
330
1F
100
AcDbEntity
  8
SLD-0_0
  6
SLD-Solid
 62
   179
370
    15
100
AcDbLine
 10
633.7139330257
 20
1054.9783283043
 30
0.0
 11
631.3084711705
 21
1052.6905828285
 31
0.0
  0
LINE
  5
22B
330
1F
100
AcDbEntity
  8
SLD-0_0
  6
SLD-Solid
 62
   179
370
    15
100
AcDbLine
 10
631.3084711705
 20
1052.6905828285
 30
0.0
 11
628.6647471983
 21
1050.6545477676
 31
0.0
  0
LINE
  5
22C
330
1F
100
AcDbEntity
  8
SLD-0_0
  6
SLD-Solid
 62
   179
370
    15
100
AcDbLine
 10
628.6647471983
 20
1050.6545477676
 30
0.0
 11
625.811727104
 21
1048.8924556541
 31
0.0
  0
LINE
  5
22D
330
1F
100
AcDbEntity
  8
SLD-0_0
  6
SLD-Solid
 62
   179
370
    15
100
AcDbLine
 10
625.811727104
 20
1048.8924556541
 30
0.0
 11
622.7806670044
 21
1047.4236183929
 31
0.0
  0
LINE
  5
22E
330
1F
100
AcDbEntity
  8
SLD-0_0
  6
SLD-Solid
 62
   179
370
    15
100
AcDbLine
 10
622.7806670044
 20
1047.4236183929
 30
0.0
 11
619.6047787939
 21
1046.2641888427
 31
0.0
  0
LINE
  5
22F
330
1F
100
AcDbEntity
  8
SLD-0_0
  6
SLD-Solid
 62
   179
370
    15
100
AcDbLine
 10
619.6047787939
 20
1046.2641888427
 30
0.0
 11
616.3188566838
 21
1045.4268031883
 31
0.0
  0
LINE
  5
230
330
1F
100
AcDbEntity
  8
SLD-0_0
  6
SLD-Solid
 62
   179
370
    15
100
AcDbLine
 10
616.3188566838
 20
1045.4268031883
 30
0.0
 11
612.9589018796
 21
1044.9207001495
 31
0.0
  0
LINE
  5
231
330
1F
100
AcDbEntity
  8
SLD-0_0
  6
SLD-Solid
 62
   179
370
    15
100
AcDbLine
 10
612.9589018796
 20
1044.9207001495
 30
0.0
 11
609.5617258374
 21
1044.7513633537
 31
0.0
  0
LINE
  5
232
330
1F
100
AcDbEntity
  8
SLD-0_0
  6
SLD-Solid
 62
   179
370
    15
100
AcDbLine
 10
609.5617258374
 20
1044.7513633537
 30
0.0
 11
606.1645516579
 21
1044.9207001495
 31
0.0
  0
LINE
  5
233
330
1F
100
AcDbEntity
  8
SLD-0_0
  6
SLD-Solid
 62
   179
370
    15
100
AcDbLine
 10
606.1645516579
 20
1044.9207001495
 30
0.0
 11
602.8045968537
 21
1045.4268031883
 31
0.0
  0
LINE
  5
234
330
1F
100
AcDbEntity
  8
SLD-0_0
  6
SLD-Solid
 62
   179
370
    15
100
AcDbLine
 10
602.8045968537
 20
1045.4268031883
 30
0.0
 11
599.5186747436
 21
1046.2641888427
 31
0.0
  0
LINE
  5
235
330
1F
100
AcDbEntity
  8
SLD-0_0
  6
SLD-Solid
 62
   179
370
    15
100
AcDbLine
 10
599.5186747436
 20
1046.2641888427
 30
0.0
 11
596.3427865331
 21
1047.4236183929
 31
0.0
  0
LINE
  5
236
330
1F
100
AcDbEntity
  8
SLD-0_0
  6
SLD-Solid
 62
   179
370
    15
100
AcDbLine
 10
596.3427865331
 20
1047.4236183929
 30
0.0
 11
593.3117264335
 21
1048.8924556541
 31
0.0
  0
LINE
  5
237
330
1F
100
AcDbEntity
  8
SLD-0_0
  6
SLD-Solid
 62
   179
370
    15
100
AcDbLine
 10
593.3117264335
 20
1048.8924556541
 30
0.0
 11
590.4587054078
 21
1050.6545477676
 31
0.0
  0
LINE
  5
238
330
1F
100
AcDbEntity
  8
SLD-0_0
  6
SLD-Solid
 62
   179
370
    15
100
AcDbLine
 10
590.4587054078
 20
1050.6545477676
 30
0.0
 11
587.814982367
 21
1052.6905828285
 31
0.0
  0
LINE
  5
239
330
1F
100
AcDbEntity
  8
SLD-0_0
  6
SLD-Solid
 62
   179
370
    15
100
AcDbLine
 10
587.814982367
 20
1052.6905828285
 30
0.0
 11
585.4095214431
 21
1054.9783283043
 31
0.0
  0
LINE
  5
23A
330
1F
100
AcDbEntity
  8
SLD-0_0
  6
SLD-Solid
 62
   179
370
    15
100
AcDbLine
 10
585.4095214431
 20
1054.9783283043
 30
0.0
 11
583.2686753396
 21
1057.4926906395
 31
0.0
  0
LINE
  5
23B
330
1F
100
AcDbEntity
  8
SLD-0_0
  6
SLD-Solid
 62
   179
370
    15
100
AcDbLine
 10
583.2686753396
 20
1057.4926906395
 30
0.0
 11
581.4159022097
 21
1060.2060728836
 31
0.0
  0
LINE
  5
23C
330
1F
100
AcDbEntity
  8
SLD-0_0
  6
SLD-Solid
 62
   179
370
    15
100
AcDbLine
 10
581.4159022097
 20
1060.2060728836
 30
0.0
 11
579.8714974348
 21
1063.0887919235
 31
0.0
  0
LINE
  5
23D
330
1F
100
AcDbEntity
  8
SLD-0_0
  6
SLD-Solid
 62
   179
370
    15
100
AcDbLine
 10
579.8714974348
 20
1063.0887919235
 30
0.0
 11
578.652388734
 21
1066.1091976928
 31
0.0
  0
LINE
  5
23E
330
1F
100
AcDbEntity
  8
SLD-0_0
  6
SLD-Solid
 62
   179
370
    15
100
AcDbLine
 10
578.652388734
 20
1066.1091976928
 30
0.0
 11
577.7719312732
 21
1069.2343288231
 31
0.0
  0
LINE
  5
23F
330
1F
100
AcDbEntity
  8
SLD-0_0
  6
SLD-Solid
 62
   179
370
    15
100
AcDbLine
 10
577.7719312732
 20
1069.2343288231
 30
0.0
 11
577.2397661034
 21
1072.4297934341
 31
0.0
  0
LINE
  5
240
330
1F
100
AcDbEntity
  8
SLD-0_0
  6
SLD-Solid
 62
   179
370
    15
100
AcDbLine
 10
577.2397661034
 20
1072.4297934341
 30
0.0
 11
577.0617270295
 21
1075.6607228088
 31
0.0
  0
LINE
  5
241
330
1F
100
AcDbEntity
  8
SLD-0_0
  6
SLD-Solid
 62
   179
370
    15
100
AcDbLine
 10
577.0617270295
 20
1075.6607228088
 30
0.0
 11
577.2397661034
 21
1078.8916521835
 31
0.0
  0
LINE
  5
242
330
1F
100
AcDbEntity
  8
SLD-0_0
  6
SLD-Solid
 62
   179
370
    15
100
AcDbLine
 10
577.2397661034
 20
1078.8916521835
 30
0.0
 11
577.7719312732
 21
1082.0871167945
 31
0.0
  0
LINE
  5
243
330
1F
100
AcDbEntity
  8
SLD-0_0
  6
SLD-Solid
 62
   179
370
    15
100
AcDbLine
 10
577.7719312732
 20
1082.0871167945
 30
0.0
 11
578.652388734
 21
1085.2122479248
 31
0.0
  0
LINE
  5
244
330
1F
100
AcDbEntity
  8
SLD-0_0
  6
SLD-Solid
 62
   179
370
    15
100
AcDbLine
 10
578.652388734
 20
1085.2122479248
 30
0.0
 11
579.8714974348
 21
1088.2327132988
 31
0.0
  0
LINE
  5
245
330
1F
100
AcDbEntity
  8
SLD-0_0
  6
SLD-Solid
 62
   179
370
    15
100
AcDbLine
 10
579.8714974348
 20
1088.2327132988
 30
0.0
 11
581.4159022097
 21
1091.115372734
 31
0.0
  0
LINE
  5
246
330
1F
100
AcDbEntity
  8
SLD-0_0
  6
SLD-Solid
 62
   179
370
    15
100
AcDbLine
 10
581.4159022097
 20
1091.115372734
 30
0.0
 11
583.2686753396
 21
1093.8287549781
 31
0.0
  0
LINE
  5
247
330
1F
100
AcDbEntity
  8
SLD-0_0
  6
SLD-Solid
 62
   179
370
    15
100
AcDbLine
 10
583.2686753396
 20
1093.8287549781
 30
0.0
 11
585.4095214431
 21
1096.3431173133
 31
0.0
  0
LINE
  5
248
330
1F
100
AcDbEntity
  8
SLD-0_0
  6
SLD-Solid
 62
   179
370
    15
100
AcDbLine
 10
585.4095214431
 20
1096.3431173133
 30
0.0
 11
587.814982367
 21
1098.6308627891
 31
0.0
  0
LINE
  5
249
330
1F
100
AcDbEntity
  8
SLD-0_0
  6
SLD-Solid
 62
   179
370
    15
100
AcDbLine
 10
587.814982367
 20
1098.6308627891
 30
0.0
 11
590.4587054078
 21
1100.66689785
 31
0.0
  0
LINE
  5
24A
330
1F
100
AcDbEntity
  8
SLD-0_0
  6
SLD-Solid
 62
   179
370
    15
100
AcDbLine
 10
590.4587054078
 20
1100.66689785
 30
0.0
 11
593.3117264335
 21
1102.4289899635
 31
0.0
  0
LINE
  5
24B
330
1F
100
AcDbEntity
  8
SLD-0_0
  6
SLD-Solid
 62
   179
370
    15
100
AcDbLine
 10
593.3117264335
 20
1102.4289899635
 30
0.0
 11
596.3427865331
 21
1103.8978272247
 31
0.0
  0
LINE
  5
24C
330
1F
100
AcDbEntity
  8
SLD-0_0
  6
SLD-Solid
 62
   179
370
    15
100
AcDbLine
 10
596.3427865331
 20
1103.8978272247
 30
0.0
 11
599.5186747436
 21
1105.0572567749
 31
0.0
  0
LINE
  5
24D
330
1F
100
AcDbEntity
  8
SLD-0_0
  6
SLD-Solid
 62
   179
370
    15
100
AcDbLine
 10
599.5186747436
 20
1105.0572567749
 30
0.0
 11
602.8045968537
 21
1105.8946424293
 31
0.0
  0
LINE
  5
24E
330
1F
100
AcDbEntity
  8
SLD-0_0
  6
SLD-Solid
 62
   179
370
    15
100
AcDbLine
 10
602.8045968537
 20
1105.8946424293
 30
0.0
 11
606.1645516579
 21
1106.4007454681
 31
0.0
  0
LINE
  5
24F
330
1F
100
AcDbEntity
  8
SLD-0_0
  6
SLD-Solid
 62
   179
370
    15
100
AcDbLine
 10
606.1645516579
 20
1106.4007454681
 30
0.0
 11
609.5617258374
 21
1106.5700822639
 31
0.0
  0
LINE
  5
250
330
1F
100
AcDbEntity
  8
SLD-0_0
  6
SLD-Solid
 62
   179
370
    15
100
AcDbLine
 10
638.7752265122
 20
1070.3700357246
 30
0.0
 11
639.5122975495
 21
1070.0104409027
 31
0.0
  0
LINE
  5
251
330
1F
100
AcDbEntity
  8
SLD-0_0
  6
SLD-Solid
 62
   179
370
    15
100
AcDbLine
 10
641.5262084606
 20
1072.4236541557
 30
0.0
 11
641.1680399592
 21
1072.296577053
 31
0.0
  0
LINE
  5
252
330
1F
100
AcDbEntity
  8
SLD-0_0
  6
SLD-Solid
 62
   179
370
    15
100
AcDbLine
 10
638.3952442242
 20
1073.729055481
 30
0.0
 11
638.4486453294
 21
1073.7102800178
 31
0.0
  0
LINE
  5
253
330
1F
100
AcDbEntity
  8
SLD-0_0
  6
SLD-Solid
 62
   179
370
    15
100
AcDbLine
 10
625.5110496108
 20
1101.9304567146
 30
0.0
 11
626.8046436284
 21
1101.1399203109
 31
0.0
  0
LINE
  5
254
330
1F
100
AcDbEntity
  8
SLD-0_0
  6
SLD-Solid
 62
   179
370
    15
100
AcDbLine
 10
626.1210714851
 20
1101.6893559265
 30
0.0
 11
626.9012757961
 21
1101.4185124206
 31
0.0
  0
LINE
  5
255
330
1F
100
AcDbEntity
  8
SLD-0_0
  6
SLD-Solid
 62
   179
370
    15
100
AcDbLine
 10
623.0726161425
 20
1103.3621006775
 30
0.0
 11
624.089698625
 21
1102.7835779953
 31
0.0
  0
LINE
  5
256
330
1F
100
AcDbEntity
  8
SLD-0_0
  6
SLD-Solid
 62
   179
370
    15
100
AcDbLine
 10
622.1072127495
 20
1103.4279042053
 30
0.0
 11
624.7194608126
 21
1102.3179465103
 31
0.0
  0
LINE
  5
257
330
1F
100
AcDbEntity
  8
SLD-0_0
  6
SLD-Solid
 62
   179
370
    15
100
AcDbLine
 10
624.7194608126
 20
1102.3179465103
 30
0.0
 11
625.4231327598
 21
1101.7661863136
 31
0.0
  0
LINE
  5
258
330
1F
100
AcDbEntity
  8
SLD-0_0
  6
SLD-Solid
 62
   179
370
    15
100
AcDbLine
 10
615.9128428821
 20
1050.3276758957
 30
0.0
 11
615.9372155938
 21
1050.2788596916
 31
0.0
  0
LINE
  5
259
330
1F
100
AcDbEntity
  8
SLD-0_0
  6
SLD-Solid
 62
   179
370
    15
100
AcDbLine
 10
615.7569487963
 20
1050.2548986244
 30
0.0
 11
615.7687337522
 21
1050.2998405265
 31
0.0
  0
LINE
  5
25A
330
1F
100
AcDbEntity
  8
SLD-0_0
  6
SLD-Solid
 62
   179
370
    15
100
AcDbLine
 10
615.9108535771
 20
1050.3351264762
 30
0.0
 11
615.9128428821
 21
1050.3276758957
 31
0.0
  0
LINE
  5
25B
330
1F
100
AcDbEntity
  8
SLD-0_0
  6
SLD-Solid
 62
   179
370
    15
100
AcDbLine
 10
615.7667891507
 20
1050.3072911071
 30
0.0
 11
615.7687337522
 21
1050.2998405265
 31
0.0
  0
LINE
  5
25C
330
1F
100
AcDbEntity
  8
SLD-0_0
  6
SLD-Solid
 62
   179
370
    15
100
AcDbLine
 10
616.2251451437
 20
1049.7694783973
 30
0.0
 11
616.2272070918
 21
1049.7619682121
 31
0.0
  0
LINE
  5
25D
330
1F
100
AcDbEntity
  8
SLD-0_0
  6
SLD-Solid
 62
   179
370
    15
100
AcDbLine
 10
617.2451706056
 20
1047.4005513954
 30
0.0
 11
617.2474355821
 21
1047.3931604194
 31
0.0
  0
LINE
  5
25E
330
1F
100
AcDbEntity
  8
SLD-0_0
  6
SLD-Solid
 62
   179
370
    15
100
AcDbLine
 10
638.4044084384
 20
1073.7288170623
 30
0.0
 11
638.4578112897
 21
1073.7100415993
 31
0.0
  0
LINE
  5
25F
330
1F
100
AcDbEntity
  8
SLD-0_0
  6
SLD-Solid
 62
   179
370
    15
100
AcDbLine
 10
638.397453205
 20
1073.4471851158
 30
0.0
 11
638.3637286176
 21
1073.5095911789
 31
0.0
  0
LINE
  5
260
330
1F
100
AcDbEntity
  8
SLD-0_0
  6
SLD-Solid
 62
   179
370
    15
100
AcDbLine
 10
638.7752265122
 20
1070.3700357246
 30
0.0
 11
638.7842216913
 21
1070.368962841
 31
0.0
  0
LINE
  5
261
330
1F
100
AcDbEntity
  8
SLD-0_0
  6
SLD-Solid
 62
   179
370
    15
100
AcDbLine
 10
638.3545774419
 20
1073.5099488067
 30
0.0
 11
638.3637286176
 21
1073.5095911789
 31
0.0
  0
LINE
  5
262
330
1F
100
AcDbEntity
  8
SLD-0_0
  6
SLD-Solid
 62
   179
370
    15
100
AcDbLine
 10
638.3952442242
 20
1073.729055481
 30
0.0
 11
638.4044084384
 21
1073.7288170623
 31
0.0
  0
LINE
  5
263
330
1F
100
AcDbEntity
  8
SLD-0_0
  6
SLD-Solid
 62
   179
370
    15
100
AcDbLine
 10
638.4486453294
 20
1073.7102800178
 30
0.0
 11
638.4578112897
 21
1073.7100415993
 31
0.0
  0
LINE
  5
264
330
1F
100
AcDbEntity
  8
SLD-0_0
  6
SLD-Solid
 62
   179
370
    15
100
AcDbLine
 10
639.0268139926
 20
1073.5535198021
 30
0.0
 11
639.0359963675
 21
1073.5533409881
 31
0.0
  0
LINE
  5
265
330
1F
100
AcDbEntity
  8
SLD-0_0
  6
SLD-Solid
 62
   179
370
    15
100
AcDbLine
 10
641.5262084606
 20
1072.4236541557
 30
0.0
 11
641.535432745
 21
1072.423773365
 31
0.0
  0
LINE
  5
266
330
1F
100
AcDbEntity
  8
SLD-0_0
  6
SLD-Solid
 62
   179
370
    15
100
AcDbLine
 10
624.094087017
 20
1102.7924590873
 30
0.0
 11
622.1111336176
 21
1103.4370237159
 31
0.0
  0
LINE
  5
267
330
1F
100
AcDbEntity
  8
SLD-0_0
  6
SLD-Solid
 62
   179
370
    15
100
AcDbLine
 10
623.0766599451
 20
1103.3712201881
 30
0.0
 11
624.094087017
 21
1102.7924590873
 31
0.0
  0
LINE
  5
268
330
1F
100
AcDbEntity
  8
SLD-0_0
  6
SLD-Solid
 62
   179
370
    15
100
AcDbLine
 10
624.6051931207
 20
1102.62002285
 30
0.0
 11
623.0766599451
 21
1103.3712201881
 31
0.0
  0
LINE
  5
269
330
1F
100
AcDbEntity
  8
SLD-0_0
  6
SLD-Solid
 62
   179
370
    15
100
AcDbLine
 10
624.889471886
 20
1102.6610904502
 30
0.0
 11
624.6051931207
 21
1102.62002285
 31
0.0
  0
LINE
  5
26A
330
1F
100
AcDbEntity
  8
SLD-0_0
  6
SLD-Solid
 62
   179
370
    15
100
AcDbLine
 10
625.6903590087
 20
1102.05371912
 30
0.0
 11
624.889471886
 21
1102.6610904502
 31
0.0
  0
LINE
  5
26B
330
1F
100
AcDbEntity
  8
SLD-0_0
  6
SLD-Solid
 62
   179
370
    15
100
AcDbLine
 10
626.9063980703
 20
1101.4270358848
 30
0.0
 11
625.6903590087
 21
1102.05371912
 31
0.0
  0
LINE
  5
26C
330
1F
100
AcDbEntity
  8
SLD-0_0
  6
SLD-Solid
 62
   179
370
    15
100
AcDbLine
 10
626.1260559235
 20
1101.6979389953
 30
0.0
 11
626.9063980703
 21
1101.4270358848
 31
0.0
  0
LINE
  5
26D
330
1F
100
AcDbEntity
  8
SLD-0_0
  6
SLD-Solid
 62
   179
370
    15
100
AcDbLine
 10
626.8098888372
 20
1101.1483245658
 30
0.0
 11
626.1260559235
 21
1101.6979389953
 31
0.0
  0
LINE
  5
26E
330
1F
100
AcDbEntity
  8
SLD-0_0
  6
SLD-Solid
 62
   179
370
    15
100
AcDbLine
 10
625.5159055267
 20
1101.9390993881
 30
0.0
 11
626.8098888372
 21
1101.1483245658
 31
0.0
  0
LINE
  5
26F
330
1F
100
AcDbEntity
  8
SLD-0_0
  6
SLD-Solid
 62
   179
370
    15
100
AcDbLine
 10
625.4280613188
 20
1101.7748289871
 30
0.0
 11
625.5159055267
 21
1101.9390993881
 31
0.0
  0
LINE
  5
270
330
1F
100
AcDbEntity
  8
SLD-0_0
  6
SLD-Solid
 62
   179
370
    15
100
AcDbLine
 10
624.7241025243
 20
1102.3267679977
 30
0.0
 11
625.4280613188
 21
1101.7748289871
 31
0.0
  0
LINE
  5
271
330
1F
100
AcDbEntity
  8
SLD-0_0
  6
SLD-Solid
 62
   179
370
    15
100
AcDbLine
 10
622.1111336176
 20
1103.4370237159
 30
0.0
 11
624.7241025243
 21
1102.3267679977
 31
0.0
  0
LINE
  5
272
330
1F
100
AcDbEntity
  8
SLD-0_0
  6
SLD-Solid
 62
   179
370
    15
100
AcDbLine
 10
624.7194608126
 20
1102.3179465103
 30
0.0
 11
624.7241025243
 21
1102.3267679977
 31
0.0
  0
LINE
  5
273
330
1F
100
AcDbEntity
  8
SLD-0_0
  6
SLD-Solid
 62
   179
370
    15
100
AcDbLine
 10
622.1072127495
 20
1103.4279042053
 30
0.0
 11
622.1111336176
 21
1103.4370237159
 31
0.0
  0
LINE
  5
274
330
1F
100
AcDbEntity
  8
SLD-0_0
  6
SLD-Solid
 62
   179
370
    15
100
AcDbLine
 10
625.4231327598
 20
1101.7661863136
 30
0.0
 11
625.4280613188
 21
1101.7748289871
 31
0.0
  0
LINE
  5
275
330
1F
100
AcDbEntity
  8
SLD-0_0
  6
SLD-Solid
 62
   179
370
    15
100
AcDbLine
 10
626.8046436284
 20
1101.1399203109
 30
0.0
 11
626.8098888372
 21
1101.1483245658
 31
0.0
  0
LINE
  5
276
330
1F
100
AcDbEntity
  8
SLD-0_0
  6
SLD-Solid
 62
   179
370
    15
100
AcDbLine
 10
626.9012757961
 20
1101.4185124206
 30
0.0
 11
626.9063980703
 21
1101.4270358848
 31
0.0
  0
LINE
  5
277
330
1F
100
AcDbEntity
  8
SLD-0_0
  6
SLD-Solid
 62
   179
370
    15
100
AcDbLine
 10
623.0726161425
 20
1103.3621006775
 30
0.0
 11
623.0766599451
 21
1103.3712201881
 31
0.0
  0
LINE
  5
278
330
1F
100
AcDbEntity
  8
SLD-0_0
  6
SLD-Solid
 62
   179
370
    15
100
AcDbLine
 10
262.7617412631
 20
1165.505784111
 30
0.0
 11
264.011740071
 21
1165.505784111
 31
0.0
  0
LINE
  5
279
330
1F
100
AcDbEntity
  8
SLD-0_0
  6
SLD-Solid
 62
   179
370
    15
100
AcDbLine
 10
264.011740071
 20
1165.505784111
 30
0.0
 11
264.011740071
 21
1165.511148529
 31
0.0
  0
LINE
  5
27A
330
1F
100
AcDbEntity
  8
SLD-0_0
  6
SLD-Solid
 62
   179
370
    15
100
AcDbLine
 10
1159.1117375914
 20
1165.511148529
 30
0.0
 11
264.011740071
 21
1165.511148529
 31
0.0
  0
LINE
  5
27B
330
1F
100
AcDbEntity
  8
SLD-0_0
  6
SLD-Solid
 62
   179
370
    15
100
AcDbLine
 10
1159.1117375914
 20
1165.511148529
 30
0.0
 11
1159.1117375914
 21
1165.505784111
 31
0.0
  0
LINE
  5
27C
330
1F
100
AcDbEntity
  8
SLD-0_0
  6
SLD-Solid
 62
   179
370
    15
100
AcDbLine
 10
1159.1117375914
 20
1165.505784111
 30
0.0
 11
1160.361706597
 21
1165.505784111
 31
0.0
  0
LINE
  5
27D
330
1F
100
AcDbEntity
  8
SLD-0_0
  6
SLD-Solid
 62
   179
370
    15
100
AcDbLine
 10
262.7617412631
 20
1120.8436661529
 30
0.0
 11
262.7617412631
 21
1165.505784111
 31
0.0
  0
LINE
  5
27E
330
1F
100
AcDbEntity
  8
SLD-0_0
  6
SLD-Solid
 62
   179
370
    15
100
AcDbLine
 10
1160.361706597
 20
1120.8436661529
 30
0.0
 11
1160.361706597
 21
1165.505784111
 31
0.0
  0
LINE
  5
27F
330
1F
100
AcDbEntity
  8
SLD-0_0
  6
SLD-Solid
 62
   179
370
    15
100
AcDbLine
 10
1161.5617269103
 20
1164.2054491806
 30
0.0
 11
1160.361706597
 21
1164.2054491806
 31
0.0
  0
LINE
  5
280
330
1F
100
AcDbEntity
  8
SLD-0_0
  6
SLD-Solid
 62
   179
370
    15
100
AcDbLine
 10
1161.5617269103
 20
1122.0358186531
 30
0.0
 11
1161.5617269103
 21
1164.2054491806
 31
0.0
  0
LINE
  5
281
330
1F
100
AcDbEntity
  8
SLD-0_0
  6
SLD-Solid
 62
   179
370
    15
100
AcDbLine
 10
261.5617209498
 20
1164.2054491806
 30
0.0
 11
262.7617412631
 21
1164.2054491806
 31
0.0
  0
LINE
  5
282
330
1F
100
AcDbEntity
  8
SLD-0_0
  6
SLD-Solid
 62
   179
370
    15
100
AcDbLine
 10
261.5617209498
 20
1122.0358186531
 30
0.0
 11
261.5617209498
 21
1164.2054491806
 31
0.0
  0
LINE
  5
283
330
1F
100
AcDbEntity
  8
SLD-0_0
  6
SLD-Solid
 62
   179
370
    15
100
AcDbLine
 10
1113.5617190425
 20
1114.7560649681
 30
0.0
 11
1113.4656661574
 21
1115.1449852752
 31
0.0
  0
LINE
  5
284
330
1F
100
AcDbEntity
  8
SLD-0_0
  6
SLD-Solid
 62
   179
370
    15
100
AcDbLine
 10
1113.4656661574
 20
1115.1449852752
 30
0.0
 11
1113.1811135833
 21
1115.5190044212
 31
0.0
  0
LINE
  5
285
330
1F
100
AcDbEntity
  8
SLD-0_0
  6
SLD-Solid
 62
   179
370
    15
100
AcDbLine
 10
1113.1811135833
 20
1115.5190044212
 30
0.0
 11
1112.7190881793
 21
1115.8636980819
 31
0.0
  0
LINE
  5
286
330
1F
100
AcDbEntity
  8
SLD-0_0
  6
SLD-Solid
 62
   179
370
    15
100
AcDbLine
 10
1112.7190881793
 20
1115.8636980819
 30
0.0
 11
1112.0972627227
 21
1116.1658340263
 31
0.0
  0
LINE
  5
287
330
1F
100
AcDbEntity
  8
SLD-0_0
  6
SLD-Solid
 62
   179
370
    15
100
AcDbLine
 10
1112.0972627227
 20
1116.1658340263
 30
0.0
 11
1111.3395684783
 21
1116.4137893486
 31
0.0
  0
LINE
  5
288
330
1F
100
AcDbEntity
  8
SLD-0_0
  6
SLD-Solid
 62
   179
370
    15
100
AcDbLine
 10
1111.3395684783
 20
1116.4137893486
 30
0.0
 11
1110.4751521174
 21
1116.5980273056
 31
0.0
  0
LINE
  5
289
330
1F
100
AcDbEntity
  8
SLD-0_0
  6
SLD-Solid
 62
   179
370
    15
100
AcDbLine
 10
1110.4751521174
 20
1116.5980273056
 30
0.0
 11
1109.5371836249
 21
1116.7114549446
 31
0.0
  0
LINE
  5
28A
330
1F
100
AcDbEntity
  8
SLD-0_0
  6
SLD-Solid
 62
   179
370
    15
100
AcDbLine
 10
1109.5371836249
 20
1116.7114549446
 30
0.0
 11
1108.5617238109
 21
1116.7497807312
 31
0.0
  0
LINE
  5
28B
330
1F
100
AcDbEntity
  8
SLD-0_0
  6
SLD-Solid
 62
   179
370
    15
100
AcDbLine
 10
1108.5617238109
 20
1116.7497807312
 30
0.0
 11
780.0617211882
 21
1116.7497807312
 31
0.0
  0
LINE
  5
28C
330
1F
100
AcDbEntity
  8
SLD-0_0
  6
SLD-Solid
 62
   179
370
    15
100
AcDbLine
 10
780.0617211882
 20
1116.7497807312
 30
0.0
 11
779.0862762753
 21
1116.7114549446
 31
0.0
  0
LINE
  5
28D
330
1F
100
AcDbEntity
  8
SLD-0_0
  6
SLD-Solid
 62
   179
370
    15
100
AcDbLine
 10
779.0862762753
 20
1116.7114549446
 30
0.0
 11
778.1483077828
 21
1116.5980273056
 31
0.0
  0
LINE
  5
28E
330
1F
100
AcDbEntity
  8
SLD-0_0
  6
SLD-Solid
 62
   179
370
    15
100
AcDbLine
 10
778.1483077828
 20
1116.5980273056
 30
0.0
 11
777.2838765208
 21
1116.4137893486
 31
0.0
  0
LINE
  5
28F
330
1F
100
AcDbEntity
  8
SLD-0_0
  6
SLD-Solid
 62
   179
370
    15
100
AcDbLine
 10
777.2838765208
 20
1116.4137893486
 30
0.0
 11
776.5261971776
 21
1116.1658340263
 31
0.0
  0
LINE
  5
290
330
1F
100
AcDbEntity
  8
SLD-0_0
  6
SLD-Solid
 62
   179
370
    15
100
AcDbLine
 10
776.5261971776
 20
1116.1658340263
 30
0.0
 11
775.904371721
 21
1115.8636980819
 31
0.0
  0
LINE
  5
291
330
1F
100
AcDbEntity
  8
SLD-0_0
  6
SLD-Solid
 62
   179
370
    15
100
AcDbLine
 10
775.904371721
 20
1115.8636980819
 30
0.0
 11
775.4423314158
 21
1115.5190044212
 31
0.0
  0
LINE
  5
292
330
1F
100
AcDbEntity
  8
SLD-0_0
  6
SLD-Solid
 62
   179
370
    15
100
AcDbLine
 10
775.4423314158
 20
1115.5190044212
 30
0.0
 11
775.1577937428
 21
1115.1449852752
 31
0.0
  0
LINE
  5
293
330
1F
100
AcDbEntity
  8
SLD-0_0
  6
SLD-Solid
 62
   179
370
    15
100
AcDbLine
 10
775.1577937428
 20
1115.1449852752
 30
0.0
 11
775.0617259566
 21
1114.7560649681
 31
0.0
  0
LINE
  5
294
330
1F
100
AcDbEntity
  8
SLD-0_0
  6
SLD-Solid
 62
   179
370
    15
100
AcDbLine
 10
775.0617259566
 20
1114.7560649681
 30
0.0
 11
775.0617259566
 21
1112.7622896003
 31
0.0
  0
LINE
  5
295
330
1F
100
AcDbEntity
  8
SLD-0_0
  6
SLD-Solid
 62
   179
370
    15
100
AcDbLine
 10
770.061730725
 20
1110.7685738372
 30
0.0
 11
771.0371756379
 21
1110.8068400192
 31
0.0
  0
LINE
  5
296
330
1F
100
AcDbEntity
  8
SLD-0_0
  6
SLD-Solid
 62
   179
370
    15
100
AcDbLine
 10
771.0371756379
 20
1110.8068400192
 30
0.0
 11
771.9751441304
 21
1110.9203272628
 31
0.0
  0
LINE
  5
297
330
1F
100
AcDbEntity
  8
SLD-0_0
  6
SLD-Solid
 62
   179
370
    15
100
AcDbLine
 10
771.9751441304
 20
1110.9203272628
 30
0.0
 11
772.8395753924
 21
1111.1045652198
 31
0.0
  0
LINE
  5
298
330
1F
100
AcDbEntity
  8
SLD-0_0
  6
SLD-Solid
 62
   179
370
    15
100
AcDbLine
 10
772.8395753924
 20
1111.1045652198
 30
0.0
 11
773.5972547357
 21
1111.3525205421
 31
0.0
  0
LINE
  5
299
330
1F
100
AcDbEntity
  8
SLD-0_0
  6
SLD-Solid
 62
   179
370
    15
100
AcDbLine
 10
773.5972547357
 20
1111.3525205421
 30
0.0
 11
774.2190801923
 21
1111.6546564865
 31
0.0
  0
LINE
  5
29A
330
1F
100
AcDbEntity
  8
SLD-0_0
  6
SLD-Solid
 62
   179
370
    15
100
AcDbLine
 10
774.2190801923
 20
1111.6546564865
 30
0.0
 11
774.6811204974
 21
1111.9993501472
 31
0.0
  0
LINE
  5
29B
330
1F
100
AcDbEntity
  8
SLD-0_0
  6
SLD-Solid
 62
   179
370
    15
100
AcDbLine
 10
774.6811204974
 20
1111.9993501472
 30
0.0
 11
774.9656581704
 21
1112.3733096885
 31
0.0
  0
LINE
  5
29C
330
1F
100
AcDbEntity
  8
SLD-0_0
  6
SLD-Solid
 62
   179
370
    15
100
AcDbLine
 10
774.9656581704
 20
1112.3733096885
 30
0.0
 11
775.0617259566
 21
1112.7622896003
 31
0.0
  0
LINE
  5
29D
330
1F
100
AcDbEntity
  8
SLD-0_0
  6
SLD-Solid
 62
   179
370
    15
100
AcDbLine
 10
770.061730725
 20
1110.7685738372
 30
0.0
 11
755.0617301289
 21
1110.7685738372
 31
0.0
  0
LINE
  5
29E
330
1F
100
AcDbEntity
  8
SLD-0_0
  6
SLD-Solid
 62
   179
370
    15
100
AcDbLine
 10
750.0617274467
 20
1112.7622896003
 30
0.0
 11
750.1578026835
 21
1112.3733096885
 31
0.0
  0
LINE
  5
29F
330
1F
100
AcDbEntity
  8
SLD-0_0
  6
SLD-Solid
 62
   179
370
    15
100
AcDbLine
 10
750.1578026835
 20
1112.3733096885
 30
0.0
 11
750.4423254554
 21
1111.9993501472
 31
0.0
  0
LINE
  5
2A0
330
1F
100
AcDbEntity
  8
SLD-0_0
  6
SLD-Solid
 62
   179
370
    15
100
AcDbLine
 10
750.4423254554
 20
1111.9993501472
 30
0.0
 11
750.9043806617
 21
1111.6546564865
 31
0.0
  0
LINE
  5
2A1
330
1F
100
AcDbEntity
  8
SLD-0_0
  6
SLD-Solid
 62
   179
370
    15
100
AcDbLine
 10
750.9043806617
 20
1111.6546564865
 30
0.0
 11
751.5261912171
 21
1111.3525205421
 31
0.0
  0
LINE
  5
2A2
330
1F
100
AcDbEntity
  8
SLD-0_0
  6
SLD-Solid
 62
   179
370
    15
100
AcDbLine
 10
751.5261912171
 20
1111.3525205421
 30
0.0
 11
752.2838780109
 21
1111.1045652198
 31
0.0
  0
LINE
  5
2A3
330
1F
100
AcDbEntity
  8
SLD-0_0
  6
SLD-Solid
 62
   179
370
    15
100
AcDbLine
 10
752.2838780109
 20
1111.1045652198
 30
0.0
 11
753.1483092729
 21
1110.9203272628
 31
0.0
  0
LINE
  5
2A4
330
1F
100
AcDbEntity
  8
SLD-0_0
  6
SLD-Solid
 62
   179
370
    15
100
AcDbLine
 10
753.1483092729
 20
1110.9203272628
 30
0.0
 11
754.0862777655
 21
1110.8068400192
 31
0.0
  0
LINE
  5
2A5
330
1F
100
AcDbEntity
  8
SLD-0_0
  6
SLD-Solid
 62
   179
370
    15
100
AcDbLine
 10
754.0862777655
 20
1110.8068400192
 30
0.0
 11
755.0617301289
 21
1110.7685738372
 31
0.0
  0
LINE
  5
2A6
330
1F
100
AcDbEntity
  8
SLD-0_0
  6
SLD-Solid
 62
   179
370
    15
100
AcDbLine
 10
750.0617274467
 20
1112.7622896003
 30
0.0
 11
750.0617274467
 21
1114.7560649681
 31
0.0
  0
LINE
  5
2A7
330
1F
100
AcDbEntity
  8
SLD-0_0
  6
SLD-Solid
 62
   179
370
    15
100
AcDbLine
 10
750.0617274467
 20
1114.7560649681
 30
0.0
 11
749.9656522099
 21
1115.1449852752
 31
0.0
  0
LINE
  5
2A8
330
1F
100
AcDbEntity
  8
SLD-0_0
  6
SLD-Solid
 62
   179
370
    15
100
AcDbLine
 10
749.9656522099
 20
1115.1449852752
 30
0.0
 11
749.6811219875
 21
1115.5190044212
 31
0.0
  0
LINE
  5
2A9
330
1F
100
AcDbEntity
  8
SLD-0_0
  6
SLD-Solid
 62
   179
370
    15
100
AcDbLine
 10
749.6811219875
 20
1115.5190044212
 30
0.0
 11
749.2190742318
 21
1115.8636980819
 31
0.0
  0
LINE
  5
2AA
330
1F
100
AcDbEntity
  8
SLD-0_0
  6
SLD-Solid
 62
   179
370
    15
100
AcDbLine
 10
749.2190742318
 20
1115.8636980819
 30
0.0
 11
748.5972636763
 21
1116.1658340263
 31
0.0
  0
LINE
  5
2AB
330
1F
100
AcDbEntity
  8
SLD-0_0
  6
SLD-Solid
 62
   179
370
    15
100
AcDbLine
 10
748.5972636763
 20
1116.1658340263
 30
0.0
 11
747.8395768825
 21
1116.4137893486
 31
0.0
  0
LINE
  5
2AC
330
1F
100
AcDbEntity
  8
SLD-0_0
  6
SLD-Solid
 62
   179
370
    15
100
AcDbLine
 10
747.8395768825
 20
1116.4137893486
 30
0.0
 11
746.9751456205
 21
1116.5980273056
 31
0.0
  0
LINE
  5
2AD
330
1F
100
AcDbEntity
  8
SLD-0_0
  6
SLD-Solid
 62
   179
370
    15
100
AcDbLine
 10
746.9751456205
 20
1116.5980273056
 30
0.0
 11
746.037177128
 21
1116.7114549446
 31
0.0
  0
LINE
  5
2AE
330
1F
100
AcDbEntity
  8
SLD-0_0
  6
SLD-Solid
 62
   179
370
    15
100
AcDbLine
 10
746.037177128
 20
1116.7114549446
 30
0.0
 11
745.0617247645
 21
1116.7497807312
 31
0.0
  0
LINE
  5
2AF
330
1F
100
AcDbEntity
  8
SLD-0_0
  6
SLD-Solid
 62
   179
370
    15
100
AcDbLine
 10
745.0617247645
 20
1116.7497807312
 30
0.0
 11
314.5617240493
 21
1116.7497807312
 31
0.0
  0
LINE
  5
2B0
330
1F
100
AcDbEntity
  8
SLD-0_0
  6
SLD-Solid
 62
   179
370
    15
100
AcDbLine
 10
314.5617240493
 20
1116.7497807312
 30
0.0
 11
313.5862642352
 21
1116.7114549446
 31
0.0
  0
LINE
  5
2B1
330
1F
100
AcDbEntity
  8
SLD-0_0
  6
SLD-Solid
 62
   179
370
    15
100
AcDbLine
 10
313.5862642352
 20
1116.7114549446
 30
0.0
 11
312.6482957427
 21
1116.5980273056
 31
0.0
  0
LINE
  5
2B2
330
1F
100
AcDbEntity
  8
SLD-0_0
  6
SLD-Solid
 62
   179
370
    15
100
AcDbLine
 10
312.6482957427
 20
1116.5980273056
 30
0.0
 11
311.7838793818
 21
1116.4137893486
 31
0.0
  0
LINE
  5
2B3
330
1F
100
AcDbEntity
  8
SLD-0_0
  6
SLD-Solid
 62
   179
370
    15
100
AcDbLine
 10
311.7838793818
 20
1116.4137893486
 30
0.0
 11
311.0261851375
 21
1116.1658340263
 31
0.0
  0
LINE
  5
2B4
330
1F
100
AcDbEntity
  8
SLD-0_0
  6
SLD-Solid
 62
   179
370
    15
100
AcDbLine
 10
311.0261851375
 20
1116.1658340263
 30
0.0
 11
310.4043894832
 21
1115.8636980819
 31
0.0
  0
LINE
  5
2B5
330
1F
100
AcDbEntity
  8
SLD-0_0
  6
SLD-Solid
 62
   179
370
    15
100
AcDbLine
 10
310.4043894832
 20
1115.8636980819
 30
0.0
 11
309.9423342769
 21
1115.5190044212
 31
0.0
  0
LINE
  5
2B6
330
1F
100
AcDbEntity
  8
SLD-0_0
  6
SLD-Solid
 62
   179
370
    15
100
AcDbLine
 10
309.9423342769
 20
1115.5190044212
 30
0.0
 11
309.657811505
 21
1115.1449852752
 31
0.0
  0
LINE
  5
2B7
330
1F
100
AcDbEntity
  8
SLD-0_0
  6
SLD-Solid
 62
   179
370
    15
100
AcDbLine
 10
309.657811505
 20
1115.1449852752
 30
0.0
 11
309.5617288176
 21
1114.7560649681
 31
0.0
  0
LINE
  5
2B8
330
1F
100
AcDbEntity
  8
SLD-0_0
  6
SLD-Solid
 62
   179
370
    15
100
AcDbLine
 10
309.5617288176
 20
1114.7560649681
 30
0.0
 11
309.5617288176
 21
1112.7622896003
 31
0.0
  0
LINE
  5
2B9
330
1F
100
AcDbEntity
  8
SLD-0_0
  6
SLD-Solid
 62
   179
370
    15
100
AcDbLine
 10
304.561733586
 20
1110.7685738372
 30
0.0
 11
305.5371635978
 21
1110.8068400192
 31
0.0
  0
LINE
  5
2BA
330
1F
100
AcDbEntity
  8
SLD-0_0
  6
SLD-Solid
 62
   179
370
    15
100
AcDbLine
 10
305.5371635978
 20
1110.8068400192
 30
0.0
 11
306.4751320903
 21
1110.9203272628
 31
0.0
  0
LINE
  5
2BB
330
1F
100
AcDbEntity
  8
SLD-0_0
  6
SLD-Solid
 62
   179
370
    15
100
AcDbLine
 10
306.4751320903
 20
1110.9203272628
 30
0.0
 11
307.3395782535
 21
1111.1045652198
 31
0.0
  0
LINE
  5
2BC
330
1F
100
AcDbEntity
  8
SLD-0_0
  6
SLD-Solid
 62
   179
370
    15
100
AcDbLine
 10
307.3395782535
 20
1111.1045652198
 30
0.0
 11
308.0972724978
 21
1111.3525205421
 31
0.0
  0
LINE
  5
2BD
330
1F
100
AcDbEntity
  8
SLD-0_0
  6
SLD-Solid
 62
   179
370
    15
100
AcDbLine
 10
308.0972724978
 20
1111.3525205421
 30
0.0
 11
308.7190681521
 21
1111.6546564865
 31
0.0
  0
LINE
  5
2BE
330
1F
100
AcDbEntity
  8
SLD-0_0
  6
SLD-Solid
 62
   179
370
    15
100
AcDbLine
 10
308.7190681521
 20
1111.6546564865
 30
0.0
 11
309.1811233584
 21
1111.9993501472
 31
0.0
  0
LINE
  5
2BF
330
1F
100
AcDbEntity
  8
SLD-0_0
  6
SLD-Solid
 62
   179
370
    15
100
AcDbLine
 10
309.1811233584
 20
1111.9993501472
 30
0.0
 11
309.4656461303
 21
1112.3733096885
 31
0.0
  0
LINE
  5
2C0
330
1F
100
AcDbEntity
  8
SLD-0_0
  6
SLD-Solid
 62
   179
370
    15
100
AcDbLine
 10
309.4656461303
 20
1112.3733096885
 30
0.0
 11
309.5617288176
 21
1112.7622896003
 31
0.0
  0
LINE
  5
2C1
330
1F
100
AcDbEntity
  8
SLD-0_0
  6
SLD-Solid
 62
   179
370
    15
100
AcDbLine
 10
304.561733586
 20
1110.7685738372
 30
0.0
 11
263.7617283885
 21
1110.7685738372
 31
0.0
  0
LINE
  5
2C2
330
1F
100
AcDbEntity
  8
SLD-0_0
  6
SLD-Solid
 62
   179
370
    15
100
AcDbLine
 10
262.7617412631
 20
1111.1673289108
 30
0.0
 11
262.7809339587
 21
1111.0894852447
 31
0.0
  0
LINE
  5
2C3
330
1F
100
AcDbEntity
  8
SLD-0_0
  6
SLD-Solid
 62
   179
370
    15
100
AcDbLine
 10
262.7809339587
 20
1111.0894852447
 30
0.0
 11
262.8378563945
 21
1111.0146814155
 31
0.0
  0
LINE
  5
2C4
330
1F
100
AcDbEntity
  8
SLD-0_0
  6
SLD-Solid
 62
   179
370
    15
100
AcDbLine
 10
262.8378563945
 20
1111.0146814155
 30
0.0
 11
262.9302435939
 21
1110.9457784462
 31
0.0
  0
LINE
  5
2C5
330
1F
100
AcDbEntity
  8
SLD-0_0
  6
SLD-Solid
 62
   179
370
    15
100
AcDbLine
 10
262.9302435939
 20
1110.9457784462
 30
0.0
 11
263.0546086852
 21
1110.8853393364
 31
0.0
  0
LINE
  5
2C6
330
1F
100
AcDbEntity
  8
SLD-0_0
  6
SLD-Solid
 62
   179
370
    15
100
AcDbLine
 10
263.0546086852
 20
1110.8853393364
 30
0.0
 11
263.2061534945
 21
1110.8357482719
 31
0.0
  0
LINE
  5
2C7
330
1F
100
AcDbEntity
  8
SLD-0_0
  6
SLD-Solid
 62
   179
370
    15
100
AcDbLine
 10
263.2061534945
 20
1110.8357482719
 30
0.0
 11
263.3790367667
 21
1110.7989126014
 31
0.0
  0
LINE
  5
2C8
330
1F
100
AcDbEntity
  8
SLD-0_0
  6
SLD-Solid
 62
   179
370
    15
100
AcDbLine
 10
263.3790367667
 20
1110.7989126014
 30
0.0
 11
263.5666423861
 21
1110.7762032318
 31
0.0
  0
LINE
  5
2C9
330
1F
100
AcDbEntity
  8
SLD-0_0
  6
SLD-Solid
 62
   179
370
    15
100
AcDbLine
 10
263.5666423861
 20
1110.7762032318
 30
0.0
 11
263.7617283885
 21
1110.7685738372
 31
0.0
  0
LINE
  5
2CA
330
1F
100
AcDbEntity
  8
SLD-0_0
  6
SLD-Solid
 62
   179
370
    15
100
AcDbLine
 10
262.7617412631
 20
1111.1673289108
 30
0.0
 11
262.7617412631
 21
1120.8436661529
 31
0.0
  0
LINE
  5
2CB
330
1F
100
AcDbEntity
  8
SLD-0_0
  6
SLD-Solid
 62
   179
370
    15
100
AcDbLine
 10
1160.361706597
 20
1111.1673289108
 30
0.0
 11
1160.361706597
 21
1120.8436661529
 31
0.0
  0
LINE
  5
2CC
330
1F
100
AcDbEntity
  8
SLD-0_0
  6
SLD-Solid
 62
   179
370
    15
100
AcDbLine
 10
1159.3617194716
 20
1110.7685738372
 30
0.0
 11
1159.556805474
 21
1110.7762032318
 31
0.0
  0
LINE
  5
2CD
330
1F
100
AcDbEntity
  8
SLD-0_0
  6
SLD-Solid
 62
   179
370
    15
100
AcDbLine
 10
1159.556805474
 20
1110.7762032318
 30
0.0
 11
1159.7443812911
 21
1110.7989126014
 31
0.0
  0
LINE
  5
2CE
330
1F
100
AcDbEntity
  8
SLD-0_0
  6
SLD-Solid
 62
   179
370
    15
100
AcDbLine
 10
1159.7443812911
 20
1110.7989126014
 30
0.0
 11
1159.9172943656
 21
1110.8357482719
 31
0.0
  0
LINE
  5
2CF
330
1F
100
AcDbEntity
  8
SLD-0_0
  6
SLD-Solid
 62
   179
370
    15
100
AcDbLine
 10
1159.9172943656
 20
1110.8357482719
 30
0.0
 11
1160.0688093726
 21
1110.8853393364
 31
0.0
  0
LINE
  5
2D0
330
1F
100
AcDbEntity
  8
SLD-0_0
  6
SLD-Solid
 62
   179
370
    15
100
AcDbLine
 10
1160.0688093726
 20
1110.8853393364
 30
0.0
 11
1160.1932042663
 21
1110.9457784462
 31
0.0
  0
LINE
  5
2D1
330
1F
100
AcDbEntity
  8
SLD-0_0
  6
SLD-Solid
 62
   179
370
    15
100
AcDbLine
 10
1160.1932042663
 20
1110.9457784462
 30
0.0
 11
1160.2855914657
 21
1111.0146814155
 31
0.0
  0
LINE
  5
2D2
330
1F
100
AcDbEntity
  8
SLD-0_0
  6
SLD-Solid
 62
   179
370
    15
100
AcDbLine
 10
1160.2855914657
 20
1111.0146814155
 30
0.0
 11
1160.3425139014
 21
1111.0894852447
 31
0.0
  0
LINE
  5
2D3
330
1F
100
AcDbEntity
  8
SLD-0_0
  6
SLD-Solid
 62
   179
370
    15
100
AcDbLine
 10
1160.3425139014
 20
1111.0894852447
 30
0.0
 11
1160.361706597
 21
1111.1673289108
 31
0.0
  0
LINE
  5
2D4
330
1F
100
AcDbEntity
  8
SLD-0_0
  6
SLD-Solid
 62
   179
370
    15
100
AcDbLine
 10
1159.3617194716
 20
1110.7685738372
 30
0.0
 11
1118.5617142741
 21
1110.7685738372
 31
0.0
  0
LINE
  5
2D5
330
1F
100
AcDbEntity
  8
SLD-0_0
  6
SLD-Solid
 62
   179
370
    15
100
AcDbLine
 10
1113.5617190425
 20
1112.7622896003
 30
0.0
 11
1113.6578017299
 21
1112.3733096885
 31
0.0
  0
LINE
  5
2D6
330
1F
100
AcDbEntity
  8
SLD-0_0
  6
SLD-Solid
 62
   179
370
    15
100
AcDbLine
 10
1113.6578017299
 20
1112.3733096885
 30
0.0
 11
1113.9423245017
 21
1111.9993501472
 31
0.0
  0
LINE
  5
2D7
330
1F
100
AcDbEntity
  8
SLD-0_0
  6
SLD-Solid
 62
   179
370
    15
100
AcDbLine
 10
1113.9423245017
 20
1111.9993501472
 30
0.0
 11
1114.404379708
 21
1111.6546564865
 31
0.0
  0
LINE
  5
2D8
330
1F
100
AcDbEntity
  8
SLD-0_0
  6
SLD-Solid
 62
   179
370
    15
100
AcDbLine
 10
1114.404379708
 20
1111.6546564865
 30
0.0
 11
1115.0262051646
 21
1111.3525205421
 31
0.0
  0
LINE
  5
2D9
330
1F
100
AcDbEntity
  8
SLD-0_0
  6
SLD-Solid
 62
   179
370
    15
100
AcDbLine
 10
1115.0262051646
 20
1111.3525205421
 30
0.0
 11
1115.7838696067
 21
1111.1045652198
 31
0.0
  0
LINE
  5
2DA
330
1F
100
AcDbEntity
  8
SLD-0_0
  6
SLD-Solid
 62
   179
370
    15
100
AcDbLine
 10
1115.7838696067
 20
1111.1045652198
 30
0.0
 11
1116.6483157699
 21
1110.9203272628
 31
0.0
  0
LINE
  5
2DB
330
1F
100
AcDbEntity
  8
SLD-0_0
  6
SLD-Solid
 62
   179
370
    15
100
AcDbLine
 10
1116.6483157699
 20
1110.9203272628
 30
0.0
 11
1117.5862842624
 21
1110.8068400192
 31
0.0
  0
LINE
  5
2DC
330
1F
100
AcDbEntity
  8
SLD-0_0
  6
SLD-Solid
 62
   179
370
    15
100
AcDbLine
 10
1117.5862842624
 20
1110.8068400192
 30
0.0
 11
1118.5617142741
 21
1110.7685738372
 31
0.0
  0
LINE
  5
2DD
330
1F
100
AcDbEntity
  8
SLD-0_0
  6
SLD-Solid
 62
   179
370
    15
100
AcDbLine
 10
1113.5617190425
 20
1112.7622896003
 30
0.0
 11
1113.5617190425
 21
1114.7560649681
 31
0.0
  0
LINE
  5
2DE
330
1F
100
AcDbEntity
  8
SLD-0_0
  6
SLD-Solid
 62
   179
370
    15
100
AcDbLine
 10
1138.5617250029
 20
1112.2837835121
 30
0.0
 11
1139.6561854903
 21
1112.3607331085
 31
0.0
  0
LINE
  5
2DF
330
1F
100
AcDbEntity
  8
SLD-0_0
  6
SLD-Solid
 62
   179
370
    15
100
AcDbLine
 10
1139.6561854903
 20
1112.3607331085
 30
0.0
 11
1140.6186514918
 21
1112.5823431778
 31
0.0
  0
LINE
  5
2E0
330
1F
100
AcDbEntity
  8
SLD-0_0
  6
SLD-Solid
 62
   179
370
    15
100
AcDbLine
 10
1140.6186514918
 20
1112.5823431778
 30
0.0
 11
1141.3330131595
 21
1112.9217916298
 31
0.0
  0
LINE
  5
2E1
330
1F
100
AcDbEntity
  8
SLD-0_0
  6
SLD-Solid
 62
   179
370
    15
100
AcDbLine
 10
1141.3330131595
 20
1112.9217916298
 30
0.0
 11
1141.7131119792
 21
1113.3382492828
 31
0.0
  0
LINE
  5
2E2
330
1F
100
AcDbEntity
  8
SLD-0_0
  6
SLD-Solid
 62
   179
370
    15
100
AcDbLine
 10
1141.7131119792
 20
1113.3382492828
 30
0.0
 11
1141.7131119792
 21
1113.7813502121
 31
0.0
  0
LINE
  5
2E3
330
1F
100
AcDbEntity
  8
SLD-0_0
  6
SLD-Solid
 62
   179
370
    15
100
AcDbLine
 10
1141.7131119792
 20
1113.7813502121
 30
0.0
 11
1141.3330131595
 21
1114.1978078651
 31
0.0
  0
LINE
  5
2E4
330
1F
100
AcDbEntity
  8
SLD-0_0
  6
SLD-Solid
 62
   179
370
    15
100
AcDbLine
 10
1141.3330131595
 20
1114.1978078651
 30
0.0
 11
1140.6186514918
 21
1114.5372563171
 31
0.0
  0
LINE
  5
2E5
330
1F
100
AcDbEntity
  8
SLD-0_0
  6
SLD-Solid
 62
   179
370
    15
100
AcDbLine
 10
1140.6186514918
 20
1114.5372563171
 30
0.0
 11
1139.6561854903
 21
1114.7588663864
 31
0.0
  0
LINE
  5
2E6
330
1F
100
AcDbEntity
  8
SLD-0_0
  6
SLD-Solid
 62
   179
370
    15
100
AcDbLine
 10
1139.6561854903
 20
1114.7588663864
 30
0.0
 11
1138.5617250029
 21
1114.8358159828
 31
0.0
  0
LINE
  5
2E7
330
1F
100
AcDbEntity
  8
SLD-0_0
  6
SLD-Solid
 62
   179
370
    15
100
AcDbLine
 10
1138.5617250029
 20
1114.8358159828
 30
0.0
 11
1137.4672645156
 21
1114.7588663864
 31
0.0
  0
LINE
  5
2E8
330
1F
100
AcDbEntity
  8
SLD-0_0
  6
SLD-Solid
 62
   179
370
    15
100
AcDbLine
 10
1137.4672645156
 20
1114.7588663864
 30
0.0
 11
1136.5047985141
 21
1114.5372563171
 31
0.0
  0
LINE
  5
2E9
330
1F
100
AcDbEntity
  8
SLD-0_0
  6
SLD-Solid
 62
   179
370
    15
100
AcDbLine
 10
1136.5047985141
 20
1114.5372563171
 30
0.0
 11
1135.7904368464
 21
1114.1978078651
 31
0.0
  0
LINE
  5
2EA
330
1F
100
AcDbEntity
  8
SLD-0_0
  6
SLD-Solid
 62
   179
370
    15
100
AcDbLine
 10
1135.7904368464
 20
1114.1978078651
 30
0.0
 11
1135.4103380267
 21
1113.7813502121
 31
0.0
  0
LINE
  5
2EB
330
1F
100
AcDbEntity
  8
SLD-0_0
  6
SLD-Solid
 62
   179
370
    15
100
AcDbLine
 10
1135.4103380267
 20
1113.7813502121
 30
0.0
 11
1135.4103380267
 21
1113.3382492828
 31
0.0
  0
LINE
  5
2EC
330
1F
100
AcDbEntity
  8
SLD-0_0
  6
SLD-Solid
 62
   179
370
    15
100
AcDbLine
 10
1135.4103380267
 20
1113.3382492828
 30
0.0
 11
1135.7904368464
 21
1112.9217916298
 31
0.0
  0
LINE
  5
2ED
330
1F
100
AcDbEntity
  8
SLD-0_0
  6
SLD-Solid
 62
   179
370
    15
100
AcDbLine
 10
1135.7904368464
 20
1112.9217916298
 30
0.0
 11
1136.5047985141
 21
1112.5823431778
 31
0.0
  0
LINE
  5
2EE
330
1F
100
AcDbEntity
  8
SLD-0_0
  6
SLD-Solid
 62
   179
370
    15
100
AcDbLine
 10
1136.5047985141
 20
1112.5823431778
 30
0.0
 11
1137.4672645156
 21
1112.3607331085
 31
0.0
  0
LINE
  5
2EF
330
1F
100
AcDbEntity
  8
SLD-0_0
  6
SLD-Solid
 62
   179
370
    15
100
AcDbLine
 10
1137.4672645156
 20
1112.3607331085
 30
0.0
 11
1138.5617250029
 21
1112.2837835121
 31
0.0
  0
LINE
  5
2F0
330
1F
100
AcDbEntity
  8
SLD-0_0
  6
SLD-Solid
 62
   179
370
    15
100
AcDbLine
 10
284.5617228572
 20
1112.2837835121
 30
0.0
 11
285.6561833445
 21
1112.3607331085
 31
0.0
  0
LINE
  5
2F1
330
1F
100
AcDbEntity
  8
SLD-0_0
  6
SLD-Solid
 62
   179
370
    15
100
AcDbLine
 10
285.6561833445
 20
1112.3607331085
 30
0.0
 11
286.6186493461
 21
1112.5823431778
 31
0.0
  0
LINE
  5
2F2
330
1F
100
AcDbEntity
  8
SLD-0_0
  6
SLD-Solid
 62
   179
370
    15
100
AcDbLine
 10
286.6186493461
 20
1112.5823431778
 30
0.0
 11
287.3330110137
 21
1112.9217916298
 31
0.0
  0
LINE
  5
2F3
330
1F
100
AcDbEntity
  8
SLD-0_0
  6
SLD-Solid
 62
   179
370
    15
100
AcDbLine
 10
287.3330110137
 20
1112.9217916298
 30
0.0
 11
287.7131098334
 21
1113.3382492828
 31
0.0
  0
LINE
  5
2F4
330
1F
100
AcDbEntity
  8
SLD-0_0
  6
SLD-Solid
 62
   179
370
    15
100
AcDbLine
 10
287.7131098334
 20
1113.3382492828
 30
0.0
 11
287.7131098334
 21
1113.7813502121
 31
0.0
  0
LINE
  5
2F5
330
1F
100
AcDbEntity
  8
SLD-0_0
  6
SLD-Solid
 62
   179
370
    15
100
AcDbLine
 10
287.7131098334
 20
1113.7813502121
 30
0.0
 11
287.3330110137
 21
1114.1978078651
 31
0.0
  0
LINE
  5
2F6
330
1F
100
AcDbEntity
  8
SLD-0_0
  6
SLD-Solid
 62
   179
370
    15
100
AcDbLine
 10
287.3330110137
 20
1114.1978078651
 30
0.0
 11
286.6186493461
 21
1114.5372563171
 31
0.0
  0
LINE
  5
2F7
330
1F
100
AcDbEntity
  8
SLD-0_0
  6
SLD-Solid
 62
   179
370
    15
100
AcDbLine
 10
286.6186493461
 20
1114.5372563171
 30
0.0
 11
285.6561833445
 21
1114.7588663864
 31
0.0
  0
LINE
  5
2F8
330
1F
100
AcDbEntity
  8
SLD-0_0
  6
SLD-Solid
 62
   179
370
    15
100
AcDbLine
 10
285.6561833445
 20
1114.7588663864
 30
0.0
 11
284.5617228572
 21
1114.8358159828
 31
0.0
  0
LINE
  5
2F9
330
1F
100
AcDbEntity
  8
SLD-0_0
  6
SLD-Solid
 62
   179
370
    15
100
AcDbLine
 10
284.5617228572
 20
1114.8358159828
 30
0.0
 11
283.4672623698
 21
1114.7588663864
 31
0.0
  0
LINE
  5
2FA
330
1F
100
AcDbEntity
  8
SLD-0_0
  6
SLD-Solid
 62
   179
370
    15
100
AcDbLine
 10
283.4672623698
 20
1114.7588663864
 30
0.0
 11
282.5047963683
 21
1114.5372563171
 31
0.0
  0
LINE
  5
2FB
330
1F
100
AcDbEntity
  8
SLD-0_0
  6
SLD-Solid
 62
   179
370
    15
100
AcDbLine
 10
282.5047963683
 20
1114.5372563171
 30
0.0
 11
281.7904347007
 21
1114.1978078651
 31
0.0
  0
LINE
  5
2FC
330
1F
100
AcDbEntity
  8
SLD-0_0
  6
SLD-Solid
 62
   179
370
    15
100
AcDbLine
 10
281.7904347007
 20
1114.1978078651
 30
0.0
 11
281.4103358809
 21
1113.7813502121
 31
0.0
  0
LINE
  5
2FD
330
1F
100
AcDbEntity
  8
SLD-0_0
  6
SLD-Solid
 62
   179
370
    15
100
AcDbLine
 10
281.4103358809
 20
1113.7813502121
 30
0.0
 11
281.4103358809
 21
1113.3382492828
 31
0.0
  0
LINE
  5
2FE
330
1F
100
AcDbEntity
  8
SLD-0_0
  6
SLD-Solid
 62
   179
370
    15
100
AcDbLine
 10
281.4103358809
 20
1113.3382492828
 30
0.0
 11
281.7904347007
 21
1112.9217916298
 31
0.0
  0
LINE
  5
2FF
330
1F
100
AcDbEntity
  8
SLD-0_0
  6
SLD-Solid
 62
   179
370
    15
100
AcDbLine
 10
281.7904347007
 20
1112.9217916298
 30
0.0
 11
282.5047963683
 21
1112.5823431778
 31
0.0
  0
LINE
  5
300
330
1F
100
AcDbEntity
  8
SLD-0_0
  6
SLD-Solid
 62
   179
370
    15
100
AcDbLine
 10
282.5047963683
 20
1112.5823431778
 30
0.0
 11
283.4672623698
 21
1112.3607331085
 31
0.0
  0
LINE
  5
301
330
1F
100
AcDbEntity
  8
SLD-0_0
  6
SLD-Solid
 62
   179
370
    15
100
AcDbLine
 10
283.4672623698
 20
1112.3607331085
 30
0.0
 11
284.5617228572
 21
1112.2837835121
 31
0.0
  0
LINE
  5
302
330
1F
100
AcDbEntity
  8
SLD-0_0
  6
SLD-Solid
 62
   179
370
    15
100
AcDbLine
 10
762.5617229764
 20
1112.2837835121
 30
0.0
 11
763.6561909143
 21
1112.3607331085
 31
0.0
  0
LINE
  5
303
330
1F
100
AcDbEntity
  8
SLD-0_0
  6
SLD-Solid
 62
   179
370
    15
100
AcDbLine
 10
763.6561909143
 20
1112.3607331085
 30
0.0
 11
764.6186494653
 21
1112.5823431778
 31
0.0
  0
LINE
  5
304
330
1F
100
AcDbEntity
  8
SLD-0_0
  6
SLD-Solid
 62
   179
370
    15
100
AcDbLine
 10
764.6186494653
 20
1112.5823431778
 30
0.0
 11
765.3330111329
 21
1112.9217916298
 31
0.0
  0
LINE
  5
305
330
1F
100
AcDbEntity
  8
SLD-0_0
  6
SLD-Solid
 62
   179
370
    15
100
AcDbLine
 10
765.3330111329
 20
1112.9217916298
 30
0.0
 11
765.7131099526
 21
1113.3382492828
 31
0.0
  0
LINE
  5
306
330
1F
100
AcDbEntity
  8
SLD-0_0
  6
SLD-Solid
 62
   179
370
    15
100
AcDbLine
 10
765.7131099526
 20
1113.3382492828
 30
0.0
 11
765.7131099526
 21
1113.7813502121
 31
0.0
  0
LINE
  5
307
330
1F
100
AcDbEntity
  8
SLD-0_0
  6
SLD-Solid
 62
   179
370
    15
100
AcDbLine
 10
765.7131099526
 20
1113.7813502121
 30
0.0
 11
765.3330111329
 21
1114.1978078651
 31
0.0
  0
LINE
  5
308
330
1F
100
AcDbEntity
  8
SLD-0_0
  6
SLD-Solid
 62
   179
370
    15
100
AcDbLine
 10
765.3330111329
 20
1114.1978078651
 30
0.0
 11
764.6186494653
 21
1114.5372563171
 31
0.0
  0
LINE
  5
309
330
1F
100
AcDbEntity
  8
SLD-0_0
  6
SLD-Solid
 62
   179
370
    15
100
AcDbLine
 10
764.6186494653
 20
1114.5372563171
 30
0.0
 11
763.6561909143
 21
1114.7588663864
 31
0.0
  0
LINE
  5
30A
330
1F
100
AcDbEntity
  8
SLD-0_0
  6
SLD-Solid
 62
   179
370
    15
100
AcDbLine
 10
763.6561909143
 20
1114.7588663864
 30
0.0
 11
762.5617229764
 21
1114.8358159828
 31
0.0
  0
LINE
  5
30B
330
1F
100
AcDbEntity
  8
SLD-0_0
  6
SLD-Solid
 62
   179
370
    15
100
AcDbLine
 10
762.5617229764
 20
1114.8358159828
 30
0.0
 11
761.467262489
 21
1114.7588663864
 31
0.0
  0
LINE
  5
30C
330
1F
100
AcDbEntity
  8
SLD-0_0
  6
SLD-Solid
 62
   179
370
    15
100
AcDbLine
 10
761.467262489
 20
1114.7588663864
 30
0.0
 11
760.5048039381
 21
1114.5372563171
 31
0.0
  0
LINE
  5
30D
330
1F
100
AcDbEntity
  8
SLD-0_0
  6
SLD-Solid
 62
   179
370
    15
100
AcDbLine
 10
760.5048039381
 20
1114.5372563171
 30
0.0
 11
759.7904422705
 21
1114.1978078651
 31
0.0
  0
LINE
  5
30E
330
1F
100
AcDbEntity
  8
SLD-0_0
  6
SLD-Solid
 62
   179
370
    15
100
AcDbLine
 10
759.7904422705
 20
1114.1978078651
 30
0.0
 11
759.4103434507
 21
1113.7813502121
 31
0.0
  0
LINE
  5
30F
330
1F
100
AcDbEntity
  8
SLD-0_0
  6
SLD-Solid
 62
   179
370
    15
100
AcDbLine
 10
759.4103434507
 20
1113.7813502121
 30
0.0
 11
759.4103434507
 21
1113.3382492828
 31
0.0
  0
LINE
  5
310
330
1F
100
AcDbEntity
  8
SLD-0_0
  6
SLD-Solid
 62
   179
370
    15
100
AcDbLine
 10
759.4103434507
 20
1113.3382492828
 30
0.0
 11
759.7904422705
 21
1112.9217916298
 31
0.0
  0
LINE
  5
311
330
1F
100
AcDbEntity
  8
SLD-0_0
  6
SLD-Solid
 62
   179
370
    15
100
AcDbLine
 10
759.7904422705
 20
1112.9217916298
 30
0.0
 11
760.5048039381
 21
1112.5823431778
 31
0.0
  0
LINE
  5
312
330
1F
100
AcDbEntity
  8
SLD-0_0
  6
SLD-Solid
 62
   179
370
    15
100
AcDbLine
 10
760.5048039381
 20
1112.5823431778
 30
0.0
 11
761.467262489
 21
1112.3607331085
 31
0.0
  0
LINE
  5
313
330
1F
100
AcDbEntity
  8
SLD-0_0
  6
SLD-Solid
 62
   179
370
    15
100
AcDbLine
 10
761.467262489
 20
1112.3607331085
 30
0.0
 11
762.5617229764
 21
1112.2837835121
 31
0.0
  0
LINE
  5
314
330
1F
100
AcDbEntity
  8
SLD-0_0
  6
SLD-Solid
 62
   179
370
    15
100
AcDbLine
 10
1160.361706597
 20
1111.8198209571
 30
0.0
 11
1161.5617269103
 21
1111.8198209571
 31
0.0
  0
LINE
  5
315
330
1F
100
AcDbEntity
  8
SLD-0_0
  6
SLD-Solid
 62
   179
370
    15
100
AcDbLine
 10
1161.5617269103
 20
1111.8198209571
 30
0.0
 11
1161.5617269103
 21
1122.0358186531
 31
0.0
  0
LINE
  5
316
330
1F
100
AcDbEntity
  8
SLD-0_0
  6
SLD-Solid
 62
   179
370
    15
100
AcDbLine
 10
262.7617412631
 20
1111.8198209571
 30
0.0
 11
261.5617209498
 21
1111.8198209571
 31
0.0
  0
LINE
  5
317
330
1F
100
AcDbEntity
  8
SLD-0_0
  6
SLD-Solid
 62
   179
370
    15
100
AcDbLine
 10
261.5617209498
 20
1111.8198209571
 30
0.0
 11
261.5617209498
 21
1122.0358186531
 31
0.0
  0
LINE
  5
318
330
1F
100
AcDbEntity
  8
SLD-0_0
  6
SLD-Solid
 62
   179
370
    15
100
AcDbLine
 10
1159.2738026206
 20
1165.505784111
 30
0.0
 11
1159.1117375914
 21
1165.511148529
 31
0.0
  0
LINE
  5
319
330
1F
100
AcDbEntity
  8
SLD-0_0
  6
SLD-Solid
 62
   179
370
    15
100
AcDbLine
 10
264.011740071
 20
1165.511148529
 30
0.0
 11
263.8496750419
 21
1165.505784111
 31
0.0
  0
LINE
  5
31A
330
1F
100
AcDbEntity
  8
SLD-0_0
  6
SLD-Solid
 62
   179
370
    15
100
AcDbLine
 10
270.5617242877
 20
1110.5111413765
 30
0.0
 11
264.011740071
 21
1110.5111413765
 31
0.0
  0
LINE
  5
31B
330
1F
100
AcDbEntity
  8
SLD-0_0
  6
SLD-Solid
 62
   179
370
    15
100
AcDbLine
 10
271.5617412154
 20
1110.7685738372
 30
0.0
 11
271.5617412154
 21
1110.5111413765
 31
0.0
  0
LINE
  5
31C
330
1F
100
AcDbEntity
  8
SLD-0_0
  6
SLD-Solid
 62
   179
370
    15
100
AcDbLine
 10
271.5617412154
 20
1110.5111413765
 30
0.0
 11
270.5617242877
 21
1110.5111413765
 31
0.0
  0
LINE
  5
31D
330
1F
100
AcDbEntity
  8
SLD-0_0
  6
SLD-Solid
 62
   179
370
    15
100
AcDbLine
 10
1152.5617235724
 20
1110.5111413765
 30
0.0
 11
1159.1117375914
 21
1110.5111413765
 31
0.0
  0
LINE
  5
31E
330
1F
100
AcDbEntity
  8
SLD-0_0
  6
SLD-Solid
 62
   179
370
    15
100
AcDbLine
 10
1151.561736447
 20
1110.5111413765
 30
0.0
 11
1151.561736447
 21
1110.7685738372
 31
0.0
  0
LINE
  5
31F
330
1F
100
AcDbEntity
  8
SLD-0_0
  6
SLD-Solid
 62
   179
370
    15
100
AcDbLine
 10
1152.5617235724
 20
1110.5111413765
 30
0.0
 11
1151.561736447
 21
1110.5111413765
 31
0.0
  0
LINE
  5
320
330
1F
100
AcDbEntity
  8
SLD-0_0
  6
SLD-Solid
 62
   179
370
    15
100
AcDbLine
 10
755.2617260639
 20
1110.7111149597
 30
0.0
 11
755.2617260639
 21
1110.498803215
 31
0.0
  0
LINE
  5
321
330
1F
100
AcDbEntity
  8
SLD-0_0
  6
SLD-Solid
 62
   179
370
    15
100
AcDbLine
 10
753.2617294614
 20
1110.7111149597
 30
0.0
 11
753.2617294614
 21
1110.498803215
 31
0.0
  0
LINE
  5
322
330
1F
100
AcDbEntity
  8
SLD-0_0
  6
SLD-Solid
 62
   179
370
    15
100
AcDbLine
 10
753.2617294614
 20
1110.9022074508
 30
0.0
 11
753.2617294614
 21
1110.7111149597
 31
0.0
  0
LINE
  5
323
330
1F
100
AcDbEntity
  8
SLD-0_0
  6
SLD-Solid
 62
   179
370
    15
100
AcDbLine
 10
1110.2617376868
 20
1116.2111335563
 30
0.0
 11
1111.9798713748
 21
1116.2111335563
 31
0.0
  0
LINE
  5
324
330
1F
100
AcDbEntity
  8
SLD-0_0
  6
SLD-Solid
 62
   179
370
    15
100
AcDbLine
 10
1112.2617119376
 20
1116.0970502662
 30
0.0
 11
1112.2617119376
 21
1109.9460297393
 31
0.0
  0
LINE
  5
325
330
1F
100
AcDbEntity
  8
SLD-0_0
  6
SLD-Solid
 62
   179
370
    15
100
AcDbLine
 10
1114.7617393557
 20
1109.9460297393
 30
0.0
 11
1114.7617393557
 21
1111.4665442276
 31
0.0
  0
LINE
  5
326
330
1F
100
AcDbEntity
  8
SLD-0_0
  6
SLD-Solid
 62
   179
370
    15
100
AcDbLine
 10
1161.5617269103
 20
1165.511148529
 30
0.0
 11
1159.1117375914
 21
1165.511148529
 31
0.0
  0
LINE
  5
327
330
1F
100
AcDbEntity
  8
SLD-0_0
  6
SLD-Solid
 62
   179
370
    15
100
AcDbLine
 10
264.011740071
 20
1165.511148529
 30
0.0
 11
261.5617209498
 21
1165.511148529
 31
0.0
  0
LINE
  5
328
330
1F
100
AcDbEntity
  8
SLD-0_0
  6
SLD-Solid
 62
   179
370
    15
100
AcDbLine
 10
1161.5617269103
 20
1165.511148529
 30
0.0
 11
1161.5617269103
 21
1164.2054491806
 31
0.0
  0
LINE
  5
329
330
1F
100
AcDbEntity
  8
SLD-0_0
  6
SLD-Solid
 62
   179
370
    15
100
AcDbLine
 10
261.5617209498
 20
1165.511148529
 30
0.0
 11
261.5617209498
 21
1164.2111116218
 31
0.0
  0
LINE
  5
32A
330
1F
100
AcDbEntity
  8
SLD-0_0
  6
SLD-Solid
 62
   179
370
    15
100
AcDbLine
 10
1161.5617269103
 20
1166.7611175346
 30
0.0
 11
1161.5617269103
 21
1165.511148529
 31
0.0
  0
LINE
  5
32B
330
1F
100
AcDbEntity
  8
SLD-0_0
  6
SLD-Solid
 62
   179
370
    15
100
AcDbLine
 10
261.5617209498
 20
1166.7611175346
 30
0.0
 11
261.5617209498
 21
1165.511148529
 31
0.0
  0
LINE
  5
32C
330
1F
100
AcDbEntity
  8
SLD-0_0
  6
SLD-Solid
 62
   179
370
    15
100
AcDbLine
 10
1161.5617269103
 20
1181.6279464531
 30
0.0
 11
1161.5617269103
 21
1166.7611175346
 31
0.0
  0
LINE
  5
32D
330
1F
100
AcDbEntity
  8
SLD-0_0
  6
SLD-Solid
 62
   179
370
    15
100
AcDbLine
 10
261.5617209498
 20
1181.6279464531
 30
0.0
 11
261.5617209498
 21
1166.7611175346
 31
0.0
  0
LINE
  5
32E
330
1F
100
AcDbEntity
  8
SLD-0_0
  6
SLD-Solid
 62
   179
370
    15
100
AcDbLine
 10
846.5275609319
 20
1206.5488272476
 30
0.0
 11
845.9948444192
 21
1206.5414958763
 31
0.0
  0
LINE
  5
32F
330
1F
100
AcDbEntity
  8
SLD-0_0
  6
SLD-Solid
 62
   179
370
    15
100
AcDbLine
 10
867.2133529012
 20
1206.5414958763
 30
0.0
 11
866.6806363885
 21
1206.5488272476
 31
0.0
  0
LINE
  5
330
330
1F
100
AcDbEntity
  8
SLD-0_0
  6
SLD-Solid
 62
   179
370
    15
100
AcDbLine
 10
945.9948533599
 20
1206.5414958763
 30
0.0
 11
867.2133529012
 21
1206.5414958763
 31
0.0
  0
LINE
  5
331
330
1F
100
AcDbEntity
  8
SLD-0_0
  6
SLD-Solid
 62
   179
370
    15
100
AcDbLine
 10
946.5275698726
 20
1206.5488272476
 30
0.0
 11
945.9948533599
 21
1206.5414958763
 31
0.0
  0
LINE
  5
332
330
1F
100
AcDbEntity
  8
SLD-0_0
  6
SLD-Solid
 62
   179
370
    15
100
AcDbLine
 10
967.2133618419
 20
1206.5414958763
 30
0.0
 11
966.6806453292
 21
1206.5488272476
 31
0.0
  0
LINE
  5
333
330
1F
100
AcDbEntity
  8
SLD-0_0
  6
SLD-Solid
 62
   179
370
    15
100
AcDbLine
 10
1045.9948473994
 20
1206.5414958763
 30
0.0
 11
967.2133618419
 21
1206.5414958763
 31
0.0
  0
LINE
  5
334
330
1F
100
AcDbEntity
  8
SLD-0_0
  6
SLD-Solid
 62
   179
370
    15
100
AcDbLine
 10
1046.5275639121
 20
1206.5488272476
 30
0.0
 11
1045.9948473994
 21
1206.5414958763
 31
0.0
  0
LINE
  5
335
330
1F
100
AcDbEntity
  8
SLD-0_0
  6
SLD-Solid
 62
   179
370
    15
100
AcDbLine
 10
1067.2133558814
 20
1206.5414958763
 30
0.0
 11
1066.6806393687
 21
1206.5488272476
 31
0.0
  0
LINE
  5
336
330
1F
100
AcDbEntity
  8
SLD-0_0
  6
SLD-Solid
 62
   179
370
    15
100
AcDbLine
 10
1136.5617209498
 20
1206.5414958763
 30
0.0
 11
1067.2133558814
 21
1206.5414958763
 31
0.0
  0
LINE
  5
337
330
1F
100
AcDbEntity
  8
SLD-0_0
  6
SLD-Solid
 62
   179
370
    15
100
AcDbLine
 10
1137.0944374625
 20
1206.5488272476
 30
0.0
 11
1136.5617209498
 21
1206.5414958763
 31
0.0
  0
LINE
  5
338
330
1F
100
AcDbEntity
  8
SLD-0_0
  6
SLD-Solid
 62
   179
370
    15
100
AcDbLine
 10
286.5617269103
 20
1206.5414958763
 30
0.0
 11
286.0290103976
 21
1206.5488272476
 31
0.0
  0
LINE
  5
339
330
1F
100
AcDbEntity
  8
SLD-0_0
  6
SLD-Solid
 62
   179
370
    15
100
AcDbLine
 10
345.9948593203
 20
1206.5414958763
 30
0.0
 11
286.5617269103
 21
1206.5414958763
 31
0.0
  0
LINE
  5
33A
330
1F
100
AcDbEntity
  8
SLD-0_0
  6
SLD-Solid
 62
   179
370
    15
100
AcDbLine
 10
346.5275460307
 20
1206.5488272476
 30
0.0
 11
345.9948593203
 21
1206.5414958763
 31
0.0
  0
LINE
  5
33B
330
1F
100
AcDbEntity
  8
SLD-0_0
  6
SLD-Solid
 62
   179
370
    15
100
AcDbLine
 10
367.213338
 20
1206.5414958763
 30
0.0
 11
366.6806512896
 21
1206.5488272476
 31
0.0
  0
LINE
  5
33C
330
1F
100
AcDbEntity
  8
SLD-0_0
  6
SLD-Solid
 62
   179
370
    15
100
AcDbLine
 10
445.9948533599
 20
1206.5414958763
 30
0.0
 11
367.213338
 21
1206.5414958763
 31
0.0
  0
LINE
  5
33D
330
1F
100
AcDbEntity
  8
SLD-0_0
  6
SLD-Solid
 62
   179
370
    15
100
AcDbLine
 10
446.5275549714
 20
1206.5488272476
 30
0.0
 11
445.9948533599
 21
1206.5414958763
 31
0.0
  0
LINE
  5
33E
330
1F
100
AcDbEntity
  8
SLD-0_0
  6
SLD-Solid
 62
   179
370
    15
100
AcDbLine
 10
467.2133469407
 20
1206.5414958763
 30
0.0
 11
466.6806453292
 21
1206.5488272476
 31
0.0
  0
LINE
  5
33F
330
1F
100
AcDbEntity
  8
SLD-0_0
  6
SLD-Solid
 62
   179
370
    15
100
AcDbLine
 10
545.99485485
 20
1206.5414958763
 30
0.0
 11
467.2133469407
 21
1206.5414958763
 31
0.0
  0
LINE
  5
340
330
1F
100
AcDbEntity
  8
SLD-0_0
  6
SLD-Solid
 62
   179
370
    15
100
AcDbLine
 10
546.5275564615
 20
1206.5488272476
 30
0.0
 11
545.99485485
 21
1206.5414958763
 31
0.0
  0
LINE
  5
341
330
1F
100
AcDbEntity
  8
SLD-0_0
  6
SLD-Solid
 62
   179
370
    15
100
AcDbLine
 10
567.2133484308
 20
1206.5414958763
 30
0.0
 11
566.6806393687
 21
1206.5488272476
 31
0.0
  0
LINE
  5
342
330
1F
100
AcDbEntity
  8
SLD-0_0
  6
SLD-Solid
 62
   179
370
    15
100
AcDbLine
 10
645.9948519163
 20
1206.5414958763
 30
0.0
 11
567.2133484308
 21
1206.5414958763
 31
0.0
  0
LINE
  5
343
330
1F
100
AcDbEntity
  8
SLD-0_0
  6
SLD-Solid
 62
   179
370
    15
100
AcDbLine
 10
646.527556089
 20
1206.5488272476
 30
0.0
 11
645.9948519163
 21
1206.5414958763
 31
0.0
  0
LINE
  5
344
330
1F
100
AcDbEntity
  8
SLD-0_0
  6
SLD-Solid
 62
   179
370
    15
100
AcDbLine
 10
667.2133480583
 20
1206.5414958763
 30
0.0
 11
666.6806427215
 21
1206.5488272476
 31
0.0
  0
LINE
  5
345
330
1F
100
AcDbEntity
  8
SLD-0_0
  6
SLD-Solid
 62
   179
370
    15
100
AcDbLine
 10
745.9948503796
 20
1206.5414958763
 30
0.0
 11
667.2133480583
 21
1206.5414958763
 31
0.0
  0
LINE
  5
346
330
1F
100
AcDbEntity
  8
SLD-0_0
  6
SLD-Solid
 62
   179
370
    15
100
AcDbLine
 10
746.5275594417
 20
1206.5488272476
 30
0.0
 11
745.9948503796
 21
1206.5414958763
 31
0.0
  0
LINE
  5
347
330
1F
100
AcDbEntity
  8
SLD-0_0
  6
SLD-Solid
 62
   179
370
    15
100
AcDbLine
 10
767.2133439605
 20
1206.5414958763
 30
0.0
 11
766.6806423489
 21
1206.5488272476
 31
0.0
  0
LINE
  5
348
330
1F
100
AcDbEntity
  8
SLD-0_0
  6
SLD-Solid
 62
   179
370
    15
100
AcDbLine
 10
845.9948444192
 20
1206.5414958763
 30
0.0
 11
767.2133439605
 21
1206.5414958763
 31
0.0
  0
LINE
  5
349
330
1F
100
AcDbEntity
  8
SLD-0_0
  6
SLD-Solid
 62
   179
370
    15
100
AcDbLine
 10
1161.5617269103
 20
1206.5488272476
 30
0.0
 11
1161.5617269103
 21
1181.6279464531
 31
0.0
  0
LINE
  5
34A
330
1F
100
AcDbEntity
  8
SLD-0_0
  6
SLD-Solid
 62
   179
370
    15
100
AcDbLine
 10
261.5617209498
 20
1206.5488272476
 30
0.0
 11
261.5617209498
 21
1181.6279464531
 31
0.0
  0
LINE
  5
34B
330
1F
100
AcDbEntity
  8
SLD-0_0
  6
SLD-Solid
 62
   179
370
    15
100
AcDbLine
 10
362.7564304892
 20
1208.4221416282
 30
0.0
 11
362.3434299056
 21
1208.1288271713
 31
0.0
  0
LINE
  5
34C
330
1F
100
AcDbEntity
  8
SLD-0_0
  6
SLD-Solid
 62
   179
370
    15
100
AcDbLine
 10
362.3434299056
 20
1208.1288271713
 30
0.0
 11
362.2137898032
 21
1207.8184657859
 31
0.0
  0
LINE
  5
34D
330
1F
100
AcDbEntity
  8
SLD-0_0
  6
SLD-Solid
 62
   179
370
    15
100
AcDbLine
 10
362.2137898032
 20
1207.8184657859
 30
0.0
 11
362.3750501696
 21
1207.5091176796
 31
0.0
  0
LINE
  5
34E
330
1F
100
AcDbEntity
  8
SLD-0_0
  6
SLD-Solid
 62
   179
370
    15
100
AcDbLine
 10
362.3750501696
 20
1207.5091176796
 30
0.0
 11
362.8178530757
 21
1207.2187834549
 31
0.0
  0
LINE
  5
34F
330
1F
100
AcDbEntity
  8
SLD-0_0
  6
SLD-Solid
 62
   179
370
    15
100
AcDbLine
 10
362.8178530757
 20
1207.2187834549
 30
0.0
 11
363.5163897101
 21
1206.9642716217
 31
0.0
  0
LINE
  5
350
330
1F
100
AcDbEntity
  8
SLD-0_0
  6
SLD-Solid
 62
   179
370
    15
100
AcDbLine
 10
363.5163897101
 20
1206.9642716217
 30
0.0
 11
364.4300693099
 21
1206.7605429458
 31
0.0
  0
LINE
  5
351
330
1F
100
AcDbEntity
  8
SLD-0_0
  6
SLD-Solid
 62
   179
370
    15
100
AcDbLine
 10
364.4300693099
 20
1206.7605429458
 30
0.0
 11
365.5056649272
 21
1206.6192799377
 31
0.0
  0
LINE
  5
352
330
1F
100
AcDbEntity
  8
SLD-0_0
  6
SLD-Solid
 62
   179
370
    15
100
AcDbLine
 10
365.5056649272
 20
1206.6192799377
 30
0.0
 11
366.6806512896
 21
1206.5488272476
 31
0.0
  0
LINE
  5
353
330
1F
100
AcDbEntity
  8
SLD-0_0
  6
SLD-Solid
 62
   179
370
    15
100
AcDbLine
 10
362.7564304892
 20
1207.6493674087
 30
0.0
 11
362.4413901393
 21
1207.4492150116
 31
0.0
  0
LINE
  5
354
330
1F
100
AcDbEntity
  8
SLD-0_0
  6
SLD-Solid
 62
   179
370
    15
100
AcDbLine
 10
281.5617316787
 20
1207.835572319
 30
0.0
 11
281.6452079837
 21
1207.6000743675
 31
0.0
  0
LINE
  5
355
330
1F
100
AcDbEntity
  8
SLD-0_0
  6
SLD-Solid
 62
   179
370
    15
100
AcDbLine
 10
281.6452079837
 20
1207.6000743675
 30
0.0
 11
281.8929248874
 21
1207.3724442291
 31
0.0
  0
LINE
  5
356
330
1F
100
AcDbEntity
  8
SLD-0_0
  6
SLD-Solid
 62
   179
370
    15
100
AcDbLine
 10
281.8929248874
 20
1207.3724442291
 30
0.0
 11
282.2965377395
 21
1207.1602516937
 31
0.0
  0
LINE
  5
357
330
1F
100
AcDbEntity
  8
SLD-0_0
  6
SLD-Solid
 62
   179
370
    15
100
AcDbLine
 10
282.2965377395
 20
1207.1602516937
 30
0.0
 11
282.8426056926
 21
1206.9706493187
 31
0.0
  0
LINE
  5
358
330
1F
100
AcDbEntity
  8
SLD-0_0
  6
SLD-Solid
 62
   179
370
    15
100
AcDbLine
 10
282.8426056926
 20
1206.9706493187
 30
0.0
 11
283.5129195277
 21
1206.8098955917
 31
0.0
  0
LINE
  5
359
330
1F
100
AcDbEntity
  8
SLD-0_0
  6
SLD-Solid
 62
   179
370
    15
100
AcDbLine
 10
283.5129195277
 20
1206.8098955917
 30
0.0
 11
284.2850082938
 21
1206.6834145355
 31
0.0
  0
LINE
  5
35A
330
1F
100
AcDbEntity
  8
SLD-0_0
  6
SLD-Solid
 62
   179
370
    15
100
AcDbLine
 10
284.2850082938
 20
1206.6834145355
 30
0.0
 11
285.1331525866
 21
1206.5954380798
 31
0.0
  0
LINE
  5
35B
330
1F
100
AcDbEntity
  8
SLD-0_0
  6
SLD-Solid
 62
   179
370
    15
100
AcDbLine
 10
285.1331525866
 20
1206.5954380798
 30
0.0
 11
286.0290103976
 21
1206.5488272476
 31
0.0
  0
LINE
  5
35C
330
1F
100
AcDbEntity
  8
SLD-0_0
  6
SLD-Solid
 62
   179
370
    15
100
AcDbLine
 10
1062.7564185683
 20
1208.4221416282
 30
0.0
 11
1062.3434179847
 21
1208.1288271713
 31
0.0
  0
LINE
  5
35D
330
1F
100
AcDbEntity
  8
SLD-0_0
  6
SLD-Solid
 62
   179
370
    15
100
AcDbLine
 10
1062.3434179847
 20
1208.1288271713
 30
0.0
 11
1062.2137778823
 21
1207.8184657859
 31
0.0
  0
LINE
  5
35E
330
1F
100
AcDbEntity
  8
SLD-0_0
  6
SLD-Solid
 62
   179
370
    15
100
AcDbLine
 10
1062.2137778823
 20
1207.8184657859
 30
0.0
 11
1062.3750382487
 21
1207.5091176796
 31
0.0
  0
LINE
  5
35F
330
1F
100
AcDbEntity
  8
SLD-0_0
  6
SLD-Solid
 62
   179
370
    15
100
AcDbLine
 10
1062.3750382487
 20
1207.5091176796
 30
0.0
 11
1062.8178411548
 21
1207.2187834549
 31
0.0
  0
LINE
  5
360
330
1F
100
AcDbEntity
  8
SLD-0_0
  6
SLD-Solid
 62
   179
370
    15
100
AcDbLine
 10
1062.8178411548
 20
1207.2187834549
 30
0.0
 11
1063.5164075915
 21
1206.9642716217
 31
0.0
  0
LINE
  5
361
330
1F
100
AcDbEntity
  8
SLD-0_0
  6
SLD-Solid
 62
   179
370
    15
100
AcDbLine
 10
1063.5164075915
 20
1206.9642716217
 30
0.0
 11
1064.430057389
 21
1206.7605429458
 31
0.0
  0
LINE
  5
362
330
1F
100
AcDbEntity
  8
SLD-0_0
  6
SLD-Solid
 62
   179
370
    15
100
AcDbLine
 10
1064.430057389
 20
1206.7605429458
 30
0.0
 11
1065.5056530063
 21
1206.6192799377
 31
0.0
  0
LINE
  5
363
330
1F
100
AcDbEntity
  8
SLD-0_0
  6
SLD-Solid
 62
   179
370
    15
100
AcDbLine
 10
1065.5056530063
 20
1206.6192799377
 30
0.0
 11
1066.6806393687
 21
1206.5488272476
 31
0.0
  0
LINE
  5
364
330
1F
100
AcDbEntity
  8
SLD-0_0
  6
SLD-Solid
 62
   179
370
    15
100
AcDbLine
 10
1062.7564185683
 20
1207.6493674087
 30
0.0
 11
1062.4414080207
 21
1207.4492150116
 31
0.0
  0
LINE
  5
365
330
1F
100
AcDbEntity
  8
SLD-0_0
  6
SLD-Solid
 62
   179
370
    15
100
AcDbLine
 10
1137.0944374625
 20
1206.5488272476
 30
0.0
 11
1137.9902952735
 21
1206.5954380798
 31
0.0
  0
LINE
  5
366
330
1F
100
AcDbEntity
  8
SLD-0_0
  6
SLD-Solid
 62
   179
370
    15
100
AcDbLine
 10
1137.9902952735
 20
1206.5954380798
 30
0.0
 11
1138.8384395663
 21
1206.6834145355
 31
0.0
  0
LINE
  5
367
330
1F
100
AcDbEntity
  8
SLD-0_0
  6
SLD-Solid
 62
   179
370
    15
100
AcDbLine
 10
1138.8384395663
 20
1206.6834145355
 30
0.0
 11
1139.6105581347
 21
1206.8098955917
 31
0.0
  0
LINE
  5
368
330
1F
100
AcDbEntity
  8
SLD-0_0
  6
SLD-Solid
 62
   179
370
    15
100
AcDbLine
 10
1139.6105581347
 20
1206.8098955917
 30
0.0
 11
1140.2808421676
 21
1206.9706493187
 31
0.0
  0
LINE
  5
369
330
1F
100
AcDbEntity
  8
SLD-0_0
  6
SLD-Solid
 62
   179
370
    15
100
AcDbLine
 10
1140.2808421676
 20
1206.9706493187
 30
0.0
 11
1140.8269101207
 21
1207.1602516937
 31
0.0
  0
LINE
  5
36A
330
1F
100
AcDbEntity
  8
SLD-0_0
  6
SLD-Solid
 62
   179
370
    15
100
AcDbLine
 10
1140.8269101207
 20
1207.1602516937
 30
0.0
 11
1141.2305229728
 21
1207.3724442291
 31
0.0
  0
LINE
  5
36B
330
1F
100
AcDbEntity
  8
SLD-0_0
  6
SLD-Solid
 62
   179
370
    15
100
AcDbLine
 10
1141.2305229728
 20
1207.3724442291
 30
0.0
 11
1141.4782398765
 21
1207.6000743675
 31
0.0
  0
LINE
  5
36C
330
1F
100
AcDbEntity
  8
SLD-0_0
  6
SLD-Solid
 62
   179
370
    15
100
AcDbLine
 10
1141.4782398765
 20
1207.6000743675
 30
0.0
 11
1141.5617161815
 21
1207.835572319
 31
0.0
  0
LINE
  5
36D
330
1F
100
AcDbEntity
  8
SLD-0_0
  6
SLD-Solid
 62
   179
370
    15
100
AcDbLine
 10
562.7564185683
 20
1208.4221416282
 30
0.0
 11
562.3434179847
 21
1208.1288271713
 31
0.0
  0
LINE
  5
36E
330
1F
100
AcDbEntity
  8
SLD-0_0
  6
SLD-Solid
 62
   179
370
    15
100
AcDbLine
 10
562.3434179847
 20
1208.1288271713
 30
0.0
 11
562.2137853329
 21
1207.8184657859
 31
0.0
  0
LINE
  5
36F
330
1F
100
AcDbEntity
  8
SLD-0_0
  6
SLD-Solid
 62
   179
370
    15
100
AcDbLine
 10
562.2137853329
 20
1207.8184657859
 30
0.0
 11
562.3750531499
 21
1207.5091176796
 31
0.0
  0
LINE
  5
370
330
1F
100
AcDbEntity
  8
SLD-0_0
  6
SLD-Solid
 62
   179
370
    15
100
AcDbLine
 10
562.3750531499
 20
1207.5091176796
 30
0.0
 11
562.8178411548
 21
1207.2187834549
 31
0.0
  0
LINE
  5
371
330
1F
100
AcDbEntity
  8
SLD-0_0
  6
SLD-Solid
 62
   179
370
    15
100
AcDbLine
 10
562.8178411548
 20
1207.2187834549
 30
0.0
 11
563.5163926904
 21
1206.9642716217
 31
0.0
  0
LINE
  5
372
330
1F
100
AcDbEntity
  8
SLD-0_0
  6
SLD-Solid
 62
   179
370
    15
100
AcDbLine
 10
563.5163926904
 20
1206.9642716217
 30
0.0
 11
564.430057389
 21
1206.7605429458
 31
0.0
  0
LINE
  5
373
330
1F
100
AcDbEntity
  8
SLD-0_0
  6
SLD-Solid
 62
   179
370
    15
100
AcDbLine
 10
564.430057389
 20
1206.7605429458
 30
0.0
 11
565.5056679074
 21
1206.6192799377
 31
0.0
  0
LINE
  5
374
330
1F
100
AcDbEntity
  8
SLD-0_0
  6
SLD-Solid
 62
   179
370
    15
100
AcDbLine
 10
565.5056679074
 20
1206.6192799377
 30
0.0
 11
566.6806393687
 21
1206.5488272476
 31
0.0
  0
LINE
  5
375
330
1F
100
AcDbEntity
  8
SLD-0_0
  6
SLD-Solid
 62
   179
370
    15
100
AcDbLine
 10
562.7564185683
 20
1207.6493674087
 30
0.0
 11
562.4414005701
 21
1207.4492150116
 31
0.0
  0
LINE
  5
376
330
1F
100
AcDbEntity
  8
SLD-0_0
  6
SLD-Solid
 62
   179
370
    15
100
AcDbLine
 10
662.7564219211
 20
1208.4221416282
 30
0.0
 11
662.3434213374
 21
1208.1288271713
 31
0.0
  0
LINE
  5
377
330
1F
100
AcDbEntity
  8
SLD-0_0
  6
SLD-Solid
 62
   179
370
    15
100
AcDbLine
 10
662.3434213374
 20
1208.1288271713
 30
0.0
 11
662.2137830977
 21
1207.8184657859
 31
0.0
  0
LINE
  5
378
330
1F
100
AcDbEntity
  8
SLD-0_0
  6
SLD-Solid
 62
   179
370
    15
100
AcDbLine
 10
662.2137830977
 20
1207.8184657859
 30
0.0
 11
662.3750527774
 21
1207.5091176796
 31
0.0
  0
LINE
  5
379
330
1F
100
AcDbEntity
  8
SLD-0_0
  6
SLD-Solid
 62
   179
370
    15
100
AcDbLine
 10
662.3750527774
 20
1207.5091176796
 30
0.0
 11
662.8178445075
 21
1207.2187834549
 31
0.0
  0
LINE
  5
37A
330
1F
100
AcDbEntity
  8
SLD-0_0
  6
SLD-Solid
 62
   179
370
    15
100
AcDbLine
 10
662.8178445075
 20
1207.2187834549
 30
0.0
 11
663.5163941805
 21
1206.9642716217
 31
0.0
  0
LINE
  5
37B
330
1F
100
AcDbEntity
  8
SLD-0_0
  6
SLD-Solid
 62
   179
370
    15
100
AcDbLine
 10
663.5163941805
 20
1206.9642716217
 30
0.0
 11
664.4300551538
 21
1206.7605429458
 31
0.0
  0
LINE
  5
37C
330
1F
100
AcDbEntity
  8
SLD-0_0
  6
SLD-Solid
 62
   179
370
    15
100
AcDbLine
 10
664.4300551538
 20
1206.7605429458
 30
0.0
 11
665.5056675349
 21
1206.6192799377
 31
0.0
  0
LINE
  5
37D
330
1F
100
AcDbEntity
  8
SLD-0_0
  6
SLD-Solid
 62
   179
370
    15
100
AcDbLine
 10
665.5056675349
 20
1206.6192799377
 30
0.0
 11
666.6806427215
 21
1206.5488272476
 31
0.0
  0
LINE
  5
37E
330
1F
100
AcDbEntity
  8
SLD-0_0
  6
SLD-Solid
 62
   179
370
    15
100
AcDbLine
 10
662.7564219211
 20
1207.6493674087
 30
0.0
 11
662.4413983349
 21
1207.4492150116
 31
0.0
  0
LINE
  5
37F
330
1F
100
AcDbEntity
  8
SLD-0_0
  6
SLD-Solid
 62
   179
370
    15
100
AcDbLine
 10
462.7564245288
 20
1208.4221416282
 30
0.0
 11
462.3434239451
 21
1208.1288271713
 31
0.0
  0
LINE
  5
380
330
1F
100
AcDbEntity
  8
SLD-0_0
  6
SLD-Solid
 62
   179
370
    15
100
AcDbLine
 10
462.3434239451
 20
1208.1288271713
 30
0.0
 11
462.2137838427
 21
1207.8184657859
 31
0.0
  0
LINE
  5
381
330
1F
100
AcDbEntity
  8
SLD-0_0
  6
SLD-Solid
 62
   179
370
    15
100
AcDbLine
 10
462.2137838427
 20
1207.8184657859
 30
0.0
 11
462.3750591103
 21
1207.5091176796
 31
0.0
  0
LINE
  5
382
330
1F
100
AcDbEntity
  8
SLD-0_0
  6
SLD-Solid
 62
   179
370
    15
100
AcDbLine
 10
462.3750591103
 20
1207.5091176796
 30
0.0
 11
462.8178471152
 21
1207.2187834549
 31
0.0
  0
LINE
  5
383
330
1F
100
AcDbEntity
  8
SLD-0_0
  6
SLD-Solid
 62
   179
370
    15
100
AcDbLine
 10
462.8178471152
 20
1207.2187834549
 30
0.0
 11
463.5163986508
 21
1206.9642716217
 31
0.0
  0
LINE
  5
384
330
1F
100
AcDbEntity
  8
SLD-0_0
  6
SLD-Solid
 62
   179
370
    15
100
AcDbLine
 10
463.5163986508
 20
1206.9642716217
 30
0.0
 11
464.4300633494
 21
1206.7605429458
 31
0.0
  0
LINE
  5
385
330
1F
100
AcDbEntity
  8
SLD-0_0
  6
SLD-Solid
 62
   179
370
    15
100
AcDbLine
 10
464.4300633494
 20
1206.7605429458
 30
0.0
 11
465.5056738679
 21
1206.6192799377
 31
0.0
  0
LINE
  5
386
330
1F
100
AcDbEntity
  8
SLD-0_0
  6
SLD-Solid
 62
   179
370
    15
100
AcDbLine
 10
465.5056738679
 20
1206.6192799377
 30
0.0
 11
466.6806453292
 21
1206.5488272476
 31
0.0
  0
LINE
  5
387
330
1F
100
AcDbEntity
  8
SLD-0_0
  6
SLD-Solid
 62
   179
370
    15
100
AcDbLine
 10
462.7564245288
 20
1207.6493674087
 30
0.0
 11
462.44139908
 21
1207.4492150116
 31
0.0
  0
LINE
  5
388
330
1F
100
AcDbEntity
  8
SLD-0_0
  6
SLD-Solid
 62
   179
370
    15
100
AcDbLine
 10
762.7564215485
 20
1208.4221416282
 30
0.0
 11
762.3434209649
 21
1208.1288271713
 31
0.0
  0
LINE
  5
389
330
1F
100
AcDbEntity
  8
SLD-0_0
  6
SLD-Solid
 62
   179
370
    15
100
AcDbLine
 10
762.3434209649
 20
1208.1288271713
 30
0.0
 11
762.2137808625
 21
1207.8184657859
 31
0.0
  0
LINE
  5
38A
330
1F
100
AcDbEntity
  8
SLD-0_0
  6
SLD-Solid
 62
   179
370
    15
100
AcDbLine
 10
762.2137808625
 20
1207.8184657859
 30
0.0
 11
762.3750486795
 21
1207.5091176796
 31
0.0
  0
LINE
  5
38B
330
1F
100
AcDbEntity
  8
SLD-0_0
  6
SLD-Solid
 62
   179
370
    15
100
AcDbLine
 10
762.3750486795
 20
1207.5091176796
 30
0.0
 11
762.817844135
 21
1207.2187834549
 31
0.0
  0
LINE
  5
38C
330
1F
100
AcDbEntity
  8
SLD-0_0
  6
SLD-Solid
 62
   179
370
    15
100
AcDbLine
 10
762.817844135
 20
1207.2187834549
 30
0.0
 11
763.5163956706
 21
1206.9642716217
 31
0.0
  0
LINE
  5
38D
330
1F
100
AcDbEntity
  8
SLD-0_0
  6
SLD-Solid
 62
   179
370
    15
100
AcDbLine
 10
763.5163956706
 20
1206.9642716217
 30
0.0
 11
764.4300529186
 21
1206.7605429458
 31
0.0
  0
LINE
  5
38E
330
1F
100
AcDbEntity
  8
SLD-0_0
  6
SLD-Solid
 62
   179
370
    15
100
AcDbLine
 10
764.4300529186
 20
1206.7605429458
 30
0.0
 11
765.5056708877
 21
1206.6192799377
 31
0.0
  0
LINE
  5
38F
330
1F
100
AcDbEntity
  8
SLD-0_0
  6
SLD-Solid
 62
   179
370
    15
100
AcDbLine
 10
765.5056708877
 20
1206.6192799377
 30
0.0
 11
766.6806423489
 21
1206.5488272476
 31
0.0
  0
LINE
  5
390
330
1F
100
AcDbEntity
  8
SLD-0_0
  6
SLD-Solid
 62
   179
370
    15
100
AcDbLine
 10
762.7564215485
 20
1207.6493674087
 30
0.0
 11
762.4413960997
 21
1207.4492150116
 31
0.0
  0
LINE
  5
391
330
1F
100
AcDbEntity
  8
SLD-0_0
  6
SLD-Solid
 62
   179
370
    15
100
AcDbLine
 10
862.7564155881
 20
1208.4221416282
 30
0.0
 11
862.3434150044
 21
1208.1288271713
 31
0.0
  0
LINE
  5
392
330
1F
100
AcDbEntity
  8
SLD-0_0
  6
SLD-Solid
 62
   179
370
    15
100
AcDbLine
 10
862.3434150044
 20
1208.1288271713
 30
0.0
 11
862.2137898032
 21
1207.8184657859
 31
0.0
  0
LINE
  5
393
330
1F
100
AcDbEntity
  8
SLD-0_0
  6
SLD-Solid
 62
   179
370
    15
100
AcDbLine
 10
862.2137898032
 20
1207.8184657859
 30
0.0
 11
862.3750501696
 21
1207.5091176796
 31
0.0
  0
LINE
  5
394
330
1F
100
AcDbEntity
  8
SLD-0_0
  6
SLD-Solid
 62
   179
370
    15
100
AcDbLine
 10
862.3750501696
 20
1207.5091176796
 30
0.0
 11
862.8178381745
 21
1207.2187834549
 31
0.0
  0
LINE
  5
395
330
1F
100
AcDbEntity
  8
SLD-0_0
  6
SLD-Solid
 62
   179
370
    15
100
AcDbLine
 10
862.8178381745
 20
1207.2187834549
 30
0.0
 11
863.5163897101
 21
1206.9642716217
 31
0.0
  0
LINE
  5
396
330
1F
100
AcDbEntity
  8
SLD-0_0
  6
SLD-Solid
 62
   179
370
    15
100
AcDbLine
 10
863.5163897101
 20
1206.9642716217
 30
0.0
 11
864.4300544087
 21
1206.7605429458
 31
0.0
  0
LINE
  5
397
330
1F
100
AcDbEntity
  8
SLD-0_0
  6
SLD-Solid
 62
   179
370
    15
100
AcDbLine
 10
864.4300544087
 20
1206.7605429458
 30
0.0
 11
865.5056649272
 21
1206.6192799377
 31
0.0
  0
LINE
  5
398
330
1F
100
AcDbEntity
  8
SLD-0_0
  6
SLD-Solid
 62
   179
370
    15
100
AcDbLine
 10
865.5056649272
 20
1206.6192799377
 30
0.0
 11
866.6806363885
 21
1206.5488272476
 31
0.0
  0
LINE
  5
399
330
1F
100
AcDbEntity
  8
SLD-0_0
  6
SLD-Solid
 62
   179
370
    15
100
AcDbLine
 10
862.7564155881
 20
1207.6493674087
 30
0.0
 11
862.4414050404
 21
1207.4492150116
 31
0.0
  0
LINE
  5
39A
330
1F
100
AcDbEntity
  8
SLD-0_0
  6
SLD-Solid
 62
   179
370
    15
100
AcDbLine
 10
962.7564245288
 20
1208.4221416282
 30
0.0
 11
962.3434239451
 21
1208.1288271713
 31
0.0
  0
LINE
  5
39B
330
1F
100
AcDbEntity
  8
SLD-0_0
  6
SLD-Solid
 62
   179
370
    15
100
AcDbLine
 10
962.3434239451
 20
1208.1288271713
 30
0.0
 11
962.2137838427
 21
1207.8184657859
 31
0.0
  0
LINE
  5
39C
330
1F
100
AcDbEntity
  8
SLD-0_0
  6
SLD-Solid
 62
   179
370
    15
100
AcDbLine
 10
962.2137838427
 20
1207.8184657859
 30
0.0
 11
962.3750442092
 21
1207.5091176796
 31
0.0
  0
LINE
  5
39D
330
1F
100
AcDbEntity
  8
SLD-0_0
  6
SLD-Solid
 62
   179
370
    15
100
AcDbLine
 10
962.3750442092
 20
1207.5091176796
 30
0.0
 11
962.8178471152
 21
1207.2187834549
 31
0.0
  0
LINE
  5
39E
330
1F
100
AcDbEntity
  8
SLD-0_0
  6
SLD-Solid
 62
   179
370
    15
100
AcDbLine
 10
962.8178471152
 20
1207.2187834549
 30
0.0
 11
963.5163837497
 21
1206.9642716217
 31
0.0
  0
LINE
  5
39F
330
1F
100
AcDbEntity
  8
SLD-0_0
  6
SLD-Solid
 62
   179
370
    15
100
AcDbLine
 10
963.5163837497
 20
1206.9642716217
 30
0.0
 11
964.4300633494
 21
1206.7605429458
 31
0.0
  0
LINE
  5
3A0
330
1F
100
AcDbEntity
  8
SLD-0_0
  6
SLD-Solid
 62
   179
370
    15
100
AcDbLine
 10
964.4300633494
 20
1206.7605429458
 30
0.0
 11
965.5056589667
 21
1206.6192799377
 31
0.0
  0
LINE
  5
3A1
330
1F
100
AcDbEntity
  8
SLD-0_0
  6
SLD-Solid
 62
   179
370
    15
100
AcDbLine
 10
965.5056589667
 20
1206.6192799377
 30
0.0
 11
966.6806453292
 21
1206.5488272476
 31
0.0
  0
LINE
  5
3A2
330
1F
100
AcDbEntity
  8
SLD-0_0
  6
SLD-Solid
 62
   179
370
    15
100
AcDbLine
 10
962.7564245288
 20
1207.6493674087
 30
0.0
 11
962.4414139811
 21
1207.4492150116
 31
0.0
  0
LINE
  5
3A3
330
1F
100
AcDbEntity
  8
SLD-0_0
  6
SLD-Solid
 62
   179
370
    15
100
AcDbLine
 10
750.4517802421
 20
1207.2490626143
 30
0.0
 11
760.3670352523
 21
1212.296026306
 31
0.0
  0
LINE
  5
3A4
330
1F
100
AcDbEntity
  8
SLD-0_0
  6
SLD-Solid
 62
   179
370
    15
100
AcDbLine
 10
760.3670352523
 20
1212.296026306
 30
0.0
 11
760.7947134797
 21
1212.6061492728
 31
0.0
  0
LINE
  5
3A5
330
1F
100
AcDbEntity
  8
SLD-0_0
  6
SLD-Solid
 62
   179
370
    15
100
AcDbLine
 10
760.7947134797
 20
1212.6061492728
 30
0.0
 11
760.9061294619
 21
1212.934153633
 31
0.0
  0
LINE
  5
3A6
330
1F
100
AcDbEntity
  8
SLD-0_0
  6
SLD-Solid
 62
   179
370
    15
100
AcDbLine
 10
760.9061294619
 20
1212.934153633
 30
0.0
 11
760.6940486853
 21
1213.2588797377
 31
0.0
  0
LINE
  5
3A7
330
1F
100
AcDbEntity
  8
SLD-0_0
  6
SLD-Solid
 62
   179
370
    15
100
AcDbLine
 10
760.6940486853
 20
1213.2588797377
 30
0.0
 11
760.1722174708
 21
1213.5591679381
 31
0.0
  0
LINE
  5
3A8
330
1F
100
AcDbEntity
  8
SLD-0_0
  6
SLD-Solid
 62
   179
370
    15
100
AcDbLine
 10
760.1722174708
 20
1213.5591679381
 30
0.0
 11
759.3744167511
 21
1213.8157063292
 31
0.0
  0
LINE
  5
3A9
330
1F
100
AcDbEntity
  8
SLD-0_0
  6
SLD-Solid
 62
   179
370
    15
100
AcDbLine
 10
759.3744167511
 20
1213.8157063292
 30
0.0
 11
758.3523014013
 21
1214.0117460059
 31
0.0
  0
LINE
  5
3AA
330
1F
100
AcDbEntity
  8
SLD-0_0
  6
SLD-Solid
 62
   179
370
    15
100
AcDbLine
 10
758.3523014013
 20
1214.0117460059
 30
0.0
 11
757.1720623795
 21
1214.1347699927
 31
0.0
  0
LINE
  5
3AB
330
1F
100
AcDbEntity
  8
SLD-0_0
  6
SLD-Solid
 62
   179
370
    15
100
AcDbLine
 10
757.1720623795
 20
1214.1347699927
 30
0.0
 11
755.9101053898
 21
1214.176672058
 31
0.0
  0
LINE
  5
3AC
330
1F
100
AcDbEntity
  8
SLD-0_0
  6
SLD-Solid
 62
   179
370
    15
100
AcDbLine
 10
755.9101053898
 20
1214.176672058
 30
0.0
 11
677.1286012058
 21
1214.176672058
 31
0.0
  0
LINE
  5
3AD
330
1F
100
AcDbEntity
  8
SLD-0_0
  6
SLD-Solid
 62
   179
370
    15
100
AcDbLine
 10
672.6716750686
 20
1213.4691053199
 30
0.0
 11
662.7564219211
 21
1208.4221416282
 31
0.0
  0
LINE
  5
3AE
330
1F
100
AcDbEntity
  8
SLD-0_0
  6
SLD-Solid
 62
   179
370
    15
100
AcDbLine
 10
650.451777355
 20
1207.2490626143
 30
0.0
 11
660.3670318995
 21
1212.296026306
 31
0.0
  0
LINE
  5
3AF
330
1F
100
AcDbEntity
  8
SLD-0_0
  6
SLD-Solid
 62
   179
370
    15
100
AcDbLine
 10
660.3670318995
 20
1212.296026306
 30
0.0
 11
660.7947175775
 21
1212.6061492728
 31
0.0
  0
LINE
  5
3B0
330
1F
100
AcDbEntity
  8
SLD-0_0
  6
SLD-Solid
 62
   179
370
    15
100
AcDbLine
 10
660.7947175775
 20
1212.6061492728
 30
0.0
 11
660.9061279718
 21
1212.934153633
 31
0.0
  0
LINE
  5
3B1
330
1F
100
AcDbEntity
  8
SLD-0_0
  6
SLD-Solid
 62
   179
370
    15
100
AcDbLine
 10
660.9061279718
 20
1212.934153633
 30
0.0
 11
660.6940490578
 21
1213.2588797377
 31
0.0
  0
LINE
  5
3B2
330
1F
100
AcDbEntity
  8
SLD-0_0
  6
SLD-Solid
 62
   179
370
    15
100
AcDbLine
 10
660.6940490578
 20
1213.2588797377
 30
0.0
 11
660.1722159807
 21
1213.5591679381
 31
0.0
  0
LINE
  5
3B3
330
1F
100
AcDbEntity
  8
SLD-0_0
  6
SLD-Solid
 62
   179
370
    15
100
AcDbLine
 10
660.1722159807
 20
1213.5591679381
 30
0.0
 11
659.374415261
 21
1213.8157063292
 31
0.0
  0
LINE
  5
3B4
330
1F
100
AcDbEntity
  8
SLD-0_0
  6
SLD-Solid
 62
   179
370
    15
100
AcDbLine
 10
659.374415261
 20
1213.8157063292
 30
0.0
 11
658.3523017738
 21
1214.0117460059
 31
0.0
  0
LINE
  5
3B5
330
1F
100
AcDbEntity
  8
SLD-0_0
  6
SLD-Solid
 62
   179
370
    15
100
AcDbLine
 10
658.3523017738
 20
1214.0117460059
 30
0.0
 11
657.1720590268
 21
1214.1347699927
 31
0.0
  0
LINE
  5
3B6
330
1F
100
AcDbEntity
  8
SLD-0_0
  6
SLD-Solid
 62
   179
370
    15
100
AcDbLine
 10
657.1720590268
 20
1214.1347699927
 30
0.0
 11
655.9101057623
 21
1214.176672058
 31
0.0
  0
LINE
  5
3B7
330
1F
100
AcDbEntity
  8
SLD-0_0
  6
SLD-Solid
 62
   179
370
    15
100
AcDbLine
 10
655.9101057623
 20
1214.176672058
 30
0.0
 11
577.1286034409
 21
1214.176672058
 31
0.0
  0
LINE
  5
3B8
330
1F
100
AcDbEntity
  8
SLD-0_0
  6
SLD-Solid
 62
   179
370
    15
100
AcDbLine
 10
572.6716735785
 20
1213.4691053199
 30
0.0
 11
562.7564185683
 21
1208.4221416282
 31
0.0
  0
LINE
  5
3B9
330
1F
100
AcDbEntity
  8
SLD-0_0
  6
SLD-Solid
 62
   179
370
    15
100
AcDbLine
 10
550.4517772619
 20
1207.2490626143
 30
0.0
 11
560.367032272
 21
1212.296026306
 31
0.0
  0
LINE
  5
3BA
330
1F
100
AcDbEntity
  8
SLD-0_0
  6
SLD-Solid
 62
   179
370
    15
100
AcDbLine
 10
560.367032272
 20
1212.296026306
 30
0.0
 11
560.79471795
 21
1212.6061492728
 31
0.0
  0
LINE
  5
3BB
330
1F
100
AcDbEntity
  8
SLD-0_0
  6
SLD-Solid
 62
   179
370
    15
100
AcDbLine
 10
560.79471795
 20
1212.6061492728
 30
0.0
 11
560.9061264817
 21
1212.934153633
 31
0.0
  0
LINE
  5
3BC
330
1F
100
AcDbEntity
  8
SLD-0_0
  6
SLD-Solid
 62
   179
370
    15
100
AcDbLine
 10
560.9061264817
 20
1212.934153633
 30
0.0
 11
560.6940531556
 21
1213.2588797377
 31
0.0
  0
LINE
  5
3BD
330
1F
100
AcDbEntity
  8
SLD-0_0
  6
SLD-Solid
 62
   179
370
    15
100
AcDbLine
 10
560.6940531556
 20
1213.2588797377
 30
0.0
 11
560.1722144906
 21
1213.5591679381
 31
0.0
  0
LINE
  5
3BE
330
1F
100
AcDbEntity
  8
SLD-0_0
  6
SLD-Solid
 62
   179
370
    15
100
AcDbLine
 10
560.1722144906
 20
1213.5591679381
 30
0.0
 11
559.3744137709
 21
1213.8157063292
 31
0.0
  0
LINE
  5
3BF
330
1F
100
AcDbEntity
  8
SLD-0_0
  6
SLD-Solid
 62
   179
370
    15
100
AcDbLine
 10
559.3744137709
 20
1213.8157063292
 30
0.0
 11
558.3522984211
 21
1214.0117460059
 31
0.0
  0
LINE
  5
3C0
330
1F
100
AcDbEntity
  8
SLD-0_0
  6
SLD-Solid
 62
   179
370
    15
100
AcDbLine
 10
558.3522984211
 20
1214.0117460059
 30
0.0
 11
557.1720593993
 21
1214.1347699927
 31
0.0
  0
LINE
  5
3C1
330
1F
100
AcDbEntity
  8
SLD-0_0
  6
SLD-Solid
 62
   179
370
    15
100
AcDbLine
 10
557.1720593993
 20
1214.1347699927
 30
0.0
 11
555.9101024095
 21
1214.176672058
 31
0.0
  0
LINE
  5
3C2
330
1F
100
AcDbEntity
  8
SLD-0_0
  6
SLD-Solid
 62
   179
370
    15
100
AcDbLine
 10
555.9101024095
 20
1214.176672058
 30
0.0
 11
477.1285945002
 21
1214.176672058
 31
0.0
  0
LINE
  5
3C3
330
1F
100
AcDbEntity
  8
SLD-0_0
  6
SLD-Solid
 62
   179
370
    15
100
AcDbLine
 10
472.6716720883
 20
1213.4691053199
 30
0.0
 11
462.7564245288
 21
1208.4221416282
 31
0.0
  0
LINE
  5
3C4
330
1F
100
AcDbEntity
  8
SLD-0_0
  6
SLD-Solid
 62
   179
370
    15
100
AcDbLine
 10
450.4517757718
 20
1207.2490626143
 30
0.0
 11
460.3670382325
 21
1212.296026306
 31
0.0
  0
LINE
  5
3C5
330
1F
100
AcDbEntity
  8
SLD-0_0
  6
SLD-Solid
 62
   179
370
    15
100
AcDbLine
 10
460.3670382325
 20
1212.296026306
 30
0.0
 11
460.7947164599
 21
1212.6061492728
 31
0.0
  0
LINE
  5
3C6
330
1F
100
AcDbEntity
  8
SLD-0_0
  6
SLD-Solid
 62
   179
370
    15
100
AcDbLine
 10
460.7947164599
 20
1212.6061492728
 30
0.0
 11
460.9061324422
 21
1212.934153633
 31
0.0
  0
LINE
  5
3C7
330
1F
100
AcDbEntity
  8
SLD-0_0
  6
SLD-Solid
 62
   179
370
    15
100
AcDbLine
 10
460.9061324422
 20
1212.934153633
 30
0.0
 11
460.6940442149
 21
1213.2588797377
 31
0.0
  0
LINE
  5
3C8
330
1F
100
AcDbEntity
  8
SLD-0_0
  6
SLD-Solid
 62
   179
370
    15
100
AcDbLine
 10
460.6940442149
 20
1213.2588797377
 30
0.0
 11
460.1722204511
 21
1213.5591679381
 31
0.0
  0
LINE
  5
3C9
330
1F
100
AcDbEntity
  8
SLD-0_0
  6
SLD-Solid
 62
   179
370
    15
100
AcDbLine
 10
460.1722204511
 20
1213.5591679381
 30
0.0
 11
459.3744122807
 21
1213.8157063292
 31
0.0
  0
LINE
  5
3CA
330
1F
100
AcDbEntity
  8
SLD-0_0
  6
SLD-Solid
 62
   179
370
    15
100
AcDbLine
 10
459.3744122807
 20
1213.8157063292
 30
0.0
 11
458.352296931
 21
1214.0117460059
 31
0.0
  0
LINE
  5
3CB
330
1F
100
AcDbEntity
  8
SLD-0_0
  6
SLD-Solid
 62
   179
370
    15
100
AcDbLine
 10
458.352296931
 20
1214.0117460059
 30
0.0
 11
457.1720653598
 21
1214.1347699927
 31
0.0
  0
LINE
  5
3CC
330
1F
100
AcDbEntity
  8
SLD-0_0
  6
SLD-Solid
 62
   179
370
    15
100
AcDbLine
 10
457.1720653598
 20
1214.1347699927
 30
0.0
 11
455.9101009194
 21
1214.176672058
 31
0.0
  0
LINE
  5
3CD
330
1F
100
AcDbEntity
  8
SLD-0_0
  6
SLD-Solid
 62
   179
370
    15
100
AcDbLine
 10
455.9101009194
 20
1214.176672058
 30
0.0
 11
377.1286004607
 21
1214.176672058
 31
0.0
  0
LINE
  5
3CE
330
1F
100
AcDbEntity
  8
SLD-0_0
  6
SLD-Solid
 62
   179
370
    15
100
AcDbLine
 10
372.6716631476
 20
1213.4691053199
 30
0.0
 11
362.7564304892
 21
1208.4221416282
 31
0.0
  0
LINE
  5
3CF
330
1F
100
AcDbEntity
  8
SLD-0_0
  6
SLD-Solid
 62
   179
370
    15
100
AcDbLine
 10
350.4517668311
 20
1207.2490626144
 30
0.0
 11
360.3670292918
 21
1212.2960263061
 31
0.0
  0
LINE
  5
3D0
330
1F
100
AcDbEntity
  8
SLD-0_0
  6
SLD-Solid
 62
   179
370
    15
100
AcDbLine
 10
360.3670292918
 20
1212.2960263061
 30
0.0
 11
360.7947224204
 21
1212.6061492729
 31
0.0
  0
LINE
  5
3D1
330
1F
100
AcDbEntity
  8
SLD-0_0
  6
SLD-Solid
 62
   179
370
    15
100
AcDbLine
 10
360.7947224204
 20
1212.6061492729
 30
0.0
 11
360.9061235015
 21
1212.9341536331
 31
0.0
  0
LINE
  5
3D2
330
1F
100
AcDbEntity
  8
SLD-0_0
  6
SLD-Solid
 62
   179
370
    15
100
AcDbLine
 10
360.9061235015
 20
1212.9341536331
 30
0.0
 11
360.6940501754
 21
1213.2588797378
 31
0.0
  0
LINE
  5
3D3
330
1F
100
AcDbEntity
  8
SLD-0_0
  6
SLD-Solid
 62
   179
370
    15
100
AcDbLine
 10
360.6940501754
 20
1213.2588797378
 30
0.0
 11
360.1722115104
 21
1213.5591679382
 31
0.0
  0
LINE
  5
3D4
330
1F
100
AcDbEntity
  8
SLD-0_0
  6
SLD-Solid
 62
   179
370
    15
100
AcDbLine
 10
360.1722115104
 20
1213.5591679382
 30
0.0
 11
359.37440334
 21
1213.8157063293
 31
0.0
  0
LINE
  5
3D5
330
1F
100
AcDbEntity
  8
SLD-0_0
  6
SLD-Solid
 62
   179
370
    15
100
AcDbLine
 10
359.37440334
 20
1213.8157063293
 30
0.0
 11
358.3523028914
 21
1214.011746006
 31
0.0
  0
LINE
  5
3D6
330
1F
100
AcDbEntity
  8
SLD-0_0
  6
SLD-Solid
 62
   179
370
    15
100
AcDbLine
 10
358.3523028914
 20
1214.011746006
 30
0.0
 11
357.1720713202
 21
1214.1347699928
 31
0.0
  0
LINE
  5
3D7
330
1F
100
AcDbEntity
  8
SLD-0_0
  6
SLD-Solid
 62
   179
370
    15
100
AcDbLine
 10
357.1720713202
 20
1214.1347699928
 30
0.0
 11
355.9100919787
 21
1214.1766720581
 31
0.0
  0
LINE
  5
3D8
330
1F
100
AcDbEntity
  8
SLD-0_0
  6
SLD-Solid
 62
   179
370
    15
100
AcDbLine
 10
355.9100919787
 20
1214.1766720581
 30
0.0
 11
286.5617269103
 21
1214.1766720581
 31
0.0
  0
LINE
  5
3D9
330
1F
100
AcDbEntity
  8
SLD-0_0
  6
SLD-Solid
 62
   179
370
    15
100
AcDbLine
 10
286.5617269103
 20
1214.1766720581
 30
0.0
 11
285.5862670962
 21
1214.1517573166
 31
0.0
  0
LINE
  5
3DA
330
1F
100
AcDbEntity
  8
SLD-0_0
  6
SLD-Solid
 62
   179
370
    15
100
AcDbLine
 10
285.5862670962
 20
1214.1517573166
 30
0.0
 11
284.6482986037
 21
1214.0781455803
 31
0.0
  0
LINE
  5
3DB
330
1F
100
AcDbEntity
  8
SLD-0_0
  6
SLD-Solid
 62
   179
370
    15
100
AcDbLine
 10
284.6482986037
 20
1214.0781455803
 30
0.0
 11
283.7838822429
 21
1213.9585786628
 31
0.0
  0
LINE
  5
3DC
330
1F
100
AcDbEntity
  8
SLD-0_0
  6
SLD-Solid
 62
   179
370
    15
100
AcDbLine
 10
283.7838822429
 20
1213.9585786628
 30
0.0
 11
283.0261879985
 21
1213.7975865173
 31
0.0
  0
LINE
  5
3DD
330
1F
100
AcDbEntity
  8
SLD-0_0
  6
SLD-Solid
 62
   179
370
    15
100
AcDbLine
 10
283.0261879985
 20
1213.7975865173
 30
0.0
 11
282.4043923442
 21
1213.601487236
 31
0.0
  0
LINE
  5
3DE
330
1F
100
AcDbEntity
  8
SLD-0_0
  6
SLD-Solid
 62
   179
370
    15
100
AcDbLine
 10
282.4043923442
 20
1213.601487236
 30
0.0
 11
281.9423371379
 21
1213.3777910041
 31
0.0
  0
LINE
  5
3DF
330
1F
100
AcDbEntity
  8
SLD-0_0
  6
SLD-Solid
 62
   179
370
    15
100
AcDbLine
 10
281.9423371379
 20
1213.3777910041
 30
0.0
 11
281.657814366
 21
1213.135021286
 31
0.0
  0
LINE
  5
3E0
330
1F
100
AcDbEntity
  8
SLD-0_0
  6
SLD-Solid
 62
   179
370
    15
100
AcDbLine
 10
281.657814366
 20
1213.135021286
 30
0.0
 11
281.5617316787
 21
1212.8825360107
 31
0.0
  0
LINE
  5
3E1
330
1F
100
AcDbEntity
  8
SLD-0_0
  6
SLD-Solid
 62
   179
370
    15
100
AcDbLine
 10
281.5617316787
 20
1212.8825360107
 30
0.0
 11
281.5617316787
 21
1207.835572319
 31
0.0
  0
LINE
  5
3E2
330
1F
100
AcDbEntity
  8
SLD-0_0
  6
SLD-Solid
 62
   179
370
    15
100
AcDbLine
 10
261.5617209498
 20
1215.4707485008
 30
0.0
 11
261.5617209498
 21
1206.5488272476
 31
0.0
  0
LINE
  5
3E3
330
1F
100
AcDbEntity
  8
SLD-0_0
  6
SLD-Solid
 62
   179
370
    15
100
AcDbLine
 10
1161.5617269103
 20
1215.4707485008
 30
0.0
 11
1161.5617269103
 21
1206.5488272476
 31
0.0
  0
LINE
  5
3E4
330
1F
100
AcDbEntity
  8
SLD-0_0
  6
SLD-Solid
 62
   179
370
    15
100
AcDbLine
 10
1141.5617161815
 20
1207.835572319
 30
0.0
 11
1141.5617161815
 21
1212.8825360107
 31
0.0
  0
LINE
  5
3E5
330
1F
100
AcDbEntity
  8
SLD-0_0
  6
SLD-Solid
 62
   179
370
    15
100
AcDbLine
 10
1141.5617161815
 20
1212.8825360107
 30
0.0
 11
1141.4656632964
 21
1213.135021286
 31
0.0
  0
LINE
  5
3E6
330
1F
100
AcDbEntity
  8
SLD-0_0
  6
SLD-Solid
 62
   179
370
    15
100
AcDbLine
 10
1141.4656632964
 20
1213.135021286
 30
0.0
 11
1141.1811107222
 21
1213.3777910041
 31
0.0
  0
LINE
  5
3E7
330
1F
100
AcDbEntity
  8
SLD-0_0
  6
SLD-Solid
 62
   179
370
    15
100
AcDbLine
 10
1141.1811107222
 20
1213.3777910041
 30
0.0
 11
1140.7190853183
 21
1213.601487236
 31
0.0
  0
LINE
  5
3E8
330
1F
100
AcDbEntity
  8
SLD-0_0
  6
SLD-Solid
 62
   179
370
    15
100
AcDbLine
 10
1140.7190853183
 20
1213.601487236
 30
0.0
 11
1140.0972598617
 21
1213.7975865173
 31
0.0
  0
LINE
  5
3E9
330
1F
100
AcDbEntity
  8
SLD-0_0
  6
SLD-Solid
 62
   179
370
    15
100
AcDbLine
 10
1140.0972598617
 20
1213.7975865173
 30
0.0
 11
1139.3395656173
 21
1213.9585786628
 31
0.0
  0
LINE
  5
3EA
330
1F
100
AcDbEntity
  8
SLD-0_0
  6
SLD-Solid
 62
   179
370
    15
100
AcDbLine
 10
1139.3395656173
 20
1213.9585786628
 30
0.0
 11
1138.4751492564
 21
1214.0781455803
 31
0.0
  0
LINE
  5
3EB
330
1F
100
AcDbEntity
  8
SLD-0_0
  6
SLD-Solid
 62
   179
370
    15
100
AcDbLine
 10
1138.4751492564
 20
1214.0781455803
 30
0.0
 11
1137.5371807639
 21
1214.1517573166
 31
0.0
  0
LINE
  5
3EC
330
1F
100
AcDbEntity
  8
SLD-0_0
  6
SLD-Solid
 62
   179
370
    15
100
AcDbLine
 10
1137.5371807639
 20
1214.1517573166
 30
0.0
 11
1136.5617209498
 21
1214.1766720581
 31
0.0
  0
LINE
  5
3ED
330
1F
100
AcDbEntity
  8
SLD-0_0
  6
SLD-Solid
 62
   179
370
    15
100
AcDbLine
 10
1136.5617209498
 20
1214.1766720581
 30
0.0
 11
1077.1285885398
 21
1214.1766720581
 31
0.0
  0
LINE
  5
3EE
330
1F
100
AcDbEntity
  8
SLD-0_0
  6
SLD-Solid
 62
   179
370
    15
100
AcDbLine
 10
1072.671681029
 20
1213.46910532
 30
0.0
 11
1062.7564185683
 21
1208.4221416282
 31
0.0
  0
LINE
  5
3EF
330
1F
100
AcDbEntity
  8
SLD-0_0
  6
SLD-Solid
 62
   179
370
    15
100
AcDbLine
 10
1050.4517847125
 20
1207.2490626143
 30
0.0
 11
1060.3670173709
 21
1212.296026306
 31
0.0
  0
LINE
  5
3F0
330
1F
100
AcDbEntity
  8
SLD-0_0
  6
SLD-Solid
 62
   179
370
    15
100
AcDbLine
 10
1060.3670173709
 20
1212.296026306
 30
0.0
 11
1060.7947104995
 21
1212.6061492728
 31
0.0
  0
LINE
  5
3F1
330
1F
100
AcDbEntity
  8
SLD-0_0
  6
SLD-Solid
 62
   179
370
    15
100
AcDbLine
 10
1060.7947104995
 20
1212.6061492728
 30
0.0
 11
1060.9061413829
 21
1212.934153633
 31
0.0
  0
LINE
  5
3F2
330
1F
100
AcDbEntity
  8
SLD-0_0
  6
SLD-Solid
 62
   179
370
    15
100
AcDbLine
 10
1060.9061413829
 20
1212.934153633
 30
0.0
 11
1060.6940382544
 21
1213.2588797377
 31
0.0
  0
LINE
  5
3F3
330
1F
100
AcDbEntity
  8
SLD-0_0
  6
SLD-Solid
 62
   179
370
    15
100
AcDbLine
 10
1060.6940382544
 20
1213.2588797377
 30
0.0
 11
1060.1722293918
 21
1213.5591679381
 31
0.0
  0
LINE
  5
3F4
330
1F
100
AcDbEntity
  8
SLD-0_0
  6
SLD-Solid
 62
   179
370
    15
100
AcDbLine
 10
1060.1722293918
 20
1213.5591679381
 30
0.0
 11
1059.3744212214
 21
1213.8157063292
 31
0.0
  0
LINE
  5
3F5
330
1F
100
AcDbEntity
  8
SLD-0_0
  6
SLD-Solid
 62
   179
370
    15
100
AcDbLine
 10
1059.3744212214
 20
1213.8157063292
 30
0.0
 11
1058.3522909705
 21
1214.0117460059
 31
0.0
  0
LINE
  5
3F6
330
1F
100
AcDbEntity
  8
SLD-0_0
  6
SLD-Solid
 62
   179
370
    15
100
AcDbLine
 10
1058.3522909705
 20
1214.0117460059
 30
0.0
 11
1057.1720593993
 21
1214.1347699927
 31
0.0
  0
LINE
  5
3F7
330
1F
100
AcDbEntity
  8
SLD-0_0
  6
SLD-Solid
 62
   179
370
    15
100
AcDbLine
 10
1057.1720593993
 20
1214.1347699927
 30
0.0
 11
1055.9101098601
 21
1214.176672058
 31
0.0
  0
LINE
  5
3F8
330
1F
100
AcDbEntity
  8
SLD-0_0
  6
SLD-Solid
 62
   179
370
    15
100
AcDbLine
 10
1055.9101098601
 20
1214.176672058
 30
0.0
 11
977.1285945002
 21
1214.176672058
 31
0.0
  0
LINE
  5
3F9
330
1F
100
AcDbEntity
  8
SLD-0_0
  6
SLD-Solid
 62
   179
370
    15
100
AcDbLine
 10
972.6716869895
 20
1213.4691053199
 30
0.0
 11
962.7564245288
 21
1208.4221416282
 31
0.0
  0
LINE
  5
3FA
330
1F
100
AcDbEntity
  8
SLD-0_0
  6
SLD-Solid
 62
   179
370
    15
100
AcDbLine
 10
950.451790673
 20
1207.2490626144
 30
0.0
 11
960.3670233313
 21
1212.2960263061
 31
0.0
  0
LINE
  5
3FB
330
1F
100
AcDbEntity
  8
SLD-0_0
  6
SLD-Solid
 62
   179
370
    15
100
AcDbLine
 10
960.3670233313
 20
1212.2960263061
 30
0.0
 11
960.7947164599
 21
1212.6061492729
 31
0.0
  0
LINE
  5
3FC
330
1F
100
AcDbEntity
  8
SLD-0_0
  6
SLD-Solid
 62
   179
370
    15
100
AcDbLine
 10
960.7947164599
 20
1212.6061492729
 30
0.0
 11
960.906117541
 21
1212.9341536331
 31
0.0
  0
LINE
  5
3FD
330
1F
100
AcDbEntity
  8
SLD-0_0
  6
SLD-Solid
 62
   179
370
    15
100
AcDbLine
 10
960.906117541
 20
1212.9341536331
 30
0.0
 11
960.6940442149
 21
1213.2588797378
 31
0.0
  0
LINE
  5
3FE
330
1F
100
AcDbEntity
  8
SLD-0_0
  6
SLD-Solid
 62
   179
370
    15
100
AcDbLine
 10
960.6940442149
 20
1213.2588797378
 30
0.0
 11
960.1722055499
 21
1213.5591679382
 31
0.0
  0
LINE
  5
3FF
330
1F
100
AcDbEntity
  8
SLD-0_0
  6
SLD-Solid
 62
   179
370
    15
100
AcDbLine
 10
960.1722055499
 20
1213.5591679382
 30
0.0
 11
959.3744271819
 21
1213.8157063293
 31
0.0
  0
LINE
  5
400
330
1F
100
AcDbEntity
  8
SLD-0_0
  6
SLD-Solid
 62
   179
370
    15
100
AcDbLine
 10
959.3744271819
 20
1213.8157063293
 30
0.0
 11
958.352296931
 21
1214.011746006
 31
0.0
  0
LINE
  5
401
330
1F
100
AcDbEntity
  8
SLD-0_0
  6
SLD-Solid
 62
   179
370
    15
100
AcDbLine
 10
958.352296931
 20
1214.011746006
 30
0.0
 11
957.1720653598
 21
1214.1347699928
 31
0.0
  0
LINE
  5
402
330
1F
100
AcDbEntity
  8
SLD-0_0
  6
SLD-Solid
 62
   179
370
    15
100
AcDbLine
 10
957.1720653598
 20
1214.1347699928
 30
0.0
 11
955.9101158206
 21
1214.1766720581
 31
0.0
  0
LINE
  5
403
330
1F
100
AcDbEntity
  8
SLD-0_0
  6
SLD-Solid
 62
   179
370
    15
100
AcDbLine
 10
955.9101158206
 20
1214.1766720581
 30
0.0
 11
877.1286004607
 21
1214.1766720581
 31
0.0
  0
LINE
  5
404
330
1F
100
AcDbEntity
  8
SLD-0_0
  6
SLD-Solid
 62
   179
370
    15
100
AcDbLine
 10
872.6716780488
 20
1213.4691053199
 30
0.0
 11
862.7564155881
 21
1208.4221416282
 31
0.0
  0
LINE
  5
405
330
1F
100
AcDbEntity
  8
SLD-0_0
  6
SLD-Solid
 62
   179
370
    15
100
AcDbLine
 10
850.4517817323
 20
1207.2490626144
 30
0.0
 11
860.3670292918
 21
1212.2960263061
 31
0.0
  0
LINE
  5
406
330
1F
100
AcDbEntity
  8
SLD-0_0
  6
SLD-Solid
 62
   179
370
    15
100
AcDbLine
 10
860.3670292918
 20
1212.2960263061
 30
0.0
 11
860.7947224204
 21
1212.6061492729
 31
0.0
  0
LINE
  5
407
330
1F
100
AcDbEntity
  8
SLD-0_0
  6
SLD-Solid
 62
   179
370
    15
100
AcDbLine
 10
860.7947224204
 20
1212.6061492729
 30
0.0
 11
860.9061235015
 21
1212.9341536331
 31
0.0
  0
LINE
  5
408
330
1F
100
AcDbEntity
  8
SLD-0_0
  6
SLD-Solid
 62
   179
370
    15
100
AcDbLine
 10
860.9061235015
 20
1212.9341536331
 30
0.0
 11
860.6940501754
 21
1213.2588797378
 31
0.0
  0
LINE
  5
409
330
1F
100
AcDbEntity
  8
SLD-0_0
  6
SLD-Solid
 62
   179
370
    15
100
AcDbLine
 10
860.6940501754
 20
1213.2588797378
 30
0.0
 11
860.1722115104
 21
1213.5591679382
 31
0.0
  0
LINE
  5
40A
330
1F
100
AcDbEntity
  8
SLD-0_0
  6
SLD-Solid
 62
   179
370
    15
100
AcDbLine
 10
860.1722115104
 20
1213.5591679382
 30
0.0
 11
859.3744182412
 21
1213.8157063293
 31
0.0
  0
LINE
  5
40B
330
1F
100
AcDbEntity
  8
SLD-0_0
  6
SLD-Solid
 62
   179
370
    15
100
AcDbLine
 10
859.3744182412
 20
1213.8157063293
 30
0.0
 11
858.3523028914
 21
1214.011746006
 31
0.0
  0
LINE
  5
40C
330
1F
100
AcDbEntity
  8
SLD-0_0
  6
SLD-Solid
 62
   179
370
    15
100
AcDbLine
 10
858.3523028914
 20
1214.011746006
 30
0.0
 11
857.1720564191
 21
1214.1347699928
 31
0.0
  0
LINE
  5
40D
330
1F
100
AcDbEntity
  8
SLD-0_0
  6
SLD-Solid
 62
   179
370
    15
100
AcDbLine
 10
857.1720564191
 20
1214.1347699928
 30
0.0
 11
855.9101068799
 21
1214.1766720581
 31
0.0
  0
LINE
  5
40E
330
1F
100
AcDbEntity
  8
SLD-0_0
  6
SLD-Solid
 62
   179
370
    15
100
AcDbLine
 10
855.9101068799
 20
1214.1766720581
 30
0.0
 11
777.1286064212
 21
1214.1766720581
 31
0.0
  0
LINE
  5
40F
330
1F
100
AcDbEntity
  8
SLD-0_0
  6
SLD-Solid
 62
   179
370
    15
100
AcDbLine
 10
772.6716691081
 20
1213.4691053199
 30
0.0
 11
762.7564215485
 21
1208.4221416282
 31
0.0
  0
LINE
  5
410
330
1F
100
AcDbEntity
  8
SLD-0_0
  6
SLD-Solid
 62
   179
370
    15
100
AcDbLine
 10
372.6716631476
 20
1212.6963311004
 30
0.0
 11
362.7564304892
 21
1207.6493674087
 31
0.0
  0
LINE
  5
411
330
1F
100
AcDbEntity
  8
SLD-0_0
  6
SLD-Solid
 62
   179
370
    15
100
AcDbLine
 10
1072.671681029
 20
1212.6963311004
 30
0.0
 11
1062.7564185683
 21
1207.6493674087
 31
0.0
  0
LINE
  5
412
330
1F
100
AcDbEntity
  8
SLD-0_0
  6
SLD-Solid
 62
   179
370
    15
100
AcDbLine
 10
572.6716735784
 20
1212.6963311004
 30
0.0
 11
562.7564185683
 21
1207.6493674087
 31
0.0
  0
LINE
  5
413
330
1F
100
AcDbEntity
  8
SLD-0_0
  6
SLD-Solid
 62
   179
370
    15
100
AcDbLine
 10
672.6716750686
 20
1212.6963311004
 30
0.0
 11
662.7564219211
 21
1207.6493674087
 31
0.0
  0
LINE
  5
414
330
1F
100
AcDbEntity
  8
SLD-0_0
  6
SLD-Solid
 62
   179
370
    15
100
AcDbLine
 10
772.6716691081
 20
1212.6963311004
 30
0.0
 11
762.7564215485
 21
1207.6493674087
 31
0.0
  0
LINE
  5
415
330
1F
100
AcDbEntity
  8
SLD-0_0
  6
SLD-Solid
 62
   179
370
    15
100
AcDbLine
 10
872.6716780488
 20
1212.6963311004
 30
0.0
 11
862.7564155881
 21
1207.6493674087
 31
0.0
  0
LINE
  5
416
330
1F
100
AcDbEntity
  8
SLD-0_0
  6
SLD-Solid
 62
   179
370
    15
100
AcDbLine
 10
472.6716720883
 20
1212.6963311004
 30
0.0
 11
462.7564245288
 21
1207.6493674087
 31
0.0
  0
LINE
  5
417
330
1F
100
AcDbEntity
  8
SLD-0_0
  6
SLD-Solid
 62
   179
370
    15
100
AcDbLine
 10
972.6716869895
 20
1212.6963311004
 30
0.0
 11
962.7564245288
 21
1207.6493674087
 31
0.0
  0
LINE
  5
418
330
1F
100
AcDbEntity
  8
SLD-0_0
  6
SLD-Solid
 62
   179
370
    15
100
AcDbLine
 10
286.5617269103
 20
1213.4038978386
 30
0.0
 11
285.5862670962
 21
1213.3790427017
 31
0.0
  0
LINE
  5
419
330
1F
100
AcDbEntity
  8
SLD-0_0
  6
SLD-Solid
 62
   179
370
    15
100
AcDbLine
 10
285.5862670962
 20
1213.3790427017
 30
0.0
 11
284.6482986037
 21
1213.3053713607
 31
0.0
  0
LINE
  5
41A
330
1F
100
AcDbEntity
  8
SLD-0_0
  6
SLD-Solid
 62
   179
370
    15
100
AcDbLine
 10
284.6482986037
 20
1213.3053713607
 30
0.0
 11
283.7838822429
 21
1213.1858044433
 31
0.0
  0
LINE
  5
41B
330
1F
100
AcDbEntity
  8
SLD-0_0
  6
SLD-Solid
 62
   179
370
    15
100
AcDbLine
 10
283.7838822429
 20
1213.1858044433
 30
0.0
 11
283.0261879985
 21
1213.0248719024
 31
0.0
  0
LINE
  5
41C
330
1F
100
AcDbEntity
  8
SLD-0_0
  6
SLD-Solid
 62
   179
370
    15
100
AcDbLine
 10
283.0261879985
 20
1213.0248719024
 30
0.0
 11
282.4043923442
 21
1212.8287726211
 31
0.0
  0
LINE
  5
41D
330
1F
100
AcDbEntity
  8
SLD-0_0
  6
SLD-Solid
 62
   179
370
    15
100
AcDbLine
 10
282.4043923442
 20
1212.8287726211
 30
0.0
 11
281.9423371379
 21
1212.6050167846
 31
0.0
  0
LINE
  5
41E
330
1F
100
AcDbEntity
  8
SLD-0_0
  6
SLD-Solid
 62
   179
370
    15
100
AcDbLine
 10
281.9423371379
 20
1212.6050167846
 30
0.0
 11
281.657814366
 21
1212.3622470665
 31
0.0
  0
LINE
  5
41F
330
1F
100
AcDbEntity
  8
SLD-0_0
  6
SLD-Solid
 62
   179
370
    15
100
AcDbLine
 10
281.657814366
 20
1212.3622470665
 30
0.0
 11
281.5617316787
 21
1212.1098213958
 31
0.0
  0
LINE
  5
420
330
1F
100
AcDbEntity
  8
SLD-0_0
  6
SLD-Solid
 62
   179
370
    15
100
AcDbLine
 10
1141.5617161815
 20
1212.1098213957
 30
0.0
 11
1141.4656632964
 21
1212.3622470664
 31
0.0
  0
LINE
  5
421
330
1F
100
AcDbEntity
  8
SLD-0_0
  6
SLD-Solid
 62
   179
370
    15
100
AcDbLine
 10
1141.4656632964
 20
1212.3622470664
 30
0.0
 11
1141.1811107222
 21
1212.6050167845
 31
0.0
  0
LINE
  5
422
330
1F
100
AcDbEntity
  8
SLD-0_0
  6
SLD-Solid
 62
   179
370
    15
100
AcDbLine
 10
1141.1811107222
 20
1212.6050167845
 30
0.0
 11
1140.7190853183
 21
1212.828772621
 31
0.0
  0
LINE
  5
423
330
1F
100
AcDbEntity
  8
SLD-0_0
  6
SLD-Solid
 62
   179
370
    15
100
AcDbLine
 10
1140.7190853183
 20
1212.828772621
 30
0.0
 11
1140.0972598617
 21
1213.0248719023
 31
0.0
  0
LINE
  5
424
330
1F
100
AcDbEntity
  8
SLD-0_0
  6
SLD-Solid
 62
   179
370
    15
100
AcDbLine
 10
1140.0972598617
 20
1213.0248719023
 30
0.0
 11
1139.3395656173
 21
1213.1858044432
 31
0.0
  0
LINE
  5
425
330
1F
100
AcDbEntity
  8
SLD-0_0
  6
SLD-Solid
 62
   179
370
    15
100
AcDbLine
 10
1139.3395656173
 20
1213.1858044432
 30
0.0
 11
1138.4751492564
 21
1213.3053713606
 31
0.0
  0
LINE
  5
426
330
1F
100
AcDbEntity
  8
SLD-0_0
  6
SLD-Solid
 62
   179
370
    15
100
AcDbLine
 10
1138.4751492564
 20
1213.3053713606
 30
0.0
 11
1137.5371807639
 21
1213.3790427016
 31
0.0
  0
LINE
  5
427
330
1F
100
AcDbEntity
  8
SLD-0_0
  6
SLD-Solid
 62
   179
370
    15
100
AcDbLine
 10
1137.5371807639
 20
1213.3790427016
 30
0.0
 11
1136.5617209498
 21
1213.4038978385
 31
0.0
  0
LINE
  5
428
330
1F
100
AcDbEntity
  8
SLD-0_0
  6
SLD-Solid
 62
   179
370
    15
100
AcDbLine
 10
355.9100919787
 20
1213.4038978386
 30
0.0
 11
286.5617269103
 21
1213.4038978386
 31
0.0
  0
LINE
  5
429
330
1F
100
AcDbEntity
  8
SLD-0_0
  6
SLD-Solid
 62
   179
370
    15
100
AcDbLine
 10
1136.5617209498
 20
1213.4038978385
 30
0.0
 11
1077.1285885398
 21
1213.4038978385
 31
0.0
  0
LINE
  5
42A
330
1F
100
AcDbEntity
  8
SLD-0_0
  6
SLD-Solid
 62
   179
370
    15
100
AcDbLine
 10
455.9101009194
 20
1213.4038978385
 30
0.0
 11
377.1286004607
 21
1213.4038978385
 31
0.0
  0
LINE
  5
42B
330
1F
100
AcDbEntity
  8
SLD-0_0
  6
SLD-Solid
 62
   179
370
    15
100
AcDbLine
 10
655.9101057623
 20
1213.4038978386
 30
0.0
 11
577.128603441
 21
1213.4038978386
 31
0.0
  0
LINE
  5
42C
330
1F
100
AcDbEntity
  8
SLD-0_0
  6
SLD-Solid
 62
   179
370
    15
100
AcDbLine
 10
755.9101053897
 20
1213.4038978385
 30
0.0
 11
677.1286012058
 21
1213.4038978385
 31
0.0
  0
LINE
  5
42D
330
1F
100
AcDbEntity
  8
SLD-0_0
  6
SLD-Solid
 62
   179
370
    15
100
AcDbLine
 10
555.9101024096
 20
1213.4038978385
 30
0.0
 11
477.1285945003
 21
1213.4038978385
 31
0.0
  0
LINE
  5
42E
330
1F
100
AcDbEntity
  8
SLD-0_0
  6
SLD-Solid
 62
   179
370
    15
100
AcDbLine
 10
855.9101068799
 20
1213.4038978385
 30
0.0
 11
777.1286064212
 21
1213.4038978385
 31
0.0
  0
LINE
  5
42F
330
1F
100
AcDbEntity
  8
SLD-0_0
  6
SLD-Solid
 62
   179
370
    15
100
AcDbLine
 10
955.9101158205
 20
1213.4038978385
 30
0.0
 11
877.1286004608
 21
1213.4038978385
 31
0.0
  0
LINE
  5
430
330
1F
100
AcDbEntity
  8
SLD-0_0
  6
SLD-Solid
 62
   179
370
    15
100
AcDbLine
 10
1055.9101098601
 20
1213.4038978385
 30
0.0
 11
977.1285945002
 21
1213.4038978385
 31
0.0
  0
LINE
  5
431
330
1F
100
AcDbEntity
  8
SLD-0_0
  6
SLD-Solid
 62
   179
370
    15
100
AcDbLine
 10
1161.5617269103
 20
1215.5406051445
 30
0.0
 11
1161.5617269103
 21
1215.4707485008
 31
0.0
  0
LINE
  5
432
330
1F
100
AcDbEntity
  8
SLD-0_0
  6
SLD-Solid
 62
   179
370
    15
100
AcDbLine
 10
261.5617209498
 20
1215.5406051445
 30
0.0
 11
261.5617209498
 21
1215.4707485008
 31
0.0
  0
LINE
  5
433
330
1F
100
AcDbEntity
  8
SLD-0_0
  6
SLD-Solid
 62
   179
370
    15
100
AcDbLine
 10
1113.9117175166
 20
281.2111401128
 30
0.0
 11
1056.9117361133
 21
281.2111401128
 31
0.0
  0
LINE
  5
434
330
1F
100
AcDbEntity
  8
SLD-0_0
  6
SLD-Solid
 62
   179
370
    15
100
AcDbLine
 10
1111.9117134635
 20
275.2111428547
 30
0.0
 11
1058.9117401664
 21
275.2111428547
 31
0.0
  0
LINE
  5
435
330
1F
100
AcDbEntity
  8
SLD-0_0
  6
SLD-Solid
 62
   179
370
    15
100
AcDbLine
 10
363.9117266449
 20
275.2111365126
 30
0.0
 11
310.9117144172
 21
275.2111428547
 31
0.0
  0
LINE
  5
436
330
1F
100
AcDbEntity
  8
SLD-0_0
  6
SLD-Solid
 62
   179
370
    15
100
AcDbLine
 10
365.9117215697
 20
281.2111401128
 30
0.0
 11
308.9117401664
 21
281.2111401128
 31
0.0
  0
LINE
  5
437
330
1F
100
AcDbEntity
  8
SLD-0_0
  6
SLD-Solid
 62
   179
370
    15
100
AcDbLine
 10
382.411717755
 20
443.2111363987
 30
0.0
 11
382.411717755
 21
445.2111364937
 31
0.0
  0
LINE
  5
438
330
1F
100
AcDbEntity
  8
SLD-0_0
  6
SLD-Solid
 62
   179
370
    15
100
AcDbLine
 10
292.4117141787
 20
443.2111363987
 30
0.0
 11
382.411717755
 21
443.2111363987
 31
0.0
  0
LINE
  5
439
330
1F
100
AcDbEntity
  8
SLD-0_0
  6
SLD-Solid
 62
   179
370
    15
100
AcDbLine
 10
292.4117141787
 20
443.2111363987
 30
0.0
 11
292.4117141787
 21
445.2111364937
 31
0.0
  0
LINE
  5
43A
330
1F
100
AcDbEntity
  8
SLD-0_0
  6
SLD-Solid
 62
   179
370
    15
100
AcDbLine
 10
292.4117141787
 20
445.2111364937
 30
0.0
 11
382.411717755
 21
445.2111364937
 31
0.0
  0
LINE
  5
43B
330
1F
100
AcDbEntity
  8
SLD-0_0
  6
SLD-Solid
 62
   179
370
    15
100
AcDbLine
 10
368.371366841
 20
349.2111363577
 30
0.0
 11
306.4520650927
 21
349.2111363577
 31
0.0
  0
LINE
  5
43C
330
1F
100
AcDbEntity
  8
SLD-0_0
  6
SLD-Solid
 62
   179
370
    15
100
AcDbLine
 10
1040.4117399279
 20
443.2111363987
 30
0.0
 11
1130.4117137019
 21
443.2111363987
 31
0.0
  0
LINE
  5
43D
330
1F
100
AcDbEntity
  8
SLD-0_0
  6
SLD-Solid
 62
   179
370
    15
100
AcDbLine
 10
1040.4117399279
 20
445.2111364937
 30
0.0
 11
1130.4117137019
 21
445.2111364937
 31
0.0
  0
LINE
  5
43E
330
1F
100
AcDbEntity
  8
SLD-0_0
  6
SLD-Solid
 62
   179
370
    15
100
AcDbLine
 10
1040.4117399279
 20
443.2111363987
 30
0.0
 11
1040.4117399279
 21
445.2111364937
 31
0.0
  0
LINE
  5
43F
330
1F
100
AcDbEntity
  8
SLD-0_0
  6
SLD-Solid
 62
   179
370
    15
100
AcDbLine
 10
1130.4117137019
 20
443.2111363987
 30
0.0
 11
1130.4117137019
 21
445.2111364937
 31
0.0
  0
LINE
  5
440
330
1F
100
AcDbEntity
  8
SLD-0_0
  6
SLD-Solid
 62
   179
370
    15
100
AcDbLine
 10
1116.3713627879
 20
349.2111363577
 30
0.0
 11
1054.452090842
 21
349.2111363577
 31
0.0
  0
LINE
  5
441
330
1F
100
AcDbEntity
  8
SLD-0_0
  6
SLD-Solid
 62
   179
370
    15
100
AcDbLine
 10
1109.0617173736
 20
1113.7111359405
 30
0.0
 11
1110.2617376868
 21
1113.7111359405
 31
0.0
  0
LINE
  5
442
330
1F
100
AcDbEntity
  8
SLD-0_0
  6
SLD-Solid
 62
   179
370
    15
100
AcDbLine
 10
1109.0617173736
 20
1113.7111359405
 30
0.0
 11
1109.0617173736
 21
1116.7397671508
 31
0.0
  0
LINE
  5
443
330
1F
100
AcDbEntity
  8
SLD-0_0
  6
SLD-Solid
 62
   179
370
    15
100
AcDbLine
 10
1110.2617376868
 20
1113.7111359405
 30
0.0
 11
1110.2617376868
 21
1116.6309886741
 31
0.0
  0
LINE
  5
444
330
1F
100
AcDbEntity
  8
SLD-0_0
  6
SLD-Solid
 62
   179
370
    15
100
AcDbLine
 10
1109.0617173736
 20
1111.7111616897
 30
0.0
 11
1109.0617173736
 21
1113.7111359405
 31
0.0
  0
LINE
  5
445
330
1F
100
AcDbEntity
  8
SLD-0_0
  6
SLD-Solid
 62
   179
370
    15
100
AcDbLine
 10
1110.2617376868
 20
1113.7111359405
 30
0.0
 11
1110.2617376868
 21
1111.7111616897
 31
0.0
  0
LINE
  5
446
330
1F
100
AcDbEntity
  8
SLD-0_0
  6
SLD-Solid
 62
   179
370
    15
100
AcDbLine
 10
1109.0617173736
 20
1110.498803215
 30
0.0
 11
1109.0617173736
 21
1111.7111616897
 31
0.0
  0
LINE
  5
447
330
1F
100
AcDbEntity
  8
SLD-0_0
  6
SLD-Solid
 62
   179
370
    15
100
AcDbLine
 10
1110.2617376868
 20
1110.498803215
 30
0.0
 11
1110.2617376868
 21
1111.7111616897
 31
0.0
  0
LINE
  5
448
330
1F
100
AcDbEntity
  8
SLD-0_0
  6
SLD-Solid
 62
   179
370
    15
100
AcDbLine
 10
315.561740977
 20
1110.498803215
 30
0.0
 11
315.561740977
 21
1116.7497807312
 31
0.0
  0
LINE
  5
449
330
1F
100
AcDbEntity
  8
SLD-0_0
  6
SLD-Solid
 62
   179
370
    15
100
AcDbLine
 10
1107.5617366855
 20
1116.7497807312
 30
0.0
 11
1107.5617366855
 21
1110.498803215
 31
0.0
  0
LINE
  5
44A
330
1F
100
AcDbEntity
  8
SLD-0_0
  6
SLD-Solid
 62
   179
370
    15
100
AcDbLine
 10
312.8617399756
 20
1110.498803215
 30
0.0
 11
312.8617399756
 21
1116.6309886741
 31
0.0
  0
LINE
  5
44B
330
1F
100
AcDbEntity
  8
SLD-0_0
  6
SLD-Solid
 62
   179
370
    15
100
AcDbLine
 10
314.0617304866
 20
1110.498803215
 30
0.0
 11
314.0617304866
 21
1116.7397671508
 31
0.0
  0
LINE
  5
44C
330
1F
100
AcDbEntity
  8
SLD-0_0
  6
SLD-Center
 62
   179
370
     0
100
AcDbLine
 10
1085.4117266449
 20
276.9611365126
 30
0.0
 11
1085.4117266449
 21
560.9290746767
 31
0.0
  0
LINE
  5
44D
330
1F
100
AcDbEntity
  8
SLD-0_0
  6
SLD-Center
 62
   179
370
     0
100
AcDbLine
 10
337.4117266449
 20
275.2111365126
 30
0.0
 11
337.4117266449
 21
553.2529199484
 31
0.0
  0
ARC
  5
44E
330
1F
100
AcDbEntity
  8
SLD-0_0
  6
SLD-Solid
 62
   179
370
    15
100
AcDbCircle
 10
598.9269233837
 20
1069.8164892592
 30
0.0
 40
1.00000000000007
100
AcDbArc
 50
164.8756041223
 51
169.6983762009
  0
ARC
  5
44F
330
1F
100
AcDbEntity
  8
SLD-0_0
  6
SLD-Solid
 62
   179
370
    15
100
AcDbCircle
 10
620.1965299046
 20
1069.8164892592
 30
0.0
 40
0.999999999999958
100
AcDbArc
 50
10.3016237991
 51
15.1243958777
  0
ARC
  5
450
330
1F
100
AcDbEntity
  8
SLD-0_0
  6
SLD-Solid
 62
   179
370
    15
100
AcDbCircle
 10
609.0617266442
 20
1103.1997425002
 30
0.0
 40
1.000000000000069
100
AcDbArc
 50
180.0
 51
229.7562252183
  0
ARC
  5
451
330
1F
100
AcDbEntity
  8
SLD-0_0
  6
SLD-Solid
 62
   179
370
    15
100
AcDbCircle
 10
610.0617266442
 20
1103.1997425002
 30
0.0
 40
1.0
100
AcDbArc
 50
306.6480530193
 51
0.0
  0
ARC
  5
452
330
1F
100
AcDbEntity
  8
SLD-0_0
  6
SLD-Solid
 62
   179
370
    15
100
AcDbCircle
 10
1113.2362707544
 20
1113.1856806228
 30
0.0
 40
0.9745441101797496
100
AcDbArc
 50
180.0
 51
270.0
  0
ARC
  5
453
330
1F
100
AcDbEntity
  8
SLD-0_0
  6
SLD-Solid
 62
   179
370
    15
100
AcDbCircle
 10
1111.9117220808
 20
277.2111365126
 30
0.0
 40
1.999995435852441
100
AcDbArc
 50
270.0
 51
359.999870912
  0
ARC
  5
454
330
1F
100
AcDbEntity
  8
SLD-0_0
  6
SLD-Solid
 62
   179
370
    15
100
AcDbCircle
 10
1058.9117313791
 20
277.2111365126
 30
0.0
 40
1.999995265802568
100
AcDbArc
 50
180.000129088
 51
270.0
  0
ARC
  5
455
330
1F
100
AcDbEntity
  8
SLD-0_0
  6
SLD-Solid
 62
   179
370
    15
100
AcDbCircle
 10
363.9117266449
 20
277.2111365126
 30
0.0
 40
2.0
100
AcDbArc
 50
270.0
 51
0.0
  0
ARC
  5
456
330
1F
100
AcDbEntity
  8
SLD-0_0
  6
SLD-Solid
 62
   179
370
    15
100
AcDbCircle
 10
310.9117266449
 20
277.2111365126
 30
0.0
 40
2.0
100
AcDbArc
 50
180.0
 51
270.0
  0
ARC
  5
457
330
1F
100
AcDbEntity
  8
SLD-0_0
  6
SLD-Solid
 62
   179
370
    15
100
AcDbCircle
 10
370.8117337221
 20
441.711135927
 30
0.0
 40
1.5
100
AcDbArc
 50
90.0
 51
180.0
  0
ARC
  5
458
330
1F
100
AcDbEntity
  8
SLD-0_0
  6
SLD-Solid
 62
   179
370
    15
100
AcDbCircle
 10
304.0117266449
 20
441.7111365126
 30
0.0
 40
1.5
100
AcDbArc
 50
0.0
 51
90.0
  0
ARC
  5
459
330
1F
100
AcDbEntity
  8
SLD-0_0
  6
SLD-Solid
 62
   179
370
    15
100
AcDbCircle
 10
364.6117301593
 20
355.2437018727
 30
0.0
 40
4.699996437200325
100
AcDbArc
 50
350.5402980318
 51
359.999971296
  0
ARC
  5
45A
330
1F
100
AcDbEntity
  8
SLD-0_0
  6
SLD-Solid
 62
   179
370
    15
100
AcDbCircle
 10
310.2117266449
 20
355.2437024583
 30
0.0
 40
4.699999999999989
100
AcDbArc
 50
180.0
 51
189.4597019682
  0
ARC
  5
45B
330
1F
100
AcDbEntity
  8
SLD-0_0
  6
SLD-Solid
 62
   179
370
    15
100
AcDbCircle
 10
1118.8117266449
 20
441.7111365126
 30
0.0
 40
1.500000000000227
100
AcDbArc
 50
90.0
 51
180.0
  0
ARC
  5
45C
330
1F
100
AcDbEntity
  8
SLD-0_0
  6
SLD-Solid
 62
   179
370
    15
100
AcDbCircle
 10
1052.0117266449
 20
441.7111365126
 30
0.0
 40
1.5
100
AcDbArc
 50
0.0
 51
90.0
  0
ARC
  5
45D
330
1F
100
AcDbEntity
  8
SLD-0_0
  6
SLD-Solid
 62
   179
370
    15
100
AcDbCircle
 10
1112.6117266449
 20
355.2437024583
 30
0.0
 40
4.700000000000273
100
AcDbArc
 50
350.5402980318
 51
0.0
  0
ARC
  5
45E
330
1F
100
AcDbEntity
  8
SLD-0_0
  6
SLD-Solid
 62
   179
370
    15
100
AcDbCircle
 10
1058.2117266449
 20
355.2437024583
 30
0.0
 40
4.700000000000045
100
AcDbArc
 50
180.0
 51
189.4597019682
  0
ARC
  5
45F
330
1F
100
AcDbEntity
  8
SLD-0_0
  6
SLD-Solid
 62
   179
370
    15
100
AcDbCircle
 10
1122.9117266449
 20
800.5111365126
 30
0.0
 40
1.000000000000227
100
AcDbArc
 50
270.0
 51
0.0
  0
ARC
  5
460
330
1F
100
AcDbEntity
  8
SLD-0_0
  6
SLD-Solid
 62
   179
370
    15
100
AcDbCircle
 10
1114.9117220807
 20
800.5111365126
 30
0.0
 40
1.000004564151487
100
AcDbArc
 50
179.999857925
 51
270.0
  0
ARC
  5
461
330
1F
100
AcDbEntity
  8
SLD-0_0
  6
SLD-Solid
 62
   179
370
    15
100
AcDbCircle
 10
1122.9117220807
 20
838.5111410767
 30
0.0
 40
1.000000000000227
100
AcDbArc
 50
0.0
 51
90.0
  0
ARC
  5
462
330
1F
100
AcDbEntity
  8
SLD-0_0
  6
SLD-Solid
 62
   179
370
    15
100
AcDbCircle
 10
1114.9117220807
 20
838.5111365126
 30
0.0
 40
1.000004564174674
100
AcDbArc
 50
90.0
 51
180.0005682601
  0
ARC
  5
463
330
1F
100
AcDbEntity
  8
SLD-0_0
  6
SLD-Solid
 62
   179
370
    15
100
AcDbCircle
 10
263.6117332999
 20
986.1611300277
 30
0.0
 40
1.250006570317392
100
AcDbArc
 50
90.0003050732
 51
179.9997027557
  0
ARC
  5
464
330
1F
100
AcDbEntity
  8
SLD-0_0
  6
SLD-Solid
 62
   179
370
    15
100
AcDbCircle
 10
263.6117332999
 20
986.1611300277
 30
0.0
 40
2.050012350100023
100
AcDbArc
 50
90.0001860206
 51
180.0
  0
ARC
  5
465
330
1F
100
AcDbEntity
  8
SLD-0_0
  6
SLD-Solid
 62
   179
370
    15
100
AcDbCircle
 10
1159.5117266442
 20
986.1611365126
 30
0.0
 40
1.250000000000227
100
AcDbArc
 50
0.0
 51
90.0
  0
ARC
  5
466
330
1F
100
AcDbEntity
  8
SLD-0_0
  6
SLD-Solid
 62
   179
370
    15
100
AcDbCircle
 10
1159.5117266442
 20
986.1611365126
 30
0.0
 40
2.050000266110171
100
AcDbArc
 50
359.9998187525
 51
90.0
  0
ARC
  5
467
330
1F
100
AcDbEntity
  8
SLD-0_0
  6
SLD-Solid
 62
   179
370
    15
100
AcDbCircle
 10
284.3634071569
 20
1117.5751471592
 30
0.0
 40
3.442422686152271
100
AcDbArc
 50
240.2903357274
 51
273.3026005842
  0
ARC
  5
468
330
1F
100
AcDbEntity
  8
SLD-0_0
  6
SLD-Solid
 62
   179
370
    15
100
AcDbCircle
 10
284.7601014967
 20
1117.5748788909
 30
0.0
 40
3.442158490184443
100
AcDbArc
 50
266.6960962645
 51
299.710967424
  0
ARC
  5
469
330
1F
100
AcDbEntity
  8
SLD-0_0
  6
SLD-Solid
 62
   179
370
    15
100
AcDbCircle
 10
1138.3633897596
 20
1117.5750638601
 30
0.0
 40
3.442340651377955
100
AcDbArc
 50
240.2899311117
 51
273.3030051999
  0
ARC
  5
46A
330
1F
100
AcDbEntity
  8
SLD-0_0
  6
SLD-Solid
 62
   179
370
    15
100
AcDbCircle
 10
1138.7601036425
 20
1117.5748788909
 30
0.0
 40
3.442158490205862
100
AcDbArc
 50
266.6960962635
 51
299.710967424
  0
ARC
  5
46B
330
1F
100
AcDbEntity
  8
SLD-0_0
  6
SLD-Solid
 62
   179
370
    15
100
AcDbCircle
 10
1097.6617266449
 20
800.2611350957
 30
0.0
 40
2.750000000000114
100
AcDbArc
 50
270.0
 51
0.0
  0
ARC
  5
46C
330
1F
100
AcDbEntity
  8
SLD-0_0
  6
SLD-Solid
 62
   179
370
    15
100
AcDbCircle
 10
1097.6617266449
 20
800.2611350957
 30
0.0
 40
1.250006593774967
100
AcDbArc
 50
270.000291927
 51
359.9995781765
  0
ARC
  5
46D
330
1F
100
AcDbEntity
  8
SLD-0_0
  6
SLD-Solid
 62
   179
370
    15
100
AcDbCircle
 10
1097.6617266449
 20
759.7611361177
 30
0.0
 40
2.750000000000227
100
AcDbArc
 50
0.0
 51
90.0
  0
ARC
  5
46E
330
1F
100
AcDbEntity
  8
SLD-0_0
  6
SLD-Solid
 62
   179
370
    15
100
AcDbCircle
 10
1097.6617266449
 20
759.7611361177
 30
0.0
 40
1.250004781914358
100
AcDbArc
 50
0.000255726
 51
89.9997080722
  0
ARC
  5
46F
330
1F
100
AcDbEntity
  8
SLD-0_0
  6
SLD-Solid
 62
   179
370
    15
100
AcDbCircle
 10
325.1617266449
 20
800.2611328991
 30
0.0
 40
1.250004397167741
100
AcDbArc
 50
180.000421825
 51
269.9999094412
  0
ARC
  5
470
330
1F
100
AcDbEntity
  8
SLD-0_0
  6
SLD-Solid
 62
   179
370
    15
100
AcDbCircle
 10
325.1617266449
 20
800.2611328991
 30
0.0
 40
2.750000000000057
100
AcDbArc
 50
180.0
 51
270.0
  0
ARC
  5
471
330
1F
100
AcDbEntity
  8
SLD-0_0
  6
SLD-Solid
 62
   179
370
    15
100
AcDbCircle
 10
325.1617266449
 20
759.7611383143
 30
0.0
 40
2.750000000000114
100
AcDbArc
 50
90.0
 51
180.0
  0
ARC
  5
472
330
1F
100
AcDbEntity
  8
SLD-0_0
  6
SLD-Solid
 62
   179
370
    15
100
AcDbCircle
 10
325.1617266449
 20
759.7611383143
 30
0.0
 40
1.250002585307074
100
AcDbArc
 50
90.0000905591
 51
179.9997442731
  0
ARC
  5
473
330
1F
100
AcDbEntity
  8
SLD-0_0
  6
SLD-Solid
 62
   179
370
    15
100
AcDbCircle
 10
1140.1617266134
 20
448.4611390134
 30
0.0
 40
2.750002469200126
100
AcDbArc
 50
270.0
 51
359.9999997917
  0
ARC
  5
474
330
1F
100
AcDbEntity
  8
SLD-0_0
  6
SLD-Solid
 62
   179
370
    15
100
AcDbCircle
 10
282.6617266134
 20
448.4611365126
 30
0.0
 40
2.749999968457022
100
AcDbArc
 50
180.0
 51
270.0001823693
  0
ARC
  5
475
330
1F
100
AcDbEntity
  8
SLD-0_0
  6
SLD-Solid
 62
   179
370
    15
100
AcDbCircle
 10
1110.9617266441
 20
864.9611409711
 30
0.0
 40
2.449995541506677
100
AcDbArc
 50
225.5846914024
 51
270.0001868785
  0
ARC
  5
476
330
1F
100
AcDbEntity
  8
SLD-0_0
  6
SLD-Solid
 62
   179
370
    15
100
AcDbCircle
 10
1142.4617266441
 20
864.9611365126
 30
0.0
 40
2.450000000000159
100
AcDbArc
 50
270.0
 51
314.4153085976
  0
ARC
  5
477
330
1F
100
AcDbEntity
  8
SLD-0_0
  6
SLD-Solid
 62
   179
370
    15
100
AcDbCircle
 10
312.1617266442
 20
864.9611365126
 30
0.0
 40
2.450000000000045
100
AcDbArc
 50
270.0
 51
314.4153085972
  0
ARC
  5
478
330
1F
100
AcDbEntity
  8
SLD-0_0
  6
SLD-Solid
 62
   179
370
    15
100
AcDbCircle
 10
280.6617266442
 20
864.9611409711
 30
0.0
 40
2.449995541502272
100
AcDbArc
 50
225.5846914028
 51
270.0001099311
  0
ARC
  5
479
330
1F
100
AcDbEntity
  8
SLD-0_0
  6
SLD-Solid
 62
   179
370
    15
100
AcDbCircle
 10
609.5617267687
 20
1081.3123675858
 30
0.0
 40
29.67567288026986
100
AcDbArc
 50
237.7635847387
 51
302.2364152613
  0
ARC
  5
47A
330
1F
100
AcDbEntity
  8
SLD-0_0
  6
SLD-Solid
 62
   179
370
    15
100
AcDbCircle
 10
544.13150053
 20
1084.6276157665
 30
0.0
 40
55.76386063838497
100
AcDbArc
 50
344.8550031553
 51
15.1449968447
  0
ARC
  5
47B
330
1F
100
AcDbEntity
  8
SLD-0_0
  6
SLD-Solid
 62
   179
370
    15
100
AcDbCircle
 10
544.0268027464
 20
1079.6515646024
 30
0.0
 40
55.58846828548958
100
AcDbArc
 50
359.3367164206
 51
16.8657275476
  0
ARC
  5
47C
330
1F
100
AcDbEntity
  8
SLD-0_0
  6
SLD-Solid
 62
   179
370
    15
100
AcDbCircle
 10
674.9919056968
 20
1084.6276157665
 30
0.0
 40
55.76381497088774
100
AcDbArc
 50
164.8549904552
 51
195.1450095448
  0
ARC
  5
47D
330
1F
100
AcDbEntity
  8
SLD-0_0
  6
SLD-Solid
 62
   179
370
    15
100
AcDbCircle
 10
675.1585565365
 20
1079.6434323063
 30
0.0
 40
55.65027644494998
100
AcDbArc
 50
162.3201151272
 51
180.6541735587
  0
ARC
  5
47E
330
1F
100
AcDbEntity
  8
SLD-0_0
  6
SLD-Solid
 62
   179
370
    15
100
AcDbCircle
 10
609.5617258374
 20
1068.8238737291
 30
0.0
 40
1.501222952724431
100
AcDbArc
 50
182.3135082113
 51
357.6864917887
  0
ARC
  5
47F
330
1F
100
AcDbEntity
  8
SLD-0_0
  6
SLD-Solid
 62
   179
370
    15
100
AcDbCircle
 10
609.6212622652
 20
1083.1185362548
 30
0.0
 40
20.42507489474074
100
AcDbArc
 50
57.115753309
 51
85.9559016161
  0
ARC
  5
480
330
1F
100
AcDbEntity
  8
SLD-0_0
  6
SLD-Solid
 62
   179
370
    15
100
AcDbCircle
 10
609.5021867421
 20
1083.1185506553
 30
0.0
 40
20.42506034192961
100
AcDbArc
 50
94.0440937683
 51
122.8842579518
  0
ARC
  5
481
330
1F
100
AcDbEntity
  8
SLD-0_0
  6
SLD-Solid
 62
   179
370
    15
100
AcDbCircle
 10
609.5617267687
 20
1076.1894240439
 30
0.0
 40
29.67567288028397
100
AcDbArc
 50
57.7635847387
 51
122.2364152612
  0
ARC
  5
482
330
1F
100
AcDbEntity
  8
SLD-0_0
  6
SLD-Solid
 62
   179
370
    15
100
AcDbCircle
 10
611.273969872
 20
1078.2441234965
 30
0.0
 40
27.08262608134203
100
AcDbArc
 50
12.3494203635
 51
53.6108970548
  0
ARC
  5
483
330
1F
100
AcDbEntity
  8
SLD-0_0
  6
SLD-Solid
 62
   179
370
    15
100
AcDbCircle
 10
607.9270442521
 20
1078.204794193
 30
0.0
 40
27.16032973222083
100
AcDbArc
 50
126.4715976771
 51
170.1537545232
  0
ARC
  5
484
330
1F
100
AcDbEntity
  8
SLD-0_0
  6
SLD-Solid
 62
   179
370
    15
100
AcDbCircle
 10
1159.1117266442
 20
1163.0611365126
 30
0.0
 40
2.449999999999803
100
AcDbArc
 50
27.8441641928
 51
59.3225755274
  0
ARC
  5
485
330
1F
100
AcDbEntity
  8
SLD-0_0
  6
SLD-Solid
 62
   179
370
    15
100
AcDbCircle
 10
264.0117266442
 20
1163.0611365126
 30
0.0
 40
2.450000000000033
100
AcDbArc
 50
120.6774244726
 51
152.1558358072
  0
ARC
  5
486
330
1F
100
AcDbEntity
  8
SLD-0_0
  6
SLD-Solid
 62
   179
370
    15
100
AcDbCircle
 10
762.9583968759
 20
1117.9120350081
 30
0.0
 40
4.545113844903033
100
AcDbArc
 50
264.9931524575
 51
303.2267945447
  0
ARC
  5
487
330
1F
100
AcDbEntity
  8
SLD-0_0
  6
SLD-Solid
 62
   179
370
    15
100
AcDbCircle
 10
762.1650545861
 20
1117.9120313572
 30
0.0
 40
4.545109727130314
100
AcDbArc
 50
236.7732007084
 51
275.0067823737
  0
ARC
  5
488
330
1F
100
AcDbEntity
  8
SLD-0_0
  6
SLD-Solid
 62
   179
370
    15
100
AcDbCircle
 10
1138.9583959823
 20
1117.9120466255
 30
0.0
 40
4.545125163129754
100
AcDbArc
 50
264.9932019109
 51
303.2267450913
  0
ARC
  5
489
330
1F
100
AcDbEntity
  8
SLD-0_0
  6
SLD-Solid
 62
   179
370
    15
100
AcDbCircle
 10
1138.1650540236
 20
1117.9120466255
 30
0.0
 40
4.545125163137134
100
AcDbArc
 50
236.7732549087
 51
275.0067980902
  0
ARC
  5
48A
330
1F
100
AcDbEntity
  8
SLD-0_0
  6
SLD-Solid
 62
   179
370
    15
100
AcDbCircle
 10
284.9583938365
 20
1117.9120466255
 30
0.0
 40
4.545125163129786
100
AcDbArc
 50
264.9932019109
 51
303.2267450913
  0
ARC
  5
48B
330
1F
100
AcDbEntity
  8
SLD-0_0
  6
SLD-Solid
 62
   179
370
    15
100
AcDbCircle
 10
284.1650518779
 20
1117.9120466255
 30
0.0
 40
4.545125163129786
100
AcDbArc
 50
236.7732549087
 51
275.0067980889
  0
ARC
  5
48C
330
1F
100
AcDbEntity
  8
SLD-0_0
  6
SLD-Solid
 62
   179
370
    15
100
AcDbCircle
 10
264.0117266442
 20
1112.9611365126
 30
0.0
 40
2.45000000000005
100
AcDbArc
 50
207.7643057669
 51
270.0
  0
ARC
  5
48D
330
1F
100
AcDbEntity
  8
SLD-0_0
  6
SLD-Solid
 62
   179
370
    15
100
AcDbCircle
 10
1159.1117266442
 20
1112.9611365126
 30
0.0
 40
2.4500000000001
100
AcDbArc
 50
270.0
 51
332.2356942331
  0
ARC
  5
48E
330
1F
100
AcDbEntity
  8
SLD-0_0
  6
SLD-Solid
 62
   179
370
    15
100
AcDbCircle
 10
676.628233945
 20
1202.937702941
 30
0.0
 40
11.25010196442706
100
AcDbArc
 50
87.4508326417
 51
110.5907751677
  0
ARC
  5
48F
330
1F
100
AcDbEntity
  8
SLD-0_0
  6
SLD-Solid
 62
   179
370
    15
100
AcDbCircle
 10
576.6282333907
 20
1202.9376996811
 30
0.0
 40
11.2501053451655
100
AcDbArc
 50
87.450819188
 51
110.5907737901
  0
ARC
  5
490
330
1F
100
AcDbEntity
  8
SLD-0_0
  6
SLD-Solid
 62
   179
370
    15
100
AcDbCircle
 10
476.628236482
 20
1202.9376655538
 30
0.0
 40
11.25013890356276
100
AcDbArc
 50
87.4508881355
 51
110.5907345063
  0
ARC
  5
491
330
1F
100
AcDbEntity
  8
SLD-0_0
  6
SLD-Solid
 62
   179
370
    15
100
AcDbCircle
 10
376.6282523353
 20
1202.937519915
 30
0.0
 40
11.2502839582681
100
AcDbArc
 50
87.4509714562
 51
110.5905918576
  0
ARC
  5
492
330
1F
100
AcDbEntity
  8
SLD-0_0
  6
SLD-Solid
 62
   179
370
    15
100
AcDbCircle
 10
1076.628220629
 20
1202.9378111901
 30
0.0
 40
11.2499938513877
100
AcDbArc
 50
87.4508048144
 51
110.5908771556
  0
ARC
  5
493
330
1F
100
AcDbEntity
  8
SLD-0_0
  6
SLD-Solid
 62
   179
370
    15
100
AcDbCircle
 10
976.6282157589
 20
1202.9378794111
 30
0.0
 40
11.24992617959508
100
AcDbArc
 50
87.4507342556
 51
110.5909477145
  0
ARC
  5
494
330
1F
100
AcDbEntity
  8
SLD-0_0
  6
SLD-Solid
 62
   179
370
    15
100
AcDbCircle
 10
876.6282295365
 20
1202.9377468477
 30
0.0
 40
11.25005826412806
100
AcDbArc
 50
87.4508040572
 51
110.5908185844
  0
ARC
  5
495
330
1F
100
AcDbEntity
  8
SLD-0_0
  6
SLD-Solid
 62
   179
370
    15
100
AcDbCircle
 10
776.6282372448
 20
1202.9376525144
 30
0.0
 40
11.25015242633747
100
AcDbArc
 50
87.4508343178
 51
110.590728996
  0
ARC
  5
496
330
1F
100
AcDbEntity
  8
SLD-0_0
  6
SLD-Solid
 62
   179
370
    15
100
AcDbCircle
 10
1046.6973034655
 20
1216.9436517439
 30
0.0
 40
10.39621026264397
100
AcDbArc
 50
269.0644867774
 51
291.1701876261
  0
ARC
  5
497
330
1F
100
AcDbEntity
  8
SLD-0_0
  6
SLD-Solid
 62
   179
370
    15
100
AcDbCircle
 10
546.6973004349
 20
1216.9436269736
 30
0.0
 40
10.39618556781144
100
AcDbArc
 50
269.0644601922
 51
291.1702142114
  0
ARC
  5
498
330
1F
100
AcDbEntity
  8
SLD-0_0
  6
SLD-Solid
 62
   179
370
    15
100
AcDbCircle
 10
946.6972927199
 20
1216.9437453673
 30
0.0
 40
10.39630360081913
100
AcDbArc
 50
269.0645872598
 51
291.1700871442
  0
ARC
  5
499
330
1F
100
AcDbEntity
  8
SLD-0_0
  6
SLD-Solid
 62
   179
370
    15
100
AcDbCircle
 10
846.6972921323
 20
1216.9436985549
 30
0.0
 40
10.39625693102526
100
AcDbArc
 50
269.0645370185
 51
291.170137386
  0
ARC
  5
49A
330
1F
100
AcDbEntity
  8
SLD-0_0
  6
SLD-Solid
 62
   179
370
    15
100
AcDbCircle
 10
746.6973034152
 20
1216.9436269736
 30
0.0
 40
10.39618556779432
100
AcDbArc
 50
269.0644601919
 51
291.1702142112
  0
ARC
  5
49B
330
1F
100
AcDbEntity
  8
SLD-0_0
  6
SLD-Solid
 62
   179
370
    15
100
AcDbCircle
 10
646.6973063516
 20
1216.9435942247
 30
0.0
 40
10.3961529259572
100
AcDbArc
 50
269.0644225886
 51
291.1702494634
  0
ARC
  5
49C
330
1F
100
AcDbEntity
  8
SLD-0_0
  6
SLD-Solid
 62
   179
370
    15
100
AcDbCircle
 10
346.6973199689
 20
1216.9434590457
 30
0.0
 40
10.39601815159173
100
AcDbArc
 50
269.0642799574
 51
291.1703944478
  0
ARC
  5
49D
330
1F
100
AcDbEntity
  8
SLD-0_0
  6
SLD-Solid
 62
   179
370
    15
100
AcDbCircle
 10
446.6973117176
 20
1216.9435553932
 30
0.0
 40
10.39611420550356
100
AcDbArc
 50
269.0643833662
 51
291.1702910373
  0
ARC
  5
49E
330
1F
100
AcDbEntity
  8
SLD-0_0
  6
SLD-Solid
 62
   179
370
    15
100
AcDbCircle
 10
356.5809162446
 20
1203.9333673052
 30
0.0
 40
9.49425899056585
100
AcDbArc
 50
64.4080994143
 51
94.0516538583
  0
ARC
  5
49F
330
1F
100
AcDbEntity
  8
SLD-0_0
  6
SLD-Solid
 62
   179
370
    15
100
AcDbCircle
 10
456.5809143313
 20
1203.9333102448
 30
0.0
 40
9.494315141352038
100
AcDbArc
 50
64.4081890816
 51
94.051564191
  0
ARC
  5
4A0
330
1F
100
AcDbEntity
  8
SLD-0_0
  6
SLD-Solid
 62
   179
370
    15
100
AcDbCircle
 10
656.5809062606
 20
1203.9332423572
 30
0.0
 40
9.49438194702756
100
AcDbArc
 50
64.4082957623
 51
94.0514575103
  0
ARC
  5
4A1
330
1F
100
AcDbEntity
  8
SLD-0_0
  6
SLD-Solid
 62
   179
370
    15
100
AcDbCircle
 10
756.5809089569
 20
1203.9332584904
 30
0.0
 40
9.494366070865349
100
AcDbArc
 50
64.4082704101
 51
94.0514828625
  0
ARC
  5
4A2
330
1F
100
AcDbEntity
  8
SLD-0_0
  6
SLD-Solid
 62
   179
370
    15
100
AcDbCircle
 10
556.5808983762
 20
1203.9331848714
 30
0.0
 40
9.494438968893006
100
AcDbArc
 50
64.4083803956
 51
94.0514057218
  0
ARC
  5
4A3
330
1F
100
AcDbEntity
  8
SLD-0_0
  6
SLD-Solid
 62
   179
370
    15
100
AcDbCircle
 10
856.5809006022
 20
1203.9332067355
 30
0.0
 40
9.494417000954144
100
AcDbArc
 50
64.4083517387
 51
94.051401534
  0
ARC
  5
4A4
330
1F
100
AcDbEntity
  8
SLD-0_0
  6
SLD-Solid
 62
   179
370
    15
100
AcDbCircle
 10
956.5808887217
 20
1203.9330972768
 30
0.0
 40
9.494524715062006
100
AcDbArc
 50
64.4085237407
 51
94.051229532
  0
ARC
  5
4A5
330
1F
100
AcDbEntity
  8
SLD-0_0
  6
SLD-Solid
 62
   179
370
    15
100
AcDbCircle
 10
1056.5809124179
 20
1203.9332531838
 30
0.0
 40
9.49437129285694
100
AcDbArc
 50
64.408278749
 51
94.0514745236
  0
ARC
  5
4A6
330
1F
100
AcDbEntity
  8
SLD-0_0
  6
SLD-Solid
 62
   179
370
    15
100
AcDbCircle
 10
1076.6278181595
 20
1202.1675720945
 30
0.0
 40
11.24747914868412
100
AcDbArc
 50
87.4481822377
 51
110.5934997322
  0
ARC
  5
4A7
330
1F
100
AcDbEntity
  8
SLD-0_0
  6
SLD-Solid
 62
   179
370
    15
100
AcDbCircle
 10
376.6278498665
 20
1202.1672808318
 30
0.0
 40
11.24776924167438
100
AcDbArc
 50
87.4483489852
 51
110.5932143287
  0
ARC
  5
4A8
330
1F
100
AcDbEntity
  8
SLD-0_0
  6
SLD-Solid
 62
   179
370
    15
100
AcDbCircle
 10
576.6278309281
 20
1202.1674605548
 30
0.0
 40
11.24759067275373
100
AcDbArc
 50
87.4481966821
 51
110.5933962961
  0
ARC
  5
4A9
330
1F
100
AcDbEntity
  8
SLD-0_0
  6
SLD-Solid
 62
   179
370
    15
100
AcDbCircle
 10
676.6278314814
 20
1202.1674638189
 30
0.0
 40
11.2475872877109
100
AcDbArc
 50
87.4482101326
 51
110.5933976769
  0
ARC
  5
4AA
330
1F
100
AcDbEntity
  8
SLD-0_0
  6
SLD-Solid
 62
   179
370
    15
100
AcDbCircle
 10
876.6278270765
 20
1202.1675077012
 30
0.0
 40
11.24754361187092
100
AcDbArc
 50
87.4481815548
 51
110.593441087
  0
ARC
  5
4AB
330
1F
100
AcDbEntity
  8
SLD-0_0
  6
SLD-Solid
 62
   179
370
    15
100
AcDbCircle
 10
776.6278347797
 20
1202.1674134082
 30
0.0
 40
11.24763773379734
100
AcDbArc
 50
87.4482118094
 51
110.5933515047
  0
ARC
  5
4AC
330
1F
100
AcDbEntity
  8
SLD-0_0
  6
SLD-Solid
 62
   179
370
    15
100
AcDbCircle
 10
476.6278340129
 20
1202.1674264644
 30
0.0
 40
11.24762419392525
100
AcDbArc
 50
87.4482656115
 51
110.5933570304
  0
ARC
  5
4AD
330
1F
100
AcDbEntity
  8
SLD-0_0
  6
SLD-Solid
 62
   179
370
    15
100
AcDbCircle
 10
976.6278133002
 20
1202.1676402473
 30
0.0
 40
11.24741154517503
100
AcDbArc
 50
87.4481117176
 51
110.593570252
  0
SPLINE
  5
4AE
330
1F
100
AcDbEntity
  8
SLD-0_0
  6
SLD-Solid
 62
   179
370
    15
100
AcDbSpline
210
0.0
220
0.0
230
1.0
 70
     8
 71
     3
 72
    11
 73
     7
 74
     0
 42
0.00000001
 43
0.00000001
 40
0.0
 40
0.0
 40
0.0
 40
0.0
 40
0.2832986473936866
 40
0.5580353780831749
 40
0.775427417649878
 40
1.0
 40
1.0
 40
1.0
 40
1.0
 10
329.5633786742112
 20
953.2111459540929
 30
0.0
 10
329.8604922300506
 20
953.1721975125489
 30
0.0
 10
330.4457399076928
 20
953.0954777381953
 30
0.0
 10
331.0948564697861
 20
952.5609258531063
 30
0.0
 10
331.4900131555603
 20
951.9095216909174
 30
0.0
 10
331.5375561086063
 20
951.4472532333056
 30
0.0
 10
331.5617137972733
 20
951.212363796195
 30
0.0
  0
SPLINE
  5
4AF
330
1F
100
AcDbEntity
  8
SLD-0_0
  6
SLD-Solid
 62
   179
370
    15
100
AcDbSpline
210
0.0
220
0.0
230
1.0
 70
     8
 71
     3
 72
    11
 73
     7
 74
     0
 42
0.00000001
 43
0.00000001
 40
0.0
 40
0.0
 40
0.0
 40
0.0
 40
0.2833187969178805
 40
0.5580459272731245
 40
0.7754252198137954
 40
1.0
 40
1.0
 40
1.0
 40
1.0
 10
331.5617137972733
 20
895.2094786929692
 30
0.0
 10
331.5227913007058
 20
894.912371606104
 30
0.0
 10
331.4461266355823
 20
894.3271672299993
 30
0.0
 10
330.9117700199755
 20
893.6780031880315
 30
0.0
 10
330.2604647104475
 20
893.2828356908122
 30
0.0
 10
329.7982491418203
 20
893.2352989267578
 30
0.0
 10
329.5633786742112
 20
893.2111435699071
 30
0.0
  0
SPLINE
  5
4B0
330
1F
100
AcDbEntity
  8
SLD-0_0
  6
SLD-Solid
 62
   179
370
    15
100
AcDbSpline
210
0.0
220
0.0
230
1.0
 70
     8
 71
     3
 72
    11
 73
     7
 74
     0
 42
0.00000001
 43
0.00000001
 40
0.0
 40
0.0
 40
0.0
 40
0.0
 40
0.2833563294867973
 40
0.5581082637793008
 40
0.7754838879133572
 40
0.9999999999999999
 40
0.9999999999999999
 40
0.9999999999999999
 40
0.9999999999999999
 10
291.5617221419236
 20
951.2167745399083
 30
0.0
 10
291.6012927557942
 20
951.5138308040378
 30
0.0
 10
291.6792323827087
 20
952.0989229250372
 30
0.0
 10
292.2149634002653
 20
952.7469691485041
 30
0.0
 10
292.8669423310103
 20
953.140937225308
 30
0.0
 10
293.329191480619
 20
953.1874922848552
 30
0.0
 10
293.5640507761857
 20
953.2111459540929
 30
0.0
  0
SPLINE
  5
4B1
330
1F
100
AcDbEntity
  8
SLD-0_0
  6
SLD-Solid
 62
   179
370
    15
100
AcDbSpline
210
0.0
220
0.0
230
1.0
 70
     8
 71
     3
 72
    11
 73
     7
 74
     0
 42
0.00000001
 43
0.00000001
 40
0.0
 40
0.0
 40
0.0
 40
0.0
 40
0.2832793703688561
 40
0.5579966516651307
 40
0.7754010205587767
 40
1.0
 40
1.0
 40
1.0
 40
1.0
 10
293.5640507761857
 20
893.2111435699071
 30
0.0
 10
293.2669318029112
 20
893.2494240260227
 30
0.0
 10
292.6816742459719
 20
893.3248279155077
 30
0.0
 10
292.0314833853815
 20
893.857768479023
 30
0.0
 10
291.6349647838098
 20
894.5082001475033
 30
0.0
 10
291.5863998574576
 20
894.9703111158248
 30
0.0
 10
291.5617221419236
 20
895.2051275539006
 30
0.0
  0
SPLINE
  5
4B2
330
1F
100
AcDbEntity
  8
SLD-0_0
  6
SLD-Solid
 62
   179
370
    15
100
AcDbSpline
210
0.0
220
0.0
230
1.0
 70
     8
 71
     3
 72
    13
 73
     9
 74
     0
 42
0.00000001
 43
0.00000001
 40
0.0
 40
0.0
 40
0.0
 40
0.0
 40
0.1275718442450105
 40
0.254650687224958
 40
0.5000023310532996
 40
0.7453618756989722
 40
0.8725135508182518
 40
1.0
 40
1.0
 40
1.0
 40
1.0
 10
329.5633786742112
 20
893.2111435699071
 30
0.0
 10
329.6965639771147
 20
893.2186984554017
 30
0.0
 10
329.9624198884517
 20
893.2337790305435
 30
0.0
 10
330.4625362280239
 20
893.3952425358356
 30
0.0
 10
331.0107294941409
 20
893.7621315730731
 30
0.0
 10
331.3776927175469
 20
894.3103988405492
 30
0.0
 10
331.5390191325049
 20
894.8105512179349
 30
0.0
 10
331.554142281523
 20
895.0763863696736
 30
0.0
 10
331.5617137972733
 20
895.2094786929692
 30
0.0
  0
SPLINE
  5
4B3
330
1F
100
AcDbEntity
  8
SLD-0_0
  6
SLD-Solid
 62
   179
370
    15
100
AcDbSpline
210
0.0
220
0.0
230
1.0
 70
     8
 71
     3
 72
    13
 73
     9
 74
     0
 42
0.00000001
 43
0.00000001
 40
0.0
 40
0.0
 40
0.0
 40
0.0
 40
0.1275681506904181
 40
0.2546520694325779
 40
0.5000257648409941
 40
0.7453734126148998
 40
0.8725267229447075
 40
1.0
 40
1.0
 40
1.0
 40
1.0
 10
331.5617137972733
 20
951.212363796195
 30
0.0
 10
331.5541584154789
 20
951.3455589813467
 30
0.0
 10
331.5390763311271
 20
951.6114437602175
 30
0.0
 10
331.3776057541589
 20
952.1116372197079
 30
0.0
 10
331.0107623591177
 20
952.6599566390053
 30
0.0
 10
330.4624855426177
 20
953.0270485547097
 30
0.0
 10
329.9623243530132
 20
953.1884610209794
 30
0.0
 10
329.6964719248942
 20
953.2035779776742
 30
0.0
 10
329.5633786742112
 20
953.2111459540929
 30
0.0
  0
SPLINE
  5
4B4
330
1F
100
AcDbEntity
  8
SLD-0_0
  6
SLD-Solid
 62
   179
370
    15
100
AcDbSpline
210
0.0
220
0.0
230
1.0
 70
     8
 71
     3
 72
    13
 73
     9
 74
     0
 42
0.00000001
 43
0.00000001
 40
0.0
 40
0.0
 40
0.0
 40
0.0
 40
0.1275929429300178
 40
0.2546727946700105
 40
0.5000519785254118
 40
0.7453982655772663
 40
0.8725378140276508
 40
1.0
 40
1.0
 40
1.0
 40
1.0
 10
291.5617221419236
 20
895.2051275539006
 30
0.0
 10
291.5695635845657
 20
895.0719488116905
 30
0.0
 10
291.5852149369529
 20
894.8061268807088
 30
0.0
 10
291.7478164180425
 20
894.3063798756926
 30
0.0
 10
292.1157890078226
 20
893.7589847282468
 30
0.0
 10
292.6647785219199
 20
893.3931987291388
 30
0.0
 10
293.1651773502372
 20
893.2329743384129
 30
0.0
 10
293.4309806900464
 20
893.2184266378092
 30
0.0
 10
293.5640507761857
 20
893.2111435699071
 30
0.0
  0
SPLINE
  5
4B5
330
1F
100
AcDbEntity
  8
SLD-0_0
  6
SLD-Solid
 62
   179
370
    15
100
AcDbSpline
210
0.0
220
0.0
230
1.0
 70
     8
 71
     3
 72
    13
 73
     9
 74
     0
 42
0.00000001
 43
0.00000001
 40
0.0
 40
0.0
 40
0.0
 40
0.0
 40
0.1275391249445488
 40
0.2545929389833278
 40
0.499947742811597
 40
0.7453403880318614
 40
0.872501846276219
 40
1.0
 40
1.0
 40
1.0
 40
1.0
 10
293.5640507761857
 20
953.2111459540929
 30
0.0
 10
293.4308864660102
 20
953.2038728268194
 30
0.0
 10
293.1650645614769
 20
953.1893542479206
 30
0.0
 10
292.6646978751122
 20
953.0288829291285
 30
0.0
 10
292.1157960500194
 20
952.6630625328468
 30
0.0
 10
291.7477307553162
 20
952.11551252509
 30
0.0
 10
291.5852815712513
 20
951.6156786779308
 30
0.0
 10
291.5695822039496
 20
951.3498597358052
 30
0.0
 10
291.5617221419236
 20
951.2167745399083
 30
0.0
  0
SPLINE
  5
4B6
330
1F
100
AcDbEntity
  8
SLD-0_0
  6
SLD-Solid
 62
   179
370
    15
100
AcDbSpline
210
0.0
220
0.0
230
1.0
 70
     8
 71
     3
 72
    12
 73
     8
 74
     0
 42
0.00000001
 43
0.00000001
 40
0.0
 40
0.0
 40
0.0
 40
0.0
 40
0.2301672720721853
 40
0.4604215071706333
 40
0.6906749435007689
 40
0.920928356200532
 40
1.0
 40
1.0
 40
1.0
 40
1.0
 10
263.6117332999131
 20
865.2611249255743
 30
0.0
 10
263.3646553428443
 20
865.1657415396734
 30
0.0
 10
262.8704060763956
 20
864.974938729612
 30
0.0
 10
262.224279118247
 20
864.6886463442476
 30
0.0
 10
261.7603290916044
 20
864.4025336757767
 30
0.0
 10
261.5775215365485
 20
864.1784180309097
 30
0.0
 10
261.5649377082733
 20
864.0508331351726
 30
0.0
 10
261.5617209498307
 20
864.0182190703954
 30
0.0
  0
SPLINE
  5
4B7
330
1F
100
AcDbEntity
  8
SLD-0_0
  6
SLD-Solid
 62
   179
370
    15
100
AcDbSpline
210
0.0
220
0.0
230
1.0
 70
     8
 71
     3
 72
    11
 73
     7
 74
     0
 42
0.00000001
 43
0.00000001
 40
0.0
 40
0.0
 40
0.0
 40
0.0
 40
0.2543036102952169
 40
0.5087811673650522
 40
0.763260755809084
 40
1.0
 40
1.0
 40
1.0
 40
1.0
 10
263.6117332999131
 20
865.2611249255743
 30
0.0
 10
263.4450951300939
 20
865.1557545017553
 30
0.0
 10
263.1117048079129
 20
864.9449415794606
 30
0.0
 10
262.6937644991377
 20
864.62867353491
 30
0.0
 10
262.413622469375
 20
864.3195995149096
 30
0.0
 10
262.3786089809856
 20
864.1162310039388
 30
0.0
 10
262.3617344920061
 20
864.0182190703955
 30
0.0
  0
SPLINE
  5
4B8
330
1F
100
AcDbEntity
  8
SLD-0_0
  6
SLD-Solid
 62
   179
370
    15
100
AcDbSpline
210
0.0
220
0.0
230
1.0
 70
     8
 71
     3
 72
    12
 73
     8
 74
     0
 42
0.00000001
 43
0.00000001
 40
0.0
 40
0.0
 40
0.0
 40
0.0
 40
0.2301716301980899
 40
0.4604245375422735
 40
0.6906745490195073
 40
0.920928562607708
 40
1.0
 40
1.0
 40
1.0
 40
1.0
 10
262.3687976424119
 20
863.2111423778143
 30
0.0
 10
262.4641930920233
 20
863.2372201471491
 30
0.0
 10
262.6550176768475
 20
863.2893848942804
 30
0.0
 10
262.9413023281135
 20
863.6940915299145
 30
0.0
 10
263.2274226773029
 20
864.2821038062897
 30
0.0
 10
263.4515335697663
 20
864.8461279810984
 30
0.0
 10
263.5791191793788
 20
865.1766381392599
 30
0.0
 10
263.6117332999131
 20
865.2611249255743
 30
0.0
  0
SPLINE
  5
4B9
330
1F
100
AcDbEntity
  8
SLD-0_0
  6
SLD-Solid
 62
   179
370
    15
100
AcDbSpline
210
0.0
220
0.0
230
1.0
 70
     8
 71
     3
 72
    11
 73
     7
 74
     0
 42
0.00000001
 43
0.00000001
 40
0.0
 40
0.0
 40
0.0
 40
0.0
 40
0.2543001279408491
 40
0.5087831561893964
 40
0.7632592613988209
 40
1.0
 40
1.0
 40
1.0
 40
1.0
 10
262.3687976424118
 20
864.0111261176673
 30
0.0
 10
262.4741691660732
 20
864.0305825220038
 30
0.0
 10
262.684987999768
 20
864.0695093243087
 30
0.0
 10
263.0012432437052
 20
864.3685127270543
 30
0.0
 10
263.3103189870039
 20
864.7844680152496
 30
0.0
 10
263.5137096666862
 20
865.1061102492579
 30
0.0
 10
263.6117332999131
 20
865.2611249255743
 30
0.0
  0
SPLINE
  5
4BA
330
1F
100
AcDbEntity
  8
SLD-0_0
  6
SLD-Solid
 62
   179
370
    15
100
AcDbSpline
210
0.0
220
0.0
230
1.0
 70
     8
 71
     3
 72
    12
 73
     8
 74
     0
 42
0.00000001
 43
0.00000001
 40
0.0
 40
0.0
 40
0.0
 40
0.0
 40
0.2301677031366096
 40
0.460422369462349
 40
0.6906712391975652
 40
0.9209250831230796
 40
0.9999999999999999
 40
0.9999999999999999
 40
0.9999999999999999
 40
0.9999999999999999
 10
1159.511744362535
 20
865.2611249255742
 30
0.0
 10
1159.607128124209
 20
865.0140476144286
 30
0.0
 10
1159.797931685958
 20
864.5197996400696
 30
0.0
 10
1160.084216360432
 20
863.8736676639779
 30
0.0
 10
1160.370348391582
 20
863.4097558532912
 30
0.0
 10
1160.594429828147
 20
863.2269412795217
 30
0.0
 10
1160.722054760979
 20
863.2143588685714
 30
0.0
 10
1160.754680020037
 20
863.2111423778143
 30
0.0
  0
SPLINE
  5
4BB
330
1F
100
AcDbEntity
  8
SLD-0_0
  6
SLD-Solid
 62
   179
370
    15
100
AcDbSpline
210
0.0
220
0.0
230
1.0
 70
     8
 71
     3
 72
    11
 73
     7
 74
     0
 42
0.00000001
 43
0.00000001
 40
0.0
 40
0.0
 40
0.0
 40
0.0
 40
0.2542847055944714
 40
0.5087768248268462
 40
0.7632481566989352
 40
1.0
 40
1.0
 40
1.0
 40
1.0
 10
1159.511744362535
 20
865.2611249255742
 30
0.0
 10
1159.617102088837
 20
865.0944972883478
 30
0.0
 10
1159.827903479088
 20
864.7611060999225
 30
0.0
 10
1160.144201491368
 20
864.3431678604001
 30
0.0
 10
1160.453228676479
 20
864.0630053791015
 30
0.0
 10
1160.656642093676
 20
864.0279982773731
 30
0.0
 10
1160.754680020037
 20
864.0111261176671
 30
0.0
  0
SPLINE
  5
4BC
330
1F
100
AcDbEntity
  8
SLD-0_0
  6
SLD-Solid
 62
   179
370
    15
100
AcDbSpline
210
0.0
220
0.0
230
1.0
 70
     8
 71
     3
 72
    12
 73
     8
 74
     0
 42
0.00000001
 43
0.00000001
 40
0.0
 40
0.0
 40
0.0
 40
0.0
 40
0.230169610455659
 40
0.4604236361757854
 40
0.690681121020593
 40
0.9209362529901097
 40
1.0
 40
1.0
 40
1.0
 40
1.0
 10
1161.561726910295
 20
864.0182190703954
 30
0.0
 10
1161.535648264886
 20
864.1136021025019
 30
0.0
 10
1161.48348140966
 20
864.3044031486737
 30
0.0
 10
1161.078778293469
 20
864.5907004951264
 30
0.0
 10
1160.490737929329
 20
864.8768113936494
 30
0.0
 10
1159.926716981978
 20
865.1009134067056
 30
0.0
 10
1159.596221082152
 20
865.2285103796386
 30
0.0
 10
1159.511744362535
 20
865.2611249255742
 30
0.0
  0
SPLINE
  5
4BD
330
1F
100
AcDbEntity
  8
SLD-0_0
  6
SLD-Solid
 62
   179
370
    15
100
AcDbSpline
210
0.0
220
0.0
230
1.0
 70
     8
 71
     3
 72
    11
 73
     7
 74
     0
 42
0.00000001
 43
0.00000001
 40
0.0
 40
0.0
 40
0.0
 40
0.0
 40
0.2543006724078996
 40
0.5087864027679544
 40
0.7632743481709711
 40
1.0
 40
1.0
 40
1.0
 40
1.0
 10
1160.76171336812
 20
864.0182190703954
 30
0.0
 10
1160.742268947371
 20
864.1235905449602
 30
0.0
 10
1160.703365955911
 20
864.3344101743011
 30
0.0
 10
1160.404355309222
 20
864.6506717293862
 30
0.0
 10
1159.988384470209
 20
864.9597281346851
 30
0.0
 10
1159.666747599855
 20
865.1631107686588
 30
0.0
 10
1159.511744362535
 20
865.2611249255742
 30
0.0
  0
SPLINE
  5
4BE
330
1F
100
AcDbEntity
  8
SLD-0_0
  6
SLD-Solid
 62
   179
370
    15
100
AcDbSpline
210
0.0
220
0.0
230
1.0
 70
     8
 71
     3
 72
    12
 73
     8
 74
     0
 42
0.00000001
 43
0.00000001
 40
0.0
 40
0.0
 40
0.0
 40
0.0
 40
0.2301708344294505
 40
0.4604236343773491
 40
0.6906760748827057
 40
0.9209286768833723
 40
1.0
 40
1.0
 40
1.0
 40
1.0
 10
263.218789679281
 20
484.4611347782221
 30
0.0
 10
263.3141850948867
 20
484.7082133067115
 30
0.0
 10
263.5050098971035
 20
485.2024583501621
 30
0.0
 10
263.7912966809745
 20
485.8485911870075
 30
0.0
 10
264.0774113183865
 20
486.3125316505933
 30
0.0
 10
264.3015262777848
 20
486.4953493719191
 30
0.0
 10
264.4291112622936
 20
486.507922046459
 30
0.0
 10
264.4617253367824
 20
486.5111359524336
 30
0.0
  0
SPLINE
  5
4BF
330
1F
100
AcDbEntity
  8
SLD-0_0
  6
SLD-Solid
 62
   179
370
    15
100
AcDbSpline
210
0.0
220
0.0
230
1.0
 70
     8
 71
     3
 72
    12
 73
     8
 74
     0
 42
0.00000001
 43
0.00000001
 40
0.0
 40
0.0
 40
0.0
 40
0.0
 40
0.2301673246449432
 40
0.4604196591676686
 40
0.6906727341253986
 40
0.9209247592962587
 40
1.0
 40
1.0
 40
1.0
 40
1.0
 10
1158.36173234625
 20
486.5111359524336
 30
0.0
 10
1158.457115638346
 20
486.485059363342
 30
0.0
 10
1158.647917451352
 20
486.4328965540451
 30
0.0
 10
1158.934210262946
 20
486.0281854130158
 30
0.0
 10
1159.22033057541
 20
485.4401607761062
 30
0.0
 10
1159.44441943601
 20
484.8761220127355
 30
0.0
 10
1159.572042843371
 20
484.545622429308
 30
0.0
 10
1159.604668003743
 20
484.4611347782174
 30
0.0
  0
SPLINE
  5
4C0
330
1F
100
AcDbEntity
  8
SLD-0_0
  6
SLD-Solid
 62
   179
370
    15
100
AcDbSpline
210
0.0
220
0.0
230
1.0
 70
     8
 71
     3
 72
     9
 73
     5
 74
     0
 42
0.00000001
 43
0.00000001
 40
0.0
 40
0.0
 40
0.0
 40
0.0
 40
0.5275066312414632
 40
1.0
 40
1.0
 40
1.0
 40
1.0
 10
1159.611701351805
 20
484.4611347782168
 30
0.0
 10
1159.594854157494
 20
484.6299445504135
 30
0.0
 10
1159.562916749862
 20
484.949959052979
 30
0.0
 10
1159.358963503702
 20
485.1973377414158
 30
0.0
 10
1159.262596947355
 20
485.3142225312741
 30
0.0
  0
SPLINE
  5
4C1
330
1F
100
AcDbEntity
  8
SLD-0_0
  6
SLD-Solid
 62
   179
370
    15
100
AcDbSpline
210
0.0
220
0.0
230
1.0
 70
     8
 71
     3
 72
    12
 73
     8
 74
     0
 42
0.00000001
 43
0.00000001
 40
0.0
 40
0.0
 40
0.0
 40
0.0
 40
0.2301708678342482
 40
0.4604246578901536
 40
0.690681290102376
 40
0.920936225135684
 40
1.0
 40
1.0
 40
1.0
 40
1.0
 10
1160.411714894004
 20
484.4611347782168
 30
0.0
 10
1160.385636447433
 20
484.7082133843732
 30
0.0
 10
1160.333470159172
 20
485.2024596101529
 30
0.0
 10
1159.928767229689
 20
485.8485958685866
 30
0.0
 10
1159.340724757418
 20
486.3125293196184
 30
0.0
 10
1158.776704640077
 20
486.4953463419593
 30
0.0
 10
1158.44620906006
 20
486.507921630839
 30
0.0
 10
1158.36173234625
 20
486.5111359524336
 30
0.0
  0
SPLINE
  5
4C2
330
1F
100
AcDbEntity
  8
SLD-0_0
  6
SLD-Solid
 62
   179
370
    15
100
AcDbSpline
210
0.0
220
0.0
230
1.0
 70
     8
 71
     3
 72
    12
 73
     8
 74
     0
 42
0.00000001
 43
0.00000001
 40
0.0
 40
0.0
 40
0.0
 40
0.0
 40
0.2301681503556047
 40
0.4604217855341731
 40
0.6906751171847931
 40
0.9209275459850073
 40
0.9999999999999999
 40
0.9999999999999999
 40
0.9999999999999999
 40
0.9999999999999999
 10
264.4617253367824
 20
486.5111359524336
 30
0.0
 10
264.214647775222
 20
486.4850591484658
 30
0.0
 10
263.7204008870958
 20
486.4328958555633
 30
0.0
 10
263.0742699905575
 20
486.0281876581351
 30
0.0
 10
262.6103222000613
 20
485.440157342775
 30
0.0
 10
262.4275130842888
 20
484.8761332589817
 30
0.0
 10
262.4149296732515
 20
484.5456228659983
 30
0.0
 10
262.4117129867
 20
484.4611347782221
 30
0.0
  0
SPLINE
  5
4C3
330
1F
100
AcDbEntity
  8
SLD-0_0
  6
SLD-Solid
 62
   179
370
    15
100
AcDbSpline
210
0.0
220
0.0
230
1.0
 70
     8
 71
     3
 72
    10
 73
     6
 74
     0
 42
0.00000001
 43
0.00000001
 40
0.0
 40
0.0
 40
0.0
 40
0.0
 40
0.0101000769379007
 40
0.5229188857347441
 40
0.9999999999999999
 40
0.9999999999999999
 40
0.9999999999999999
 40
0.9999999999999999
 10
263.5737055365209
 20
485.3381537961569
 30
0.0
 10
263.5710064412245
 20
485.3363246516788
 30
0.0
 10
263.4312641488097
 20
485.2416229777973
 30
0.0
 10
263.2709411238741
 20
484.9272624330932
 30
0.0
 10
263.2309838772454
 20
484.6127254909288
 30
0.0
 10
263.2117265288
 20
484.4611347782221
 30
0.0
  0
SPLINE
  5
4C4
330
1F
100
AcDbEntity
  8
SLD-0_0
  6
SLD-Solid
 62
   179
370
    15
100
AcDbSpline
210
0.0
220
0.0
230
1.0
 70
     8
 71
     3
 72
     9
 73
     5
 74
     0
 42
0.00000001
 43
0.00000001
 40
0.0
 40
0.0
 40
0.0
 40
0.0
 40
0.0336136221811662
 40
1.0
 40
1.0
 40
1.0
 40
1.0
 10
262.8992491785905
 20
864.2993145751561
 30
0.0
 10
262.8949482830963
 20
864.3010033122931
 30
0.0
 10
262.7669973151507
 20
864.3512429778597
 30
0.0
 10
262.6639014828745
 20
864.4016449579971
 30
0.0
 10
262.5642710749528
 20
864.450352745017
 30
0.0
  0
SPLINE
  5
4C5
330
1F
100
AcDbEntity
  8
SLD-0_0
  6
SLD-Solid
 62
   179
370
    15
100
AcDbSpline
210
0.0
220
0.0
230
1.0
 70
     8
 71
     3
 72
     9
 73
     5
 74
     0
 42
0.00000001
 43
0.00000001
 40
0.0
 40
0.0
 40
0.0
 40
0.0
 40
0.0573795037424694
 40
1.0
 40
1.0
 40
1.0
 40
1.0
 10
262.734710556688
 20
864.3731051253882
 30
0.0
 10
262.7365224496606
 20
864.3703863178116
 30
0.0
 10
262.768099804887
 20
864.3230034127813
 30
0.0
 10
262.8232923188302
 20
864.2999168209293
 30
0.0
 10
262.8753179137132
 20
864.2781549262609
 30
0.0
  0
SPLINE
  5
4C6
330
1F
100
AcDbEntity
  8
SLD-0_0
  6
SLD-Solid
 62
   179
370
    15
100
AcDbSpline
210
0.0
220
0.0
230
1.0
 70
     8
 71
     3
 72
     9
 73
     5
 74
     0
 42
0.00000001
 43
0.00000001
 40
0.0
 40
0.0
 40
0.0
 40
0.0
 40
0.2630340895978683
 40
1.0
 40
1.0
 40
1.0
 40
1.0
 10
262.0064014021775
 20
864.0182190703954
 30
0.0
 10
262.0277623467797
 20
863.9787687963957
 30
0.0
 10
262.1089721421903
 20
863.828787194923
 30
0.0
 10
262.2585579795781
 20
863.7391945251991
 30
0.0
 10
262.3687976424119
 20
863.6731677817907
 30
0.0
  0
SPLINE
  5
4C7
330
1F
100
AcDbEntity
  8
SLD-0_0
  6
SLD-Solid
 62
   179
370
    15
100
AcDbSpline
210
0.0
220
0.0
230
1.0
 70
     8
 71
     3
 72
     9
 73
     5
 74
     0
 42
0.00000001
 43
0.00000001
 40
0.0
 40
0.0
 40
0.0
 40
0.0
 40
0.3135637803991463
 40
1.0
 40
1.0
 40
1.0
 40
1.0
 10
1160.562097412767
 20
864.4486540126409
 30
0.0
 10
1160.531909949585
 20
864.4332365971295
 30
0.0
 10
1160.435637787207
 20
864.3840682413586
 30
0.0
 10
1160.307469363108
 20
864.3348901440355
 30
0.0
 10
1160.219489914598
 20
864.3011325168218
 30
0.0
  0
SPLINE
  5
4C8
330
1F
100
AcDbEntity
  8
SLD-0_0
  6
SLD-Solid
 62
   179
370
    15
100
AcDbSpline
210
0.0
220
0.0
230
1.0
 70
     8
 71
     3
 72
     9
 73
     5
 74
     0
 42
0.00000001
 43
0.00000001
 40
0.0
 40
0.0
 40
0.0
 40
0.0
 40
0.2630101400293847
 40
1.0
 40
1.0
 40
1.0
 40
1.0
 10
1160.754680020037
 20
863.655822830161
 30
0.0
 10
1160.794119839212
 20
863.6771844858097
 30
0.0
 10
1160.944075347283
 20
863.7584043796362
 30
0.0
 10
1161.033653507927
 20
863.9079819314381
 30
0.0
 10
1161.099671703997
 20
864.0182190703954
 30
0.0
  0
SPLINE
  5
4C9
330
1F
100
AcDbEntity
  8
SLD-0_0
  6
SLD-Solid
 62
   179
370
    15
100
AcDbSpline
210
0.0
220
0.0
230
1.0
 70
     8
 71
     3
 72
    11
 73
     7
 74
     0
 42
0.00000001
 43
0.00000001
 40
0.0
 40
0.0
 40
0.0
 40
0.0
 40
0.3698597103586045
 40
0.7440779660345487
 40
0.9441296922508163
 40
0.9999999999999999
 40
0.9999999999999999
 40
0.9999999999999999
 40
0.9999999999999999
 10
625.3911455545926
 20
1056.211071567514
 30
0.0
 10
625.3957320855602
 20
1056.214111601695
 30
0.0
 10
625.4049591966451
 20
1056.220227494795
 30
0.0
 10
625.4155563038084
 20
1056.230127323048
 30
0.0
 10
625.4205886223766
 20
1056.237760251298
 30
0.0
 10
625.4218054143084
 20
1056.240854119096
 30
0.0
 10
625.4220710520053
 20
1056.241529540994
 30
0.0
  0
SPLINE
  5
4CA
330
1F
100
AcDbEntity
  8
SLD-0_0
  6
SLD-Solid
 62
   179
370
    15
100
AcDbSpline
210
0.0
220
0.0
230
1.0
 70
     8
 71
     3
 72
    10
 73
     6
 74
     0
 42
0.00000001
 43
0.00000001
 40
0.0
 40
0.0
 40
0.0
 40
0.0
 40
0.2124966736054281
 40
0.4884680543566644
 40
1.0
 40
1.0
 40
1.0
 40
1.0
 10
593.7013806227646
 20
1056.241529540986
 30
0.0
 10
593.7026294707126
 20
1056.23892928389
 30
0.0
 10
593.7055002089551
 20
1056.232952049033
 30
0.0
 10
593.7162652660426
 20
1056.22192446221
 30
0.0
 10
593.725990708531
 20
1056.215345202305
 30
0.0
 10
593.7323079828225
 20
1056.211071567505
 30
0.0
  0
SPLINE
  5
4CB
330
1F
100
AcDbEntity
  8
SLD-0_0
  6
SLD-Solid
 62
   179
370
    15
100
AcDbSpline
210
0.0
220
0.0
230
1.0
 70
    24
 71
     3
 72
    11
 73
     7
 74
     0
 42
0.00000001
 43
0.00000001
 40
0.0
 40
0.0
 40
0.0
 40
0.0
 40
0.2947583667956729
 40
0.5895045551791258
 40
0.8837781468958542
 40
1.0
 40
1.0
 40
1.0
 40
1.0
 10
611.0617251519932
 20
1102.8050356674
 30
0.0
 10
611.0617251519932
 20
1102.909203237607
 30
0.0
 10
611.0617251519933
 20
1103.11753407417
 30
0.0
 10
611.0617251519932
 20
1103.349110990215
 30
0.0
 10
611.0617251519932
 20
1103.462612939816
 30
0.0
 10
611.0617251519933
 20
1103.486103324698
 30
0.0
 10
611.0617251519932
 20
1103.492754058819
 30
0.0
  0
SPLINE
  5
4CC
330
1F
100
AcDbEntity
  8
SLD-0_0
  6
SLD-Solid
 62
   179
370
    15
100
AcDbSpline
210
0.0
220
0.0
230
1.0
 70
    24
 71
     3
 72
    11
 73
     7
 74
     0
 42
0.00000001
 43
0.00000001
 40
0.0
 40
0.0
 40
0.0
 40
0.0
 40
0.2932995504800679
 40
0.5865695813421675
 40
0.8804849142891491
 40
0.9999999999999999
 40
0.9999999999999999
 40
0.9999999999999999
 40
0.9999999999999999
 10
608.0617265229
 20
1103.492754058819
 30
0.0
 10
608.0617265229001
 20
1103.469429084282
 30
0.0
 10
608.0617265229
 20
1103.422781482788
 30
0.0
 10
608.0617265229
 20
1103.21820345518
 30
0.0
 10
608.0617265229001
 20
1102.996108368342
 30
0.0
 10
608.0617265229
 20
1102.847884457835
 30
0.0
 10
608.0617265229
 20
1102.8050356674
 30
0.0
  0
SPLINE
  5
4CD
330
1F
100
AcDbEntity
  8
SLD-0_0
  6
SLD-Solid
 62
   179
370
    15
100
AcDbSpline
210
0.0
220
0.0
230
1.0
 70
     8
 71
     3
 72
    10
 73
     6
 74
     0
 42
0.00000001
 43
0.00000001
 40
0.0
 40
0.0
 40
0.0
 40
0.0
 40
0.2119792665428098
 40
0.4878939460699716
 40
1.0
 40
1.0
 40
1.0
 40
1.0
 10
625.4220710520073
 20
1101.26836832041
 30
0.0
 10
625.4208218786376
 20
1101.269620439115
 30
0.0
 10
625.417946766677
 20
1101.27250233009
 30
0.0
 10
625.407178535848
 20
1101.280336921174
 30
0.0
 10
625.3974607746501
 20
1101.286630253861
 30
0.0
 10
625.3911455545946
 20
1101.290720062201
 30
0.0
  0
SPLINE
  5
4CE
330
1F
100
AcDbEntity
  8
SLD-0_0
  6
SLD-Solid
 62
   179
370
    15
100
AcDbSpline
210
0.0
220
0.0
230
1.0
 70
     8
 71
     3
 72
    12
 73
     8
 74
     0
 42
0.00000001
 43
0.00000001
 40
0.0
 40
0.0
 40
0.0
 40
0.0
 40
0.223890824634913
 40
0.4477834147339916
 40
0.671680016032323
 40
0.8955736928310902
 40
1.0
 40
1.0
 40
1.0
 40
1.0
 10
609.5773720566955
 20
1105.801778392779
 30
0.0
 10
609.6054790039624
 20
1105.801450309398
 30
0.0
 10
609.6616931201297
 20
1105.80079414005
 30
0.0
 10
609.7365889553503
 20
1105.795701737057
 30
0.0
 10
609.7931934652222
 20
1105.788445218677
 30
0.0
 10
609.8207996408332
 20
1105.781213346328
 30
0.0
 10
609.8253907595463
 20
1105.776692301211
 30
0.0
 10
609.8268510226932
 20
1105.775254325854
 30
0.0
  0
SPLINE
  5
4CF
330
1F
100
AcDbEntity
  8
SLD-0_0
  6
SLD-Solid
 62
   179
370
    15
100
AcDbSpline
210
0.0
220
0.0
230
1.0
 70
     8
 71
     3
 72
    12
 73
     8
 74
     0
 42
0.00000001
 43
0.00000001
 40
0.0
 40
0.0
 40
0.0
 40
0.0
 40
0.2239002481104736
 40
0.4477865262334284
 40
0.6716826572267403
 40
0.8955773559530597
 40
1.0
 40
1.0
 40
1.0
 40
1.0
 10
609.2966043775
 20
1105.775254325828
 30
0.0
 10
609.3011749980667
 20
1105.778335321309
 30
0.0
 10
609.3103159540217
 20
1105.784497120035
 30
0.0
 10
609.3581621634033
 20
1105.792641438817
 30
0.0
 10
609.4251173341132
 20
1105.79874519921
 30
0.0
 10
609.4919893558293
 20
1105.801378400413
 30
0.0
 10
609.5330301536113
 20
1105.801681872304
 30
0.0
 10
609.5460833434977
 20
1105.801778392753
 30
0.0
  0
SPLINE
  5
4D0
330
1F
100
AcDbEntity
  8
SLD-0_0
  6
SLD-Solid
 62
   179
370
    15
100
AcDbSpline
210
0.0
220
0.0
230
1.0
 70
     8
 71
     3
 72
    11
 73
     7
 74
     0
 42
0.00000001
 43
0.00000001
 40
0.0
 40
0.0
 40
0.0
 40
0.0
 40
0.3701800513715943
 40
0.7443923998124397
 40
0.9443190614534435
 40
1.0
 40
1.0
 40
1.0
 40
1.0
 10
593.7323079828544
 20
1101.290720062232
 30
0.0
 10
593.7277219639776
 20
1101.28778565186
 30
0.0
 10
593.7184999716401
 20
1101.281884867171
 30
0.0
 10
593.7078932900446
 20
1101.274305617585
 30
0.0
 10
593.7028705380362
 20
1101.26999820437
 30
0.0
 10
593.7016471275618
 20
1101.268659861747
 30
0.0
 10
593.7013806227966
 20
1101.268368320441
 30
0.0
  0
SPLINE
  5
4D1
330
1F
100
AcDbEntity
  8
SLD-0_0
  6
SLD-Solid
 62
   179
370
    15
100
AcDbSpline
210
0.0
220
0.0
230
1.0
 70
     8
 71
     3
 72
    11
 73
     7
 74
     0
 42
0.00000001
 43
0.00000001
 40
0.0
 40
0.0
 40
0.0
 40
0.0
 40
0.1027867591004245
 40
0.4395676255160306
 40
0.936644904393678
 40
1.0
 40
1.0
 40
1.0
 40
1.0
 10
609.0291322593113
 20
1102.192478733024
 30
0.0
 10
609.0091556332754
 20
1102.194821882142
 30
0.0
 10
608.9237255822718
 20
1102.204842360491
 30
0.0
 10
608.7113914250936
 20
1102.251896812775
 30
0.0
 10
608.5142457662882
 20
1102.334413022872
 30
0.0
 10
608.4293602147852
 20
1102.430469271843
 30
0.0
 10
608.4197641734501
 20
1102.441328124961
 30
0.0
  0
SPLINE
  5
4D2
330
1F
100
AcDbEntity
  8
SLD-0_0
  6
SLD-Solid
 62
   179
370
    15
100
AcDbSpline
210
0.0
220
0.0
230
1.0
 70
     8
 71
     3
 72
     9
 73
     5
 74
     0
 42
0.00000001
 43
0.00000001
 40
0.0
 40
0.0
 40
0.0
 40
0.0
 40
0.8628091656136457
 40
1.0
 40
1.0
 40
1.0
 40
1.0
 10
609.0291322593113
 20
1102.192478733024
 30
0.0
 10
609.0385074350007
 20
1102.1910210797
 30
0.0
 10
609.0493733090121
 20
1102.189331652441
 30
0.0
 10
609.0602347359136
 20
1102.187591470575
 30
0.0
 10
609.0617248241325
 20
1102.187352733573
 30
0.0
  0
SPLINE
  5
4D3
330
1F
100
AcDbEntity
  8
SLD-0_0
  6
SLD-Solid
 62
   179
370
    15
100
AcDbSpline
210
0.0
220
0.0
230
1.0
 70
     8
 71
     3
 72
     9
 73
     5
 74
     0
 42
0.00000001
 43
0.00000001
 40
0.0
 40
0.0
 40
0.0
 40
0.0
 40
0.1371829972106247
 40
1.0
 40
1.0
 40
1.0
 40
1.0
 10
610.0617268506904
 20
1102.187352733573
 30
0.0
 10
610.0632169321381
 20
1102.187591471619
 30
0.0
 10
610.0740789301835
 20
1102.189331760505
 30
0.0
 10
610.0849464553286
 20
1102.191021122645
 30
0.0
 10
610.094323140802
 20
1102.192478733024
 30
0.0
  0
SPLINE
  5
4D4
330
1F
100
AcDbEntity
  8
SLD-0_0
  6
SLD-Solid
 62
   179
370
    15
100
AcDbSpline
210
0.0
220
0.0
230
1.0
 70
     8
 71
     3
 72
    12
 73
     8
 74
     0
 42
0.00000001
 43
0.00000001
 40
0.0
 40
0.0
 40
0.0
 40
0.0
 40
0.1201328766938339
 40
0.6646835894412896
 40
0.8650814276360832
 40
0.9736861906586195
 40
1.0
 40
1.0
 40
1.0
 40
1.0
 10
610.6531576637645
 20
1102.405207710227
 30
0.0
 10
610.6349791651188
 20
1102.388020423442
 30
0.0
 10
610.5343992900408
 20
1102.292924827739
 30
0.0
 10
610.3536629812545
 20
1102.235806212418
 30
0.0
 10
610.1855517736876
 20
1102.20313424656
 30
0.0
 10
610.1196832846048
 20
1102.19601665548
 30
0.0
 10
610.0984620239584
 20
1102.193056136992
 30
0.0
 10
610.094323140802
 20
1102.192478733024
 30
0.0
  0
SPLINE
  5
4D5
330
1F
100
AcDbEntity
  8
SLD-0_0
  6
SLD-Solid
 62
   179
370
    15
100
AcDbSpline
210
0.0
220
0.0
230
1.0
 70
     8
 71
     3
 72
    12
 73
     8
 74
     0
 42
0.00000001
 43
0.00000001
 40
0.0
 40
0.0
 40
0.0
 40
0.0
 40
0.3037006792661635
 40
0.6074104828523635
 40
0.9111823129102465
 40
0.9694952538428807
 40
1.0
 40
1.0
 40
1.0
 40
1.0
 10
625.4220710520053
 20
1056.241529540994
 30
0.0
 10
625.4490876442592
 20
1056.338066263324
 30
0.0
 10
625.5031216404477
 20
1056.531142608313
 30
0.0
 10
625.5011749913999
 20
1056.8726924984
 30
0.0
 10
625.4534866982168
 20
1057.116048878319
 30
0.0
 10
625.4100008549439
 20
1057.248506464561
 30
0.0
 10
625.3992545909482
 20
1057.27768782537
 30
0.0
 10
625.3955637488866
 20
1057.287710266092
 30
0.0
  0
SPLINE
  5
4D6
330
1F
100
AcDbEntity
  8
SLD-0_0
  6
SLD-Solid
 62
   179
370
    15
100
AcDbSpline
210
0.0
220
0.0
230
1.0
 70
     8
 71
     3
 72
    12
 73
     8
 74
     0
 42
0.00000001
 43
0.00000001
 40
0.0
 40
0.0
 40
0.0
 40
0.0
 40
0.0305052985727335
 40
0.0888172340147633
 40
0.3925897581086354
 40
0.6962996132319105
 40
1.0
 40
1.0
 40
1.0
 40
1.0
 10
593.7278897885285
 20
1057.287710266084
 30
0.0
 10
593.724198108781
 20
1057.277687893687
 30
0.0
 10
593.713449655254
 20
1057.24850740911
 30
0.0
 10
593.6699780700151
 20
1057.116045419555
 30
0.0
 10
593.622270577219
 20
1056.872694154989
 30
0.0
 10
593.6203343287999
 20
1056.531142462935
 30
0.0
 10
593.6743654721903
 20
1056.338066178407
 30
0.0
 10
593.7013806227646
 20
1056.241529540986
 30
0.0
  0
SPLINE
  5
4D7
330
1F
100
AcDbEntity
  8
SLD-0_0
  6
SLD-Solid
 62
   179
370
    15
100
AcDbSpline
210
0.0
220
0.0
230
1.0
 70
     8
 71
     3
 72
    11
 73
     7
 74
     0
 42
0.00000001
 43
0.00000001
 40
0.0
 40
0.0
 40
0.0
 40
0.0
 40
0.2500000201498887
 40
0.5000467733585259
 40
0.7500259298651543
 40
1.0
 40
1.0
 40
1.0
 40
1.0
 10
609.5617258374115
 20
1106.072800712546
 30
0.0
 10
609.8892784484544
 20
1106.07221434098
 30
0.0
 10
610.5444449006767
 20
1106.071041488236
 30
0.0
 10
611.3700015812083
 20
1106.070181163603
 30
0.0
 10
611.9467389506834
 20
1106.08682112748
 30
0.0
 10
612.021791181876
 20
1106.125038820327
 30
0.0
 10
612.0593169156929
 20
1106.144147472342
 30
0.0
  0
SPLINE
  5
4D8
330
1F
100
AcDbEntity
  8
SLD-0_0
  6
SLD-Solid
 62
   179
370
    15
100
AcDbSpline
210
0.0
220
0.0
230
1.0
 70
     8
 71
     3
 72
    11
 73
     7
 74
     0
 42
0.00000001
 43
0.00000001
 40
0.0
 40
0.0
 40
0.0
 40
0.0
 40
0.2472443343863507
 40
0.498081988003993
 40
0.7489185262736933
 40
1.0
 40
1.0
 40
1.0
 40
1.0
 10
607.0669510785957
 20
1106.143432216605
 30
0.0
 10
607.1040996037452
 20
1106.124610651093
 30
0.0
 10
607.1789365511875
 20
1106.086693977327
 30
0.0
 10
607.753109999918
 20
1106.070171332882
 30
0.0
 10
608.5787754778884
 20
1106.07113422438
 30
0.0
 10
609.2339691396336
 20
1106.072245035799
 30
0.0
 10
609.5617258374115
 20
1106.072800712546
 30
0.0
  0
SPLINE
  5
4D9
330
1F
100
AcDbEntity
  8
SLD-0_0
  6
SLD-Solid
 62
   179
370
    15
100
AcDbSpline
210
0.0
220
0.0
230
1.0
 70
     8
 71
     3
 72
    10
 73
     6
 74
     0
 42
0.00000001
 43
0.00000001
 40
0.0
 40
0.0
 40
0.0
 40
0.0
 40
0.3333276812376291
 40
0.6666615068714664
 40
1.0
 40
1.0
 40
1.0
 40
1.0
 10
639.4495711114724
 20
1073.150711612662
 30
0.0
 10
639.3921654939217
 20
1073.001122081297
 30
0.0
 10
639.2773532006331
 20
1072.701940261106
 30
0.0
 10
639.038629318115
 20
1072.433086925948
 30
0.0
 10
638.8723752097544
 20
1072.408758130069
 30
0.0
 10
638.7892475735863
 20
1072.396593646964
 30
0.0
  0
SPLINE
  5
4DA
330
1F
100
AcDbEntity
  8
SLD-0_0
  6
SLD-Solid
 62
   179
370
    15
100
AcDbSpline
210
0.0
220
0.0
230
1.0
 70
     8
 71
     3
 72
    11
 73
     7
 74
     0
 42
0.00000001
 43
0.00000001
 40
0.0
 40
0.0
 40
0.0
 40
0.0
 40
0.249987845666973
 40
0.4999971761095288
 40
0.750010456344937
 40
1.0
 40
1.0
 40
1.0
 40
1.0
 10
638.3545774419327
 20
1073.509948806724
 30
0.0
 10
638.3141391877108
 20
1073.19389016757
 30
0.0
 10
638.2332592038698
 20
1072.561745726145
 30
0.0
 10
638.276000495918
 20
1071.611275855972
 30
0.0
 10
638.4471877963242
 20
1070.806485994753
 30
0.0
 10
638.6658837343015
 20
1070.515514543566
 30
0.0
 10
638.7752265122255
 20
1070.370035724601
 30
0.0
  0
SPLINE
  5
4DB
330
1F
100
AcDbEntity
  8
SLD-0_0
  6
SLD-Solid
 62
   179
370
    15
100
AcDbSpline
210
0.0
220
0.0
230
1.0
 70
     8
 71
     3
 72
    11
 73
     7
 74
     0
 42
0.00000001
 43
0.00000001
 40
0.0
 40
0.0
 40
0.0
 40
0.0
 40
0.2114545460670224
 40
0.4758980400905007
 40
0.7369534120719712
 40
1.0
 40
1.0
 40
1.0
 40
1.0
 10
639.2637416406172
 20
1075.189488487244
 30
0.0
 10
639.1882289491869
 20
1075.178934832379
 30
0.0
 10
639.0182806434062
 20
1075.155182854665
 30
0.0
 10
638.7750960884148
 20
1074.868831567679
 30
0.0
 10
638.5556594604391
 20
1074.375529737748
 30
0.0
 10
638.4488512348227
 20
1073.945092019295
 30
0.0
 10
638.3952442242402
 20
1073.729055480957
 30
0.0
  0
SPLINE
  5
4DC
330
1F
100
AcDbEntity
  8
SLD-0_0
  6
SLD-Solid
 62
   179
370
    15
100
AcDbSpline
210
0.0
220
0.0
230
1.0
 70
     8
 71
     3
 72
    12
 73
     8
 74
     0
 42
0.00000001
 43
0.00000001
 40
0.0
 40
0.0
 40
0.0
 40
0.0
 40
0.2000000068282781
 40
0.3999998170933058
 40
0.5999935817613911
 40
0.8000032982922571
 40
1.0
 40
1.0
 40
1.0
 40
1.0
 10
638.6735321407126
 20
1074.104803161607
 30
0.0
 10
638.7041139793636
 20
1074.112636838366
 30
0.0
 10
638.765277626609
 20
1074.128304184184
 30
0.0
 10
638.8548065796538
 20
1074.065516812901
 30
0.0
 10
638.9328319954013
 20
1073.944480711217
 30
0.0
 10
638.995084651316
 20
1073.770408955663
 30
0.0
 10
639.0162377749023
 20
1073.625814618407
 30
0.0
 10
639.0268139925705
 20
1073.553519802079
 30
0.0
  0
SPLINE
  5
4DD
330
1F
100
AcDbEntity
  8
SLD-0_0
  6
SLD-Solid
 62
   179
370
    15
100
AcDbSpline
210
0.0
220
0.0
230
1.0
 70
     8
 71
     3
 72
    10
 73
     6
 74
     0
 42
0.00000001
 43
0.00000001
 40
0.0
 40
0.0
 40
0.0
 40
0.0
 40
0.3333421917690718
 40
0.6666782465847166
 40
1.0
 40
1.0
 40
1.0
 40
1.0
 10
639.0268139925705
 20
1073.553519802079
 30
0.0
 10
639.0526061208107
 20
1073.479296330476
 30
0.0
 10
639.104189902448
 20
1073.330850753752
 30
0.0
 10
639.2112336510977
 20
1073.19072011242
 30
0.0
 10
639.2904785305743
 20
1073.169968358921
 30
0.0
 10
639.3301001203166
 20
1073.159592704759
 30
0.0
  0
SPLINE
  5
4DE
330
1F
100
AcDbEntity
  8
SLD-0_0
  6
SLD-Solid
 62
   179
370
    15
100
AcDbSpline
210
0.0
220
0.0
230
1.0
 70
     8
 71
     3
 72
    12
 73
     8
 74
     0
 42
0.00000001
 43
0.00000001
 40
0.0
 40
0.0
 40
0.0
 40
0.0
 40
0.2650211514119027
 40
0.5023680266795394
 40
0.6218560476454928
 40
0.7419950786491363
 40
1.0
 40
1.0
 40
1.0
 40
1.0
 10
639.4487738993486
 20
1073.20036228176
 30
0.0
 10
639.4499784534067
 20
1073.196642488449
 30
0.0
 10
639.4522617784999
 20
1073.189591333415
 30
0.0
 10
639.4533830174772
 20
1073.17827114205
 30
0.0
 10
639.4532042257772
 20
1073.169520500775
 30
0.0
 10
639.452311490338
 20
1073.160509764874
 30
0.0
 10
639.450682535642
 20
1073.154685480408
 30
0.0
 10
639.4495711114724
 20
1073.150711612662
 30
0.0
  0
SPLINE
  5
4DF
330
1F
100
AcDbEntity
  8
SLD-0_0
  6
SLD-Solid
 62
   179
370
    15
100
AcDbSpline
210
0.0
220
0.0
230
1.0
 70
     8
 71
     3
 72
    11
 73
     7
 74
     0
 42
0.00000001
 43
0.00000001
 40
0.0
 40
0.0
 40
0.0
 40
0.0
 40
0.2500000384352959
 40
0.4999973715601206
 40
0.749998952521461
 40
1.0
 40
1.0
 40
1.0
 40
1.0
 10
615.7667891506572
 20
1050.307291107139
 30
0.0
 10
615.5728347182712
 20
1050.250326222272
 30
0.0
 10
615.1849279523261
 20
1050.136397068971
 30
0.0
 10
614.7212437467783
 20
1049.817852225534
 30
0.0
 10
614.4173937409544
 20
1049.436145648743
 30
0.0
 10
614.4042957947383
 20
1049.17437767246
 30
0.0
 10
614.3977468286176
 20
1049.043493823966
 30
0.0
  0
SPLINE
  5
4E0
330
1F
100
AcDbEntity
  8
SLD-0_0
  6
SLD-Solid
 62
   179
370
    15
100
AcDbSpline
210
0.0
220
0.0
230
1.0
 70
     8
 71
     3
 72
     9
 73
     5
 74
     0
 42
0.00000001
 43
0.00000001
 40
0.0
 40
0.0
 40
0.0
 40
0.0
 40
0.4999979482481499
 40
1.0
 40
1.0
 40
1.0
 40
1.0
 10
617.2451706056019
 20
1047.400551395377
 30
0.0
 10
617.1294383589228
 20
1047.482637182645
 30
0.0
 10
616.8979729157452
 20
1047.646809430862
 30
0.0
 10
616.8231634027553
 20
1047.885246588306
 30
0.0
 10
616.7857584927698
 20
1048.004465656241
 30
0.0
  0
SPLINE
  5
4E1
330
1F
100
AcDbEntity
  8
SLD-0_0
  6
SLD-Solid
 62
   179
370
    15
100
AcDbSpline
210
0.0
220
0.0
230
1.0
 70
     8
 71
     3
 72
    12
 73
     8
 74
     0
 42
0.00000001
 43
0.00000001
 40
0.0
 40
0.0
 40
0.0
 40
0.0
 40
0.1357541386235406
 40
0.3518230286447729
 40
0.567881702804963
 40
0.7839403346424766
 40
1.0
 40
1.0
 40
1.0
 40
1.0
 10
617.409442869292
 20
1049.78342588416
 30
0.0
 10
617.3912015676373
 20
1049.842296624337
 30
0.0
 10
617.343927060505
 20
1049.994867163384
 30
0.0
 10
617.1232324132191
 20
1050.181644501123
 30
0.0
 10
616.7862430569222
 20
1050.324365264895
 30
0.0
 10
616.3676618254276
 20
1050.385381299576
 30
0.0
 10
616.0631232360184
 20
1050.351878110703
 30
0.0
 10
615.9108535771234
 20
1050.335126476201
 30
0.0
  0
SPLINE
  5
4E2
330
1F
100
AcDbEntity
  8
SLD-0_0
  6
SLD-Solid
 62
   179
370
    15
100
AcDbSpline
210
0.0
220
0.0
230
1.0
 70
     8
 71
     3
 72
    10
 73
     6
 74
     0
 42
0.00000001
 43
0.00000001
 40
0.0
 40
0.0
 40
0.0
 40
0.0
 40
0.3332410398743536
 40
0.6652958460887357
 40
1.0
 40
1.0
 40
1.0
 40
1.0
 10
616.3866029504815
 20
1050.048070507029
 30
0.0
 10
616.3841788605479
 20
1050.01624766515
 30
0.0
 10
616.3793393096811
 20
1049.952715260733
 30
0.0
 10
616.3230797257329
 20
1049.854255044326
 30
0.0
 10
616.2578763655782
 20
1049.7978120379
 30
0.0
 10
616.2251451436558
 20
1049.769478397349
 30
0.0
  0
SPLINE
  5
4E3
330
1F
100
AcDbEntity
  8
SLD-0_0
  6
SLD-Solid
 62
   179
370
    15
100
AcDbSpline
210
0.0
220
0.0
230
1.0
 70
     8
 71
     3
 72
     9
 73
     5
 74
     0
 42
0.00000001
 43
0.00000001
 40
0.0
 40
0.0
 40
0.0
 40
0.0
 40
0.4991826531762675
 40
1.0
 40
1.0
 40
1.0
 40
1.0
 10
616.2251451436558
 20
1049.769478397349
 30
0.0
 10
616.2004025307737
 20
1049.727861139626
 30
0.0
 10
616.150836279373
 20
1049.644490338461
 30
0.0
 10
616.1561422592973
 20
1049.563192244913
 30
0.0
 10
616.1587995860854
 20
1049.5224767494
 30
0.0
  0
SPLINE
  5
4E4
330
1F
100
AcDbEntity
  8
SLD-0_0
  6
SLD-Solid
 62
   179
370
    15
100
AcDbSpline
210
0.0
220
0.0
230
1.0
 70
     8
 71
     3
 72
    11
 73
     7
 74
     0
 42
0.00000001
 43
0.00000001
 40
0.0
 40
0.0
 40
0.0
 40
0.0
 40
0.2778286684084988
 40
0.5146180976253997
 40
0.7437805451939985
 40
1.0
 40
1.0
 40
1.0
 40
1.0
 10
616.3073213223835
 20
1049.326735095939
 30
0.0
 10
616.3059172988847
 20
1049.324673145027
 30
0.0
 10
616.303316646093
 20
1049.320853822631
 30
0.0
 10
616.2969101645137
 20
1049.316155819833
 30
0.0
 10
616.289021040975
 20
1049.313132139524
 30
0.0
 10
616.2836117106209
 20
1049.312789607925
 30
0.0
 10
616.2807562772651
 20
1049.312608795127
 30
0.0
  0
SPLINE
  5
4E5
330
1F
100
AcDbEntity
  8
SLD-0_0
  6
SLD-Solid
 62
   179
370
    15
100
AcDbSpline
210
0.0
220
0.0
230
1.0
 70
     8
 71
     3
 72
    11
 73
     7
 74
     0
 42
0.00000001
 43
0.00000001
 40
0.0
 40
0.0
 40
0.0
 40
0.0
 40
0.2500027602347786
 40
0.5000055596087727
 40
0.7500090667563906
 40
1.0
 40
1.0
 40
1.0
 40
1.0
 10
616.2807562772651
 20
1049.312608795127
 30
0.0
 10
616.1618536363178
 20
1049.318457772396
 30
0.0
 10
615.924048335808
 20
1049.33015572785
 30
0.0
 10
615.6362629179199
 20
1049.45056062261
 30
0.0
 10
615.4283727017596
 20
1049.629812029689
 30
0.0
 10
615.385446998457
 20
1049.785588597151
 30
0.0
 10
615.3639846865555
 20
1049.863474922141
 30
0.0
  0
SPLINE
  5
4E6
330
1F
100
AcDbEntity
  8
SLD-0_0
  6
SLD-Solid
 62
   179
370
    15
100
AcDbSpline
210
0.0
220
0.0
230
1.0
 70
     8
 71
     3
 72
    15
 73
    11
 74
     0
 42
0.00000001
 43
0.00000001
 40
0.0
 40
0.0
 40
0.0
 40
0.0
 40
0.1256533354882335
 40
0.2500542698689813
 40
0.3750317887283042
 40
0.4999971338374241
 40
0.6249825124516473
 40
0.7499355609701962
 40
0.8744999973541745
 40
1.0
 40
1.0
 40
1.0
 40
1.0
 10
615.9372155938426
 20
1050.2788596916
 30
0.0
 10
615.9846482862717
 20
1050.281244620152
 30
0.0
 10
616.0790409040819
 20
1050.285990706402
 30
0.0
 10
616.2041190657633
 20
1050.257339094032
 30
0.0
 10
616.3038949281331
 20
1050.205482989442
 30
0.0
 10
616.3695387044094
 20
1050.131404754714
 30
0.0
 10
616.3958148284352
 20
1050.041886324827
 30
0.0
 10
616.3795642486072
 20
1049.944921655533
 30
0.0
 10
616.3256481993544
 20
1049.846837324713
 30
0.0
 10
616.2601025363539
 20
1049.790328388617
 30
0.0
 10
616.227207091836
 20
1049.761968212108
 30
0.0
  0
SPLINE
  5
4E7
330
1F
100
AcDbEntity
  8
SLD-0_0
  6
SLD-Solid
 62
   179
370
    15
100
AcDbSpline
210
0.0
220
0.0
230
1.0
 70
     8
 71
     3
 72
    15
 73
    11
 74
     0
 42
0.00000001
 43
0.00000001
 40
0.0
 40
0.0
 40
0.0
 40
0.0
 40
0.1250045597219363
 40
0.2499951114421548
 40
0.3749840049761112
 40
0.4999712325370252
 40
0.62496302841208
 40
0.7499668182386977
 40
0.874978811171072
 40
1.0
 40
1.0
 40
1.0
 40
1.0
 10
616.9955128256698
 20
1048.768239574393
 30
0.0
 10
617.0951899470398
 20
1048.862384729257
 30
0.0
 10
617.2945330199686
 20
1049.050664489085
 30
0.0
 10
617.4480143314327
 20
1049.37045153347
 30
0.0
 10
617.4749884753571
 20
1049.680402158065
 30
0.0
 10
617.3647056657032
 20
1049.956890041297
 30
0.0
 10
617.1289977605887
 20
1050.175381231308
 30
0.0
 10
616.7875674029495
 20
1050.316699615773
 30
0.0
 10
616.3700042882087
 20
1050.377985042857
 30
0.0
 10
616.0652337538239
 20
1050.344446022561
 30
0.0
 10
615.9128428820987
 20
1050.327675895652
 30
0.0
  0
SPLINE
  5
4E8
330
1F
100
AcDbEntity
  8
SLD-0_0
  6
SLD-Solid
 62
   179
370
    15
100
AcDbSpline
210
0.0
220
0.0
230
1.0
 70
     8
 71
     3
 72
    11
 73
     7
 74
     0
 42
0.00000001
 43
0.00000001
 40
0.0
 40
0.0
 40
0.0
 40
0.0
 40
0.2500121750981328
 40
0.4999964117693273
 40
0.7499983683135991
 40
1.0
 40
1.0
 40
1.0
 40
1.0
 10
617.2474355821033
 20
1047.393160419425
 30
0.0
 10
617.1338045431386
 20
1047.47576396797
 30
0.0
 10
616.9065551632802
 20
1047.640961834257
 30
0.0
 10
616.7623604091033
 20
1047.99082572335
 30
0.0
 10
616.7715011905894
 20
1048.377873463448
 30
0.0
 10
616.920842312986
 20
1048.638117593773
 30
0.0
 10
616.9955128256698
 20
1048.768239574393
 30
0.0
  0
SPLINE
  5
4E9
330
1F
100
AcDbEntity
  8
SLD-0_0
  6
SLD-Solid
 62
   179
370
    15
100
AcDbSpline
210
0.0
220
0.0
230
1.0
 70
     8
 71
     3
 72
    11
 73
     7
 74
     0
 42
0.00000001
 43
0.00000001
 40
0.0
 40
0.0
 40
0.0
 40
0.0
 40
0.2591136104757692
 40
0.4998884421803512
 40
0.7408914782423875
 40
1.0
 40
1.0
 40
1.0
 40
1.0
 10
617.2010091517587
 20
1047.342436866721
 30
0.0
 10
617.2083074053988
 20
1047.345166074767
 30
0.0
 10
617.2223873784118
 20
1047.350431331022
 30
0.0
 10
617.238532537766
 20
1047.36337559721
 30
0.0
 10
617.2480540185759
 20
1047.378438523502
 30
0.0
 10
617.2476466436448
 20
1047.388136094077
 30
0.0
 10
617.2474355821033
 20
1047.393160419425
 30
0.0
  0
SPLINE
  5
4EA
330
1F
100
AcDbEntity
  8
SLD-0_0
  6
SLD-Solid
 62
   179
370
    15
100
AcDbSpline
210
0.0
220
0.0
230
1.0
 70
     8
 71
     3
 72
    11
 73
     7
 74
     0
 42
0.00000001
 43
0.00000001
 40
0.0
 40
0.0
 40
0.0
 40
0.0
 40
0.2499735276597374
 40
0.4999646240876518
 40
0.749974135630014
 40
1.0
 40
1.0
 40
1.0
 40
1.0
 10
614.3992313568016
 20
1049.035924034079
 30
0.0
 10
614.4649928624109
 20
1048.797066985392
 30
0.0
 10
614.5965204955131
 20
1048.319336100542
 30
0.0
 10
615.2338117534646
 20
1047.761184452625
 30
0.0
 10
616.1147122956742
 20
1047.385529392376
 30
0.0
 10
616.8389023052529
 20
1047.356801355107
 30
0.0
 10
617.2010091517587
 20
1047.342436866721
 30
0.0
  0
SPLINE
  5
4EB
330
1F
100
AcDbEntity
  8
SLD-0_0
  6
SLD-Solid
 62
   179
370
    15
100
AcDbSpline
210
0.0
220
0.0
230
1.0
 70
     8
 71
     3
 72
    11
 73
     7
 74
     0
 42
0.00000001
 43
0.00000001
 40
0.0
 40
0.0
 40
0.0
 40
0.0
 40
0.250035856369746
 40
0.5000537058047101
 40
0.7500353668932237
 40
1.0
 40
1.0
 40
1.0
 40
1.0
 10
615.768733752193
 20
1050.299840526542
 30
0.0
 10
615.5747227435583
 20
1050.242857661088
 30
0.0
 10
615.1867146984589
 20
1050.12889603394
 30
0.0
 10
614.7228912719323
 20
1049.810297966523
 30
0.0
 10
614.4189009313926
 20
1049.428592024301
 30
0.0
 10
614.4057877327884
 20
1049.166810392092
 30
0.0
 10
614.3992313568016
 20
1049.035924034079
 30
0.0
  0
SPLINE
  5
4EC
330
1F
100
AcDbEntity
  8
SLD-0_0
  6
SLD-Solid
 62
   179
370
    15
100
AcDbSpline
210
0.0
220
0.0
230
1.0
 70
     8
 71
     3
 72
    11
 73
     7
 74
     0
 42
0.00000001
 43
0.00000001
 40
0.0
 40
0.0
 40
0.0
 40
0.0
 40
0.2499720306750648
 40
0.4999542909667132
 40
0.7499612869696963
 40
0.9999999999999999
 40
0.9999999999999999
 40
0.9999999999999999
 40
0.9999999999999999
 10
615.3657914523163
 20
1049.855964736918
 30
0.0
 10
615.367305587121
 20
1049.895364706205
 30
0.0
 10
615.3703339186933
 20
1049.974166257144
 30
0.0
 10
615.4551405275304
 20
1050.091992246272
 30
0.0
 10
615.5864154305716
 20
1050.193797550414
 30
0.0
 10
615.7001019374115
 20
1050.234530738526
 30
0.0
 10
615.7569487963
 20
1050.2548986244
 30
0.0
  0
SPLINE
  5
4ED
330
1F
100
AcDbEntity
  8
SLD-0_0
  6
SLD-Solid
 62
   179
370
    15
100
AcDbSpline
210
0.0
220
0.0
230
1.0
 70
     8
 71
     3
 72
    11
 73
     7
 74
     0
 42
0.00000001
 43
0.00000001
 40
0.0
 40
0.0
 40
0.0
 40
0.0
 40
0.2500310529489188
 40
0.5000459694831103
 40
0.750037463984691
 40
1.0
 40
1.0
 40
1.0
 40
1.0
 10
616.2828200880566
 20
1049.305158214549
 30
0.0
 10
616.1638833750533
 20
1049.310981588364
 30
0.0
 10
615.9260176249412
 20
1049.322627960168
 30
0.0
 10
615.638148063274
 20
1049.443046880355
 30
0.0
 10
615.4301946927229
 20
1049.622293397728
 30
0.0
 10
615.3872583701284
 20
1049.778077298309
 30
0.0
 10
615.3657914523163
 20
1049.855964736918
 30
0.0
  0
SPLINE
  5
4EE
330
1F
100
AcDbEntity
  8
SLD-0_0
  6
SLD-Solid
 62
   179
370
    15
100
AcDbSpline
210
0.0
220
0.0
230
1.0
 70
     8
 71
     3
 72
    12
 73
     8
 74
     0
 42
0.00000001
 43
0.00000001
 40
0.0
 40
0.0
 40
0.0
 40
0.0
 40
0.278446984298467
 40
0.5145416966618427
 40
0.627776624486798
 40
0.7436969363074697
 40
1.0
 40
1.0
 40
1.0
 40
1.0
 10
616.3093925837555
 20
1049.319284515361
 30
0.0
 10
616.3080023471296
 20
1049.317203175191
 30
0.0
 10
616.305433331293
 20
1049.31335707032
 30
0.0
 10
616.2999874557703
 20
1049.309349257407
 30
0.0
 10
616.2951940277062
 20
1049.307221100956
 30
0.0
 10
616.289835864707
 20
1049.305613010807
 30
0.0
 10
616.2856810099486
 20
1049.305343673214
 30
0.0
 10
616.2828200880566
 20
1049.305158214549
 30
0.0
  0
SPLINE
  5
4EF
330
1F
100
AcDbEntity
  8
SLD-0_0
  6
SLD-Solid
 62
   179
370
    15
100
AcDbSpline
210
0.0
220
0.0
230
1.0
 70
     8
 71
     3
 72
    11
 73
     7
 74
     0
 42
0.00000001
 43
0.00000001
 40
0.0
 40
0.0
 40
0.0
 40
0.0
 40
0.25002447730989
 40
0.5000294515095025
 40
0.7500234185679461
 40
1.0
 40
1.0
 40
1.0
 40
1.0
 10
616.227207091836
 20
1049.761968212108
 30
0.0
 10
616.2030890876846
 20
1049.720449744454
 30
0.0
 10
616.154854960702
 20
1049.637416047787
 30
0.0
 10
616.1527248937824
 20
1049.513116723889
 30
0.0
 10
616.1992437284991
 20
1049.400292097378
 30
0.0
 10
616.2726771498442
 20
1049.346286416714
 30
0.0
 10
616.3093925837555
 20
1049.319284515361
 30
0.0
  0
SPLINE
  5
4F0
330
1F
100
AcDbEntity
  8
SLD-0_0
  6
SLD-Solid
 62
   179
370
    15
100
AcDbSpline
210
0.0
220
0.0
230
1.0
 70
     8
 71
     3
 72
    15
 73
    11
 74
     0
 42
0.00000001
 43
0.00000001
 40
0.0
 40
0.0
 40
0.0
 40
0.0
 40
0.1253576455605284
 40
0.2492876957135718
 40
0.3751197123017028
 40
0.5000054961578817
 40
0.6248183913047481
 40
0.7506256289996159
 40
0.8748405049438737
 40
0.9999999999999999
 40
0.9999999999999999
 40
0.9999999999999999
 40
0.9999999999999999
 10
640.2275082340931
 20
1073.525684432944
 30
0.0
 10
640.1826969151954
 20
1073.750892208006
 30
0.0
 10
640.0935845967565
 20
1074.198743051494
 30
0.0
 10
639.8773161084771
 20
1074.750257942059
 30
0.0
 10
639.6112345753015
 20
1075.094081036503
 30
0.0
 10
639.3264523489217
 20
1075.244169494767
 30
0.0
 10
639.0448704683733
 20
1075.159581393239
 30
0.0
 10
638.7841530636958
 20
1074.873143327687
 30
0.0
 10
638.5649011210176
 20
1074.374418699141
 30
0.0
 10
638.4580409264823
 20
1073.9445603694
 30
0.0
 10
638.4044084383642
 20
1073.728817062339
 30
0.0
  0
SPLINE
  5
4F1
330
1F
100
AcDbEntity
  8
SLD-0_0
  6
SLD-Solid
 62
   179
370
    15
100
AcDbSpline
210
0.0
220
0.0
230
1.0
 70
     8
 71
     3
 72
    11
 73
     7
 74
     0
 42
0.00000001
 43
0.00000001
 40
0.0
 40
0.0
 40
0.0
 40
0.0
 40
0.2500055982619134
 40
0.4999991507595322
 40
0.7499908030757366
 40
1.0
 40
1.0
 40
1.0
 40
1.0
 10
641.5354327450042
 20
1072.423773364982
 30
0.0
 10
641.4166522816607
 20
1072.361242996186
 30
0.0
 10
641.1790970780513
 20
1072.23618527143
 30
0.0
 10
640.8117529304496
 20
1072.411305752116
 30
0.0
 10
640.4778319283085
 20
1072.82645765001
 30
0.0
 10
640.3109514173973
 20
1073.292603386413
 30
0.0
 10
640.2275082340931
 20
1073.525684432944
 30
0.0
  0
SPLINE
  5
4F2
330
1F
100
AcDbEntity
  8
SLD-0_0
  6
SLD-Solid
 62
   179
370
    15
100
AcDbSpline
210
0.0
220
0.0
230
1.0
 70
     8
 71
     3
 72
    11
 73
     7
 74
     0
 42
0.00000001
 43
0.00000001
 40
0.0
 40
0.0
 40
0.0
 40
0.0
 40
0.2555696491256877
 40
0.4998365909161188
 40
0.7475026838151282
 40
1.0
 40
1.0
 40
1.0
 40
1.0
 10
641.5611037204509
 20
1072.310405330619
 30
0.0
 10
641.5617310275882
 20
1072.322622913906
 30
0.0
 10
641.5629578988618
 20
1072.346517751187
 30
0.0
 10
641.5578485771267
 20
1072.38125295403
 30
0.0
 10
641.548646005282
 20
1072.410000918048
 30
0.0
 10
641.5398654364496
 20
1072.419153081537
 30
0.0
 10
641.5354327450042
 20
1072.423773364982
 30
0.0
  0
SPLINE
  5
4F3
330
1F
100
AcDbEntity
  8
SLD-0_0
  6
SLD-Solid
 62
   179
370
    15
100
AcDbSpline
210
0.0
220
0.0
230
1.0
 70
     8
 71
     3
 72
    11
 73
     7
 74
     0
 42
0.00000001
 43
0.00000001
 40
0.0
 40
0.0
 40
0.0
 40
0.0
 40
0.2499756460323468
 40
0.5000091168742886
 40
0.7500119631833286
 40
0.9999999999999999
 40
0.9999999999999999
 40
0.9999999999999999
 40
0.9999999999999999
 10
638.7842216913124
 20
1070.368962840995
 30
0.0
 10
639.0251855446955
 20
1070.207254143075
 30
0.0
 10
639.5071689916475
 20
1069.883799340494
 30
0.0
 10
640.3153925649635
 20
1070.152693813732
 30
0.0
 10
641.0656632971343
 20
1070.93156149805
 30
0.0
 10
641.3959601737577
 20
1071.850799795563
 30
0.0
 10
641.5611037204509
 20
1072.310405330619
 30
0.0
  0
SPLINE
  5
4F4
330
1F
100
AcDbEntity
  8
SLD-0_0
  6
SLD-Solid
 62
   179
370
    15
100
AcDbSpline
210
0.0
220
0.0
230
1.0
 70
     8
 71
     3
 72
    11
 73
     7
 74
     0
 42
0.00000001
 43
0.00000001
 40
0.0
 40
0.0
 40
0.0
 40
0.0
 40
0.2500310194890465
 40
0.5000420731972022
 40
0.7500301788602125
 40
1.0
 40
1.0
 40
1.0
 40
1.0
 10
638.3637286175509
 20
1073.509591178855
 30
0.0
 10
638.3232712086129
 20
1073.193435968694
 30
0.0
 10
638.2423596213911
 20
1072.561150794382
 30
0.0
 10
638.2850359007388
 20
1071.610480697397
 30
0.0
 10
638.4561794493774
 20
1070.805521823714
 30
0.0
 10
638.6748769434114
 20
1070.514478953882
 30
0.0
 10
638.7842216913124
 20
1070.368962840995
 30
0.0
  0
SPLINE
  5
4F5
330
1F
100
AcDbEntity
  8
SLD-0_0
  6
SLD-Solid
 62
   179
370
    15
100
AcDbSpline
210
0.0
220
0.0
230
1.0
 70
     8
 71
     3
 72
    11
 73
     7
 74
     0
 42
0.00000001
 43
0.00000001
 40
0.0
 40
0.0
 40
0.0
 40
0.0
 40
0.2499801856457369
 40
0.4999472718170632
 40
0.7499402460826464
 40
1.0
 40
1.0
 40
1.0
 40
1.0
 10
638.56153873847
 20
1072.513239936814
 30
0.0
 10
638.5281043884694
 20
1072.556367841743
 30
0.0
 10
638.4612374404968
 20
1072.642621391611
 30
0.0
 10
638.3992754769135
 20
1072.87796789568
 30
0.0
 10
638.372479498087
 20
1073.158058157726
 30
0.0
 10
638.3891278949245
 20
1073.350800883152
 30
0.0
 10
638.397453205
 20
1073.4471851158
 30
0.0
  0
SPLINE
  5
4F6
330
1F
100
AcDbEntity
  8
SLD-0_0
  6
SLD-Solid
 62
   179
370
    15
100
AcDbSpline
210
0.0
220
0.0
230
1.0
 70
     8
 71
     3
 72
    11
 73
     7
 74
     0
 42
0.00000001
 43
0.00000001
 40
0.0
 40
0.0
 40
0.0
 40
0.0
 40
0.2500321791874898
 40
0.5000392702922232
 40
0.7500271462045743
 40
1.0
 40
1.0
 40
1.0
 40
1.0
 10
639.458753020774
 20
1073.150532798753
 30
0.0
 10
639.4012656404074
 20
1072.999967021732
 30
0.0
 10
639.2862966479239
 20
1072.698850575372
 30
0.0
 10
639.048669867711
 20
1072.443584704515
 30
0.0
 10
638.7950037481547
 20
1072.354878994638
 30
0.0
 10
638.6393588494986
 20
1072.460454013479
 30
0.0
 10
638.56153873847
 20
1072.513239936814
 30
0.0
  0
SPLINE
  5
4F7
330
1F
100
AcDbEntity
  8
SLD-0_0
  6
SLD-Solid
 62
   179
370
    15
100
AcDbSpline
210
0.0
220
0.0
230
1.0
 70
     8
 71
     3
 72
    11
 73
     7
 74
     0
 42
0.00000001
 43
0.00000001
 40
0.0
 40
0.0
 40
0.0
 40
0.0
 40
0.2647526468946123
 40
0.4996849997954508
 40
0.7413255991498561
 40
0.9999999999999999
 40
0.9999999999999999
 40
0.9999999999999999
 40
0.9999999999999999
 10
639.4579576712953
 20
1073.200243072496
 30
0.0
 10
639.4591756924503
 20
1073.196542891399
 30
0.0
 10
639.4614745435014
 20
1073.18955929742
 30
0.0
 10
639.462785832346
 20
1073.176122983897
 30
0.0
 10
639.4619876530066
 20
1073.162277694122
 30
0.0
 10
639.4598554295212
 20
1073.154535626419
 30
0.0
 10
639.458753020774
 20
1073.150532798753
 30
0.0
  0
SPLINE
  5
4F8
330
1F
100
AcDbEntity
  8
SLD-0_0
  6
SLD-Solid
 62
   179
370
    15
100
AcDbSpline
210
0.0
220
0.0
230
1.0
 70
     8
 71
     3
 72
    11
 73
     7
 74
     0
 42
0.00000001
 43
0.00000001
 40
0.0
 40
0.0
 40
0.0
 40
0.0
 40
0.2500036488432436
 40
0.5000025623486217
 40
0.7499913625006791
 40
1.0
 40
1.0
 40
1.0
 40
1.0
 10
639.0359963674949
 20
1073.553340988145
 30
0.0
 10
639.0617420540016
 20
1073.478531685467
 30
0.0
 10
639.1132329393637
 20
1073.328914497079
 30
0.0
 10
639.2204117620622
 20
1073.195782830063
 30
0.0
 10
639.3393169235551
 20
1073.139846431427
 30
0.0
 10
639.4184097093826
 20
1073.180110326318
 30
0.0
 10
639.4579576712953
 20
1073.200243072496
 30
0.0
  0
SPLINE
  5
4F9
330
1F
100
AcDbEntity
  8
SLD-0_0
  6
SLD-Solid
 62
   179
370
    15
100
AcDbSpline
210
0.0
220
0.0
230
1.0
 70
     8
 71
     3
 72
    15
 73
    11
 74
     0
 42
0.00000001
 43
0.00000001
 40
0.0
 40
0.0
 40
0.0
 40
0.0
 40
0.1250253559301574
 40
0.2500262571441528
 40
0.3750327817728866
 40
0.5000222162185656
 40
0.6250090531239081
 40
0.7499848283712376
 40
0.8749946680194132
 40
1.0
 40
1.0
 40
1.0
 40
1.0
 10
638.4578112897383
 20
1073.71004159926
 30
0.0
 10
638.4767152720848
 20
1073.77459157719
 30
0.0
 10
638.5145195391957
 20
1073.903678907201
 30
0.0
 10
638.5936529845703
 20
1074.039058913211
 30
0.0
 10
638.6819814885974
 20
1074.116146337815
 30
0.0
 10
638.7746576131393
 20
1074.125162064688
 30
0.0
 10
638.8639688715555
 20
1074.066386338731
 30
0.0
 10
638.9420298442261
 20
1073.944149434512
 30
0.0
 10
639.0043313110427
 20
1073.770440973393
 30
0.0
 10
639.0254414755467
 20
1073.625706780062
 30
0.0
 10
639.0359963674949
 20
1073.553340988145
 30
0.0
  0
SPLINE
  5
4FA
330
1F
100
AcDbEntity
  8
SLD-0_0
  6
SLD-Solid
 62
   179
370
    15
100
AcDbSpline
210
0.0
220
0.0
230
1.0
 70
     8
 71
     3
 72
    12
 73
     8
 74
     0
 42
0.00000001
 43
0.00000001
 40
0.0
 40
0.0
 40
0.0
 40
0.0
 40
0.030472694543588
 40
0.0887850146834976
 40
0.3925456398953173
 40
0.6962703360287197
 40
1.0
 40
1.0
 40
1.0
 40
1.0
 10
625.3955637488885
 20
1100.49636896128
 30
0.0
 10
625.3992552032114
 20
1100.506528887277
 30
0.0
 10
625.4100105968897
 20
1100.5361307716
 30
0.0
 10
625.4534735150689
 20
1100.666191355258
 30
0.0
 10
625.5011823924004
 20
1100.879322420326
 30
0.0
 10
625.5031187336677
 20
1101.125929141479
 30
0.0
 10
625.4490870931866
 20
1101.220888335238
 30
0.0
 10
625.4220710520073
 20
1101.26836832041
 30
0.0
  0
SPLINE
  5
4FB
330
1F
100
AcDbEntity
  8
SLD-0_0
  6
SLD-Solid
 62
   179
370
    15
100
AcDbSpline
210
0.0
220
0.0
230
1.0
 70
     8
 71
     3
 72
    12
 73
     8
 74
     0
 42
0.00000001
 43
0.00000001
 40
0.0
 40
0.0
 40
0.0
 40
0.0
 40
0.0304732475072488
 40
0.088784562117768
 40
0.3925458811933926
 40
0.6962706286766083
 40
1.0
 40
1.0
 40
1.0
 40
1.0
 10
593.7278897885604
 20
1100.49636896131
 30
0.0
 10
593.7241974968151
 20
1100.506528821067
 30
0.0
 10
593.7134399132743
 20
1100.536129824356
 30
0.0
 10
593.6699912555928
 20
1100.666194751863
 30
0.0
 10
593.6222631749098
 20
1100.879320846165
 30
0.0
 10
593.6203372361084
 20
1101.125929363062
 30
0.0
 10
593.6743660234811
 20
1101.220888427044
 30
0.0
 10
593.7013806227966
 20
1101.268368320441
 30
0.0
  0
SPLINE
  5
4FC
330
1F
100
AcDbEntity
  8
SLD-0_0
  6
SLD-Solid
 62
   179
370
    15
100
AcDbSpline
210
0.0
220
0.0
230
1.0
 70
     8
 71
     3
 72
    15
 73
    11
 74
     0
 42
0.00000001
 43
0.00000001
 40
0.5000950557396074
 40
0.5000950557396074
 40
0.5000950557396074
 40
0.5000950557396074
 40
0.562613741066965
 40
0.6251271085924847
 40
0.6876336500040193
 40
0.7501347296217484
 40
0.8126350350258374
 40
0.8751346314327163
 40
0.9376810502750033
 40
1.0
 40
1.0
 40
1.0
 40
1.0
 10
609.5603847329041
 20
1106.414275722464
 30
0.0
 10
609.2330385926485
 20
1106.414236913896
 30
0.0
 10
608.5784489163989
 20
1106.39563373114
 30
0.0
 10
607.7469954491442
 20
1106.322594551661
 30
0.0
 10
607.1925170782874
 20
1106.230324649313
 30
0.0
 10
606.9985049394542
 20
1106.148871824598
 30
0.0
 10
607.1942979936804
 20
1106.098085960355
 30
0.0
 10
607.749826614512
 20
1106.079763511527
 30
0.0
 10
608.5818682294363
 20
1106.081159844608
 30
0.0
 10
609.2355035471783
 20
1106.082263480285
 30
0.0
 10
609.5617258374115
 20
1106.082814292869
 30
0.0
  0
SPLINE
  5
4FD
330
1F
100
AcDbEntity
  8
SLD-0_0
  6
SLD-Solid
 62
   179
370
    15
100
AcDbSpline
210
0.0
220
0.0
230
1.0
 70
     8
 71
     3
 72
    15
 73
    11
 74
     0
 42
0.00000001
 43
0.00000001
 40
0.0
 40
0.0
 40
0.0
 40
0.0
 40
0.062520675562186
 40
0.1250381176521998
 40
0.18754631334817
 40
0.2500495074827018
 40
0.3125528692454109
 40
0.3750609161417193
 40
0.4375758367347257
 40
0.5000950557396074
 40
0.5000950557396074
 40
0.5000950557396074
 40
0.5000950557396074
 10
609.5617258374115
 20
1106.082814292869
 30
0.0
 10
609.8890795893491
 20
1106.082264628165
 30
0.0
 10
610.5437701629971
 20
1106.081165327186
 30
0.0
 10
611.3755158450471
 20
1106.079754457336
 30
0.0
 10
611.9304227583242
 20
1106.098129718672
 30
0.0
 10
612.1250065282343
 20
1106.149059593075
 30
0.0
 10
611.9299799621587
 20
1106.230599318347
 30
0.0
 10
611.3745487597027
 20
1106.322735850615
 30
0.0
 10
610.5424837925473
 20
1106.395866110247
 30
0.0
 10
609.8877336674808
 20
1106.414314531364
 30
0.0
 10
609.5603847329041
 20
1106.414275722464
 30
0.0
  0
ELLIPSE
  5
4FE
330
1F
100
AcDbEntity
  8
SLD-0_0
  6
SLD-Solid
 62
   179
370
    15
100
AcDbEllipse
 10
609.5617266442
 20
1067.1251747354
 30
0.0
 11
0.0
 21
38.67659121471888
 31
0.0
210
0.0
220
0.0
230
1.0
 40
0.8983300055
 41
6.282735029799759
 42
6.283635584559483
  0
ENDSEC
  0
SECTION
  2
OBJECTS
  0
DICTIONARY
  5
C
330
0
100
AcDbDictionary
281
     1
  3
ACAD_GROUP
350
D
  3
ACAD_LAYOUT
350
1A
  3
ACAD_MLINESTYLE
350
17
  3
ACAD_PLOTSETTINGS
350
19
  3
ACAD_PLOTSTYLENAME
350
E
  0
DICTIONARY
  5
D
102
{ACAD_REACTORS
330
C
102
}
330
C
100
AcDbDictionary
281
     1
  0
DICTIONARY
  5
1A
102
{ACAD_REACTORS
330
C
102
}
330
C
100
AcDbDictionary
281
     1
  3
Layout1
350
1E
  3
Layout2
350
26
  3
Model
350
22
  0
DICTIONARY
  5
17
102
{ACAD_REACTORS
330
C
102
}
330
C
100
AcDbDictionary
281
     1
  3
Standard
350
18
  0
DICTIONARY
  5
19
102
{ACAD_REACTORS
330
C
102
}
330
C
100
AcDbDictionary
281
     1
  0
ACDBDICTIONARYWDFLT
  5
E
102
{ACAD_REACTORS
330
C
102
}
330
C
100
AcDbDictionary
281
     1
  3
Normal
350
F
100
AcDbDictionaryWithDefault
340
F
  0
LAYOUT
  5
1E
102
{ACAD_REACTORS
330
1A
102
}
330
1A
100
AcDbPlotSettings
  1

  2
none_device
  4

  6

 40
0.0
 41
0.0
 42
0.0
 43
0.0
 44
0.0
 45
0.0
 46
0.0
 47
0.0
 48
0.0
 49
0.0
140
0.0
141
0.0
142
1.0
143
1.0
 70
   688
 72
     0
 73
     0
 74
     5
  7

 75
    16
147
1.0
148
0.0
149
0.0
100
AcDbLayout
  1
Layout1
 70
     1
 71
     1
 10
0.0
 20
0.0
 11
420.0
 21
297.0
 12
0.0
 22
0.0
 32
0.0
 14
1.0000000000E+20
 24
1.0000000000E+20
 34
1.0000000000E+20
 15
-1.0000000000E+20
 25
-1.0000000000E+20
 35
-1.0000000000E+20
146
0.0
 13
0.0
 23
0.0
 33
0.0
 16
1.0
 26
0.0
 36
0.0
 17
0.0
 27
1.0
 37
0.0
 76
     0
330
1B
  0
LAYOUT
  5
26
102
{ACAD_REACTORS
330
1A
102
}
330
1A
100
AcDbPlotSettings
  1

  2
none_device
  4

  6

 40
0.0
 41
0.0
 42
0.0
 43
0.0
 44
0.0
 45
0.0
 46
0.0
 47
0.0
 48
0.0
 49
0.0
140
0.0
141
0.0
142
1.0
143
1.0
 70
   688
 72
     0
 73
     0
 74
     5
  7

 75
    16
147
1.0
148
0.0
149
0.0
100
AcDbLayout
  1
Layout2
 70
     1
 71
     2
 10
0.0
 20
0.0
 11
0.0
 21
0.0
 12
0.0
 22
0.0
 32
0.0
 14
0.0
 24
0.0
 34
0.0
 15
0.0
 25
0.0
 35
0.0
146
0.0
 13
0.0
 23
0.0
 33
0.0
 16
1.0
 26
0.0
 36
0.0
 17
0.0
 27
1.0
 37
0.0
 76
     0
330
23
  0
LAYOUT
  5
22
102
{ACAD_REACTORS
330
1A
102
}
330
1A
100
AcDbPlotSettings
  1

  2
none_device
  4

  6

 40
0.0
 41
0.0
 42
0.0
 43
0.0
 44
0.0
 45
0.0
 46
0.0
 47
0.0
 48
0.0
 49
0.0
140
0.0
141
0.0
142
1.0
143
1.0
 70
  1712
 72
     0
 73
     0
 74
     0
  7

 75
     0
147
1.0
148
0.0
149
0.0
100
AcDbLayout
  1
Model
 70
     1
 71
     0
 10
0.0
 20
0.0
 11
1189.0
 21
841.0
 12
0.0
 22
0.0
 32
0.0
 14
0.0
 24
0.0
 34
0.0
 15
1189.0
 25
841.0
 35
0.0
146
0.0
 13
0.0
 23
0.0
 33
0.0
 16
1.0
 26
0.0
 36
0.0
 17
0.0
 27
1.0
 37
0.0
 76
     0
330
1F
331
29
  0
MLINESTYLE
  5
18
102
{ACAD_REACTORS
330
17
102
}
330
17
100
AcDbMlineStyle
  2
Standard
 70
     0
  3

 62
   256
 51
90.0
 52
90.0
 71
     2
 49
0.5
 62
   256
  6
BYLAYER
 49
-0.5
 62
   256
  6
BYLAYER
  0
ACDBPLACEHOLDER
  5
F
102
{ACAD_REACTORS
330
E
102
}
330
E
  0
ENDSEC
  0
EOF
