  0
SECTION
  2
HEADER
  9
$ACADVER
  1
AC1015
  9
$ACADMAINTVER
 70
     6
  9
$DWGCODEPAGE
  3
ANSI_1252
  9
$INSBASE
 10
0.0
 20
0.0
 30
0.0
  9
$EXTMIN
 10
0.0
 20
0.0
 30
0.0
  9
$EXTMAX
 10
1500.0
 20
1500.0
 30
0.0
  9
$LIMMIN
 10
0.0
 20
0.0
  9
$LIMMAX
 10
1500.0
 20
1500.0
  9
$ORTHOMODE
 70
     0
  9
$REGENMODE
 70
     1
  9
$FILLMODE
 70
     1
  9
$QTEXTMODE
 70
     0
  9
$MIRRTEXT
 70
     1
  9
$LTSCALE
 40
1.0
  9
$ATTMODE
 70
     1
  9
$TEXTSIZE
 40
3.5
  9
$TRACEWID
 40
1.0
  9
$TEXTSTYLE
  7
STANDARD
  9
$CLAYER
  8
0
  9
$CELTYPE
  6
ByLayer
  9
$CECOLOR
 62
   256
  9
$CELTSCALE
 40
1.0
  9
$DISPSILH
 70
     0
  9
$DIMSCALE
 40
1.0
  9
$DIMASZ
 40
3.302
  9
$DIMEXO
 40
1.0
  9
$DIMDLI
 40
3.75
  9
$DIMRND
 40
0.0
  9
$DIMDLE
 40
0.0
  9
$DIMEXE
 40
1.0
  9
$DIMTP
 40
0.0
  9
$DIMTM
 40
0.0
  9
$DIMTXT
 40
3.5
  9
$DIMCEN
 40
2.5
  9
$DIMTSZ
 40
0.0
  9
$DIMTOL
 70
     0
  9
$DIMLIM
 70
     0
  9
$DIMTIH
 70
     1
  9
$DIMTOH
 70
     1
  9
$DIMSE1
 70
     0
  9
$DIMSE2
 70
     0
  9
$DIMTAD
 70
     1
  9
$DIMZIN
 70
     0
  9
$DIMBLK
  1

  9
$DIMASO
 70
     1
  9
$DIMSHO
 70
     1
  9
$DIMPOST
  1

  9
$DIMAPOST
  1

  9
$DIMALT
 70
     0
  9
$DIMALTD
 70
     3
  9
$DIMALTF
 40
0.0393700787
  9
$DIMLFAC
 40
1.0
  9
$DIMTOFL
 70
     1
  9
$DIMTVP
 40
0.0
  9
$DIMTIX
 70
     0
  9
$DIMSOXD
 70
     0
  9
$DIMSAH
 70
     0
  9
$DIMBLK1
  1

  9
$DIMBLK2
  1

  9
$DIMSTYLE
  2
ISO-25
  9
$DIMCLRD
 70
     0
  9
$DIMCLRE
 70
     0
  9
$DIMCLRT
 70
     0
  9
$DIMTFAC
 40
1.0
  9
$DIMGAP
 40
1.524
  9
$DIMJUST
 70
     0
  9
$DIMSD1
 70
     0
  9
$DIMSD2
 70
     0
  9
$DIMTOLJ
 70
     0
  9
$DIMTZIN
 70
     0
  9
$DIMALTZ
 70
     0
  9
$DIMALTTZ
 70
     0
  9
$DIMUPT
 70
     0
  9
$DIMDEC
 70
     1
  9
$DIMTDEC
 70
     1
  9
$DIMALTU
 70
     2
  9
$DIMALTTD
 70
     3
  9
$DIMTXSTY
  7
STANDARD
  9
$DIMAUNIT
 70
     0
  9
$DIMADEC
 70
     1
  9
$DIMALTRND
 40
0.0
  9
$DIMAZIN
 70
     0
  9
$DIMDSEP
 70
    44
  9
$DIMATFIT
 70
     3
  9
$DIMFRAC
 70
     0
  9
$DIMLDRBLK
  1

  9
$DIMLUNIT
 70
     2
  9
$DIMLWD
 70
    -2
  9
$DIMLWE
 70
    -2
  9
$DIMTMOVE
 70
     0
  9
$LUNITS
 70
     2
  9
$LUPREC
 70
     1
  9
$SKETCHINC
 40
1.0
  9
$FILLETRAD
 40
10.0
  9
$AUNITS
 70
     0
  9
$AUPREC
 70
     1
  9
$MENU
  1
.
  9
$ELEVATION
 40
0.0
  9
$PELEVATION
 40
0.0
  9
$THICKNESS
 40
0.0
  9
$LIMCHECK
 70
     0
  9
$CHAMFERA
 40
10.0
  9
$CHAMFERB
 40
10.0
  9
$CHAMFERC
 40
20.0
  9
$CHAMFERD
 40
0.0
  9
$SKPOLY
 70
     0
  9
$TDCREATE
 40
2455637.333691817
  9
$TDUCREATE
 40
2455637.333691817
  9
$TDUPDATE
 40
2455637.333691829
  9
$TDUUPDATE
 40
2455637.333691829
  9
$TDINDWG
 40
0.0000000116
  9
$TDUSRTIMER
 40
0.0000000116
  9
$USRTIMER
 70
     1
  9
$ANGBASE
 50
0.0
  9
$ANGDIR
 70
     0
  9
$PDMODE
 70
     0
  9
$PDSIZE
 40
-1.0
  9
$PLINEWID
 40
0.0
  9
$SPLFRAME
 70
     0
  9
$SPLINETYPE
 70
     6
  9
$SPLINESEGS
 70
     8
  9
$HANDSEED
  5
264
  9
$SURFTAB1
 70
     6
  9
$SURFTAB2
 70
     6
  9
$SURFTYPE
 70
     6
  9
$SURFU
 70
     6
  9
$SURFV
 70
     6
  9
$UCSBASE
  2

  9
$UCSNAME
  2

  9
$UCSORG
 10
0.0
 20
0.0
 30
0.0
  9
$UCSXDIR
 10
1.0
 20
0.0
 30
0.0
  9
$UCSYDIR
 10
0.0
 20
1.0
 30
0.0
  9
$UCSORTHOREF
  2

  9
$UCSORTHOVIEW
 70
     0
  9
$UCSORGTOP
 10
0.0
 20
0.0
 30
0.0
  9
$UCSORGBOTTOM
 10
0.0
 20
0.0
 30
0.0
  9
$UCSORGLEFT
 10
0.0
 20
0.0
 30
0.0
  9
$UCSORGRIGHT
 10
0.0
 20
0.0
 30
0.0
  9
$UCSORGFRONT
 10
0.0
 20
0.0
 30
0.0
  9
$UCSORGBACK
 10
0.0
 20
0.0
 30
0.0
  9
$PUCSBASE
  2

  9
$PUCSNAME
  2

  9
$PUCSORG
 10
0.0
 20
0.0
 30
0.0
  9
$PUCSXDIR
 10
1.0
 20
0.0
 30
0.0
  9
$PUCSYDIR
 10
0.0
 20
1.0
 30
0.0
  9
$PUCSORTHOREF
  2

  9
$PUCSORTHOVIEW
 70
     0
  9
$PUCSORGTOP
 10
0.0
 20
0.0
 30
0.0
  9
$PUCSORGBOTTOM
 10
0.0
 20
0.0
 30
0.0
  9
$PUCSORGLEFT
 10
0.0
 20
0.0
 30
0.0
  9
$PUCSORGRIGHT
 10
0.0
 20
0.0
 30
0.0
  9
$PUCSORGFRONT
 10
0.0
 20
0.0
 30
0.0
  9
$PUCSORGBACK
 10
0.0
 20
0.0
 30
0.0
  9
$USERI1
 70
     0
  9
$USERI2
 70
     0
  9
$USERI3
 70
     0
  9
$USERI4
 70
     0
  9
$USERI5
 70
     0
  9
$USERR1
 40
0.0
  9
$USERR2
 40
0.0
  9
$USERR3
 40
0.0
  9
$USERR4
 40
0.0
  9
$USERR5
 40
0.0
  9
$WORLDVIEW
 70
     1
  9
$SHADEDGE
 70
     3
  9
$SHADEDIF
 70
    70
  9
$TILEMODE
 70
     1
  9
$MAXACTVP
 70
    64
  9
$PINSBASE
 10
0.0
 20
0.0
 30
0.0
  9
$PLIMCHECK
 70
     0
  9
$PEXTMIN
 10
1.0000000000E+20
 20
1.0000000000E+20
 30
1.0000000000E+20
  9
$PEXTMAX
 10
-1.0000000000E+20
 20
-1.0000000000E+20
 30
-1.0000000000E+20
  9
$PLIMMIN
 10
0.0
 20
0.0
  9
$PLIMMAX
 10
420.0
 20
297.0
  9
$UNITMODE
 70
     0
  9
$VISRETAIN
 70
     1
  9
$PLINEGEN
 70
     0
  9
$PSLTSCALE
 70
     1
  9
$TREEDEPTH
 70
  3020
  9
$CMLSTYLE
  2
Standard
  9
$CMLJUST
 70
     0
  9
$CMLSCALE
 40
20.0
  9
$PROXYGRAPHICS
 70
     1
  9
$MEASUREMENT
 70
     1
  9
$CELWEIGHT
370
    -1
  9
$ENDCAPS
280
     0
  9
$JOINSTYLE
280
     0
  9
$LWDISPLAY
290
     1
  9
$INSUNITS
 70
     4
  9
$HYPERLINKBASE
  1

  9
$STYLESHEET
  1

  9
$XEDIT
290
     1
  9
$CEPSNTYPE
380
     0
  9
$PSTYLEMODE
290
     1
  9
$FINGERPRINTGUID
  2
{7F59881C-6F6F-4107-9EE3-E75878314CC2}
  9
$VERSIONGUID
  2
{FAEB1C32-E019-11D5-929B-00C0DF256EC4}
  9
$EXTNAMES
290
     1
  9
$PSVPSCALE
 40
0.0
  9
$OLESTARTUP
290
     0
  0
ENDSEC
  0
SECTION
  2
CLASSES
  0
CLASS
  1
ACDBDICTIONARYWDFLT
  2
AcDbDictionaryWithDefault
  3
ObjectDBX Classes
 90
        0
280
     0
281
     0
  0
CLASS
  1
VISUALSTYLE
  2
AcDbVisualStyle
  3
ObjectDBX Classes
 90
     4095
280
     0
281
     0
  0
CLASS
  1
MATERIAL
  2
AcDbMaterial
  3
ObjectDBX Classes
 90
     1153
280
     0
281
     0
  0
CLASS
  1
ACDBPLACEHOLDER
  2
AcDbPlaceHolder
  3
ObjectDBX Classes
 90
        0
280
     0
281
     0
  0
CLASS
  1
LAYOUT
  2
AcDbLayout
  3
ObjectDBX Classes
 90
        0
280
     0
281
     0
  0
ENDSEC
  0
SECTION
  2
TABLES
  0
TABLE
  2
VPORT
  5
8
330
0
100
AcDbSymbolTable
 70
     1
  0
VPORT
  5
29
330
8
100
AcDbSymbolTableRecord
100
AcDbViewportTableRecord
  2
*Active
 70
     0
 10
0.0
 20
0.0
 11
1.0
 21
1.0
 12
750.0
 22
750.0
 13
0.0
 23
0.0
 14
10.0
 24
10.0
 15
10.0
 25
10.0
 16
0.0
 26
0.0
 36
1.0
 17
0.0
 27
0.0
 37
0.0
 40
1500.0
 41
1.0
 42
50.0
 43
0.0
 44
0.0
 50
0.0
 51
0.0
 71
     0
 72
  2000
 73
     1
 74
     3
 75
     0
 76
     0
 77
     0
 78
     0
281
     0
 65
     1
110
0.0
120
0.0
130
0.0
111
1.0
121
0.0
131
0.0
112
0.0
122
1.0
132
0.0
 79
     0
146
0.0
  0
ENDTAB
  0
TABLE
  2
LTYPE
  5
5
330
0
100
AcDbSymbolTable
 70
     8
  0
LTYPE
  5
14
330
5
100
AcDbSymbolTableRecord
100
AcDbLinetypeTableRecord
  2
ByBlock
 70
     0
  3

 72
    65
 73
     0
 40
0.0
  0
LTYPE
  5
15
330
5
100
AcDbSymbolTableRecord
100
AcDbLinetypeTableRecord
  2
ByLayer
 70
     0
  3

 72
    65
 73
     0
 40
0.0
  0
LTYPE
  5
16
330
5
100
AcDbSymbolTableRecord
100
AcDbLinetypeTableRecord
  2
Continuous
 70
     0
  3
Solid line
 72
    65
 73
     0
 40
0.0
  0
LTYPE
  5
3F
330
5
100
AcDbSymbolTableRecord
100
AcDbLinetypeTableRecord
  2
SLD-Solid
 70
     0
  3
SolidWorks Line Style
 72
    65
 73
     0
 40
0.0
  0
LTYPE
  5
40
330
5
100
AcDbSymbolTableRecord
100
AcDbLinetypeTableRecord
  2
SLD-Dashed
 70
     0
  3
SolidWorks Line Style
 72
    65
 73
     2
 40
1.905
 49
1.27
 74
     0
 49
-0.635
 74
     0
  0
LTYPE
  5
41
330
5
100
AcDbSymbolTableRecord
100
AcDbLinetypeTableRecord
  2
SLD-Phantom
 70
     0
  3
SolidWorks Line Style
 72
    65
 73
     6
 40
12.7
 49
6.35
 74
     0
 49
-1.27
 74
     0
 49
1.27
 74
     0
 49
-1.27
 74
     0
 49
1.27
 74
     0
 49
-1.27
 74
     0
  0
LTYPE
  5
42
330
5
100
AcDbSymbolTableRecord
100
AcDbLinetypeTableRecord
  2
SLD-Chain
 70
     0
  3
SolidWorks Line Style
 72
    65
 73
     4
 40
10.16
 49
6.35
 74
     0
 49
-1.27
 74
     0
 49
1.27
 74
     0
 49
-1.27
 74
     0
  0
LTYPE
  5
43
330
5
100
AcDbSymbolTableRecord
100
AcDbLinetypeTableRecord
  2
SLD-Center
 70
     0
  3
SolidWorks Line Style
 72
    65
 73
     4
 40
19.05
 49
15.24
 74
     0
 49
-1.27
 74
     0
 49
1.27
 74
     0
 49
-1.27
 74
     0
  0
LTYPE
  5
44
330
5
100
AcDbSymbolTableRecord
100
AcDbLinetypeTableRecord
  2
SLD-Stitch
 70
     0
  3
SolidWorks Line Style
 72
    65
 73
     2
 40
0.635
 49
0.0
 74
     0
 49
-0.635
 74
     0
  0
LTYPE
  5
45
330
5
100
AcDbSymbolTableRecord
100
AcDbLinetypeTableRecord
  2
SLD-Thin-Thick-Chain
 70
     0
  3
SolidWorks Line Style
 72
    65
 73
     4
 40
10.16
 49
6.35
 74
     0
 49
-1.27
 74
     0
 49
1.27
 74
     0
 49
-1.27
 74
     0
  0
ENDTAB
  0
TABLE
  2
LAYER
  5
2
330
0
100
AcDbSymbolTable
 70
     4
  0
LAYER
  5
10
330
2
100
AcDbSymbolTableRecord
100
AcDbLayerTableRecord
  2
0
 70
     0
 62
     7
  6
Continuous
370
    -3
390
F
  0
LAYER
  5
46
330
2
100
AcDbSymbolTableRecord
100
AcDbLayerTableRecord
  2
FORMAT
 70
     0
 62
     7
  6
SLD-Solid
370
    -3
390
F
  0
LAYER
  5
47
330
2
100
AcDbSymbolTableRecord
100
AcDbLayerTableRecord
  2
SLD-0
 70
     0
 62
     1
  6
SLD-Solid
370
    -3
390
F
  0
LAYER
  5
48
330
2
100
AcDbSymbolTableRecord
100
AcDbLayerTableRecord
  2
WATERMARK
 70
     0
 62
    20
  6
SLD-Solid
370
    -3
390
F
  0
ENDTAB
  0
TABLE
  2
STYLE
  5
3
330
0
100
AcDbSymbolTable
 70
     1
  0
STYLE
  5
11
330
3
100
AcDbSymbolTableRecord
100
AcDbTextStyleTableRecord
  2
STANDARD
 70
     0
 40
0.0
 41
1.0
 50
0.0
 71
     0
 42
2.5
  3
GOTHIC.TTF
  4

1001
ACAD
1000
CENTURY GOTHIC
1071
       34
  0
ENDTAB
  0
TABLE
  2
VIEW
  5
6
330
0
100
AcDbSymbolTable
 70
     0
  0
ENDTAB
  0
TABLE
  2
UCS
  5
7
330
0
100
AcDbSymbolTable
 70
     0
  0
ENDTAB
  0
TABLE
  2
APPID
  5
9
330
0
100
AcDbSymbolTable
 70
     1
  0
APPID
  5
12
330
9
100
AcDbSymbolTableRecord
100
AcDbRegAppTableRecord
  2
ACAD
 70
     0
  0
ENDTAB
  0
TABLE
  2
DIMSTYLE
  5
A
330
0
100
AcDbSymbolTable
 70
     1
100
AcDbDimStyleTable
  0
DIMSTYLE
105
27
330
A
100
AcDbSymbolTableRecord
100
AcDbDimStyleTableRecord
  2
ISO-25
 70
     0
 41
2.5
 42
0.625
 43
3.75
 44
1.25
 73
     0
 74
     0
 77
     1
 78
     8
140
2.5
141
2.5
143
0.0393700787
147
0.625
171
     3
172
     1
271
     2
272
     2
274
     3
278
    44
283
     0
284
     8
340
11
  0
ENDTAB
  0
TABLE
  2
BLOCK_RECORD
  5
1
330
0
100
AcDbSymbolTable
 70
     1
  0
BLOCK_RECORD
  5
1F
330
1
100
AcDbSymbolTableRecord
100
AcDbBlockTableRecord
  2
*Model_Space
340
22
  0
BLOCK_RECORD
  5
1B
330
1
100
AcDbSymbolTableRecord
100
AcDbBlockTableRecord
  2
*Paper_Space
340
1E
  0
BLOCK_RECORD
  5
23
330
1
100
AcDbSymbolTableRecord
100
AcDbBlockTableRecord
  2
*Paper_Space0
340
26
  0
ENDTAB
  0
ENDSEC
  0
SECTION
  2
BLOCKS
  0
BLOCK
  5
20
330
1F
100
AcDbEntity
  8
0
100
AcDbBlockBegin
  2
*Model_Space
 70
     0
 10
0.0
 20
0.0
 30
0.0
  3
*Model_Space
  1

  0
ENDBLK
  5
21
330
1F
100
AcDbEntity
  8
0
100
AcDbBlockEnd
  0
BLOCK
  5
1C
330
1B
100
AcDbEntity
 67
     1
  8
0
100
AcDbBlockBegin
  2
*Paper_Space
 70
     0
 10
0.0
 20
0.0
 30
0.0
  3
*Paper_Space
  1

  0
ENDBLK
  5
1D
330
1B
100
AcDbEntity
 67
     1
  8
0
100
AcDbBlockEnd
  0
BLOCK
  5
24
330
23
100
AcDbEntity
  8
0
100
AcDbBlockBegin
  2
*Paper_Space0
 70
     0
 10
0.0
 20
0.0
 30
0.0
  3
*Paper_Space0
  1

  0
ENDBLK
  5
25
330
23
100
AcDbEntity
  8
0
100
AcDbBlockEnd
  0
ENDSEC
  0
SECTION
  2
ENTITIES
  0
ARC
  5
49
330
1F
100
AcDbEntity
  8
0
  6
SLD-Solid
 62
     7
370
    15
100
AcDbCircle
 10
335.7398968028
 20
1046.4358496948
 30
0.0
 40
0.2499999999998521
100
AcDbArc
 50
90.0
 51
119.4734267881
  0
LINE
  5
4A
330
1F
100
AcDbEntity
  8
0
  6
SLD-Solid
 62
     7
370
    15
100
AcDbLine
 10
336.4398673162
 20
1046.6858459555
 30
0.0
 11
335.7398703679
 21
1046.6858459555
 31
0.0
  0
SPLINE
  5
4B
330
1F
100
AcDbEntity
  8
0
  6
SLD-Solid
 62
     7
370
    15
100
AcDbSpline
210
0.0
220
0.0
230
1.0
 70
     8
 71
     3
 72
    13
 73
     9
 74
     0
 42
0.00000001
 43
0.00000001
 40
0.0
 40
0.0
 40
0.0
 40
0.0
 40
0.054771764578833
 40
0.2135191346562796
 40
0.3746705036121483
 40
0.5445328731523574
 40
0.7475471366123577
 40
1.0
 40
1.0
 40
1.0
 40
1.0
 10
336.9398310765667
 20
1034.031571253462
 30
0.0
 10
336.9302320444101
 20
1034.031074925829
 30
0.0
 10
336.8928117229102
 20
1034.029140070389
 30
0.0
 10
336.8289530210462
 20
1034.043198877677
 30
0.0
 10
336.7615426051989
 20
1034.07081598694
 30
0.0
 10
336.7140330206044
 20
1034.107754890355
 30
0.0
 10
336.69104966109
 20
1034.142494455963
 30
0.0
 10
336.6906224368129
 20
1034.15432576313
 30
0.0
 10
336.690385638182
 20
1034.160883530302
 30
0.0
  0
LINE
  5
4C
330
1F
100
AcDbEntity
  8
0
  6
SLD-Solid
 62
     7
370
    15
100
AcDbLine
 10
342.0399025068
 20
1034.0296937072
 30
0.0
 11
336.9398906812
 21
1034.0296937072
 31
0.0
  0
ARC
  5
4D
330
1F
100
AcDbEntity
  8
0
  6
SLD-Solid
 62
     7
370
    15
100
AcDbCircle
 10
342.0398968028
 20
1033.7796999452
 30
0.0
 40
0.25
100
AcDbArc
 50
0.0
 51
90.0
  0
ARC
  5
4E
330
1F
100
AcDbEntity
  8
0
  6
SLD-Solid
 62
     7
370
    15
100
AcDbCircle
 10
342.0398968028
 20
1029.0797295459
 30
0.0
 40
0.2500000000002274
100
AcDbArc
 50
270.0
 51
0.0
  0
LINE
  5
4F
330
1F
100
AcDbEntity
  8
0
  6
SLD-Solid
 62
     7
370
    15
100
AcDbLine
 10
336.9398906812
 20
1028.8297248923
 30
0.0
 11
342.0399025068
 21
1028.8297248923
 31
0.0
  0
ARC
  5
50
330
1F
100
AcDbEntity
  8
0
  6
SLD-Solid
 62
     7
370
    15
100
AcDbCircle
 10
335.7398968028
 20
1029.5358496948
 30
0.0
 40
0.2500000000000568
100
AcDbArc
 50
180.0
 51
270.0
  0
LINE
  5
51
330
1F
100
AcDbEntity
  8
0
  6
SLD-Solid
 62
     7
370
    15
100
AcDbLine
 10
342.0399025068
 20
1047.1419704997
 30
0.0
 11
336.9398906812
 21
1047.1419704997
 31
0.0
  0
ARC
  5
52
330
1F
100
AcDbEntity
  8
0
  6
SLD-Solid
 62
     7
370
    15
100
AcDbCircle
 10
342.0398968028
 20
1046.8919698438
 30
0.0
 40
0.2500000000001137
100
AcDbArc
 50
0.0
 51
90.0
  0
SPLINE
  5
53
330
1F
100
AcDbEntity
  8
0
  6
SLD-Solid
 62
     7
370
    15
100
AcDbSpline
210
0.0
220
0.0
230
1.0
 70
     8
 71
     3
 72
    13
 73
     9
 74
     0
 42
0.00000001
 43
0.00000001
 40
0.0
 40
0.0
 40
0.0
 40
0.0
 40
0.0635470139892492
 40
0.2471053130884722
 40
0.4311491776365742
 40
0.6187754900527372
 40
0.8315839372729524
 40
1.0
 40
1.0
 40
1.0
 40
1.0
 10
336.4399865254805
 20
1041.095019682569
 30
0.0
 10
336.4502225521586
 20
1041.095486527939
 30
0.0
 10
336.4900257847303
 20
1041.097301876354
 30
0.0
 10
336.5575935448479
 20
1041.083962275859
 30
0.0
 10
336.6276936964121
 20
1041.05803172592
 30
0.0
 10
336.6741107987741
 20
1041.026051601782
 30
0.0
 10
336.6902063402435
 20
1041.003016424222
 30
0.0
 10
336.6895038770694
 20
1041.003783654787
 30
0.0
 10
336.6891935452865
 20
1041.004122599287
 30
0.0
  0
ARC
  5
54
330
1F
100
AcDbEntity
  8
0
  6
SLD-Solid
 62
     7
370
    15
100
AcDbCircle
 10
331.3398968028
 20
1041.3468015185
 30
0.0
 40
0.25
100
AcDbArc
 50
180.0
 51
270.0
  0
LINE
  5
55
330
1F
100
AcDbEntity
  8
0
  6
SLD-Solid
 62
     7
370
    15
100
AcDbLine
 10
331.3399150953
 20
1041.0968078219
 30
0.0
 11
336.4398673162
 21
1041.0968078219
 31
0.0
  0
ARC
  5
56
330
1F
100
AcDbEntity
  8
0
  6
SLD-Solid
 62
     7
370
    15
100
AcDbCircle
 10
331.3398968028
 20
1046.4034956907
 30
0.0
 40
0.2499999999998295
100
AcDbArc
 50
90.0
 51
180.0
  0
LINE
  5
57
330
1F
100
AcDbEntity
  8
0
  6
SLD-Solid
 62
     7
370
    15
100
AcDbLine
 10
336.4398673162
 20
1046.6535104357
 30
0.0
 11
331.3399150953
 21
1046.6535104357
 31
0.0
  0
ARC
  5
58
330
1F
100
AcDbEntity
  8
0
  6
SLD-Solid
 62
     7
370
    15
100
AcDbCircle
 10
336.9398968028
 20
1046.4358496948
 30
0.0
 40
0.25
100
AcDbArc
 50
90.0
 51
142.7089330724
  0
ARC
  5
59
330
1F
100
AcDbEntity
  8
0
  6
SLD-Solid
 62
     7
370
    15
100
AcDbCircle
 10
337.6398968028
 20
1046.4358496948
 30
0.0
 40
0.2499999999998295
100
AcDbArc
 50
0.0
 51
90.0
  0
LINE
  5
5A
330
1F
100
AcDbEntity
  8
0
  6
SLD-Solid
 62
     7
370
    15
100
AcDbLine
 10
337.6398876295
 20
1046.6858459555
 30
0.0
 11
336.9398906812
 21
1046.6858459555
 31
0.0
  0
LINE
  5
5B
330
1F
100
AcDbEntity
  8
0
  6
SLD-Solid
 62
     7
370
    15
100
AcDbLine
 10
331.3399150953
 20
1029.3182147586
 30
0.0
 11
335.6169059858
 21
1029.3182147586
 31
0.0
  0
ARC
  5
5C
330
1F
100
AcDbEntity
  8
0
  6
SLD-Solid
 62
     7
370
    15
100
AcDbCircle
 10
331.3398968028
 20
1029.568203699
 30
0.0
 40
0.2500000000000568
100
AcDbArc
 50
180.0
 51
270.0
  0
LINE
  5
5D
330
1F
100
AcDbEntity
  8
0
  6
SLD-Solid
 62
     7
370
    15
100
AcDbLine
 10
343.3914378271
 20
1043.075085982
 30
0.0
 11
343.3398798093
 21
1042.9858578288
 31
0.0
  0
LINE
  5
5E
330
1F
100
AcDbEntity
  8
0
  6
SLD-Solid
 62
     7
370
    15
100
AcDbLine
 10
343.3398798093
 20
1032.9858375632
 30
0.0
 11
343.3914378271
 21
1032.89660941
 31
0.0
  0
LINE
  5
5F
330
1F
100
AcDbEntity
  8
0
  6
SLD-Solid
 62
     7
370
    15
100
AcDbLine
 10
330.5564716443
 20
1043.4475554072
 30
0.0
 11
330.2899196729
 21
1042.9858578288
 31
0.0
  0
LINE
  5
60
330
1F
100
AcDbEntity
  8
0
  6
SLD-Solid
 62
     7
370
    15
100
AcDbLine
 10
330.2899196729
 20
1032.9858375632
 30
0.0
 11
330.5564716443
 21
1032.5241697871
 31
0.0
  0
LINE
  5
61
330
1F
100
AcDbEntity
  8
0
  6
SLD-Solid
 62
     7
370
    15
100
AcDbLine
 10
335.2233365163
 20
1032.5241697871
 30
0.0
 11
335.4898884878
 21
1032.9858375632
 31
0.0
  0
LINE
  5
62
330
1F
100
AcDbEntity
  8
0
  6
SLD-Solid
 62
     7
370
    15
100
AcDbLine
 10
342.9470852003
 20
1032.7384782874
 30
0.0
 11
343.0898979291
 21
1032.9858375632
 31
0.0
  0
LINE
  5
63
330
1F
100
AcDbEntity
  8
0
  6
SLD-Solid
 62
     7
370
    15
100
AcDbLine
 10
338.0327418432
 20
1043.2332171046
 30
0.0
 11
337.8898695096
 21
1042.9858578288
 31
0.0
  0
LINE
  5
64
330
1F
100
AcDbEntity
  8
0
  6
SLD-Solid
 62
     7
370
    15
100
AcDbLine
 10
343.0898979291
 20
1042.9858578288
 30
0.0
 11
342.9470852003
 21
1043.2332171046
 31
0.0
  0
LINE
  5
65
330
1F
100
AcDbEntity
  8
0
  6
SLD-Solid
 62
     7
370
    15
100
AcDbLine
 10
343.3398798093
 20
1040.9858537757
 30
0.0
 11
343.0898979291
 21
1040.9858537757
 31
0.0
  0
LINE
  5
66
330
1F
100
AcDbEntity
  8
0
  6
SLD-Solid
 62
     7
370
    15
100
AcDbLine
 10
343.0898979291
 20
1034.9858416163
 30
0.0
 11
343.3398798093
 21
1034.9858416163
 31
0.0
  0
LINE
  5
67
330
1F
100
AcDbEntity
  8
0
  6
SLD-Solid
 62
     7
370
    15
100
AcDbLine
 10
1116.2177783422
 20
597.4858495326
 30
0.0
 11
1116.2143580601
 21
597.4858495326
 31
0.0
  0
LINE
  5
68
330
1F
100
AcDbEntity
  8
0
  6
SLD-Solid
 62
     7
370
    15
100
AcDbLine
 10
1116.2177783422
 20
596.4858498343
 30
0.0
 11
1116.2143580601
 21
596.4858498343
 31
0.0
  0
LINE
  5
69
330
1F
100
AcDbEntity
  8
0
  6
SLD-Solid
 62
     7
370
    15
100
AcDbLine
 10
1116.2177783422
 20
594.9858495884
 30
0.0
 11
1116.2143580601
 21
594.9858495884
 31
0.0
  0
LINE
  5
6A
330
1F
100
AcDbEntity
  8
0
  6
SLD-Solid
 62
     7
370
    15
100
AcDbLine
 10
1116.2143580601
 20
590.9858498641
 30
0.0
 11
1116.2177783422
 21
590.9858498641
 31
0.0
  0
LINE
  5
6B
330
1F
100
AcDbEntity
  8
0
  6
SLD-Solid
 62
     7
370
    15
100
AcDbLine
 10
1116.2177783422
 20
593.9858494245
 30
0.0
 11
1116.2143580601
 21
593.9858494245
 31
0.0
  0
LINE
  5
6C
330
1F
100
AcDbEntity
  8
0
  6
SLD-Solid
 62
     7
370
    15
100
AcDbLine
 10
1116.2143580601
 20
591.985850028
 30
0.0
 11
1116.2177783422
 21
591.985850028
 31
0.0
  0
LINE
  5
6D
330
1F
100
AcDbEntity
  8
0
  6
SLD-Solid
 62
     7
370
    15
100
AcDbLine
 10
1133.0497793838
 20
219.9858440005
 30
0.0
 11
1133.0497793838
 21
556.2005950057
 31
0.0
  0
LINE
  5
6E
330
1F
100
AcDbEntity
  8
0
  6
SLD-Solid
 62
     7
370
    15
100
AcDbLine
 10
1133.0497793838
 20
579.7544209205
 30
0.0
 11
1133.0497793838
 21
1119.985849961
 31
0.0
  0
CIRCLE
  5
6F
330
1F
100
AcDbEntity
  8
0
  6
SLD-Solid
 62
     7
370
    15
100
AcDbCircle
 10
712.7898968028
 20
669.9858496949
 30
0.0
 40
5.804247641507004
  0
ARC
  5
70
330
1F
100
AcDbEntity
  8
0
  6
SLD-Solid
 62
     7
370
    15
100
AcDbCircle
 10
1124.079096344
 20
578.6206529553
 30
0.0
 40
1.000000000000238
100
AcDbArc
 50
50.2453421196
 51
82.9728344125
  0
ARC
  5
71
330
1F
100
AcDbEntity
  8
0
  6
SLD-Solid
 62
     7
370
    15
100
AcDbCircle
 10
1124.079096344
 20
557.3510464344
 30
0.0
 40
1.000000000000151
100
AcDbArc
 50
277.0271655875
 51
309.7546578804
  0
SPLINE
  5
72
330
1F
100
AcDbEntity
  8
0
  6
SLD-Solid
 62
     7
370
    15
100
AcDbSpline
210
0.0
220
0.0
230
1.0
 70
     8
 71
     3
 72
    12
 73
     8
 74
     0
 42
0.00000001
 43
0.00000001
 40
0.0
 40
0.0
 40
0.0
 40
0.0
 40
0.1383400787856901
 40
0.4030865630769681
 40
0.6687990628736994
 40
0.9360147270595619
 40
1.0
 40
1.0
 40
1.0
 40
1.0
 10
1117.597105725114
 20
585.4274066083859
 30
0.0
 10
1117.493509764062
 20
585.8387226696163
 30
0.0
 10
1117.191658411543
 20
587.0371893678795
 30
0.0
 10
1116.63166782391
 20
588.8756932479664
 30
0.0
 10
1115.888364975247
 20
590.8257985409097
 30
0.0
 10
1115.295241330527
 20
592.1588762833886
 30
0.0
 10
1114.927709456039
 20
592.7519846450222
 30
0.0
 10
1114.856705347453
 20
592.8665682592224
 30
0.0
  0
SPLINE
  5
73
330
1F
100
AcDbEntity
  8
0
  6
SLD-Solid
 62
     7
370
    15
100
AcDbSpline
210
0.0
220
0.0
230
1.0
 70
     8
 71
     3
 72
    12
 73
     8
 74
     0
 42
0.00000001
 43
0.00000001
 40
0.0
 40
0.0
 40
0.0
 40
0.0
 40
0.1773621395104962
 40
0.4464659233287539
 40
0.7137555083709941
 40
0.9647693929545466
 40
1.0
 40
1.0
 40
1.0
 40
1.0
 10
1114.856705347453
 20
543.1138029240798
 30
0.0
 10
1115.048131373187
 20
543.451429135457
 30
0.0
 10
1115.529999699565
 20
544.3013207674514
 30
0.0
 10
1116.220118121576
 20
545.9622079617556
 30
0.0
 10
1116.920440426487
 20
547.9954323934949
 30
0.0
 10
1117.360337065167
 20
549.5797845241599
 30
0.0
 10
1117.571158136471
 20
550.4385920902382
 30
0.0
 10
1117.597105725114
 20
550.544293030424
 30
0.0
  0
SPLINE
  5
74
330
1F
100
AcDbEntity
  8
0
  6
SLD-Solid
 62
     7
370
    15
100
AcDbSpline
210
0.0
220
0.0
230
1.0
 70
     8
 71
     3
 72
    11
 73
     7
 74
     0
 42
0.00000001
 43
0.00000001
 40
0.0
 40
0.0
 40
0.0
 40
0.0
 40
0.2706747558933802
 40
0.5972771496979584
 40
0.9114937073141174
 40
1.0
 40
1.0
 40
1.0
 40
1.0
 10
1128.623728452628
 20
577.6813024573754
 30
0.0
 10
1128.281780224101
 20
577.710638854511
 30
0.0
 10
1127.527229388342
 20
577.7753732240157
 30
0.0
 10
1126.346029930243
 20
578.2545306949522
 30
0.0
 10
1125.377124252833
 20
578.8561268987326
 30
0.0
 10
1124.837246656713
 20
579.2933538126418
 30
0.0
 10
1124.718597902362
 20
579.3894430541228
 30
0.0
  0
SPLINE
  5
75
330
1F
100
AcDbEntity
  8
0
  6
SLD-Solid
 62
     7
370
    15
100
AcDbSpline
210
0.0
220
0.0
230
1.0
 70
     8
 71
     3
 72
    12
 73
     8
 74
     0
 42
0.00000001
 43
0.00000001
 40
0.0
 40
0.0
 40
0.0
 40
0.0
 40
0.1457381644052962
 40
0.422404790336888
 40
0.7025640997957272
 40
0.9915698531326047
 40
1.0
 40
1.0
 40
1.0
 40
1.0
 10
1124.718597902362
 20
556.5822584473323
 30
0.0
 10
1124.931906823796
 20
556.7512058446738
 30
0.0
 10
1125.550157441972
 20
557.240879844914
 30
0.0
 10
1126.564878064879
 20
557.8283657899175
 30
0.0
 10
1127.757378015228
 20
558.2171897495723
 30
0.0
 10
1128.550959569484
 20
558.3734866622206
 30
0.0
 10
1128.962931545407
 20
558.3165023316316
 30
0.0
 10
1128.974607957904
 20
558.3148872398566
 30
0.0
  0
ARC
  5
76
330
1F
100
AcDbEntity
  8
0
  6
SLD-Solid
 62
     7
370
    15
100
AcDbCircle
 10
1133.7004424438
 20
557.3510464344
 30
0.0
 40
0.99999999999996
100
AcDbArc
 50
279.4154824284
 51
348.0798679019
  0
ARC
  5
77
330
1F
100
AcDbEntity
  8
0
  6
SLD-Solid
 62
     7
370
    15
100
AcDbCircle
 10
1133.7004424438
 20
578.6206529553
 30
0.0
 40
1.000000000000072
100
AcDbArc
 50
11.9201320981
 51
80.5845175716
  0
SPLINE
  5
78
330
1F
100
AcDbEntity
  8
0
  6
SLD-Solid
 62
     7
370
    15
100
AcDbSpline
210
0.0
220
0.0
230
1.0
 70
     8
 71
     3
 72
     9
 73
     5
 74
     0
 42
0.00000001
 43
0.00000001
 40
0.0
 40
0.0
 40
0.0
 40
0.0
 40
0.520843463786479
 40
1.0
 40
1.0
 40
1.0
 40
1.0
 10
1133.863651005928
 20
579.6083131723832
 30
0.0
 10
1131.610674208153
 20
579.9955167924858
 30
0.0
 10
1127.285042891985
 20
580.7389332832824
 30
0.0
 10
1122.884198490423
 20
581.6866183035467
 30
0.0
 10
1120.775505130556
 20
582.140707775278
 30
0.0
  0
LINE
  5
79
330
1F
100
AcDbEntity
  8
0
  6
SLD-Solid
 62
     7
370
    15
100
AcDbLine
 10
1133.3099201307
 20
556.2436034822
 30
0.0
 11
1133.8505770996
 21
556.3329843723
 31
0.0
  0
SPLINE
  5
7A
330
1F
100
AcDbEntity
  8
0
  6
SLD-Solid
 62
     7
370
    15
100
AcDbSpline
210
0.0
220
0.0
230
1.0
 70
     8
 71
     3
 72
    10
 73
     6
 74
     0
 42
0.00000001
 43
0.00000001
 40
0.0
 40
0.0
 40
0.0
 40
0.0
 40
0.1150634350461251
 40
0.7493542674605841
 40
1.0
 40
1.0
 40
1.0
 40
1.0
 10
1120.777650082861
 20
553.8376619958113
 30
0.0
 10
1121.263333504354
 20
553.9459121294685
 30
0.0
 10
1124.426362179663
 20
554.6508945556989
 30
0.0
 10
1128.629887394068
 20
555.4865679963339
 30
0.0
 10
1132.276943272754
 20
556.0765106045119
 30
0.0
 10
1133.309920130675
 20
556.24360348217
 30
0.0
  0
SPLINE
  5
7B
330
1F
100
AcDbEntity
  8
0
  6
SLD-Solid
 62
     7
370
    15
100
AcDbSpline
210
0.0
220
0.0
230
1.0
 70
     8
 71
     3
 72
    11
 73
     7
 74
     0
 42
0.00000001
 43
0.00000001
 40
0.0
 40
0.0
 40
0.0
 40
0.0
 40
0.0925535338034318
 40
0.4249809246745282
 40
0.7579047745629919
 40
1.0
 40
1.0
 40
1.0
 40
1.0
 10
1135.57561654449
 20
571.9791682355832
 30
0.0
 10
1135.563639410645
 20
572.2063614890517
 30
0.0
 10
1135.508643634613
 20
573.2495717801243
 30
0.0
 10
1135.311954427507
 20
575.0398862916217
 30
0.0
 10
1135.021953576374
 20
577.1055346141741
 30
0.0
 10
1134.780525129791
 20
578.3171049481738
 30
0.0
 10
1134.678878633683
 20
578.8272017531823
 30
0.0
  0
SPLINE
  5
7C
330
1F
100
AcDbEntity
  8
0
  6
SLD-Solid
 62
     7
370
    15
100
AcDbSpline
210
0.0
220
0.0
230
1.0
 70
     8
 71
     3
 72
    12
 73
     8
 74
     0
 42
0.00000001
 43
0.00000001
 40
0.0
 40
0.0
 40
0.0
 40
0.0
 40
0.10368387954801
 40
0.3447561360378371
 40
0.585572865529289
 40
0.8263051754544765
 40
1.0
 40
1.0
 40
1.0
 40
1.0
 10
1135.389317570631
 20
561.8317214690875
 30
0.0
 10
1135.427477546415
 20
562.1664843905459
 30
0.0
 10
1135.554362129244
 20
563.2795944689287
 30
0.0
 10
1135.669596043785
 20
565.2677667320536
 30
0.0
 10
1135.730684762433
 20
567.7407794481178
 30
0.0
 10
1135.702458717407
 20
569.9996614655621
 30
0.0
 10
1135.6130778714
 20
571.3945444584322
 30
0.0
 10
1135.57561654449
 20
571.9791682355832
 30
0.0
  0
SPLINE
  5
7D
330
1F
100
AcDbEntity
  8
0
  6
SLD-Solid
 62
     7
370
    15
100
AcDbSpline
210
0.0
220
0.0
230
1.0
 70
     8
 71
     3
 72
    10
 73
     6
 74
     0
 42
0.00000001
 43
0.00000001
 40
0.0
 40
0.0
 40
0.0
 40
0.0
 40
0.2502359656864979
 40
0.7279675145962585
 40
1.0
 40
1.0
 40
1.0
 40
1.0
 10
1134.678878633683
 20
557.1444978856276
 30
0.0
 10
1134.752667807241
 20
557.5117796283931
 30
0.0
 10
1134.967329681014
 20
558.5802478507933
 30
0.0
 10
1135.217843246595
 20
560.1390963268427
 30
0.0
 10
1135.343666028812
 20
561.3810945434554
 30
0.0
 10
1135.389317570631
 20
561.8317214690875
 30
0.0
  0
SPLINE
  5
7E
330
1F
100
AcDbEntity
  8
0
  6
SLD-Solid
 62
     7
370
    15
100
AcDbSpline
210
0.0
220
0.0
230
1.0
 70
     8
 71
     3
 72
    11
 73
     7
 74
     0
 42
0.00000001
 43
0.00000001
 40
0.0
 40
0.0
 40
0.0
 40
0.0
 40
0.2290639512585798
 40
0.4874209098081679
 40
0.7563612602484826
 40
0.9999999999999999
 40
0.9999999999999999
 40
0.9999999999999999
 40
0.9999999999999999
 10
1118.343089752276
 20
552.0507780753802
 30
0.0
 10
1118.508609600575
 20
552.2655004025734
 30
0.0
 10
1118.8608161988
 20
552.7224040380063
 30
0.0
 10
1119.517226535601
 20
553.2755070928429
 30
0.0
 10
1120.194367417395
 20
553.6822184932804
 30
0.0
 10
1120.587699635664
 20
553.7850282599219
 30
0.0
 10
1120.774658034467
 20
553.8338957273196
 30
0.0
  0
SPLINE
  5
7F
330
1F
100
AcDbEntity
  8
0
  6
SLD-Solid
 62
     7
370
    15
100
AcDbSpline
210
0.0
220
0.0
230
1.0
 70
     8
 71
     3
 72
    12
 73
     8
 74
     0
 42
0.00000001
 43
0.00000001
 40
0.0
 40
0.0
 40
0.0
 40
0.0
 40
0.0486769251049385
 40
0.3517270283892812
 40
0.6171102505987138
 40
0.8686352892984978
 40
1.0
 40
1.0
 40
1.0
 40
1.0
 10
1120.776025565253
 20
582.1317242377232
 30
0.0
 10
1120.741213889996
 20
582.137931627305
 30
0.0
 10
1120.489673615732
 20
582.1827846390131
 30
0.0
 10
1119.957376448991
 20
582.4110018103836
 30
0.0
 10
1119.249430159836
 20
582.9042655034847
 30
0.0
 10
1118.695783435708
 20
583.4311142090263
 30
0.0
 10
1118.44059136533
 20
583.7990677942205
 30
0.0
 10
1118.353038140018
 20
583.9253080927562
 30
0.0
  0
SPLINE
  5
80
330
1F
100
AcDbEntity
  8
0
  6
SLD-Solid
 62
     7
370
    15
100
AcDbSpline
210
0.0
220
0.0
230
1.0
 70
     8
 71
     3
 72
    10
 73
     6
 74
     0
 42
0.00000001
 43
0.00000001
 40
0.0
 40
0.0
 40
0.0
 40
0.0
 40
0.0832651168986924
 40
0.5575744681577461
 40
1.0
 40
1.0
 40
1.0
 40
1.0
 10
1118.341977753122
 20
583.9202584617566
 30
0.0
 10
1118.309796676647
 20
583.9618693208145
 30
0.0
 10
1118.094300112553
 20
584.2405112476259
 30
0.0
 10
1117.79343949883
 20
584.788039354006
 30
0.0
 10
1117.662723064998
 20
585.2182623204594
 30
0.0
 10
1117.599637991195
 20
585.4258922778796
 30
0.0
  0
SPLINE
  5
81
330
1F
100
AcDbEntity
  8
0
  6
SLD-Solid
 62
     7
370
    15
100
AcDbSpline
210
0.0
220
0.0
230
1.0
 70
     8
 71
     3
 72
    10
 73
     6
 74
     0
 42
0.00000001
 43
0.00000001
 40
0.0
 40
0.0
 40
0.0
 40
0.0
 40
0.150069547549478
 40
0.6251852974046412
 40
0.9999999999999999
 40
0.9999999999999999
 40
0.9999999999999999
 40
0.9999999999999999
 10
1117.603379113977
 20
550.548673971815
 30
0.0
 10
1117.619071875377
 20
550.6144896688197
 30
0.0
 10
1117.684447455321
 20
550.8886759163147
 30
0.0
 10
1117.904346545093
 20
551.4195108009602
 30
0.0
 10
1118.211405553924
 20
551.8568204774841
 30
0.0
 10
1118.34681690522
 20
552.0496716641616
 30
0.0
  0
LINE
  5
82
330
1F
100
AcDbEntity
  8
0
  6
SLD-Solid
 62
     7
370
    15
100
AcDbLine
 10
1114.8567053475
 20
221.1858643138
 30
0.0
 11
1114.8567053475
 21
1118.7858296477
 31
0.0
  0
LINE
  5
83
330
1F
100
AcDbEntity
  8
0
  6
SLD-Solid
 62
     7
370
    15
100
AcDbLine
 10
1113.5567052275
 20
1118.7858296477
 30
0.0
 11
1113.5567052275
 21
1119.985849961
 31
0.0
  0
LINE
  5
84
330
1F
100
AcDbEntity
  8
0
  6
SLD-Solid
 62
     7
370
    15
100
AcDbLine
 10
1113.5567052275
 20
219.9858440005
 30
0.0
 11
1113.5567052275
 21
221.1858643138
 31
0.0
  0
LINE
  5
85
330
1F
100
AcDbEntity
  8
0
  6
SLD-Solid
 62
     7
370
    15
100
AcDbLine
 10
355.7000949964
 20
1070.6858349883
 30
0.0
 11
383.9603856191
 21
1070.6858349883
 31
0.0
  0
SPLINE
  5
86
330
1F
100
AcDbEntity
  8
0
  6
SLD-Solid
 62
     7
370
    15
100
AcDbSpline
210
0.0
220
0.0
230
1.0
 70
     8
 71
     3
 72
    13
 73
     9
 74
     0
 42
0.00000001
 43
0.00000001
 40
0.0
 40
0.0
 40
0.0
 40
0.0
 40
0.1694473218204655
 40
0.3386516933949271
 40
0.5184792500109068
 40
0.7277114172436586
 40
0.992403438017155
 40
0.9999999999999999
 40
0.9999999999999999
 40
0.9999999999999999
 40
0.9999999999999999
 10
335.7398703679488
 20
1034.442247255964
 30
0.0
 10
335.7152722956698
 20
1034.441798642244
 30
0.0
 10
335.6661114193449
 20
1034.440902058018
 30
0.0
 10
335.5999804843195
 20
1034.434090872043
 30
0.0
 10
335.5442835479343
 20
1034.423917447948
 30
0.0
 10
335.5016491220329
 20
1034.409440978028
 30
0.0
 10
335.4898239675583
 20
1034.397782268075
 30
0.0
 10
335.4898867365719
 20
1034.391374643624
 30
0.0
 10
335.4898884877608
 20
1034.391195877714
 30
0.0
  0
LINE
  5
87
330
1F
100
AcDbEntity
  8
0
  6
SLD-Solid
 62
     7
370
    15
100
AcDbLine
 10
335.4898884878
 20
1034.3911958777
 30
0.0
 11
335.4898884878
 21
1041.0968078219
 31
0.0
  0
SPLINE
  5
88
330
1F
100
AcDbEntity
  8
0
  6
SLD-Solid
 62
     7
370
    15
100
AcDbSpline
210
0.0
220
0.0
230
1.0
 70
     8
 71
     3
 72
    13
 73
     9
 74
     0
 42
0.00000001
 43
0.00000001
 40
0.0
 40
0.0
 40
0.0
 40
0.0
 40
0.0075955336202476
 40
0.2722517224773331
 40
0.481455565510871
 40
0.6612587784917152
 40
0.8304402445139775
 40
0.9999999999999999
 40
0.9999999999999999
 40
0.9999999999999999
 40
0.9999999999999999
 10
336.6899088010238
 20
1034.391195877714
 30
0.0
 10
336.6899105522119
 20
1034.391374643625
 30
0.0
 10
336.6899733211983
 20
1034.397782268095
 30
0.0
 10
336.6781481720562
 20
1034.409440974541
 30
0.0
 10
336.6355137272208
 20
1034.423917456906
 30
0.0
 10
336.579816846513
 20
1034.434090844409
 30
0.0
 10
336.5136684531509
 20
1034.440903933578
 30
0.0
 10
336.4644860033543
 20
1034.441799148591
 30
0.0
 10
336.4398673161908
 20
1034.442247255964
 30
0.0
  0
LINE
  5
89
330
1F
100
AcDbEntity
  8
0
  6
SLD-Solid
 62
     7
370
    15
100
AcDbLine
 10
336.689908801
 20
1040.8090962016
 30
0.0
 11
336.689908801
 21
1034.3911958777
 31
0.0
  0
LINE
  5
8A
330
1F
100
AcDbEntity
  8
0
  6
SLD-Solid
 62
     7
370
    15
100
AcDbLine
 10
336.4398673162
 20
1034.442247256
 30
0.0
 11
335.7398703679
 21
1034.442247256
 31
0.0
  0
SPLINE
  5
8B
330
1F
100
AcDbEntity
  8
0
  6
SLD-Solid
 62
     7
370
    15
100
AcDbSpline
210
0.0
220
0.0
230
1.0
 70
     8
 71
     3
 72
    12
 73
     8
 74
     0
 42
0.00000001
 43
0.00000001
 40
0.0
 40
0.0
 40
0.0
 40
0.0
 40
0.2289485814623106
 40
0.4594211438726368
 40
0.6825307180468959
 40
0.8947205913133355
 40
1.0
 40
1.0
 40
1.0
 40
1.0
 10
335.4898884877608
 20
1029.990942581815
 30
0.0
 10
335.5072350347517
 20
1029.856846883758
 30
0.0
 10
335.542043594865
 20
1029.58776288858
 30
0.0
 10
335.815866981406
 20
1029.235161355331
 30
0.0
 10
336.2128967047413
 20
1028.982107759409
 30
0.0
 10
336.6137920208024
 20
1028.868797457183
 30
0.0
 10
336.8586805559017
 20
1028.859150175133
 30
0.0
 10
336.9398906812118
 20
1028.855950936003
 30
0.0
  0
LINE
  5
8C
330
1F
100
AcDbEntity
  8
0
  6
SLD-Solid
 62
     7
370
    15
100
AcDbLine
 10
335.4898884878
 20
1029.9909425818
 30
0.0
 11
335.4898884878
 21
1034.1610325419
 31
0.0
  0
LINE
  5
8D
330
1F
100
AcDbEntity
  8
0
  6
SLD-Solid
 62
     7
370
    15
100
AcDbLine
 10
342.289884387
 20
1033.2498265349
 30
0.0
 11
342.289884387
 21
1029.0797365748
 31
0.0
  0
LINE
  5
8E
330
1F
100
AcDbEntity
  8
0
  6
SLD-Solid
 62
     7
370
    15
100
AcDbLine
 10
342.289884387
 20
1033.779711827
 30
0.0
 11
342.289884387
 21
1033.2498265349
 31
0.0
  0
LINE
  5
8F
330
1F
100
AcDbEntity
  8
0
  6
SLD-Solid
 62
     7
370
    15
100
AcDbLine
 10
335.4898884878
 20
1034.1610325419
 30
0.0
 11
335.4898884878
 21
1034.3911958777
 31
0.0
  0
LINE
  5
90
330
1F
100
AcDbEntity
  8
0
  6
SLD-Solid
 62
     7
370
    15
100
AcDbLine
 10
336.689908801
 20
1034.3911958777
 30
0.0
 11
336.689908801
 21
1034.1610325419
 31
0.0
  0
LINE
  5
91
330
1F
100
AcDbEntity
  8
0
  6
SLD-Solid
 62
     7
370
    15
100
AcDbLine
 10
336.9398906812
 20
1028.855950936
 30
0.0
 11
336.9398906812
 21
1028.8297248923
 31
0.0
  0
LINE
  5
92
330
1F
100
AcDbEntity
  8
0
  6
SLD-Solid
 62
     7
370
    15
100
AcDbLine
 10
335.4898884878
 20
1029.535861119
 30
0.0
 11
335.4898884878
 21
1029.9909425818
 31
0.0
  0
SPLINE
  5
93
330
1F
100
AcDbEntity
  8
0
  6
SLD-Solid
 62
     7
370
    15
100
AcDbSpline
210
0.0
220
0.0
230
1.0
 70
     8
 71
     3
 72
    11
 73
     7
 74
     0
 42
0.00000001
 43
0.00000001
 40
0.0
 40
0.0
 40
0.0
 40
0.0
 40
0.0796208593455773
 40
0.4594813935790034
 40
0.8207552914392541
 40
1.0
 40
1.0
 40
1.0
 40
1.0
 10
335.788388548796
 20
1046.653510435743
 30
0.0
 10
335.8053464570816
 20
1046.67756448342
 30
0.0
 10
335.9032082912212
 20
1046.816377194543
 30
0.0
 10
336.2215492105523
 20
1046.985689188101
 30
0.0
 10
336.6128563604154
 20
1047.103317172873
 30
0.0
 10
336.858448392753
 20
1047.112649654267
 30
0.0
 10
336.9398906812118
 20
1047.115744455976
 30
0.0
  0
ARC
  5
94
330
1F
100
AcDbEntity
  8
0
  6
SLD-Solid
 62
     7
370
    15
100
AcDbCircle
 10
342.0511953735
 20
1046.3744669558
 30
0.0
 40
0.2390090049671356
100
AcDbArc
 50
267.2918401627
 51
357.034839635
  0
LINE
  5
95
330
1F
100
AcDbEntity
  8
0
  6
SLD-Solid
 62
     7
370
    15
100
AcDbLine
 10
342.289884387
 20
1046.8919588172
 30
0.0
 11
342.289884387
 21
1046.3621033274
 31
0.0
  0
LINE
  5
96
330
1F
100
AcDbEntity
  8
0
  6
SLD-Solid
 62
     7
370
    15
100
AcDbLine
 10
342.289884387
 20
1046.3621033274
 30
0.0
 11
342.289884387
 21
1043.626041516
 31
0.0
  0
SPLINE
  5
97
330
1F
100
AcDbEntity
  8
0
  6
SLD-Solid
 62
     7
370
    15
100
AcDbSpline
210
0.0
220
0.0
230
1.0
 70
     8
 71
     3
 72
    13
 73
     9
 74
     0
 42
0.00000001
 43
0.00000001
 40
0.0
 40
0.0
 40
0.0
 40
0.0
 40
0.1695901064246321
 40
0.338638662732358
 40
0.518466062327032
 40
0.7277094752214124
 40
0.992461198045738
 40
1.0
 40
1.0
 40
1.0
 40
1.0
 10
336.9398906812118
 20
1040.716858013792
 30
0.0
 10
336.9152718505732
 20
1040.717553200868
 30
0.0
 10
336.8661128043227
 20
1040.718941355089
 30
0.0
 10
336.7999840329583
 20
1040.729621074453
 30
0.0
 10
336.7443027268315
 20
1040.745624087439
 30
0.0
 10
336.7016662312989
 20
1040.768373561646
 30
0.0
 10
336.6898448111622
 20
1040.787184039143
 30
0.0
 10
336.689907077091
 20
1040.797225095352
 30
0.0
 10
336.6899088010235
 20
1040.797503098173
 30
0.0
  0
LINE
  5
98
330
1F
100
AcDbEntity
  8
0
  6
SLD-Solid
 62
     7
370
    15
100
AcDbLine
 10
336.689908801
 20
1034.3911958777
 30
0.0
 11
336.689908801
 21
1040.7975030982
 31
0.0
  0
SPLINE
  5
99
330
1F
100
AcDbEntity
  8
0
  6
SLD-Solid
 62
     7
370
    15
100
AcDbSpline
210
0.0
220
0.0
230
1.0
 70
     8
 71
     3
 72
    13
 73
     9
 74
     0
 42
0.00000001
 43
0.00000001
 40
0.0
 40
0.0
 40
0.0
 40
0.0
 40
0.007538801954262
 40
0.2722905247785876
 40
0.481533937672968
 40
0.6613613372676419
 40
0.8304098935753678
 40
1.0
 40
1.0
 40
1.0
 40
1.0
 10
337.8898695096419
 20
1040.797503098173
 30
0.0
 10
337.8898712335747
 20
1040.797225095351
 30
0.0
 10
337.8899334995069
 20
1040.787184039144
 30
0.0
 10
337.8781120793652
 20
1040.768373561646
 30
0.0
 10
337.8354755838344
 20
1040.745624087439
 30
0.0
 10
337.7797942777079
 20
1040.729621074453
 30
0.0
 10
337.7136655063424
 20
1040.718941355089
 30
0.0
 10
337.6645064600921
 20
1040.717553200868
 30
0.0
 10
337.6398876294539
 20
1040.716858013792
 30
0.0
  0
LINE
  5
9A
330
1F
100
AcDbEntity
  8
0
  6
SLD-Solid
 62
     7
370
    15
100
AcDbLine
 10
337.8898695096
 20
1040.7975030982
 30
0.0
 11
337.8898695096
 21
1034.0296937072
 31
0.0
  0
LINE
  5
9B
330
1F
100
AcDbEntity
  8
0
  6
SLD-Solid
 62
     7
370
    15
100
AcDbLine
 10
336.9398906812
 20
1040.7168580138
 30
0.0
 11
337.6398876295
 21
1040.7168580138
 31
0.0
  0
SPLINE
  5
9C
330
1F
100
AcDbEntity
  8
0
  6
SLD-Solid
 62
     7
370
    15
100
AcDbSpline
210
0.0
220
0.0
230
1.0
 70
     8
 71
     3
 72
    12
 73
     8
 74
     0
 42
0.00000001
 43
0.00000001
 40
0.0
 40
0.0
 40
0.0
 40
0.0
 40
0.2289427409499937
 40
0.459421443701149
 40
0.6825276820278717
 40
0.8946951450547841
 40
1.0
 40
1.0
 40
1.0
 40
1.0
 10
337.8898695096419
 20
1045.584977968855
 30
0.0
 10
337.8725529387025
 20
1045.706795857771
 30
0.0
 10
337.8378036210883
 20
1045.951248903813
 30
0.0
 10
337.5638766125735
 20
1046.271162802395
 30
0.0
 10
337.1668723663968
 20
1046.500623554655
 30
0.0
 10
336.7659911154814
 20
1046.603333004623
 30
0.0
 10
336.5210978593196
 20
1046.612098379917
 30
0.0
 10
336.4398673161908
 20
1046.615005835218
 30
0.0
  0
LINE
  5
9D
330
1F
100
AcDbEntity
  8
0
  6
SLD-Solid
 62
     7
370
    15
100
AcDbLine
 10
337.8898695096
 20
1045.5849779689
 30
0.0
 11
337.8898695096
 21
1041.0042716109
 31
0.0
  0
LINE
  5
9E
330
1F
100
AcDbEntity
  8
0
  6
SLD-Solid
 62
     7
370
    15
100
AcDbLine
 10
331.0898736104
 20
1041.8227923953
 30
0.0
 11
331.0898736104
 21
1046.4034987532
 31
0.0
  0
LINE
  5
9F
330
1F
100
AcDbEntity
  8
0
  6
SLD-Solid
 62
     7
370
    15
100
AcDbLine
 10
331.0898736104
 20
1041.3467897021
 30
0.0
 11
331.0898736104
 21
1041.8227923953
 31
0.0
  0
LINE
  5
A0
330
1F
100
AcDbEntity
  8
0
  6
SLD-Solid
 62
     7
370
    15
100
AcDbLine
 10
336.689908801
 20
1040.7975030982
 30
0.0
 11
336.689908801
 21
1041.0042716109
 31
0.0
  0
LINE
  5
A1
330
1F
100
AcDbEntity
  8
0
  6
SLD-Solid
 62
     7
370
    15
100
AcDbLine
 10
337.8898695096
 20
1041.0042716109
 30
0.0
 11
337.8898695096
 21
1040.7975030982
 31
0.0
  0
LINE
  5
A2
330
1F
100
AcDbEntity
  8
0
  6
SLD-Solid
 62
     7
370
    15
100
AcDbLine
 10
336.4398673162
 20
1046.6150058352
 30
0.0
 11
336.4398673162
 21
1046.6535104357
 31
0.0
  0
LINE
  5
A3
330
1F
100
AcDbEntity
  8
0
  6
SLD-Solid
 62
     7
370
    15
100
AcDbLine
 10
337.8898695096
 20
1046.4358640753
 30
0.0
 11
337.8898695096
 21
1045.5849779689
 31
0.0
  0
ARC
  5
A4
330
1F
100
AcDbEntity
  8
0
  6
SLD-Solid
 62
     7
370
    15
100
AcDbCircle
 10
331.3235516886
 20
1030.0249393496
 30
0.0
 40
0.2344680021934073
100
AcDbArc
 50
85.9981026226
 51
175.2955322429
  0
LINE
  5
A5
330
1F
100
AcDbEntity
  8
0
  6
SLD-Solid
 62
     7
370
    15
100
AcDbLine
 10
331.0898736104
 20
1030.0441695296
 30
0.0
 11
331.0898736104
 21
1032.2560680949
 31
0.0
  0
LINE
  5
A6
330
1F
100
AcDbEntity
  8
0
  6
SLD-Solid
 62
     7
370
    15
100
AcDbLine
 10
331.0898736104
 20
1029.5681966387
 30
0.0
 11
331.0898736104
 21
1030.0441695296
 31
0.0
  0
LINE
  5
A7
330
1F
100
AcDbEntity
  8
0
  6
SLD-Solid
 62
     7
370
    15
100
AcDbLine
 10
348.0932906255
 20
1039.0623820864
 30
0.0
 11
348.2899263486
 21
1037.862719401
 31
0.0
  0
LINE
  5
A8
330
1F
100
AcDbEntity
  8
0
  6
SLD-Solid
 62
     7
370
    15
100
AcDbLine
 10
348.2899263486
 20
1034.7322536551
 30
0.0
 11
348.0932906255
 21
1033.6118055426
 31
0.0
  0
LINE
  5
A9
330
1F
100
AcDbEntity
  8
0
  6
SLD-Solid
 62
     7
370
    15
100
AcDbLine
 10
348.0932906255
 20
1033.6118055426
 30
0.0
 11
343.7864974126
 21
1033.6118055426
 31
0.0
  0
SPLINE
  5
AA
330
1F
100
AcDbEntity
  8
0
  6
SLD-Solid
 62
     7
370
    15
100
AcDbSpline
210
0.0
220
0.0
230
1.0
 70
     8
 71
     3
 72
     9
 73
     5
 74
     0
 42
0.00000001
 43
0.00000001
 40
0.0
 40
0.0
 40
0.0
 40
0.0
 40
0.0701958367829226
 40
1.0
 40
1.0
 40
1.0
 40
1.0
 10
343.3398798093245
 20
1036.337078913374
 30
0.0
 10
343.3403306835856
 20
1036.272476862604
 30
0.0
 10
343.3467537747803
 20
1035.352165149966
 30
0.0
 10
343.5746233411476
 20
1034.450332912008
 30
0.0
 10
343.7864974126265
 20
1033.611805542631
 30
0.0
  0
LINE
  5
AB
330
1F
100
AcDbEntity
  8
0
  6
SLD-Solid
 62
     7
370
    15
100
AcDbLine
 10
343.7864974126
 20
1039.0623820864
 30
0.0
 11
343.3398798093
 21
1036.3370789134
 31
0.0
  0
LINE
  5
AC
330
1F
100
AcDbEntity
  8
0
  6
SLD-Solid
 62
     7
370
    15
100
AcDbLine
 10
348.0932906255
 20
1039.0623820864
 30
0.0
 11
343.7864974126
 21
1039.0623820864
 31
0.0
  0
SPLINE
  5
AD
330
1F
100
AcDbEntity
  8
0
  6
SLD-Solid
 62
     7
370
    15
100
AcDbSpline
210
0.0
220
0.0
230
1.0
 70
     8
 71
     3
 72
     9
 73
     5
 74
     0
 42
0.00000001
 43
0.00000001
 40
0.0
 40
0.0
 40
0.0
 40
0.0
 40
0.0701958882045527
 40
1.0
 40
1.0
 40
1.0
 40
1.0
 10
343.3398798093245
 20
1041.249395712538
 30
0.0
 10
343.3403306830101
 20
1041.197555129342
 30
0.0
 10
343.3467537613011
 20
1040.459042026634
 30
0.0
 10
343.5746233407249
 20
1039.735310570338
 30
0.0
 10
343.7864974126265
 20
1039.062382086439
 30
0.0
  0
LINE
  5
AE
330
1F
100
AcDbEntity
  8
0
  6
SLD-Solid
 62
     7
370
    15
100
AcDbLine
 10
343.3398798093
 20
1036.3370789134
 30
0.0
 11
343.3398798093
 21
1041.2493957125
 31
0.0
  0
LINE
  5
AF
330
1F
100
AcDbEntity
  8
0
  6
SLD-Solid
 62
     7
370
    15
100
AcDbLine
 10
348.2899263486
 20
1039.9615479552
 30
0.0
 11
348.0932906255
 21
1039.0623820864
 31
0.0
  0
LINE
  5
B0
330
1F
100
AcDbEntity
  8
0
  6
SLD-Solid
 62
     7
370
    15
100
AcDbLine
 10
348.0932906255
 20
1043.4364093386
 30
0.0
 11
348.2899263486
 21
1042.4737049185
 31
0.0
  0
LINE
  5
B1
330
1F
100
AcDbEntity
  8
0
  6
SLD-Solid
 62
     7
370
    15
100
AcDbLine
 10
343.7864974126
 20
1043.4364093386
 30
0.0
 11
343.3398798093
 21
1041.2493957125
 31
0.0
  0
LINE
  5
B2
330
1F
100
AcDbEntity
  8
0
  6
SLD-Solid
 62
     7
370
    15
100
AcDbLine
 10
348.0932906255
 20
1043.4364093386
 30
0.0
 11
343.7864974126
 21
1043.4364093386
 31
0.0
  0
LINE
  5
B3
330
1F
100
AcDbEntity
  8
0
  6
SLD-Solid
 62
     7
370
    15
100
AcDbLine
 10
348.2899263486
 20
1033.4244979464
 30
0.0
 11
348.0932906255
 21
1033.6118055426
 31
0.0
  0
SPLINE
  5
B4
330
1F
100
AcDbEntity
  8
0
  6
SLD-Solid
 62
     7
370
    15
100
AcDbSpline
210
0.0
220
0.0
230
1.0
 70
     8
 71
     3
 72
     9
 73
     5
 74
     0
 42
0.00000001
 43
0.00000001
 40
0.0
 40
0.0
 40
0.0
 40
0.0
 40
0.2686331204035385
 40
1.0
 40
1.0
 40
1.0
 40
1.0
 10
343.3398798093245
 20
1033.073545797987
 30
0.0
 10
343.3465043270336
 20
1033.122487270461
 30
0.0
 10
343.3711644199486
 20
1033.304674308308
 30
0.0
 10
343.6110517584281
 20
1033.482066655327
 30
0.0
 10
343.7864974126265
 20
1033.611805542631
 30
0.0
  0
LINE
  5
B5
330
1F
100
AcDbEntity
  8
0
  6
SLD-Solid
 62
     7
370
    15
100
AcDbLine
 10
343.3398798093
 20
1033.073545798
 30
0.0
 11
343.3398798093
 21
1036.3370789134
 31
0.0
  0
LINE
  5
B6
330
1F
100
AcDbEntity
  8
0
  6
SLD-Solid
 62
     7
370
    15
100
AcDbLine
 10
348.2899263486
 20
1043.2491017424
 30
0.0
 11
348.0932906255
 21
1043.4364093386
 31
0.0
  0
SPLINE
  5
B7
330
1F
100
AcDbEntity
  8
0
  6
SLD-Solid
 62
     7
370
    15
100
AcDbSpline
210
0.0
220
0.0
230
1.0
 70
     8
 71
     3
 72
     9
 73
     5
 74
     0
 42
0.00000001
 43
0.00000001
 40
0.0
 40
0.0
 40
0.0
 40
0.0
 40
0.2686350078419594
 40
1.0
 40
1.0
 40
1.0
 40
1.0
 10
343.3398798093245
 20
1042.898149593992
 30
0.0
 10
343.3465042256929
 20
1042.947102763919
 30
0.0
 10
343.3711637681027
 20
1043.129332065751
 30
0.0
 10
343.6110517445865
 20
1043.306693439162
 30
0.0
 10
343.7864974126263
 20
1043.436409338636
 30
0.0
  0
LINE
  5
B8
330
1F
100
AcDbEntity
  8
0
  6
SLD-Solid
 62
     7
370
    15
100
AcDbLine
 10
343.3398798093
 20
1041.2493957125
 30
0.0
 11
343.3398798093
 21
1042.9778410041
 31
0.0
  0
SPLINE
  5
B9
330
1F
100
AcDbEntity
  8
0
  6
SLD-Solid
 62
     7
370
    15
100
AcDbSpline
210
0.0
220
0.0
230
1.0
 70
     8
 71
     3
 72
     9
 73
     5
 74
     0
 42
0.00000001
 43
0.00000001
 40
0.0
 40
0.0
 40
0.0
 40
0.0
 40
0.925041675898998
 40
1.0
 40
1.0
 40
1.0
 40
1.0
 10
348.0932906255172
 20
1032.535286053343
 30
0.0
 10
348.1717714793098
 20
1032.580105458421
 30
0.0
 10
348.2566118230877
 20
1032.628556686346
 30
0.0
 10
348.2876032808926
 20
1032.678830492639
 30
0.0
 10
348.2899263486312
 20
1032.682598932905
 30
0.0
  0
LINE
  5
BA
330
1F
100
AcDbEntity
  8
0
  6
SLD-Solid
 62
     7
370
    15
100
AcDbLine
 10
348.0932906255
 20
1032.5352860533
 30
0.0
 11
343.7864974126
 21
1032.5352860533
 31
0.0
  0
LINE
  5
BB
330
1F
100
AcDbEntity
  8
0
  6
SLD-Solid
 62
     7
370
    15
100
AcDbLine
 10
343.7864974126
 20
1032.5352860533
 30
0.0
 11
343.5971334562
 21
1032.6713038527
 31
0.0
  0
LINE
  5
BC
330
1F
100
AcDbEntity
  8
0
  6
SLD-Solid
 62
     7
370
    15
100
AcDbLine
 10
343.4494927511
 20
1032.9021526419
 30
0.0
 11
343.3398798093
 21
1033.073545798
 31
0.0
  0
LINE
  5
BD
330
1F
100
AcDbEntity
  8
0
  6
SLD-Solid
 62
     7
370
    15
100
AcDbLine
 10
343.3398798093
 20
1032.9858375632
 30
0.0
 11
343.3398798093
 21
1033.073545798
 31
0.0
  0
LINE
  5
BE
330
1F
100
AcDbEntity
  8
0
  6
SLD-Solid
 62
     7
370
    15
100
AcDbLine
 10
335.0433304891
 20
1040.2366233908
 30
0.0
 11
335.4898884878
 21
1037.3717261397
 31
0.0
  0
SPLINE
  5
BF
330
1F
100
AcDbEntity
  8
0
  6
SLD-Solid
 62
     7
370
    15
100
AcDbSpline
210
0.0
220
0.0
230
1.0
 70
     8
 71
     3
 72
     9
 73
     5
 74
     0
 42
0.00000001
 43
0.00000001
 40
0.0
 40
0.0
 40
0.0
 40
0.0
 40
0.0701977068400859
 40
1.0
 40
1.0
 40
1.0
 40
1.0
 10
335.4898884877608
 20
1037.371726139707
 30
0.0
 10
335.4894375817821
 20
1037.303814548007
 30
0.0
 10
335.4830142098637
 20
1036.336381354573
 30
0.0
 10
335.2551754709843
 20
1035.388329591716
 30
0.0
 10
335.0433304891034
 20
1034.506828888578
 30
0.0
  0
LINE
  5
C0
330
1F
100
AcDbEntity
  8
0
  6
SLD-Solid
 62
     7
370
    15
100
AcDbLine
 10
335.0433304891
 20
1034.5068288886
 30
0.0
 11
330.7364776716
 21
1034.5068288886
 31
0.0
  0
SPLINE
  5
C1
330
1F
100
AcDbEntity
  8
0
  6
SLD-Solid
 62
     7
370
    15
100
AcDbSpline
210
0.0
220
0.0
230
1.0
 70
     8
 71
     3
 72
     9
 73
     5
 74
     0
 42
0.00000001
 43
0.00000001
 40
0.0
 40
0.0
 40
0.0
 40
0.0
 40
0.0701972499462535
 40
0.9999999999999999
 40
0.9999999999999999
 40
0.9999999999999999
 40
0.9999999999999999
 10
330.289919672911
 20
1037.371726139707
 30
0.0
 10
330.2903499657934
 20
1037.30381453176
 30
0.0
 10
330.296479734165
 20
1036.336374810124
 30
0.0
 10
330.5244812422939
 20
1035.388326662978
 30
0.0
 10
330.7364776715682
 20
1034.506828888578
 30
0.0
  0
LINE
  5
C2
330
1F
100
AcDbEntity
  8
0
  6
SLD-Solid
 62
     7
370
    15
100
AcDbLine
 10
330.7364776716
 20
1040.2366233908
 30
0.0
 11
330.2899196729
 21
1037.3717261397
 31
0.0
  0
LINE
  5
C3
330
1F
100
AcDbEntity
  8
0
  6
SLD-Solid
 62
     7
370
    15
100
AcDbLine
 10
335.0433304891
 20
1040.2366233908
 30
0.0
 11
330.7364776716
 21
1040.2366233908
 31
0.0
  0
SPLINE
  5
C4
330
1F
100
AcDbEntity
  8
0
  6
SLD-Solid
 62
     7
370
    15
100
AcDbSpline
210
0.0
220
0.0
230
1.0
 70
     8
 71
     3
 72
     9
 73
     5
 74
     0
 42
0.00000001
 43
0.00000001
 40
0.0
 40
0.0
 40
0.0
 40
0.0
 40
0.2686323656189538
 40
1.0
 40
1.0
 40
1.0
 40
1.0
 10
330.289919672911
 20
1041.976125343961
 30
0.0
 10
330.2965452113347
 20
1041.817958951906
 30
0.0
 10
330.3212091732088
 20
1041.229175125762
 30
0.0
 10
330.5610591566053
 20
1040.655898996986
 30
0.0
 10
330.736477671568
 20
1040.236623390837
 30
0.0
  0
LINE
  5
C5
330
1F
100
AcDbEntity
  8
0
  6
SLD-Solid
 62
     7
370
    15
100
AcDbLine
 10
330.2899196729
 20
1037.3717261397
 30
0.0
 11
330.2899196729
 21
1041.976125344
 31
0.0
  0
LINE
  5
C6
330
1F
100
AcDbEntity
  8
0
  6
SLD-Solid
 62
     7
370
    15
100
AcDbLine
 10
335.3226378545
 20
1041.0968078219
 30
0.0
 11
335.0433304891
 21
1040.2366233908
 31
0.0
  0
LINE
  5
C7
330
1F
100
AcDbEntity
  8
0
  6
SLD-Solid
 62
     7
370
    15
100
AcDbLine
 10
330.7364776716
 20
1034.5068288886
 30
0.0
 11
330.2899196729
 21
1033.3814335906
 31
0.0
  0
LINE
  5
C8
330
1F
100
AcDbEntity
  8
0
  6
SLD-Solid
 62
     7
370
    15
100
AcDbLine
 10
330.2899196729
 20
1033.3814335906
 30
0.0
 11
330.2899196729
 21
1037.3717261397
 31
0.0
  0
LINE
  5
C9
330
1F
100
AcDbEntity
  8
0
  6
SLD-Solid
 62
     7
370
    15
100
AcDbLine
 10
335.0433304891
 20
1034.5068288886
 30
0.0
 11
335.4898884878
 21
1033.3814335906
 31
0.0
  0
SPLINE
  5
CA
330
1F
100
AcDbEntity
  8
0
  6
SLD-Solid
 62
     7
370
    15
100
AcDbSpline
210
0.0
220
0.0
230
1.0
 70
     8
 71
     3
 72
     9
 73
     5
 74
     0
 42
0.00000001
 43
0.00000001
 40
0.0
 40
0.0
 40
0.0
 40
0.0
 40
0.2575499586046131
 40
1.0
 40
1.0
 40
1.0
 40
1.0
 10
330.7364776715682
 20
1043.715627297086
 30
0.0
 10
330.6690576117999
 20
1043.569597928652
 30
0.0
 10
330.4072829249243
 20
1043.002603590059
 30
0.0
 10
330.3399276210561
 20
1042.413503058215
 30
0.0
 10
330.289919672911
 20
1041.976125343961
 30
0.0
  0
LINE
  5
CB
330
1F
100
AcDbEntity
  8
0
  6
SLD-Solid
 62
     7
370
    15
100
AcDbLine
 10
331.0898736104
 20
1043.7156272971
 30
0.0
 11
330.7364776716
 21
1043.7156272971
 31
0.0
  0
LINE
  5
CC
330
1F
100
AcDbEntity
  8
0
  6
SLD-Solid
 62
     7
370
    15
100
AcDbLine
 10
335.0433304891
 20
1032.2560680949
 30
0.0
 11
330.7364776716
 21
1032.2560680949
 31
0.0
  0
SPLINE
  5
CD
330
1F
100
AcDbEntity
  8
0
  6
SLD-Solid
 62
     7
370
    15
100
AcDbSpline
210
0.0
220
0.0
230
1.0
 70
     8
 71
     3
 72
     9
 73
     5
 74
     0
 42
0.00000001
 43
0.00000001
 40
0.0
 40
0.0
 40
0.0
 40
0.0
 40
0.0701932879824266
 40
1.0
 40
1.0
 40
1.0
 40
1.0
 10
330.289919672911
 20
1033.381433590574
 30
0.0
 10
330.2903500101757
 20
1033.354757910276
 30
0.0
 10
330.2964807568218
 20
1032.974726128544
 30
0.0
 10
330.5244812669281
 20
1032.602327157613
 30
0.0
 10
330.7364776715682
 20
1032.256068094892
 30
0.0
  0
LINE
  5
CE
330
1F
100
AcDbEntity
  8
0
  6
SLD-Solid
 62
     7
370
    15
100
AcDbLine
 10
330.6095197782
 20
1043.4168888175
 30
0.0
 11
330.7364776716
 21
1043.7156272971
 31
0.0
  0
LINE
  5
CF
330
1F
100
AcDbEntity
  8
0
  6
SLD-Solid
 62
     7
370
    15
100
AcDbLine
 10
330.2899196729
 20
1041.976125344
 30
0.0
 11
330.2899196729
 21
1042.9858578288
 31
0.0
  0
LINE
  5
D0
330
1F
100
AcDbEntity
  8
0
  6
SLD-Solid
 62
     7
370
    15
100
AcDbLine
 10
330.2899196729
 20
1032.9858375632
 30
0.0
 11
330.2899196729
 21
1033.3814335906
 31
0.0
  0
LINE
  5
D1
330
1F
100
AcDbEntity
  8
0
  6
SLD-Solid
 62
     7
370
    15
100
AcDbLine
 10
342.6433399305
 20
1041.8742312037
 30
0.0
 11
343.0898979291
 21
1039.0541268431
 31
0.0
  0
SPLINE
  5
D2
330
1F
100
AcDbEntity
  8
0
  6
SLD-Solid
 62
     7
370
    15
100
AcDbSpline
210
0.0
220
0.0
230
1.0
 70
     8
 71
     3
 72
     9
 73
     5
 74
     0
 42
0.00000001
 43
0.00000001
 40
0.0
 40
0.0
 40
0.0
 40
0.0
 40
0.0701983007293065
 40
1.0
 40
1.0
 40
1.0
 40
1.0
 10
343.0898979291366
 20
1039.054126843138
 30
0.0
 10
343.089447029804
 20
1038.987278755219
 30
0.0
 10
343.0830238069071
 20
1038.035003739663
 30
0.0
 10
342.8551849172461
 20
1037.101772384616
 30
0.0
 10
342.6433399304793
 20
1036.234052284879
 30
0.0
  0
LINE
  5
D3
330
1F
100
AcDbEntity
  8
0
  6
SLD-Solid
 62
     7
370
    15
100
AcDbLine
 10
342.6433399305
 20
1036.2340522849
 30
0.0
 11
338.3364871129
 21
1036.2340522849
 31
0.0
  0
SPLINE
  5
D4
330
1F
100
AcDbEntity
  8
0
  6
SLD-Solid
 62
     7
370
    15
100
AcDbSpline
210
0.0
220
0.0
230
1.0
 70
     8
 71
     3
 72
     9
 73
     5
 74
     0
 42
0.00000001
 43
0.00000001
 40
0.0
 40
0.0
 40
0.0
 40
0.0
 40
0.0701980668470315
 40
0.9999999999999999
 40
0.9999999999999999
 40
0.9999999999999999
 40
0.9999999999999999
 10
337.8898695096419
 20
1039.054126843138
 30
0.0
 10
337.890320358943
 20
1038.987278747031
 30
0.0
 10
337.8967428905224
 20
1038.035000442104
 30
0.0
 10
338.1246130231339
 20
1037.101770908915
 30
0.0
 10
338.3364871129439
 20
1036.234052284879
 30
0.0
  0
LINE
  5
D5
330
1F
100
AcDbEntity
  8
0
  6
SLD-Solid
 62
     7
370
    15
100
AcDbLine
 10
338.3364871129
 20
1041.8742312037
 30
0.0
 11
337.8898695096
 21
1039.0541268431
 31
0.0
  0
LINE
  5
D6
330
1F
100
AcDbEntity
  8
0
  6
SLD-Solid
 62
     7
370
    15
100
AcDbLine
 10
342.6433399305
 20
1041.8742312037
 30
0.0
 11
338.3364871129
 21
1041.8742312037
 31
0.0
  0
LINE
  5
D7
330
1F
100
AcDbEntity
  8
0
  6
SLD-Solid
 62
     7
370
    15
100
AcDbLine
 10
338.3364871129
 20
1036.2340522849
 30
0.0
 11
337.8898695096
 21
1034.2898679816
 31
0.0
  0
LINE
  5
D8
330
1F
100
AcDbEntity
  8
0
  6
SLD-Solid
 62
     7
370
    15
100
AcDbLine
 10
342.6433399305
 20
1036.2340522849
 30
0.0
 11
343.0898979291
 21
1034.2898679816
 31
0.0
  0
LINE
  5
D9
330
1F
100
AcDbEntity
  8
0
  6
SLD-Solid
 62
     7
370
    15
100
AcDbLine
 10
343.0898979291
 20
1039.0541268431
 30
0.0
 11
343.0898979291
 21
1034.2898679816
 31
0.0
  0
SPLINE
  5
DA
330
1F
100
AcDbEntity
  8
0
  6
SLD-Solid
 62
     7
370
    15
100
AcDbSpline
210
0.0
220
0.0
230
1.0
 70
     8
 71
     3
 72
     9
 73
     5
 74
     0
 42
0.00000001
 43
0.00000001
 40
0.0
 40
0.0
 40
0.0
 40
0.0
 40
0.2686359981889834
 40
1.0
 40
1.0
 40
1.0
 40
1.0
 10
343.0898979291366
 20
1042.750121458692
 30
0.0
 10
343.0832725857222
 20
1042.670480936686
 30
0.0
 10
343.0586096832853
 20
1042.374018353329
 30
0.0
 10
342.8187584721176
 20
1042.085351643678
 30
0.0
 10
342.6433399304793
 20
1041.874231203718
 30
0.0
  0
LINE
  5
DB
330
1F
100
AcDbEntity
  8
0
  6
SLD-Solid
 62
     7
370
    15
100
AcDbLine
 10
343.0898979291
 20
1042.7501214587
 30
0.0
 11
343.0898979291
 21
1039.0541268431
 31
0.0
  0
SPLINE
  5
DC
330
1F
100
AcDbEntity
  8
0
  6
SLD-Solid
 62
     7
370
    15
100
AcDbSpline
210
0.0
220
0.0
230
1.0
 70
     8
 71
     3
 72
     9
 73
     5
 74
     0
 42
0.00000001
 43
0.00000001
 40
0.0
 40
0.0
 40
0.0
 40
0.0
 40
0.2686366691793747
 40
1.0
 40
1.0
 40
1.0
 40
1.0
 10
337.8898695096419
 20
1042.750121458692
 30
0.0
 10
337.896517353915
 20
1042.670480972025
 30
0.0
 10
337.9212639541967
 20
1042.374019260707
 30
0.0
 10
338.1610883465444
 20
1042.0853519151
 30
0.0
 10
338.3364871129439
 20
1041.874231203718
 30
0.0
  0
SPLINE
  5
DD
330
1F
100
AcDbEntity
  8
0
  6
SLD-Solid
 62
     7
370
    15
100
AcDbSpline
210
0.0
220
0.0
230
1.0
 70
     8
 71
     3
 72
     9
 73
     5
 74
     0
 42
0.00000001
 43
0.00000001
 40
0.0
 40
0.0
 40
0.0
 40
0.0
 40
0.0702070012132991
 40
1.0
 40
1.0
 40
1.0
 40
1.0
 10
343.0898979291363
 20
1034.289867981596
 30
0.0
 10
343.0894471271797
 20
1034.243771873399
 30
0.0
 10
343.0830260872722
 20
1033.587197637208
 30
0.0
 10
342.8551849887351
 20
1032.943841711469
 30
0.0
 10
342.6433399304793
 20
1032.34565387599
 30
0.0
  0
LINE
  5
DE
330
1F
100
AcDbEntity
  8
0
  6
SLD-Solid
 62
     7
370
    15
100
AcDbLine
 10
342.6433399305
 20
1032.345653876
 30
0.0
 11
342.289884387
 21
1032.345653876
 31
0.0
  0
SPLINE
  5
DF
330
1F
100
AcDbEntity
  8
0
  6
SLD-Solid
 62
     7
370
    15
100
AcDbSpline
210
0.0
220
0.0
230
1.0
 70
     8
 71
     3
 72
     9
 73
     5
 74
     0
 42
0.00000001
 43
0.00000001
 40
0.0
 40
0.0
 40
0.0
 40
0.0
 40
0.5279136928181158
 40
1.0
 40
1.0
 40
1.0
 40
1.0
 10
337.8898695096419
 20
1034.289867981596
 30
0.0
 10
337.8879492656519
 20
1034.243630771283
 30
0.0
 10
337.8843118453387
 20
1034.156045980544
 30
0.0
 10
337.9101137231742
 20
1034.070213870853
 30
0.0
 10
337.9222944363997
 20
1034.029693707151
 30
0.0
  0
SPLINE
  5
E0
330
1F
100
AcDbEntity
  8
0
  6
SLD-Solid
 62
     7
370
    15
100
AcDbSpline
210
0.0
220
0.0
230
1.0
 70
     8
 71
     3
 72
     9
 73
     5
 74
     0
 42
0.00000001
 43
0.00000001
 40
0.0
 40
0.0
 40
0.0
 40
0.0
 40
0.2575461300429518
 40
0.9999999999999999
 40
0.9999999999999999
 40
0.9999999999999999
 40
0.9999999999999999
 10
342.6433399304793
 20
1043.626041515989
 30
0.0
 10
342.7107366888142
 20
1043.55250649288
 30
0.0
 10
342.9724247923158
 20
1043.266984737623
 30
0.0
 10
343.0398430114412
 20
1042.970355203928
 30
0.0
 10
343.0898979291363
 20
1042.750121458693
 30
0.0
  0
SPLINE
  5
E1
330
1F
100
AcDbEntity
  8
0
  6
SLD-Solid
 62
     7
370
    15
100
AcDbSpline
210
0.0
220
0.0
230
1.0
 70
     8
 71
     3
 72
     9
 73
     5
 74
     0
 42
0.00000001
 43
0.00000001
 40
0.0
 40
0.0
 40
0.0
 40
0.0
 40
0.5569311986238236
 40
1.0
 40
1.0
 40
1.0
 40
1.0
 10
338.3364871129439
 20
1043.626041515989
 30
0.0
 10
338.2640713898452
 20
1043.552790899502
 30
0.0
 10
338.1340450539578
 20
1043.421265467513
 30
0.0
 10
338.0939145838528
 20
1043.284613856931
 30
0.0
 10
338.0761340245648
 20
1043.224067791624
 30
0.0
  0
LINE
  5
E2
330
1F
100
AcDbEntity
  8
0
  6
SLD-Solid
 62
     7
370
    15
100
AcDbLine
 10
342.6433399305
 20
1043.626041516
 30
0.0
 11
338.3364871129
 21
1043.626041516
 31
0.0
  0
LINE
  5
E3
330
1F
100
AcDbEntity
  8
0
  6
SLD-Solid
 62
     7
370
    15
100
AcDbLine
 10
342.9038122281
 20
1032.7495945536
 30
0.0
 11
342.6433399305
 21
1032.345653876
 31
0.0
  0
LINE
  5
E4
330
1F
100
AcDbEntity
  8
0
  6
SLD-Solid
 62
     7
370
    15
100
AcDbLine
 10
343.0898979291
 20
1032.9858375632
 30
0.0
 11
343.0898979291
 21
1034.2898679816
 31
0.0
  0
LINE
  5
E5
330
1F
100
AcDbEntity
  8
0
  6
SLD-Solid
 62
     7
370
    15
100
AcDbLine
 10
343.0898979291
 20
1042.9858578288
 30
0.0
 11
343.0898979291
 21
1042.7501214587
 31
0.0
  0
LINE
  5
E6
330
1F
100
AcDbEntity
  8
0
  6
SLD-Solid
 62
     7
370
    15
100
AcDbLine
 10
1125.9435967527
 20
1119.985849961
 30
0.0
 11
1113.5567052275
 21
1119.985849961
 31
0.0
  0
LINE
  5
E7
330
1F
100
AcDbEntity
  8
0
  6
SLD-Solid
 62
     7
370
    15
100
AcDbLine
 10
1125.9435967527
 20
219.9858440005
 30
0.0
 11
1113.5567052275
 21
219.9858440005
 31
0.0
  0
ARC
  5
E8
330
1F
100
AcDbEntity
  8
0
  6
SLD-Solid
 62
     7
370
    15
100
AcDbCircle
 10
1121.1908544297
 20
582.9774062903
 30
0.0
 40
2.074635735462704
100
AcDbArc
 50
322.0979056494
 51
0.2331786249
  0
LINE
  5
E9
330
1F
100
AcDbEntity
  8
0
  6
SLD-Solid
 62
     7
370
    15
100
AcDbLine
 10
1123.2654729843
 20
602.9858497356
 30
0.0
 11
1123.2654729843
 21
582.9858494841
 31
0.0
  0
ARC
  5
EA
330
1F
100
AcDbEntity
  8
0
  6
SLD-Solid
 62
     7
370
    15
100
AcDbCircle
 10
1121.3238453685
 20
603.0443386793
 30
0.0
 40
1.942508366771679
100
AcDbArc
 50
358.2745628002
 51
88.1638000857
  0
LINE
  5
EB
330
1F
100
AcDbEntity
  8
0
  6
SLD-Solid
 62
     7
370
    15
100
AcDbLine
 10
1114.8567053475
 20
604.9858495978
 30
0.0
 11
1121.3860877047
 21
604.9858495978
 31
0.0
  0
ARC
  5
EC
330
1F
100
AcDbEntity
  8
0
  6
SLD-Solid
 62
     7
370
    15
100
AcDbCircle
 10
1121.3204252995
 20
603.0443388822
 30
0.0
 40
1.942508159876826
100
AcDbArc
 50
358.2745566269
 51
88.1638036022
  0
LINE
  5
ED
330
1F
100
AcDbEntity
  8
0
  6
SLD-Solid
 62
     7
370
    15
100
AcDbLine
 10
1123.2620527022
 20
602.9858497356
 30
0.0
 11
1123.2620527022
 21
582.9858494841
 31
0.0
  0
ARC
  5
EE
330
1F
100
AcDbEntity
  8
0
  6
SLD-Solid
 62
     7
370
    15
100
AcDbCircle
 10
1121.1874007188
 20
582.9774123399
 30
0.0
 40
2.074669139290601
100
AcDbArc
 50
322.1187490148
 51
0.2330077991
  0
ARC
  5
EF
330
1F
100
AcDbEntity
  8
0
  6
SLD-Solid
 62
     7
370
    15
100
AcDbCircle
 10
1121.354966473
 20
603.0150941688
 30
0.0
 40
0.9712542239915052
100
AcDbArc
 50
358.2745651497
 51
88.1637964078
  0
LINE
  5
F0
330
1F
100
AcDbEntity
  8
0
  6
SLD-Solid
 62
     7
370
    15
100
AcDbLine
 10
1122.3257803227
 20
602.9858497356
 30
0.0
 11
1122.3257803227
 21
582.9858494841
 31
0.0
  0
ARC
  5
F1
330
1F
100
AcDbEntity
  8
0
  6
SLD-Solid
 62
     7
370
    15
100
AcDbCircle
 10
1121.3549654815
 20
582.9566057566
 30
0.0
 40
0.9712551938201529
100
AcDbArc
 50
271.8362602797
 51
1.7253914772
  0
LINE
  5
F2
330
1F
100
AcDbEntity
  8
0
  6
SLD-Solid
 62
     7
370
    15
100
AcDbLine
 10
1114.8567053475
 20
603.9858496667
 30
0.0
 11
1121.3860877047
 21
603.9858496667
 31
0.0
  0
ARC
  5
F3
330
1F
100
AcDbEntity
  8
0
  6
SLD-Solid
 62
     7
370
    15
100
AcDbCircle
 10
1116.1953790477
 20
593.2056560101
 30
0.0
 40
4.256694976600213
100
AcDbArc
 50
357.0400503743
 51
108.3298255026
  0
ARC
  5
F4
330
1F
100
AcDbEntity
  8
0
  6
SLD-Solid
 62
     7
370
    15
100
AcDbCircle
 10
1116.0636443619
 20
592.8531899518
 30
0.0
 40
4.384757935476097
100
AcDbArc
 50
278.5352844855
 51
1.7337282142
  0
ARC
  5
F5
330
1F
100
AcDbEntity
  8
0
  6
SLD-Solid
 62
     7
370
    15
100
AcDbCircle
 10
1116.0869464668
 20
593.1293217543
 30
0.0
 40
4.358390528277334
100
AcDbArc
 50
358.1135573584
 51
88.324797491
  0
ARC
  5
F6
330
1F
100
AcDbEntity
  8
0
  6
SLD-Solid
 62
     7
370
    15
100
AcDbCircle
 10
1116.0600416928
 20
592.8532656991
 30
0.0
 40
4.384938064403062
100
AcDbArc
 50
278.5803388634
 51
1.7326667678
  0
ARC
  5
F7
330
1F
100
AcDbEntity
  8
0
  6
SLD-Solid
 62
     7
370
    15
100
AcDbCircle
 10
1116.2186768142
 20
593.3582325474
 30
0.0
 40
3.127620268689237
100
AcDbArc
 50
90.0791165302
 51
115.8149331757
  0
ARC
  5
F8
330
1F
100
AcDbEntity
  8
0
  6
SLD-Solid
 62
     7
370
    15
100
AcDbCircle
 10
1116.2230761233
 20
593.1799402264
 30
0.0
 40
3.289357680207782
100
AcDbArc
 50
356.6172555722
 51
114.5439650003
  0
ARC
  5
F9
330
1F
100
AcDbEntity
  8
0
  6
SLD-Solid
 62
     7
370
    15
100
AcDbCircle
 10
1116.1062342057
 20
592.8859557518
 30
0.0
 40
3.401935304190666
100
AcDbArc
 50
271.8789757526
 51
1.6826596492
  0
ARC
  5
FA
330
1F
100
AcDbEntity
  8
0
  6
SLD-Solid
 62
     7
370
    15
100
AcDbCircle
 10
1116.2351522944
 20
593.1073366859
 30
0.0
 40
1.865970285712428
100
AcDbArc
 50
356.2670124921
 51
137.6232847238
  0
ARC
  5
FB
330
1F
100
AcDbEntity
  8
0
  6
SLD-Solid
 62
     7
370
    15
100
AcDbCircle
 10
1116.1876085604
 20
592.9091132773
 30
0.0
 40
1.911096194793436
100
AcDbArc
 50
256.760706229
 51
2.301208212
  0
ARC
  5
FC
330
1F
100
AcDbEntity
  8
0
  6
SLD-Solid
 62
     7
370
    15
100
AcDbCircle
 10
1116.1521156817
 20
593.0443386874
 30
0.0
 40
1.942508350738761
100
AcDbArc
 50
358.2745485314
 51
88.1637988261
  0
ARC
  5
FD
330
1F
100
AcDbEntity
  8
0
  6
SLD-Solid
 62
     7
370
    15
100
AcDbCircle
 10
1116.152116445
 20
592.9273600207
 30
0.0
 40
1.942507582164751
100
AcDbArc
 50
271.8361793751
 51
1.7254466385
  0
ARC
  5
FE
330
1F
100
AcDbEntity
  8
0
  6
SLD-Solid
 62
     7
370
    15
100
AcDbCircle
 10
1116.2644466071
 20
592.9858497263
 30
0.0
 40
1.001253344087043
100
AcDbArc
 50
92.8674667862
 51
267.1325332138
  0
LWPOLYLINE
  5
FF
330
1F
100
AcDbEntity
  8
0
  6
SLD-Solid
 62
     7
370
    15
100
AcDbPolyline
 90
       17
 70
   128
 43
0.0
 10
1117.1574707128
 20
592.9858492606
 10
1117.0859409481
 20
593.3685334318
 10
1116.8822411433
 20
593.6929568567
 10
1116.577382943
 20
593.9097296365
 10
1116.2177783422
 20
593.9858494245
 10
1115.8581732757
 20
593.9097296365
 10
1115.5533150755
 20
593.6929568567
 10
1115.3496157363
 20
593.3685334318
 10
1115.278085506
 20
592.9858492606
 10
1115.3496157363
 20
592.6031660207
 10
1115.5533150755
 20
592.2787425958
 10
1115.8581732757
 20
592.061969816
 10
1116.2177783422
 20
591.985850028
 10
1116.577382943
 20
592.061969816
 10
1116.8822411433
 20
592.2787425958
 10
1117.0859409481
 20
592.6031660207
 10
1117.1574707128
 20
592.9858492606
  0
LINE
  5
100
330
1F
100
AcDbEntity
  8
0
  6
SLD-Solid
 62
     7
370
    15
100
AcDbLine
 10
1133.0497793838
 20
219.9858440005
 30
0.0
 11
1125.9435967527
 21
219.9858440005
 31
0.0
  0
LINE
  5
101
330
1F
100
AcDbEntity
  8
0
  6
SLD-Solid
 62
     7
370
    15
100
AcDbLine
 10
1133.0497793838
 20
1119.985849961
 30
0.0
 11
1125.9435967527
 21
1119.985849961
 31
0.0
  0
LINE
  5
102
330
1F
100
AcDbEntity
  8
0
  6
SLD-Solid
 62
     7
370
    15
100
AcDbLine
 10
973.499898611
 20
219.9858440005
 30
0.0
 11
970.2898904666
 21
219.9858440005
 31
0.0
  0
LINE
  5
103
330
1F
100
AcDbEntity
  8
0
  6
SLD-Solid
 62
     7
370
    15
100
AcDbLine
 10
455.2899196729
 20
219.9858440005
 30
0.0
 11
453.2898858175
 21
219.9858440005
 31
0.0
  0
LINE
  5
104
330
1F
100
AcDbEntity
  8
0
  6
SLD-Solid
 62
     7
370
    15
100
AcDbLine
 10
453.2898858175
 20
1119.985849961
 30
0.0
 11
455.2899196729
 21
1119.985849961
 31
0.0
  0
LINE
  5
105
330
1F
100
AcDbEntity
  8
0
  6
SLD-Solid
 62
     7
370
    15
100
AcDbLine
 10
970.2898904666
 20
1119.985849961
 30
0.0
 11
973.499898611
 21
1119.985849961
 31
0.0
  0
LINE
  5
106
330
1F
100
AcDbEntity
  8
0
  6
SLD-Solid
 62
     7
370
    15
100
AcDbLine
 10
379.989881812
 20
484.9858520471
 30
0.0
 11
379.989881812
 21
509.590425893
 31
0.0
  0
LINE
  5
107
330
1F
100
AcDbEntity
  8
0
  6
SLD-Solid
 62
     7
370
    15
100
AcDbLine
 10
379.989881812
 20
520.7121608698
 30
0.0
 11
379.989881812
 21
569.9858492159
 31
0.0
  0
LINE
  5
108
330
1F
100
AcDbEntity
  8
0
  6
SLD-Solid
 62
     7
370
    15
100
AcDbLine
 10
379.989881812
 20
620.7121604972
 30
0.0
 11
379.989881812
 21
709.5904214226
 31
0.0
  0
LINE
  5
109
330
1F
100
AcDbEntity
  8
0
  6
SLD-Solid
 62
     7
370
    15
100
AcDbLine
 10
379.989881812
 20
769.9858559214
 30
0.0
 11
379.989881812
 21
809.5904303633
 31
0.0
  0
LINE
  5
10A
330
1F
100
AcDbEntity
  8
0
  6
SLD-Solid
 62
     7
370
    15
100
AcDbLine
 10
379.989881812
 20
820.7121653401
 30
0.0
 11
379.989881812
 21
854.9858642661
 31
0.0
  0
LINE
  5
10B
330
1F
100
AcDbEntity
  8
0
  6
SLD-Solid
 62
     7
370
    15
100
AcDbLine
 10
965.289895235
 20
219.9858440005
 30
0.0
 11
460.2899149045
 21
219.9858440005
 31
0.0
  0
LINE
  5
10C
330
1F
100
AcDbEntity
  8
0
  6
SLD-Solid
 62
     7
370
    15
100
AcDbLine
 10
965.289895235
 20
220.7858575427
 30
0.0
 11
460.2899149045
 21
220.7858575427
 31
0.0
  0
LINE
  5
10D
330
1F
100
AcDbEntity
  8
0
  6
SLD-Solid
 62
     7
370
    15
100
AcDbLine
 10
970.2898904666
 20
219.9858440005
 30
0.0
 11
970.2898904666
 21
220.7858575427
 31
0.0
  0
LINE
  5
10E
330
1F
100
AcDbEntity
  8
0
  6
SLD-Solid
 62
     7
370
    15
100
AcDbLine
 10
970.2898904666
 20
219.9858440005
 30
0.0
 11
965.289895235
 21
219.9858440005
 31
0.0
  0
LINE
  5
10F
330
1F
100
AcDbEntity
  8
0
  6
SLD-Solid
 62
     7
370
    15
100
AcDbLine
 10
970.2898904666
 20
220.7858575427
 30
0.0
 11
965.289895235
 21
220.7858575427
 31
0.0
  0
LINE
  5
110
330
1F
100
AcDbEntity
  8
0
  6
SLD-Solid
 62
     7
370
    15
100
AcDbLine
 10
455.2899196729
 20
219.9858440005
 30
0.0
 11
455.2899196729
 21
220.7858575427
 31
0.0
  0
LINE
  5
111
330
1F
100
AcDbEntity
  8
0
  6
SLD-Solid
 62
     7
370
    15
100
AcDbLine
 10
460.2899149045
 20
219.9858440005
 30
0.0
 11
455.2899196729
 21
219.9858440005
 31
0.0
  0
LINE
  5
112
330
1F
100
AcDbEntity
  8
0
  6
SLD-Solid
 62
     7
370
    15
100
AcDbLine
 10
460.2899149045
 20
220.7858575427
 30
0.0
 11
455.2899196729
 21
220.7858575427
 31
0.0
  0
LINE
  5
113
330
1F
100
AcDbEntity
  8
0
  6
SLD-Solid
 62
     7
370
    15
100
AcDbLine
 10
455.2899196729
 20
222.0358563506
 30
0.0
 11
455.2899196729
 21
220.7858575427
 31
0.0
  0
LINE
  5
114
330
1F
100
AcDbEntity
  8
0
  6
SLD-Solid
 62
     7
370
    15
100
AcDbLine
 10
970.2898904666
 20
220.7858575427
 30
0.0
 11
970.2898904666
 21
222.0358563506
 31
0.0
  0
LINE
  5
115
330
1F
100
AcDbEntity
  8
0
  6
SLD-Solid
 62
     7
370
    15
100
AcDbLine
 10
970.2898904666
 20
222.0358563506
 30
0.0
 11
970.2898904666
 21
224.9858392321
 31
0.0
  0
LINE
  5
116
330
1F
100
AcDbEntity
  8
0
  6
SLD-Solid
 62
     7
370
    15
100
AcDbLine
 10
455.2899196729
 20
224.9858392321
 30
0.0
 11
455.2899196729
 21
222.0358563506
 31
0.0
  0
LINE
  5
117
330
1F
100
AcDbEntity
  8
0
  6
SLD-Solid
 62
     7
370
    15
100
AcDbLine
 10
965.289895235
 20
1119.985849961
 30
0.0
 11
970.2898904666
 21
1119.985849961
 31
0.0
  0
LINE
  5
118
330
1F
100
AcDbEntity
  8
0
  6
SLD-Solid
 62
     7
370
    15
100
AcDbLine
 10
970.2898904666
 20
1119.985849961
 30
0.0
 11
970.2898904666
 21
1119.1858364188
 31
0.0
  0
LINE
  5
119
330
1F
100
AcDbEntity
  8
0
  6
SLD-Solid
 62
     7
370
    15
100
AcDbLine
 10
965.289895235
 20
1119.1858364188
 30
0.0
 11
970.2898904666
 21
1119.1858364188
 31
0.0
  0
LINE
  5
11A
330
1F
100
AcDbEntity
  8
0
  6
SLD-Solid
 62
     7
370
    15
100
AcDbLine
 10
460.2899149045
 20
1119.985849961
 30
0.0
 11
965.289895235
 21
1119.985849961
 31
0.0
  0
LINE
  5
11B
330
1F
100
AcDbEntity
  8
0
  6
SLD-Solid
 62
     7
370
    15
100
AcDbLine
 10
460.2899149045
 20
1119.1858364188
 30
0.0
 11
965.289895235
 21
1119.1858364188
 31
0.0
  0
LINE
  5
11C
330
1F
100
AcDbEntity
  8
0
  6
SLD-Solid
 62
     7
370
    15
100
AcDbLine
 10
455.2899196729
 20
1119.985849961
 30
0.0
 11
455.2899196729
 21
1119.1858364188
 31
0.0
  0
LINE
  5
11D
330
1F
100
AcDbEntity
  8
0
  6
SLD-Solid
 62
     7
370
    15
100
AcDbLine
 10
455.2899196729
 20
1119.985849961
 30
0.0
 11
460.2899149045
 21
1119.985849961
 31
0.0
  0
LINE
  5
11E
330
1F
100
AcDbEntity
  8
0
  6
SLD-Solid
 62
     7
370
    15
100
AcDbLine
 10
455.2899196729
 20
1119.1858364188
 30
0.0
 11
460.2899149045
 21
1119.1858364188
 31
0.0
  0
LINE
  5
11F
330
1F
100
AcDbEntity
  8
0
  6
SLD-Solid
 62
     7
370
    15
100
AcDbLine
 10
970.2898904666
 20
1117.9358674132
 30
0.0
 11
970.2898904666
 21
1119.1858364188
 31
0.0
  0
LINE
  5
120
330
1F
100
AcDbEntity
  8
0
  6
SLD-Solid
 62
     7
370
    15
100
AcDbLine
 10
455.2899196729
 20
1119.1858364188
 30
0.0
 11
455.2899196729
 21
1117.9358674132
 31
0.0
  0
LINE
  5
121
330
1F
100
AcDbEntity
  8
0
  6
SLD-Solid
 62
     7
370
    15
100
AcDbLine
 10
970.2898904666
 20
1114.9858547293
 30
0.0
 11
970.2898904666
 21
1117.9358674132
 31
0.0
  0
LINE
  5
122
330
1F
100
AcDbEntity
  8
0
  6
SLD-Solid
 62
     7
370
    15
100
AcDbLine
 10
455.2899196729
 20
1117.9358674132
 30
0.0
 11
455.2899196729
 21
1114.9858547293
 31
0.0
  0
CIRCLE
  5
123
330
1F
100
AcDbEntity
  8
0
  6
SLD-Solid
 62
     7
370
    15
100
AcDbCircle
 10
712.7898968028
 20
669.9858496949
 30
0.0
 40
101.5000000000002
  0
CIRCLE
  5
124
330
1F
100
AcDbEntity
  8
0
  6
SLD-Solid
 62
     7
370
    15
100
AcDbCircle
 10
712.7898968028
 20
669.9858496949
 30
0.0
 40
162.0000000000002
  0
CIRCLE
  5
125
330
1F
100
AcDbEntity
  8
0
  6
SLD-Solid
 62
     7
370
    15
100
AcDbCircle
 10
712.7898968028
 20
669.9858496949
 30
0.0
 40
10.0
  0
ELLIPSE
  5
126
330
1F
100
AcDbEntity
  8
0
  6
SLD-Solid
 62
     7
370
    15
100
AcDbEllipse
 10
618.8702811744
 20
669.9858496949
 30
0.0
 11
1.007625194450497
 21
0.0
 31
0.0
210
0.0
220
0.0
230
1.0
 40
0.9924325091
 41
5.501585242055439
 42
7.064785372303761
  0
LINE
  5
127
330
1F
100
AcDbEntity
  8
0
  6
SLD-Solid
 62
     7
370
    15
100
AcDbLine
 10
619.585473834
 20
670.6902621233
 30
0.0
 11
614.7799089536
 21
675.4958344542
 31
0.0
  0
SPLINE
  5
128
330
1F
100
AcDbEntity
  8
0
  6
SLD-Solid
 62
     7
370
    15
100
AcDbSpline
210
0.0
220
0.0
230
1.0
 70
     8
 71
     3
 72
    10
 73
     6
 74
     0
 42
0.00000001
 43
0.00000001
 40
0.0
 40
0.0
 40
0.0
 40
0.0
 40
0.3969875527664997
 40
0.7939846693098095
 40
1.0
 40
1.0
 40
1.0
 40
1.0
 10
614.4901707753585
 20
676.2637434446048
 30
0.0
 10
614.4941577413751
 20
676.1514824073558
 30
0.0
 10
614.5021317694581
 20
675.9269576283918
 30
0.0
 10
614.6281850355499
 20
675.6650177837088
 30
0.0
 10
614.7412731316955
 20
675.5389162377186
 30
0.0
 10
614.7799089536117
 20
675.4958344542216
 30
0.0
  0
ARC
  5
129
330
1F
100
AcDbEntity
  8
0
  6
SLD-Solid
 62
     7
370
    15
100
AcDbCircle
 10
712.7898968028
 20
669.9858496949
 30
0.0
 40
98.50000000000006
100
AcDbArc
 50
183.654219624
 51
176.345780376
  0
SPLINE
  5
12A
330
1F
100
AcDbEntity
  8
0
  6
SLD-Solid
 62
     7
370
    15
100
AcDbSpline
210
0.0
220
0.0
230
1.0
 70
     8
 71
     3
 72
    10
 73
     6
 74
     0
 42
0.00000001
 43
0.00000001
 40
0.0
 40
0.0
 40
0.0
 40
0.0
 40
0.396956143777513
 40
0.7939154850304859
 40
1.0
 40
1.0
 40
1.0
 40
1.0
 10
614.7799089536117
 20
664.4758669578265
 30
0.0
 10
614.708743467993
 20
664.3889633265118
 30
0.0
 10
614.5664119235186
 20
664.215155363875
 30
0.0
 10
614.4880008319728
 20
663.9352308378903
 30
0.0
 10
614.4896180920684
 20
663.7658442323914
 30
0.0
 10
614.4901707753583
 20
663.7079579674433
 30
0.0
  0
LINE
  5
12B
330
1F
100
AcDbEntity
  8
0
  6
SLD-Solid
 62
     7
370
    15
100
AcDbLine
 10
619.585473834
 20
669.2814318382
 30
0.0
 11
614.7799089536
 21
664.4758669578
 31
0.0
  0
LINE
  5
12C
330
1F
100
AcDbEntity
  8
0
  6
SLD-Solid
 62
     7
370
    15
100
AcDbLine
 10
432.7898815259
 20
1114.9858547293
 30
0.0
 11
432.7898815259
 21
669.9858469807
 31
0.0
  0
LINE
  5
12D
330
1F
100
AcDbEntity
  8
0
  6
SLD-Solid
 62
     7
370
    15
100
AcDbLine
 10
992.7898988113
 20
1114.9858547293
 30
0.0
 11
432.7898815259
 21
1114.9858547293
 31
0.0
  0
LINE
  5
12E
330
1F
100
AcDbEntity
  8
0
  6
SLD-Solid
 62
     7
370
    15
100
AcDbLine
 10
992.7898988113
 20
669.9858469807
 30
0.0
 11
992.7898988113
 21
1114.9858547293
 31
0.0
  0
LINE
  5
12F
330
1F
100
AcDbEntity
  8
0
  6
SLD-Solid
 62
     7
370
    15
100
AcDbLine
 10
877.7899041757
 20
669.9858469807
 30
0.0
 11
992.7898988113
 21
669.9858469807
 31
0.0
  0
ARC
  5
130
330
1F
100
AcDbEntity
  8
0
  6
SLD-Solid
 62
     7
370
    15
100
AcDbCircle
 10
712.7898968028
 20
669.9858496949
 30
0.0
 40
165.0000000000001
100
AcDbArc
 50
0.0
 51
178.3143982517
  0
LINE
  5
131
330
1F
100
AcDbEntity
  8
0
  6
SLD-Solid
 62
     7
370
    15
100
AcDbLine
 10
542.8443148717
 20
669.9858469807
 30
0.0
 11
547.8612974271
 21
674.8393339955
 31
0.0
  0
LINE
  5
132
330
1F
100
AcDbEntity
  8
0
  6
SLD-Solid
 62
     7
370
    15
100
AcDbLine
 10
432.7898815259
 20
669.9858469807
 30
0.0
 11
542.8443148717
 21
669.9858469807
 31
0.0
  0
LINE
  5
133
330
1F
100
AcDbEntity
  8
0
  6
SLD-Solid
 62
     7
370
    15
100
AcDbLine
 10
877.7899041757
 20
669.9858469807
 30
0.0
 11
877.0747378454
 21
669.9858469807
 31
0.0
  0
LINE
  5
134
330
1F
100
AcDbEntity
  8
0
  6
SLD-Solid
 62
     7
370
    15
100
AcDbLine
 10
547.8612974271
 20
674.8393339955
 30
0.0
 11
548.5721424207
 21
674.8387379491
 31
0.0
  0
LINE
  5
135
330
1F
100
AcDbEntity
  8
0
  6
SLD-Solid
 62
     7
370
    15
100
AcDbLine
 10
543.5551598653
 20
669.9858469807
 30
0.0
 11
542.8443148717
 21
669.9858469807
 31
0.0
  0
SPLINE
  5
136
330
1F
100
AcDbEntity
  8
0
  6
SLD-Solid
 62
     7
370
    15
100
AcDbSpline
210
0.0
220
0.0
230
1.0
 70
     8
 71
     3
 72
    13
 73
     9
 74
     0
 42
0.00000001
 43
0.00000001
 40
0.0
 40
0.0
 40
0.0
 40
0.0
 40
0.0034639909242478
 40
0.1356059794159947
 40
0.3674740212647894
 40
0.5835321114703458
 40
0.7916028959824701
 40
1.0
 40
1.0
 40
1.0
 40
1.0
 10
550.5463674649642
 20
673.970983728094
 30
0.0
 10
550.5431090926303
 20
673.9724142443346
 30
0.0
 10
550.4155525310579
 20
674.0284151288959
 30
0.0
 10
550.0697055441004
 20
674.1801106395052
 30
0.0
 10
549.5442482860142
 20
674.4111759412706
 30
0.0
 10
549.0477552439501
 20
674.6298574358188
 30
0.0
 10
548.69198647856
 20
674.7868111041588
 30
0.0
 10
548.6151702079835
 20
674.820734687174
 30
0.0
 10
548.5767319783614
 20
674.8377097689341
 30
0.0
  0
SPLINE
  5
137
330
1F
100
AcDbEntity
  8
0
  6
SLD-Solid
 62
     7
370
    15
100
AcDbSpline
210
0.0
220
0.0
230
1.0
 70
    24
 71
     3
 72
    12
 73
     8
 74
     0
 42
0.00000001
 43
0.00000001
 40
0.0
 40
0.0
 40
0.0
 40
0.0
 40
0.3612237467240548
 40
0.6064027794998111
 40
0.7868303282121976
 40
0.9291686501100783
 40
0.9999999999999999
 40
0.9999999999999999
 40
0.9999999999999999
 40
0.9999999999999999
 10
546.4264944180892
 20
669.9858469807338
 30
0.0
 10
545.975378058291
 20
669.9858469807338
 30
0.0
 10
545.218068449107
 20
669.9858469807338
 30
0.0
 10
544.3351306518614
 20
669.9858469807338
 30
0.0
 10
543.8313874084059
 20
669.9858469807338
 30
0.0
 10
543.6061357336492
 20
669.9858469807338
 30
0.0
 10
543.5678735152399
 20
669.9858469807338
 30
0.0
 10
543.5551598653243
 20
669.9858469807338
 30
0.0
  0
LINE
  5
138
330
1F
100
AcDbEntity
  8
0
  6
SLD-Solid
 62
     7
370
    15
100
AcDbLine
 10
877.0747378454
 20
669.9858469807
 30
0.0
 11
875.0823482856
 21
669.9858469807
 31
0.0
  0
LINE
  5
139
330
1F
100
AcDbEntity
  8
0
  6
SLD-Solid
 62
     7
370
    15
100
AcDbLine
 10
875.0823482856
 20
669.9858469807
 30
0.0
 11
874.789898096
 21
669.9858469807
 31
0.0
  0
LINE
  5
13A
330
1F
100
AcDbEntity
  8
0
  6
SLD-Solid
 62
     7
370
    15
100
AcDbLine
 10
550.7899120435
 20
669.9858469807
 30
0.0
 11
546.4264944181
 21
669.9858469807
 31
0.0
  0
LINE
  5
13B
330
1F
100
AcDbEntity
  8
0
  6
SLD-Solid
 62
     7
370
    15
100
AcDbLine
 10
547.8612974271
 20
665.1323674165
 30
0.0
 11
542.8443148717
 21
669.9858469807
 31
0.0
  0
LINE
  5
13C
330
1F
100
AcDbEntity
  8
0
  6
SLD-Solid
 62
     7
370
    15
100
AcDbLine
 10
542.8443148717
 20
669.9858469807
 30
0.0
 11
543.5551598653
 21
669.9858469807
 31
0.0
  0
LINE
  5
13D
330
1F
100
AcDbEntity
  8
0
  6
SLD-Solid
 62
     7
370
    15
100
AcDbLine
 10
548.5721424207
 20
665.132963463
 30
0.0
 11
547.8612974271
 21
665.1323674165
 31
0.0
  0
LINE
  5
13E
330
1F
100
AcDbEntity
  8
0
  6
SLD-Solid
 62
     7
370
    15
100
AcDbLine
 10
992.7898988113
 20
224.9858392321
 30
0.0
 11
992.7898988113
 21
669.9858469807
 31
0.0
  0
LINE
  5
13F
330
1F
100
AcDbEntity
  8
0
  6
SLD-Solid
 62
     7
370
    15
100
AcDbLine
 10
432.7898815259
 20
224.9858392321
 30
0.0
 11
992.7898988113
 21
224.9858392321
 31
0.0
  0
LINE
  5
140
330
1F
100
AcDbEntity
  8
0
  6
SLD-Solid
 62
     7
370
    15
100
AcDbLine
 10
432.7898815259
 20
669.9858469807
 30
0.0
 11
432.7898815259
 21
224.9858392321
 31
0.0
  0
ARC
  5
141
330
1F
100
AcDbEntity
  8
0
  6
SLD-Solid
 62
     7
370
    15
100
AcDbCircle
 10
712.7898968028
 20
669.9858496949
 30
0.0
 40
165.0000000000001
100
AcDbArc
 50
181.6856017483
 51
0.0
  0
SPLINE
  5
142
330
1F
100
AcDbEntity
  8
0
  6
SLD-Solid
 62
     7
370
    15
100
AcDbSpline
210
0.0
220
0.0
230
1.0
 70
     8
 71
     3
 72
    13
 73
     9
 74
     0
 42
0.00000001
 43
0.00000001
 40
0.0
 40
0.0
 40
0.0
 40
0.0
 40
0.2083969891036729
 40
0.4164682102996036
 40
0.6325261813668994
 40
0.864394095359546
 40
0.9965360109858583
 40
1.0
 40
1.0
 40
1.0
 40
1.0
 10
548.5767319783612
 20
665.1339841925334
 30
0.0
 10
548.6151703256303
 20
665.1509584848326
 30
0.0
 10
548.6919869330238
 20
665.1848805350763
 30
0.0
 10
549.0477545414083
 20
665.3418464494516
 30
0.0
 10
549.5442483717736
 20
665.560524671803
 30
0.0
 10
550.0697055303054
 20
665.7915909010717
 30
0.0
 10
550.4155525311014
 20
665.9432862827326
 30
0.0
 10
550.5431090926314
 20
665.9992871677031
 30
0.0
 10
550.5463674649642
 20
666.0007176839541
 30
0.0
  0
SPLINE
  5
143
330
1F
100
AcDbEntity
  8
0
  6
SLD-Solid
 62
     7
370
    15
100
AcDbSpline
210
0.0
220
0.0
230
1.0
 70
    24
 71
     3
 72
    12
 73
     8
 74
     0
 42
0.00000001
 43
0.00000001
 40
0.0
 40
0.0
 40
0.0
 40
0.0
 40
0.1473212711426718
 40
0.2937247798772709
 40
0.5123529779119602
 40
0.8189400985968132
 40
1.0
 40
1.0
 40
1.0
 40
1.0
 10
543.5551598653243
 20
669.9858469807338
 30
0.0
 10
543.5927137053889
 20
669.9858469807338
 30
0.0
 10
543.6675874376135
 20
669.9858469807338
 30
0.0
 10
544.060159689999
 20
669.9858469807338
 30
0.0
 10
544.7424444901247
 20
669.9858469807338
 30
0.0
 10
545.5963072606482
 20
669.9858469807338
 30
0.0
 10
546.2017119317833
 20
669.9858469807338
 30
0.0
 10
546.4264944180892
 20
669.9858469807338
 30
0.0
  0
LINE
  5
144
330
1F
100
AcDbEntity
  8
0
  6
SLD-Solid
 62
     7
370
    15
100
AcDbLine
 10
1123.1898386482
 20
569.4858482026
 30
0.0
 11
1121.7199840335
 21
569.4858482026
 31
0.0
  0
LINE
  5
145
330
1F
100
AcDbEntity
  8
0
  6
SLD-Solid
 62
     7
370
    15
100
AcDbLine
 10
1114.8567053475
 20
569.0392604016
 30
0.0
 11
1121.7199840335
 21
569.4858482026
 31
0.0
  0
LINE
  5
146
330
1F
100
AcDbEntity
  8
0
  6
SLD-Solid
 62
     7
370
    15
100
AcDbLine
 10
1114.8567053475
 20
566.9324373745
 30
0.0
 11
1121.7199840335
 21
566.4858495735
 31
0.0
  0
LINE
  5
147
330
1F
100
AcDbEntity
  8
0
  6
SLD-Solid
 62
     7
370
    15
100
AcDbLine
 10
1121.7199840335
 20
566.4858495735
 30
0.0
 11
1123.1898386482
 21
566.4858495735
 31
0.0
  0
SPLINE
  5
148
330
1F
100
AcDbEntity
  8
0
  6
SLD-Solid
 62
     7
370
    15
100
AcDbSpline
210
0.0
220
0.0
230
1.0
 70
     8
 71
     3
 72
    14
 73
    10
 74
     0
 42
0.00000001
 43
0.00000001
 40
0.0
 40
0.0
 40
0.0
 40
0.0
 40
0.0450035113467322
 40
0.1924575382636528
 40
0.410094743249529
 40
0.6281058095950217
 40
0.8446492587159178
 40
0.9597505988156838
 40
1.0
 40
1.0
 40
1.0
 40
1.0
 10
1122.050870429636
 20
567.4532553099822
 30
0.0
 10
1122.038238683015
 20
567.4333121689785
 30
0.0
 10
1121.98421901242
 20
567.3480253167323
 30
0.0
 10
1121.953318876742
 20
567.1320815937149
 30
0.0
 10
1121.910474543517
 20
566.8618771649526
 30
0.0
 10
1121.875694250323
 20
566.6263242281669
 30
0.0
 10
1121.830817798911
 20
566.5138086861988
 30
0.0
 10
1121.765822528731
 20
566.4872713145462
 30
0.0
 10
1121.717852866191
 20
566.4861421307066
 30
0.0
 10
1121.705424536746
 20
566.4858495735358
 30
0.0
  0
LINE
  5
149
330
1F
100
AcDbEntity
  8
0
  6
SLD-Solid
 62
     7
370
    15
100
AcDbLine
 10
1121.6770400948
 20
566.4858495735
 30
0.0
 11
1114.8567053475
 21
566.9300122105
 31
0.0
  0
SPLINE
  5
14A
330
1F
100
AcDbEntity
  8
0
  6
SLD-Solid
 62
     7
370
    15
100
AcDbSpline
210
0.0
220
0.0
230
1.0
 70
     8
 71
     3
 72
    15
 73
    11
 74
     0
 42
0.00000001
 43
0.00000001
 40
0.0
 40
0.0
 40
0.0
 40
0.0
 40
0.0802851330175254
 40
0.2296665729273847
 40
0.43892563060191
 40
0.649726427976269
 40
0.8665111199481588
 40
0.9462891509155673
 40
0.989524518251207
 40
1.0
 40
1.0
 40
1.0
 40
1.0
 10
1121.705424536746
 20
569.485848202629
 30
0.0
 10
1121.728532761921
 20
569.4846488185425
 30
0.0
 10
1121.794636991719
 20
569.4812178167819
 30
0.0
 10
1121.846825411033
 20
569.4284521612393
 30
0.0
 10
1121.88740835591
 20
569.2812697417357
 30
0.0
 10
1121.922804616038
 20
569.0292095760527
 30
0.0
 10
1121.957176756235
 20
568.7791698594617
 30
0.0
 10
1122.001712845298
 20
568.6095631758523
 30
0.0
 10
1122.028855030534
 20
568.5438101971944
 30
0.0
 10
1122.047277423018
 20
568.5225857049107
 30
0.0
 10
1122.050870429636
 20
568.5184461914729
 30
0.0
  0
LINE
  5
14B
330
1F
100
AcDbEntity
  8
0
  6
SLD-Solid
 62
     7
370
    15
100
AcDbLine
 10
1114.8567053475
 20
569.0414024436
 30
0.0
 11
1121.6770400948
 21
569.4858482026
 31
0.0
  0
SPLINE
  5
14C
330
1F
100
AcDbEntity
  8
0
  6
SLD-Solid
 62
     7
370
    15
100
AcDbSpline
210
0.0
220
0.0
230
1.0
 70
     8
 71
     3
 72
     9
 73
     5
 74
     0
 42
0.00000001
 43
0.00000001
 40
0.0
 40
0.0
 40
0.0
 40
0.0
 40
0.1371829972106247
 40
1.0
 40
1.0
 40
1.0
 40
1.0
 10
1122.083071256899
 20
568.4858499013613
 30
0.0
 10
1122.081599007259
 20
568.4873399828089
 30
0.0
 10
1122.070866994762
 20
568.4982019808543
 30
0.0
 10
1122.060132411013
 20
568.5090695059995
 30
0.0
 10
1122.050870429636
 20
568.5184461914729
 30
0.0
  0
SPLINE
  5
14D
330
1F
100
AcDbEntity
  8
0
  6
SLD-Solid
 62
     7
370
    15
100
AcDbSpline
210
0.0
220
0.0
230
1.0
 70
     8
 71
     3
 72
     9
 73
     5
 74
     0
 42
0.00000001
 43
0.00000001
 40
0.0
 40
0.0
 40
0.0
 40
0.0
 40
0.8628091656136457
 40
1.0
 40
1.0
 40
1.0
 40
1.0
 10
1122.050870429636
 20
567.4532553099822
 30
0.0
 10
1122.060132675494
 20
567.4626304856715
 30
0.0
 10
1122.070867663285
 20
567.4734963596829
 30
0.0
 10
1122.081599013948
 20
567.4843577865842
 30
0.0
 10
1122.083071256899
 20
567.4858478748034
 30
0.0
  0
LINE
  5
14E
330
1F
100
AcDbEntity
  8
0
  6
SLD-Solid
 62
     7
370
    15
100
AcDbLine
 10
1124.1726144668
 20
556.3826797449
 30
0.0
 11
1114.8567053475
 21
555.0483887934
 31
0.0
  0
LWPOLYLINE
  5
14F
330
1F
100
AcDbEntity
  8
0
  6
SLD-Solid
 62
     7
370
    15
100
AcDbPolyline
 90
        3
 70
   128
 43
0.0
 10
1124.2014363393
 20
556.3585584902
 10
1124.1924220681
 20
556.3605887734
 10
1124.1726144668
 20
556.3826797449
  0
LINE
  5
150
330
1F
100
AcDbEntity
  8
0
  6
SLD-Solid
 62
     7
370
    15
100
AcDbLine
 10
1114.8567053475
 20
580.9233127081
 30
0.0
 11
1124.1726144668
 21
579.5890198939
 31
0.0
  0
LWPOLYLINE
  5
151
330
1F
100
AcDbEntity
  8
0
  6
SLD-Solid
 62
     7
370
    15
100
AcDbPolyline
 90
        3
 70
   128
 43
0.0
 10
1124.1726144668
 20
579.5890198939
 10
1124.1924220681
 20
579.6111108654
 10
1124.2014363393
 20
579.6131411486
  0
LWPOLYLINE
  5
152
330
1F
100
AcDbEntity
  8
0
  6
SLD-Solid
 62
     7
370
    15
100
AcDbPolyline
 90
        3
 70
   128
 43
0.0
 10
1129.0061094783
 20
558.3191787743
 10
1128.9063676246
 20
558.3200244152
 10
1128.7985274553
 20
558.319033488
  0
LINE
  5
153
330
1F
100
AcDbEntity
  8
0
  6
SLD-Solid
 62
     7
370
    15
100
AcDbLine
 10
1128.5933319464
 20
577.660014286
 30
0.0
 11
1128.7985274553
 21
577.6526642882
 31
0.0
  0
SPLINE
  5
154
330
1F
100
AcDbEntity
  8
0
  6
SLD-Solid
 62
     7
370
    15
100
AcDbSpline
210
0.0
220
0.0
230
1.0
 70
    24
 71
     3
 72
    11
 73
     7
 74
     0
 42
0.00000001
 43
0.00000001
 40
0.0
 40
0.0
 40
0.0
 40
0.0
 40
0.2947583667956729
 40
0.5895045551791258
 40
0.8837781468958542
 40
1.0
 40
1.0
 40
1.0
 40
1.0
 10
1124.03326905184
 20
569.485848202629
 30
0.0
 10
1123.987776294415
 20
569.485848202629
 30
0.0
 10
1123.896792659174
 20
569.485848202629
 30
0.0
 10
1123.639155670248
 20
569.485848202629
 30
0.0
 10
1123.388968514703
 20
569.485848202629
 30
0.0
 10
1123.233777288895
 20
569.485848202629
 30
0.0
 10
1123.18983864822
 20
569.485848202629
 30
0.0
  0
SPLINE
  5
155
330
1F
100
AcDbEntity
  8
0
  6
SLD-Solid
 62
     7
370
    15
100
AcDbSpline
210
0.0
220
0.0
230
1.0
 70
    24
 71
     3
 72
    11
 73
     7
 74
     0
 42
0.00000001
 43
0.00000001
 40
0.0
 40
0.0
 40
0.0
 40
0.0
 40
0.2932995504800679
 40
0.5865695813421675
 40
0.8804849142891491
 40
0.9999999999999999
 40
0.9999999999999999
 40
0.9999999999999999
 40
0.9999999999999999
 10
1123.18983864822
 20
566.4858495735358
 30
0.0
 10
1123.3005202033
 20
566.4858495735358
 30
0.0
 10
1123.521872173731
 20
566.4858495735358
 30
0.0
 10
1123.799784328045
 20
566.4858495735358
 30
0.0
 10
1123.962371808131
 20
566.4858495735358
 30
0.0
 10
1124.017370071383
 20
566.4858495735358
 30
0.0
 10
1124.03326905184
 20
566.4858495735358
 30
0.0
  0
LWPOLYLINE
  5
156
330
1F
100
AcDbEntity
  8
0
  6
SLD-Solid
 62
     7
370
    15
100
AcDbPolyline
 90
        9
 70
   128
 43
0.0
 10
1135.0941143915
 20
566.4858495735
 10
1135.2714987457
 20
566.6000297212
 10
1135.4218766078
 20
566.9251879596
 10
1135.5223560691
 20
567.4118263566
 10
1135.5576401562
 20
567.9858488881
 10
1135.5223560691
 20
568.5598751449
 10
1135.4218766078
 20
569.0465098166
 10
1135.2714987457
 20
569.371668055
 10
1135.0941143915
 20
569.4858482026
  0
LINE
  5
157
330
1F
100
AcDbEntity
  8
0
  6
SLD-Solid
 62
     7
370
    15
100
AcDbLine
 10
1124.0332690518
 20
566.4858495735
 30
0.0
 11
1135.0941143915
 21
566.4858495735
 31
0.0
  0
LINE
  5
158
330
1F
100
AcDbEntity
  8
0
  6
SLD-Solid
 62
     7
370
    15
100
AcDbLine
 10
1135.0941143915
 20
569.4858482026
 30
0.0
 11
1124.0332690518
 21
569.4858482026
 31
0.0
  0
LWPOLYLINE
  5
159
330
1F
100
AcDbEntity
  8
0
  6
SLD-Solid
 62
     7
370
    15
100
AcDbPolyline
 90
        3
 70
   128
 43
0.0
 10
1133.8640347108
 20
556.3645189547
 10
1133.8508173809
 20
556.3625296497
 10
1133.8477272525
 20
556.362123593
  0
SPLINE
  5
15A
330
1F
100
AcDbEntity
  8
0
  6
SLD-Solid
 62
     7
370
    15
100
AcDbSpline
210
0.0
220
0.0
230
1.0
 70
     8
 71
     3
 72
    11
 73
     7
 74
     0
 42
0.00000001
 43
0.00000001
 40
0.0
 40
0.0
 40
0.0
 40
0.0
 40
0.0735292846368825
 40
0.2140830605201626
 40
0.9462895110063512
 40
1.0
 40
1.0
 40
1.0
 40
1.0
 10
1118.273724846919
 20
552.1520128392409
 30
0.0
 10
1118.277245497262
 20
552.1483118943028
 30
0.0
 10
1118.287495992751
 20
552.1375364648522
 30
0.0
 10
1118.325282905082
 20
552.0949871454583
 30
0.0
 10
1118.35702108893
 20
552.0556848131474
 30
0.0
 10
1118.336802754169
 20
552.0569640403495
 30
0.0
 10
1118.335421009366
 20
552.0570514642428
 30
0.0
  0
SPLINE
  5
15B
330
1F
100
AcDbEntity
  8
0
  6
SLD-Solid
 62
     7
370
    15
100
AcDbSpline
210
0.0
220
0.0
230
1.0
 70
     8
 71
     3
 72
    11
 73
     7
 74
     0
 42
0.00000001
 43
0.00000001
 40
0.0
 40
0.0
 40
0.0
 40
0.0
 40
0.0069091715948572
 40
0.7753275963916731
 40
0.9228354749470556
 40
1.0
 40
1.0
 40
1.0
 40
1.0
 10
1118.338861082126
 20
583.914733856244
 30
0.0
 10
1118.339023943659
 20
583.9147390789085
 30
0.0
 10
1118.35729980196
 20
583.9153251514774
 30
0.0
 10
1118.325118610574
 20
583.876610856113
 30
0.0
 10
1118.287502980261
 20
583.834164762264
 30
0.0
 10
1118.277247222793
 20
583.8233880866184
 30
0.0
 10
1118.273724846919
 20
583.819686799569
 30
0.0
  0
LINE
  5
15C
330
1F
100
AcDbEntity
  8
0
  6
SLD-Solid
 62
     7
370
    15
100
AcDbLine
 10
1000.2398982629
 20
222.4358631217
 30
0.0
 11
997.7898940429
 21
222.4358631217
 31
0.0
  0
LINE
  5
15D
330
1F
100
AcDbEntity
  8
0
  6
SLD-Solid
 62
     7
370
    15
100
AcDbLine
 10
997.7898940429
 20
1117.5358606421
 30
0.0
 11
997.7898940429
 21
222.4358631217
 31
0.0
  0
LINE
  5
15E
330
1F
100
AcDbEntity
  8
0
  6
SLD-Solid
 62
     7
370
    15
100
AcDbLine
 10
997.7898940429
 20
1117.5358606421
 30
0.0
 11
1000.2398982629
 21
1117.5358606421
 31
0.0
  0
LINE
  5
15F
330
1F
100
AcDbEntity
  8
0
  6
SLD-Solid
 62
     7
370
    15
100
AcDbLine
 10
1000.2398982629
 20
1117.5358606421
 30
0.0
 11
1000.2398982629
 21
1119.985849961
 31
0.0
  0
LINE
  5
160
330
1F
100
AcDbEntity
  8
0
  6
SLD-Solid
 62
     7
370
    15
100
AcDbLine
 10
1091.5567044154
 20
1119.985849961
 30
0.0
 11
1000.2398982629
 21
1119.985849961
 31
0.0
  0
LINE
  5
161
330
1F
100
AcDbEntity
  8
0
  6
SLD-Solid
 62
     7
370
    15
100
AcDbLine
 10
1091.5567044154
 20
1119.985849961
 30
0.0
 11
1091.5567044154
 21
1117.5358606421
 31
0.0
  0
LINE
  5
162
330
1F
100
AcDbEntity
  8
0
  6
SLD-Solid
 62
     7
370
    15
100
AcDbLine
 10
1114.8567053475
 20
1118.7858296477
 30
0.0
 11
1092.0567054287
 21
1118.7858296477
 31
0.0
  0
LINE
  5
163
330
1F
100
AcDbEntity
  8
0
  6
SLD-Solid
 62
     7
370
    15
100
AcDbLine
 10
1114.8567053475
 20
221.1858643138
 30
0.0
 11
1092.0567054287
 21
221.1858643138
 31
0.0
  0
LINE
  5
164
330
1F
100
AcDbEntity
  8
0
  6
SLD-Solid
 62
     7
370
    15
100
AcDbLine
 10
1092.0567054287
 20
221.1858643138
 30
0.0
 11
1092.0567054287
 21
222.4358631217
 31
0.0
  0
LINE
  5
165
330
1F
100
AcDbEntity
  8
0
  6
SLD-Solid
 62
     7
370
    15
100
AcDbLine
 10
1092.0567054287
 20
222.4358631217
 30
0.0
 11
1091.5567044154
 21
222.4358631217
 31
0.0
  0
LINE
  5
166
330
1F
100
AcDbEntity
  8
0
  6
SLD-Solid
 62
     7
370
    15
100
AcDbLine
 10
1092.0567054287
 20
1117.5358606421
 30
0.0
 11
1092.0567054287
 21
1118.7858296477
 31
0.0
  0
LINE
  5
167
330
1F
100
AcDbEntity
  8
0
  6
SLD-Solid
 62
     7
370
    15
100
AcDbLine
 10
1091.5567044154
 20
1117.5358606421
 30
0.0
 11
1092.0567054287
 21
1117.5358606421
 31
0.0
  0
LINE
  5
168
330
1F
100
AcDbEntity
  8
0
  6
SLD-Solid
 62
     7
370
    15
100
AcDbLine
 10
1091.5567044154
 20
222.4358631217
 30
0.0
 11
1091.5567044154
 21
219.9858440005
 31
0.0
  0
LINE
  5
169
330
1F
100
AcDbEntity
  8
0
  6
SLD-Solid
 62
     7
370
    15
100
AcDbLine
 10
1000.2398982629
 20
219.9858440005
 30
0.0
 11
1091.5567044154
 21
219.9858440005
 31
0.0
  0
LINE
  5
16A
330
1F
100
AcDbEntity
  8
0
  6
SLD-Solid
 62
     7
370
    15
100
AcDbLine
 10
1000.2398982629
 20
219.9858440005
 30
0.0
 11
1000.2398982629
 21
222.4358631217
 31
0.0
  0
LINE
  5
16B
330
1F
100
AcDbEntity
  8
0
  6
SLD-Solid
 62
     7
370
    15
100
AcDbLine
 10
1092.0567054287
 20
1119.985849961
 30
0.0
 11
1092.0567054287
 21
1118.7858296477
 31
0.0
  0
LINE
  5
16C
330
1F
100
AcDbEntity
  8
0
  6
SLD-Solid
 62
     7
370
    15
100
AcDbLine
 10
1113.5567052275
 20
1119.985849961
 30
0.0
 11
1092.0567054287
 21
1119.985849961
 31
0.0
  0
LINE
  5
16D
330
1F
100
AcDbEntity
  8
0
  6
SLD-Solid
 62
     7
370
    15
100
AcDbLine
 10
1113.5567052275
 20
219.9858440005
 30
0.0
 11
1092.0567054287
 21
219.9858440005
 31
0.0
  0
LINE
  5
16E
330
1F
100
AcDbEntity
  8
0
  6
SLD-Solid
 62
     7
370
    15
100
AcDbLine
 10
1092.0567054287
 20
219.9858440005
 30
0.0
 11
1092.0567054287
 21
221.1858643138
 31
0.0
  0
LINE
  5
16F
330
1F
100
AcDbEntity
  8
0
  6
SLD-Solid
 62
     7
370
    15
100
AcDbLine
 10
998.989899455
 20
1118.7858296477
 30
0.0
 11
998.989899455
 21
1117.5358606421
 31
0.0
  0
LINE
  5
170
330
1F
100
AcDbEntity
  8
0
  6
SLD-Solid
 62
     7
370
    15
100
AcDbLine
 10
997.7898940429
 20
1118.7858296477
 30
0.0
 11
997.7898940429
 21
1117.5358606421
 31
0.0
  0
LINE
  5
171
330
1F
100
AcDbEntity
  8
0
  6
SLD-Solid
 62
     7
370
    15
100
AcDbLine
 10
997.7898940429
 20
1118.7858296477
 30
0.0
 11
998.989899455
 21
1118.7858296477
 31
0.0
  0
LINE
  5
172
330
1F
100
AcDbEntity
  8
0
  6
SLD-Solid
 62
     7
370
    15
100
AcDbLine
 10
998.989899455
 20
221.1858643138
 30
0.0
 11
997.7898940429
 21
221.1858643138
 31
0.0
  0
LINE
  5
173
330
1F
100
AcDbEntity
  8
0
  6
SLD-Solid
 62
     7
370
    15
100
AcDbLine
 10
997.7898940429
 20
222.4358631217
 30
0.0
 11
997.7898940429
 21
221.1858643138
 31
0.0
  0
LINE
  5
174
330
1F
100
AcDbEntity
  8
0
  6
SLD-Solid
 62
     7
370
    15
100
AcDbLine
 10
998.989899455
 20
222.4358631217
 30
0.0
 11
998.989899455
 21
221.1858643138
 31
0.0
  0
LINE
  5
175
330
1F
100
AcDbEntity
  8
0
  6
SLD-Solid
 62
     7
370
    15
100
AcDbLine
 10
1092.0567054287
 20
1119.985849961
 30
0.0
 11
1091.5567044154
 21
1119.985849961
 31
0.0
  0
LINE
  5
176
330
1F
100
AcDbEntity
  8
0
  6
SLD-Solid
 62
     7
370
    15
100
AcDbLine
 10
1092.0567054287
 20
1118.7858296477
 30
0.0
 11
1091.5567044154
 21
1118.7858296477
 31
0.0
  0
LINE
  5
177
330
1F
100
AcDbEntity
  8
0
  6
SLD-Solid
 62
     7
370
    15
100
AcDbLine
 10
998.9998981342
 20
1119.985849961
 30
0.0
 11
998.9998981342
 21
1118.7858296477
 31
0.0
  0
LINE
  5
178
330
1F
100
AcDbEntity
  8
0
  6
SLD-Solid
 62
     7
370
    15
100
AcDbLine
 10
1000.2398982629
 20
1119.985849961
 30
0.0
 11
998.9998981342
 21
1119.985849961
 31
0.0
  0
LINE
  5
179
330
1F
100
AcDbEntity
  8
0
  6
SLD-Solid
 62
     7
370
    15
100
AcDbLine
 10
1000.2398982629
 20
1118.7858296477
 30
0.0
 11
998.9998981342
 21
1118.7858296477
 31
0.0
  0
LINE
  5
17A
330
1F
100
AcDbEntity
  8
0
  6
SLD-Solid
 62
     7
370
    15
100
AcDbLine
 10
1092.0567054287
 20
221.1858643138
 30
0.0
 11
1091.5567044154
 21
221.1858643138
 31
0.0
  0
LINE
  5
17B
330
1F
100
AcDbEntity
  8
0
  6
SLD-Solid
 62
     7
370
    15
100
AcDbLine
 10
1092.0567054287
 20
219.9858440005
 30
0.0
 11
1091.5567044154
 21
219.9858440005
 31
0.0
  0
LINE
  5
17C
330
1F
100
AcDbEntity
  8
0
  6
SLD-Solid
 62
     7
370
    15
100
AcDbLine
 10
998.9998981342
 20
219.9858440005
 30
0.0
 11
998.9998981342
 21
221.1858643138
 31
0.0
  0
LINE
  5
17D
330
1F
100
AcDbEntity
  8
0
  6
SLD-Solid
 62
     7
370
    15
100
AcDbLine
 10
1000.2398982629
 20
221.1858643138
 30
0.0
 11
998.9998981342
 21
221.1858643138
 31
0.0
  0
LINE
  5
17E
330
1F
100
AcDbEntity
  8
0
  6
SLD-Solid
 62
     7
370
    15
100
AcDbLine
 10
1000.2398982629
 20
219.9858440005
 30
0.0
 11
998.9998981342
 21
219.9858440005
 31
0.0
  0
LINE
  5
17F
330
1F
100
AcDbEntity
  8
0
  6
SLD-Solid
 62
     7
370
    15
100
AcDbLine
 10
998.9998981342
 20
1119.985849961
 30
0.0
 11
996.539895235
 21
1119.985849961
 31
0.0
  0
LINE
  5
180
330
1F
100
AcDbEntity
  8
0
  6
SLD-Solid
 62
     7
370
    15
100
AcDbLine
 10
998.9998981342
 20
1118.7858296477
 30
0.0
 11
998.989899455
 21
1118.7858296477
 31
0.0
  0
LINE
  5
181
330
1F
100
AcDbEntity
  8
0
  6
SLD-Solid
 62
     7
370
    15
100
AcDbLine
 10
997.7898940429
 20
1118.7858296477
 30
0.0
 11
996.539895235
 21
1118.7858296477
 31
0.0
  0
LINE
  5
182
330
1F
100
AcDbEntity
  8
0
  6
SLD-Solid
 62
     7
370
    15
100
AcDbLine
 10
997.7898940429
 20
221.1858643138
 30
0.0
 11
996.539895235
 21
221.1858643138
 31
0.0
  0
LINE
  5
183
330
1F
100
AcDbEntity
  8
0
  6
SLD-Solid
 62
     7
370
    15
100
AcDbLine
 10
998.9998981342
 20
221.1858643138
 30
0.0
 11
998.989899455
 21
221.1858643138
 31
0.0
  0
LINE
  5
184
330
1F
100
AcDbEntity
  8
0
  6
SLD-Solid
 62
     7
370
    15
100
AcDbLine
 10
998.9998981342
 20
219.9858440005
 30
0.0
 11
996.539895235
 21
219.9858440005
 31
0.0
  0
LINE
  5
185
330
1F
100
AcDbEntity
  8
0
  6
SLD-Solid
 62
     7
370
    15
100
AcDbLine
 10
996.539895235
 20
1118.7858296477
 30
0.0
 11
974.7398987398
 21
1118.7858296477
 31
0.0
  0
LINE
  5
186
330
1F
100
AcDbEntity
  8
0
  6
SLD-Solid
 62
     7
370
    15
100
AcDbLine
 10
996.539895235
 20
221.1858643138
 30
0.0
 11
974.7398987398
 21
221.1858643138
 31
0.0
  0
LINE
  5
187
330
1F
100
AcDbEntity
  8
0
  6
SLD-Solid
 62
     7
370
    15
100
AcDbLine
 10
972.2898945198
 20
1118.7858296477
 30
0.0
 11
972.2898945198
 21
1114.9858547293
 31
0.0
  0
LINE
  5
188
330
1F
100
AcDbEntity
  8
0
  6
SLD-Solid
 62
     7
370
    15
100
AcDbLine
 10
972.2898945198
 20
224.9858392321
 30
0.0
 11
972.2898945198
 21
221.1858643138
 31
0.0
  0
LINE
  5
189
330
1F
100
AcDbEntity
  8
0
  6
SLD-Solid
 62
     7
370
    15
100
AcDbLine
 10
974.7398987398
 20
221.1858643138
 30
0.0
 11
972.2898945198
 21
221.1858643138
 31
0.0
  0
LINE
  5
18A
330
1F
100
AcDbEntity
  8
0
  6
SLD-Solid
 62
     7
370
    15
100
AcDbLine
 10
974.7398987398
 20
1118.7858296477
 30
0.0
 11
972.2898945198
 21
1118.7858296477
 31
0.0
  0
LINE
  5
18B
330
1F
100
AcDbEntity
  8
0
  6
SLD-Solid
 62
     7
370
    15
100
AcDbLine
 10
973.499898611
 20
1119.985849961
 30
0.0
 11
973.499898611
 21
1118.7858296477
 31
0.0
  0
LINE
  5
18C
330
1F
100
AcDbEntity
  8
0
  6
SLD-Solid
 62
     7
370
    15
100
AcDbLine
 10
974.7398987398
 20
1119.985849961
 30
0.0
 11
973.499898611
 21
1119.985849961
 31
0.0
  0
LINE
  5
18D
330
1F
100
AcDbEntity
  8
0
  6
SLD-Solid
 62
     7
370
    15
100
AcDbLine
 10
996.539895235
 20
1119.985849961
 30
0.0
 11
974.7398987398
 21
1119.985849961
 31
0.0
  0
LINE
  5
18E
330
1F
100
AcDbEntity
  8
0
  6
SLD-Solid
 62
     7
370
    15
100
AcDbLine
 10
973.499898611
 20
219.9858440005
 30
0.0
 11
973.499898611
 21
221.1858643138
 31
0.0
  0
LINE
  5
18F
330
1F
100
AcDbEntity
  8
0
  6
SLD-Solid
 62
     7
370
    15
100
AcDbLine
 10
974.7398987398
 20
219.9858440005
 30
0.0
 11
973.499898611
 21
219.9858440005
 31
0.0
  0
LINE
  5
190
330
1F
100
AcDbEntity
  8
0
  6
SLD-Solid
 62
     7
370
    15
100
AcDbLine
 10
996.539895235
 20
219.9858440005
 30
0.0
 11
974.7398987398
 21
219.9858440005
 31
0.0
  0
LINE
  5
191
330
1F
100
AcDbEntity
  8
0
  6
SLD-Solid
 62
     7
370
    15
100
AcDbLine
 10
348.2899263486
 20
1119.985849961
 30
0.0
 11
348.2899263486
 21
219.9858440005
 31
0.0
  0
LINE
  5
192
330
1F
100
AcDbEntity
  8
0
  6
SLD-Solid
 62
     7
370
    15
100
AcDbLine
 10
348.2899263486
 20
1119.985849961
 30
0.0
 11
350.8704498395
 21
1119.985849961
 31
0.0
  0
LINE
  5
193
330
1F
100
AcDbEntity
  8
0
  6
SLD-Solid
 62
     7
370
    15
100
AcDbLine
 10
348.2899263486
 20
219.9858440005
 30
0.0
 11
350.8704498395
 21
219.9858440005
 31
0.0
  0
ARC
  5
194
330
1F
100
AcDbEntity
  8
0
  6
SLD-Solid
 62
     7
370
    15
100
AcDbCircle
 10
379.1898072884
 20
704.4692305517
 30
0.0
 40
5.00097073515845
100
AcDbArc
 50
5.5360287257
 51
61.7830325141
  0
LINE
  5
195
330
1F
100
AcDbEntity
  8
0
  6
SLD-Solid
 62
     7
370
    15
100
AcDbLine
 10
381.5543249235
 20
708.8759032928
 30
0.0
 11
362.7187207326
 21
718.7911583029
 31
0.0
  0
ARC
  5
196
330
1F
100
AcDbEntity
  8
0
  6
SLD-Solid
 62
     7
370
    15
100
AcDbCircle
 10
360.5395144216
 20
714.4680855584
 30
0.0
 40
4.841270298284909
100
AcDbArc
 50
63.2479046813
 51
181.5843828094
  0
LINE
  5
197
330
1F
100
AcDbEntity
  8
0
  6
SLD-Solid
 62
     7
370
    15
100
AcDbLine
 10
355.7000949964
 20
714.3342284404
 30
0.0
 11
355.7000949964
 21
635.5527242564
 31
0.0
  0
ARC
  5
198
330
1F
100
AcDbEntity
  8
0
  6
SLD-Solid
 62
     7
370
    15
100
AcDbCircle
 10
360.7210470563
 20
635.5167932976
 30
0.0
 40
5.021080622895806
100
AcDbArc
 50
179.5899866934
 51
241.7011409065
  0
LINE
  5
199
330
1F
100
AcDbEntity
  8
0
  6
SLD-Solid
 62
     7
370
    15
100
AcDbLine
 10
358.3406999692
 20
631.0957981192
 30
0.0
 11
377.1763041601
 21
621.1805449717
 31
0.0
  0
ARC
  5
19A
330
1F
100
AcDbEntity
  8
0
  6
SLD-Solid
 62
     7
370
    15
100
AcDbCircle
 10
379.3600383246
 20
625.4797477234
 30
0.0
 40
4.822016093018089
100
AcDbArc
 50
243.0721936254
 51
355.5399160271
  0
ARC
  5
19B
330
1F
100
AcDbEntity
  8
0
  6
SLD-Solid
 62
     7
370
    15
100
AcDbCircle
 10
379.1898189622
 20
604.4692354954
 30
0.0
 40
5.000958315363956
100
AcDbArc
 50
5.5359470191
 51
61.7831079475
  0
LINE
  5
19C
330
1F
100
AcDbEntity
  8
0
  6
SLD-Solid
 62
     7
370
    15
100
AcDbLine
 10
381.5543249235
 20
608.8759004057
 30
0.0
 11
362.7187207326
 21
618.7911549502
 31
0.0
  0
ARC
  5
19D
330
1F
100
AcDbEntity
  8
0
  6
SLD-Solid
 62
     7
370
    15
100
AcDbCircle
 10
360.5395120008
 20
614.4680861296
 30
0.0
 40
4.841267883952241
100
AcDbArc
 50
63.2478581945
 51
181.5843859524
  0
LINE
  5
19E
330
1F
100
AcDbEntity
  8
0
  6
SLD-Solid
 62
     7
370
    15
100
AcDbLine
 10
355.7000949964
 20
614.334228813
 30
0.0
 11
355.7000949964
 21
535.5527264916
 31
0.0
  0
ARC
  5
19F
330
1F
100
AcDbEntity
  8
0
  6
SLD-Solid
 62
     7
370
    15
100
AcDbCircle
 10
360.721047119
 20
535.5167918746
 30
0.0
 40
5.021080711752993
100
AcDbArc
 50
179.5899449566
 51
241.7011406402
  0
LINE
  5
1A0
330
1F
100
AcDbEntity
  8
0
  6
SLD-Solid
 62
     7
370
    15
100
AcDbLine
 10
358.3406999692
 20
531.0957966291
 30
0.0
 11
377.1763041601
 21
521.180541619
 31
0.0
  0
ARC
  5
1A1
330
1F
100
AcDbEntity
  8
0
  6
SLD-Solid
 62
     7
370
    15
100
AcDbCircle
 10
379.3600340007
 20
525.4797520738
 30
0.0
 40
4.822021002816158
100
AcDbArc
 50
243.0722808822
 51
355.5398287703
  0
ARC
  5
1A2
330
1F
100
AcDbEntity
  8
0
  6
SLD-Solid
 62
     7
370
    15
100
AcDbCircle
 10
379.1898072884
 20
504.4692275715
 30
0.0
 40
5.0009707351584
100
AcDbArc
 50
5.5360287257
 51
61.7830325141
  0
LINE
  5
1A3
330
1F
100
AcDbEntity
  8
0
  6
SLD-Solid
 62
     7
370
    15
100
AcDbLine
 10
381.5543249235
 20
508.8759003126
 30
0.0
 11
362.7187207326
 21
518.7911553227
 31
0.0
  0
ARC
  5
1A4
330
1F
100
AcDbEntity
  8
0
  6
SLD-Solid
 62
     7
370
    15
100
AcDbCircle
 10
360.5395144216
 20
514.4680825781
 30
0.0
 40
4.841270298284808
100
AcDbArc
 50
63.2479046813
 51
181.5843828094
  0
LINE
  5
1A5
330
1F
100
AcDbEntity
  8
0
  6
SLD-Solid
 62
     7
370
    15
100
AcDbLine
 10
355.7000949964
 20
514.3342254602
 30
0.0
 11
355.7000949964
 21
435.5527175509
 31
0.0
  0
ARC
  5
1A6
330
1F
100
AcDbEntity
  8
0
  6
SLD-Solid
 62
     7
370
    15
100
AcDbCircle
 10
360.7210600082
 20
435.5167979609
 30
0.0
 40
5.021093493079385
100
AcDbArc
 50
179.5901174782
 51
241.701052125
  0
LINE
  5
1A7
330
1F
100
AcDbEntity
  8
0
  6
SLD-Solid
 62
     7
370
    15
100
AcDbLine
 10
358.3406999692
 20
431.095795139
 30
0.0
 11
377.1763041601
 21
421.1805475795
 31
0.0
  0
ARC
  5
1A8
330
1F
100
AcDbEntity
  8
0
  6
SLD-Solid
 62
     7
370
    15
100
AcDbCircle
 10
379.3600376938
 20
425.4797514548
 30
0.0
 40
4.822016809234738
100
AcDbArc
 50
243.072206354
 51
355.5399032985
  0
ARC
  5
1A9
330
1F
100
AcDbEntity
  8
0
  6
SLD-Solid
 62
     7
370
    15
100
AcDbCircle
 10
379.1898326369
 20
404.4692429609
 30
0.0
 40
5.000943876446201
100
AcDbArc
 50
5.5358642561
 51
61.7831969837
  0
LINE
  5
1AA
330
1F
100
AcDbEntity
  8
0
  6
SLD-Solid
 62
     7
370
    15
100
AcDbLine
 10
381.5543249235
 20
408.8758988225
 30
0.0
 11
362.7187207326
 21
418.7911612832
 31
0.0
  0
ARC
  5
1AB
330
1F
100
AcDbEntity
  8
0
  6
SLD-Solid
 62
     7
370
    15
100
AcDbCircle
 10
360.5395162555
 20
414.4680854269
 30
0.0
 40
4.841272251413678
100
AcDbArc
 50
63.2479406383
 51
181.58443354
  0
LINE
  5
1AC
330
1F
100
AcDbEntity
  8
0
  6
SLD-Solid
 62
     7
370
    15
100
AcDbLine
 10
355.7000949964
 20
414.3342239701
 30
0.0
 11
355.7000949964
 21
335.5527235114
 31
0.0
  0
ARC
  5
1AD
330
1F
100
AcDbEntity
  8
0
  6
SLD-Solid
 62
     7
370
    15
100
AcDbCircle
 10
360.7211044068
 20
335.5168154452
 30
0.0
 40
5.021137808192313
100
AcDbArc
 50
179.590252597
 51
241.7007489935
  0
LINE
  5
1AE
330
1F
100
AcDbEntity
  8
0
  6
SLD-Solid
 62
     7
370
    15
100
AcDbLine
 10
358.3406999692
 20
331.0957861983
 30
0.0
 11
377.1763041601
 21
321.1805535399
 31
0.0
  0
ARC
  5
1AF
330
1F
100
AcDbEntity
  8
0
  6
SLD-Solid
 62
     7
370
    15
100
AcDbCircle
 10
379.3600376938
 20
325.4797574153
 30
0.0
 40
4.822016809234738
100
AcDbArc
 50
243.072206354
 51
355.5399032985
  0
ARC
  5
1B0
330
1F
100
AcDbEntity
  8
0
  6
SLD-Solid
 62
     7
370
    15
100
AcDbCircle
 10
379.1898672816
 20
304.46925709
 30
0.0
 40
5.000907167867203
100
AcDbArc
 50
5.5356394675
 51
61.7834217723
  0
LINE
  5
1B1
330
1F
100
AcDbEntity
  8
0
  6
SLD-Solid
 62
     7
370
    15
100
AcDbLine
 10
381.5543249235
 20
308.8758898818
 30
0.0
 11
362.7187207326
 21
318.7911523425
 31
0.0
  0
ARC
  5
1B2
330
1F
100
AcDbEntity
  8
0
  6
SLD-Solid
 62
     7
370
    15
100
AcDbCircle
 10
360.5395126066
 20
314.4680822323
 30
0.0
 40
4.841268762830667
100
AcDbArc
 50
63.247871466
 51
181.5845027124
  0
LINE
  5
1B3
330
1F
100
AcDbEntity
  8
0
  6
SLD-Solid
 62
     7
370
    15
100
AcDbLine
 10
355.7000949964
 20
314.3342150294
 30
0.0
 11
355.7000949964
 21
244.985849961
 31
0.0
  0
ARC
  5
1B4
330
1F
100
AcDbEntity
  8
0
  6
SLD-Solid
 62
     7
370
    15
100
AcDbCircle
 10
360.6164348306
 20
244.9021427894
 30
0.0
 40
4.917052395114623
100
AcDbArc
 50
179.0245580174
 51
268.9897409839
  0
LINE
  5
1B5
330
1F
100
AcDbEntity
  8
0
  6
SLD-Solid
 62
     7
370
    15
100
AcDbLine
 10
360.5297401533
 20
239.9858547293
 30
0.0
 11
379.3652847394
 21
239.9858547293
 31
0.0
  0
ARC
  5
1B6
330
1F
100
AcDbEntity
  8
0
  6
SLD-Solid
 62
     7
370
    15
100
AcDbCircle
 10
379.2908642648
 20
244.8805739699
 30
0.0
 40
4.895284961174577
100
AcDbArc
 50
270.8710715317
 51
354.9907379157
  0
LINE
  5
1B7
330
1F
100
AcDbEntity
  8
0
  6
SLD-Solid
 62
     7
370
    15
100
AcDbLine
 10
350.8704498395
 20
219.9858440005
 30
0.0
 11
384.1674521551
 21
219.9858440005
 31
0.0
  0
LINE
  5
1B8
330
1F
100
AcDbEntity
  8
0
  6
SLD-Solid
 62
     7
370
    15
100
AcDbLine
 10
350.8704498395
 20
1119.985849961
 30
0.0
 11
384.1674521551
 21
1119.985849961
 31
0.0
  0
ARC
  5
1B9
330
1F
100
AcDbEntity
  8
0
  6
SLD-Solid
 62
     7
370
    15
100
AcDbCircle
 10
379.2908642648
 20
1095.0911199916
 30
0.0
 40
4.895284961174805
100
AcDbArc
 50
5.0092620843
 51
89.1289284683
  0
LINE
  5
1BA
330
1F
100
AcDbEntity
  8
0
  6
SLD-Solid
 62
     7
370
    15
100
AcDbLine
 10
379.3652847394
 20
1099.9858392321
 30
0.0
 11
360.5297401533
 21
1099.9858392321
 31
0.0
  0
ARC
  5
1BB
330
1F
100
AcDbEntity
  8
0
  6
SLD-Solid
 62
     7
370
    15
100
AcDbCircle
 10
360.6164348306
 20
1095.0695511721
 30
0.0
 40
4.917052395114624
100
AcDbArc
 50
91.0102590161
 51
180.9754419826
  0
LINE
  5
1BC
330
1F
100
AcDbEntity
  8
0
  6
SLD-Solid
 62
     7
370
    15
100
AcDbLine
 10
355.7000949964
 20
1094.9858440005
 30
0.0
 11
355.7000949964
 21
1035.5527115905
 31
0.0
  0
ARC
  5
1BD
330
1F
100
AcDbEntity
  8
0
  6
SLD-Solid
 62
     7
370
    15
100
AcDbCircle
 10
360.7210156103
 20
1035.5167804769
 30
0.0
 40
5.02104917879207
100
AcDbArc
 50
179.589982361
 51
241.7013552557
  0
LINE
  5
1BE
330
1F
100
AcDbEntity
  8
0
  6
SLD-Solid
 62
     7
370
    15
100
AcDbLine
 10
358.3406999692
 20
1031.0958040797
 30
0.0
 11
377.1763041601
 21
1021.180541619
 31
0.0
  0
ARC
  5
1BF
330
1F
100
AcDbEntity
  8
0
  6
SLD-Solid
 62
     7
370
    15
100
AcDbCircle
 10
379.3600376938
 20
1025.4797454944
 30
0.0
 40
4.822016809234974
100
AcDbArc
 50
243.072206354
 51
355.5399032985
  0
ARC
  5
1C0
330
1F
100
AcDbEntity
  8
0
  6
SLD-Solid
 62
     7
370
    15
100
AcDbCircle
 10
379.1897979911
 20
1004.469228831
 30
0.0
 40
5.000980586330789
100
AcDbArc
 50
5.536089049
 51
61.7829721908
  0
LINE
  5
1C1
330
1F
100
AcDbEntity
  8
0
  6
SLD-Solid
 62
     7
370
    15
100
AcDbLine
 10
381.5543249235
 20
1008.8759077632
 30
0.0
 11
362.7187207326
 21
1018.7911404216
 31
0.0
  0
ARC
  5
1C2
330
1F
100
AcDbEntity
  8
0
  6
SLD-Solid
 62
     7
370
    15
100
AcDbCircle
 10
360.539488508
 20
1014.4681091564
 30
0.0
 40
4.841244923453169
100
AcDbArc
 50
63.2474098503
 51
181.5846175769
  0
LINE
  5
1C3
330
1F
100
AcDbEntity
  8
0
  6
SLD-Solid
 62
     7
370
    15
100
AcDbLine
 10
355.7000949964
 20
1014.3342329108
 30
0.0
 11
355.7000949964
 21
935.5527175509
 31
0.0
  0
ARC
  5
1C4
330
1F
100
AcDbEntity
  8
0
  6
SLD-Solid
 62
     7
370
    15
100
AcDbCircle
 10
360.7209941977
 20
935.516773751
 30
0.0
 40
5.021027857532505
100
AcDbArc
 50
179.5898358492
 51
241.7015017674
  0
LINE
  5
1C5
330
1F
100
AcDbEntity
  8
0
  6
SLD-Solid
 62
     7
370
    15
100
AcDbLine
 10
358.3406999692
 20
931.0958100402
 30
0.0
 11
377.1763041601
 21
921.1805475795
 31
0.0
  0
ARC
  5
1C6
330
1F
100
AcDbEntity
  8
0
  6
SLD-Solid
 62
     7
370
    15
100
AcDbCircle
 10
379.3600376938
 20
925.4797514548
 30
0.0
 40
4.822016809234733
100
AcDbArc
 50
243.072206354
 51
355.5399032985
  0
ARC
  5
1C7
330
1F
100
AcDbEntity
  8
0
  6
SLD-Solid
 62
     7
370
    15
100
AcDbCircle
 10
379.1897658872
 20
904.4692134136
 30
0.0
 40
5.001014602858435
100
AcDbArc
 50
5.5362973457
 51
61.7827638941
  0
LINE
  5
1C8
330
1F
100
AcDbEntity
  8
0
  6
SLD-Solid
 62
     7
370
    15
100
AcDbLine
 10
381.5543249235
 20
908.8759137236
 30
0.0
 11
362.7187207326
 21
918.791146382
 31
0.0
  0
ARC
  5
1C9
330
1F
100
AcDbEntity
  8
0
  6
SLD-Solid
 62
     7
370
    15
100
AcDbCircle
 10
360.5395125689
 20
914.4680772263
 30
0.0
 40
4.841267927545123
100
AcDbArc
 50
63.2478659831
 51
181.584161444
  0
LINE
  5
1CA
330
1F
100
AcDbEntity
  8
0
  6
SLD-Solid
 62
     7
370
    15
100
AcDbLine
 10
355.7000949964
 20
914.3342388713
 30
0.0
 11
355.7000949964
 21
835.5527235114
 31
0.0
  0
ARC
  5
1CB
330
1F
100
AcDbEntity
  8
0
  6
SLD-Solid
 62
     7
370
    15
100
AcDbCircle
 10
360.7210339792
 20
835.5167884999
 30
0.0
 40
5.02106757513674
100
AcDbArc
 50
179.5899393826
 51
241.7012302206
  0
LINE
  5
1CC
330
1F
100
AcDbEntity
  8
0
  6
SLD-Solid
 62
     7
370
    15
100
AcDbLine
 10
358.3406999692
 20
831.0958010995
 30
0.0
 11
377.1763041601
 21
821.1805386388
 31
0.0
  0
ARC
  5
1CD
330
1F
100
AcDbEntity
  8
0
  6
SLD-Solid
 62
     7
370
    15
100
AcDbCircle
 10
379.3600303076
 20
825.479755673
 30
0.0
 40
4.822025196433761
100
AcDbArc
 50
243.0723554107
 51
355.5397542417
  0
ARC
  5
1CE
330
1F
100
AcDbEntity
  8
0
  6
SLD-Solid
 62
     7
370
    15
100
AcDbCircle
 10
379.1897819394
 20
804.469215162
 30
0.0
 40
5.000997594341589
100
AcDbArc
 50
5.5361931962
 51
61.7828680436
  0
LINE
  5
1CF
330
1F
100
AcDbEntity
  8
0
  6
SLD-Solid
 62
     7
370
    15
100
AcDbLine
 10
381.5543249235
 20
808.8759047829
 30
0.0
 11
362.7187207326
 21
818.7911523425
 31
0.0
  0
ARC
  5
1D0
330
1F
100
AcDbEntity
  8
0
  6
SLD-Solid
 62
     7
370
    15
100
AcDbCircle
 10
360.5395125877
 20
814.4680827096
 30
0.0
 40
4.841268345163362
100
AcDbArc
 50
63.2478687244
 51
181.5843320786
  0
LINE
  5
1D1
330
1F
100
AcDbEntity
  8
0
  6
SLD-Solid
 62
     7
370
    15
100
AcDbLine
 10
355.7000949964
 20
814.3342299306
 30
0.0
 11
355.7000949964
 21
735.5527294718
 31
0.0
  0
ARC
  5
1D2
330
1F
100
AcDbEntity
  8
0
  6
SLD-Solid
 62
     7
370
    15
100
AcDbCircle
 10
360.7210602588
 20
735.5167952493
 30
0.0
 40
5.021093848423333
100
AcDbArc
 50
179.5899505308
 51
241.7010510598
  0
LINE
  5
1D3
330
1F
100
AcDbEntity
  8
0
  6
SLD-Solid
 62
     7
370
    15
100
AcDbLine
 10
358.3406999692
 20
731.0957921588
 30
0.0
 11
377.1763041601
 21
721.1805445992
 31
0.0
  0
ARC
  5
1D4
330
1F
100
AcDbEntity
  8
0
  6
SLD-Solid
 62
     7
370
    15
100
AcDbCircle
 10
379.3600397659
 20
725.4797447832
 30
0.0
 40
4.822014456426242
100
AcDbArc
 50
243.0721645398
 51
355.5399451126
  0
LWPOLYLINE
  5
1D5
330
1F
100
AcDbEntity
  8
0
  6
SLD-Solid
 62
     7
370
    15
100
AcDbPolyline
 90
        3
 70
   128
 43
0.0
 10
362.5117138013
 20
1018.7911404216
 10
361.3542512044
 20
1019.2188335501
 10
360.4262068853
 20
1019.3330658519
  0
LWPOLYLINE
  5
1D6
330
1F
100
AcDbEntity
  8
0
  6
SLD-Solid
 62
     7
370
    15
100
AcDbPolyline
 90
        3
 70
   128
 43
0.0
 10
362.5117138013
 20
918.791146382
 10
361.3542512044
 20
919.2188395106
 10
360.4262068853
 20
919.3330718123
  0
LWPOLYLINE
  5
1D7
330
1F
100
AcDbEntity
  8
0
  6
SLD-Solid
 62
     7
370
    15
100
AcDbPolyline
 90
        3
 70
   128
 43
0.0
 10
362.5117138013
 20
818.7911523425
 10
361.3542512044
 20
819.2188454711
 10
360.4262068853
 20
819.3330777728
  0
LWPOLYLINE
  5
1D8
330
1F
100
AcDbEntity
  8
0
  6
SLD-Solid
 62
     7
370
    15
100
AcDbPolyline
 90
        3
 70
   128
 43
0.0
 10
362.5117138013
 20
718.7911583029
 10
361.3542512044
 20
719.2188365304
 10
360.4262068853
 20
719.3330837332
  0
LWPOLYLINE
  5
1D9
330
1F
100
AcDbEntity
  8
0
  6
SLD-Solid
 62
     7
370
    15
100
AcDbPolyline
 90
        3
 70
   128
 43
0.0
 10
362.5117138013
 20
618.7911549502
 10
361.3542512044
 20
619.2188406282
 10
360.4262068853
 20
619.3330803805
  0
LWPOLYLINE
  5
1DA
330
1F
100
AcDbEntity
  8
0
  6
SLD-Solid
 62
     7
370
    15
100
AcDbPolyline
 90
        3
 70
   128
 43
0.0
 10
362.5117138013
 20
518.7911553227
 10
361.3542512044
 20
519.2188410007
 10
360.4262068853
 20
519.333080753
  0
LWPOLYLINE
  5
1DB
330
1F
100
AcDbEntity
  8
0
  6
SLD-Solid
 62
     7
370
    15
100
AcDbPolyline
 90
        3
 70
   128
 43
0.0
 10
362.5117138013
 20
418.7911612832
 10
361.3542512044
 20
419.2188395106
 10
360.4262068853
 20
419.3330867135
  0
LWPOLYLINE
  5
1DC
330
1F
100
AcDbEntity
  8
0
  6
SLD-Solid
 62
     7
370
    15
100
AcDbPolyline
 90
        3
 70
   128
 43
0.0
 10
362.5117138013
 20
318.7911523425
 10
361.3542512044
 20
319.2188454711
 10
360.4262068853
 20
319.3330777728
  0
LINE
  5
1DD
330
1F
100
AcDbEntity
  8
0
  6
SLD-Solid
 62
     7
370
    15
100
AcDbLine
 10
381.3472583875
 20
1008.8759077632
 30
0.0
 11
362.5117138013
 21
1018.7911404216
 31
0.0
  0
LINE
  5
1DE
330
1F
100
AcDbEntity
  8
0
  6
SLD-Solid
 62
     7
370
    15
100
AcDbLine
 10
381.3472583875
 20
908.8759137236
 30
0.0
 11
362.5117138013
 21
918.791146382
 31
0.0
  0
LINE
  5
1DF
330
1F
100
AcDbEntity
  8
0
  6
SLD-Solid
 62
     7
370
    15
100
AcDbLine
 10
381.3472583875
 20
808.8759047829
 30
0.0
 11
362.5117138013
 21
818.7911523425
 31
0.0
  0
LINE
  5
1E0
330
1F
100
AcDbEntity
  8
0
  6
SLD-Solid
 62
     7
370
    15
100
AcDbLine
 10
381.3472583875
 20
708.8759032928
 30
0.0
 11
362.5117138013
 21
718.7911583029
 31
0.0
  0
LINE
  5
1E1
330
1F
100
AcDbEntity
  8
0
  6
SLD-Solid
 62
     7
370
    15
100
AcDbLine
 10
381.3472583875
 20
608.8759004057
 30
0.0
 11
362.5117138013
 21
618.7911549502
 31
0.0
  0
LINE
  5
1E2
330
1F
100
AcDbEntity
  8
0
  6
SLD-Solid
 62
     7
370
    15
100
AcDbLine
 10
381.3472583875
 20
508.8759003126
 30
0.0
 11
362.5117138013
 21
518.7911553227
 31
0.0
  0
LINE
  5
1E3
330
1F
100
AcDbEntity
  8
0
  6
SLD-Solid
 62
     7
370
    15
100
AcDbLine
 10
381.3472583875
 20
408.8758988225
 30
0.0
 11
362.5117138013
 21
418.7911612832
 31
0.0
  0
LINE
  5
1E4
330
1F
100
AcDbEntity
  8
0
  6
SLD-Solid
 62
     7
370
    15
100
AcDbLine
 10
381.3472583875
 20
308.8758898818
 30
0.0
 11
362.5117138013
 21
318.7911523425
 31
0.0
  0
LINE
  5
1E5
330
1F
100
AcDbEntity
  8
0
  6
SLD-Solid
 62
     7
370
    15
100
AcDbLine
 10
384.1949298963
 20
925.6374848925
 30
0.0
 11
384.1674521551
 21
925.1047683799
 31
0.0
  0
ARC
  5
1E6
330
1F
100
AcDbEntity
  8
0
  6
SLD-Solid
 62
     7
370
    15
100
AcDbCircle
 10
378.8019219678
 20
925.6379110124
 30
0.0
 40
5.185941410081134
100
AcDbArc
 50
354.0992607158
 51
359.9952921042
  0
ARC
  5
1E7
330
1F
100
AcDbEntity
  8
0
  6
SLD-Solid
 62
     7
370
    15
100
AcDbCircle
 10
379.0798725255
 20
925.5346542091
 30
0.0
 40
4.899409136096726
100
AcDbArc
 50
272.1274587749
 51
354.9662587688
  0
LINE
  5
1E8
330
1F
100
AcDbEntity
  8
0
  6
SLD-Solid
 62
     7
370
    15
100
AcDbLine
 10
384.1949298963
 20
1025.6374789321
 30
0.0
 11
384.1674521551
 21
1025.1047624194
 31
0.0
  0
ARC
  5
1E9
330
1F
100
AcDbEntity
  8
0
  6
SLD-Solid
 62
     7
370
    15
100
AcDbCircle
 10
378.8007614389
 20
1025.6379649125
 30
0.0
 40
5.187101944179126
100
AcDbArc
 50
354.0999208714
 51
359.9946319487
  0
ARC
  5
1EA
330
1F
100
AcDbEntity
  8
0
  6
SLD-Solid
 62
     7
370
    15
100
AcDbCircle
 10
379.0798524538
 20
1025.5346693652
 30
0.0
 40
4.899430983238905
100
AcDbArc
 50
272.1276841719
 51
354.9660333719
  0
LINE
  5
1EB
330
1F
100
AcDbEntity
  8
0
  6
SLD-Solid
 62
     7
370
    15
100
AcDbLine
 10
384.1949298963
 20
825.6374759518
 30
0.0
 11
384.1674521551
 21
825.1047594392
 31
0.0
  0
ARC
  5
1EC
330
1F
100
AcDbEntity
  8
0
  6
SLD-Solid
 62
     7
370
    15
100
AcDbCircle
 10
378.801150443
 20
825.6379418673
 30
0.0
 40
5.186712938287259
100
AcDbArc
 50
354.0996996231
 51
359.9948531969
  0
ARC
  5
1ED
330
1F
100
AcDbEntity
  8
0
  6
SLD-Solid
 62
     7
370
    15
100
AcDbCircle
 10
379.0798294357
 20
825.5346906013
 30
0.0
 40
4.899456037515523
100
AcDbArc
 50
272.1279426534
 51
354.9657748904
  0
LINE
  5
1EE
330
1F
100
AcDbEntity
  8
0
  6
SLD-Solid
 62
     7
370
    15
100
AcDbLine
 10
384.1949298963
 20
725.6374670111
 30
0.0
 11
384.1674521551
 21
725.1047653996
 31
0.0
  0
ARC
  5
1EF
330
1F
100
AcDbEntity
  8
0
  6
SLD-Solid
 62
     7
370
    15
100
AcDbCircle
 10
378.8013412992
 20
725.6379379963
 30
0.0
 40
5.186522082561282
100
AcDbArc
 50
354.099590918
 51
359.9947970025
  0
ARC
  5
1F0
330
1F
100
AcDbEntity
  8
0
  6
SLD-Solid
 62
     7
370
    15
100
AcDbCircle
 10
379.0798417207
 20
725.5346836373
 30
0.0
 40
4.899442665825571
100
AcDbArc
 50
272.1278046999
 51
354.9659128438
  0
LINE
  5
1F1
330
1F
100
AcDbEntity
  8
0
  6
SLD-Solid
 62
     7
370
    15
100
AcDbLine
 10
384.1949298963
 20
625.637471109
 30
0.0
 11
384.1674521551
 21
625.1047657721
 31
0.0
  0
ARC
  5
1F2
330
1F
100
AcDbEntity
  8
0
  6
SLD-Solid
 62
     7
370
    15
100
AcDbCircle
 10
378.8013175037
 20
625.6379395929
 30
0.0
 40
5.186545877848983
100
AcDbArc
 50
354.0996044895
 51
359.9948246567
  0
ARC
  5
1F3
330
1F
100
AcDbEntity
  8
0
  6
SLD-Solid
 62
     7
370
    15
100
AcDbCircle
 10
379.0798389538
 20
625.5346869207
 30
0.0
 40
4.899445677467373
100
AcDbArc
 50
272.1278357706
 51
354.9658817731
  0
LINE
  5
1F4
330
1F
100
AcDbEntity
  8
0
  6
SLD-Solid
 62
     7
370
    15
100
AcDbLine
 10
384.1949298963
 20
525.6374714815
 30
0.0
 11
384.1674521551
 21
525.1047624194
 31
0.0
  0
ARC
  5
1F5
330
1F
100
AcDbEntity
  8
0
  6
SLD-Solid
 62
     7
370
    15
100
AcDbCircle
 10
378.8012458749
 20
525.6379399316
 30
0.0
 40
5.186617506607734
100
AcDbArc
 50
354.0996452692
 51
359.9948251022
  0
ARC
  5
1F6
330
1F
100
AcDbEntity
  8
0
  6
SLD-Solid
 62
     7
370
    15
100
AcDbCircle
 10
379.0798294357
 20
525.5346935815
 30
0.0
 40
4.899456037515538
100
AcDbArc
 50
272.1279426534
 51
354.9657748904
  0
LINE
  5
1F7
330
1F
100
AcDbEntity
  8
0
  6
SLD-Solid
 62
     7
370
    15
100
AcDbLine
 10
384.1949298963
 20
425.6374699914
 30
0.0
 11
384.1674521551
 21
425.1047683799
 31
0.0
  0
ARC
  5
1F8
330
1F
100
AcDbEntity
  8
0
  6
SLD-Solid
 62
     7
370
    15
100
AcDbCircle
 10
378.8013412992
 20
425.6379409765
 30
0.0
 40
5.186522082561286
100
AcDbArc
 50
354.099590918
 51
359.9947970025
  0
ARC
  5
1F9
330
1F
100
AcDbEntity
  8
0
  6
SLD-Solid
 62
     7
370
    15
100
AcDbCircle
 10
379.0798294357
 20
425.534699542
 30
0.0
 40
4.899456037515538
100
AcDbArc
 50
272.1279426534
 51
354.9657748904
  0
LINE
  5
1FA
330
1F
100
AcDbEntity
  8
0
  6
SLD-Solid
 62
     7
370
    15
100
AcDbLine
 10
384.1949298963
 20
325.6374610507
 30
0.0
 11
384.1674521551
 21
325.1047743403
 31
0.0
  0
ARC
  5
1FB
330
1F
100
AcDbEntity
  8
0
  6
SLD-Solid
 62
     7
370
    15
100
AcDbCircle
 10
378.801921056
 20
325.6379170446
 30
0.0
 40
5.185942324386674
100
AcDbArc
 50
354.0992609634
 51
359.9949620482
  0
ARC
  5
1FC
330
1F
100
AcDbEntity
  8
0
  6
SLD-Solid
 62
     7
370
    15
100
AcDbCircle
 10
379.0798725255
 20
325.5346601695
 30
0.0
 40
4.899409136096732
100
AcDbArc
 50
272.1274587749
 51
354.9662587688
  0
LINE
  5
1FD
330
1F
100
AcDbEntity
  8
0
  6
SLD-Solid
 62
     7
370
    15
100
AcDbLine
 10
384.1674521551
 20
1095.5185605132
 30
0.0
 11
384.1949298963
 21
1094.9858440005
 31
0.0
  0
ARC
  5
1FE
330
1F
100
AcDbEntity
  8
0
  6
SLD-Solid
 62
     7
370
    15
100
AcDbCircle
 10
378.8007614389
 20
1094.98535802
 30
0.0
 40
5.187101944179126
100
AcDbArc
 50
0.0053680513
 51
5.9000791286
  0
ARC
  5
1FF
330
1F
100
AcDbEntity
  8
0
  6
SLD-Solid
 62
     7
370
    15
100
AcDbCircle
 10
379.0838616528
 20
1095.0911887075
 30
0.0
 40
4.89521528172191
100
AcDbArc
 50
5.0085262035
 51
89.1296643491
  0
LINE
  5
200
330
1F
100
AcDbEntity
  8
0
  6
SLD-Solid
 62
     7
370
    15
100
AcDbLine
 10
384.1949298963
 20
244.985849961
 30
0.0
 11
384.1674521551
 21
244.4531334483
 31
0.0
  0
ARC
  5
201
330
1F
100
AcDbEntity
  8
0
  6
SLD-Solid
 62
     7
370
    15
100
AcDbCircle
 10
378.8007614389
 20
244.9863359414
 30
0.0
 40
5.187101944179126
100
AcDbArc
 50
354.0999208714
 51
359.9946319487
  0
ARC
  5
202
330
1F
100
AcDbEntity
  8
0
  6
SLD-Solid
 62
     7
370
    15
100
AcDbCircle
 10
379.0838616528
 20
244.8805052539
 30
0.0
 40
4.895215281721993
100
AcDbArc
 50
270.8703356509
 51
354.9914737965
  0
LINE
  5
203
330
1F
100
AcDbEntity
  8
0
  6
SLD-Solid
 62
     7
370
    15
100
AcDbLine
 10
384.1674521551
 20
1004.9516869628
 30
0.0
 11
384.1949298963
 21
1004.4189704501
 31
0.0
  0
ARC
  5
204
330
1F
100
AcDbEntity
  8
0
  6
SLD-Solid
 62
     7
370
    15
100
AcDbCircle
 10
378.8007614389
 20
1004.4184844696
 30
0.0
 40
5.187101944179126
100
AcDbArc
 50
0.0053680513
 51
5.9000791286
  0
ARC
  5
205
330
1F
100
AcDbEntity
  8
0
  6
SLD-Solid
 62
     7
370
    15
100
AcDbCircle
 10
378.9829725482
 20
1004.4693893742
 30
0.0
 40
5.000725131663979
100
AcDbArc
 50
5.5345246951
 51
61.7845365447
  0
LINE
  5
206
330
1F
100
AcDbEntity
  8
0
  6
SLD-Solid
 62
     7
370
    15
100
AcDbLine
 10
384.1674521551
 20
904.9516929232
 30
0.0
 11
384.1949298963
 21
904.4189764106
 31
0.0
  0
ARC
  5
207
330
1F
100
AcDbEntity
  8
0
  6
SLD-Solid
 62
     7
370
    15
100
AcDbCircle
 10
378.8007614389
 20
904.4184904301
 30
0.0
 40
5.187101944179137
100
AcDbArc
 50
0.0053680513
 51
5.9000791286
  0
ARC
  5
208
330
1F
100
AcDbEntity
  8
0
  6
SLD-Solid
 62
     7
370
    15
100
AcDbCircle
 10
378.9829404443
 20
904.4693739568
 30
0.0
 40
5.000759147695183
100
AcDbArc
 50
5.5347330131
 51
61.7843282267
  0
LINE
  5
209
330
1F
100
AcDbEntity
  8
0
  6
SLD-Solid
 62
     7
370
    15
100
AcDbLine
 10
384.1674521551
 20
804.9516839825
 30
0.0
 11
384.1949298963
 21
804.4189674699
 31
0.0
  0
ARC
  5
20A
330
1F
100
AcDbEntity
  8
0
  6
SLD-Solid
 62
     7
370
    15
100
AcDbCircle
 10
378.8013417704
 20
804.4185114231
 30
0.0
 40
5.18652161002911
100
AcDbArc
 50
0.0050379724
 51
5.9004092076
  0
ARC
  5
20B
330
1F
100
AcDbEntity
  8
0
  6
SLD-Solid
 62
     7
370
    15
100
AcDbCircle
 10
378.9829564965
 20
804.4693757052
 30
0.0
 40
5.000742139426366
100
AcDbArc
 50
5.534628853
 51
61.7844323868
  0
LINE
  5
20C
330
1F
100
AcDbEntity
  8
0
  6
SLD-Solid
 62
     7
370
    15
100
AcDbLine
 10
384.1674521551
 20
704.9516824924
 30
0.0
 11
384.1949298963
 21
704.4189734303
 31
0.0
  0
ARC
  5
20D
330
1F
100
AcDbEntity
  8
0
  6
SLD-Solid
 62
     7
370
    15
100
AcDbCircle
 10
378.8012458749
 20
704.4185049802
 30
0.0
 40
5.186617506607745
100
AcDbArc
 50
0.0051748978
 51
5.9003547308
  0
ARC
  5
20E
330
1F
100
AcDbEntity
  8
0
  6
SLD-Solid
 62
     7
370
    15
100
AcDbCircle
 10
378.9829818423
 20
704.4693910928
 30
0.0
 40
5.000715283942314
100
AcDbArc
 50
5.534464386
 51
61.7845968538
  0
LINE
  5
20F
330
1F
100
AcDbEntity
  8
0
  6
SLD-Solid
 62
     7
370
    15
100
AcDbLine
 10
384.1674521551
 20
604.9516791397
 30
0.0
 11
384.1949298963
 21
604.418974967
 31
0.0
  0
ARC
  5
210
330
1F
100
AcDbEntity
  8
0
  6
SLD-Solid
 62
     7
370
    15
100
AcDbCircle
 10
378.8013355725
 20
604.4185062499
 30
0.0
 40
5.186527808997603
100
AcDbArc
 50
0.005177937
 51
5.9004057997
  0
ARC
  5
211
330
1F
100
AcDbEntity
  8
0
  6
SLD-Solid
 62
     7
370
    15
100
AcDbCircle
 10
378.9829935148
 20
604.4693960356
 30
0.0
 40
5.000702865863155
100
AcDbArc
 50
5.5343826808
 51
61.7846722859
  0
LINE
  5
212
330
1F
100
AcDbEntity
  8
0
  6
SLD-Solid
 62
     7
370
    15
100
AcDbLine
 10
384.1674521551
 20
504.9516795122
 30
0.0
 11
384.1949298963
 21
504.4189779007
 31
0.0
  0
ARC
  5
213
330
1F
100
AcDbEntity
  8
0
  6
SLD-Solid
 62
     7
370
    15
100
AcDbCircle
 10
378.8013412992
 20
504.4185069155
 30
0.0
 40
5.186522082561292
100
AcDbArc
 50
0.0052029975
 51
5.900409082
  0
ARC
  5
214
330
1F
100
AcDbEntity
  8
0
  6
SLD-Solid
 62
     7
370
    15
100
AcDbCircle
 10
378.9829818423
 20
504.4693881126
 30
0.0
 40
5.000715283942213
100
AcDbArc
 50
5.5344643859
 51
61.7845968538
  0
LINE
  5
215
330
1F
100
AcDbEntity
  8
0
  6
SLD-Solid
 62
     7
370
    15
100
AcDbLine
 10
384.1674521551
 20
404.9516780221
 30
0.0
 11
384.1949298963
 21
404.4189764106
 31
0.0
  0
ARC
  5
216
330
1F
100
AcDbEntity
  8
0
  6
SLD-Solid
 62
     7
370
    15
100
AcDbCircle
 10
378.8013412992
 20
404.4185054254
 30
0.0
 40
5.186522082561286
100
AcDbArc
 50
0.0052029975
 51
5.900409082
  0
ARC
  5
217
330
1F
100
AcDbEntity
  8
0
  6
SLD-Solid
 62
     7
370
    15
100
AcDbCircle
 10
378.9830071878
 20
404.4694034999
 30
0.0
 40
5.00068842892863
100
AcDbArc
 50
5.5342999198
 51
61.78476132
  0
LINE
  5
218
330
1F
100
AcDbEntity
  8
0
  6
SLD-Solid
 62
     7
370
    15
100
AcDbLine
 10
384.1674521551
 20
304.9516690814
 30
0.0
 11
384.1949298963
 21
304.418982371
 31
0.0
  0
ARC
  5
219
330
1F
100
AcDbEntity
  8
0
  6
SLD-Solid
 62
     7
370
    15
100
AcDbCircle
 10
378.801921056
 20
304.4185263771
 30
0.0
 40
5.185942324386674
100
AcDbArc
 50
0.0050379518
 51
5.9007390366
  0
ARC
  5
21A
330
1F
100
AcDbEntity
  8
0
  6
SLD-Solid
 62
     7
370
    15
100
AcDbCircle
 10
378.9830418262
 20
304.4694176248
 30
0.0
 40
5.000651727498564
100
AcDbArc
 50
5.5340751487
 51
61.7849860911
  0
LINE
  5
21B
330
1F
100
AcDbEntity
  8
0
  6
SLD-Solid
 62
     7
370
    15
100
AcDbLine
 10
384.1949298963
 20
904.4189764106
 30
0.0
 11
384.1949298963
 21
825.6374759518
 31
0.0
  0
LINE
  5
21C
330
1F
100
AcDbEntity
  8
0
  6
SLD-Solid
 62
     7
370
    15
100
AcDbLine
 10
384.1949298963
 20
1004.4189704501
 30
0.0
 11
384.1949298963
 21
925.6374848925
 31
0.0
  0
LINE
  5
21D
330
1F
100
AcDbEntity
  8
0
  6
SLD-Solid
 62
     7
370
    15
100
AcDbLine
 10
384.1949298963
 20
1094.9858440005
 30
0.0
 11
384.1949298963
 21
1025.6374789321
 31
0.0
  0
LINE
  5
21E
330
1F
100
AcDbEntity
  8
0
  6
SLD-Solid
 62
     7
370
    15
100
AcDbLine
 10
384.1674521551
 20
1119.985849961
 30
0.0
 11
403.2898738965
 21
1119.985849961
 31
0.0
  0
LINE
  5
21F
330
1F
100
AcDbEntity
  8
0
  6
SLD-Solid
 62
     7
370
    15
100
AcDbLine
 10
403.2898738965
 20
1119.985849961
 30
0.0
 11
403.2898738965
 21
219.9858440005
 31
0.0
  0
LINE
  5
220
330
1F
100
AcDbEntity
  8
0
  6
SLD-Solid
 62
     7
370
    15
100
AcDbLine
 10
384.1674521551
 20
219.9858440005
 30
0.0
 11
403.2898738965
 21
219.9858440005
 31
0.0
  0
LINE
  5
221
330
1F
100
AcDbEntity
  8
0
  6
SLD-Solid
 62
     7
370
    15
100
AcDbLine
 10
384.1949298963
 20
304.418982371
 30
0.0
 11
384.1949298963
 21
244.985849961
 31
0.0
  0
LINE
  5
222
330
1F
100
AcDbEntity
  8
0
  6
SLD-Solid
 62
     7
370
    15
100
AcDbLine
 10
384.1949298963
 20
404.4189764106
 30
0.0
 11
384.1949298963
 21
325.6374610507
 31
0.0
  0
LINE
  5
223
330
1F
100
AcDbEntity
  8
0
  6
SLD-Solid
 62
     7
370
    15
100
AcDbLine
 10
384.1949298963
 20
504.4189779007
 30
0.0
 11
384.1949298963
 21
425.6374699914
 31
0.0
  0
LINE
  5
224
330
1F
100
AcDbEntity
  8
0
  6
SLD-Solid
 62
     7
370
    15
100
AcDbLine
 10
384.1949298963
 20
604.418974967
 30
0.0
 11
384.1949298963
 21
525.6374714815
 31
0.0
  0
LINE
  5
225
330
1F
100
AcDbEntity
  8
0
  6
SLD-Solid
 62
     7
370
    15
100
AcDbLine
 10
384.1949298963
 20
704.4189734303
 30
0.0
 11
384.1949298963
 21
625.637471109
 31
0.0
  0
LINE
  5
226
330
1F
100
AcDbEntity
  8
0
  6
SLD-Solid
 62
     7
370
    15
100
AcDbLine
 10
384.1949298963
 20
804.4189674699
 30
0.0
 11
384.1949298963
 21
725.6374670111
 31
0.0
  0
LINE
  5
227
330
1F
100
AcDbEntity
  8
0
  6
SLD-Solid
 62
     7
370
    15
100
AcDbLine
 10
383.9878633603
 20
925.6374848925
 30
0.0
 11
383.9878633603
 21
1004.4189704501
 31
0.0
  0
LINE
  5
228
330
1F
100
AcDbEntity
  8
0
  6
SLD-Solid
 62
     7
370
    15
100
AcDbLine
 10
383.9878633603
 20
1025.6374789321
 30
0.0
 11
383.9878633603
 21
1094.9858440005
 31
0.0
  0
LINE
  5
229
330
1F
100
AcDbEntity
  8
0
  6
SLD-Solid
 62
     7
370
    15
100
AcDbLine
 10
383.9878633603
 20
825.6374759518
 30
0.0
 11
383.9878633603
 21
904.4189764106
 31
0.0
  0
LINE
  5
22A
330
1F
100
AcDbEntity
  8
0
  6
SLD-Solid
 62
     7
370
    15
100
AcDbLine
 10
383.9878633603
 20
725.6374670111
 30
0.0
 11
383.9878633603
 21
804.4189674699
 31
0.0
  0
LINE
  5
22B
330
1F
100
AcDbEntity
  8
0
  6
SLD-Solid
 62
     7
370
    15
100
AcDbLine
 10
383.9878633603
 20
625.637471109
 30
0.0
 11
383.9878633603
 21
704.4189734303
 31
0.0
  0
LINE
  5
22C
330
1F
100
AcDbEntity
  8
0
  6
SLD-Solid
 62
     7
370
    15
100
AcDbLine
 10
383.9878633603
 20
525.6374714815
 30
0.0
 11
383.9878633603
 21
604.418974967
 31
0.0
  0
LINE
  5
22D
330
1F
100
AcDbEntity
  8
0
  6
SLD-Solid
 62
     7
370
    15
100
AcDbLine
 10
383.9878633603
 20
425.6374699914
 30
0.0
 11
383.9878633603
 21
504.4189779007
 31
0.0
  0
LINE
  5
22E
330
1F
100
AcDbEntity
  8
0
  6
SLD-Solid
 62
     7
370
    15
100
AcDbLine
 10
383.9878633603
 20
325.6374610507
 30
0.0
 11
383.9878633603
 21
404.4189764106
 31
0.0
  0
LINE
  5
22F
330
1F
100
AcDbEntity
  8
0
  6
SLD-Solid
 62
     7
370
    15
100
AcDbLine
 10
383.9878633603
 20
244.985849961
 30
0.0
 11
383.9878633603
 21
304.418982371
 31
0.0
  0
LINE
  5
230
330
1F
100
AcDbEntity
  8
0
  6
SLD-Solid
 62
     7
370
    15
100
AcDbLine
 10
383.9603856191
 20
1095.5185605132
 30
0.0
 11
383.9603856191
 21
1025.1047624194
 31
0.0
  0
LINE
  5
231
330
1F
100
AcDbEntity
  8
0
  6
SLD-Solid
 62
     7
370
    15
100
AcDbLine
 10
383.9603856191
 20
1004.9516869628
 30
0.0
 11
383.9603856191
 21
925.1047683799
 31
0.0
  0
LINE
  5
232
330
1F
100
AcDbEntity
  8
0
  6
SLD-Solid
 62
     7
370
    15
100
AcDbLine
 10
383.9603856191
 20
904.9516929232
 30
0.0
 11
383.9603856191
 21
825.1047594392
 31
0.0
  0
LINE
  5
233
330
1F
100
AcDbEntity
  8
0
  6
SLD-Solid
 62
     7
370
    15
100
AcDbLine
 10
383.9603856191
 20
804.9516839825
 30
0.0
 11
383.9603856191
 21
725.1047653996
 31
0.0
  0
LINE
  5
234
330
1F
100
AcDbEntity
  8
0
  6
SLD-Solid
 62
     7
370
    15
100
AcDbLine
 10
383.9603856191
 20
704.9516824924
 30
0.0
 11
383.9603856191
 21
625.1047657721
 31
0.0
  0
LINE
  5
235
330
1F
100
AcDbEntity
  8
0
  6
SLD-Solid
 62
     7
370
    15
100
AcDbLine
 10
383.9603856191
 20
604.9516791397
 30
0.0
 11
383.9603856191
 21
525.1047624194
 31
0.0
  0
LINE
  5
236
330
1F
100
AcDbEntity
  8
0
  6
SLD-Solid
 62
     7
370
    15
100
AcDbLine
 10
383.9603856191
 20
504.9516795122
 30
0.0
 11
383.9603856191
 21
425.1047683799
 31
0.0
  0
LINE
  5
237
330
1F
100
AcDbEntity
  8
0
  6
SLD-Solid
 62
     7
370
    15
100
AcDbLine
 10
383.9603856191
 20
404.9516780221
 30
0.0
 11
383.9603856191
 21
325.1047743403
 31
0.0
  0
LINE
  5
238
330
1F
100
AcDbEntity
  8
0
  6
SLD-Solid
 62
     7
370
    15
100
AcDbLine
 10
383.9603856191
 20
304.9516690814
 30
0.0
 11
383.9603856191
 21
244.4531334483
 31
0.0
  0
LINE
  5
239
330
1F
100
AcDbEntity
  8
0
  6
SLD-Solid
 62
     7
370
    15
100
AcDbLine
 10
403.2898738965
 20
219.9858440005
 30
0.0
 11
404.5399025068
 21
219.9858440005
 31
0.0
  0
LINE
  5
23A
330
1F
100
AcDbEntity
  8
0
  6
SLD-Solid
 62
     7
370
    15
100
AcDbLine
 10
403.2898738965
 20
1119.985849961
 30
0.0
 11
404.5399025068
 21
1119.985849961
 31
0.0
  0
LINE
  5
23B
330
1F
100
AcDbEntity
  8
0
  6
SLD-Solid
 62
     7
370
    15
100
AcDbLine
 10
425.7399037465
 20
1119.985849961
 30
0.0
 11
427.7898862943
 21
1119.985849961
 31
0.0
  0
LINE
  5
23C
330
1F
100
AcDbEntity
  8
0
  6
SLD-Solid
 62
     7
370
    15
100
AcDbLine
 10
427.7898862943
 20
1119.985849961
 30
0.0
 11
427.7898862943
 21
219.9858440005
 31
0.0
  0
LINE
  5
23D
330
1F
100
AcDbEntity
  8
0
  6
SLD-Solid
 62
     7
370
    15
100
AcDbLine
 10
425.7399037465
 20
219.9858440005
 30
0.0
 11
427.7898862943
 21
219.9858440005
 31
0.0
  0
LINE
  5
23E
330
1F
100
AcDbEntity
  8
0
  6
SLD-Solid
 62
     7
370
    15
100
AcDbLine
 10
404.5399025068
 20
1119.985849961
 30
0.0
 11
425.7399037465
 21
1119.985849961
 31
0.0
  0
LINE
  5
23F
330
1F
100
AcDbEntity
  8
0
  6
SLD-Solid
 62
     7
370
    15
100
AcDbLine
 10
404.5399025068
 20
219.9858440005
 30
0.0
 11
425.7399037465
 21
219.9858440005
 31
0.0
  0
LINE
  5
240
330
1F
100
AcDbEntity
  8
0
  6
SLD-Solid
 62
     7
370
    15
100
AcDbLine
 10
427.7898862943
 20
1119.985849961
 30
0.0
 11
429.0399149045
 21
1119.985849961
 31
0.0
  0
LINE
  5
241
330
1F
100
AcDbEntity
  8
0
  6
SLD-Solid
 62
     7
370
    15
100
AcDbLine
 10
427.7898862943
 20
219.9858440005
 30
0.0
 11
429.0399149045
 21
219.9858440005
 31
0.0
  0
LINE
  5
242
330
1F
100
AcDbEntity
  8
0
  6
SLD-Solid
 62
     7
370
    15
100
AcDbLine
 10
451.2399032697
 20
1119.985849961
 30
0.0
 11
453.2898858175
 21
1119.985849961
 31
0.0
  0
LINE
  5
243
330
1F
100
AcDbEntity
  8
0
  6
SLD-Solid
 62
     7
370
    15
100
AcDbLine
 10
453.2898858175
 20
1119.985849961
 30
0.0
 11
453.2898858175
 21
1114.9858547293
 31
0.0
  0
LINE
  5
244
330
1F
100
AcDbEntity
  8
0
  6
SLD-Solid
 62
     7
370
    15
100
AcDbLine
 10
453.2898858175
 20
224.9858392321
 30
0.0
 11
453.2898858175
 21
219.9858440005
 31
0.0
  0
LINE
  5
245
330
1F
100
AcDbEntity
  8
0
  6
SLD-Solid
 62
     7
370
    15
100
AcDbLine
 10
451.2399032697
 20
219.9858440005
 30
0.0
 11
453.2898858175
 21
219.9858440005
 31
0.0
  0
LINE
  5
246
330
1F
100
AcDbEntity
  8
0
  6
SLD-Solid
 62
     7
370
    15
100
AcDbLine
 10
429.0399149045
 20
219.9858440005
 30
0.0
 11
451.2399032697
 21
219.9858440005
 31
0.0
  0
LINE
  5
247
330
1F
100
AcDbEntity
  8
0
  6
SLD-Solid
 62
     7
370
    15
100
AcDbLine
 10
429.0399149045
 20
1119.985849961
 30
0.0
 11
451.2399032697
 21
1119.985849961
 31
0.0
  0
LINE
  5
248
330
1F
100
AcDbEntity
  8
0
  6
SLD-Solid
 62
     7
370
    15
100
AcDbLine
 10
383.9603856191
 20
1068.6858607375
 30
0.0
 11
358.0398753271
 21
1068.6858607375
 31
0.0
  0
LINE
  5
249
330
1F
100
AcDbEntity
  8
0
  6
SLD-Solid
 62
     7
370
    15
100
AcDbLine
 10
383.9603856191
 20
1067.4858404242
 30
0.0
 11
358.0398753271
 21
1067.4858404242
 31
0.0
  0
LINE
  5
24A
330
1F
100
AcDbEntity
  8
0
  6
SLD-Solid
 62
     7
370
    15
100
AcDbLine
 10
383.9603856191
 20
1039.2858398997
 30
0.0
 11
358.0398753271
 21
1039.2858398997
 31
0.0
  0
LINE
  5
24B
330
1F
100
AcDbEntity
  8
0
  6
SLD-Solid
 62
     7
370
    15
100
AcDbLine
 10
383.9603856191
 20
1040.485860213
 30
0.0
 11
358.0398753271
 21
1040.485860213
 31
0.0
  0
LINE
  5
24C
330
1F
100
AcDbEntity
  8
0
  6
SLD-Solid
 62
     7
370
    15
100
AcDbLine
 10
356.7899063215
 20
1066.2358416163
 30
0.0
 11
356.7899063215
 21
1041.7358590209
 31
0.0
  0
ARC
  5
24D
330
1F
100
AcDbEntity
  8
0
  6
SLD-Solid
 62
     7
370
    15
100
AcDbCircle
 10
358.0398968028
 20
1066.235849695
 30
0.0
 40
2.450000000000045
100
AcDbArc
 50
90.0
 51
162.7494449914
  0
ARC
  5
24E
330
1F
100
AcDbEntity
  8
0
  6
SLD-Solid
 62
     7
370
    15
100
AcDbCircle
 10
358.0398968028
 20
1066.235849695
 30
0.0
 40
1.25
100
AcDbArc
 50
90.0
 51
180.0
  0
ARC
  5
24F
330
1F
100
AcDbEntity
  8
0
  6
SLD-Solid
 62
     7
370
    15
100
AcDbCircle
 10
358.0398968028
 20
1041.735849695
 30
0.0
 40
1.25
100
AcDbArc
 50
180.0
 51
270.0
  0
ARC
  5
250
330
1F
100
AcDbEntity
  8
0
  6
SLD-Solid
 62
     7
370
    15
100
AcDbCircle
 10
358.0398968028
 20
1041.735849695
 30
0.0
 40
2.449999999999979
100
AcDbArc
 50
197.2505550088
 51
270.0
  0
LINE
  5
251
330
1F
100
AcDbEntity
  8
0
  6
SLD-Solid
 62
     7
370
    15
100
AcDbLine
 10
358.0398753271
 20
299.4858635508
 30
0.0
 11
383.9603856191
 21
299.4858635508
 31
0.0
  0
LINE
  5
252
330
1F
100
AcDbEntity
  8
0
  6
SLD-Solid
 62
     7
370
    15
100
AcDbLine
 10
358.0398753271
 20
300.6858540618
 30
0.0
 11
383.9603856191
 21
300.6858540618
 31
0.0
  0
LINE
  5
253
330
1F
100
AcDbEntity
  8
0
  6
SLD-Solid
 62
     7
370
    15
100
AcDbLine
 10
356.7899063215
 20
273.7358523452
 30
0.0
 11
356.7899063215
 21
298.2358349406
 31
0.0
  0
LINE
  5
254
330
1F
100
AcDbEntity
  8
0
  6
SLD-Solid
 62
     7
370
    15
100
AcDbLine
 10
383.9603856191
 20
272.4858535372
 30
0.0
 11
358.0398753271
 21
272.4858535372
 31
0.0
  0
LINE
  5
255
330
1F
100
AcDbEntity
  8
0
  6
SLD-Solid
 62
     7
370
    15
100
AcDbLine
 10
383.9603856191
 20
271.2858630263
 30
0.0
 11
358.0398753271
 21
271.2858630263
 31
0.0
  0
ARC
  5
256
330
1F
100
AcDbEntity
  8
0
  6
SLD-Solid
 62
     7
370
    15
100
AcDbCircle
 10
358.0398968028
 20
273.7358496949
 30
0.0
 40
2.449999999999989
100
AcDbArc
 50
197.2505550122
 51
270.0
  0
ARC
  5
257
330
1F
100
AcDbEntity
  8
0
  6
SLD-Solid
 62
     7
370
    15
100
AcDbCircle
 10
358.0398968028
 20
273.7358496949
 30
0.0
 40
1.25
100
AcDbArc
 50
180.0
 51
270.0
  0
ARC
  5
258
330
1F
100
AcDbEntity
  8
0
  6
SLD-Solid
 62
     7
370
    15
100
AcDbCircle
 10
358.0398968028
 20
298.2358496949
 30
0.0
 40
1.250000000000057
100
AcDbArc
 50
90.0
 51
180.0
  0
ARC
  5
259
330
1F
100
AcDbEntity
  8
0
  6
SLD-Solid
 62
     7
370
    15
100
AcDbCircle
 10
358.0398968028
 20
298.2358496949
 30
0.0
 40
2.450000000000069
100
AcDbArc
 50
90.0
 51
162.7494449878
  0
LINE
  5
25A
330
1F
100
AcDbEntity
  8
0
  6
SLD-Solid
 62
     7
370
    15
100
AcDbLine
 10
357.7898934469
 20
854.9858642661
 30
0.0
 11
357.7898934469
 21
831.4351601445
 31
0.0
  0
LINE
  5
25B
330
1F
100
AcDbEntity
  8
0
  6
SLD-Solid
 62
     7
370
    15
100
AcDbLine
 10
357.7898934469
 20
818.4517932975
 30
0.0
 11
357.7898934469
 21
769.9858559214
 31
0.0
  0
LINE
  5
25C
330
1F
100
AcDbEntity
  8
0
  6
SLD-Solid
 62
     7
370
    15
100
AcDbLine
 10
357.7898934469
 20
769.9858559214
 30
0.0
 11
383.9603856191
 21
769.9858559214
 31
0.0
  0
LINE
  5
25D
330
1F
100
AcDbEntity
  8
0
  6
SLD-Solid
 62
     7
370
    15
100
AcDbLine
 10
383.9603856191
 20
854.9858642661
 30
0.0
 11
357.7898934469
 21
854.9858642661
 31
0.0
  0
LINE
  5
25E
330
1F
100
AcDbEntity
  8
0
  6
SLD-Solid
 62
     7
370
    15
100
AcDbLine
 10
356.7899063215
 20
717.4979982816
 30
0.0
 11
356.7899063215
 21
632.3889544152
 31
0.0
  0
LINE
  5
25F
330
1F
100
AcDbEntity
  8
0
  6
SLD-Solid
 62
     7
370
    15
100
AcDbLine
 10
357.7898934469
 20
569.9858492159
 30
0.0
 11
357.7898934469
 21
531.4351631247
 31
0.0
  0
LINE
  5
260
330
1F
100
AcDbEntity
  8
0
  6
SLD-Solid
 62
     7
370
    15
100
AcDbLine
 10
357.7898934469
 20
518.4517962777
 30
0.0
 11
357.7898934469
 21
484.9858520471
 31
0.0
  0
LINE
  5
261
330
1F
100
AcDbEntity
  8
0
  6
SLD-Solid
 62
     7
370
    15
100
AcDbLine
 10
357.7898934469
 20
484.9858520471
 30
0.0
 11
383.9603856191
 21
484.9858520471
 31
0.0
  0
LINE
  5
262
330
1F
100
AcDbEntity
  8
0
  6
SLD-Solid
 62
     7
370
    15
100
AcDbLine
 10
383.9603856191
 20
569.9858492159
 30
0.0
 11
357.7898934469
 21
569.9858492159
 31
0.0
  0
LINE
  5
263
330
1F
100
AcDbEntity
  8
0
  6
SLD-Center
 62
     7
370
     0
100
AcDbLine
 10
328.3270524156
 20
1086.4858496948
 30
0.0
 11
453.108286023
 21
1086.4858496948
 31
0.0
  0
ENDSEC
  0
SECTION
  2
OBJECTS
  0
DICTIONARY
  5
C
330
0
100
AcDbDictionary
281
     1
  3
ACAD_GROUP
350
D
  3
ACAD_LAYOUT
350
1A
  3
ACAD_MLINESTYLE
350
17
  3
ACAD_PLOTSETTINGS
350
19
  3
ACAD_PLOTSTYLENAME
350
E
  0
DICTIONARY
  5
D
102
{ACAD_REACTORS
330
C
102
}
330
C
100
AcDbDictionary
281
     1
  0
DICTIONARY
  5
1A
102
{ACAD_REACTORS
330
C
102
}
330
C
100
AcDbDictionary
281
     1
  3
Layout1
350
1E
  3
Layout2
350
26
  3
Model
350
22
  0
DICTIONARY
  5
17
102
{ACAD_REACTORS
330
C
102
}
330
C
100
AcDbDictionary
281
     1
  3
Standard
350
18
  0
DICTIONARY
  5
19
102
{ACAD_REACTORS
330
C
102
}
330
C
100
AcDbDictionary
281
     1
  0
ACDBDICTIONARYWDFLT
  5
E
102
{ACAD_REACTORS
330
C
102
}
330
C
100
AcDbDictionary
281
     1
  3
Normal
350
F
100
AcDbDictionaryWithDefault
340
F
  0
LAYOUT
  5
1E
102
{ACAD_REACTORS
330
1A
102
}
330
1A
100
AcDbPlotSettings
  1

  2
none_device
  4

  6

 40
0.0
 41
0.0
 42
0.0
 43
0.0
 44
0.0
 45
0.0
 46
0.0
 47
0.0
 48
0.0
 49
0.0
140
0.0
141
0.0
142
1.0
143
1.0
 70
   688
 72
     0
 73
     0
 74
     5
  7

 75
    16
147
1.0
148
0.0
149
0.0
100
AcDbLayout
  1
Layout1
 70
     1
 71
     1
 10
0.0
 20
0.0
 11
420.0
 21
297.0
 12
0.0
 22
0.0
 32
0.0
 14
1.0000000000E+20
 24
1.0000000000E+20
 34
1.0000000000E+20
 15
-1.0000000000E+20
 25
-1.0000000000E+20
 35
-1.0000000000E+20
146
0.0
 13
0.0
 23
0.0
 33
0.0
 16
1.0
 26
0.0
 36
0.0
 17
0.0
 27
1.0
 37
0.0
 76
     0
330
1B
  0
LAYOUT
  5
26
102
{ACAD_REACTORS
330
1A
102
}
330
1A
100
AcDbPlotSettings
  1

  2
none_device
  4

  6

 40
0.0
 41
0.0
 42
0.0
 43
0.0
 44
0.0
 45
0.0
 46
0.0
 47
0.0
 48
0.0
 49
0.0
140
0.0
141
0.0
142
1.0
143
1.0
 70
   688
 72
     0
 73
     0
 74
     5
  7

 75
    16
147
1.0
148
0.0
149
0.0
100
AcDbLayout
  1
Layout2
 70
     1
 71
     2
 10
0.0
 20
0.0
 11
0.0
 21
0.0
 12
0.0
 22
0.0
 32
0.0
 14
0.0
 24
0.0
 34
0.0
 15
0.0
 25
0.0
 35
0.0
146
0.0
 13
0.0
 23
0.0
 33
0.0
 16
1.0
 26
0.0
 36
0.0
 17
0.0
 27
1.0
 37
0.0
 76
     0
330
23
  0
LAYOUT
  5
22
102
{ACAD_REACTORS
330
1A
102
}
330
1A
100
AcDbPlotSettings
  1

  2
none_device
  4

  6

 40
0.0
 41
0.0
 42
0.0
 43
0.0
 44
0.0
 45
0.0
 46
0.0
 47
0.0
 48
0.0
 49
0.0
140
0.0
141
0.0
142
1.0
143
1.0
 70
  1712
 72
     0
 73
     0
 74
     0
  7

 75
     0
147
1.0
148
0.0
149
0.0
100
AcDbLayout
  1
Model
 70
     1
 71
     0
 10
0.0
 20
0.0
 11
1500.0
 21
1500.0
 12
0.0
 22
0.0
 32
0.0
 14
0.0
 24
0.0
 34
0.0
 15
1500.0
 25
1500.0
 35
0.0
146
0.0
 13
0.0
 23
0.0
 33
0.0
 16
1.0
 26
0.0
 36
0.0
 17
0.0
 27
1.0
 37
0.0
 76
     0
330
1F
331
29
  0
MLINESTYLE
  5
18
102
{ACAD_REACTORS
330
17
102
}
330
17
100
AcDbMlineStyle
  2
Standard
 70
     0
  3

 62
   256
 51
90.0
 52
90.0
 71
     2
 49
0.5
 62
   256
  6
BYLAYER
 49
-0.5
 62
   256
  6
BYLAYER
  0
ACDBPLACEHOLDER
  5
F
102
{ACAD_REACTORS
330
E
102
}
330
E
  0
ENDSEC
  0
EOF
