  0
SECTION
  2
HEADER
  9
$ACADVER
  1
AC1021
  9
$ACADMAINTVER
 70
    25
  9
$DWGCODEPAGE
  3
ANSI_1252
  9
$INSBASE
 10
0.0
 20
0.0
 30
0.0
  9
$EXTMIN
 10
0.0
 20
0.0
 30
0.0
  9
$EXTMAX
 10
841.0
 20
594.0
 30
0.0
  9
$LIMMIN
 10
0.0
 20
0.0
  9
$LIMMAX
 10
841.0
 20
594.0
  9
$ORTHOMODE
 70
     0
  9
$REGENMODE
 70
     1
  9
$FILLMODE
 70
     1
  9
$QTEXTMODE
 70
     0
  9
$MIRRTEXT
 70
     1
  9
$LTSCALE
 40
1.0
  9
$ATTMODE
 70
     1
  9
$TEXTSIZE
 40
3.5
  9
$TRACEWID
 40
1.0
  9
$TEXTSTYLE
  7
Standard
  9
$CLAYER
  8
0
  9
$CELTYPE
  6
ByLayer
  9
$CECOLOR
 62
   256
  9
$CELTSCALE
 40
1.0
  9
$DISPSILH
 70
     0
  9
$DIMSCALE
 40
1.0
  9
$DIMASZ
 40
3.302
  9
$DIMEXO
 40
1.0
  9
$DIMDLI
 40
3.75
  9
$DIMRND
 40
0.0
  9
$DIMDLE
 40
0.0
  9
$DIMEXE
 40
1.0
  9
$DIMTP
 40
0.0
  9
$DIMTM
 40
0.0
  9
$DIMTXT
 40
3.5
  9
$DIMCEN
 40
2.5
  9
$DIMTSZ
 40
0.0
  9
$DIMTOL
 70
     0
  9
$DIMLIM
 70
     0
  9
$DIMTIH
 70
     1
  9
$DIMTOH
 70
     1
  9
$DIMSE1
 70
     0
  9
$DIMSE2
 70
     0
  9
$DIMTAD
 70
     1
  9
$DIMZIN
 70
     0
  9
$DIMBLK
  1

  9
$DIMASO
 70
     1
  9
$DIMSHO
 70
     1
  9
$DIMPOST
  1

  9
$DIMAPOST
  1

  9
$DIMALT
 70
     0
  9
$DIMALTD
 70
     3
  9
$DIMALTF
 40
0.0393700787
  9
$DIMLFAC
 40
1.0
  9
$DIMTOFL
 70
     1
  9
$DIMTVP
 40
0.0
  9
$DIMTIX
 70
     0
  9
$DIMSOXD
 70
     0
  9
$DIMSAH
 70
     0
  9
$DIMBLK1
  1

  9
$DIMBLK2
  1

  9
$DIMSTYLE
  2
ISO-25
  9
$DIMCLRD
 70
     0
  9
$DIMCLRE
 70
     0
  9
$DIMCLRT
 70
     0
  9
$DIMTFAC
 40
1.0
  9
$DIMGAP
 40
1.524
  9
$DIMJUST
 70
     0
  9
$DIMSD1
 70
     0
  9
$DIMSD2
 70
     0
  9
$DIMTOLJ
 70
     0
  9
$DIMTZIN
 70
     0
  9
$DIMALTZ
 70
     0
  9
$DIMALTTZ
 70
     0
  9
$DIMUPT
 70
     0
  9
$DIMDEC
 70
     1
  9
$DIMTDEC
 70
     1
  9
$DIMALTU
 70
     2
  9
$DIMALTTD
 70
     3
  9
$DIMTXSTY
  7
Standard
  9
$DIMAUNIT
 70
     0
  9
$DIMADEC
 70
     1
  9
$DIMALTRND
 40
0.0
  9
$DIMAZIN
 70
     0
  9
$DIMDSEP
 70
    44
  9
$DIMATFIT
 70
     3
  9
$DIMFRAC
 70
     0
  9
$DIMLDRBLK
  1

  9
$DIMLUNIT
 70
     2
  9
$DIMLWD
 70
    -2
  9
$DIMLWE
 70
    -2
  9
$DIMTMOVE
 70
     0
  9
$DIMFXL
 40
1.0
  9
$DIMFXLON
 70
     0
  9
$DIMJOGANG
 40
0.7853981634
  9
$DIMTFILL
 70
     0
  9
$DIMTFILLCLR
 70
     0
  9
$DIMARCSYM
 70
     0
  9
$DIMLTYPE
  6

  9
$DIMLTEX1
  6

  9
$DIMLTEX2
  6

  9
$LUNITS
 70
     2
  9
$LUPREC
 70
     1
  9
$SKETCHINC
 40
1.0
  9
$FILLETRAD
 40
10.0
  9
$AUNITS
 70
     0
  9
$AUPREC
 70
     1
  9
$MENU
  1
.
  9
$ELEVATION
 40
0.0
  9
$PELEVATION
 40
0.0
  9
$THICKNESS
 40
0.0
  9
$LIMCHECK
 70
     0
  9
$CHAMFERA
 40
10.0
  9
$CHAMFERB
 40
10.0
  9
$CHAMFERC
 40
20.0
  9
$CHAMFERD
 40
0.0
  9
$SKPOLY
 70
     0
  9
$TDCREATE
 40
2455870.46500235
  9
$TDUCREATE
 40
2455870.46500235
  9
$TDUPDATE
 40
2455870.465002361
  9
$TDUUPDATE
 40
2455870.465002361
  9
$TDINDWG
 40
0.0000000116
  9
$TDUSRTIMER
 40
0.0000000116
  9
$USRTIMER
 70
     1
  9
$ANGBASE
 50
0.0
  9
$ANGDIR
 70
     0
  9
$PDMODE
 70
     0
  9
$PDSIZE
 40
-1.0
  9
$PLINEWID
 40
0.0
  9
$SPLFRAME
 70
     0
  9
$SPLINETYPE
 70
     6
  9
$SPLINESEGS
 70
     8
  9
$HANDSEED
  5
3A2
  9
$SURFTAB1
 70
     6
  9
$SURFTAB2
 70
     6
  9
$SURFTYPE
 70
     6
  9
$SURFU
 70
     6
  9
$SURFV
 70
     6
  9
$UCSBASE
  2

  9
$UCSNAME
  2

  9
$UCSORG
 10
0.0
 20
0.0
 30
0.0
  9
$UCSXDIR
 10
1.0
 20
0.0
 30
0.0
  9
$UCSYDIR
 10
0.0
 20
1.0
 30
0.0
  9
$UCSORTHOREF
  2

  9
$UCSORTHOVIEW
 70
     0
  9
$UCSORGTOP
 10
0.0
 20
0.0
 30
0.0
  9
$UCSORGBOTTOM
 10
0.0
 20
0.0
 30
0.0
  9
$UCSORGLEFT
 10
0.0
 20
0.0
 30
0.0
  9
$UCSORGRIGHT
 10
0.0
 20
0.0
 30
0.0
  9
$UCSORGFRONT
 10
0.0
 20
0.0
 30
0.0
  9
$UCSORGBACK
 10
0.0
 20
0.0
 30
0.0
  9
$PUCSBASE
  2

  9
$PUCSNAME
  2

  9
$PUCSORG
 10
0.0
 20
0.0
 30
0.0
  9
$PUCSXDIR
 10
1.0
 20
0.0
 30
0.0
  9
$PUCSYDIR
 10
0.0
 20
1.0
 30
0.0
  9
$PUCSORTHOREF
  2

  9
$PUCSORTHOVIEW
 70
     0
  9
$PUCSORGTOP
 10
0.0
 20
0.0
 30
0.0
  9
$PUCSORGBOTTOM
 10
0.0
 20
0.0
 30
0.0
  9
$PUCSORGLEFT
 10
0.0
 20
0.0
 30
0.0
  9
$PUCSORGRIGHT
 10
0.0
 20
0.0
 30
0.0
  9
$PUCSORGFRONT
 10
0.0
 20
0.0
 30
0.0
  9
$PUCSORGBACK
 10
0.0
 20
0.0
 30
0.0
  9
$USERI1
 70
     0
  9
$USERI2
 70
     0
  9
$USERI3
 70
     0
  9
$USERI4
 70
     0
  9
$USERI5
 70
     0
  9
$USERR1
 40
0.0
  9
$USERR2
 40
0.0
  9
$USERR3
 40
0.0
  9
$USERR4
 40
0.0
  9
$USERR5
 40
0.0
  9
$WORLDVIEW
 70
     1
  9
$SHADEDGE
 70
     3
  9
$SHADEDIF
 70
    70
  9
$TILEMODE
 70
     1
  9
$MAXACTVP
 70
    64
  9
$PINSBASE
 10
0.0
 20
0.0
 30
0.0
  9
$PLIMCHECK
 70
     0
  9
$PEXTMIN
 10
1.0000000000E+20
 20
1.0000000000E+20
 30
1.0000000000E+20
  9
$PEXTMAX
 10
-1.0000000000E+20
 20
-1.0000000000E+20
 30
-1.0000000000E+20
  9
$PLIMMIN
 10
0.0
 20
0.0
  9
$PLIMMAX
 10
420.0
 20
297.0
  9
$UNITMODE
 70
     0
  9
$VISRETAIN
 70
     1
  9
$PLINEGEN
 70
     0
  9
$PSLTSCALE
 70
     1
  9
$TREEDEPTH
 70
  3020
  9
$CMLSTYLE
  2
Standard
  9
$CMLJUST
 70
     0
  9
$CMLSCALE
 40
20.0
  9
$PROXYGRAPHICS
 70
     1
  9
$MEASUREMENT
 70
     1
  9
$CELWEIGHT
370
    -1
  9
$ENDCAPS
280
     0
  9
$JOINSTYLE
280
     0
  9
$LWDISPLAY
290
     1
  9
$INSUNITS
 70
     4
  9
$HYPERLINKBASE
  1

  9
$STYLESHEET
  1

  9
$XEDIT
290
     1
  9
$CEPSNTYPE
380
     0
  9
$PSTYLEMODE
290
     1
  9
$FINGERPRINTGUID
  2
{548BAC8C-15D9-4A78-B56C-88E6364C4CAD}
  9
$VERSIONGUID
  2
{FAEB1C32-E019-11D5-929B-00C0DF256EC4}
  9
$EXTNAMES
290
     1
  9
$PSVPSCALE
 40
0.0
  9
$OLESTARTUP
290
     0
  9
$SORTENTS
280
   127
  9
$INDEXCTL
280
     0
  9
$HIDETEXT
280
     1
  9
$XCLIPFRAME
290
     0
  9
$HALOGAP
280
     0
  9
$OBSCOLOR
 70
   257
  9
$OBSLTYPE
280
     0
  9
$INTERSECTIONDISPLAY
280
     0
  9
$INTERSECTIONCOLOR
 70
   257
  9
$DIMASSOC
280
     2
  9
$PROJECTNAME
  1

  9
$CAMERADISPLAY
290
     0
  9
$LENSLENGTH
 40
50.0
  9
$CAMERAHEIGHT
 40
0.0
  9
$STEPSPERSEC
 40
2.0
  9
$STEPSIZE
 40
6.0
  9
$3DDWFPREC
 40
2.0
  9
$PSOLWIDTH
 40
5.0
  9
$PSOLHEIGHT
 40
80.0
  9
$LOFTANG1
 40
1.5707963268
  9
$LOFTANG2
 40
1.5707963268
  9
$LOFTMAG1
 40
0.0
  9
$LOFTMAG2
 40
0.0
  9
$LOFTPARAM
 70
     7
  9
$LOFTNORMALS
280
     1
  9
$LATITUDE
 40
37.795
  9
$LONGITUDE
 40
-122.394
  9
$NORTHDIRECTION
 40
0.0
  9
$TIMEZONE
 70
 -8000
  9
$LIGHTGLYPHDISPLAY
280
     1
  9
$TILEMODELIGHTSYNCH
280
     1
  9
$SOLIDHIST
280
     1
  9
$SHOWHIST
280
     1
  9
$DWFFRAME
280
     2
  9
$DGNFRAME
280
     2
  9
$REALWORLDSCALE
290
     1
  9
$INTERFERECOLOR
 62
   256
  9
$CSHADOW
280
     0
  9
$SHADOWPLANELOCATION
 40
0.0
  0
ENDSEC
  0
SECTION
  2
CLASSES
  0
CLASS
  1
ACDBDICTIONARYWDFLT
  2
AcDbDictionaryWithDefault
  3
ObjectDBX Classes
 90
        0
 91
        4
280
     0
281
     0
  0
CLASS
  1
VISUALSTYLE
  2
AcDbVisualStyle
  3
ObjectDBX Classes
 90
     4095
 91
        4
280
     0
281
     0
  0
CLASS
  1
MATERIAL
  2
AcDbMaterial
  3
ObjectDBX Classes
 90
     1153
 91
        4
280
     0
281
     0
  0
ENDSEC
  0
SECTION
  2
TABLES
  0
TABLE
  2
VPORT
  5
8
330
0
100
AcDbSymbolTable
 70
     1
  0
VPORT
  5
29
330
8
100
AcDbSymbolTableRecord
100
AcDbViewportTableRecord
  2
*Active
 70
     0
 10
0.0
 20
0.0
 11
1.0
 21
1.0
 12
420.5
 22
297.0
 13
0.0
 23
0.0
 14
10.0
 24
10.0
 15
10.0
 25
10.0
 16
0.0
 26
0.0
 36
1.0
 17
0.0
 27
0.0
 37
0.0
 40
594.0
 41
1.4158249158
 42
50.0
 43
0.0
 44
0.0
 50
0.0
 51
0.0
 71
     0
 72
  2000
 73
     1
 74
     3
 75
     0
 76
     0
 77
     0
 78
     0
281
     0
 65
     1
110
0.0
120
0.0
130
0.0
111
1.0
121
0.0
131
0.0
112
0.0
122
1.0
132
0.0
 79
     0
146
0.0
 60
     3
 61
     5
292
     1
282
     1
141
0.0
142
0.0
 63
   250
  0
ENDTAB
  0
TABLE
  2
LTYPE
  5
5
330
0
100
AcDbSymbolTable
 70
     6
  0
LTYPE
  5
14
330
5
100
AcDbSymbolTableRecord
100
AcDbLinetypeTableRecord
  2
ByBlock
 70
     0
  3

 72
    65
 73
     0
 40
0.0
  0
LTYPE
  5
15
330
5
100
AcDbSymbolTableRecord
100
AcDbLinetypeTableRecord
  2
ByLayer
 70
     0
  3

 72
    65
 73
     0
 40
0.0
  0
LTYPE
  5
16
330
5
100
AcDbSymbolTableRecord
100
AcDbLinetypeTableRecord
  2
Continuous
 70
     0
  3
Solid line
 72
    65
 73
     0
 40
0.0
  0
LTYPE
  5
3F
330
5
100
AcDbSymbolTableRecord
100
AcDbLinetypeTableRecord
  2
HIDDEN
 70
     0
  3
Hidden __ __ __ __ __ __ __ __ __ __ __ __ __ __
 72
    65
 73
     2
 40
1.905
 49
1.27
 74
     0
 49
-0.635
 74
     0
  0
LTYPE
  5
40
330
5
100
AcDbSymbolTableRecord
100
AcDbLinetypeTableRecord
  2
PHANTOM
 70
     0
  3
Phantom ______  __  __  ______  __  __  ______
 72
    65
 73
     6
 40
12.7
 49
6.35
 74
     0
 49
-1.27
 74
     0
 49
1.27
 74
     0
 49
-1.27
 74
     0
 49
1.27
 74
     0
 49
-1.27
 74
     0
  0
LTYPE
  5
41
330
5
100
AcDbSymbolTableRecord
100
AcDbLinetypeTableRecord
  2
CENTER
 70
     0
  3
Center ____ _ ____ _ ____ _ ____ _ ____ _ ____
 72
    65
 73
     4
 40
10.16
 49
6.35
 74
     0
 49
-1.27
 74
     0
 49
1.27
 74
     0
 49
-1.27
 74
     0
  0
LTYPE
  5
42
330
5
100
AcDbSymbolTableRecord
100
AcDbLinetypeTableRecord
  2
CENTERX2
 70
     0
  3
Center (2x) ________  __  ________  __  _____
 72
    65
 73
     4
 40
20.32
 49
12.7
 74
     0
 49
-2.54
 74
     0
 49
2.54
 74
     0
 49
-2.54
 74
     0
  0
LTYPE
  5
43
330
5
100
AcDbSymbolTableRecord
100
AcDbLinetypeTableRecord
  2
DOT2
 70
     0
  3
Dot (.5x) ........................................
 72
    65
 73
     2
 40
0.635
 49
0.0
 74
     0
 49
-0.635
 74
     0
  0
ENDTAB
  0
TABLE
  2
LAYER
  5
2
330
0
100
AcDbSymbolTable
 70
     4
  0
LAYER
  5
10
330
2
100
AcDbSymbolTableRecord
100
AcDbLayerTableRecord
  2
0
 70
     0
 62
     7
  6
Continuous
370
    -3
390
F
347
3E
  0
LAYER
  5
44
330
2
100
AcDbSymbolTableRecord
100
AcDbLayerTableRecord
  2
FORMAT
 70
     0
 62
     7
  6
Continuous
370
    -3
390
F
347
3E
  0
LAYER
  5
45
330
2
100
AcDbSymbolTableRecord
100
AcDbLayerTableRecord
  2
SLD-0
 70
     0
 62
     1
  6
Continuous
370
    -3
390
F
347
3E
  0
LAYER
  5
46
330
2
100
AcDbSymbolTableRecord
100
AcDbLayerTableRecord
  2
WATERMARK
 70
     0
 62
     1
  6
Continuous
370
    -3
390
F
347
3E
  0
ENDTAB
  0
TABLE
  2
STYLE
  5
3
330
0
100
AcDbSymbolTable
 70
     1
  0
STYLE
  5
11
330
3
100
AcDbSymbolTableRecord
100
AcDbTextStyleTableRecord
  2
Standard
 70
     0
 40
0.0
 41
1.0
 50
0.0
 71
     0
 42
2.5
  3
txt
  4

  0
ENDTAB
  0
TABLE
  2
VIEW
  5
6
330
0
100
AcDbSymbolTable
 70
     0
  0
ENDTAB
  0
TABLE
  2
UCS
  5
7
330
0
100
AcDbSymbolTable
 70
     0
  0
ENDTAB
  0
TABLE
  2
APPID
  5
9
330
0
100
AcDbSymbolTable
 70
     1
  0
APPID
  5
12
330
9
100
AcDbSymbolTableRecord
100
AcDbRegAppTableRecord
  2
ACAD
 70
     0
  0
ENDTAB
  0
TABLE
  2
DIMSTYLE
  5
A
330
0
100
AcDbSymbolTable
 70
     1
100
AcDbDimStyleTable
  0
DIMSTYLE
105
27
330
A
100
AcDbSymbolTableRecord
100
AcDbDimStyleTableRecord
  2
ISO-25
 70
     0
 41
2.5
 42
0.625
 43
3.75
 44
1.25
 73
     0
 74
     0
 77
     1
 78
     8
140
2.5
141
2.5
143
0.0393700787
147
0.625
171
     3
172
     1
178
     0
271
     2
272
     2
274
     3
278
    44
283
     0
284
     8
340
11
  0
ENDTAB
  0
TABLE
  2
BLOCK_RECORD
  5
1
330
0
100
AcDbSymbolTable
 70
     1
  0
BLOCK_RECORD
  5
1F
330
1
100
AcDbSymbolTableRecord
100
AcDbBlockTableRecord
  2
*Model_Space
340
22
 70
     0
280
     1
281
     0
  0
BLOCK_RECORD
  5
1B
330
1
100
AcDbSymbolTableRecord
100
AcDbBlockTableRecord
  2
*Paper_Space
340
1E
 70
     0
280
     1
281
     0
  0
BLOCK_RECORD
  5
23
330
1
100
AcDbSymbolTableRecord
100
AcDbBlockTableRecord
  2
*Paper_Space0
340
26
 70
     0
280
     1
281
     0
  0
ENDTAB
  0
ENDSEC
  0
SECTION
  2
BLOCKS
  0
BLOCK
  5
20
330
1F
100
AcDbEntity
  8
0
100
AcDbBlockBegin
  2
*Model_Space
 70
     0
 10
0.0
 20
0.0
 30
0.0
  3
*Model_Space
  1

  0
ENDBLK
  5
21
330
1F
100
AcDbEntity
  8
0
100
AcDbBlockEnd
  0
BLOCK
  5
1C
330
1B
100
AcDbEntity
 67
     1
  8
0
100
AcDbBlockBegin
  2
*Paper_Space
 70
     0
 10
0.0
 20
0.0
 30
0.0
  3
*Paper_Space
  1

  0
ENDBLK
  5
1D
330
1B
100
AcDbEntity
 67
     1
  8
0
100
AcDbBlockEnd
  0
BLOCK
  5
24
330
23
100
AcDbEntity
  8
0
100
AcDbBlockBegin
  2
*Paper_Space0
 70
     0
 10
0.0
 20
0.0
 30
0.0
  3
*Paper_Space0
  1

  0
ENDBLK
  5
25
330
23
100
AcDbEntity
  8
0
100
AcDbBlockEnd
  0
ENDSEC
  0
SECTION
  2
ENTITIES
  0
ARC
  5
47
330
1F
100
AcDbEntity
  8
0
  6
Continuous
 62
     7
370
    15
100
AcDbCircle
 10
241.492856451
 20
224.2018932038
 30
0.0
 40
0.4999999999999432
100
AcDbArc
 50
4.9999999999
 51
90.0
  0
ARC
  5
48
330
1F
100
AcDbEntity
  8
0
  6
Continuous
 62
     7
370
    15
100
AcDbCircle
 10
255.4027746172
 20
224.2018932038
 30
0.0
 40
0.4999999999999432
100
AcDbArc
 50
90.0
 51
175.0000000001
  0
LINE
  5
49
330
1F
100
AcDbEntity
  8
0
  6
Continuous
 62
     7
370
    15
100
AcDbLine
 10
241.9909538
 20
224.2454710752
 30
0.0
 11
242.0371238891
 21
223.7177445416
 31
0.0
  0
LINE
  5
4A
330
1F
100
AcDbEntity
  8
0
  6
Continuous
 62
     7
370
    15
100
AcDbLine
 10
254.858507179
 20
223.7177445416
 30
0.0
 11
254.9046772682
 21
224.2454710752
 31
0.0
  0
LINE
  5
4B
330
1F
100
AcDbEntity
  8
0
  6
Continuous
 62
     7
370
    15
100
AcDbLine
 10
242.0371238892
 20
223.7177445416
 30
0.0
 11
243.12047433
 21
222.8087055863
 31
0.0
  0
LINE
  5
4C
330
1F
100
AcDbEntity
  8
0
  6
Continuous
 62
     7
370
    15
100
AcDbLine
 10
253.7751567382
 20
222.8087055863
 30
0.0
 11
254.858507179
 21
223.7177445416
 31
0.0
  0
LINE
  5
4D
330
1F
100
AcDbEntity
  8
0
  6
Continuous
 62
     7
370
    15
100
AcDbLine
 10
242.2114353748
 20
221.7253551455
 30
0.0
 11
243.2947858156
 21
220.8163161902
 31
0.0
  0
LINE
  5
4E
330
1F
100
AcDbEntity
  8
0
  6
Continuous
 62
     7
370
    15
100
AcDbLine
 10
253.6008452526
 20
220.8163161902
 30
0.0
 11
254.6841956934
 21
221.7253551455
 31
0.0
  0
LINE
  5
4F
330
1F
100
AcDbEntity
  8
0
  6
Continuous
 62
     7
370
    15
100
AcDbLine
 10
254.6841956935
 20
221.7253551455
 30
0.0
 11
253.7751567382
 21
222.8087055863
 31
0.0
  0
LINE
  5
50
330
1F
100
AcDbEntity
  8
0
  6
Continuous
 62
     7
370
    15
100
AcDbLine
 10
243.12047433
 20
222.8087055863
 30
0.0
 11
242.2114353747
 21
221.7253551455
 31
0.0
  0
LINE
  5
51
330
1F
100
AcDbEntity
  8
0
  6
Continuous
 62
     7
370
    15
100
AcDbLine
 10
242.3857468602
 20
219.7329657493
 30
0.0
 11
243.469097301
 21
218.823926794
 31
0.0
  0
LINE
  5
52
330
1F
100
AcDbEntity
  8
0
  6
Continuous
 62
     7
370
    15
100
AcDbLine
 10
253.4265337672
 20
218.823926794
 30
0.0
 11
254.509884208
 21
219.7329657493
 31
0.0
  0
LINE
  5
53
330
1F
100
AcDbEntity
  8
0
  6
Continuous
 62
     7
370
    15
100
AcDbLine
 10
254.509884208
 20
219.7329657493
 30
0.0
 11
253.6008452526
 21
220.8163161902
 31
0.0
  0
LINE
  5
54
330
1F
100
AcDbEntity
  8
0
  6
Continuous
 62
     7
370
    15
100
AcDbLine
 10
243.2947858155
 20
220.8163161902
 30
0.0
 11
242.3857468602
 21
219.7329657493
 31
0.0
  0
LINE
  5
55
330
1F
100
AcDbEntity
  8
0
  6
Continuous
 62
     7
370
    15
100
AcDbLine
 10
242.5600583457
 20
217.7405763531
 30
0.0
 11
243.6434087865
 21
216.8315373978
 31
0.0
  0
LINE
  5
56
330
1F
100
AcDbEntity
  8
0
  6
Continuous
 62
     7
370
    15
100
AcDbLine
 10
253.2522222817
 20
216.8315373978
 30
0.0
 11
254.3355727225
 21
217.7405763531
 31
0.0
  0
LINE
  5
57
330
1F
100
AcDbEntity
  8
0
  6
Continuous
 62
     7
370
    15
100
AcDbLine
 10
254.3355727226
 20
217.7405763531
 30
0.0
 11
253.4265337672
 21
218.823926794
 31
0.0
  0
LINE
  5
58
330
1F
100
AcDbEntity
  8
0
  6
Continuous
 62
     7
370
    15
100
AcDbLine
 10
243.469097301
 20
218.823926794
 30
0.0
 11
242.5600583456
 21
217.7405763531
 31
0.0
  0
LINE
  5
59
330
1F
100
AcDbEntity
  8
0
  6
Continuous
 62
     7
370
    15
100
AcDbLine
 10
236.3234598811
 20
225.4970779319
 30
0.0
 11
237.9478155341
 21
224.7018932038
 31
0.0
  0
LINE
  5
5A
330
1F
100
AcDbEntity
  8
0
  6
Continuous
 62
     7
370
    15
100
AcDbLine
 10
258.9478155341
 20
224.7018932038
 30
0.0
 11
260.5721711739
 21
225.4970779255
 31
0.0
  0
LINE
  5
5B
330
1F
100
AcDbEntity
  8
0
  6
Continuous
 62
     7
370
    15
100
AcDbLine
 10
378.747815534
 20
1157.0162329631
 30
0.0
 11
378.747815534
 21
1170.7118932039
 31
0.0
  0
LINE
  5
5C
330
1F
100
AcDbEntity
  8
0
  6
Continuous
 62
     7
370
    15
100
AcDbLine
 10
378.747815534
 20
1138.0118932039
 30
0.0
 11
378.747815534
 21
1152.5870326454
 31
0.0
  0
LINE
  5
5D
330
1F
100
AcDbEntity
  8
0
  6
Continuous
 62
     7
370
    15
100
AcDbLine
 10
356.747815534
 20
1152.6005571084
 30
0.0
 11
356.747815534
 21
1138.0118932039
 31
0.0
  0
LINE
  5
5E
330
1F
100
AcDbEntity
  8
0
  6
Continuous
 62
     7
370
    15
100
AcDbLine
 10
356.747815534
 20
1170.7118932039
 30
0.0
 11
356.747815534
 21
1156.9800590409
 31
0.0
  0
LINE
  5
5F
330
1F
100
AcDbEntity
  8
0
  6
Continuous
 62
     7
370
    15
100
AcDbLine
 10
77.447815534
 20
-313.4881067962
 30
0.0
 11
77.447815534
 21
-313.9881067962
 31
0.0
  0
LWPOLYLINE
  5
60
330
1F
100
AcDbEntity
  8
0
  6
Continuous
 62
     7
370
    15
100
AcDbPolyline
 90
        3
 70
   128
 43
0.0
 10
223.297815534
 20
-311.5881067962
 10
223.2920511181
 20
-311.5295796996
 10
223.2806582465
 20
-311.4881067961
  0
LWPOLYLINE
  5
61
330
1F
100
AcDbEntity
  8
0
  6
Continuous
 62
     7
370
    15
100
AcDbPolyline
 90
        3
 70
   128
 43
0.0
 10
213.6149728215
 20
-311.4881067961
 10
213.6035799499
 20
-311.5295796996
 10
213.597815534
 20
-311.5881067962
  0
ARC
  5
62
330
1F
100
AcDbEntity
  8
0
  6
Continuous
 62
     7
370
    15
100
AcDbCircle
 10
222.997815534
 20
-311.9881067962
 30
0.0
 40
0.3000000000000114
100
AcDbArc
 50
270.0
 51
0.0
  0
ARC
  5
63
330
1F
100
AcDbEntity
  8
0
  6
Continuous
 62
     7
370
    15
100
AcDbCircle
 10
213.897815534
 20
-311.9881067962
 30
0.0
 40
0.3000000000000398
100
AcDbArc
 50
180.0
 51
270.0
  0
LINE
  5
64
330
1F
100
AcDbEntity
  8
0
  6
Continuous
 62
     7
370
    15
100
AcDbLine
 10
223.297815534
 20
-311.9881067962
 30
0.0
 11
223.297815534
 21
-311.5881067962
 31
0.0
  0
LINE
  5
65
330
1F
100
AcDbEntity
  8
0
  6
Continuous
 62
     7
370
    15
100
AcDbLine
 10
213.597815534
 20
-311.5881067962
 30
0.0
 11
213.597815534
 21
-311.9881067962
 31
0.0
  0
LINE
  5
66
330
1F
100
AcDbEntity
  8
0
  6
Continuous
 62
     7
370
    15
100
AcDbLine
 10
222.447815534
 20
-313.9881067962
 30
0.0
 11
222.447815534
 21
-313.4881067962
 31
0.0
  0
LINE
  5
67
330
1F
100
AcDbEntity
  8
0
  6
Continuous
 62
     7
370
    15
100
AcDbLine
 10
214.447815534
 20
-313.4881067962
 30
0.0
 11
214.447815534
 21
-313.9881067962
 31
0.0
  0
ARC
  5
68
330
1F
100
AcDbEntity
  8
0
  6
Continuous
 62
     7
370
    15
100
AcDbCircle
 10
238.1483770842
 20
703.0256825781
 30
0.0
 40
4.99999999999998
100
AcDbArc
 50
287.6399304426
 51
359.9577691762
  0
ARC
  5
69
330
1F
100
AcDbEntity
  8
0
  6
Continuous
 62
     7
370
    15
100
AcDbCircle
 10
238.1483770842
 20
718.3981038296
 30
0.0
 40
5.000000000000038
100
AcDbArc
 50
0.0627249056
 51
72.3652311741
  0
LINE
  5
6A
330
1F
100
AcDbEntity
  8
0
  6
Continuous
 62
     7
370
    15
100
AcDbLine
 10
109.8121972453
 20
674.1661686426
 30
0.0
 11
113.1722230384
 21
683.393457151
 31
0.0
  0
LINE
  5
6B
330
1F
100
AcDbEntity
  8
0
  6
Continuous
 62
     7
370
    15
100
AcDbLine
 10
74.2259040643
 20
683.2218308067
 30
0.0
 11
77.5842679218
 21
673.9991062989
 31
0.0
  0
LINE
  5
6C
330
1F
100
AcDbEntity
  8
0
  6
Continuous
 62
     7
370
    15
100
AcDbLine
 10
74.1634829657
 20
683.3932513617
 30
0.0
 11
74.2259040643
 21
683.2218308067
 31
0.0
  0
LINE
  5
6D
330
1F
100
AcDbEntity
  8
0
  6
Continuous
 62
     7
370
    15
100
AcDbLine
 10
641.6178155344
 20
1086.0118932038
 30
0.0
 11
642.1178155344
 21
1085.5118932038
 31
0.0
  0
LINE
  5
6E
330
1F
100
AcDbEntity
  8
0
  6
Continuous
 62
     7
370
    15
100
AcDbLine
 10
658.1178155344
 20
1085.5118932038
 30
0.0
 11
658.6178155344
 21
1086.0118932038
 31
0.0
  0
LINE
  5
6F
330
1F
100
AcDbEntity
  8
0
  6
Continuous
 62
     7
370
    15
100
AcDbLine
 10
658.6178155344
 20
1086.0118932038
 30
0.0
 11
658.6178155344
 21
1087.5118932038
 31
0.0
  0
LINE
  5
70
330
1F
100
AcDbEntity
  8
0
  6
Continuous
 62
     7
370
    15
100
AcDbLine
 10
641.6178155344
 20
1087.5118932038
 30
0.0
 11
641.6178155344
 21
1086.0118932038
 31
0.0
  0
LINE
  5
71
330
1F
100
AcDbEntity
  8
0
  6
Continuous
 62
     7
370
    15
100
AcDbLine
 10
658.6178155344
 20
1087.5118932038
 30
0.0
 11
658.1178155344
 21
1088.0118932038
 31
0.0
  0
LINE
  5
72
330
1F
100
AcDbEntity
  8
0
  6
Continuous
 62
     7
370
    15
100
AcDbLine
 10
642.1178155344
 20
1088.0118932038
 30
0.0
 11
641.6178155344
 21
1087.5118932038
 31
0.0
  0
LINE
  5
73
330
1F
100
AcDbEntity
  8
0
  6
Continuous
 62
     7
370
    15
100
AcDbLine
 10
641.617815534
 20
-311.9881067961
 30
0.0
 11
641.617815534
 21
-313.3881067978
 31
0.0
  0
LINE
  5
74
330
1F
100
AcDbEntity
  8
0
  6
Continuous
 62
     7
370
    15
100
AcDbLine
 10
658.617815534
 20
-313.3881067978
 30
0.0
 11
658.617815534
 21
-311.9881067961
 31
0.0
  0
LINE
  5
75
330
1F
100
AcDbEntity
  8
0
  6
Continuous
 62
     7
370
    15
100
AcDbLine
 10
658.617815534
 20
-311.9881067961
 30
0.0
 11
658.117815534
 21
-311.4881067961
 31
0.0
  0
LINE
  5
76
330
1F
100
AcDbEntity
  8
0
  6
Continuous
 62
     7
370
    15
100
AcDbLine
 10
642.117815534
 20
-311.4881067961
 30
0.0
 11
641.617815534
 21
-311.9881067961
 31
0.0
  0
LINE
  5
77
330
1F
100
AcDbEntity
  8
0
  6
Continuous
 62
     7
370
    15
100
AcDbLine
 10
658.617815534
 20
213.0118932039
 30
0.0
 11
658.617815534
 21
214.5118932039
 31
0.0
  0
LINE
  5
78
330
1F
100
AcDbEntity
  8
0
  6
Continuous
 62
     7
370
    15
100
AcDbLine
 10
641.617815534
 20
214.5118932039
 30
0.0
 11
641.617815534
 21
213.0118932039
 31
0.0
  0
LINE
  5
79
330
1F
100
AcDbEntity
  8
0
  6
Continuous
 62
     7
370
    15
100
AcDbLine
 10
641.617815534
 20
213.0118932039
 30
0.0
 11
641.917815534
 21
212.7118932039
 31
0.0
  0
LINE
  5
7A
330
1F
100
AcDbEntity
  8
0
  6
Continuous
 62
     7
370
    15
100
AcDbLine
 10
658.117815534
 20
212.5118932039
 30
0.0
 11
658.617815534
 21
213.0118932039
 31
0.0
  0
LINE
  5
7B
330
1F
100
AcDbEntity
  8
0
  6
Continuous
 62
     7
370
    15
100
AcDbLine
 10
658.617815534
 20
214.5118932039
 30
0.0
 11
658.117815534
 21
215.0118932039
 31
0.0
  0
LINE
  5
7C
330
1F
100
AcDbEntity
  8
0
  6
Continuous
 62
     7
370
    15
100
AcDbLine
 10
642.117815534
 20
215.0118932039
 30
0.0
 11
641.617815534
 21
214.5118932039
 31
0.0
  0
LINE
  5
7D
330
1F
100
AcDbEntity
  8
0
  6
Continuous
 62
     7
370
    15
100
AcDbLine
 10
658.617815534
 20
225.0118932038
 30
0.0
 11
658.117815534
 21
225.5118932038
 31
0.0
  0
LINE
  5
7E
330
1F
100
AcDbEntity
  8
0
  6
Continuous
 62
     7
370
    15
100
AcDbLine
 10
642.117815534
 20
225.5118932038
 30
0.0
 11
641.617815534
 21
225.0118932038
 31
0.0
  0
LINE
  5
7F
330
1F
100
AcDbEntity
  8
0
  6
Continuous
 62
     7
370
    15
100
AcDbLine
 10
641.617815534
 20
223.5118932038
 30
0.0
 11
642.117815534
 21
223.0118932038
 31
0.0
  0
LINE
  5
80
330
1F
100
AcDbEntity
  8
0
  6
Continuous
 62
     7
370
    15
100
AcDbLine
 10
658.117815534
 20
223.0118932038
 30
0.0
 11
658.617815534
 21
223.5118932038
 31
0.0
  0
LINE
  5
81
330
1F
100
AcDbEntity
  8
0
  6
Continuous
 62
     7
370
    15
100
AcDbLine
 10
641.617815534
 20
225.0118932038
 30
0.0
 11
641.617815534
 21
223.5118932038
 31
0.0
  0
LINE
  5
82
330
1F
100
AcDbEntity
  8
0
  6
Continuous
 62
     7
370
    15
100
AcDbLine
 10
658.617815534
 20
223.5118932038
 30
0.0
 11
658.617815534
 21
225.0118932038
 31
0.0
  0
LINE
  5
83
330
1F
100
AcDbEntity
  8
0
  6
Continuous
 62
     7
370
    15
100
AcDbLine
 10
578.647815534
 20
-316.4881067962
 30
0.0
 11
578.647815534
 21
-315.9881067962
 31
0.0
  0
LINE
  5
84
330
1F
100
AcDbEntity
  8
0
  6
Continuous
 62
     7
370
    15
100
AcDbLine
 10
568.247815534
 20
-315.9881067962
 30
0.0
 11
568.247815534
 21
-316.4881067962
 31
0.0
  0
LINE
  5
85
330
1F
100
AcDbEntity
  8
0
  6
Continuous
 62
     7
370
    15
100
AcDbLine
 10
648.647815534
 20
-316.4881067962
 30
0.0
 11
648.647815534
 21
-316.3881067978
 31
0.0
  0
LINE
  5
86
330
1F
100
AcDbEntity
  8
0
  6
Continuous
 62
     7
370
    15
100
AcDbLine
 10
638.247815534
 20
-315.9881067962
 30
0.0
 11
638.247815534
 21
-316.4881067962
 31
0.0
  0
ARC
  5
87
330
1F
100
AcDbEntity
  8
0
  6
Continuous
 62
     7
370
    15
100
AcDbCircle
 10
169.347815534
 20
-313.2381067962
 30
0.0
 40
0.5
100
AcDbArc
 50
0.0
 51
90.0
  0
ARC
  5
88
330
1F
100
AcDbEntity
  8
0
  6
Continuous
 62
     7
370
    15
100
AcDbCircle
 10
157.547815534
 20
-313.2381067962
 30
0.0
 40
0.5
100
AcDbArc
 50
90.0
 51
180.0
  0
ARC
  5
89
330
1F
100
AcDbEntity
  8
0
  6
Continuous
 62
     7
370
    15
100
AcDbCircle
 10
169.347815534
 20
-313.4881067962
 30
0.0
 40
0.5
100
AcDbArc
 50
270.0
 51
0.0
  0
ARC
  5
8A
330
1F
100
AcDbEntity
  8
0
  6
Continuous
 62
     7
370
    15
100
AcDbCircle
 10
157.547815534
 20
-313.4881067962
 30
0.0
 40
0.5
100
AcDbArc
 50
180.0
 51
270.0
  0
LINE
  5
8B
330
1F
100
AcDbEntity
  8
0
  6
Continuous
 62
     7
370
    15
100
AcDbLine
 10
169.847815534
 20
-313.4881067962
 30
0.0
 11
169.847815534
 21
-313.2381067962
 31
0.0
  0
LINE
  5
8C
330
1F
100
AcDbEntity
  8
0
  6
Continuous
 62
     7
370
    15
100
AcDbLine
 10
157.047815534
 20
-313.2381067962
 30
0.0
 11
157.047815534
 21
-313.4881067962
 31
0.0
  0
ARC
  5
8D
330
1F
100
AcDbEntity
  8
0
  6
Continuous
 62
     7
370
    15
100
AcDbCircle
 10
168.647815534
 20
-312.2381067962
 30
0.0
 40
0.5000000000000568
100
AcDbArc
 50
180.0
 51
270.0
  0
ARC
  5
8E
330
1F
100
AcDbEntity
  8
0
  6
Continuous
 62
     7
370
    15
100
AcDbCircle
 10
158.247815534
 20
-312.2381067962
 30
0.0
 40
0.5000000000000568
100
AcDbArc
 50
270.0
 51
0.0
  0
LINE
  5
8F
330
1F
100
AcDbEntity
  8
0
  6
Continuous
 62
     7
370
    15
100
AcDbLine
 10
168.147815534
 20
-312.2381067962
 30
0.0
 11
168.147815534
 21
-311.4881067961
 31
0.0
  0
LINE
  5
90
330
1F
100
AcDbEntity
  8
0
  6
Continuous
 62
     7
370
    15
100
AcDbLine
 10
158.747815534
 20
-311.4881067961
 30
0.0
 11
158.747815534
 21
-312.2381067962
 31
0.0
  0
LINE
  5
91
330
1F
100
AcDbEntity
  8
0
  6
Continuous
 62
     7
370
    15
100
AcDbLine
 10
98.647815534
 20
-316.4881067962
 30
0.0
 11
98.647815534
 21
-315.9881067962
 31
0.0
  0
LINE
  5
92
330
1F
100
AcDbEntity
  8
0
  6
Continuous
 62
     7
370
    15
100
AcDbLine
 10
88.247815534
 20
-315.9881067962
 30
0.0
 11
88.247815534
 21
-316.4881067962
 31
0.0
  0
LINE
  5
93
330
1F
100
AcDbEntity
  8
0
  6
Continuous
 62
     7
370
    15
100
AcDbLine
 10
88.647815534
 20
-313.9881067962
 30
0.0
 11
88.647815534
 21
-313.4881067962
 31
0.0
  0
LINE
  5
94
330
1F
100
AcDbEntity
  8
0
  6
Continuous
 62
     7
370
    15
100
AcDbLine
 10
78.247815534
 20
-313.4881067962
 30
0.0
 11
78.247815534
 21
-313.9881067962
 31
0.0
  0
LINE
  5
95
330
1F
100
AcDbEntity
  8
0
  6
Continuous
 62
     7
370
    15
100
AcDbLine
 10
101.647815534
 20
-313.9881067962
 30
0.0
 11
101.647815534
 21
-313.4881067962
 31
0.0
  0
LINE
  5
96
330
1F
100
AcDbEntity
  8
0
  6
Continuous
 62
     7
370
    15
100
AcDbLine
 10
91.247815534
 20
-313.4881067962
 30
0.0
 11
91.247815534
 21
-313.9881067962
 31
0.0
  0
LINE
  5
97
330
1F
100
AcDbEntity
  8
0
  6
Continuous
 62
     7
370
    15
100
AcDbLine
 10
174.447815534
 20
-486.4881067962
 30
0.0
 11
174.447815534
 21
-484.4881067962
 31
0.0
  0
LINE
  5
98
330
1F
100
AcDbEntity
  8
0
  6
Continuous
 62
     7
370
    15
100
AcDbLine
 10
82.447815534
 20
-484.4881067962
 30
0.0
 11
82.447815534
 21
-486.4881067962
 31
0.0
  0
LINE
  5
99
330
1F
100
AcDbEntity
  8
0
  6
Continuous
 62
     7
370
    15
100
AcDbLine
 10
654.447815534
 20
-486.4881067961
 30
0.0
 11
654.447815534
 21
-484.4881067961
 31
0.0
  0
LINE
  5
9A
330
1F
100
AcDbEntity
  8
0
  6
Continuous
 62
     7
370
    15
100
AcDbLine
 10
562.447815534
 20
-484.4881067961
 30
0.0
 11
562.447815534
 21
-486.4881067961
 31
0.0
  0
LINE
  5
9B
330
1F
100
AcDbEntity
  8
0
  6
Continuous
 62
     7
370
    15
100
AcDbLine
 10
636.747815534
 20
-484.4881067961
 30
0.0
 11
636.747815534
 21
-412.4881067961
 31
0.0
  0
LINE
  5
9C
330
1F
100
AcDbEntity
  8
0
  6
Continuous
 62
     7
370
    15
100
AcDbLine
 10
580.147815534
 20
-412.4881067961
 30
0.0
 11
580.147815534
 21
-484.4881067961
 31
0.0
  0
LINE
  5
9D
330
1F
100
AcDbEntity
  8
0
  6
Continuous
 62
     7
370
    15
100
AcDbLine
 10
156.747815534
 20
-484.4881067962
 30
0.0
 11
156.747815534
 21
-412.4881067962
 31
0.0
  0
LINE
  5
9E
330
1F
100
AcDbEntity
  8
0
  6
Continuous
 62
     7
370
    15
100
AcDbLine
 10
100.147815534
 20
-412.4881067962
 30
0.0
 11
100.147815534
 21
-484.4881067962
 31
0.0
  0
ARC
  5
9F
330
1F
100
AcDbEntity
  8
0
  6
Continuous
 62
     7
370
    15
100
AcDbCircle
 10
641.847815534
 20
-319.9881067961
 30
0.0
 40
1.500000000000057
100
AcDbArc
 50
90.0
 51
180.0
  0
ARC
  5
A0
330
1F
100
AcDbEntity
  8
0
  6
Continuous
 62
     7
370
    15
100
AcDbCircle
 10
575.047815534
 20
-319.9881067961
 30
0.0
 40
1.500000000000057
100
AcDbArc
 50
0.0
 51
90.0
  0
ARC
  5
A1
330
1F
100
AcDbEntity
  8
0
  6
Continuous
 62
     7
370
    15
100
AcDbCircle
 10
635.647815534
 20
-406.4555408504
 30
0.0
 40
4.700000000000045
100
AcDbArc
 50
350.5402980318
 51
0.0
  0
ARC
  5
A2
330
1F
100
AcDbEntity
  8
0
  6
Continuous
 62
     7
370
    15
100
AcDbCircle
 10
581.247815534
 20
-406.4555408504
 30
0.0
 40
4.700000000000045
100
AcDbArc
 50
180.0
 51
189.4597019682
  0
LINE
  5
A3
330
1F
100
AcDbEntity
  8
0
  6
Continuous
 62
     7
370
    15
100
AcDbLine
 10
640.347815534
 20
-406.4555408504
 30
0.0
 11
640.347815534
 21
-319.9881067961
 31
0.0
  0
LINE
  5
A4
330
1F
100
AcDbEntity
  8
0
  6
Continuous
 62
     7
370
    15
100
AcDbLine
 10
576.547815534
 20
-319.9881067961
 30
0.0
 11
576.547815534
 21
-406.4555408504
 31
0.0
  0
LINE
  5
A5
330
1F
100
AcDbEntity
  8
0
  6
Continuous
 62
     7
370
    15
100
AcDbLine
 10
576.611728761
 20
-407.2280040749
 30
0.0
 11
577.4881653137
 21
-412.4881067961
 31
0.0
  0
LINE
  5
A6
330
1F
100
AcDbEntity
  8
0
  6
Continuous
 62
     7
370
    15
100
AcDbLine
 10
639.4074657543
 20
-412.4881067961
 30
0.0
 11
640.283902307
 21
-407.2280040749
 31
0.0
  0
ARC
  5
A7
330
1F
100
AcDbEntity
  8
0
  6
Continuous
 62
     7
370
    15
100
AcDbCircle
 10
95.047815534
 20
-319.9881067962
 30
0.0
 40
1.5
100
AcDbArc
 50
0.0
 51
90.0
  0
LINE
  5
A8
330
1F
100
AcDbEntity
  8
0
  6
Continuous
 62
     7
370
    15
100
AcDbLine
 10
160.347815534
 20
-406.4555408505
 30
0.0
 11
160.347815534
 21
-325.9881067962
 31
0.0
  0
LINE
  5
A9
330
1F
100
AcDbEntity
  8
0
  6
Continuous
 62
     7
370
    15
100
AcDbLine
 10
96.547815534
 20
-319.9881067962
 30
0.0
 11
96.547815534
 21
-406.4555408505
 31
0.0
  0
ARC
  5
AA
330
1F
100
AcDbEntity
  8
0
  6
Continuous
 62
     7
370
    15
100
AcDbCircle
 10
155.647815534
 20
-406.4555408505
 30
0.0
 40
4.7
100
AcDbArc
 50
350.5402980318
 51
0.0
  0
ARC
  5
AB
330
1F
100
AcDbEntity
  8
0
  6
Continuous
 62
     7
370
    15
100
AcDbCircle
 10
101.247815534
 20
-406.4555408505
 30
0.0
 40
4.699999999999974
100
AcDbArc
 50
180.0
 51
189.4597019682
  0
LINE
  5
AC
330
1F
100
AcDbEntity
  8
0
  6
Continuous
 62
     7
370
    15
100
AcDbLine
 10
96.611728761
 20
-407.228004075
 30
0.0
 11
97.4881653137
 21
-412.4881067962
 31
0.0
  0
LINE
  5
AD
330
1F
100
AcDbEntity
  8
0
  6
Continuous
 62
     7
370
    15
100
AcDbLine
 10
159.4074657543
 20
-412.4881067962
 30
0.0
 11
160.283902307
 21
-407.228004075
 31
0.0
  0
LINE
  5
AE
330
1F
100
AcDbEntity
  8
0
  6
Continuous
 62
     7
370
    15
100
AcDbLine
 10
654.0178155345
 20
-316.3881067978
 30
0.0
 11
654.0178155345
 21
-314.8881067978
 31
0.0
  0
LINE
  5
AF
330
1F
100
AcDbEntity
  8
0
  6
Continuous
 62
     7
370
    15
100
AcDbLine
 10
646.2178155345
 20
-314.8881067978
 30
0.0
 11
646.2178155345
 21
-316.3881067978
 31
0.0
  0
LINE
  5
B0
330
1F
100
AcDbEntity
  8
0
  6
Continuous
 62
     7
370
    15
100
AcDbLine
 10
645.117815534
 20
218.0118932038
 30
0.0
 11
645.117815534
 21
215.0118932038
 31
0.0
  0
LINE
  5
B1
330
1F
100
AcDbEntity
  8
0
  6
Continuous
 62
     7
370
    15
100
AcDbLine
 10
655.117815534
 20
215.0118932038
 30
0.0
 11
655.117815534
 21
218.0118932038
 31
0.0
  0
LINE
  5
B2
330
1F
100
AcDbEntity
  8
0
  6
Continuous
 62
     7
370
    15
100
AcDbLine
 10
644.9478155339
 20
1090.5118932039
 30
0.0
 11
644.9478155339
 21
1088.0118932038
 31
0.0
  0
LINE
  5
B3
330
1F
100
AcDbEntity
  8
0
  6
Continuous
 62
     7
370
    15
100
AcDbLine
 10
654.9478155339
 20
1088.0118932038
 30
0.0
 11
654.9478155339
 21
1090.5118932039
 31
0.0
  0
SPLINE
  5
B4
330
1F
100
AcDbEntity
  8
0
  6
Continuous
 62
     7
370
    15
100
AcDbSpline
210
0.0
220
0.0
230
1.0
 70
     8
 71
     3
 72
     9
 73
     5
 74
     0
 42
0.00000001
 43
0.00000001
 40
0.0
 40
0.0
 40
0.0
 40
0.0
 40
0.4960219561259239
 40
1.0
 40
1.0
 40
1.0
 40
1.0
 10
248.4478155340838
 20
224.701893203843
 30
0.0
 10
249.4621343229095
 20
224.7415845401114
 30
0.0
 10
251.5070413603881
 20
224.8216038533263
 30
0.0
 10
253.503714125937
 20
225.2707288131678
 30
0.0
 10
254.509993360575
 20
225.4970779318838
 30
0.0
  0
SPLINE
  5
B5
330
1F
100
AcDbEntity
  8
0
  6
Continuous
 62
     7
370
    15
100
AcDbSpline
210
0.0
220
0.0
230
1.0
 70
     8
 71
     3
 72
     9
 73
     5
 74
     0
 42
0.00000001
 43
0.00000001
 40
0.0
 40
0.0
 40
0.0
 40
0.0
 40
0.4966664142795903
 40
1.0
 40
1.0
 40
1.0
 40
1.0
 10
254.509993360575
 20
225.4970779318838
 30
0.0
 10
255.005771467047
 20
225.2736983958775
 30
0.0
 10
256.0039829269284
 20
224.8239407122817
 30
0.0
 10
257.0264435181719
 20
224.7427561304977
 30
0.0
 10
257.5410822738203
 20
224.701893203843
 30
0.0
  0
LINE
  5
B6
330
1F
100
AcDbEntity
  8
0
  6
Continuous
 62
     7
370
    15
100
AcDbLine
 10
257.5410822738
 20
224.7018932038
 30
0.0
 11
248.4478155341
 21
224.7018932038
 31
0.0
  0
SPLINE
  5
B7
330
1F
100
AcDbEntity
  8
0
  6
Continuous
 62
     7
370
    15
100
AcDbSpline
210
0.0
220
0.0
230
1.0
 70
     8
 71
     3
 72
     9
 73
     5
 74
     0
 42
0.00000001
 43
0.00000001
 40
0.0
 40
0.0
 40
0.0
 40
0.0
 40
0.4960219561259023
 40
1.0
 40
1.0
 40
1.0
 40
1.0
 10
239.3545487943473
 20
224.7018932038442
 30
0.0
 10
239.8617081887603
 20
224.7415845401123
 30
0.0
 10
240.8841617074999
 20
224.8216038533258
 30
0.0
 10
241.882498090274
 20
225.270728813168
 30
0.0
 10
242.3856377075928
 20
225.4970779318849
 30
0.0
  0
SPLINE
  5
B8
330
1F
100
AcDbEntity
  8
0
  6
Continuous
 62
     7
370
    15
100
AcDbSpline
210
0.0
220
0.0
230
1.0
 70
     8
 71
     3
 72
     9
 73
     5
 74
     0
 42
0.00000001
 43
0.00000001
 40
0.0
 40
0.0
 40
0.0
 40
0.0
 40
0.4966664142795854
 40
1.0
 40
1.0
 40
1.0
 40
1.0
 10
242.3856377075928
 20
225.4970779318849
 30
0.0
 10
243.3771939205371
 20
225.273698395878
 30
0.0
 10
245.3736168403003
 20
224.8239407122815
 30
0.0
 10
247.418538022787
 20
224.7427561304974
 30
0.0
 10
248.4478155340838
 20
224.701893203843
 30
0.0
  0
LINE
  5
B9
330
1F
100
AcDbEntity
  8
0
  6
Continuous
 62
     7
370
    15
100
AcDbLine
 10
248.4478155341
 20
224.7018932038
 30
0.0
 11
239.3545487943
 21
224.7018932038
 31
0.0
  0
SPLINE
  5
BA
330
1F
100
AcDbEntity
  8
0
  6
Continuous
 62
     7
370
    15
100
AcDbSpline
210
0.0
220
0.0
230
1.0
 70
     8
 71
     3
 72
     9
 73
     5
 74
     0
 42
0.00000001
 43
0.00000001
 40
0.0
 40
0.0
 40
0.0
 40
0.0
 40
0.4960219562197632
 40
1.0
 40
1.0
 40
1.0
 40
1.0
 10
257.5410822738203
 20
224.701893203843
 30
0.0
 10
258.0482416606703
 20
224.7415845388437
 30
0.0
 10
259.0706951639688
 20
224.8216038494869
 30
0.0
 10
260.0690315322296
 20
225.270728797286
 30
0.0
 10
260.5721711421403
 20
225.4970779098911
 30
0.0
  0
LINE
  5
BB
330
1F
100
AcDbEntity
  8
0
  6
Continuous
 62
     7
370
    15
100
AcDbLine
 10
254.5099933606
 20
225.5118932038
 30
0.0
 11
254.5099933606
 21
225.4970779319
 31
0.0
  0
LINE
  5
BC
330
1F
100
AcDbEntity
  8
0
  6
Continuous
 62
     7
370
    15
100
AcDbLine
 10
260.5721711739
 20
225.5118932038
 30
0.0
 11
260.5721711739
 21
225.4970779255
 31
0.0
  0
LINE
  5
BD
330
1F
100
AcDbEntity
  8
0
  6
Continuous
 62
     7
370
    15
100
AcDbLine
 10
242.3856377076
 20
225.4970779319
 30
0.0
 11
242.3856377076
 21
225.5118932038
 31
0.0
  0
SPLINE
  5
BE
330
1F
100
AcDbEntity
  8
0
  6
Continuous
 62
     7
370
    15
100
AcDbSpline
210
0.0
220
0.0
230
1.0
 70
     8
 71
     3
 72
     9
 73
     5
 74
     0
 42
0.00000001
 43
0.00000001
 40
0.0
 40
0.0
 40
0.0
 40
0.0
 40
0.4966664142795798
 40
1.0
 40
1.0
 40
1.0
 40
1.0
 10
236.3234598811018
 20
225.4970779318847
 30
0.0
 10
236.819237987574
 20
225.2736983958782
 30
0.0
 10
237.8174494474559
 20
224.8239407122822
 30
0.0
 10
238.839910038699
 20
224.7427561304981
 30
0.0
 10
239.3545487943473
 20
224.7018932038442
 30
0.0
  0
LINE
  5
BF
330
1F
100
AcDbEntity
  8
0
  6
Continuous
 62
     7
370
    15
100
AcDbLine
 10
236.3234598811
 20
225.4970779319
 30
0.0
 11
236.3234598811
 21
225.5118932038
 31
0.0
  0
LINE
  5
C0
330
1F
100
AcDbEntity
  8
0
  6
Continuous
 62
     7
370
    15
100
AcDbLine
 10
242.0371238891
 20
223.7177445416
 30
0.0
 11
254.858507179
 21
223.7177445416
 31
0.0
  0
LINE
  5
C1
330
1F
100
AcDbEntity
  8
0
  6
Continuous
 62
     7
370
    15
100
AcDbLine
 10
243.12047433
 20
222.8087055863
 30
0.0
 11
253.7751567382
 21
222.8087055863
 31
0.0
  0
LINE
  5
C2
330
1F
100
AcDbEntity
  8
0
  6
Continuous
 62
     7
370
    15
100
AcDbLine
 10
243.2947858155
 20
220.8163161902
 30
0.0
 11
253.6008452526
 21
220.8163161902
 31
0.0
  0
LINE
  5
C3
330
1F
100
AcDbEntity
  8
0
  6
Continuous
 62
     7
370
    15
100
AcDbLine
 10
242.2114353747
 20
221.7253551455
 30
0.0
 11
254.6841956935
 21
221.7253551455
 31
0.0
  0
LINE
  5
C4
330
1F
100
AcDbEntity
  8
0
  6
Continuous
 62
     7
370
    15
100
AcDbLine
 10
243.469097301
 20
218.823926794
 30
0.0
 11
253.4265337672
 21
218.823926794
 31
0.0
  0
LINE
  5
C5
330
1F
100
AcDbEntity
  8
0
  6
Continuous
 62
     7
370
    15
100
AcDbLine
 10
242.3857468602
 20
219.7329657493
 30
0.0
 11
254.509884208
 21
219.7329657493
 31
0.0
  0
LINE
  5
C6
330
1F
100
AcDbEntity
  8
0
  6
Continuous
 62
     7
370
    15
100
AcDbLine
 10
243.6434087865
 20
216.8315373978
 30
0.0
 11
253.2522222817
 21
216.8315373978
 31
0.0
  0
LINE
  5
C7
330
1F
100
AcDbEntity
  8
0
  6
Continuous
 62
     7
370
    15
100
AcDbLine
 10
242.5600583456
 20
217.7405763531
 30
0.0
 11
254.3355727225
 21
217.7405763531
 31
0.0
  0
LINE
  5
C8
330
1F
100
AcDbEntity
  8
0
  6
Continuous
 62
     7
370
    15
100
AcDbLine
 10
239.3545487943
 20
224.7018932038
 30
0.0
 11
237.9478155341
 21
224.7018932038
 31
0.0
  0
LINE
  5
C9
330
1F
100
AcDbEntity
  8
0
  6
Continuous
 62
     7
370
    15
100
AcDbLine
 10
258.9478155341
 20
224.7018932038
 30
0.0
 11
257.5410822738
 21
224.7018932038
 31
0.0
  0
ELLIPSE
  5
CA
330
1F
100
AcDbEntity
  8
0
  6
Continuous
 62
     7
370
    15
100
AcDbEllipse
 10
245.1980644366
 20
226.004464171
 30
0.0
 11
-0.09133997167515417
 21
-0.4993463423998037
 31
0.0
210
0.0
220
0.0
230
1.0
 40
0.9849664182
 41
6.219192558550104
 42
6.4614420795336
  0
ELLIPSE
  5
CB
330
1F
100
AcDbEntity
  8
0
  6
Continuous
 62
     7
370
    15
100
AcDbEllipse
 10
251.6975666316
 20
226.004464171
 30
0.0
 11
-0.091339971675211
 21
0.4993463423997753
 31
0.0
210
0.0
220
0.0
230
0.9999999999999998
 40
0.9849664182
 41
2.963335881236174
 42
3.205585402217414
  0
LINE
  5
CC
330
1F
100
AcDbEntity
  8
0
  6
Continuous
 62
     7
370
    15
100
AcDbLine
 10
251.7002491313
 20
225.4970779319
 30
0.0
 11
245.1953819368
 21
225.4970779319
 31
0.0
  0
CIRCLE
  5
CD
330
1F
100
AcDbEntity
  8
0
  6
Continuous
 62
     7
370
    15
100
AcDbCircle
 10
93.667815534
 20
740.6888932038
 30
0.0
 40
2.100000000000017
  0
CIRCLE
  5
CE
330
1F
100
AcDbEntity
  8
0
  6
Continuous
 62
     7
370
    15
100
AcDbCircle
 10
93.667815534
 20
680.6888932038
 30
0.0
 40
2.100000000000064
  0
LINE
  5
CF
330
1F
100
AcDbEntity
  8
0
  6
Continuous
 62
     7
370
    15
100
AcDbLine
 10
665.3471048559
 20
225.5118932038
 30
0.0
 11
71.8885262121
 21
225.5118932038
 31
0.0
  0
SPLINE
  5
D0
330
1F
100
AcDbEntity
  8
0
  6
Continuous
 62
     7
370
    15
100
AcDbSpline
210
0.0
220
0.0
230
1.0
 70
     8
 71
     3
 72
    12
 73
     8
 74
     0
 42
0.00000001
 43
0.00000001
 40
0.0
 40
0.0
 40
0.0
 40
0.0
 40
0.2245768996779774
 40
0.4491912330129411
 40
0.673805730868799
 40
0.898420016407665
 40
1.0
 40
1.0
 40
1.0
 40
1.0
 10
73.06781553399632
 20
227.9618932038491
 30
0.0
 10
72.9795038535847
 20
227.6737682977886
 30
0.0
 10
72.80286577250683
 20
227.0974704594949
 30
0.0
 10
72.5378606612072
 20
226.3386514147737
 30
0.0
 10
72.27300234669003
 20
225.7835325360168
 30
0.0
 10
72.0560048689885
 20
225.5382463942376
 30
0.0
 10
71.92829597176964
 20
225.5181510761502
 30
0.0
 10
71.88852621211505
 20
225.511893203849
 30
0.0
  0
SPLINE
  5
D1
330
1F
100
AcDbEntity
  8
0
  6
Continuous
 62
     7
370
    15
100
AcDbSpline
210
0.0
220
0.0
230
1.0
 70
     8
 71
     3
 72
    11
 73
     7
 74
     0
 42
0.00000001
 43
0.00000001
 40
0.0
 40
0.0
 40
0.0
 40
0.0
 40
0.2500000000000082
 40
0.5000000000000095
 40
0.7499999999999815
 40
1.0
 40
1.0
 40
1.0
 40
1.0
 10
665.3471048558778
 20
225.511893203849
 30
0.0
 10
665.2488307457211
 20
225.5487205571779
 30
0.0
 10
665.0522825254076
 20
225.6223752638359
 30
0.0
 10
664.7574601949369
 20
226.1889358359855
 30
0.0
 10
664.462637864467
 20
226.9987709318734
 30
0.0
 10
664.2660896441531
 20
227.640852446524
 30
0.0
 10
664.1678155339964
 20
227.9618932038491
 30
0.0
  0
SPLINE
  5
D2
330
1F
100
AcDbEntity
  8
0
  6
Continuous
 62
     7
370
    15
100
AcDbSpline
210
0.0
220
0.0
230
1.0
 70
     8
 71
     3
 72
    13
 73
     9
 74
     0
 42
0.00000001
 43
0.00000001
 40
0.0
 40
0.0
 40
0.0
 40
0.0
 40
0.1342995803635335
 40
0.2621095913711182
 40
0.3841104780162015
 40
0.5010852584886094
 40
0.7091625599643607
 40
1.0
 40
1.0
 40
1.0
 40
1.0
 10
70.61781553399638
 20
226.7826038819677
 30
0.0
 10
70.62951735561862
 20
226.791254888652
 30
0.0
 10
70.65235554822802
 20
226.808138871616
 30
0.0
 10
70.82598303352195
 20
226.8774723446488
 30
0.0
 10
71.07258636187042
 20
226.9787189123368
 30
0.0
 10
71.45905729775981
 20
227.1535563288073
 30
0.0
 10
72.10560874150312
 20
227.484118792259
 30
0.0
 10
72.71346923796528
 20
227.7859460016404
 30
0.0
 10
73.06781553399638
 20
227.9618932038491
 30
0.0
  0
LWPOLYLINE
  5
D3
330
1F
100
AcDbEntity
  8
0
  6
Continuous
 62
     7
370
    15
100
AcDbPolyline
 90
        2
 70
   128
 43
0.0
 10
73.067815534
 20
227.9618932038
 10
73.067815534
 20
227.9618932038
  0
SPLINE
  5
D4
330
1F
100
AcDbEntity
  8
0
  6
Continuous
 62
     7
370
    15
100
AcDbSpline
210
0.0
220
0.0
230
1.0
 70
     8
 71
     3
 72
    13
 73
     9
 74
     0
 42
0.00000001
 43
0.00000001
 40
0.0
 40
0.0
 40
0.0
 40
0.0
 40
0.1190644693729131
 40
0.2344989710933124
 40
0.3484474401452585
 40
0.4631380926085923
 40
0.6812373982260096
 40
1.0
 40
1.0
 40
1.0
 40
1.0
 10
71.81781553399647
 20
226.7826038819679
 30
0.0
 10
71.82387781910698
 20
226.791325341401
 30
0.0
 10
71.83581756593804
 20
226.8085023655307
 30
0.0
 10
71.92580842937757
 20
226.878851381974
 30
0.0
 10
72.05329448259911
 20
226.9815841181021
 30
0.0
 10
72.25541572219518
 20
227.161458559941
 30
0.0
 10
72.58627584090355
 20
227.4936172005079
 30
0.0
 10
72.88841809530282
 20
227.7874371479805
 30
0.0
 10
73.06781553399638
 20
227.9618932038491
 30
0.0
  0
LINE
  5
D5
330
1F
100
AcDbEntity
  8
0
  6
Continuous
 62
     7
370
    15
100
AcDbLine
 10
70.617815534
 20
226.782603882
 30
0.0
 11
71.817815534
 21
226.782603882
 31
0.0
  0
SPLINE
  5
D6
330
1F
100
AcDbEntity
  8
0
  6
Continuous
 62
     7
370
    15
100
AcDbSpline
210
0.0
220
0.0
230
1.0
 70
     8
 71
     3
 72
    12
 73
     8
 74
     0
 42
0.00000001
 43
0.00000001
 40
0.0
 40
0.0
 40
0.0
 40
0.0
 40
0.2256464046611518
 40
0.4513359764377031
 40
0.6770257472790063
 40
0.9027153045660383
 40
0.9999999999999999
 40
0.9999999999999999
 40
0.9999999999999999
 40
0.9999999999999999
 10
73.06781553399644
 20
1083.061893203849
 30
0.0
 10
72.97429572142022
 20
1083.351388886327
 30
0.0
 10
72.78723820553068
 20
1083.930435633037
 30
0.0
 10
72.50659813853355
 20
1084.691841516889
 30
0.0
 10
72.22611818316227
 20
1085.246904147434
 30
0.0
 10
71.99828672720754
 20
1085.487039748476
 30
0.0
 10
71.86502656423322
 20
1085.50613993947
 30
0.0
 10
71.8248866018083
 20
1085.511893203849
 30
0.0
  0
LINE
  5
D7
330
1F
100
AcDbEntity
  8
0
  6
Continuous
 62
     7
370
    15
100
AcDbLine
 10
665.4107444662
 20
1085.5118932038
 30
0.0
 11
71.8248866018
 21
1085.5118932038
 31
0.0
  0
SPLINE
  5
D8
330
1F
100
AcDbEntity
  8
0
  6
Continuous
 62
     7
370
    15
100
AcDbSpline
210
0.0
220
0.0
230
1.0
 70
     8
 71
     3
 72
    12
 73
     8
 74
     0
 42
0.00000001
 43
0.00000001
 40
0.0
 40
0.0
 40
0.0
 40
0.0
 40
0.2256464046612435
 40
0.4513359764378032
 40
0.6770257472791342
 40
0.9027153045660695
 40
1.0
 40
1.0
 40
1.0
 40
1.0
 10
665.4107444661846
 20
1085.511893203849
 30
0.0
 10
665.3172246536083
 20
1085.481949430929
 30
0.0
 10
665.1301671377184
 20
1085.42205615672
 30
0.0
 10
664.8495270707218
 20
1084.956678445864
 30
0.0
 10
664.5690471153504
 20
1084.277915499422
 30
0.0
 10
664.3412156593955
 20
1083.598716747105
 30
0.0
 10
664.2079554964214
 20
1083.186161146594
 30
0.0
 10
664.1678155339964
 20
1083.061893203849
 30
0.0
  0
LINE
  5
D9
330
1F
100
AcDbEntity
  8
0
  6
Continuous
 62
     7
370
    15
100
AcDbLine
 10
71.8885262121
 20
226.7118932038
 30
0.0
 11
71.8885262121
 21
225.5118932038
 31
0.0
  0
SPLINE
  5
DA
330
1F
100
AcDbEntity
  8
0
  6
Continuous
 62
     7
370
    15
100
AcDbSpline
210
0.0
220
0.0
230
1.0
 70
     8
 71
     3
 72
    11
 73
     7
 74
     0
 42
0.00000001
 43
0.00000001
 40
0.0
 40
0.0
 40
0.0
 40
0.0
 40
0.2698979297075252
 40
0.5207755755667973
 40
0.7716067421943845
 40
1.0
 40
1.0
 40
1.0
 40
1.0
 10
73.06781553399632
 20
227.9618932038491
 30
0.0
 10
72.96161707205285
 20
227.7849179274986
 30
0.0
 10
72.75670418071334
 20
227.443439200698
 30
0.0
 10
72.4534911380168
 20
227.0277255570444
 30
0.0
 10
72.16639338448006
 20
226.7605349280352
 30
0.0
 10
71.97821163169482
 20
226.7275929837317
 30
0.0
 10
71.88852621211505
 20
226.7118932038493
 30
0.0
  0
SPLINE
  5
DB
330
1F
100
AcDbEntity
  8
0
  6
Continuous
 62
     7
370
    15
100
AcDbSpline
210
0.0
220
0.0
230
1.0
 70
     8
 71
     3
 72
    11
 73
     7
 74
     0
 42
0.00000001
 43
0.00000001
 40
0.0
 40
0.0
 40
0.0
 40
0.0
 40
0.268469885375949
 40
0.522998095717611
 40
0.7774891618645123
 40
1.0
 40
1.0
 40
1.0
 40
1.0
 10
73.06781553399644
 20
1083.061893203849
 30
0.0
 10
72.95649484066135
 20
1083.237906142394
 30
0.0
 10
72.73963435164738
 20
1083.580791645369
 30
0.0
 10
72.4175706701089
 20
1083.999837982092
 30
0.0
 10
72.11432004862573
 20
1084.264983891604
 30
0.0
 10
71.91695365781814
 20
1084.296971630944
 30
0.0
 10
71.8248866018083
 20
1084.311893203849
 30
0.0
  0
LINE
  5
DC
330
1F
100
AcDbEntity
  8
0
  6
Continuous
 62
     7
370
    15
100
AcDbLine
 10
71.8248866018
 20
1085.5118932038
 30
0.0
 11
71.8248866018
 21
1084.3118932038
 31
0.0
  0
SPLINE
  5
DD
330
1F
100
AcDbEntity
  8
0
  6
Continuous
 62
     7
370
    15
100
AcDbSpline
210
0.0
220
0.0
230
1.0
 70
     8
 71
     3
 72
    11
 73
     7
 74
     0
 42
0.00000001
 43
0.00000001
 40
0.0
 40
0.0
 40
0.0
 40
0.0
 40
0.2499999999999916
 40
0.4999999999999993
 40
0.7500000000000034
 40
1.0
 40
1.0
 40
1.0
 40
1.0
 10
73.0678155339965
 20
1083.061893203849
 30
0.0
 10
72.74677477667113
 20
1083.165470614864
 30
0.0
 10
72.10469326202052
 20
1083.372625436895
 30
0.0
 10
71.29485816613324
 20
1083.683357669944
 30
0.0
 10
70.72829759398324
 20
1083.99408990299
 30
0.0
 10
70.65464288732525
 20
1084.201244725021
 30
0.0
 10
70.61781553399638
 20
1084.304822136037
 30
0.0
  0
LINE
  5
DE
330
1F
100
AcDbEntity
  8
0
  6
Continuous
 62
     7
370
    15
100
AcDbLine
 10
70.617815534
 20
1084.304822136
 30
0.0
 11
71.817815534
 21
1084.304822136
 31
0.0
  0
SPLINE
  5
DF
330
1F
100
AcDbEntity
  8
0
  6
Continuous
 62
     7
370
    15
100
AcDbSpline
210
0.0
220
0.0
230
1.0
 70
     8
 71
     3
 72
    11
 73
     7
 74
     0
 42
0.00000001
 43
0.00000001
 40
0.0
 40
0.0
 40
0.0
 40
0.0
 40
0.249999999999963
 40
0.4999999999999928
 40
0.7500000000000172
 40
1.0
 40
1.0
 40
1.0
 40
1.0
 10
73.06781553399644
 20
1083.061893203849
 30
0.0
 10
72.90401922923861
 20
1083.165470614864
 30
0.0
 10
72.57642661972297
 20
1083.372625436895
 30
0.0
 10
72.1632454483519
 20
1083.683357669944
 30
0.0
 10
71.87418393194878
 20
1083.994089902989
 30
0.0
 10
71.83660499998057
 20
1084.201244725021
 30
0.0
 10
71.81781553399641
 20
1084.304822136037
 30
0.0
  0
CIRCLE
  5
E0
330
1F
100
AcDbEntity
  8
0
  6
Continuous
 62
     7
370
    15
100
AcDbCircle
 10
93.667815534
 20
740.7118932038
 30
0.0
 40
2.649999999999991
  0
CIRCLE
  5
E1
330
1F
100
AcDbEntity
  8
0
  6
Continuous
 62
     7
370
    15
100
AcDbCircle
 10
93.667815534
 20
680.7118932038
 30
0.0
 40
2.649999999999991
  0
LINE
  5
E2
330
1F
100
AcDbEntity
  8
0
  6
Continuous
 62
     7
370
    15
100
AcDbLine
 10
70.617815534
 20
1084.304822136
 30
0.0
 11
70.617815534
 21
226.782603882
 31
0.0
  0
LINE
  5
E3
330
1F
100
AcDbEntity
  8
0
  6
Continuous
 62
     7
370
    15
100
AcDbLine
 10
665.4107444662
 20
1085.5118932038
 30
0.0
 11
665.4107444662
 21
1084.3118932038
 31
0.0
  0
SPLINE
  5
E4
330
1F
100
AcDbEntity
  8
0
  6
Continuous
 62
     7
370
    15
100
AcDbSpline
210
0.0
220
0.0
230
1.0
 70
     8
 71
     3
 72
    11
 73
     7
 74
     0
 42
0.00000001
 43
0.00000001
 40
0.0
 40
0.0
 40
0.0
 40
0.0
 40
0.2684698853759901
 40
0.5229980957176651
 40
0.7774891618644374
 40
1.0
 40
1.0
 40
1.0
 40
1.0
 10
665.4107444661845
 20
1084.311893203849
 30
0.0
 10
665.2994237728495
 20
1084.290210434115
 30
0.0
 10
665.0825632838354
 20
1084.247970883617
 30
0.0
 10
664.760499602297
 20
1083.933538830181
 30
0.0
 10
664.4572489808135
 20
1083.519660228351
 30
0.0
 10
664.2598825900061
 20
1083.207506168583
 30
0.0
 10
664.1678155339964
 20
1083.061893203849
 30
0.0
  0
SPLINE
  5
E5
330
1F
100
AcDbEntity
  8
0
  6
Continuous
 62
     7
370
    15
100
AcDbSpline
210
0.0
220
0.0
230
1.0
 70
     8
 71
     3
 72
    11
 73
     7
 74
     0
 42
0.00000001
 43
0.00000001
 40
0.0
 40
0.0
 40
0.0
 40
0.0
 40
0.2499999999999944
 40
0.500000000000003
 40
0.7499999999999825
 40
1.0
 40
1.0
 40
1.0
 40
1.0
 10
666.6178155339965
 20
1084.304822136037
 30
0.0
 10
666.5809881806676
 20
1084.201244725021
 30
0.0
 10
666.5073334740097
 20
1083.99408990299
 30
0.0
 10
665.9407729018598
 20
1083.683357669943
 30
0.0
 10
665.1309378059724
 20
1083.372625436896
 30
0.0
 10
664.4888562913216
 20
1083.165470614864
 30
0.0
 10
664.1678155339964
 20
1083.061893203849
 30
0.0
  0
LINE
  5
E6
330
1F
100
AcDbEntity
  8
0
  6
Continuous
 62
     7
370
    15
100
AcDbLine
 10
666.617815534
 20
226.782603882
 30
0.0
 11
666.617815534
 21
1084.304822136
 31
0.0
  0
SPLINE
  5
E7
330
1F
100
AcDbEntity
  8
0
  6
Continuous
 62
     7
370
    15
100
AcDbSpline
210
0.0
220
0.0
230
1.0
 70
     8
 71
     3
 72
    12
 73
     8
 74
     0
 42
0.00000001
 43
0.00000001
 40
0.0
 40
0.0
 40
0.0
 40
0.0
 40
0.2524744498030222
 40
0.5031301551215541
 40
0.7337124822074634
 40
0.9316854618033272
 40
1.0
 40
1.0
 40
1.0
 40
1.0
 10
664.1678155339964
 20
227.9618932038489
 30
0.0
 10
664.4740369308624
 20
227.8097854628011
 30
0.0
 10
665.0842738044432
 20
227.5066657158001
 30
0.0
 10
665.8723312652268
 20
227.1019944881788
 30
0.0
 10
666.409821922285
 20
226.8761587175253
 30
0.0
 10
666.6021409839985
 20
226.8005394201041
 30
0.0
 10
666.6146153156312
 20
226.7862657184182
 30
0.0
 10
666.6178155339965
 20
226.7826038819677
 30
0.0
  0
SPLINE
  5
E8
330
1F
100
AcDbEntity
  8
0
  6
Continuous
 62
     7
370
    15
100
AcDbSpline
210
0.0
220
0.0
230
1.0
 70
     8
 71
     3
 72
    11
 73
     7
 74
     0
 42
0.00000001
 43
0.00000001
 40
0.0
 40
0.0
 40
0.0
 40
0.0
 40
0.2499999999999876
 40
0.4999999999999777
 40
0.7499999999999847
 40
0.9999999999999999
 40
0.9999999999999999
 40
0.9999999999999999
 40
0.9999999999999999
 10
665.4178155339964
 20
1084.304822136037
 30
0.0
 10
665.3990260680122
 20
1084.201244725021
 30
0.0
 10
665.3614471360437
 20
1083.99408990299
 30
0.0
 10
665.0723856196407
 20
1083.683357669942
 30
0.0
 10
664.6592044482699
 20
1083.372625436896
 30
0.0
 10
664.3316118387544
 20
1083.165470614864
 30
0.0
 10
664.1678155339964
 20
1083.061893203849
 30
0.0
  0
LINE
  5
E9
330
1F
100
AcDbEntity
  8
0
  6
Continuous
 62
     7
370
    15
100
AcDbLine
 10
666.617815534
 20
1084.304822136
 30
0.0
 11
665.417815534
 21
1084.304822136
 31
0.0
  0
SPLINE
  5
EA
330
1F
100
AcDbEntity
  8
0
  6
Continuous
 62
     7
370
    15
100
AcDbSpline
210
0.0
220
0.0
230
1.0
 70
     8
 71
     3
 72
    11
 73
     7
 74
     0
 42
0.00000001
 43
0.00000001
 40
0.0
 40
0.0
 40
0.0
 40
0.0
 40
0.2499999999999998
 40
0.4999999999999878
 40
0.7499999999999469
 40
1.0
 40
1.0
 40
1.0
 40
1.0
 10
665.3471048558778
 20
226.7118932038491
 30
0.0
 10
665.248830745721
 20
226.7306826698331
 30
0.0
 10
665.0522825254075
 20
226.7682616018013
 30
0.0
 10
664.7574601949373
 20
227.0573231182048
 30
0.0
 10
664.4626378644667
 20
227.4705042895756
 30
0.0
 10
664.2660896441532
 20
227.7980968990913
 30
0.0
 10
664.1678155339964
 20
227.9618932038491
 30
0.0
  0
LINE
  5
EB
330
1F
100
AcDbEntity
  8
0
  6
Continuous
 62
     7
370
    15
100
AcDbLine
 10
665.3471048559
 20
226.7118932038
 30
0.0
 11
665.3471048559
 21
225.5118932038
 31
0.0
  0
LINE
  5
EC
330
1F
100
AcDbEntity
  8
0
  6
Continuous
 62
     7
370
    15
100
AcDbLine
 10
666.617815534
 20
226.782603882
 30
0.0
 11
665.417815534
 21
226.782603882
 31
0.0
  0
SPLINE
  5
ED
330
1F
100
AcDbEntity
  8
0
  6
Continuous
 62
     7
370
    15
100
AcDbSpline
210
0.0
220
0.0
230
1.0
 70
     8
 71
     3
 72
    12
 73
     8
 74
     0
 42
0.00000001
 43
0.00000001
 40
0.0
 40
0.0
 40
0.0
 40
0.0
 40
0.3389722571447625
 40
0.5590424103401156
 40
0.7313759037025365
 40
0.9043001513104175
 40
1.0
 40
1.0
 40
1.0
 40
1.0
 10
664.1678155339964
 20
227.9618932038489
 30
0.0
 10
664.3584251193141
 20
227.7765197276221
 30
0.0
 10
664.6727837128683
 20
227.4707966698245
 30
0.0
 10
665.0404685425573
 20
227.101774055713
 30
0.0
 10
665.2829524166245
 20
226.8985412066237
 30
0.0
 10
665.4025344999181
 20
226.8075763551519
 30
0.0
 10
665.4138015440592
 20
226.7891635987745
 30
0.0
 10
665.4178155339966
 20
226.7826038819677
 30
0.0
  0
LINE
  5
EE
330
1F
100
AcDbEntity
  8
0
  6
Continuous
 62
     7
370
    15
100
AcDbLine
 10
608.9478155342
 20
225.5118932038
 30
0.0
 11
608.9478155342
 21
212.5118932039
 31
0.0
  0
LINE
  5
EF
330
1F
100
AcDbEntity
  8
0
  6
Continuous
 62
     7
370
    15
100
AcDbLine
 10
126.5478155342
 20
225.5118932038
 30
0.0
 11
126.5478155342
 21
212.5118932039
 31
0.0
  0
LINE
  5
F0
330
1F
100
AcDbEntity
  8
0
  6
Continuous
 62
     7
370
    15
100
AcDbLine
 10
626.5685262122
 20
-313.8881067961
 30
0.0
 11
512.4685262122
 21
-313.8881067961
 31
0.0
  0
LINE
  5
F1
330
1F
100
AcDbEntity
  8
0
  6
Continuous
 62
     7
370
    15
100
AcDbLine
 10
512.4685262122
 20
-313.8881067961
 30
0.0
 11
510.0185262122
 21
-313.8881067961
 31
0.0
  0
LINE
  5
F2
330
1F
100
AcDbEntity
  8
0
  6
Continuous
 62
     7
370
    15
100
AcDbLine
 10
510.0185262122
 20
-311.4881067961
 30
0.0
 11
510.0185262122
 21
-313.8881067961
 31
0.0
  0
LINE
  5
F3
330
1F
100
AcDbEntity
  8
0
  6
Continuous
 62
     7
370
    15
100
AcDbLine
 10
629.0185262122
 20
-313.8881067961
 30
0.0
 11
629.0185262122
 21
-311.4881067961
 31
0.0
  0
LINE
  5
F4
330
1F
100
AcDbEntity
  8
0
  6
Continuous
 62
     7
370
    15
100
AcDbLine
 10
629.0185262122
 20
-313.8881067961
 30
0.0
 11
626.5685262122
 21
-313.8881067961
 31
0.0
  0
SPLINE
  5
F5
330
1F
100
AcDbEntity
  8
0
  6
Continuous
 62
     7
370
    15
100
AcDbSpline
210
0.0
220
0.0
230
1.0
 70
    11
 71
     3
 72
    27
 73
    23
 74
     0
 42
0.00000001
 43
0.00000001
 40
0.0
 40
0.0
 40
0.0
 40
0.0
 40
0.0489597520098586
 40
0.0977564708887038
 40
0.1505865087837396
 40
0.2069149941822354
 40
0.259196172170405
 40
0.3069586211317372
 40
0.3554168040021539
 40
0.4084749855614175
 40
0.4648324988951721
 40
0.5166640383097257
 40
0.5628765523159588
 40
0.611271356466262
 40
0.6657568108350945
 40
0.7216107543625546
 40
0.7723221271550852
 40
0.819726720495315
 40
0.8691903086815611
 40
0.9235891532012276
 40
0.9795705641212489
 40
1.0
 40
1.0
 40
1.0
 40
1.0
 10
358.5252383127833
 20
1154.711893203921
 30
0.0
 10
358.5581247589977
 20
1154.138093113571
 30
0.0
 10
358.6237881414704
 20
1152.99240365385
 30
0.0
 10
359.1566686602606
 20
1151.44132076344
 30
0.0
 10
360.0523362664937
 20
1150.156993568598
 30
0.0
 10
361.3824208573296
 20
1149.326672849371
 30
0.0
 10
362.9871506944623
 20
1149.123434076693
 30
0.0
 10
364.6011339930162
 20
1149.495309651779
 30
0.0
 10
366.1156323726691
 20
1150.347759045728
 30
0.0
 10
367.4295667493086
 20
1151.676236616033
 30
0.0
 10
368.2766166982878
 20
1153.404948301122
 30
0.0
 10
368.4047019385503
 20
1155.247946763933
 30
0.0
 10
367.9011149130542
 20
1156.911709924966
 30
0.0
 10
366.9036413575407
 20
1158.367043691804
 30
0.0
 10
365.4446038493596
 20
1159.54525918782
 30
0.0
 10
363.7145134567327
 20
1160.21598437364
 30
0.0
 10
362.0693676858536
 20
1160.250677246071
 30
0.0
 10
360.705467395312
 20
1159.744537318685
 30
0.0
 10
359.6228276320447
 20
1158.763464689634
 30
0.0
 10
358.8626954008984
 20
1157.313135161156
 30
0.0
 10
358.5536488618802
 20
1155.842296397956
 30
0.0
 10
358.531231805109
 20
1154.950363176655
 30
0.0
 10
358.5252383127833
 20
1154.711893203921
 30
0.0
  0
SPLINE
  5
F6
330
1F
100
AcDbEntity
  8
0
  6
Continuous
 62
     7
370
    15
100
AcDbSpline
210
0.0
220
0.0
230
1.0
 70
    11
 71
     3
 72
    27
 73
    23
 74
     0
 42
0.00000001
 43
0.00000001
 40
0.0
 40
0.0
 40
0.0
 40
0.0
 40
0.0493961335397908
 40
0.0986775127758535
 40
0.1509624396444434
 40
0.2072463387982058
 40
0.2600855767538661
 40
0.3066488210444571
 40
0.3543438320773482
 40
0.4080857503755723
 40
0.4642569365215125
 40
0.5157466911516572
 40
0.5632775738406262
 40
0.6122012319006556
 40
0.6659423899206584
 40
0.7222033733005289
 40
0.7730213237643961
 40
0.8190541163003499
 40
0.8682148460344301
 40
0.9233382470920969
 40
0.9787378796639327
 40
1.0
 40
1.0
 40
1.0
 40
1.0
 10
377.5512185548473
 20
1160.211893203921
 30
0.0
 10
377.2641885075546
 20
1160.158126825222
 30
0.0
 10
376.6907952249416
 20
1160.050718974834
 30
0.0
 10
375.6347070851294
 20
1159.221772371294
 30
0.0
 10
374.6150995909774
 20
1157.957050411687
 30
0.0
 10
373.8523509563772
 20
1156.269113230055
 30
0.0
 10
373.6579525410545
 20
1154.419901607175
 30
0.0
 10
374.0201018289816
 20
1152.725521702659
 30
0.0
 10
374.770840444263
 20
1151.242436931249
 30
0.0
 10
375.8126495885804
 20
1150.014687551351
 30
0.0
 10
376.9260969411323
 20
1149.261643630128
 30
0.0
 10
377.8186732397298
 20
1149.143019248351
 30
0.0
 10
378.387889858729
 20
1149.582354216501
 30
0.0
 10
378.6840770606078
 20
1150.498333276742
 30
0.0
 10
378.7638015824286
 20
1151.888688242296
 30
0.0
 10
378.7330841223827
 20
1153.654146650869
 30
0.0
 10
378.7308422624789
 20
1155.484446700522
 30
0.0
 10
378.756773889174
 20
1157.118118183681
 30
0.0
 10
378.7266969450099
 20
1158.546332972288
 30
0.0
 10
378.500194448053
 20
1159.665458174651
 30
0.0
 10
378.0486337086524
 20
1160.164598562603
 30
0.0
 10
377.6592218487003
 20
1160.201624162046
 30
0.0
 10
377.5512185548473
 20
1160.211893203921
 30
0.0
  0
LINE
  5
F7
330
1F
100
AcDbEntity
  8
0
  6
Continuous
 62
     7
370
    15
100
AcDbLine
 10
356.747815534
 20
1170.7118932039
 30
0.0
 11
378.747815534
 21
1170.7118932039
 31
0.0
  0
SPLINE
  5
F8
330
1F
100
AcDbEntity
  8
0
  6
Continuous
 62
     7
370
    15
100
AcDbSpline
210
0.0
220
0.0
230
1.0
 70
     8
 71
     3
 72
    10
 73
     6
 74
     0
 42
0.00000001
 43
0.00000001
 40
0.0
 40
0.0
 40
0.0
 40
0.0
 40
0.3648376713704322
 40
0.7284604544821499
 40
1.0
 40
1.0
 40
1.0
 40
1.0
 10
361.7524782291555
 20
1154.711893203922
 30
0.0
 10
361.6994273660508
 20
1154.140796350925
 30
0.0
 10
361.5935022961345
 20
1153.000504364288
 30
0.0
 10
360.9387372664353
 20
1151.581275280286
 30
0.0
 10
360.3865813775087
 20
1150.933400308665
 30
0.0
 10
360.1505280847109
 20
1150.656425955155
 30
0.0
  0
SPLINE
  5
F9
330
1F
100
AcDbEntity
  8
0
  6
Continuous
 62
     7
370
    15
100
AcDbSpline
210
0.0
220
0.0
230
1.0
 70
     8
 71
     3
 72
    11
 73
     7
 74
     0
 42
0.00000001
 43
0.00000001
 40
0.0
 40
0.0
 40
0.0
 40
0.0
 40
0.2152374887654879
 40
0.6120667269081355
 40
0.965875950652802
 40
1.0
 40
1.0
 40
1.0
 40
1.0
 10
356.7559785419731
 20
1152.600557108393
 30
0.0
 10
356.7553257968071
 20
1152.891111585285
 30
0.0
 10
356.7534695978723
 20
1153.717355789674
 30
0.0
 10
356.7750451345246
 20
1155.237322336527
 30
0.0
 10
356.7375796751533
 20
1156.450741294545
 30
0.0
 10
356.750130436628
 20
1156.937262804586
 30
0.0
 10
356.7512344481517
 20
1156.980059040869
 30
0.0
  0
SPLINE
  5
FA
330
1F
100
AcDbEntity
  8
0
  6
Continuous
 62
     7
370
    15
100
AcDbSpline
210
0.0
220
0.0
230
1.0
 70
     8
 71
     3
 72
    11
 73
     7
 74
     0
 42
0.00000001
 43
0.00000001
 40
0.0
 40
0.0
 40
0.0
 40
0.0
 40
0.035706694073279
 40
0.436720113581775
 40
0.8493997802212387
 40
1.0
 40
1.0
 40
1.0
 40
1.0
 10
360.1361295144753
 20
1158.827171092468
 30
0.0
 10
360.1686077659357
 20
1158.796766091903
 30
0.0
 10
360.5658415629827
 20
1158.424889735252
 30
0.0
 10
361.232176377802
 20
1157.282473192484
 30
0.0
 10
361.7093146423444
 20
1155.844690762236
 30
0.0
 10
361.7433724344935
 20
1154.950868291987
 30
0.0
 10
361.7524782291554
 20
1154.711893203921
 30
0.0
  0
SPLINE
  5
FB
330
1F
100
AcDbEntity
  8
0
  6
Continuous
 62
     7
370
    15
100
AcDbSpline
210
0.0
220
0.0
230
1.0
 70
     8
 71
     3
 72
     9
 73
     5
 74
     0
 42
0.00000001
 43
0.00000001
 40
0.0
 40
0.0
 40
0.0
 40
0.0
 40
0.7335482635832457
 40
1.0
 40
1.0
 40
1.0
 40
1.0
 10
367.1669897343529
 20
1154.711893203921
 30
0.0
 10
367.2031369762349
 20
1155.297319400019
 30
0.0
 10
367.2524142272032
 20
1156.095393944204
 30
0.0
 10
367.6639202289609
 20
1156.763961536494
 30
0.0
 10
367.7735667176754
 20
1156.942102532372
 30
0.0
  0
SPLINE
  5
FC
330
1F
100
AcDbEntity
  8
0
  6
Continuous
 62
     7
370
    15
100
AcDbSpline
210
0.0
220
0.0
230
1.0
 70
     8
 71
     3
 72
     9
 73
     5
 74
     0
 42
0.00000001
 43
0.00000001
 40
0.0
 40
0.0
 40
0.0
 40
0.0
 40
0.6798259565220292
 40
1.0
 40
1.0
 40
1.0
 40
1.0
 10
367.733146127923
 20
1152.569718401608
 30
0.0
 10
367.5170168137629
 20
1153.03646193785
 30
0.0
 10
367.1990982169714
 20
1153.723025214472
 30
0.0
 10
367.1747768157312
 20
1154.472068868477
 30
0.0
 10
367.1669897343529
 20
1154.711893203921
 30
0.0
  0
SPLINE
  5
FD
330
1F
100
AcDbEntity
  8
0
  6
Continuous
 62
     7
370
    15
100
AcDbSpline
210
0.0
220
0.0
230
1.0
 70
     8
 71
     3
 72
    12
 73
     8
 74
     0
 42
0.00000001
 43
0.00000001
 40
0.0
 40
0.0
 40
0.0
 40
0.0
 40
0.1930822241828305
 40
0.3854160155848045
 40
0.5960448427886177
 40
0.8231447254394813
 40
1.0
 40
1.0
 40
1.0
 40
1.0
 10
358.8961092597443
 20
1154.711893203922
 30
0.0
 10
358.9270386449875
 20
1154.144851000441
 30
0.0
 10
358.9887775257953
 20
1153.012964584388
 30
0.0
 10
359.491193035325
 20
1151.47355780882
 30
0.0
 10
360.3559551660543
 20
1150.199009392269
 30
0.0
 10
361.5850501569873
 20
1149.342106147687
 30
0.0
 10
362.6314663738186
 20
1149.279137990559
 30
0.0
 10
363.0895969955683
 20
1149.251569953566
 30
0.0
  0
SPLINE
  5
FE
330
1F
100
AcDbEntity
  8
0
  6
Continuous
 62
     7
370
    15
100
AcDbSpline
210
0.0
220
0.0
230
1.0
 70
     8
 71
     3
 72
    13
 73
     9
 74
     0
 42
0.00000001
 43
0.00000001
 40
0.0
 40
0.0
 40
0.0
 40
0.0
 40
0.0732262204282848
 40
0.2600101642167647
 40
0.4539517545305881
 40
0.6694183247142521
 40
0.8960451098572715
 40
1.0
 40
1.0
 40
1.0
 40
1.0
 10
363.08943327994
 20
1160.144863629523
 30
0.0
 10
362.8938974022595
 20
1160.162874700548
 30
0.0
 10
362.1995926113166
 20
1160.226828042772
 30
0.0
 10
361.15339054621
 20
1159.789264012353
 30
0.0
 10
360.0608163364193
 20
1158.896054213547
 30
0.0
 10
359.2850242124765
 20
1157.492276610281
 30
0.0
 10
358.9348645974912
 20
1155.984967029206
 30
0.0
 10
358.9053807623023
 20
1155.016452728206
 30
0.0
 10
358.8961092597442
 20
1154.711893203921
 30
0.0
  0
SPLINE
  5
FF
330
1F
100
AcDbEntity
  8
0
  6
Continuous
 62
     7
370
    15
100
AcDbSpline
210
0.0
220
0.0
230
1.0
 70
     8
 71
     3
 72
    17
 73
    13
 74
     0
 42
0.00000001
 43
0.00000001
 40
0.0
 40
0.0
 40
0.0
 40
0.0
 40
0.0284699229633949
 40
0.1301308460240618
 40
0.2343956924647715
 40
0.3499527854618042
 40
0.4731415282999434
 40
0.584123552494014
 40
0.6816888993071295
 40
0.7856220012542819
 40
0.9046225621154734
 40
1.0
 40
1.0
 40
1.0
 40
1.0
 10
376.9027158690856
 20
1149.268526483562
 30
0.0
 10
376.9801910220061
 20
1149.25142932263
 30
0.0
 10
377.3343158718815
 20
1149.173281305881
 30
0.0
 10
377.7123801723672
 20
1149.567299962545
 30
0.0
 10
378.0131819783193
 20
1150.403969481695
 30
0.0
 10
378.067155171648
 20
1151.760589563175
 30
0.0
 10
378.0086968403301
 20
1153.501803432953
 30
0.0
 10
377.9974031672642
 20
1155.336023404181
 30
0.0
 10
378.0465248137209
 20
1156.968117574329
 30
0.0
 10
378.0527210898659
 20
1158.385434334436
 30
0.0
 10
377.9370136463488
 20
1159.517968829009
 30
0.0
 10
377.5860312517971
 20
1159.842873218432
 30
0.0
 10
377.4298780936803
 20
1159.987424191022
 30
0.0
  0
SPLINE
  5
100
330
1F
100
AcDbEntity
  8
0
  6
Continuous
 62
     7
370
    15
100
AcDbSpline
210
0.0
220
0.0
230
1.0
 70
     8
 71
     3
 72
    11
 73
     7
 74
     0
 42
0.00000001
 43
0.00000001
 40
0.0
 40
0.0
 40
0.0
 40
0.0
 40
0.3174388909138017
 40
0.6336473129283913
 40
0.9799338837664611
 40
0.9999999999999999
 40
0.9999999999999999
 40
0.9999999999999999
 40
0.9999999999999999
 10
362.4811946026575
 20
1154.711893203921
 30
0.0
 10
362.4275547313629
 20
1154.141927596185
 30
0.0
 10
362.3204829097161
 20
1153.004205703432
 30
0.0
 10
361.5553334874657
 20
1151.509816729907
 30
0.0
 10
360.8729592737882
 20
1150.543602226791
 30
0.0
 10
360.4911533692584
 20
1150.264775740538
 30
0.0
 10
360.4702408389855
 20
1150.249503668352
 30
0.0
  0
SPLINE
  5
101
330
1F
100
AcDbEntity
  8
0
  6
Continuous
 62
     7
370
    15
100
AcDbSpline
210
0.0
220
0.0
230
1.0
 70
     8
 71
     3
 72
    11
 73
     7
 74
     0
 42
0.00000001
 43
0.00000001
 40
0.0
 40
0.0
 40
0.0
 40
0.0
 40
0.098079759419214
 40
0.4539707680059588
 40
0.8282953561246638
 40
1.0
 40
1.0
 40
1.0
 40
1.0
 10
360.4800661386371
 20
1159.133843726099
 30
0.0
 10
360.5828618007317
 20
1159.047419051721
 30
0.0
 10
361.0586605378526
 20
1158.647394866969
 30
0.0
 10
361.8419118398111
 20
1157.472149535856
 30
0.0
 10
362.4158729056799
 20
1155.987035218206
 30
0.0
 10
362.4655675867202
 20
1155.016947504428
 30
0.0
 10
362.4811946026575
 20
1154.711893203921
 30
0.0
  0
SPLINE
  5
102
330
1F
100
AcDbEntity
  8
0
  6
Continuous
 62
     7
370
    15
100
AcDbSpline
210
0.0
220
0.0
230
1.0
 70
     8
 71
     3
 72
     9
 73
     5
 74
     0
 42
0.00000001
 43
0.00000001
 40
0.0
 40
0.0
 40
0.0
 40
0.0
 40
0.63359775884033
 40
1.0
 40
1.0
 40
1.0
 40
1.0
 10
366.796118787392
 20
1154.711893203921
 30
0.0
 10
366.8414515409576
 20
1155.28740588893
 30
0.0
 10
366.9129997005479
 20
1156.195730890051
 30
0.0
 10
367.3986507309555
 20
1156.955438406619
 30
0.0
 10
367.5765943569182
 20
1157.233796943316
 30
0.0
  0
SPLINE
  5
103
330
1F
100
AcDbEntity
  8
0
  6
Continuous
 62
     7
370
    15
100
AcDbSpline
210
0.0
220
0.0
230
1.0
 70
     8
 71
     3
 72
    13
 73
     9
 74
     0
 42
0.00000001
 43
0.00000001
 40
0.0
 40
0.0
 40
0.0
 40
0.0
 40
0.1474589853489834
 40
0.3593926065518909
 40
0.5538241143131913
 40
0.7225884797323844
 40
0.8989948120592823
 40
1.0
 40
1.0
 40
1.0
 40
1.0
 10
375.3480124057286
 20
1158.770632672465
 30
0.0
 10
375.580099184586
 20
1158.465113874573
 30
0.0
 10
376.1457498446823
 20
1157.720491925187
 30
0.0
 10
376.5517595499902
 20
1156.109141819422
 30
0.0
 10
376.648679938223
 20
1154.27109589727
 30
0.0
 10
376.3888989865909
 20
1152.630027138632
 30
0.0
 10
375.9874527924824
 20
1151.400689963497
 30
0.0
 10
375.5109743011296
 20
1150.86987086634
 30
0.0
 10
375.3374890777242
 20
1150.676600296253
 30
0.0
  0
SPLINE
  5
104
330
1F
100
AcDbEntity
  8
0
  6
Continuous
 62
     7
370
    15
100
AcDbSpline
210
0.0
220
0.0
230
1.0
 70
     8
 71
     3
 72
     9
 73
     5
 74
     0
 42
0.00000001
 43
0.00000001
 40
0.0
 40
0.0
 40
0.0
 40
0.0
 40
0.6570934727103811
 40
1.0
 40
1.0
 40
1.0
 40
1.0
 10
367.5513176613067
 20
1152.187489249894
 30
0.0
 10
367.2747737849137
 20
1152.712666686028
 30
0.0
 10
366.8539145192568
 20
1153.511909804315
 30
0.0
 10
366.8108767272062
 20
1154.405481601921
 30
0.0
 10
366.796118787392
 20
1154.711893203921
 30
0.0
  0
LINE
  5
105
330
1F
100
AcDbEntity
  8
0
  6
Continuous
 62
     7
370
    15
100
AcDbLine
 10
606.8771048559
 20
1085.5118932038
 30
0.0
 11
606.8771048559
 21
1089.2118932039
 31
0.0
  0
LINE
  5
106
330
1F
100
AcDbEntity
  8
0
  6
Continuous
 62
     7
370
    15
100
AcDbLine
 10
128.6185262121
 20
1085.5118932038
 30
0.0
 11
128.6185262121
 21
1089.2118932039
 31
0.0
  0
LINE
  5
107
330
1F
100
AcDbEntity
  8
0
  6
Continuous
 62
     7
370
    15
100
AcDbLine
 10
128.6185262121
 20
1089.2118932039
 30
0.0
 11
128.6185262121
 21
1090.5118932039
 31
0.0
  0
LINE
  5
108
330
1F
100
AcDbEntity
  8
0
  6
Continuous
 62
     7
370
    15
100
AcDbLine
 10
606.8771048559
 20
1090.5118932039
 30
0.0
 11
606.8771048559
 21
1089.2118932039
 31
0.0
  0
LINE
  5
109
330
1F
100
AcDbEntity
  8
0
  6
Continuous
 62
     7
370
    15
100
AcDbLine
 10
128.547815534
 20
1085.5118932038
 30
0.0
 11
128.547815534
 21
1090.5118932039
 31
0.0
  0
LINE
  5
10A
330
1F
100
AcDbEntity
  8
0
  6
Continuous
 62
     7
370
    15
100
AcDbLine
 10
127.747815534
 20
1085.5118932038
 30
0.0
 11
127.747815534
 21
1090.5118932039
 31
0.0
  0
LINE
  5
10B
330
1F
100
AcDbEntity
  8
0
  6
Continuous
 62
     7
370
    15
100
AcDbLine
 10
606.947815534
 20
1085.5118932038
 30
0.0
 11
606.947815534
 21
1090.5118932039
 31
0.0
  0
LINE
  5
10C
330
1F
100
AcDbEntity
  8
0
  6
Continuous
 62
     7
370
    15
100
AcDbLine
 10
607.747815534
 20
1085.5118932038
 30
0.0
 11
607.747815534
 21
1090.5118932039
 31
0.0
  0
LINE
  5
10D
330
1F
100
AcDbEntity
  8
0
  6
Continuous
 62
     7
370
    15
100
AcDbLine
 10
628.347815534
 20
1085.5118932038
 30
0.0
 11
628.347815534
 21
1090.5118932039
 31
0.0
  0
LINE
  5
10E
330
1F
100
AcDbEntity
  8
0
  6
Continuous
 62
     7
370
    15
100
AcDbLine
 10
107.147815534
 20
1090.5118932039
 30
0.0
 11
107.147815534
 21
1090.1888872412
 31
0.0
  0
LINE
  5
10F
330
1F
100
AcDbEntity
  8
0
  6
Continuous
 62
     7
370
    15
100
AcDbLine
 10
608.547815534
 20
225.5118932038
 30
0.0
 11
608.547815534
 21
215.5118932039
 31
0.0
  0
LINE
  5
110
330
1F
100
AcDbEntity
  8
0
  6
Continuous
 62
     7
370
    15
100
AcDbLine
 10
608.547815534
 20
215.5118932039
 30
0.0
 11
607.747815534
 21
215.5118932039
 31
0.0
  0
LINE
  5
111
330
1F
100
AcDbEntity
  8
0
  6
Continuous
 62
     7
370
    15
100
AcDbLine
 10
607.747815534
 20
225.5118932038
 30
0.0
 11
607.747815534
 21
215.5118932039
 31
0.0
  0
LINE
  5
112
330
1F
100
AcDbEntity
  8
0
  6
Continuous
 62
     7
370
    15
100
AcDbLine
 10
608.547815534
 20
215.5118932039
 30
0.0
 11
608.547815534
 21
212.5118932039
 31
0.0
  0
LINE
  5
113
330
1F
100
AcDbEntity
  8
0
  6
Continuous
 62
     7
370
    15
100
AcDbLine
 10
607.747815534
 20
215.5118932039
 30
0.0
 11
607.747815534
 21
212.5118932039
 31
0.0
  0
LINE
  5
114
330
1F
100
AcDbEntity
  8
0
  6
Continuous
 62
     7
370
    15
100
AcDbLine
 10
126.947815534
 20
215.5118932039
 30
0.0
 11
127.747815534
 21
215.5118932039
 31
0.0
  0
LINE
  5
115
330
1F
100
AcDbEntity
  8
0
  6
Continuous
 62
     7
370
    15
100
AcDbLine
 10
126.947815534
 20
215.5118932039
 30
0.0
 11
126.947815534
 21
225.5118932038
 31
0.0
  0
LINE
  5
116
330
1F
100
AcDbEntity
  8
0
  6
Continuous
 62
     7
370
    15
100
AcDbLine
 10
127.747815534
 20
215.5118932039
 30
0.0
 11
127.747815534
 21
225.5118932038
 31
0.0
  0
LINE
  5
117
330
1F
100
AcDbEntity
  8
0
  6
Continuous
 62
     7
370
    15
100
AcDbLine
 10
126.947815534
 20
212.5118932039
 30
0.0
 11
126.947815534
 21
215.5118932039
 31
0.0
  0
LINE
  5
118
330
1F
100
AcDbEntity
  8
0
  6
Continuous
 62
     7
370
    15
100
AcDbLine
 10
127.747815534
 20
212.5118932039
 30
0.0
 11
127.747815534
 21
215.5118932039
 31
0.0
  0
LINE
  5
119
330
1F
100
AcDbEntity
  8
0
  6
Continuous
 62
     7
370
    15
100
AcDbLine
 10
127.747815534
 20
218.2118932039
 30
0.0
 11
128.947815534
 21
218.2118932039
 31
0.0
  0
LINE
  5
11A
330
1F
100
AcDbEntity
  8
0
  6
Continuous
 62
     7
370
    15
100
AcDbLine
 10
128.947815534
 20
225.5118932038
 30
0.0
 11
128.947815534
 21
218.2118932039
 31
0.0
  0
LINE
  5
11B
330
1F
100
AcDbEntity
  8
0
  6
Continuous
 62
     7
370
    15
100
AcDbLine
 10
128.947815534
 20
218.2118932039
 30
0.0
 11
128.947815534
 21
212.5118932039
 31
0.0
  0
LINE
  5
11C
330
1F
100
AcDbEntity
  8
0
  6
Continuous
 62
     7
370
    15
100
AcDbLine
 10
606.547815534
 20
218.2118932039
 30
0.0
 11
607.747815534
 21
218.2118932039
 31
0.0
  0
LINE
  5
11D
330
1F
100
AcDbEntity
  8
0
  6
Continuous
 62
     7
370
    15
100
AcDbLine
 10
606.547815534
 20
218.2118932039
 30
0.0
 11
606.547815534
 21
225.5118932038
 31
0.0
  0
LINE
  5
11E
330
1F
100
AcDbEntity
  8
0
  6
Continuous
 62
     7
370
    15
100
AcDbLine
 10
606.547815534
 20
212.5118932039
 30
0.0
 11
606.547815534
 21
218.2118932039
 31
0.0
  0
SPLINE
  5
11F
330
1F
100
AcDbEntity
  8
0
  6
Continuous
 62
     7
370
    15
100
AcDbSpline
210
0.0
220
0.0
230
1.0
 70
     8
 71
     3
 72
    12
 73
     8
 74
     0
 42
0.00000001
 43
0.00000001
 40
0.0
 40
0.0
 40
0.0
 40
0.0
 40
0.2286697549031683
 40
0.4574134284523624
 40
0.6861574263646822
 40
0.9149012395109408
 40
1.0
 40
1.0
 40
1.0
 40
1.0
 10
72.46781553400345
 20
-309.4381067961255
 30
0.0
 10
72.22234367979685
 20
-309.5280242901939
 30
0.0
 10
71.73132062137488
 20
-309.7078883446121
 30
0.0
 10
71.0881550823661
 20
-309.9777473098782
 30
0.0
 10
70.62398694552796
 20
-310.2474454052776
 30
0.0
 10
70.43520639311518
 20
-310.4612537148074
 30
0.0
 10
70.42152520364075
 20
-310.584089153209
 30
0.0
 10
70.41781553400345
 20
-310.6173961180068
 30
0.0
  0
LINE
  5
120
330
1F
100
AcDbEntity
  8
0
  6
Continuous
 62
     7
370
    15
100
AcDbLine
 10
70.417815534
 20
211.6411825258
 30
0.0
 11
70.417815534
 21
-310.617396118
 31
0.0
  0
SPLINE
  5
121
330
1F
100
AcDbEntity
  8
0
  6
Continuous
 62
     7
370
    15
100
AcDbSpline
210
0.0
220
0.0
230
1.0
 70
     8
 71
     3
 72
    12
 73
     8
 74
     0
 42
0.00000001
 43
0.00000001
 40
0.0
 40
0.0
 40
0.0
 40
0.0
 40
0.2286697549032046
 40
0.4574134284524101
 40
0.6861574263647446
 40
0.9149012395110105
 40
1.0
 40
1.0
 40
1.0
 40
1.0
 10
70.41781553400351
 20
211.6411825257559
 30
0.0
 10
70.44355168224537
 20
211.5512650316872
 30
0.0
 10
70.49503229806831
 20
211.371400977269
 30
0.0
 10
70.89464449469973
 20
211.1015420120027
 30
0.0
 10
71.47601082869848
 20
210.8318439166034
 30
0.0
 10
72.0415137671857
 20
210.6180356070738
 30
0.0
 10
72.37688047952962
 20
210.4952001686723
 30
0.0
 10
72.46781553400345
 20
210.4618932038746
 30
0.0
  0
LINE
  5
122
330
1F
100
AcDbEntity
  8
0
  6
Continuous
 62
     7
370
    15
100
AcDbLine
 10
70.417815534
 20
211.6411825258
 30
0.0
 11
71.217815534
 21
211.6411825258
 31
0.0
  0
SPLINE
  5
123
330
1F
100
AcDbEntity
  8
0
  6
Continuous
 62
     7
370
    15
100
AcDbSpline
210
0.0
220
0.0
230
1.0
 70
     8
 71
     3
 72
    11
 73
     7
 74
     0
 42
0.00000001
 43
0.00000001
 40
0.0
 40
0.0
 40
0.0
 40
0.0
 40
0.2506719719564104
 40
0.5014887651676574
 40
0.7523060046713126
 40
1.0
 40
1.0
 40
1.0
 40
1.0
 10
71.21781553400346
 20
211.6411825257557
 30
0.0
 10
71.2367092862728
 20
211.5426417154239
 30
0.0
 10
71.27450770633942
 20
211.3455031645671
 30
0.0
 10
71.56524654776885
 20
211.0497678522926
 30
0.0
 10
71.97896521743463
 20
210.7551888041853
 30
0.0
 10
72.3055474566241
 20
210.559249207447
 30
0.0
 10
72.46781553400345
 20
210.4618932038746
 30
0.0
  0
SPLINE
  5
124
330
1F
100
AcDbEntity
  8
0
  6
Continuous
 62
     7
370
    15
100
AcDbSpline
210
0.0
220
0.0
230
1.0
 70
     8
 71
     3
 72
    12
 73
     8
 74
     0
 42
0.00000001
 43
0.00000001
 40
0.0
 40
0.0
 40
0.0
 40
0.0
 40
0.2286697549032257
 40
0.4574134284524312
 40
0.6861574263647015
 40
0.9149012395110288
 40
1.0
 40
1.0
 40
1.0
 40
1.0
 10
665.5471048558848
 20
212.5118932038746
 30
0.0
 10
665.4571873618162
 20
212.4861570556328
 30
0.0
 10
665.2773233073984
 20
212.4346764398101
 30
0.0
 10
665.0074643421314
 20
212.0350642431777
 30
0.0
 10
664.737766246733
 20
211.45369790918
 30
0.0
 10
664.5239579372026
 20
210.8881949706923
 30
0.0
 10
664.4011224988012
 20
210.5528282583483
 30
0.0
 10
664.3678155340035
 20
210.4618932038746
 30
0.0
  0
LINE
  5
125
330
1F
100
AcDbEntity
  8
0
  6
Continuous
 62
     7
370
    15
100
AcDbLine
 10
665.5471048559
 20
212.5118932039
 30
0.0
 11
665.5471048559
 21
211.7118932039
 31
0.0
  0
SPLINE
  5
126
330
1F
100
AcDbEntity
  8
0
  6
Continuous
 62
     7
370
    15
100
AcDbSpline
210
0.0
220
0.0
230
1.0
 70
     8
 71
     3
 72
    11
 73
     7
 74
     0
 42
0.00000001
 43
0.00000001
 40
0.0
 40
0.0
 40
0.0
 40
0.0
 40
0.2506719719564365
 40
0.5014887651676592
 40
0.752306004671358
 40
1.0
 40
1.0
 40
1.0
 40
1.0
 10
665.5471048558848
 20
211.7118932038745
 30
0.0
 10
665.4485640455528
 20
211.6929994516051
 30
0.0
 10
665.2514254946956
 20
211.6552010315388
 30
0.0
 10
664.9556901824216
 20
211.3644621901093
 30
0.0
 10
664.6611111343143
 20
210.9507435204433
 30
0.0
 10
664.4651715375759
 20
210.6241612812537
 30
0.0
 10
664.3678155340035
 20
210.4618932038746
 30
0.0
  0
SPLINE
  5
127
330
1F
100
AcDbEntity
  8
0
  6
Continuous
 62
     7
370
    15
100
AcDbSpline
210
0.0
220
0.0
230
1.0
 70
     8
 71
     3
 72
    12
 73
     8
 74
     0
 42
0.00000001
 43
0.00000001
 40
0.0
 40
0.0
 40
0.0
 40
0.0
 40
0.2286697549032682
 40
0.4574134284524536
 40
0.686157426364727
 40
0.9149012395110053
 40
1.0
 40
1.0
 40
1.0
 40
1.0
 10
72.4678155340035
 20
210.4618932038746
 30
0.0
 10
72.37789803993499
 20
210.707365058081
 30
0.0
 10
72.19803398551683
 20
211.1983881165031
 30
0.0
 10
71.9281750202505
 20
211.8415536555126
 30
0.0
 10
71.6584769248515
 20
212.3057217923502
 30
0.0
 10
71.44466861532139
 20
212.4945023447627
 30
0.0
 10
71.32183317691987
 20
212.5081835342372
 30
0.0
 10
71.28852621212212
 20
212.5118932038746
 30
0.0
  0
LINE
  5
128
330
1F
100
AcDbEntity
  8
0
  6
Continuous
 62
     7
370
    15
100
AcDbLine
 10
665.5471048559
 20
212.5118932039
 30
0.0
 11
71.2885262121
 21
212.5118932039
 31
0.0
  0
SPLINE
  5
129
330
1F
100
AcDbEntity
  8
0
  6
Continuous
 62
     7
370
    15
100
AcDbSpline
210
0.0
220
0.0
230
1.0
 70
     8
 71
     3
 72
    12
 73
     8
 74
     0
 42
0.00000001
 43
0.00000001
 40
0.0
 40
0.0
 40
0.0
 40
0.0
 40
0.2286697549032752
 40
0.4574134284524626
 40
0.6861574263647346
 40
0.9149012395110571
 40
0.9999999999999999
 40
0.9999999999999999
 40
0.9999999999999999
 40
0.9999999999999999
 10
664.3678155340035
 20
210.4618932038746
 30
0.0
 10
664.6132873882102
 20
210.551810697943
 30
0.0
 10
665.1043104466324
 20
210.7316747523612
 30
0.0
 10
665.7474759856409
 20
211.0015337176278
 30
0.0
 10
666.2116441224791
 20
211.2712318130266
 30
0.0
 10
666.4004246748917
 20
211.4850401225564
 30
0.0
 10
666.4141058643662
 20
211.6078755609584
 30
0.0
 10
666.4178155340034
 20
211.6411825257559
 30
0.0
  0
SPLINE
  5
12A
330
1F
100
AcDbEntity
  8
0
  6
Continuous
 62
     7
370
    15
100
AcDbSpline
210
0.0
220
0.0
230
1.0
 70
     8
 71
     3
 72
    11
 73
     7
 74
     0
 42
0.00000001
 43
0.00000001
 40
0.0
 40
0.0
 40
0.0
 40
0.0
 40
0.2506719719563344
 40
0.5014887651675606
 40
0.7523060046713148
 40
1.0
 40
1.0
 40
1.0
 40
1.0
 10
664.3678155340035
 20
210.4618932038746
 30
0.0
 10
664.5320551331604
 20
210.5604340142063
 30
0.0
 10
664.8606292179696
 20
210.7575725650633
 30
0.0
 10
665.27467894614
 20
211.0533078773379
 30
0.0
 10
665.5622358583745
 20
211.3478869254449
 30
0.0
 10
665.5993665184253
 20
211.5438265221833
 30
0.0
 10
665.6178155340034
 20
211.6411825257559
 30
0.0
  0
LINE
  5
12B
330
1F
100
AcDbEntity
  8
0
  6
Continuous
 62
     7
370
    15
100
AcDbLine
 10
666.417815534
 20
211.6411825258
 30
0.0
 11
665.617815534
 21
211.6411825258
 31
0.0
  0
SPLINE
  5
12C
330
1F
100
AcDbEntity
  8
0
  6
Continuous
 62
     7
370
    15
100
AcDbSpline
210
0.0
220
0.0
230
1.0
 70
     8
 71
     3
 72
    11
 73
     7
 74
     0
 42
0.00000001
 43
0.00000001
 40
0.0
 40
0.0
 40
0.0
 40
0.0
 40
0.2506719719564046
 40
0.5014887651676386
 40
0.7523060046713973
 40
1.0
 40
1.0
 40
1.0
 40
1.0
 10
72.46781553400345
 20
-309.4381067961255
 30
0.0
 10
72.30357593484649
 20
-309.5366476064573
 30
0.0
 10
71.97500185003747
 20
-309.7337861573142
 30
0.0
 10
71.56095212186653
 20
-310.029521469589
 30
0.0
 10
71.2733952096325
 20
-310.3241005176957
 30
0.0
 10
71.23626454958149
 20
-310.5200401144342
 30
0.0
 10
71.21781553400352
 20
-310.6173961180066
 30
0.0
  0
LINE
  5
12D
330
1F
100
AcDbEntity
  8
0
  6
Continuous
 62
     7
370
    15
100
AcDbLine
 10
70.417815534
 20
-310.617396118
 30
0.0
 11
71.217815534
 21
-310.617396118
 31
0.0
  0
SPLINE
  5
12E
330
1F
100
AcDbEntity
  8
0
  6
Continuous
 62
     7
370
    15
100
AcDbSpline
210
0.0
220
0.0
230
1.0
 70
     8
 71
     3
 72
    12
 73
     8
 74
     0
 42
0.00000001
 43
0.00000001
 40
0.0
 40
0.0
 40
0.0
 40
0.0
 40
0.2286697549032308
 40
0.4574134284524243
 40
0.6861574263647297
 40
0.9149012395109883
 40
1.0
 40
1.0
 40
1.0
 40
1.0
 10
664.3678155340034
 20
-309.4381067961255
 30
0.0
 10
664.457733028072
 20
-309.683578650332
 30
0.0
 10
664.6375970824903
 20
-310.174601708754
 30
0.0
 10
664.9074560477562
 20
-310.8177672477631
 30
0.0
 10
665.1771541431555
 20
-311.2819353846011
 30
0.0
 10
665.3909624526859
 20
-311.4707159370135
 30
0.0
 10
665.5137978910869
 20
-311.4843971264883
 30
0.0
 10
665.5471048558848
 20
-311.4881067961255
 30
0.0
  0
LINE
  5
12F
330
1F
100
AcDbEntity
  8
0
  6
Continuous
 62
     7
370
    15
100
AcDbLine
 10
71.2885262121
 20
-311.4881067961
 30
0.0
 11
665.5471048559
 21
-311.4881067961
 31
0.0
  0
SPLINE
  5
130
330
1F
100
AcDbEntity
  8
0
  6
Continuous
 62
     7
370
    15
100
AcDbSpline
210
0.0
220
0.0
230
1.0
 70
     8
 71
     3
 72
    12
 73
     8
 74
     0
 42
0.00000001
 43
0.00000001
 40
0.0
 40
0.0
 40
0.0
 40
0.0
 40
0.2286697549032129
 40
0.4574134284524148
 40
0.6861574263647205
 40
0.9149012395109919
 40
1.0
 40
1.0
 40
1.0
 40
1.0
 10
71.28852621212212
 20
-311.4881067961255
 30
0.0
 10
71.37844370619062
 20
-311.4623706478835
 30
0.0
 10
71.55830776060878
 20
-311.4108900320607
 30
0.0
 10
71.8281667258751
 20
-311.011277835429
 30
0.0
 10
72.09786482127411
 20
-310.4299115014306
 30
0.0
 10
72.31167313080422
 20
-309.8644085629431
 30
0.0
 10
72.43450856920575
 20
-309.5290418505994
 30
0.0
 10
72.46781553400345
 20
-309.4381067961255
 30
0.0
  0
SPLINE
  5
131
330
1F
100
AcDbEntity
  8
0
  6
Continuous
 62
     7
370
    15
100
AcDbSpline
210
0.0
220
0.0
230
1.0
 70
     8
 71
     3
 72
    11
 73
     7
 74
     0
 42
0.00000001
 43
0.00000001
 40
0.0
 40
0.0
 40
0.0
 40
0.0
 40
0.2506719719565095
 40
0.5014887651677463
 40
0.7523060046713751
 40
1.0
 40
1.0
 40
1.0
 40
1.0
 10
72.4678155340035
 20
210.4618932038746
 30
0.0
 10
72.36927472367155
 20
210.6261328030313
 30
0.0
 10
72.17213617281448
 20
210.9547068878402
 30
0.0
 10
71.87640086053982
 20
211.3687566160113
 30
0.0
 10
71.58182181243322
 20
211.6563135282455
 30
0.0
 10
71.38588221569464
 20
211.6934441882966
 30
0.0
 10
71.28852621212212
 20
211.7118932038745
 30
0.0
  0
LINE
  5
132
330
1F
100
AcDbEntity
  8
0
  6
Continuous
 62
     7
370
    15
100
AcDbLine
 10
71.2885262121
 20
212.5118932039
 30
0.0
 11
71.2885262121
 21
211.7118932039
 31
0.0
  0
SPLINE
  5
133
330
1F
100
AcDbEntity
  8
0
  6
Continuous
 62
     7
370
    15
100
AcDbSpline
210
0.0
220
0.0
230
1.0
 70
     8
 71
     3
 72
    12
 73
     8
 74
     0
 42
0.00000001
 43
0.00000001
 40
0.0
 40
0.0
 40
0.0
 40
0.0
 40
0.2286697549032215
 40
0.4574134284524064
 40
0.6861574263647334
 40
0.9149012395110246
 40
1.0
 40
1.0
 40
1.0
 40
1.0
 10
666.4178155340034
 20
-310.6173961180068
 30
0.0
 10
666.3920793857613
 20
-310.5274786239384
 30
0.0
 10
666.3405987699387
 20
-310.3476145695201
 30
0.0
 10
665.9409865733069
 20
-310.0777556042538
 30
0.0
 10
665.3596202393082
 20
-309.8080575088547
 30
0.0
 10
664.7941173008214
 20
-309.5942491993247
 30
0.0
 10
664.4587505884773
 20
-309.4714137609233
 30
0.0
 10
664.3678155340035
 20
-309.4381067961255
 30
0.0
  0
LINE
  5
134
330
1F
100
AcDbEntity
  8
0
  6
Continuous
 62
     7
370
    15
100
AcDbLine
 10
666.417815534
 20
-310.617396118
 30
0.0
 11
665.617815534
 21
-310.617396118
 31
0.0
  0
SPLINE
  5
135
330
1F
100
AcDbEntity
  8
0
  6
Continuous
 62
     7
370
    15
100
AcDbSpline
210
0.0
220
0.0
230
1.0
 70
     8
 71
     3
 72
    11
 73
     7
 74
     0
 42
0.00000001
 43
0.00000001
 40
0.0
 40
0.0
 40
0.0
 40
0.0
 40
0.250671971956396
 40
0.5014887651676896
 40
0.7523060046713684
 40
1.0
 40
1.0
 40
1.0
 40
1.0
 10
665.6178155340034
 20
-310.6173961180068
 30
0.0
 10
665.5989217817341
 20
-310.5188553076749
 30
0.0
 10
665.5611233616675
 20
-310.3217167568181
 30
0.0
 10
665.2703845202383
 20
-310.0259814445432
 30
0.0
 10
664.8566658505723
 20
-309.7314023964366
 30
0.0
 10
664.5300836113828
 20
-309.5354627996979
 30
0.0
 10
664.3678155340035
 20
-309.4381067961255
 30
0.0
  0
LINE
  5
136
330
1F
100
AcDbEntity
  8
0
  6
Continuous
 62
     7
370
    15
100
AcDbLine
 10
71.2885262121
 20
-311.4881067961
 30
0.0
 11
71.2885262121
 21
-310.6881067961
 31
0.0
  0
SPLINE
  5
137
330
1F
100
AcDbEntity
  8
0
  6
Continuous
 62
     7
370
    15
100
AcDbSpline
210
0.0
220
0.0
230
1.0
 70
     8
 71
     3
 72
    11
 73
     7
 74
     0
 42
0.00000001
 43
0.00000001
 40
0.0
 40
0.0
 40
0.0
 40
0.0
 40
0.250671971956437
 40
0.5014887651676598
 40
0.7523060046713279
 40
1.0
 40
1.0
 40
1.0
 40
1.0
 10
71.28852621212212
 20
-310.6881067961255
 30
0.0
 10
71.38706702245395
 20
-310.6692130438562
 30
0.0
 10
71.58420557331091
 20
-310.6314146237894
 30
0.0
 10
71.87994088558564
 20
-310.3406757823602
 30
0.0
 10
72.17451993369234
 20
-309.9269571126944
 30
0.0
 10
72.37045953043092
 20
-309.6003748735049
 30
0.0
 10
72.46781553400345
 20
-309.4381067961255
 30
0.0
  0
SPLINE
  5
138
330
1F
100
AcDbEntity
  8
0
  6
Continuous
 62
     7
370
    15
100
AcDbSpline
210
0.0
220
0.0
230
1.0
 70
     8
 71
     3
 72
    11
 73
     7
 74
     0
 42
0.00000001
 43
0.00000001
 40
0.0
 40
0.0
 40
0.0
 40
0.0
 40
0.2506719719564606
 40
0.5014887651676673
 40
0.7523060046713616
 40
1.0
 40
1.0
 40
1.0
 40
1.0
 10
664.3678155340034
 20
-309.4381067961255
 30
0.0
 10
664.4663563443353
 20
-309.6023463952825
 30
0.0
 10
664.6634948951922
 20
-309.9309204800915
 30
0.0
 10
664.9592302074669
 20
-310.3449702082623
 30
0.0
 10
665.2538092555736
 20
-310.6325271204964
 30
0.0
 10
665.4497488523124
 20
-310.6696577805473
 30
0.0
 10
665.5471048558849
 20
-310.6881067961253
 30
0.0
  0
LINE
  5
139
330
1F
100
AcDbEntity
  8
0
  6
Continuous
 62
     7
370
    15
100
AcDbLine
 10
665.5471048559
 20
-311.4881067961
 30
0.0
 11
665.5471048559
 21
-310.6881067961
 31
0.0
  0
LINE
  5
13A
330
1F
100
AcDbEntity
  8
0
  6
Continuous
 62
     7
370
    15
100
AcDbLine
 10
666.417815534
 20
211.6411825258
 30
0.0
 11
666.417815534
 21
-310.617396118
 31
0.0
  0
ARC
  5
13B
330
1F
100
AcDbEntity
  8
0
  6
Continuous
 62
     7
370
    15
100
AcDbCircle
 10
121.2020129763
 20
-231.4881067961
 30
0.0
 40
2.149999999999991
100
AcDbArc
 50
0.0
 51
180.0
  0
LINE
  5
13C
330
1F
100
AcDbEntity
  8
0
  6
Continuous
 62
     7
370
    15
100
AcDbLine
 10
664.4478155346
 20
-313.3881067978
 30
0.0
 11
664.4478155346
 21
-314.8881067978
 31
0.0
  0
LINE
  5
13D
330
1F
100
AcDbEntity
  8
0
  6
Continuous
 62
     7
370
    15
100
AcDbLine
 10
659.4478155346
 20
-313.3881067978
 30
0.0
 11
664.4478155346
 21
-313.3881067978
 31
0.0
  0
LINE
  5
13E
330
1F
100
AcDbEntity
  8
0
  6
Continuous
 62
     7
370
    15
100
AcDbLine
 10
664.4478155346
 20
-314.8881067978
 30
0.0
 11
659.4478155346
 21
-314.8881067978
 31
0.0
  0
LINE
  5
13F
330
1F
100
AcDbEntity
  8
0
  6
Continuous
 62
     7
370
    15
100
AcDbLine
 10
646.5188833465
 20
-313.3881067978
 30
0.0
 11
659.4478155346
 21
-313.3881067978
 31
0.0
  0
LINE
  5
140
330
1F
100
AcDbEntity
  8
0
  6
Continuous
 62
     7
370
    15
100
AcDbLine
 10
646.5188833465
 20
-314.8881067978
 30
0.0
 11
659.4478155346
 21
-314.8881067978
 31
0.0
  0
LINE
  5
141
330
1F
100
AcDbEntity
  8
0
  6
Continuous
 62
     7
370
    15
100
AcDbLine
 10
642.9833494405
 20
-313.3881067978
 30
0.0
 11
646.5188833465
 21
-313.3881067978
 31
0.0
  0
LINE
  5
142
330
1F
100
AcDbEntity
  8
0
  6
Continuous
 62
     7
370
    15
100
AcDbLine
 10
646.5188833465
 20
-314.8881067978
 30
0.0
 11
642.9833494405
 21
-314.8881067978
 31
0.0
  0
LINE
  5
143
330
1F
100
AcDbEntity
  8
0
  6
Continuous
 62
     7
370
    15
100
AcDbLine
 10
630.9122816287
 20
-313.3881067978
 30
0.0
 11
642.9833494405
 21
-313.3881067978
 31
0.0
  0
LINE
  5
144
330
1F
100
AcDbEntity
  8
0
  6
Continuous
 62
     7
370
    15
100
AcDbLine
 10
630.9122816287
 20
-314.8881067978
 30
0.0
 11
642.9833494405
 21
-314.8881067978
 31
0.0
  0
LINE
  5
145
330
1F
100
AcDbEntity
  8
0
  6
Continuous
 62
     7
370
    15
100
AcDbLine
 10
629.4478155346
 20
-314.8881067978
 30
0.0
 11
629.4478155346
 21
-313.3881067978
 31
0.0
  0
LINE
  5
146
330
1F
100
AcDbEntity
  8
0
  6
Continuous
 62
     7
370
    15
100
AcDbLine
 10
629.4478155346
 20
-313.3881067978
 30
0.0
 11
630.9122816287
 21
-313.3881067978
 31
0.0
  0
LINE
  5
147
330
1F
100
AcDbEntity
  8
0
  6
Continuous
 62
     7
370
    15
100
AcDbLine
 10
630.9122816287
 20
-314.8881067978
 30
0.0
 11
629.4478155346
 21
-314.8881067978
 31
0.0
  0
LINE
  5
148
330
1F
100
AcDbEntity
  8
0
  6
Continuous
 62
     7
370
    15
100
AcDbLine
 10
664.4478155346
 20
-313.3881067978
 30
0.0
 11
664.4478155346
 21
-311.6381067978
 31
0.0
  0
LINE
  5
149
330
1F
100
AcDbEntity
  8
0
  6
Continuous
 62
     7
370
    15
100
AcDbLine
 10
629.4478155346
 20
-311.6381067978
 30
0.0
 11
629.4478155346
 21
-313.3881067978
 31
0.0
  0
LINE
  5
14A
330
1F
100
AcDbEntity
  8
0
  6
Continuous
 62
     7
370
    15
100
AcDbLine
 10
664.4478155346
 20
-311.4881067961
 30
0.0
 11
664.4478155346
 21
-311.6381067978
 31
0.0
  0
LINE
  5
14B
330
1F
100
AcDbEntity
  8
0
  6
Continuous
 62
     7
370
    15
100
AcDbLine
 10
629.4478155346
 20
-311.6381067978
 30
0.0
 11
629.4478155346
 21
-311.4881067961
 31
0.0
  0
ELLIPSE
  5
14C
330
1F
100
AcDbEntity
  8
0
  6
Continuous
 62
     7
370
    15
100
AcDbEllipse
 10
181.117815534
 20
177.7520952292
 30
0.0
 11
0.0
 21
2.121320343559631
 31
0.0
210
0.0
220
0.0
230
1.0
 40
0.7071067812
 41
4.712388980384699
 42
6.283185307179586
  0
ELLIPSE
  5
14D
330
1F
100
AcDbEntity
  8
0
  6
Continuous
 62
     7
370
    15
100
AcDbEllipse
 10
105.117815534
 20
177.7520952292
 30
0.0
 11
0.0
 21
-2.121320343559631
 31
0.0
210
0.0
220
0.0
230
1.0
 40
0.7071067812
 41
3.141592653589933
 42
4.712388980384699
  0
LINE
  5
14E
330
1F
100
AcDbEntity
  8
0
  6
Continuous
 62
     7
370
    15
100
AcDbLine
 10
103.617815534
 20
149.0618932039
 30
0.0
 11
103.617815534
 21
177.7520952292
 31
0.0
  0
ARC
  5
14F
330
1F
100
AcDbEntity
  8
0
  6
Continuous
 62
     7
370
    15
100
AcDbCircle
 10
105.117815534
 20
149.0618932039
 30
0.0
 40
1.500000000000057
100
AcDbArc
 50
180.0
 51
270.0
  0
LINE
  5
150
330
1F
100
AcDbEntity
  8
0
  6
Continuous
 62
     7
370
    15
100
AcDbLine
 10
181.117815534
 20
147.5618932039
 30
0.0
 11
105.117815534
 21
147.5618932039
 31
0.0
  0
ARC
  5
151
330
1F
100
AcDbEntity
  8
0
  6
Continuous
 62
     7
370
    15
100
AcDbCircle
 10
181.117815534
 20
149.0618932039
 30
0.0
 40
1.500000000000057
100
AcDbArc
 50
270.0
 51
0.0
  0
ARC
  5
152
330
1F
100
AcDbEntity
  8
0
  6
Continuous
 62
     7
370
    15
100
AcDbCircle
 10
186.617815534
 20
146.0618932039
 30
0.0
 40
1.500000000000057
100
AcDbArc
 50
270.0
 51
0.0
  0
LINE
  5
153
330
1F
100
AcDbEntity
  8
0
  6
Continuous
 62
     7
370
    15
100
AcDbLine
 10
186.617815534
 20
144.5618932039
 30
0.0
 11
99.617815534
 21
144.5618932039
 31
0.0
  0
ARC
  5
154
330
1F
100
AcDbEntity
  8
0
  6
Continuous
 62
     7
370
    15
100
AcDbCircle
 10
99.617815534
 20
146.0618932039
 30
0.0
 40
1.500000000000057
100
AcDbArc
 50
180.0
 51
270.0
  0
LINE
  5
155
330
1F
100
AcDbEntity
  8
0
  6
Continuous
 62
     7
370
    15
100
AcDbLine
 10
98.117815534
 20
146.0618932039
 30
0.0
 11
98.117815534
 21
183.0618932039
 31
0.0
  0
ARC
  5
156
330
1F
100
AcDbEntity
  8
0
  6
Continuous
 62
     7
370
    15
100
AcDbCircle
 10
99.617815534
 20
183.0618932039
 30
0.0
 40
1.500000000000057
100
AcDbArc
 50
90.0
 51
180.0
  0
LINE
  5
157
330
1F
100
AcDbEntity
  8
0
  6
Continuous
 62
     7
370
    15
100
AcDbLine
 10
99.617815534
 20
184.5618932039
 30
0.0
 11
186.617815534
 21
184.5618932039
 31
0.0
  0
ARC
  5
158
330
1F
100
AcDbEntity
  8
0
  6
Continuous
 62
     7
370
    15
100
AcDbCircle
 10
186.617815534
 20
183.0618932039
 30
0.0
 40
1.5
100
AcDbArc
 50
0.0
 51
90.0
  0
LINE
  5
159
330
1F
100
AcDbEntity
  8
0
  6
Continuous
 62
     7
370
    15
100
AcDbLine
 10
188.117815534
 20
183.0618932039
 30
0.0
 11
188.117815534
 21
146.0618932039
 31
0.0
  0
LINE
  5
15A
330
1F
100
AcDbEntity
  8
0
  6
Continuous
 62
     7
370
    15
100
AcDbLine
 10
181.117815534
 20
179.8734155728
 30
0.0
 11
105.117815534
 21
179.8734155728
 31
0.0
  0
LINE
  5
15B
330
1F
100
AcDbEntity
  8
0
  6
Continuous
 62
     7
370
    15
100
AcDbLine
 10
182.617815534
 20
177.7520952292
 30
0.0
 11
182.617815534
 21
149.0618932039
 31
0.0
  0
LINE
  5
15C
330
1F
100
AcDbEntity
  8
0
  6
Continuous
 62
     7
370
    15
100
AcDbLine
 10
103.617815534
 20
174.975374597
 30
0.0
 11
182.617815534
 21
174.975374597
 31
0.0
  0
LINE
  5
15D
330
1F
100
AcDbEntity
  8
0
  6
Continuous
 62
     7
370
    15
100
AcDbLine
 10
138.447815534
 20
-312.217396118
 30
0.0
 11
138.447815534
 21
-313.4881067962
 31
0.0
  0
LINE
  5
15E
330
1F
100
AcDbEntity
  8
0
  6
Continuous
 62
     7
370
    15
100
AcDbLine
 10
138.447815534
 20
-313.4881067962
 30
0.0
 11
137.647815534
 21
-313.4881067962
 31
0.0
  0
LINE
  5
15F
330
1F
100
AcDbEntity
  8
0
  6
Continuous
 62
     7
370
    15
100
AcDbLine
 10
137.647815534
 20
-312.217396118
 30
0.0
 11
137.647815534
 21
-313.4881067962
 31
0.0
  0
LINE
  5
160
330
1F
100
AcDbEntity
  8
0
  6
Continuous
 62
     7
370
    15
100
AcDbLine
 10
136.397815534
 20
-313.4881067962
 30
0.0
 11
137.647815534
 21
-313.4881067962
 31
0.0
  0
LINE
  5
161
330
1F
100
AcDbEntity
  8
0
  6
Continuous
 62
     7
370
    15
100
AcDbLine
 10
106.1771048559
 20
-313.4881067962
 30
0.0
 11
136.397815534
 21
-313.4881067962
 31
0.0
  0
LINE
  5
162
330
1F
100
AcDbEntity
  8
0
  6
Continuous
 62
     7
370
    15
100
AcDbLine
 10
666.397815534
 20
1090.1411825257
 30
0.0
 11
666.8834787743
 21
1089.9594357354
 31
0.0
  0
SPLINE
  5
163
330
1F
100
AcDbEntity
  8
0
  6
Continuous
 62
     7
370
    15
100
AcDbSpline
210
0.0
220
0.0
230
1.0
 70
     8
 71
     3
 72
     9
 73
     5
 74
     0
 42
0.00000001
 43
0.00000001
 40
0.0
 40
0.0
 40
0.0
 40
0.0
 40
0.6505232438100292
 40
1.0
 40
1.0
 40
1.0
 40
1.0
 10
668.2478155339809
 20
1089.79824292901
 30
0.0
 10
668.1628981492269
 20
1089.984668083756
 30
0.0
 10
668.0323610999178
 20
1090.271245322187
 30
0.0
 10
667.7780902196325
 20
1090.449572129641
 30
0.0
 10
667.6892284571969
 20
1090.511893203852
 30
0.0
  0
SPLINE
  5
164
330
1F
100
AcDbEntity
  8
0
  6
Continuous
 62
     7
370
    15
100
AcDbSpline
210
0.0
220
0.0
230
1.0
 70
     8
 71
     3
 72
     9
 73
     5
 74
     0
 42
0.00000001
 43
0.00000001
 40
0.0
 40
0.0
 40
0.0
 40
0.0
 40
0.5046918713484336
 40
1.0
 40
1.0
 40
1.0
 40
1.0
 10
666.3978155339995
 20
-313.9881067961537
 30
0.0
 10
666.6458464742504
 20
-313.9650881914563
 30
0.0
 10
667.1372967121712
 20
-313.9194789672857
 30
0.0
 10
667.5375090505786
 20
-313.6309951672794
 30
0.0
 10
667.7357374749784
 20
-313.488106796152
 30
0.0
  0
LINE
  5
165
330
1F
100
AcDbEntity
  8
0
  6
Continuous
 62
     7
370
    15
100
AcDbLine
 10
666.397815534
 20
-313.9881067962
 30
0.0
 11
666.397815534
 21
-313.4881067962
 31
0.0
  0
LINE
  5
166
330
1F
100
AcDbEntity
  8
0
  6
Continuous
 62
     7
370
    15
100
AcDbLine
 10
666.397815534
 20
1090.2118932038
 30
0.0
 11
666.0929938449
 21
1090.2118932038
 31
0.0
  0
LINE
  5
167
330
1F
100
AcDbEntity
  8
0
  6
Continuous
 62
     7
370
    15
100
AcDbLine
 10
666.397815534
 20
-313.9881067962
 30
0.0
 11
664.4478155346
 21
-313.9881067962
 31
0.0
  0
LINE
  5
168
330
1F
100
AcDbEntity
  8
0
  6
Continuous
 62
     7
370
    15
100
AcDbLine
 10
667.647815534
 20
-313.9881067962
 30
0.0
 11
668.447815534
 21
-313.9881067962
 31
0.0
  0
LINE
  5
169
330
1F
100
AcDbEntity
  8
0
  6
Continuous
 62
     7
370
    15
100
AcDbLine
 10
667.647815534
 20
-313.540694602
 30
0.0
 11
667.647815534
 21
-313.9881067962
 31
0.0
  0
LINE
  5
16A
330
1F
100
AcDbEntity
  8
0
  6
Continuous
 62
     7
370
    15
100
AcDbLine
 10
668.447815534
 20
-313.4881067962
 30
0.0
 11
668.447815534
 21
-313.9881067962
 31
0.0
  0
LINE
  5
16B
330
1F
100
AcDbEntity
  8
0
  6
Continuous
 62
     7
370
    15
100
AcDbLine
 10
666.397815534
 20
-313.9881067962
 30
0.0
 11
667.647815534
 21
-313.9881067962
 31
0.0
  0
LINE
  5
16C
330
1F
100
AcDbEntity
  8
0
  6
Continuous
 62
     7
370
    15
100
AcDbLine
 10
138.7185262121
 20
-313.4881067962
 30
0.0
 11
138.7185262121
 21
-312.2881067962
 31
0.0
  0
LINE
  5
16D
330
1F
100
AcDbEntity
  8
0
  6
Continuous
 62
     7
370
    15
100
AcDbLine
 10
510.0185262122
 20
-312.2881067962
 30
0.0
 11
168.1503218154
 21
-312.2881067962
 31
0.0
  0
LINE
  5
16E
330
1F
100
AcDbEntity
  8
0
  6
Continuous
 62
     7
370
    15
100
AcDbLine
 10
158.7453092526
 20
-312.2881067962
 30
0.0
 11
138.7185262121
 21
-312.2881067962
 31
0.0
  0
LINE
  5
16F
330
1F
100
AcDbEntity
  8
0
  6
Continuous
 62
     7
370
    15
100
AcDbLine
 10
510.0185262122
 20
-313.4881067962
 30
0.0
 11
169.847815534
 21
-313.4881067962
 31
0.0
  0
LINE
  5
170
330
1F
100
AcDbEntity
  8
0
  6
Continuous
 62
     7
370
    15
100
AcDbLine
 10
157.047815534
 20
-313.4881067962
 30
0.0
 11
138.7185262121
 21
-313.4881067962
 31
0.0
  0
LINE
  5
171
330
1F
100
AcDbEntity
  8
0
  6
Continuous
 62
     7
370
    15
100
AcDbLine
 10
137.447815534
 20
-312.217396118
 30
0.0
 11
137.447815534
 21
-311.4881067961
 31
0.0
  0
LINE
  5
172
330
1F
100
AcDbEntity
  8
0
  6
Continuous
 62
     7
370
    15
100
AcDbLine
 10
137.447815534
 20
-312.217396118
 30
0.0
 11
138.647815534
 21
-312.217396118
 31
0.0
  0
LINE
  5
173
330
1F
100
AcDbEntity
  8
0
  6
Continuous
 62
     7
370
    15
100
AcDbLine
 10
138.647815534
 20
-312.217396118
 30
0.0
 11
138.647815534
 21
-311.4881067961
 31
0.0
  0
SPLINE
  5
174
330
1F
100
AcDbEntity
  8
0
  6
Continuous
 62
     7
370
    15
100
AcDbSpline
210
0.0
220
0.0
230
1.0
 70
     8
 71
     3
 72
    11
 73
     7
 74
     0
 42
0.00000001
 43
0.00000001
 40
0.0
 40
0.0
 40
0.0
 40
0.0
 40
0.0478343463268769
 40
0.3762905634446363
 40
0.7046764705603589
 40
1.0
 40
1.0
 40
1.0
 40
1.0
 10
139.6190816906455
 20
-311.4881067961255
 30
0.0
 10
139.6047057088235
 20
-311.5115092745613
 30
0.0
 10
139.4916165435008
 20
-311.6956056921525
 30
0.0
 10
139.2801721889301
 20
-311.97262550338
 30
0.0
 10
138.994144053973
 20
-312.2412219097842
 30
0.0
 10
138.8070936921146
 20
-312.2730407314633
 30
0.0
 10
138.7185262121161
 20
-312.2881067961567
 30
0.0
  0
SPLINE
  5
175
330
1F
100
AcDbEntity
  8
0
  6
Continuous
 62
     7
370
    15
100
AcDbSpline
210
0.0
220
0.0
230
1.0
 70
     8
 71
     3
 72
    10
 73
     6
 74
     0
 42
0.00000001
 43
0.00000001
 40
0.0
 40
0.0
 40
0.0
 40
0.0
 40
0.441116849029781
 40
0.8469572594024781
 40
1.0
 40
1.0
 40
1.0
 40
1.0
 10
138.6478155339975
 20
-312.2173961180379
 30
0.0
 10
138.6715449684713
 20
-312.1100831443638
 30
0.0
 10
138.7171061771018
 20
-311.9040390944002
 30
0.0
 10
138.9534222532393
 20
-311.6611118595649
 30
0.0
 10
139.150793920208
 20
-311.5252977023133
 30
0.0
 10
139.2048415342339
 20
-311.4881067961255
 30
0.0
  0
LINE
  5
176
330
1F
100
AcDbEntity
  8
0
  6
Continuous
 62
     7
370
    15
100
AcDbLine
 10
668.247815534
 20
1092.9618932039
 30
0.0
 11
668.247815534
 21
1115.6118932039
 31
0.0
  0
LINE
  5
177
330
1F
100
AcDbEntity
  8
0
  6
Continuous
 62
     7
370
    15
100
AcDbLine
 10
68.647815534
 20
1092.9618932039
 30
0.0
 11
68.647815534
 21
1115.6118932039
 31
0.0
  0
LINE
  5
178
330
1F
100
AcDbEntity
  8
0
  6
Continuous
 62
     7
370
    15
100
AcDbLine
 10
668.247815534
 20
1090.5118932039
 30
0.0
 11
668.247815534
 21
1092.9618932039
 31
0.0
  0
LINE
  5
179
330
1F
100
AcDbEntity
  8
0
  6
Continuous
 62
     7
370
    15
100
AcDbLine
 10
668.247815534
 20
1090.5118932039
 30
0.0
 11
68.647815534
 21
1090.5118932039
 31
0.0
  0
LINE
  5
17A
330
1F
100
AcDbEntity
  8
0
  6
Continuous
 62
     7
370
    15
100
AcDbLine
 10
68.647815534
 20
1090.5118932039
 30
0.0
 11
68.647815534
 21
1092.9618932039
 31
0.0
  0
LINE
  5
17B
330
1F
100
AcDbEntity
  8
0
  6
Continuous
 62
     7
370
    15
100
AcDbLine
 10
69.897815534
 20
1138.0118932039
 30
0.0
 11
68.647815534
 21
1138.0118932039
 31
0.0
  0
LINE
  5
17C
330
1F
100
AcDbEntity
  8
0
  6
Continuous
 62
     7
370
    15
100
AcDbLine
 10
666.997815534
 20
1138.0118932039
 30
0.0
 11
69.897815534
 21
1138.0118932039
 31
0.0
  0
LINE
  5
17D
330
1F
100
AcDbEntity
  8
0
  6
Continuous
 62
     7
370
    15
100
AcDbLine
 10
668.247815534
 20
1138.0118932039
 30
0.0
 11
666.997815534
 21
1138.0118932039
 31
0.0
  0
LINE
  5
17E
330
1F
100
AcDbEntity
  8
0
  6
Continuous
 62
     7
370
    15
100
AcDbLine
 10
668.247815534
 20
1115.6118932039
 30
0.0
 11
668.247815534
 21
1138.0118932039
 31
0.0
  0
LINE
  5
17F
330
1F
100
AcDbEntity
  8
0
  6
Continuous
 62
     7
370
    15
100
AcDbLine
 10
68.647815534
 20
1115.6118932039
 30
0.0
 11
68.647815534
 21
1138.0118932039
 31
0.0
  0
LINE
  5
180
330
1F
100
AcDbEntity
  8
0
  6
Continuous
 62
     7
370
    15
100
AcDbLine
 10
669.447815534
 20
1115.6118932039
 30
0.0
 11
669.447815534
 21
1092.9618932039
 31
0.0
  0
LINE
  5
181
330
1F
100
AcDbEntity
  8
0
  6
Continuous
 62
     7
370
    15
100
AcDbLine
 10
669.447815534
 20
1092.9618932039
 30
0.0
 11
669.447815534
 21
1091.8118932039
 31
0.0
  0
LINE
  5
182
330
1F
100
AcDbEntity
  8
0
  6
Continuous
 62
     7
370
    15
100
AcDbLine
 10
669.447815534
 20
1091.8118932039
 30
0.0
 11
668.247815534
 21
1091.8118932039
 31
0.0
  0
LINE
  5
183
330
1F
100
AcDbEntity
  8
0
  6
Continuous
 62
     7
370
    15
100
AcDbLine
 10
67.447815534
 20
1115.6118932039
 30
0.0
 11
67.447815534
 21
1135.4618932039
 31
0.0
  0
LINE
  5
184
330
1F
100
AcDbEntity
  8
0
  6
Continuous
 62
     7
370
    15
100
AcDbLine
 10
67.447815534
 20
1135.4618932039
 30
0.0
 11
68.647815534
 21
1135.4618932039
 31
0.0
  0
LINE
  5
185
330
1F
100
AcDbEntity
  8
0
  6
Continuous
 62
     7
370
    15
100
AcDbLine
 10
669.447815534
 20
1135.4618932039
 30
0.0
 11
668.247815534
 21
1135.4618932039
 31
0.0
  0
LINE
  5
186
330
1F
100
AcDbEntity
  8
0
  6
Continuous
 62
     7
370
    15
100
AcDbLine
 10
669.447815534
 20
1135.4618932039
 30
0.0
 11
669.447815534
 21
1115.6118932039
 31
0.0
  0
LINE
  5
187
330
1F
100
AcDbEntity
  8
0
  6
Continuous
 62
     7
370
    15
100
AcDbLine
 10
67.447815534
 20
1092.9618932039
 30
0.0
 11
67.447815534
 21
1115.6118932039
 31
0.0
  0
LINE
  5
188
330
1F
100
AcDbEntity
  8
0
  6
Continuous
 62
     7
370
    15
100
AcDbLine
 10
67.447815534
 20
1091.8118932039
 30
0.0
 11
68.647815534
 21
1091.8118932039
 31
0.0
  0
LINE
  5
189
330
1F
100
AcDbEntity
  8
0
  6
Continuous
 62
     7
370
    15
100
AcDbLine
 10
67.447815534
 20
1091.8118932039
 30
0.0
 11
67.447815534
 21
1092.9618932039
 31
0.0
  0
LINE
  5
18A
330
1F
100
AcDbEntity
  8
0
  6
Continuous
 62
     7
370
    15
100
AcDbLine
 10
669.447815534
 20
1135.5618932039
 30
0.0
 11
669.447815534
 21
1135.4618932039
 31
0.0
  0
ARC
  5
18B
330
1F
100
AcDbEntity
  8
0
  6
Continuous
 62
     7
370
    15
100
AcDbCircle
 10
666.997815534
 20
1135.5618932039
 30
0.0
 40
2.450000000000244
100
AcDbArc
 50
0.0
 51
59.3225755274
  0
LINE
  5
18C
330
1F
100
AcDbEntity
  8
0
  6
Continuous
 62
     7
370
    15
100
AcDbLine
 10
67.447815534
 20
1135.4618932039
 30
0.0
 11
67.447815534
 21
1135.5618932039
 31
0.0
  0
ARC
  5
18D
330
1F
100
AcDbEntity
  8
0
  6
Continuous
 62
     7
370
    15
100
AcDbCircle
 10
69.897815534
 20
1135.5618932039
 30
0.0
 40
2.45000000000023
100
AcDbArc
 50
120.6774244726
 51
180.0
  0
LINE
  5
18E
330
1F
100
AcDbEntity
  8
0
  6
Continuous
 62
     7
370
    15
100
AcDbLine
 10
67.447815534
 20
1086.8118932039
 30
0.0
 11
68.647815534
 21
1086.8118932039
 31
0.0
  0
LINE
  5
18F
330
1F
100
AcDbEntity
  8
0
  6
Continuous
 62
     7
370
    15
100
AcDbLine
 10
67.447815534
 20
1086.8118932039
 30
0.0
 11
67.447815534
 21
1091.8118932039
 31
0.0
  0
LINE
  5
190
330
1F
100
AcDbEntity
  8
0
  6
Continuous
 62
     7
370
    15
100
AcDbLine
 10
68.647815534
 20
1086.8118932039
 30
0.0
 11
68.647815534
 21
1090.5118932039
 31
0.0
  0
LINE
  5
191
330
1F
100
AcDbEntity
  8
0
  6
Continuous
 62
     7
370
    15
100
AcDbLine
 10
669.447815534
 20
1086.8118932039
 30
0.0
 11
668.247815534
 21
1086.8118932039
 31
0.0
  0
LINE
  5
192
330
1F
100
AcDbEntity
  8
0
  6
Continuous
 62
     7
370
    15
100
AcDbLine
 10
668.247815534
 20
1090.5118932039
 30
0.0
 11
668.247815534
 21
1086.8118932039
 31
0.0
  0
LINE
  5
193
330
1F
100
AcDbEntity
  8
0
  6
Continuous
 62
     7
370
    15
100
AcDbLine
 10
669.447815534
 20
1091.8118932039
 30
0.0
 11
669.447815534
 21
1086.8118932039
 31
0.0
  0
LINE
  5
194
330
1F
100
AcDbEntity
  8
0
  6
Continuous
 62
     7
370
    15
100
AcDbLine
 10
669.447815534
 20
1083.0118932039
 30
0.0
 11
668.447815534
 21
1083.0118932039
 31
0.0
  0
LINE
  5
195
330
1F
100
AcDbEntity
  8
0
  6
Continuous
 62
     7
370
    15
100
AcDbLine
 10
668.247815534
 20
1086.8118932039
 30
0.0
 11
668.247815534
 21
1084.4604334272
 31
0.0
  0
LINE
  5
196
330
1F
100
AcDbEntity
  8
0
  6
Continuous
 62
     7
370
    15
100
AcDbLine
 10
669.447815534
 20
1086.8118932039
 30
0.0
 11
669.447815534
 21
1083.0118932039
 31
0.0
  0
LINE
  5
197
330
1F
100
AcDbEntity
  8
0
  6
Continuous
 62
     7
370
    15
100
AcDbLine
 10
67.447815534
 20
1083.0118932039
 30
0.0
 11
68.447815534
 21
1083.0118932039
 31
0.0
  0
LINE
  5
198
330
1F
100
AcDbEntity
  8
0
  6
Continuous
 62
     7
370
    15
100
AcDbLine
 10
67.447815534
 20
1083.0118932039
 30
0.0
 11
67.447815534
 21
1086.8118932039
 31
0.0
  0
LINE
  5
199
330
1F
100
AcDbEntity
  8
0
  6
Continuous
 62
     7
370
    15
100
AcDbLine
 10
68.647815534
 20
1084.4604334271
 30
0.0
 11
68.647815534
 21
1086.8118932039
 31
0.0
  0
LINE
  5
19A
330
1F
100
AcDbEntity
  8
0
  6
Continuous
 62
     7
370
    15
100
AcDbLine
 10
133.4194607858
 20
-291.4881067961
 30
0.0
 11
97.4201393296
 21
-291.4881067961
 31
0.0
  0
SPLINE
  5
19B
330
1F
100
AcDbEntity
  8
0
  6
Continuous
 62
     7
370
    15
100
AcDbSpline
210
0.0
220
0.0
230
1.0
 70
     8
 71
     3
 72
    11
 73
     7
 74
     0
 42
0.00000001
 43
0.00000001
 40
0.0
 40
0.0
 40
0.0
 40
0.0
 40
0.2833229682743068
 40
0.5580462786215505
 40
0.7754268978867147
 40
1.0
 40
1.0
 40
1.0
 40
1.0
 10
135.4178155340042
 20
-289.4897520478722
 30
0.0
 10
135.3788902726052
 20
-289.7868657405255
 30
0.0
 10
135.3022212422035
 20
-290.3720748801958
 30
0.0
 10
134.767862277069
 20
-291.0212490753896
 30
0.0
 10
134.1165494153823
 20
-291.4164091924394
 30
0.0
 10
133.6543310872777
 20
-291.4639496988995
 30
0.0
 10
133.4194607857621
 20
-291.4881067961143
 30
0.0
  0
LINE
  5
19C
330
1F
100
AcDbEntity
  8
0
  6
Continuous
 62
     7
370
    15
100
AcDbLine
 10
135.417815534
 20
-233.4868552313
 30
0.0
 11
135.417815534
 21
-289.4897520479
 31
0.0
  0
SPLINE
  5
19D
330
1F
100
AcDbEntity
  8
0
  6
Continuous
 62
     7
370
    15
100
AcDbSpline
210
0.0
220
0.0
230
1.0
 70
     8
 71
     3
 72
    11
 73
     7
 74
     0
 42
0.00000001
 43
0.00000001
 40
0.0
 40
0.0
 40
0.0
 40
0.0
 40
0.2833048031626453
 40
0.558036263566163
 40
0.7754301448953811
 40
1.0
 40
1.0
 40
1.0
 40
1.0
 10
133.4194607857621
 20
-231.4881067961144
 30
0.0
 10
133.716580069721
 20
-231.5270536142495
 30
0.0
 10
134.3018272423881
 20
-231.6037686456476
 30
0.0
 10
134.9509630777723
 20
-232.1383002346252
 30
0.0
 10
135.3461080766547
 20
-232.7897044410322
 30
0.0
 10
135.3936557114366
 20
-233.2519697672223
 30
0.0
 10
135.4178155340042
 20
-233.4868552312652
 30
0.0
  0
LINE
  5
19E
330
1F
100
AcDbEntity
  8
0
  6
Continuous
 62
     7
370
    15
100
AcDbLine
 10
97.4201393296
 20
-231.4881067961
 30
0.0
 11
133.4194607858
 21
-231.4881067961
 31
0.0
  0
SPLINE
  5
19F
330
1F
100
AcDbEntity
  8
0
  6
Continuous
 62
     7
370
    15
100
AcDbSpline
210
0.0
220
0.0
230
1.0
 70
     8
 71
     3
 72
    11
 73
     7
 74
     0
 42
0.00000001
 43
0.00000001
 40
0.0
 40
0.0
 40
0.0
 40
0.0
 40
0.2833534124411267
 40
0.558111699096271
 40
0.775483542421168
 40
1.0
 40
1.0
 40
1.0
 40
1.0
 10
95.41781553400425
 20
-233.4824846758408
 30
0.0
 10
95.45739365603856
 20
-233.1854361010343
 30
0.0
 10
95.53534935364371
 20
-232.6003495006255
 30
0.0
 10
96.07101557401482
 20
-231.9522397302182
 30
0.0
 10
96.72304155018769
 20
-231.5583343281059
 30
0.0
 10
97.18528217706674
 20
-231.5117669463557
 30
0.0
 10
97.42013932961785
 20
-231.4881067961144
 30
0.0
  0
LINE
  5
1A0
330
1F
100
AcDbEntity
  8
0
  6
Continuous
 62
     7
370
    15
100
AcDbLine
 10
95.417815534
 20
-289.4941234662
 30
0.0
 11
95.417815534
 21
-233.4824846758
 31
0.0
  0
SPLINE
  5
1A1
330
1F
100
AcDbEntity
  8
0
  6
Continuous
 62
     7
370
    15
100
AcDbSpline
210
0.0
220
0.0
230
1.0
 70
     8
 71
     3
 72
    11
 73
     7
 74
     0
 42
0.00000001
 43
0.00000001
 40
0.0
 40
0.0
 40
0.0
 40
0.0
 40
0.2832771686238331
 40
0.5580022489005171
 40
0.7754022428539403
 40
1.0
 40
1.0
 40
1.0
 40
1.0
 10
97.42013932961785
 20
-291.4881067961144
 30
0.0
 10
97.12302371761972
 20
-291.4498229639375
 30
0.0
 10
96.53776236216422
 20
-291.3744110818045
 30
0.0
 10
95.88757337624921
 20
-290.8414724156841
 30
0.0
 10
95.4910354158986
 20
-290.1910479857861
 30
0.0
 10
95.44248569911717
 20
-289.7289400559705
 30
0.0
 10
95.41781553400425
 20
-289.4941234662075
 30
0.0
  0
SPLINE
  5
1A2
330
1F
100
AcDbEntity
  8
0
  6
Continuous
 62
     7
370
    15
100
AcDbSpline
210
0.0
220
0.0
230
1.0
 70
     8
 71
     3
 72
    13
 73
     9
 74
     0
 42
0.00000001
 43
0.00000001
 40
0.0
 40
0.0
 40
0.0
 40
0.0
 40
0.1275693177285246
 40
0.2546459829165915
 40
0.5000146894810248
 40
0.7453717616663742
 40
0.8725249485133876
 40
1.0
 40
1.0
 40
1.0
 40
1.0
 10
135.4178155340042
 20
-233.4868552312652
 30
0.0
 10
135.4102607447628
 20
-233.3536597961078
 30
0.0
 10
135.3951803416821
 20
-233.0877833055092
 30
0.0
 10
135.2336734811723
 20
-232.5876208882569
 30
0.0
 10
134.8668619080317
 20
-232.0392978429971
 30
0.0
 10
134.3185670969784
 20
-231.6722271220397
 30
0.0
 10
133.8184035225894
 20
-231.5108153248185
 30
0.0
 10
133.5525537144862
 20
-231.4956826818574
 30
0.0
 10
133.4194607857621
 20
-231.4881067961144
 30
0.0
  0
SPLINE
  5
1A3
330
1F
100
AcDbEntity
  8
0
  6
Continuous
 62
     7
370
    15
100
AcDbSpline
210
0.0
220
0.0
230
1.0
 70
     8
 71
     3
 72
    13
 73
     9
 74
     0
 42
0.00000001
 43
0.00000001
 40
0.0
 40
0.0
 40
0.0
 40
0.0
 40
0.1275744813590858
 40
0.254648344042592
 40
0.5000017710082028
 40
0.7453551979737988
 40
0.8725131741728173
 40
0.9999999999999999
 40
0.9999999999999999
 40
0.9999999999999999
 40
0.9999999999999999
 10
133.4194607857621
 20
-291.4881067961144
 30
0.0
 10
133.5526505337317
 20
-291.4805525336698
 30
0.0
 10
133.818507375967
 20
-291.465473652678
 30
0.0
 10
134.3186122038133
 20
-291.3039711474073
 30
0.0
 10
134.8668377788863
 20
-290.9371402333032
 30
0.0
 10
135.233775479149
 20
-290.3888404851135
 30
0.0
 10
135.3951173798628
 20
-289.8886904807965
 30
0.0
 10
135.4102429715342
 20
-289.6228459631801
 30
0.0
 10
135.4178155340042
 20
-289.4897520478722
 30
0.0
  0
SPLINE
  5
1A4
330
1F
100
AcDbEntity
  8
0
  6
Continuous
 62
     7
370
    15
100
AcDbSpline
210
0.0
220
0.0
230
1.0
 70
     8
 71
     3
 72
    13
 73
     9
 74
     0
 42
0.00000001
 43
0.00000001
 40
0.0
 40
0.0
 40
0.0
 40
0.0
 40
0.1275872441294525
 40
0.2546759233236457
 40
0.5000487292308958
 40
0.7453982611490054
 40
0.8725397565424716
 40
1.0
 40
1.0
 40
1.0
 40
1.0
 10
95.41781553400425
 20
-289.4941234662075
 30
0.0
 10
95.42566070548753
 20
-289.6272949676595
 30
0.0
 10
95.44132039235342
 20
-289.8931175843642
 30
0.0
 10
95.60390673754432
 20
-290.3928614175031
 30
0.0
 10
95.97188242528864
 20
-290.9402647927247
 30
0.0
 10
96.52088141943128
 20
-291.3060175689029
 30
0.0
 10
97.02126880290568
 20
-291.4662779070845
 30
0.0
 10
97.28707156366123
 20
-291.4808244292759
 30
0.0
 10
97.42013932961785
 20
-291.4881067961144
 30
0.0
  0
SPLINE
  5
1A5
330
1F
100
AcDbEntity
  8
0
  6
Continuous
 62
     7
370
    15
100
AcDbSpline
210
0.0
220
0.0
230
1.0
 70
     8
 71
     3
 72
    13
 73
     9
 74
     0
 42
0.00000001
 43
0.00000001
 40
0.0
 40
0.0
 40
0.0
 40
0.0
 40
0.1275360740474429
 40
0.2545887198592472
 40
0.4999418984797916
 40
0.7453299828649832
 40
0.8725055605771409
 40
1.0
 40
1.0
 40
1.0
 40
1.0
 10
97.42013932961785
 20
-231.4881067961144
 30
0.0
 10
97.28697680620868
 20
-231.4953740399856
 30
0.0
 10
97.02115651480358
 20
-231.5098809810835
 30
0.0
 10
96.52080033617833
 20
-231.6703721060598
 30
0.0
 10
95.97188047182642
 20
-232.0361515114307
 30
0.0
 10
95.60381724133649
 20
-232.58372650167
 30
0.0
 10
95.44138707429828
 20
-233.0835734856064
 30
0.0
 10
95.42567926979795
 20
-233.3494033342726
 30
0.0
 10
95.41781553400419
 20
-233.4824846758409
 30
0.0
  0
SPLINE
  5
1A6
330
1F
100
AcDbEntity
  8
0
  6
Continuous
 62
     7
370
    15
100
AcDbSpline
210
0.0
220
0.0
230
1.0
 70
     8
 71
     3
 72
    13
 73
     9
 74
     0
 42
0.00000001
 43
0.00000001
 40
0.0
 40
0.0
 40
0.0
 40
0.0
 40
0.1671995771541157
 40
0.3338860056139168
 40
0.5000057256226518
 40
0.6661334626927655
 40
0.8328105203119379
 40
1.0
 40
1.0
 40
1.0
 40
1.0
 10
225.8142373761005
 20
727.3609786210661
 30
0.0
 10
218.4391651081686
 20
727.6111956487491
 30
0.0
 10
203.7116552509876
 20
728.1108617683158
 30
0.0
 10
181.5587789058953
 20
728.6805503150923
 30
0.0
 10
159.4603195218791
 20
729.116836110905
 30
0.0
 10
137.4260937640711
 20
729.4046580601366
 30
0.0
 10
115.4516391679398
 20
729.5606927144507
 30
0.0
 10
100.9479790797508
 20
729.5457434462228
 30
0.0
 10
93.6850188463766
 20
729.5382573399577
 30
0.0
  0
LINE
  5
1A7
330
1F
100
AcDbEntity
  8
0
  6
Continuous
 62
     7
370
    15
100
AcDbLine
 10
225.8142373761
 20
727.3609786211
 30
0.0
 11
225.8233915805
 21
727.3614213086
 31
0.0
  0
LINE
  5
1A8
330
1F
100
AcDbEntity
  8
0
  6
Continuous
 62
     7
370
    15
100
AcDbLine
 10
225.8233915805
 20
694.0623650991
 30
0.0
 11
225.8142373761
 21
694.0628077866
 31
0.0
  0
SPLINE
  5
1A9
330
1F
100
AcDbEntity
  8
0
  6
Continuous
 62
     7
370
    15
100
AcDbSpline
210
0.0
220
0.0
230
1.0
 70
     8
 71
     3
 72
    13
 73
     9
 74
     0
 42
0.00000001
 43
0.00000001
 40
0.0
 40
0.0
 40
0.0
 40
0.0
 40
0.167196431805342
 40
0.3338804222016346
 40
0.4999942842099928
 40
0.6661278794062075
 40
0.8328073738585172
 40
1.0
 40
1.0
 40
1.0
 40
1.0
 10
93.68501884637016
 20
691.8855290677438
 30
0.0
 10
100.9482770967879
 20
691.8780426565912
 30
0.0
 10
115.4525323911373
 20
691.8630927794354
 30
0.0
 10
137.4270197830945
 20
692.0191394516822
 30
0.0
 10
159.4615446841678
 20
692.3069704120007
 30
0.0
 10
181.5597028884757
 20
692.7432552893176
 30
0.0
 10
203.712570441506
 20
693.3129555691761
 30
0.0
 10
218.4394704203791
 20
693.8126010772781
 30
0.0
 10
225.8142373760976
 20
694.0628077866347
 30
0.0
  0
LINE
  5
1AA
330
1F
100
AcDbEntity
  8
0
  6
Continuous
 62
     7
370
    15
100
AcDbLine
 10
227.1478330247
 20
694.2913065615
 30
0.0
 11
227.1549171616
 21
694.2927471206
 31
0.0
  0
LINE
  5
1AB
330
1F
100
AcDbEntity
  8
0
  6
Continuous
 62
     7
370
    15
100
AcDbLine
 10
225.8142373761
 20
694.0628077866
 30
0.0
 11
227.1478330247
 21
694.2913065615
 31
0.0
  0
LINE
  5
1AC
330
1F
100
AcDbEntity
  8
0
  6
Continuous
 62
     7
370
    15
100
AcDbLine
 10
225.8142373761
 20
727.3609786211
 30
0.0
 11
227.1478330247
 21
727.1324798462
 31
0.0
  0
LINE
  5
1AD
330
1F
100
AcDbEntity
  8
0
  6
Continuous
 62
     7
370
    15
100
AcDbLine
 10
227.1549171617
 20
727.1310392871
 30
0.0
 11
227.1478330247
 21
727.1324798462
 31
0.0
  0
LINE
  5
1AE
330
1F
100
AcDbEntity
  8
0
  6
Continuous
 62
     7
370
    15
100
AcDbLine
 10
227.1478330247
 20
694.2913065615
 30
0.0
 11
239.651677087
 21
698.2578241029
 31
0.0
  0
LINE
  5
1AF
330
1F
100
AcDbEntity
  8
0
  6
Continuous
 62
     7
370
    15
100
AcDbLine
 10
239.651677087
 20
723.1659623048
 30
0.0
 11
227.1478330247
 21
727.1324798462
 31
0.0
  0
LINE
  5
1B0
330
1F
100
AcDbEntity
  8
0
  6
Continuous
 62
     7
370
    15
100
AcDbLine
 10
239.651677087
 20
723.1659623048
 30
0.0
 11
239.6617417937
 21
723.163576236
 31
0.0
  0
LINE
  5
1B1
330
1F
100
AcDbEntity
  8
0
  6
Continuous
 62
     7
370
    15
100
AcDbLine
 10
243.148375664
 20
718.4018724181
 30
0.0
 11
243.14761556
 21
718.3981038296
 31
0.0
  0
LINE
  5
1B2
330
1F
100
AcDbEntity
  8
0
  6
Continuous
 62
     7
370
    15
100
AcDbLine
 10
243.14761556
 20
703.0256825781
 30
0.0
 11
243.14761556
 21
718.3981038296
 31
0.0
  0
SPLINE
  5
1B3
330
1F
100
AcDbEntity
  8
0
  6
Continuous
 62
     7
370
    15
100
AcDbSpline
210
0.0
220
0.0
230
1.0
 70
     8
 71
     3
 72
    16
 73
    12
 74
     0
 42
0.00000001
 43
0.00000001
 40
0.0
 40
0.0
 40
0.0
 40
0.0
 40
0.1251953174304073
 40
0.2507745538427543
 40
0.3750388341830194
 40
0.5012841259368183
 40
0.623099723366607
 40
0.7509398520631025
 40
0.8261619687983419
 40
0.9091783628755309
 40
1.0
 40
1.0
 40
1.0
 40
1.0
 10
74.88822361145797
 20
710.7118932038258
 30
0.0
 10
74.95918468982599
 20
709.4722841160498
 30
0.0
 10
75.10132445298312
 20
706.9892646045633
 30
0.0
 10
76.23354980689933
 20
703.4226571512027
 30
0.0
 10
77.99188210952308
 20
700.1338869512897
 30
0.0
 10
80.34732332744
 20
697.2880638899103
 30
0.0
 10
83.22391667306516
 20
694.9363772401954
 30
0.0
 10
86.05622741928842
 20
693.4250811648698
 30
0.0
 10
88.70948563014474
 20
692.5180184177287
 30
0.0
 10
91.09886083135844
 20
691.9952774021937
 30
0.0
 10
92.7975428422183
 20
691.9231907313424
 30
0.0
 10
93.68501884567803
 20
691.8855290676865
 30
0.0
  0
SPLINE
  5
1B4
330
1F
100
AcDbEntity
  8
0
  6
Continuous
 62
     7
370
    15
100
AcDbSpline
210
0.0
220
0.0
230
1.0
 70
     8
 71
     3
 72
    17
 73
    13
 74
     0
 42
0.00000001
 43
0.00000001
 40
0.0
 40
0.0
 40
0.0
 40
0.0
 40
0.0907513707336911
 40
0.173792518236856
 40
0.2490580825639686
 40
0.3349409166364739
 40
0.4181893728823765
 40
0.4987658340337213
 40
0.6249318139165729
 40
0.7491150604901621
 40
0.8747499641989679
 40
1.0
 40
1.0
 40
1.0
 40
1.0
 10
93.6850188463766
 20
729.5382573399575
 30
0.0
 10
92.79802467236952
 20
729.500630954585
 30
0.0
 10
91.09939522009974
 20
729.4285749160566
 30
0.0
 10
88.70962564407759
 20
728.9058669379175
 30
0.0
 10
86.4438804111376
 20
728.1312330107922
 30
0.0
 10
84.2868345352758
 20
727.0692327988796
 30
0.0
 10
82.24232189103198
 20
725.7026338429041
 30
0.0
 10
80.08894611008566
 20
723.8226915134086
 30
0.0
 10
77.99361449020947
 20
721.2925130354265
 30
0.0
 10
76.23497916689342
 20
718.0045097865059
 30
0.0
 10
75.1015894660002
 20
714.4369764683619
 30
0.0
 10
74.95927278977688
 20
711.9523171018142
 30
0.0
 10
74.8882236115086
 20
710.7118932038258
 30
0.0
  0
SPLINE
  5
1B5
330
1F
100
AcDbEntity
  8
0
  6
Continuous
 62
     7
370
    15
100
AcDbSpline
210
0.0
220
0.0
230
1.0
 70
     8
 71
     3
 72
    14
 73
    10
 74
     0
 42
0.00000001
 43
0.00000001
 40
0.0
 40
0.0
 40
0.0
 40
0.0
 40
0.1361855121731395
 40
0.2723690030130296
 40
0.4140837308754037
 40
0.5557968263872303
 40
0.6959300587166425
 40
0.8360635958060911
 40
1.0
 40
1.0
 40
1.0
 40
1.0
 10
78.24393223414793
 20
722.0593294501024
 30
0.0
 10
77.66778294282084
 20
721.1268643161511
 30
0.0
 10
76.51549291166171
 20
719.2619478883616
 30
0.0
 10
75.37170359010159
 20
716.1149921252915
 30
0.0
 10
74.73543095200152
 20
712.7928315571513
 30
0.0
 10
74.6669946724286
 20
709.3724857821541
 30
0.0
 10
75.19388433952184
 20
706.0125864735985
 30
0.0
 10
76.28690109726787
 20
702.588512142185
 30
0.0
 10
77.55841021124654
 20
700.4938006778273
 30
0.0
 10
78.24393220387005
 20
699.3644570016945
 30
0.0
  0
SPLINE
  5
1B6
330
1F
100
AcDbEntity
  8
0
  6
Continuous
 62
     7
370
    15
100
AcDbSpline
210
0.0
220
0.0
230
1.0
 70
     8
 71
     3
 72
    12
 73
     8
 74
     0
 42
0.00000001
 43
0.00000001
 40
0.0
 40
0.0
 40
0.0
 40
0.0
 40
0.004122282563896
 40
0.2447264830109805
 40
0.4823376582996702
 40
0.7199493860621787
 40
1.0
 40
1.0
 40
1.0
 40
1.0
 10
95.79291381875821
 20
729.5375410908923
 30
0.0
 10
95.77373652365046
 20
729.5412183907578
 30
0.0
 10
94.63524300394471
 20
729.7595277009584
 30
0.0
 10
92.31643735926842
 20
729.6706959578959
 30
0.0
 10
88.96377201068395
 20
729.1952682005026
 30
0.0
 10
85.52819400237665
 20
728.0837959244847
 30
0.0
 10
83.42707763004165
 20
726.8062742847231
 30
0.0
 10
82.29039280167555
 20
726.1151467084751
 30
0.0
  0
SPLINE
  5
1B7
330
1F
100
AcDbEntity
  8
0
  6
Continuous
 62
     7
370
    15
100
AcDbSpline
210
0.0
220
0.0
230
1.0
 70
     8
 71
     3
 72
    12
 73
     8
 74
     0
 42
0.00000001
 43
0.00000001
 40
0.0
 40
0.0
 40
0.0
 40
0.0
 40
0.2368701232728345
 40
0.4737368039908857
 40
0.7192761748807701
 40
0.9648127355591806
 40
1.0
 40
1.0
 40
1.0
 40
1.0
 10
82.29039276977235
 20
695.3086397212165
 30
0.0
 10
83.22671271515335
 20
694.7287526168128
 30
0.0
 10
85.09933899789834
 20
693.5689868358021
 30
0.0
 10
88.25941636262169
 20
692.4082345798398
 30
0.0
 10
91.5848113070633
 20
691.8130719456689
 30
0.0
 10
94.05505871112574
 20
691.6495051189105
 30
0.0
 10
95.34160904565947
 20
691.8597889517265
 30
0.0
 10
95.50287140669505
 20
691.8861469312455
 30
0.0
  0
SPLINE
  5
1B8
330
1F
100
AcDbEntity
  8
0
  6
Continuous
 62
     7
370
    15
100
AcDbSpline
210
0.0
220
0.0
230
1.0
 70
     8
 71
     3
 72
    10
 73
     6
 74
     0
 42
0.00000001
 43
0.00000001
 40
0.0
 40
0.0
 40
0.0
 40
0.0
 40
0.49983633970495
 40
0.7498982769220986
 40
1.0
 40
1.0
 40
1.0
 40
1.0
 10
78.45224279640573
 20
722.3467079492204
 30
0.0
 10
78.41666225222043
 20
722.2994672729993
 30
0.0
 10
78.36328120195057
 20
722.2285926708853
 30
0.0
 10
78.29444498011884
 20
722.1323546993281
 30
0.0
 10
78.26073452940807
 20
722.0837178970595
 30
0.0
 10
78.24387796329229
 20
722.0593975615012
 30
0.0
  0
SPLINE
  5
1B9
330
1F
100
AcDbEntity
  8
0
  6
Continuous
 62
     7
370
    15
100
AcDbSpline
210
0.0
220
0.0
230
1.0
 70
     8
 71
     3
 72
    10
 73
     6
 74
     0
 42
0.00000001
 43
0.00000001
 40
0.0
 40
0.0
 40
0.0
 40
0.0
 40
0.2499022429401253
 40
0.6248841614437979
 40
0.9999999999999999
 40
0.9999999999999999
 40
0.9999999999999999
 40
0.9999999999999999
 10
78.24387796346255
 20
699.3643888463121
 30
0.0
 10
78.2607230357824
 20
699.3400891899198
 30
0.0
 10
78.3028443819826
 20
699.2793275487711
 30
0.0
 10
78.37198793249777
 20
699.1833023133353
 30
0.0
 10
78.42548799120219
 20
699.1124906242795
 30
0.0
 10
78.45224279641904
 20
699.0770784585055
 30
0.0
  0
SPLINE
  5
1BA
330
1F
100
AcDbEntity
  8
0
  6
Continuous
 62
     7
370
    15
100
AcDbSpline
210
0.0
220
0.0
230
1.0
 70
     8
 71
     3
 72
    10
 73
     6
 74
     0
 42
0.00000001
 43
0.00000001
 40
0.0
 40
0.0
 40
0.0
 40
0.0
 40
0.4998575557959881
 40
0.7499114596424488
 40
1.0
 40
1.0
 40
1.0
 40
1.0
 10
82.06252594758695
 20
695.4737974274684
 30
0.0
 10
82.10002169215686
 20
695.4456375747237
 30
0.0
 10
82.15627469506681
 20
695.4033907465421
 30
0.0
 10
82.2325630319114
 20
695.3487927101066
 30
0.0
 10
82.27109004190675
 20
695.3220173956457
 30
0.0
 10
82.2903548809656
 20
695.3086288112756
 30
0.0
  0
SPLINE
  5
1BB
330
1F
100
AcDbEntity
  8
0
  6
Continuous
 62
     7
370
    15
100
AcDbSpline
210
0.0
220
0.0
230
1.0
 70
     8
 71
     3
 72
    10
 73
     6
 74
     0
 42
0.00000001
 43
0.00000001
 40
0.0
 40
0.0
 40
0.0
 40
0.0
 40
0.2499148954582168
 40
0.6248991664166368
 40
1.0
 40
1.0
 40
1.0
 40
1.0
 10
82.29035488102576
 20
726.1151575963797
 30
0.0
 10
82.27110437479257
 20
726.101776861167
 30
0.0
 10
82.22296948760943
 20
726.0683190303919
 30
0.0
 10
82.14683893373942
 20
726.0134936929679
 30
0.0
 10
82.09063318774712
 20
725.9711594107089
 30
0.0
 10
82.062525947587
 20
725.9499889802222
 30
0.0
  0
ARC
  5
1BC
330
1F
100
AcDbEntity
  8
0
  6
Continuous
 62
     7
370
    15
100
AcDbCircle
 10
93.667815534
 20
710.7118932039
 30
0.0
 40
19.15416666666658
100
AcDbArc
 50
217.4038449158
 51
232.7073515859
  0
ARC
  5
1BD
330
1F
100
AcDbEntity
  8
0
  6
Continuous
 62
     7
370
    15
100
AcDbCircle
 10
93.667815534
 20
710.7118932039
 30
0.0
 40
19.15416666666672
100
AcDbArc
 50
127.2926484185
 51
142.5962166302
  0
LINE
  5
1BE
330
1F
100
AcDbEntity
  8
0
  6
Continuous
 62
     7
370
    15
100
AcDbLine
 10
73.683559915
 20
686.1225090495
 30
0.0
 11
73.683559915
 21
735.3012773582
 31
0.0
  0
LINE
  5
1BF
330
1F
100
AcDbEntity
  8
0
  6
Continuous
 62
     7
370
    15
100
AcDbLine
 10
113.652071153
 20
735.3012773582
 30
0.0
 11
113.652071153
 21
729.5314726648
 31
0.0
  0
LINE
  5
1C0
330
1F
100
AcDbEntity
  8
0
  6
Continuous
 62
     7
370
    15
100
AcDbLine
 10
113.652071153
 20
691.8923155988
 30
0.0
 11
113.652071153
 21
686.1225090495
 31
0.0
  0
CIRCLE
  5
1C1
330
1F
100
AcDbEntity
  8
0
  6
Continuous
 62
     7
370
    15
100
AcDbCircle
 10
93.667815534
 20
680.7118932039
 30
0.0
 40
2.75
  0
CIRCLE
  5
1C2
330
1F
100
AcDbEntity
  8
0
  6
Continuous
 62
     7
370
    15
100
AcDbCircle
 10
93.667815534
 20
740.7118932039
 30
0.0
 40
2.750000000000114
  0
LINE
  5
1C3
330
1F
100
AcDbEntity
  8
0
  6
Continuous
 62
     7
370
    15
100
AcDbLine
 10
104.8252191567
 20
750.7118932039
 30
0.0
 11
82.5104119113
 21
750.7118932039
 31
0.0
  0
LINE
  5
1C4
330
1F
100
AcDbEntity
  8
0
  6
Continuous
 62
     7
370
    15
100
AcDbLine
 10
82.5104119113
 20
670.7118932039
 30
0.0
 11
104.8252191567
 21
670.7118932039
 31
0.0
  0
LINE
  5
1C5
330
1F
100
AcDbEntity
  8
0
  6
Continuous
 62
     7
370
    15
100
AcDbLine
 10
74.1662159785
 20
738.0374385048
 30
0.0
 11
73.683559915
 21
735.3012773582
 31
0.0
  0
LINE
  5
1C6
330
1F
100
AcDbEntity
  8
0
  6
Continuous
 62
     7
370
    15
100
AcDbLine
 10
113.1694150894
 20
683.3863479029
 30
0.0
 11
113.652071153
 21
686.1225090495
 31
0.0
  0
LINE
  5
1C7
330
1F
100
AcDbEntity
  8
0
  6
Continuous
 62
     7
370
    15
100
AcDbLine
 10
113.652071153
 20
735.3012773582
 30
0.0
 11
113.1694150894
 21
738.0374385048
 31
0.0
  0
LINE
  5
1C8
330
1F
100
AcDbEntity
  8
0
  6
Continuous
 62
     7
370
    15
100
AcDbLine
 10
73.683559915
 20
686.1225090495
 30
0.0
 11
74.1662159785
 21
683.3863479029
 31
0.0
  0
LINE
  5
1C9
330
1F
100
AcDbEntity
  8
0
  6
Continuous
 62
     7
370
    15
100
AcDbLine
 10
77.5835089596
 20
747.4219939205
 30
0.0
 11
74.1662159785
 21
738.0374385048
 31
0.0
  0
LINE
  5
1CA
330
1F
100
AcDbEntity
  8
0
  6
Continuous
 62
     7
370
    15
100
AcDbLine
 10
113.1694150894
 20
738.0374385048
 30
0.0
 11
109.7521221084
 21
747.4219939205
 31
0.0
  0
SPLINE
  5
1CB
330
1F
100
AcDbEntity
  8
0
  6
Continuous
 62
     7
370
    15
100
AcDbSpline
210
0.0
220
0.0
230
1.0
 70
     8
 71
     3
 72
    11
 73
     7
 74
     0
 42
0.00000001
 43
0.00000001
 40
0.0
 40
0.0
 40
0.0
 40
0.0
 40
0.290299146103174
 40
0.4999761782112741
 40
0.7597486334477241
 40
1.0
 40
1.0
 40
1.0
 40
1.0
 10
82.2837264293852
 20
750.7118932038502
 30
0.0
 10
81.69088602993368
 20
750.6517858819122
 30
0.0
 10
80.66984934696086
 20
750.5482642921709
 30
0.0
 10
79.29720002773128
 20
749.7980730697336
 30
0.0
 10
78.22007674634423
 20
748.7950469238606
 30
0.0
 10
77.79010278182608
 20
747.867609099275
 30
0.0
 10
77.5835089595801
 20
747.4219939204786
 30
0.0
  0
LINE
  5
1CC
330
1F
100
AcDbEntity
  8
0
  6
Continuous
 62
     7
370
    15
100
AcDbLine
 10
82.2837264294
 20
750.7118932039
 30
0.0
 11
82.5104119113
 21
750.7118932039
 31
0.0
  0
SPLINE
  5
1CD
330
1F
100
AcDbEntity
  8
0
  6
Continuous
 62
     7
370
    15
100
AcDbSpline
210
0.0
220
0.0
230
1.0
 70
     8
 71
     3
 72
    11
 73
     7
 74
     0
 42
0.00000001
 43
0.00000001
 40
0.0
 40
0.0
 40
0.0
 40
0.0
 40
0.2902991461412922
 40
0.4999761782111341
 40
0.7597486334563176
 40
1.0
 40
1.0
 40
1.0
 40
1.0
 10
105.051904638612
 20
670.7118932038502
 30
0.0
 10
105.6447450381424
 20
670.7720005258033
 30
0.0
 10
106.6657817211166
 20
670.8755221155561
 30
0.0
 10
108.0384310403387
 20
671.6257133380302
 30
0.0
 10
109.1155543216651
 20
672.6287394838552
 30
0.0
 10
109.54552828618
 20
673.5561773084407
 30
0.0
 10
109.7521221084171
 20
674.0017924872218
 30
0.0
  0
LINE
  5
1CE
330
1F
100
AcDbEntity
  8
0
  6
Continuous
 62
     7
370
    15
100
AcDbLine
 10
104.8252191567
 20
670.7118932039
 30
0.0
 11
105.0519046386
 21
670.7118932039
 31
0.0
  0
SPLINE
  5
1CF
330
1F
100
AcDbEntity
  8
0
  6
Continuous
 62
     7
370
    15
100
AcDbSpline
210
0.0
220
0.0
230
1.0
 70
     8
 71
     3
 72
    11
 73
     7
 74
     0
 42
0.00000001
 43
0.00000001
 40
0.0
 40
0.0
 40
0.0
 40
0.0
 40
0.24024826605181
 40
0.5000238384277973
 40
0.7096957273655469
 40
1.0
 40
1.0
 40
1.0
 40
1.0
 10
109.7521221084172
 20
747.4219939204788
 30
0.0
 10
109.5455314686904
 20
747.867603435947
 30
0.0
 10
109.1155585645898
 20
748.7950414733818
 30
0.0
 10
108.0384443302252
 20
749.798062787563
 30
0.0
 10
106.6657925287453
 20
750.5482605583732
 30
0.0
 10
105.6447556441276
 20
750.6517838375183
 30
0.0
 10
105.0519046386121
 20
750.7118932038502
 30
0.0
  0
LINE
  5
1D0
330
1F
100
AcDbEntity
  8
0
  6
Continuous
 62
     7
370
    15
100
AcDbLine
 10
104.8252191567
 20
750.7118932039
 30
0.0
 11
105.0519046386
 21
750.7118932039
 31
0.0
  0
SPLINE
  5
1D1
330
1F
100
AcDbEntity
  8
0
  6
Continuous
 62
     7
370
    15
100
AcDbSpline
210
0.0
220
0.0
230
1.0
 70
     8
 71
     3
 72
    11
 73
     7
 74
     0
 42
0.00000001
 43
0.00000001
 40
0.0
 40
0.0
 40
0.0
 40
0.0
 40
0.2903042725404946
 40
0.4999761615725186
 40
0.7597517339057315
 40
0.9999999999999999
 40
0.9999999999999999
 40
0.9999999999999999
 40
0.9999999999999999
 10
82.28372642938514
 20
670.7118932038502
 30
0.0
 10
81.690875424064
 20
670.7720025701443
 30
0.0
 10
80.66983853945008
 20
670.8755258492592
 30
0.0
 10
79.29718673798946
 20
671.6257236199622
 30
0.0
 10
78.22007250346586
 20
672.6287449342447
 30
0.0
 10
77.79009959935046
 20
673.556182971676
 30
0.0
 10
77.58350895958
 20
674.0017924872218
 30
0.0
  0
LINE
  5
1D2
330
1F
100
AcDbEntity
  8
0
  6
Continuous
 62
     7
370
    15
100
AcDbLine
 10
82.2837264294
 20
670.7118932039
 30
0.0
 11
82.5104119113
 21
670.7118932039
 31
0.0
  0
LINE
  5
1D3
330
1F
100
AcDbEntity
  8
0
  6
Continuous
 62
     7
370
    15
100
AcDbLine
 10
74.166022453
 20
683.3862774325
 30
0.0
 11
74.1662159785
 21
683.3863479029
 31
0.0
  0
LINE
  5
1D4
330
1F
100
AcDbEntity
  8
0
  6
Continuous
 62
     7
370
    15
100
AcDbLine
 10
113.169608615
 20
683.3862774325
 30
0.0
 11
113.1694150894
 21
683.3863479029
 31
0.0
  0
LINE
  5
1D5
330
1F
100
AcDbEntity
  8
0
  6
Continuous
 62
     7
370
    15
100
AcDbLine
 10
109.7521221084
 20
674.0017924872
 30
0.0
 11
109.752315634
 21
674.0017220168
 31
0.0
  0
LINE
  5
1D6
330
1F
100
AcDbEntity
  8
0
  6
Continuous
 62
     7
370
    15
100
AcDbLine
 10
77.5835089596
 20
674.0017924872
 30
0.0
 11
77.583315434
 21
674.0017220168
 31
0.0
  0
LINE
  5
1D7
330
1F
100
AcDbEntity
  8
0
  6
Continuous
 62
     7
370
    15
100
AcDbLine
 10
638.947815534
 20
220.5118932038
 30
0.0
 11
633.947815534
 21
220.5118932038
 31
0.0
  0
LINE
  5
1D8
330
1F
100
AcDbEntity
  8
0
  6
Continuous
 62
     7
370
    15
100
AcDbLine
 10
633.947815534
 20
220.5118932038
 30
0.0
 11
633.947815534
 21
223.0118932038
 31
0.0
  0
LINE
  5
1D9
330
1F
100
AcDbEntity
  8
0
  6
Continuous
 62
     7
370
    15
100
AcDbLine
 10
633.947815534
 20
223.0118932038
 30
0.0
 11
638.947815534
 21
223.0118932038
 31
0.0
  0
LINE
  5
1DA
330
1F
100
AcDbEntity
  8
0
  6
Continuous
 62
     7
370
    15
100
AcDbLine
 10
664.447815534
 20
223.0118932038
 30
0.0
 11
664.447815534
 21
220.5118932038
 31
0.0
  0
LINE
  5
1DB
330
1F
100
AcDbEntity
  8
0
  6
Continuous
 62
     7
370
    15
100
AcDbLine
 10
659.447815534
 20
223.0118932038
 30
0.0
 11
664.447815534
 21
223.0118932038
 31
0.0
  0
LINE
  5
1DC
330
1F
100
AcDbEntity
  8
0
  6
Continuous
 62
     7
370
    15
100
AcDbLine
 10
664.447815534
 20
220.5118932038
 30
0.0
 11
659.447815534
 21
220.5118932038
 31
0.0
  0
LINE
  5
1DD
330
1F
100
AcDbEntity
  8
0
  6
Continuous
 62
     7
370
    15
100
AcDbLine
 10
638.947815534
 20
223.0118932038
 30
0.0
 11
659.447815534
 21
223.0118932038
 31
0.0
  0
LINE
  5
1DE
330
1F
100
AcDbEntity
  8
0
  6
Continuous
 62
     7
370
    15
100
AcDbLine
 10
638.947815534
 20
220.5118932038
 30
0.0
 11
659.447815534
 21
220.5118932038
 31
0.0
  0
LINE
  5
1DF
330
1F
100
AcDbEntity
  8
0
  6
Continuous
 62
     7
370
    15
100
AcDbLine
 10
636.447815534
 20
212.5118932039
 30
0.0
 11
636.447815534
 21
217.5118932038
 31
0.0
  0
LINE
  5
1E0
330
1F
100
AcDbEntity
  8
0
  6
Continuous
 62
     7
370
    15
100
AcDbLine
 10
633.947815534
 20
212.5118932039
 30
0.0
 11
633.947815534
 21
217.5118932038
 31
0.0
  0
ARC
  5
1E1
330
1F
100
AcDbEntity
  8
0
  6
Continuous
 62
     7
370
    15
100
AcDbCircle
 10
639.447815534
 20
217.5118932038
 30
0.0
 40
3.0
100
AcDbArc
 50
90.0
 51
180.0
  0
ARC
  5
1E2
330
1F
100
AcDbEntity
  8
0
  6
Continuous
 62
     7
370
    15
100
AcDbCircle
 10
639.447815534
 20
217.5118932038
 30
0.0
 40
5.500000000000114
100
AcDbArc
 50
146.9442688491
 51
180.0
  0
LINE
  5
1E3
330
1F
100
AcDbEntity
  8
0
  6
Continuous
 62
     7
370
    15
100
AcDbLine
 10
626.447815534
 20
212.5118932039
 30
0.0
 11
626.447815534
 21
220.5118932038
 31
0.0
  0
LINE
  5
1E4
330
1F
100
AcDbEntity
  8
0
  6
Continuous
 62
     7
370
    15
100
AcDbLine
 10
631.947815534
 20
220.5118932038
 30
0.0
 11
631.947815534
 21
217.5118932038
 31
0.0
  0
LINE
  5
1E5
330
1F
100
AcDbEntity
  8
0
  6
Continuous
 62
     7
370
    15
100
AcDbLine
 10
626.447815534
 20
220.5118932038
 30
0.0
 11
631.947815534
 21
220.5118932038
 31
0.0
  0
LINE
  5
1E6
330
1F
100
AcDbEntity
  8
0
  6
Continuous
 62
     7
370
    15
100
AcDbLine
 10
631.947815534
 20
217.5118932038
 30
0.0
 11
633.947815534
 21
217.5118932038
 31
0.0
  0
LINE
  5
1E7
330
1F
100
AcDbEntity
  8
0
  6
Continuous
 62
     7
370
    15
100
AcDbLine
 10
636.447815534
 20
217.5118932038
 30
0.0
 11
639.447815534
 21
217.5118932038
 31
0.0
  0
LINE
  5
1E8
330
1F
100
AcDbEntity
  8
0
  6
Continuous
 62
     7
370
    15
100
AcDbLine
 10
641.9891064357
 20
1086.0118932038
 30
0.0
 11
641.6178155344
 21
1086.0118932038
 31
0.0
  0
LINE
  5
1E9
330
1F
100
AcDbEntity
  8
0
  6
Continuous
 62
     7
370
    15
100
AcDbLine
 10
658.6178155344
 20
1086.0118932038
 30
0.0
 11
641.9891064357
 21
1086.0118932038
 31
0.0
  0
LWPOLYLINE
  5
1EA
330
1F
100
AcDbEntity
  8
0
  6
Continuous
 62
     7
370
    15
100
AcDbPolyline
 90
        3
 70
   128
 43
0.0
 10
652.6469566264
 20
1085.5118932038
 10
652.702777724
 20
1085.7027898428
 10
652.7054396663
 20
1085.7118932038
  0
LINE
  5
1EB
330
1F
100
AcDbEntity
  8
0
  6
Continuous
 62
     7
370
    15
100
AcDbLine
 10
652.3229121793
 20
1085.7118932038
 30
0.0
 11
652.7054396663
 21
1085.7118932038
 31
0.0
  0
LWPOLYLINE
  5
1EC
330
1F
100
AcDbEntity
  8
0
  6
Continuous
 62
     7
370
    15
100
AcDbPolyline
 90
        3
 70
   128
 43
0.0
 10
652.3229121793
 20
1085.7118932038
 10
652.320250237
 20
1085.7027898428
 10
652.2644291394
 20
1085.5118932038
  0
LINE
  5
1ED
330
1F
100
AcDbEntity
  8
0
  6
Continuous
 62
     7
370
    15
100
AcDbLine
 10
641.9891064357
 20
1087.5118932038
 30
0.0
 11
641.6178155344
 21
1087.5118932038
 31
0.0
  0
LINE
  5
1EE
330
1F
100
AcDbEntity
  8
0
  6
Continuous
 62
     7
370
    15
100
AcDbLine
 10
658.6178155344
 20
1087.5118932038
 30
0.0
 11
641.9891064357
 21
1087.5118932038
 31
0.0
  0
LINE
  5
1EF
330
1F
100
AcDbEntity
  8
0
  6
Continuous
 62
     7
370
    15
100
AcDbLine
 10
642.4672657945
 20
1088.0118932038
 30
0.0
 11
642.1178155344
 21
1088.0118932038
 31
0.0
  0
LINE
  5
1F0
330
1F
100
AcDbEntity
  8
0
  6
Continuous
 62
     7
370
    15
100
AcDbLine
 10
658.1178155344
 20
1088.0118932038
 30
0.0
 11
642.4672657945
 21
1088.0118932038
 31
0.0
  0
LINE
  5
1F1
330
1F
100
AcDbEntity
  8
0
  6
Continuous
 62
     7
370
    15
100
AcDbLine
 10
652.6469566264
 20
1085.7118932038
 30
0.0
 11
652.6469566264
 21
1085.5118932038
 31
0.0
  0
LINE
  5
1F2
330
1F
100
AcDbEntity
  8
0
  6
Continuous
 62
     7
370
    15
100
AcDbLine
 10
641.617815534
 20
-311.9881067961
 30
0.0
 11
658.617815534
 21
-311.9881067961
 31
0.0
  0
LWPOLYLINE
  5
1F3
330
1F
100
AcDbEntity
  8
0
  6
Continuous
 62
     7
370
    15
100
AcDbPolyline
 90
        3
 70
   128
 43
0.0
 10
656.703686291
 20
-311.4881067961
 10
656.8635478592
 20
-311.679003435
 10
656.8711711822
 20
-311.6881067961
  0
LINE
  5
1F4
330
1F
100
AcDbEntity
  8
0
  6
Continuous
 62
     7
370
    15
100
AcDbLine
 10
657.0899488376
 20
-311.6881067961
 30
0.0
 11
656.8711711822
 21
-311.6881067961
 31
0.0
  0
LWPOLYLINE
  5
1F5
330
1F
100
AcDbEntity
  8
0
  6
Continuous
 62
     7
370
    15
100
AcDbPolyline
 90
        3
 70
   128
 43
0.0
 10
657.0899488376
 20
-311.6881067961
 10
657.0823255146
 20
-311.679003435
 10
656.9224639465
 20
-311.4881067961
  0
LINE
  5
1F6
330
1F
100
AcDbEntity
  8
0
  6
Continuous
 62
     7
370
    15
100
AcDbLine
 10
656.9224639465
 20
-311.6881067961
 30
0.0
 11
656.9224639465
 21
-311.4881067961
 31
0.0
  0
LINE
  5
1F7
330
1F
100
AcDbEntity
  8
0
  6
Continuous
 62
     7
370
    15
100
AcDbLine
 10
658.617815534
 20
213.0118932039
 30
0.0
 11
641.617815534
 21
213.0118932039
 31
0.0
  0
LINE
  5
1F8
330
1F
100
AcDbEntity
  8
0
  6
Continuous
 62
     7
370
    15
100
AcDbLine
 10
658.617815534
 20
214.5118932039
 30
0.0
 11
641.617815534
 21
214.5118932039
 31
0.0
  0
LWPOLYLINE
  5
1F9
330
1F
100
AcDbEntity
  8
0
  6
Continuous
 62
     7
370
    15
100
AcDbPolyline
 90
        3
 70
   128
 43
0.0
 10
642.1203159248
 20
212.5118932039
 10
641.9293609943
 20
212.7027898428
 10
641.9202549212
 20
212.7118932039
  0
LINE
  5
1FA
330
1F
100
AcDbEntity
  8
0
  6
Continuous
 62
     7
370
    15
100
AcDbLine
 10
641.917815534
 20
212.7118932039
 30
0.0
 11
641.9202549212
 21
212.7118932039
 31
0.0
  0
LINE
  5
1FB
330
1F
100
AcDbEntity
  8
0
  6
Continuous
 62
     7
370
    15
100
AcDbLine
 10
658.117815534
 20
215.0118932039
 30
0.0
 11
642.117815534
 21
215.0118932039
 31
0.0
  0
LINE
  5
1FC
330
1F
100
AcDbEntity
  8
0
  6
Continuous
 62
     7
370
    15
100
AcDbLine
 10
641.617815534
 20
225.0118932038
 30
0.0
 11
658.617815534
 21
225.0118932038
 31
0.0
  0
LWPOLYLINE
  5
1FD
330
1F
100
AcDbEntity
  8
0
  6
Continuous
 62
     7
370
    15
100
AcDbPolyline
 90
        3
 70
   128
 43
0.0
 10
656.703686291
 20
225.5118932038
 10
656.8635478592
 20
225.3209965649
 10
656.8711711822
 20
225.3118932038
  0
LINE
  5
1FE
330
1F
100
AcDbEntity
  8
0
  6
Continuous
 62
     7
370
    15
100
AcDbLine
 10
657.0899488376
 20
225.3118932038
 30
0.0
 11
656.8711711822
 21
225.3118932038
 31
0.0
  0
LWPOLYLINE
  5
1FF
330
1F
100
AcDbEntity
  8
0
  6
Continuous
 62
     7
370
    15
100
AcDbPolyline
 90
        3
 70
   128
 43
0.0
 10
657.0899488376
 20
225.3118932038
 10
657.0823255146
 20
225.3209965649
 10
656.9224639465
 20
225.5118932038
  0
LINE
  5
200
330
1F
100
AcDbEntity
  8
0
  6
Continuous
 62
     7
370
    15
100
AcDbLine
 10
641.617815534
 20
223.5118932038
 30
0.0
 11
658.617815534
 21
223.5118932038
 31
0.0
  0
LINE
  5
201
330
1F
100
AcDbEntity
  8
0
  6
Continuous
 62
     7
370
    15
100
AcDbLine
 10
656.9224639465
 20
225.3118932038
 30
0.0
 11
656.9224639465
 21
225.5118932038
 31
0.0
  0
LINE
  5
202
330
1F
100
AcDbEntity
  8
0
  6
Continuous
 62
     7
370
    15
100
AcDbLine
 10
644.447815534
 20
218.0118932038
 30
0.0
 11
659.447815534
 21
218.0118932038
 31
0.0
  0
LINE
  5
203
330
1F
100
AcDbEntity
  8
0
  6
Continuous
 62
     7
370
    15
100
AcDbLine
 10
644.447815534
 20
220.5118932038
 30
0.0
 11
659.447815534
 21
220.5118932038
 31
0.0
  0
LINE
  5
204
330
1F
100
AcDbEntity
  8
0
  6
Continuous
 62
     7
370
    15
100
AcDbLine
 10
664.447815534
 20
220.5118932038
 30
0.0
 11
664.447815534
 21
218.0118932038
 31
0.0
  0
LINE
  5
205
330
1F
100
AcDbEntity
  8
0
  6
Continuous
 62
     7
370
    15
100
AcDbLine
 10
664.447815534
 20
218.0118932038
 30
0.0
 11
659.447815534
 21
218.0118932038
 31
0.0
  0
LINE
  5
206
330
1F
100
AcDbEntity
  8
0
  6
Continuous
 62
     7
370
    15
100
AcDbLine
 10
639.447815534
 20
218.0118932038
 30
0.0
 11
639.447815534
 21
220.5118932038
 31
0.0
  0
LINE
  5
207
330
1F
100
AcDbEntity
  8
0
  6
Continuous
 62
     7
370
    15
100
AcDbLine
 10
644.447815534
 20
218.0118932038
 30
0.0
 11
639.447815534
 21
218.0118932038
 31
0.0
  0
LINE
  5
208
330
1F
100
AcDbEntity
  8
0
  6
Continuous
 62
     7
370
    15
100
AcDbLine
 10
664.447815534
 20
215.0118932038
 30
0.0
 11
664.447815534
 21
218.0118932038
 31
0.0
  0
LINE
  5
209
330
1F
100
AcDbEntity
  8
0
  6
Continuous
 62
     7
370
    15
100
AcDbLine
 10
639.447815534
 20
218.0118932038
 30
0.0
 11
639.447815534
 21
215.0118932038
 31
0.0
  0
LINE
  5
20A
330
1F
100
AcDbEntity
  8
0
  6
Continuous
 62
     7
370
    15
100
AcDbLine
 10
639.447815534
 20
215.0118932038
 30
0.0
 11
639.447815534
 21
212.5118932039
 31
0.0
  0
LINE
  5
20B
330
1F
100
AcDbEntity
  8
0
  6
Continuous
 62
     7
370
    15
100
AcDbLine
 10
664.447815534
 20
212.5118932039
 30
0.0
 11
664.447815534
 21
215.0118932038
 31
0.0
  0
LINE
  5
20C
330
1F
100
AcDbEntity
  8
0
  6
Continuous
 62
     7
370
    15
100
AcDbLine
 10
169.347815534
 20
-312.7381067962
 30
0.0
 11
157.547815534
 21
-312.7381067962
 31
0.0
  0
LINE
  5
20D
330
1F
100
AcDbEntity
  8
0
  6
Continuous
 62
     7
370
    15
100
AcDbLine
 10
638.447815534
 20
-315.9881067962
 30
0.0
 11
646.2178155345
 21
-315.9881067962
 31
0.0
  0
LINE
  5
20E
330
1F
100
AcDbEntity
  8
0
  6
Continuous
 62
     7
370
    15
100
AcDbLine
 10
654.0178155345
 20
-315.9881067962
 30
0.0
 11
661.947815534
 21
-315.9881067962
 31
0.0
  0
LINE
  5
20F
330
1F
100
AcDbEntity
  8
0
  6
Continuous
 62
     7
370
    15
100
AcDbLine
 10
98.447815534
 20
-313.9881067962
 30
0.0
 11
103.447815534
 21
-313.9881067962
 31
0.0
  0
LINE
  5
210
330
1F
100
AcDbEntity
  8
0
  6
Continuous
 62
     7
370
    15
100
AcDbLine
 10
103.447815534
 20
-313.9881067962
 30
0.0
 11
103.447815534
 21
-315.9881067962
 31
0.0
  0
LINE
  5
211
330
1F
100
AcDbEntity
  8
0
  6
Continuous
 62
     7
370
    15
100
AcDbLine
 10
103.447815534
 20
-315.9881067962
 30
0.0
 11
98.447815534
 21
-315.9881067962
 31
0.0
  0
LINE
  5
212
330
1F
100
AcDbEntity
  8
0
  6
Continuous
 62
     7
370
    15
100
AcDbLine
 10
74.947815534
 20
-313.9881067962
 30
0.0
 11
98.447815534
 21
-313.9881067962
 31
0.0
  0
LINE
  5
213
330
1F
100
AcDbEntity
  8
0
  6
Continuous
 62
     7
370
    15
100
AcDbLine
 10
74.947815534
 20
-315.9881067962
 30
0.0
 11
98.447815534
 21
-315.9881067962
 31
0.0
  0
ARC
  5
214
330
1F
100
AcDbEntity
  8
0
  6
Continuous
 62
     7
370
    15
100
AcDbCircle
 10
74.947815534
 20
-317.4881067962
 30
0.0
 40
3.500000000000057
100
AcDbArc
 50
90.0
 51
180.0
  0
ARC
  5
215
330
1F
100
AcDbEntity
  8
0
  6
Continuous
 62
     7
370
    15
100
AcDbCircle
 10
74.947815534
 20
-317.4881067962
 30
0.0
 40
1.500000000000057
100
AcDbArc
 50
90.0
 51
180.0
  0
ARC
  5
216
330
1F
100
AcDbEntity
  8
0
  6
Continuous
 62
     7
370
    15
100
AcDbCircle
 10
661.947815534
 20
-317.4881067962
 30
0.0
 40
3.5
100
AcDbArc
 50
0.0
 51
47.9753723815
  0
ARC
  5
217
330
1F
100
AcDbEntity
  8
0
  6
Continuous
 62
     7
370
    15
100
AcDbCircle
 10
661.947815534
 20
-317.4881067962
 30
0.0
 40
1.5
100
AcDbArc
 50
0.0
 51
90.0
  0
LINE
  5
218
330
1F
100
AcDbEntity
  8
0
  6
Continuous
 62
     7
370
    15
100
AcDbLine
 10
633.447815534
 20
-315.9881067962
 30
0.0
 11
633.447815534
 21
-314.8881067978
 31
0.0
  0
LINE
  5
219
330
1F
100
AcDbEntity
  8
0
  6
Continuous
 62
     7
370
    15
100
AcDbLine
 10
638.447815534
 20
-315.9881067962
 30
0.0
 11
633.447815534
 21
-315.9881067962
 31
0.0
  0
LINE
  5
21A
330
1F
100
AcDbEntity
  8
0
  6
Continuous
 62
     7
370
    15
100
AcDbLine
 10
665.447815534
 20
-325.9881067962
 30
0.0
 11
665.447815534
 21
-317.4881067962
 31
0.0
  0
LINE
  5
21B
330
1F
100
AcDbEntity
  8
0
  6
Continuous
 62
     7
370
    15
100
AcDbLine
 10
663.447815534
 20
-325.9881067962
 30
0.0
 11
663.447815534
 21
-317.4881067962
 31
0.0
  0
LINE
  5
21C
330
1F
100
AcDbEntity
  8
0
  6
Continuous
 62
     7
370
    15
100
AcDbLine
 10
71.447815534
 20
-317.4881067962
 30
0.0
 11
71.447815534
 21
-325.9881067962
 31
0.0
  0
LINE
  5
21D
330
1F
100
AcDbEntity
  8
0
  6
Continuous
 62
     7
370
    15
100
AcDbLine
 10
73.447815534
 20
-317.4881067962
 30
0.0
 11
73.447815534
 21
-325.9881067962
 31
0.0
  0
LINE
  5
21E
330
1F
100
AcDbEntity
  8
0
  6
Continuous
 62
     7
370
    15
100
AcDbLine
 10
73.447815534
 20
-330.9881067962
 30
0.0
 11
71.447815534
 21
-330.9881067962
 31
0.0
  0
LINE
  5
21F
330
1F
100
AcDbEntity
  8
0
  6
Continuous
 62
     7
370
    15
100
AcDbLine
 10
71.447815534
 20
-330.9881067962
 30
0.0
 11
71.447815534
 21
-325.9881067962
 31
0.0
  0
LINE
  5
220
330
1F
100
AcDbEntity
  8
0
  6
Continuous
 62
     7
370
    15
100
AcDbLine
 10
73.447815534
 20
-325.9881067962
 30
0.0
 11
73.447815534
 21
-330.9881067962
 31
0.0
  0
LINE
  5
221
330
1F
100
AcDbEntity
  8
0
  6
Continuous
 62
     7
370
    15
100
AcDbLine
 10
665.447815534
 20
-330.9881067962
 30
0.0
 11
663.447815534
 21
-330.9881067962
 31
0.0
  0
LINE
  5
222
330
1F
100
AcDbEntity
  8
0
  6
Continuous
 62
     7
370
    15
100
AcDbLine
 10
663.447815534
 20
-330.9881067962
 30
0.0
 11
663.447815534
 21
-325.9881067962
 31
0.0
  0
LINE
  5
223
330
1F
100
AcDbEntity
  8
0
  6
Continuous
 62
     7
370
    15
100
AcDbLine
 10
665.447815534
 20
-325.9881067962
 30
0.0
 11
665.447815534
 21
-330.9881067962
 31
0.0
  0
LINE
  5
224
330
1F
100
AcDbEntity
  8
0
  6
Continuous
 62
     7
370
    15
100
AcDbLine
 10
109.447815534
 20
-325.9881067962
 30
0.0
 11
505.447815534
 21
-325.9881067962
 31
0.0
  0
LINE
  5
225
330
1F
100
AcDbEntity
  8
0
  6
Continuous
 62
     7
370
    15
100
AcDbLine
 10
510.447815534
 20
-320.9881067962
 30
0.0
 11
510.447815534
 21
-317.4881067962
 31
0.0
  0
ARC
  5
226
330
1F
100
AcDbEntity
  8
0
  6
Continuous
 62
     7
370
    15
100
AcDbCircle
 10
505.447815534
 20
-320.9881067962
 30
0.0
 40
5.000000000000057
100
AcDbArc
 50
270.0
 51
0.0
  0
ARC
  5
227
330
1F
100
AcDbEntity
  8
0
  6
Continuous
 62
     7
370
    15
100
AcDbCircle
 10
109.447815534
 20
-320.9881067962
 30
0.0
 40
5.000000000000057
100
AcDbArc
 50
180.0
 51
270.0
  0
LINE
  5
228
330
1F
100
AcDbEntity
  8
0
  6
Continuous
 62
     7
370
    15
100
AcDbLine
 10
104.447815534
 20
-317.4881067962
 30
0.0
 11
104.447815534
 21
-320.9881067962
 31
0.0
  0
LINE
  5
229
330
1F
100
AcDbEntity
  8
0
  6
Continuous
 62
     7
370
    15
100
AcDbLine
 10
104.447815534
 20
-317.4881067962
 30
0.0
 11
104.447815534
 21
-313.9881067962
 31
0.0
  0
LINE
  5
22A
330
1F
100
AcDbEntity
  8
0
  6
Continuous
 62
     7
370
    15
100
AcDbLine
 10
510.447815534
 20
-313.9881067962
 30
0.0
 11
510.447815534
 21
-317.4881067962
 31
0.0
  0
LINE
  5
22B
330
1F
100
AcDbEntity
  8
0
  6
Continuous
 62
     7
370
    15
100
AcDbLine
 10
104.447815534
 20
-313.9881067962
 30
0.0
 11
510.447815534
 21
-313.9881067962
 31
0.0
  0
LINE
  5
22C
330
1F
100
AcDbEntity
  8
0
  6
Continuous
 62
     7
370
    15
100
AcDbLine
 10
626.447815534
 20
-313.9881067962
 30
0.0
 11
626.447815534
 21
-315.9881067962
 31
0.0
  0
LINE
  5
22D
330
1F
100
AcDbEntity
  8
0
  6
Continuous
 62
     7
370
    15
100
AcDbLine
 10
626.447815534
 20
-313.9881067962
 30
0.0
 11
629.4478155346
 21
-313.9881067962
 31
0.0
  0
LINE
  5
22E
330
1F
100
AcDbEntity
  8
0
  6
Continuous
 62
     7
370
    15
100
AcDbLine
 10
626.447815534
 20
-315.9881067962
 30
0.0
 11
633.447815534
 21
-315.9881067962
 31
0.0
  0
LINE
  5
22F
330
1F
100
AcDbEntity
  8
0
  6
Continuous
 62
     7
370
    15
100
AcDbLine
 10
511.447815534
 20
-315.9881067962
 30
0.0
 11
511.447815534
 21
-313.8881067961
 31
0.0
  0
LINE
  5
230
330
1F
100
AcDbEntity
  8
0
  6
Continuous
 62
     7
370
    15
100
AcDbLine
 10
625.447815534
 20
-313.8881067961
 30
0.0
 11
625.447815534
 21
-315.9881067962
 31
0.0
  0
LINE
  5
231
330
1F
100
AcDbEntity
  8
0
  6
Continuous
 62
     7
370
    15
100
AcDbLine
 10
625.447815534
 20
-315.9881067962
 30
0.0
 11
511.447815534
 21
-315.9881067962
 31
0.0
  0
LINE
  5
232
330
1F
100
AcDbEntity
  8
0
  6
Continuous
 62
     7
370
    15
100
AcDbLine
 10
104.447815534
 20
-313.9881067962
 30
0.0
 11
103.447815534
 21
-313.9881067962
 31
0.0
  0
LINE
  5
233
330
1F
100
AcDbEntity
  8
0
  6
Continuous
 62
     7
370
    15
100
AcDbLine
 10
103.447815534
 20
-315.9881067962
 30
0.0
 11
104.447815534
 21
-315.9881067962
 31
0.0
  0
LINE
  5
234
330
1F
100
AcDbEntity
  8
0
  6
Continuous
 62
     7
370
    15
100
AcDbLine
 10
626.447815534
 20
-313.9881067962
 30
0.0
 11
625.447815534
 21
-313.9881067962
 31
0.0
  0
LINE
  5
235
330
1F
100
AcDbEntity
  8
0
  6
Continuous
 62
     7
370
    15
100
AcDbLine
 10
626.447815534
 20
-315.9881067962
 30
0.0
 11
625.447815534
 21
-315.9881067962
 31
0.0
  0
LINE
  5
236
330
1F
100
AcDbEntity
  8
0
  6
Continuous
 62
     7
370
    15
100
AcDbLine
 10
511.447815534
 20
-313.9881067962
 30
0.0
 11
510.447815534
 21
-313.9881067962
 31
0.0
  0
LINE
  5
237
330
1F
100
AcDbEntity
  8
0
  6
Continuous
 62
     7
370
    15
100
AcDbLine
 10
511.447815534
 20
-315.9881067962
 30
0.0
 11
510.447815534
 21
-315.9881067962
 31
0.0
  0
LWPOLYLINE
  5
238
330
1F
100
AcDbEntity
  8
0
  6
Continuous
 62
     7
370
    15
100
AcDbPolyline
 90
        3
 70
   128
 43
0.0
 10
625.7855378738
 20
-315.9881067962
 10
625.7142371702
 20
-316.1487147829
 10
625.5937135678
 20
-316.4881067961
  0
ARC
  5
239
330
1F
100
AcDbEntity
  8
0
  6
Continuous
 62
     7
370
    15
100
AcDbCircle
 10
628.947815534
 20
-317.4881067962
 30
0.0
 40
1.500000000000057
100
AcDbArc
 50
90.0
 51
138.1896851021
  0
LINE
  5
23A
330
1F
100
AcDbEntity
  8
0
  6
Continuous
 62
     7
370
    15
100
AcDbLine
 10
576.547815534
 20
-353.9881067962
 30
0.0
 11
160.347815534
 21
-353.9881067962
 31
0.0
  0
SPLINE
  5
23B
330
1F
100
AcDbEntity
  8
0
  6
Continuous
 62
     7
370
    15
100
AcDbSpline
210
0.0
220
0.0
230
1.0
 70
     8
 71
     3
 72
     9
 73
     5
 74
     0
 42
0.00000001
 43
0.00000001
 40
0.0
 40
0.0
 40
0.0
 40
0.0
 40
0.9160780537366476
 40
1.0
 40
1.0
 40
1.0
 40
1.0
 10
625.6662092900142
 20
-316.3171720049586
 30
0.0
 10
625.6206212080111
 20
-316.3656365825586
 30
0.0
 10
625.5708568000364
 20
-316.4185410020045
 30
0.0
 10
625.5212772433613
 20
-316.4827207101006
 30
0.0
 10
625.5171164304703
 20
-316.4881067961146
 30
0.0
  0
SPLINE
  5
23C
330
1F
100
AcDbEntity
  8
0
  6
Continuous
 62
     7
370
    15
100
AcDbSpline
210
0.0
220
0.0
230
1.0
 70
     8
 71
     3
 72
     9
 73
     5
 74
     0
 42
0.00000001
 43
0.00000001
 40
0.0
 40
0.0
 40
0.0
 40
0.0
 40
0.5517072216890313
 40
1.0
 40
1.0
 40
1.0
 40
1.0
 10
631.8978155339943
 20
1089.061893203848
 30
0.0
 10
631.8095018681955
 20
1089.353746554107
 30
0.0
 10
631.6494284409739
 20
1089.882746970969
 30
0.0
 10
631.4893548911438
 20
1090.317152391133
 30
0.0
 10
631.4175950747562
 20
1090.511893203852
 30
0.0
  0
SPLINE
  5
23D
330
1F
100
AcDbEntity
  8
0
  6
Continuous
 62
     7
370
    15
100
AcDbSpline
210
0.0
220
0.0
230
1.0
 70
     8
 71
     3
 72
     9
 73
     5
 74
     0
 42
0.00000001
 43
0.00000001
 40
0.0
 40
0.0
 40
0.0
 40
0.0
 40
0.3919836107500302
 40
1.0
 40
1.0
 40
1.0
 40
1.0
 10
665.9687412033641
 20
1090.511893203852
 30
0.0
 10
665.9725400903975
 20
1090.347096500542
 30
0.0
 10
665.9822315339411
 20
1089.926679169841
 30
0.0
 10
665.9919229774845
 20
1089.38888243358
 30
0.0
 10
665.9978155339943
 20
1089.061893203848
 30
0.0
  0
LINE
  5
23E
330
1F
100
AcDbEntity
  8
0
  6
Continuous
 62
     7
370
    15
100
AcDbLine
 10
668.447815534
 20
-311.0381067962
 30
0.0
 11
665.997815534
 21
-311.0381067962
 31
0.0
  0
LINE
  5
23F
330
1F
100
AcDbEntity
  8
0
  6
Continuous
 62
     7
370
    15
100
AcDbLine
 10
665.997815534
 20
1089.0618932038
 30
0.0
 11
668.247815534
 21
1089.0618932038
 31
0.0
  0
LINE
  5
240
330
1F
100
AcDbEntity
  8
0
  6
Continuous
 62
     7
370
    15
100
AcDbLine
 10
668.447815534
 20
1083.7110211993
 30
0.0
 11
668.447815534
 21
-311.0381067962
 31
0.0
  0
SPLINE
  5
241
330
1F
100
AcDbEntity
  8
0
  6
Continuous
 62
     7
370
    15
100
AcDbSpline
210
0.0
220
0.0
230
1.0
 70
     8
 71
     3
 72
    11
 73
     7
 74
     0
 42
0.00000001
 43
0.00000001
 40
0.0
 40
0.0
 40
0.0
 40
0.0
 40
0.2726962473693455
 40
0.5235847753929346
 40
0.7744195977108246
 40
1.0
 40
1.0
 40
1.0
 40
1.0
 10
631.8978155339942
 20
1089.061893203848
 30
0.0
 10
631.7905012793598
 20
1089.24072314291
 30
0.0
 10
631.5844547699144
 20
1089.584081859359
 30
0.0
 10
631.2801545165072
 20
1089.999965462003
 30
0.0
 10
630.9941479566942
 20
1090.264223561817
 30
0.0
 10
630.8070949462191
 20
1090.296574964511
 30
0.0
 10
630.7185262121128
 20
1090.311893203848
 30
0.0
  0
LINE
  5
242
330
1F
100
AcDbEntity
  8
0
  6
Continuous
 62
     7
370
    15
100
AcDbLine
 10
630.7185262121
 20
1090.5118932039
 30
0.0
 11
630.7185262121
 21
1090.3118932038
 31
0.0
  0
LINE
  5
243
330
1F
100
AcDbEntity
  8
0
  6
Continuous
 62
     7
370
    15
100
AcDbLine
 10
629.447815534
 20
1090.2411825257
 30
0.0
 11
629.447815534
 21
1085.5118932038
 31
0.0
  0
LINE
  5
244
330
1F
100
AcDbEntity
  8
0
  6
Continuous
 62
     7
370
    15
100
AcDbLine
 10
629.447815534
 20
225.5118932038
 30
0.0
 11
629.447815534
 21
220.5118932038
 31
0.0
  0
SPLINE
  5
245
330
1F
100
AcDbEntity
  8
0
  6
Continuous
 62
     7
370
    15
100
AcDbSpline
210
0.0
220
0.0
230
1.0
 70
     8
 71
     3
 72
    12
 73
     8
 74
     0
 42
0.00000001
 43
0.00000001
 40
0.0
 40
0.0
 40
0.0
 40
0.0
 40
0.2245762549043882
 40
0.4491905861813736
 40
0.6738050823772599
 40
0.8984193662511982
 40
1.0
 40
1.0
 40
1.0
 40
1.0
 10
629.4478155339941
 20
1090.241182525729
 30
0.0
 10
629.4774737378826
 20
1090.152871101286
 30
0.0
 10
629.5367951741381
 20
1089.976233279406
 30
0.0
 10
629.997895742845
 20
1089.711228418889
 30
0.0
 10
630.6710264672929
 20
1089.446370104483
 30
0.0
 10
631.351342491251
 20
1089.229372372291
 30
0.0
 10
631.7680487022283
 20
1089.101663218791
 30
0.0
 10
631.8978155339943
 20
1089.061893203848
 30
0.0
  0
LINE
  5
246
330
1F
100
AcDbEntity
  8
0
  6
Continuous
 62
     7
370
    15
100
AcDbLine
 10
629.447815534
 20
1090.2411825257
 30
0.0
 11
630.647815534
 21
1090.2411825257
 31
0.0
  0
SPLINE
  5
247
330
1F
100
AcDbEntity
  8
0
  6
Continuous
 62
     7
370
    15
100
AcDbSpline
210
0.0
220
0.0
230
1.0
 70
     8
 71
     3
 72
    11
 73
     7
 74
     0
 42
0.00000001
 43
0.00000001
 40
0.0
 40
0.0
 40
0.0
 40
0.0
 40
0.272696247369432
 40
0.523584775392844
 40
0.7744195977108742
 40
1.0
 40
1.0
 40
1.0
 40
1.0
 10
630.6478155339942
 20
1090.241182525729
 30
0.0
 10
630.6701711365685
 20
1090.133868271094
 30
0.0
 10
630.7130945477467
 20
1089.927821761649
 30
0.0
 10
631.0277016938331
 20
1089.623521508242
 30
0.0
 10
631.4383683483188
 20
1089.337514948429
 30
0.0
 10
631.7501760373873
 20
1089.150461937954
 30
0.0
 10
631.8978155339942
 20
1089.061893203848
 30
0.0
  0
LINE
  5
248
330
1F
100
AcDbEntity
  8
0
  6
Continuous
 62
     7
370
    15
100
AcDbLine
 10
665.997815534
 20
-311.0381067962
 30
0.0
 11
665.997815534
 21
-313.4881067962
 31
0.0
  0
LINE
  5
249
330
1F
100
AcDbEntity
  8
0
  6
Continuous
 62
     7
370
    15
100
AcDbLine
 10
664.4478155346
 20
-313.4881067962
 30
0.0
 11
665.997815534
 21
-313.4881067962
 31
0.0
  0
LINE
  5
24A
330
1F
100
AcDbEntity
  8
0
  6
Continuous
 62
     7
370
    15
100
AcDbLine
 10
668.247815534
 20
1090.0196790565
 30
0.0
 11
667.9189285554
 21
1090.5118932039
 31
0.0
  0
SPLINE
  5
24B
330
1F
100
AcDbEntity
  8
0
  6
Continuous
 62
     7
370
    15
100
AcDbSpline
210
0.0
220
0.0
230
1.0
 70
     8
 71
     3
 72
    11
 73
     7
 74
     0
 42
0.00000001
 43
0.00000001
 40
0.0
 40
0.0
 40
0.0
 40
0.0
 40
0.2499999999999789
 40
0.4999999999999982
 40
0.7499999999999543
 40
1.0
 40
1.0
 40
1.0
 40
1.0
 10
667.2478155339942
 20
1089.061893203848
 30
0.0
 10
667.2290260680102
 20
1089.225689508606
 30
0.0
 10
667.1914471360413
 20
1089.553282118121
 30
0.0
 10
666.9023856196392
 20
1089.966463289494
 30
0.0
 10
666.4892044482673
 20
1090.255524805894
 30
0.0
 10
666.1616118387519
 20
1090.293103737863
 30
0.0
 10
665.9978155339942
 20
1090.311893203848
 30
0.0
  0
LINE
  5
24C
330
1F
100
AcDbEntity
  8
0
  6
Continuous
 62
     7
370
    15
100
AcDbLine
 10
665.997815534
 20
1090.5118932039
 30
0.0
 11
665.997815534
 21
1090.3118932038
 31
0.0
  0
LINE
  5
24D
330
1F
100
AcDbEntity
  8
0
  6
Continuous
 62
     7
370
    15
100
AcDbLine
 10
667.247815534
 20
-313.4881067962
 30
0.0
 11
668.447815534
 21
-313.4881067962
 31
0.0
  0
LINE
  5
24E
330
1F
100
AcDbEntity
  8
0
  6
Continuous
 62
     7
370
    15
100
AcDbLine
 10
667.247815534
 20
-311.0381067962
 30
0.0
 11
667.247815534
 21
-313.4881067962
 31
0.0
  0
LINE
  5
24F
330
1F
100
AcDbEntity
  8
0
  6
Continuous
 62
     7
370
    15
100
AcDbLine
 10
668.447815534
 20
-311.0381067962
 30
0.0
 11
668.447815534
 21
-313.4881067962
 31
0.0
  0
SPLINE
  5
250
330
1F
100
AcDbEntity
  8
0
  6
Continuous
 62
     7
370
    15
100
AcDbSpline
210
0.0
220
0.0
230
1.0
 70
     8
 71
     3
 72
     9
 73
     5
 74
     0
 42
0.00000001
 43
0.00000001
 40
0.0
 40
0.0
 40
0.0
 40
0.0
 40
0.5528950761560918
 40
1.0
 40
1.0
 40
1.0
 40
1.0
 10
666.840057900542
 20
1089.973600380449
 30
0.0
 10
666.6909781496913
 20
1090.023050057559
 30
0.0
 10
666.4213433540856
 20
1090.112487781357
 30
0.0
 10
666.1286708511366
 20
1090.201420340601
 30
0.0
 10
665.9978155339945
 20
1090.24118252573
 30
0.0
  0
LINE
  5
251
330
1F
100
AcDbEntity
  8
0
  6
Continuous
 62
     7
370
    15
100
AcDbLine
 10
665.997815534
 20
-313.4881067962
 30
0.0
 11
667.247815534
 21
-313.4881067962
 31
0.0
  0
LINE
  5
252
330
1F
100
AcDbEntity
  8
0
  6
Continuous
 62
     7
370
    15
100
AcDbLine
 10
629.0185262122
 20
-312.417396118
 30
0.0
 11
629.4478155346
 21
-312.417396118
 31
0.0
  0
LINE
  5
253
330
1F
100
AcDbEntity
  8
0
  6
Continuous
 62
     7
370
    15
100
AcDbLine
 10
102.447815534
 20
-313.9881067962
 30
0.0
 11
102.447815534
 21
-313.4881067962
 31
0.0
  0
LINE
  5
254
330
1F
100
AcDbEntity
  8
0
  6
Continuous
 62
     7
370
    15
100
AcDbLine
 10
74.947815534
 20
-313.9881067962
 30
0.0
 11
72.197815534
 21
-313.9881067962
 31
0.0
  0
ARC
  5
255
330
1F
100
AcDbEntity
  8
0
  6
Continuous
 62
     7
370
    15
100
AcDbCircle
 10
72.197815534
 20
-311.2381067962
 30
0.0
 40
2.750000000000057
100
AcDbArc
 50
234.9031987725
 51
270.0
  0
LINE
  5
256
330
1F
100
AcDbEntity
  8
0
  6
Continuous
 62
     7
370
    15
100
AcDbLine
 10
109.447815534
 20
-312.417396118
 30
0.0
 11
109.447815534
 21
-311.4881067961
 31
0.0
  0
LINE
  5
257
330
1F
100
AcDbEntity
  8
0
  6
Continuous
 62
     7
370
    15
100
AcDbLine
 10
106.1771048559
 20
-312.417396118
 30
0.0
 11
109.447815534
 21
-312.417396118
 31
0.0
  0
SPLINE
  5
258
330
1F
100
AcDbEntity
  8
0
  6
Continuous
 62
     7
370
    15
100
AcDbSpline
210
0.0
220
0.0
230
1.0
 70
     8
 71
     3
 72
     9
 73
     5
 74
     0
 42
0.00000001
 43
0.00000001
 40
0.0
 40
0.0
 40
0.0
 40
0.0
 40
0.6080163892474221
 40
1.0
 40
1.0
 40
1.0
 40
1.0
 10
70.89781553399688
 20
1089.061893203843
 30
0.0
 10
70.90370809050673
 20
1089.388882433574
 30
0.0
 10
70.91339953405028
 20
1089.926679169837
 30
0.0
 10
70.92309097759374
 20
1090.34709650054
 30
0.0
 10
70.92688986462726
 20
1090.511893203852
 30
0.0
  0
SPLINE
  5
259
330
1F
100
AcDbEntity
  8
0
  6
Continuous
 62
     7
370
    15
100
AcDbSpline
210
0.0
220
0.0
230
1.0
 70
     8
 71
     3
 72
    10
 73
     6
 74
     0
 42
0.00000001
 43
0.00000001
 40
0.0
 40
0.0
 40
0.0
 40
0.0
 40
0.2056296728663801
 40
0.7526244680648978
 40
1.0
 40
1.0
 40
1.0
 40
1.0
 10
105.4818061665014
 20
1090.511893203852
 30
0.0
 10
105.4486077527406
 20
1090.431236598175
 30
0.0
 10
105.3270983511597
 20
1090.136025629361
 30
0.0
 10
105.1652905979761
 20
1089.605556304307
 30
0.0
 10
105.0375845742835
 20
1089.190992779809
 30
0.0
 10
104.9978155339969
 20
1089.061893203843
 30
0.0
  0
LINE
  5
25A
330
1F
100
AcDbEntity
  8
0
  6
Continuous
 62
     7
370
    15
100
AcDbLine
 10
68.647815534
 20
1089.0618932038
 30
0.0
 11
70.897815534
 21
1089.0618932038
 31
0.0
  0
LINE
  5
25B
330
1F
100
AcDbEntity
  8
0
  6
Continuous
 62
     7
370
    15
100
AcDbLine
 10
70.897815534
 20
-311.0381067962
 30
0.0
 11
68.447815534
 21
-311.0381067962
 31
0.0
  0
LINE
  5
25C
330
1F
100
AcDbEntity
  8
0
  6
Continuous
 62
     7
370
    15
100
AcDbLine
 10
68.447815534
 20
-311.0381067962
 30
0.0
 11
68.447815534
 21
1083.7110211993
 31
0.0
  0
SPLINE
  5
25D
330
1F
100
AcDbEntity
  8
0
  6
Continuous
 62
     7
370
    15
100
AcDbSpline
210
0.0
220
0.0
230
1.0
 70
     8
 71
     3
 72
    11
 73
     7
 74
     0
 42
0.00000001
 43
0.00000001
 40
0.0
 40
0.0
 40
0.0
 40
0.0
 40
0.295886422577087
 40
0.5918230119969256
 40
0.8877598187026736
 40
1.0
 40
1.0
 40
1.0
 40
1.0
 10
104.9978155339969
 20
1089.061893203843
 30
0.0
 10
105.2869392194805
 20
1089.150206881195
 30
0.0
 10
105.8652356106845
 20
1089.326849209275
 30
0.0
 10
106.6090569632211
 20
1089.591820268889
 30
0.0
 10
107.0945170071034
 20
1089.801978741319
 30
0.0
 10
107.2094788761696
 20
1089.92380879268
 30
0.0
 10
107.2410909988651
 20
1089.957309522643
 30
0.0
  0
SPLINE
  5
25E
330
1F
100
AcDbEntity
  8
0
  6
Continuous
 62
     7
370
    15
100
AcDbSpline
210
0.0
220
0.0
230
1.0
 70
     8
 71
     3
 72
    11
 73
     7
 74
     0
 42
0.00000001
 43
0.00000001
 40
0.0
 40
0.0
 40
0.0
 40
0.0
 40
0.272696247369383
 40
0.5235847753928801
 40
0.7744195977109364
 40
1.0
 40
1.0
 40
1.0
 40
1.0
 10
104.9978155339969
 20
1089.061893203843
 30
0.0
 10
105.1766454730588
 20
1089.169207458477
 30
0.0
 10
105.5200041895079
 20
1089.375253967922
 30
0.0
 10
105.9358877921509
 20
1089.679554221331
 30
0.0
 10
106.2001458919671
 20
1089.965560781141
 30
0.0
 10
106.2324972946603
 20
1090.152613791618
 30
0.0
 10
106.2478155339969
 20
1090.241182525724
 30
0.0
  0
LINE
  5
25F
330
1F
100
AcDbEntity
  8
0
  6
Continuous
 62
     7
370
    15
100
AcDbLine
 10
107.147815534
 20
1090.2411825257
 30
0.0
 11
106.247815534
 21
1090.2411825257
 31
0.0
  0
LINE
  5
260
330
1F
100
AcDbEntity
  8
0
  6
Continuous
 62
     7
370
    15
100
AcDbLine
 10
107.447815534
 20
225.5118932038
 30
0.0
 11
107.447815534
 21
212.5118932039
 31
0.0
  0
LINE
  5
261
330
1F
100
AcDbEntity
  8
0
  6
Continuous
 62
     7
370
    15
100
AcDbLine
 10
107.447815534
 20
-311.4881067961
 30
0.0
 11
107.447815534
 21
-312.217396118
 31
0.0
  0
SPLINE
  5
262
330
1F
100
AcDbEntity
  8
0
  6
Continuous
 62
     7
370
    15
100
AcDbSpline
210
0.0
220
0.0
230
1.0
 70
     8
 71
     3
 72
    10
 73
     6
 74
     0
 42
0.00000001
 43
0.00000001
 40
0.0
 40
0.0
 40
0.0
 40
0.0
 40
0.3632869966825883
 40
0.7266355878157753
 40
1.0
 40
1.0
 40
1.0
 40
1.0
 10
107.447815533997
 20
-312.2173961180386
 30
0.0
 10
107.4170303756651
 20
-312.1290824325884
 30
0.0
 10
107.3554548394505
 20
-311.952440088312
 30
0.0
 10
106.9479328614193
 20
-311.709344015555
 30
0.0
 10
106.5384200996526
 20
-311.554560903669
 30
0.0
 10
106.3626011438295
 20
-311.4881067961255
 30
0.0
  0
LINE
  5
263
330
1F
100
AcDbEntity
  8
0
  6
Continuous
 62
     7
370
    15
100
AcDbLine
 10
106.1771048559
 20
1090.5118932039
 30
0.0
 11
106.1771048559
 21
1090.3118932038
 31
0.0
  0
SPLINE
  5
264
330
1F
100
AcDbEntity
  8
0
  6
Continuous
 62
     7
370
    15
100
AcDbSpline
210
0.0
220
0.0
230
1.0
 70
     8
 71
     3
 72
    11
 73
     7
 74
     0
 42
0.00000001
 43
0.00000001
 40
0.0
 40
0.0
 40
0.0
 40
0.0
 40
0.2726962473693547
 40
0.5235847753928804
 40
0.7744195977108088
 40
1.0
 40
1.0
 40
1.0
 40
1.0
 10
106.1771048558783
 20
1090.311893203843
 30
0.0
 10
106.0697906012438
 20
1090.289537601268
 30
0.0
 10
105.8637440917987
 20
1090.24661419009
 30
0.0
 10
105.559443838391
 20
1089.932007044004
 30
0.0
 10
105.2734372785785
 20
1089.521340389517
 30
0.0
 10
105.0863842681032
 20
1089.20953270045
 30
0.0
 10
104.9978155339969
 20
1089.061893203843
 30
0.0
  0
SPLINE
  5
265
330
1F
100
AcDbEntity
  8
0
  6
Continuous
 62
     7
370
    15
100
AcDbSpline
210
0.0
220
0.0
230
1.0
 70
     8
 71
     3
 72
    12
 73
     8
 74
     0
 42
0.00000001
 43
0.00000001
 40
0.0
 40
0.0
 40
0.0
 40
0.0
 40
0.1194897999252959
 40
0.3745441634565026
 40
0.6295987142566013
 40
0.8846530239606549
 40
1.0
 40
1.0
 40
1.0
 40
1.0
 10
105.1386139416718
 20
-311.4881067961254
 30
0.0
 10
105.1799941254704
 20
-311.6221640092506
 30
0.0
 10
105.3097014840416
 20
-312.042370142131
 30
0.0
 10
105.5277703636164
 20
-312.6594647010047
 30
0.0
 10
105.7926277575314
 20
-313.2169809989431
 30
0.0
 10
106.0096257069785
 20
-313.4617024792893
 30
0.0
 10
106.1373348455764
 20
-313.4818367621814
 30
0.0
 10
106.1771048558783
 20
-313.4881067961572
 30
0.0
  0
LINE
  5
266
330
1F
100
AcDbEntity
  8
0
  6
Continuous
 62
     7
370
    15
100
AcDbLine
 10
106.1771048559
 20
-313.4881067962
 30
0.0
 11
70.897815534
 21
-313.4881067962
 31
0.0
  0
LINE
  5
267
330
1F
100
AcDbEntity
  8
0
  6
Continuous
 62
     7
370
    15
100
AcDbLine
 10
70.897815534
 20
-313.4881067962
 30
0.0
 11
70.897815534
 21
-311.0381067962
 31
0.0
  0
LINE
  5
268
330
1F
100
AcDbEntity
  8
0
  6
Continuous
 62
     7
370
    15
100
AcDbLine
 10
107.447815534
 20
-312.217396118
 30
0.0
 11
106.247815534
 21
-312.217396118
 31
0.0
  0
SPLINE
  5
269
330
1F
100
AcDbEntity
  8
0
  6
Continuous
 62
     7
370
    15
100
AcDbSpline
210
0.0
220
0.0
230
1.0
 70
     8
 71
     3
 72
    10
 73
     6
 74
     0
 42
0.00000001
 43
0.00000001
 40
0.0
 40
0.0
 40
0.0
 40
0.0
 40
0.4411168490293563
 40
0.8469572594016584
 40
1.0
 40
1.0
 40
1.0
 40
1.0
 10
106.2478155339969
 20
-312.2173961180387
 30
0.0
 10
106.224086099523
 20
-312.1100831443646
 30
0.0
 10
106.1785248908923
 20
-311.904039094401
 30
0.0
 10
105.9422088147551
 20
-311.6611118595654
 30
0.0
 10
105.7448371477858
 20
-311.5252977023135
 30
0.0
 10
105.6907895337596
 20
-311.4881067961255
 30
0.0
  0
SPLINE
  5
26A
330
1F
100
AcDbEntity
  8
0
  6
Continuous
 62
     7
370
    15
100
AcDbSpline
210
0.0
220
0.0
230
1.0
 70
     8
 71
     3
 72
    11
 73
     7
 74
     0
 42
0.00000001
 43
0.00000001
 40
0.0
 40
0.0
 40
0.0
 40
0.0
 40
0.0478343463274292
 40
0.3762905634449664
 40
0.704676470560694
 40
1.0
 40
1.0
 40
1.0
 40
1.0
 10
105.2765493773484
 20
-311.4881067961255
 30
0.0
 10
105.2909253591706
 20
-311.5115092745615
 30
0.0
 10
105.4040145244932
 20
-311.6956056921534
 30
0.0
 10
105.6154588790644
 20
-311.9726255033806
 30
0.0
 10
105.9014870140214
 20
-312.241221909785
 30
0.0
 10
106.0885373758799
 20
-312.2730407314641
 30
0.0
 10
106.1771048558783
 20
-312.2881067961573
 30
0.0
  0
LINE
  5
26B
330
1F
100
AcDbEntity
  8
0
  6
Continuous
 62
     7
370
    15
100
AcDbLine
 10
106.1771048559
 20
-313.4881067962
 30
0.0
 11
106.1771048559
 21
-312.2881067962
 31
0.0
  0
LINE
  5
26C
330
1F
100
AcDbEntity
  8
0
  6
Continuous
 62
     7
370
    15
100
AcDbLine
 10
70.897815534
 20
1090.5118932039
 30
0.0
 11
70.897815534
 21
1090.3118932038
 31
0.0
  0
SPLINE
  5
26D
330
1F
100
AcDbEntity
  8
0
  6
Continuous
 62
     7
370
    15
100
AcDbSpline
210
0.0
220
0.0
230
1.0
 70
     8
 71
     3
 72
    11
 73
     7
 74
     0
 42
0.00000001
 43
0.00000001
 40
0.0
 40
0.0
 40
0.0
 40
0.0
 40
0.2500000000000077
 40
0.5000000000000395
 40
0.7500000000000229
 40
1.0
 40
1.0
 40
1.0
 40
1.0
 10
70.89781553399676
 20
1090.311893203843
 30
0.0
 10
70.734019229239
 20
1090.293103737858
 30
0.0
 10
70.4064266197234
 20
1090.25552480589
 30
0.0
 10
69.99324544835228
 20
1089.966463289486
 30
0.0
 10
69.70418393194933
 20
1089.553282118115
 30
0.0
 10
69.666604999981
 20
1089.2256895086
 30
0.0
 10
69.64781553399679
 20
1089.061893203843
 30
0.0
  0
LINE
  5
26E
330
1F
100
AcDbEntity
  8
0
  6
Continuous
 62
     7
370
    15
100
AcDbLine
 10
68.9767025126
 20
1090.5118932039
 30
0.0
 11
68.647815534
 21
1090.0196790564
 31
0.0
  0
LINE
  5
26F
330
1F
100
AcDbEntity
  8
0
  6
Continuous
 62
     7
370
    15
100
AcDbLine
 10
69.647815534
 20
-313.4881067962
 30
0.0
 11
68.447815534
 21
-313.4881067962
 31
0.0
  0
LINE
  5
270
330
1F
100
AcDbEntity
  8
0
  6
Continuous
 62
     7
370
    15
100
AcDbLine
 10
69.647815534
 20
-313.4881067962
 30
0.0
 11
69.647815534
 21
-311.0381067962
 31
0.0
  0
LINE
  5
271
330
1F
100
AcDbEntity
  8
0
  6
Continuous
 62
     7
370
    15
100
AcDbLine
 10
68.447815534
 20
-313.4881067962
 30
0.0
 11
68.447815534
 21
-311.0381067962
 31
0.0
  0
SPLINE
  5
272
330
1F
100
AcDbEntity
  8
0
  6
Continuous
 62
     7
370
    15
100
AcDbSpline
210
0.0
220
0.0
230
1.0
 70
     8
 71
     3
 72
     9
 73
     5
 74
     0
 42
0.00000001
 43
0.00000001
 40
0.0
 40
0.0
 40
0.0
 40
0.0
 40
0.5026028422353148
 40
0.9999999999999999
 40
0.9999999999999999
 40
0.9999999999999999
 40
0.9999999999999999
 10
70.8978155339967
 20
1090.241182525724
 30
0.0
 10
70.75539894449479
 20
1090.197658212333
 30
0.0
 10
70.47204083838365
 20
1090.11106038651
 30
0.0
 10
70.201687873438
 20
1090.024456021013
 30
0.0
 10
70.06721507708075
 20
1089.981379255765
 30
0.0
  0
LINE
  5
273
330
1F
100
AcDbEntity
  8
0
  6
Continuous
 62
     7
370
    15
100
AcDbLine
 10
69.647815534
 20
-313.4881067962
 30
0.0
 11
70.897815534
 21
-313.4881067962
 31
0.0
  0
LINE
  5
274
330
1F
100
AcDbEntity
  8
0
  6
Continuous
 62
     7
370
    15
100
AcDbLine
 10
174.447815534
 20
-484.4881067962
 30
0.0
 11
82.447815534
 21
-484.4881067962
 31
0.0
  0
LINE
  5
275
330
1F
100
AcDbEntity
  8
0
  6
Continuous
 62
     7
370
    15
100
AcDbLine
 10
174.447815534
 20
-486.4881067962
 30
0.0
 11
82.447815534
 21
-486.4881067962
 31
0.0
  0
LINE
  5
276
330
1F
100
AcDbEntity
  8
0
  6
Continuous
 62
     7
370
    15
100
AcDbLine
 10
654.447815534
 20
-484.4881067961
 30
0.0
 11
562.447815534
 21
-484.4881067961
 31
0.0
  0
LINE
  5
277
330
1F
100
AcDbEntity
  8
0
  6
Continuous
 62
     7
370
    15
100
AcDbLine
 10
654.447815534
 20
-486.4881067961
 30
0.0
 11
562.447815534
 21
-486.4881067961
 31
0.0
  0
LINE
  5
278
330
1F
100
AcDbEntity
  8
0
  6
Continuous
 62
     7
370
    15
100
AcDbLine
 10
653.447815534
 20
-318.4881067961
 30
0.0
 11
653.447815534
 21
-316.4881067961
 31
0.0
  0
LINE
  5
279
330
1F
100
AcDbEntity
  8
0
  6
Continuous
 62
     7
370
    15
100
AcDbLine
 10
563.447815534
 20
-318.4881067961
 30
0.0
 11
653.447815534
 21
-318.4881067961
 31
0.0
  0
LINE
  5
27A
330
1F
100
AcDbEntity
  8
0
  6
Continuous
 62
     7
370
    15
100
AcDbLine
 10
563.447815534
 20
-316.4881067961
 30
0.0
 11
653.447815534
 21
-316.4881067961
 31
0.0
  0
LINE
  5
27B
330
1F
100
AcDbEntity
  8
0
  6
Continuous
 62
     7
370
    15
100
AcDbLine
 10
563.447815534
 20
-318.4881067961
 30
0.0
 11
563.447815534
 21
-316.4881067961
 31
0.0
  0
LINE
  5
27C
330
1F
100
AcDbEntity
  8
0
  6
Continuous
 62
     7
370
    15
100
AcDbLine
 10
639.4074657543
 20
-412.4881067961
 30
0.0
 11
577.4881653137
 21
-412.4881067961
 31
0.0
  0
LINE
  5
27D
330
1F
100
AcDbEntity
  8
0
  6
Continuous
 62
     7
370
    15
100
AcDbLine
 10
83.447815534
 20
-316.4881067962
 30
0.0
 11
104.447815534
 21
-316.4881067962
 31
0.0
  0
LINE
  5
27E
330
1F
100
AcDbEntity
  8
0
  6
Continuous
 62
     7
370
    15
100
AcDbLine
 10
83.447815534
 20
-318.4881067962
 30
0.0
 11
104.447815534
 21
-318.4881067962
 31
0.0
  0
LINE
  5
27F
330
1F
100
AcDbEntity
  8
0
  6
Continuous
 62
     7
370
    15
100
AcDbLine
 10
83.447815534
 20
-318.4881067962
 30
0.0
 11
83.447815534
 21
-316.4881067962
 31
0.0
  0
LINE
  5
280
330
1F
100
AcDbEntity
  8
0
  6
Continuous
 62
     7
370
    15
100
AcDbLine
 10
159.4074657543
 20
-412.4881067962
 30
0.0
 11
97.4881653137
 21
-412.4881067962
 31
0.0
  0
LINE
  5
281
330
1F
100
AcDbEntity
  8
0
  6
Continuous
 62
     7
370
    15
100
AcDbLine
 10
650.1178155345
 20
-316.3881067978
 30
0.0
 11
654.0178155345
 21
-316.3881067978
 31
0.0
  0
LINE
  5
282
330
1F
100
AcDbEntity
  8
0
  6
Continuous
 62
     7
370
    15
100
AcDbLine
 10
646.2178155345
 20
-316.3881067978
 30
0.0
 11
650.1178155345
 21
-316.3881067978
 31
0.0
  0
LINE
  5
283
330
1F
100
AcDbEntity
  8
0
  6
PHANTOM
 62
     8
370
     0
100
AcDbLine
 10
241.9909538
 20
224.2454710752
 30
0.0
 11
254.9046772682
 21
224.2454710752
 31
0.0
  0
LINE
  5
284
330
1F
100
AcDbEntity
  8
0
  6
PHANTOM
 62
     8
370
     0
100
AcDbLine
 10
245.1980919327
 20
225.5118932038
 30
0.0
 11
245.1953819368
 21
225.4970779319
 31
0.0
  0
LINE
  5
285
330
1F
100
AcDbEntity
  8
0
  6
PHANTOM
 62
     8
370
     0
100
AcDbLine
 10
251.6975391355
 20
225.5118932038
 30
0.0
 11
251.7002491313
 21
225.4970779319
 31
0.0
  0
LINE
  5
286
330
1F
100
AcDbEntity
  8
0
  6
PHANTOM
 62
     8
370
     0
100
AcDbLine
 10
664.167815534
 20
227.9618932038
 30
0.0
 11
73.067815534
 21
227.9618932038
 31
0.0
  0
LINE
  5
287
330
1F
100
AcDbEntity
  8
0
  6
PHANTOM
 62
     8
370
     0
100
AcDbLine
 10
664.167815534
 20
1083.0618932038
 30
0.0
 11
73.067815534
 21
1083.0618932038
 31
0.0
  0
LINE
  5
288
330
1F
100
AcDbEntity
  8
0
  6
PHANTOM
 62
     8
370
     0
100
AcDbLine
 10
664.167815534
 20
227.9618932038
 30
0.0
 11
664.167815534
 21
1083.0618932038
 31
0.0
  0
LINE
  5
289
330
1F
100
AcDbEntity
  8
0
  6
PHANTOM
 62
     8
370
     0
100
AcDbLine
 10
73.067815534
 20
1083.0618932038
 30
0.0
 11
73.067815534
 21
227.9618932038
 31
0.0
  0
LINE
  5
28A
330
1F
100
AcDbEntity
  8
0
  6
PHANTOM
 62
     8
370
     0
100
AcDbLine
 10
512.4685262122
 20
-311.4881067961
 30
0.0
 11
512.4685262122
 21
-313.8881067961
 31
0.0
  0
LINE
  5
28B
330
1F
100
AcDbEntity
  8
0
  6
PHANTOM
 62
     8
370
     0
100
AcDbLine
 10
626.5685262122
 20
-313.8881067961
 30
0.0
 11
626.5685262122
 21
-311.4881067961
 31
0.0
  0
LINE
  5
28C
330
1F
100
AcDbEntity
  8
0
  6
PHANTOM
 62
     8
370
     0
100
AcDbLine
 10
606.8771048559
 20
1089.2118932039
 30
0.0
 11
128.6185262121
 21
1089.2118932039
 31
0.0
  0
LINE
  5
28D
330
1F
100
AcDbEntity
  8
0
  6
PHANTOM
 62
     8
370
     0
100
AcDbLine
 10
610.047815534
 20
1085.5118932038
 30
0.0
 11
610.047815534
 21
1090.5118932039
 31
0.0
  0
LINE
  5
28E
330
1F
100
AcDbEntity
  8
0
  6
PHANTOM
 62
     8
370
     0
100
AcDbLine
 10
626.047815534
 20
1085.5118932038
 30
0.0
 11
626.047815534
 21
1090.5118932039
 31
0.0
  0
LINE
  5
28F
330
1F
100
AcDbEntity
  8
0
  6
PHANTOM
 62
     8
370
     0
100
AcDbLine
 10
125.447815534
 20
1090.5118932039
 30
0.0
 11
125.447815534
 21
1085.5118932038
 31
0.0
  0
LINE
  5
290
330
1F
100
AcDbEntity
  8
0
  6
PHANTOM
 62
     8
370
     0
100
AcDbLine
 10
109.447815534
 20
1090.5118932039
 30
0.0
 11
109.447815534
 21
1085.5118932038
 31
0.0
  0
LINE
  5
291
330
1F
100
AcDbEntity
  8
0
  6
PHANTOM
 62
     8
370
     0
100
AcDbLine
 10
130.447815534
 20
225.5118932038
 30
0.0
 11
130.447815534
 21
212.5118932039
 31
0.0
  0
LINE
  5
292
330
1F
100
AcDbEntity
  8
0
  6
PHANTOM
 62
     8
370
     0
100
AcDbLine
 10
605.047815534
 20
225.5118932038
 30
0.0
 11
605.047815534
 21
212.5118932039
 31
0.0
  0
LINE
  5
293
330
1F
100
AcDbEntity
  8
0
  6
PHANTOM
 62
     8
370
     0
100
AcDbLine
 10
72.467815534
 20
210.4618932039
 30
0.0
 11
72.467815534
 21
-309.4381067961
 31
0.0
  0
LINE
  5
294
330
1F
100
AcDbEntity
  8
0
  6
PHANTOM
 62
     8
370
     0
100
AcDbLine
 10
664.367815534
 20
210.4618932039
 30
0.0
 11
72.467815534
 21
210.4618932039
 31
0.0
  0
LINE
  5
295
330
1F
100
AcDbEntity
  8
0
  6
PHANTOM
 62
     8
370
     0
100
AcDbLine
 10
72.467815534
 20
-309.4381067961
 30
0.0
 11
664.367815534
 21
-309.4381067961
 31
0.0
  0
LINE
  5
296
330
1F
100
AcDbEntity
  8
0
  6
PHANTOM
 62
     8
370
     0
100
AcDbLine
 10
664.367815534
 20
-309.4381067961
 30
0.0
 11
664.367815534
 21
210.4618932039
 31
0.0
  0
LINE
  5
297
330
1F
100
AcDbEntity
  8
0
  6
PHANTOM
 62
     8
370
     0
100
AcDbLine
 10
659.4478155346
 20
-314.8881067978
 30
0.0
 11
659.4478155346
 21
-313.3881067978
 31
0.0
  0
LINE
  5
298
330
1F
100
AcDbEntity
  8
0
  6
PHANTOM
 62
     8
370
     0
100
AcDbLine
 10
646.5188833465
 20
-313.3881067978
 30
0.0
 11
646.5188833465
 21
-314.8881067978
 31
0.0
  0
LINE
  5
299
330
1F
100
AcDbEntity
  8
0
  6
PHANTOM
 62
     8
370
     0
100
AcDbLine
 10
642.9833494405
 20
-314.8881067978
 30
0.0
 11
642.9833494405
 21
-313.3881067978
 31
0.0
  0
LINE
  5
29A
330
1F
100
AcDbEntity
  8
0
  6
PHANTOM
 62
     8
370
     0
100
AcDbLine
 10
630.9122816287
 20
-313.3881067978
 30
0.0
 11
630.9122816287
 21
-314.8881067978
 31
0.0
  0
LINE
  5
29B
330
1F
100
AcDbEntity
  8
0
  6
PHANTOM
 62
     8
370
     0
100
AcDbLine
 10
664.4478155346
 20
-311.6381067978
 30
0.0
 11
658.2678155356
 21
-311.6381067978
 31
0.0
  0
LINE
  5
29C
330
1F
100
AcDbEntity
  8
0
  6
PHANTOM
 62
     8
370
     0
100
AcDbLine
 10
641.9678155323
 20
-311.6381067978
 30
0.0
 11
629.4478155346
 21
-311.6381067978
 31
0.0
  0
LINE
  5
29D
330
1F
100
AcDbEntity
  8
0
  6
PHANTOM
 62
     8
370
     0
100
AcDbLine
 10
70.697815534
 20
1090.1795855862
 30
0.0
 11
70.697815534
 21
1090.2721107304
 31
0.0
  0
LINE
  5
29E
330
1F
100
AcDbEntity
  8
0
  6
PHANTOM
 62
     8
370
     0
100
AcDbLine
 10
136.397815534
 20
-311.4881067961
 30
0.0
 11
136.397815534
 21
-313.4881067962
 31
0.0
  0
LINE
  5
29F
330
1F
100
AcDbEntity
  8
0
  6
PHANTOM
 62
     8
370
     0
100
AcDbLine
 10
223.297815534
 20
-311.5881067962
 30
0.0
 11
213.597815534
 21
-311.5881067962
 31
0.0
  0
LINE
  5
2A0
330
1F
100
AcDbEntity
  8
0
  6
PHANTOM
 62
     8
370
     0
100
AcDbLine
 10
223.297815534
 20
-311.9881067962
 30
0.0
 11
213.597815534
 21
-311.9881067962
 31
0.0
  0
LINE
  5
2A1
330
1F
100
AcDbEntity
  8
0
  6
PHANTOM
 62
     8
370
     0
100
AcDbLine
 10
668.247815534
 20
1115.6118932039
 30
0.0
 11
68.647815534
 21
1115.6118932039
 31
0.0
  0
LINE
  5
2A2
330
1F
100
AcDbEntity
  8
0
  6
PHANTOM
 62
     8
370
     0
100
AcDbLine
 10
668.247815534
 20
1092.9618932039
 30
0.0
 11
68.647815534
 21
1092.9618932039
 31
0.0
  0
LINE
  5
2A3
330
1F
100
AcDbEntity
  8
0
  6
PHANTOM
 62
     8
370
     0
100
AcDbLine
 10
669.447815534
 20
1115.6118932039
 30
0.0
 11
668.247815534
 21
1115.6118932039
 31
0.0
  0
LINE
  5
2A4
330
1F
100
AcDbEntity
  8
0
  6
PHANTOM
 62
     8
370
     0
100
AcDbLine
 10
669.447815534
 20
1092.9618932039
 30
0.0
 11
668.247815534
 21
1092.9618932039
 31
0.0
  0
LINE
  5
2A5
330
1F
100
AcDbEntity
  8
0
  6
PHANTOM
 62
     8
370
     0
100
AcDbLine
 10
67.447815534
 20
1115.6118932039
 30
0.0
 11
68.647815534
 21
1115.6118932039
 31
0.0
  0
LINE
  5
2A6
330
1F
100
AcDbEntity
  8
0
  6
PHANTOM
 62
     8
370
     0
100
AcDbLine
 10
67.447815534
 20
1092.9618932039
 30
0.0
 11
68.647815534
 21
1092.9618932039
 31
0.0
  0
LINE
  5
2A7
330
1F
100
AcDbEntity
  8
0
  6
PHANTOM
 62
     8
370
     0
100
AcDbLine
 10
668.247815534
 20
1135.5618932039
 30
0.0
 11
669.447815534
 21
1135.5618932039
 31
0.0
  0
LINE
  5
2A8
330
1F
100
AcDbEntity
  8
0
  6
PHANTOM
 62
     8
370
     0
100
AcDbLine
 10
68.647815534
 20
1135.5618932039
 30
0.0
 11
67.447815534
 21
1135.5618932039
 31
0.0
  0
SPLINE
  5
2A9
330
1F
100
AcDbEntity
  8
0
  6
PHANTOM
 62
     8
370
     0
100
AcDbSpline
210
0.0
220
0.0
230
1.0
 70
     8
 71
     3
 72
    11
 73
     7
 74
     0
 42
0.00000001
 43
0.00000001
 40
0.0
 40
0.0
 40
0.0
 40
0.0
 40
0.2371761177076074
 40
0.4978312223648327
 40
0.7485598887879807
 40
0.9999999999999999
 40
0.9999999999999999
 40
0.9999999999999999
 40
0.9999999999999999
 10
133.4194607857621
 20
-231.4881067961144
 30
0.0
 10
133.3889737194022
 20
-231.6310325814382
 30
0.0
 10
133.3249815533318
 20
-231.9310329318233
 30
0.0
 10
133.192932679536
 20
-232.5544070529783
 30
0.0
 10
133.040655121678
 20
-233.2701074541881
 30
0.0
 10
132.9336689152041
 20
-233.7736795432249
 30
0.0
 10
132.8801000259143
 20
-234.0258223042043
 30
0.0
  0
LINE
  5
2AA
330
1F
100
AcDbEntity
  8
0
  6
PHANTOM
 62
     8
370
     0
100
AcDbLine
 10
132.8801000259
 20
-234.0258223042
 30
0.0
 11
97.9555310421
 21
-234.0258223042
 31
0.0
  0
SPLINE
  5
2AB
330
1F
100
AcDbEntity
  8
0
  6
PHANTOM
 62
     8
370
     0
100
AcDbSpline
210
0.0
220
0.0
230
1.0
 70
     8
 71
     3
 72
    11
 73
     7
 74
     0
 42
0.00000001
 43
0.00000001
 40
0.0
 40
0.0
 40
0.0
 40
0.0
 40
0.2371941589275814
 40
0.4978619749471076
 40
0.7485798819786844
 40
1.0
 40
1.0
 40
1.0
 40
1.0
 10
97.42013932961785
 20
-231.4881067961144
 30
0.0
 10
97.45040090375595
 20
-231.6310252998516
 30
0.0
 10
97.5139188551824
 20
-231.9310060786732
 30
0.0
 10
97.64499385500596
 20
-232.5543772239983
 30
0.0
 10
97.79615461125002
 20
-233.2700936959097
 30
0.0
 10
97.90235605961817
 20
-233.7736780235859
 30
0.0
 10
97.9555310420941
 20
-234.0258223042043
 30
0.0
  0
SPLINE
  5
2AC
330
1F
100
AcDbEntity
  8
0
  6
PHANTOM
 62
     8
370
     0
100
AcDbSpline
210
0.0
220
0.0
230
1.0
 70
     8
 71
     3
 72
    11
 73
     7
 74
     0
 42
0.00000001
 43
0.00000001
 40
0.0
 40
0.0
 40
0.0
 40
0.0
 40
0.2371516183831903
 40
0.4978002014464013
 40
0.7485397230460122
 40
1.0
 40
1.0
 40
1.0
 40
1.0
 10
95.41781553400419
 20
-233.4824846758409
 30
0.0
 10
95.5607444547234
 20
-233.513197200192
 30
0.0
 10
95.86076368297746
 20
-233.5776652435187
 30
0.0
 10
96.48414000835781
 20
-233.7106882184224
 30
0.0
 10
97.19983005206356
 20
-233.8640863591907
 30
0.0
 10
97.70338980969629
 20
-233.9718587643431
 30
0.0
 10
97.9555310420941
 20
-234.0258223042043
 30
0.0
  0
LINE
  5
2AD
330
1F
100
AcDbEntity
  8
0
  6
PHANTOM
 62
     8
370
     0
100
AcDbLine
 10
97.9555310421
 20
-234.0258223042
 30
0.0
 11
97.9555310421
 21
-288.950391288
 31
0.0
  0
SPLINE
  5
2AE
330
1F
100
AcDbEntity
  8
0
  6
PHANTOM
 62
     8
370
     0
100
AcDbSpline
210
0.0
220
0.0
230
1.0
 70
     8
 71
     3
 72
    11
 73
     7
 74
     0
 42
0.00000001
 43
0.00000001
 40
0.0
 40
0.0
 40
0.0
 40
0.0
 40
0.2371429336589617
 40
0.4977971043283291
 40
0.7485377110304039
 40
1.0
 40
1.0
 40
1.0
 40
1.0
 10
95.41781553400425
 20
-289.4941234662075
 30
0.0
 10
95.56074059575165
 20
-289.463389072383
 30
0.0
 10
95.8607608441986
 20
-289.3988731620285
 30
0.0
 10
96.48413661466348
 20
-289.265755265337
 30
0.0
 10
97.19983142129519
 20
-289.1122443052647
 30
0.0
 10
97.70338995837147
 20
-289.0043939552847
 30
0.0
 10
97.95553104209415
 20
-288.9503912880245
 30
0.0
  0
LINE
  5
2AF
330
1F
100
AcDbEntity
  8
0
  6
PHANTOM
 62
     8
370
     0
100
AcDbLine
 10
132.8801000259
 20
-288.950391288
 30
0.0
 11
132.8801000259
 21
-234.0258223042
 31
0.0
  0
SPLINE
  5
2B0
330
1F
100
AcDbEntity
  8
0
  6
PHANTOM
 62
     8
370
     0
100
AcDbSpline
210
0.0
220
0.0
230
1.0
 70
     8
 71
     3
 72
    11
 73
     7
 74
     0
 42
0.00000001
 43
0.00000001
 40
0.0
 40
0.0
 40
0.0
 40
0.0
 40
0.2514381262281243
 40
0.50216572616195
 40
0.7628277148386658
 40
1.0
 40
1.0
 40
1.0
 40
1.0
 10
132.8801000259143
 20
-234.0258223042043
 30
0.0
 10
133.1322429411378
 20
-233.9722925091677
 30
0.0
 10
133.635816253663
 20
-233.865384186237
 30
0.0
 10
134.3515234754571
 20
-233.7132159279596
 30
0.0
 10
134.9748966004202
 20
-233.5812651908477
 30
0.0
 10
135.2748942303327
 20
-233.5173194843824
 30
0.0
 10
135.4178155340043
 20
-233.4868552312651
 30
0.0
  0
SPLINE
  5
2B1
330
1F
100
AcDbEntity
  8
0
  6
PHANTOM
 62
     8
370
     0
100
AcDbSpline
210
0.0
220
0.0
230
1.0
 70
     8
 71
     3
 72
    11
 73
     7
 74
     0
 42
0.00000001
 43
0.00000001
 40
0.0
 40
0.0
 40
0.0
 40
0.0
 40
0.2514401112120421
 40
0.5021687776352131
 40
0.7628238824258258
 40
1.0
 40
1.0
 40
1.0
 40
1.0
 10
132.8801000259143
 20
-288.9503912880245
 30
0.0
 10
133.1322427868938
 20
-289.0039601773145
 30
0.0
 10
133.6358148759304
 20
-289.1109463837888
 30
0.0
 10
134.3515152772659
 20
-289.2632239416697
 30
0.0
 10
134.9748893983988
 20
-289.3952728154758
 30
0.0
 10
135.2748897487683
 20
-289.4592649815347
 30
0.0
 10
135.4178155340043
 20
-289.4897520478721
 30
0.0
  0
LINE
  5
2B2
330
1F
100
AcDbEntity
  8
0
  6
PHANTOM
 62
     8
370
     0
100
AcDbLine
 10
97.9555310421
 20
-288.950391288
 30
0.0
 11
132.8801000259
 21
-288.950391288
 31
0.0
  0
SPLINE
  5
2B3
330
1F
100
AcDbEntity
  8
0
  6
PHANTOM
 62
     8
370
     0
100
AcDbSpline
210
0.0
220
0.0
230
1.0
 70
     8
 71
     3
 72
    11
 73
     7
 74
     0
 42
0.00000001
 43
0.00000001
 40
0.0
 40
0.0
 40
0.0
 40
0.0
 40
0.2514401155114678
 40
0.5021687862219028
 40
0.7628301310728135
 40
1.0
 40
1.0
 40
1.0
 40
1.0
 10
132.8801000259143
 20
-288.9503912880245
 30
0.0
 10
132.9336688894209
 20
-289.2025340524401
 30
0.0
 10
133.0406550444012
 20
-289.7061061483392
 30
0.0
 10
133.1929342375059
 20
-290.4218123480385
 30
0.0
 10
133.3249814034381
 20
-291.0451856912856
 30
0.0
 10
133.3889742147224
 20
-291.345185183005
 30
0.0
 10
133.4194607857621
 20
-291.4881067961144
 30
0.0
  0
SPLINE
  5
2B4
330
1F
100
AcDbEntity
  8
0
  6
PHANTOM
 62
     8
370
     0
100
AcDbSpline
210
0.0
220
0.0
230
1.0
 70
     8
 71
     3
 72
    11
 73
     7
 74
     0
 42
0.00000001
 43
0.00000001
 40
0.0
 40
0.0
 40
0.0
 40
0.0
 40
0.2514201137491471
 40
0.5021380165204841
 40
0.7627995894819274
 40
0.9999999999999999
 40
0.9999999999999999
 40
0.9999999999999999
 40
0.9999999999999999
 10
97.95553104209415
 20
-288.9503912880245
 30
0.0
 10
97.90235603401143
 20
-289.2025355652518
 30
0.0
 10
97.79615453450153
 20
-289.7061198861552
 30
0.0
 10
97.6449954023278
 20
-290.4218305559151
 30
0.0
 10
97.51391870597791
 20
-291.0452024827387
 30
0.0
 10
97.45040139546751
 20
-291.3451841193308
 30
0.0
 10
97.42013932961785
 20
-291.4881067961144
 30
0.0
  0
LINE
  5
2B5
330
1F
100
AcDbEntity
  8
0
  6
PHANTOM
 62
     8
370
     0
100
AcDbLine
 10
238.8301458393
 20
718.6123034825
 30
0.0
 11
226.1756530534
 21
722.6877888133
 31
0.0
  0
LINE
  5
2B6
330
1F
100
AcDbEntity
  8
0
  6
PHANTOM
 62
     8
370
     0
100
AcDbLine
 10
238.8330759902
 20
710.7118932038
 30
0.0
 11
238.8301458393
 21
718.6123034825
 31
0.0
  0
LINE
  5
2B7
330
1F
100
AcDbEntity
  8
0
  6
PHANTOM
 62
     8
370
     0
100
AcDbLine
 10
238.8330759902
 20
710.7118932038
 30
0.0
 11
238.8301458393
 21
702.8114829252
 31
0.0
  0
LINE
  5
2B8
330
1F
100
AcDbEntity
  8
0
  6
PHANTOM
 62
     8
370
     0
100
AcDbLine
 10
226.1756530534
 20
698.7359975944
 30
0.0
 11
238.8301458393
 21
702.8114829252
 31
0.0
  0
SPLINE
  5
2B9
330
1F
100
AcDbEntity
  8
0
  6
PHANTOM
 62
     8
370
     0
100
AcDbSpline
210
0.0
220
0.0
230
1.0
 70
     8
 71
     3
 72
    17
 73
    13
 74
     0
 42
0.00000001
 43
0.00000001
 40
0.0
 40
0.0
 40
0.0
 40
0.0
 40
0.0860533745774981
 40
0.1698014779742594
 40
0.2512443419265237
 40
0.3303819993839562
 40
0.4072144850195756
 40
0.481741835829205
 40
0.563813713972818
 40
0.7153978513228187
 40
0.8607931845118371
 40
1.0
 40
1.0
 40
1.0
 40
1.0
 10
92.62164192989836
 20
696.4923988469493
 30
0.0
 10
96.39391531508923
 20
696.4860538356464
 30
0.0
 10
103.8374072091988
 20
696.4735337886137
 30
0.0
 10
114.9248663202621
 20
696.5010669080673
 30
0.0
 10
125.7482212425842
 20
696.5598526514189
 30
0.0
 10
136.3023900919395
 20
696.6504626016226
 30
0.0
 10
146.5763032638265
 20
696.7694583348883
 30
0.0
 10
157.0018459425419
 20
696.921011830861
 30
0.0
 10
170.7861299234897
 20
697.1635180320294
 30
0.0
 10
187.760885788494
 20
697.5413995560849
 30
0.0
 10
207.2848562567614
 20
698.0812082942977
 30
0.0
 10
219.970669472446
 20
698.5209216026483
 30
0.0
 10
226.1756530533542
 20
698.7359975944064
 30
0.0
  0
SPLINE
  5
2BA
330
1F
100
AcDbEntity
  8
0
  6
PHANTOM
 62
     8
370
     0
100
AcDbSpline
210
0.0
220
0.0
230
1.0
 70
     8
 71
     3
 72
    15
 73
    11
 74
     0
 42
0.00000001
 43
0.00000001
 40
0.0
 40
0.0
 40
0.0
 40
0.0
 40
0.1256430736197538
 40
0.2501857172867872
 40
0.3753311367796829
 40
0.5002536385638785
 40
0.625010108315633
 40
0.750238764142956
 40
0.8747958969910343
 40
1.0
 40
1.0
 40
1.0
 40
1.0
 10
92.62164192989836
 20
696.4923988469493
 30
0.0
 10
91.70712179294016
 20
696.5474538343532
 30
0.0
 10
89.88609123513514
 20
696.6570816165855
 30
0.0
 10
87.25320070457198
 20
697.5030588037018
 30
0.0
 10
84.82616972871648
 20
698.8144435087632
 30
0.0
 10
82.6954895448927
 20
700.5951522303175
 30
0.0
 10
80.94236765216533
 20
702.7629662451435
 30
0.0
 10
79.65077116766084
 20
705.2352727249821
 30
0.0
 10
78.81887395923425
 20
707.9201167281311
 30
0.0
 10
78.71469649211005
 20
709.779695389244
 30
0.0
 10
78.66247283025851
 20
710.7118932038502
 30
0.0
  0
SPLINE
  5
2BB
330
1F
100
AcDbEntity
  8
0
  6
PHANTOM
 62
     8
370
     0
100
AcDbSpline
210
0.0
220
0.0
230
1.0
 70
     8
 71
     3
 72
    15
 73
    11
 74
     0
 42
0.00000001
 43
0.00000001
 40
0.0
 40
0.0
 40
0.0
 40
0.0
 40
0.1249314215166566
 40
0.2501935180933719
 40
0.3747940864740824
 40
0.500160595427986
 40
0.6247809158599898
 40
0.7500622501116282
 40
0.8750639113999604
 40
1.0
 40
1.0
 40
1.0
 40
1.0
 10
92.62164192990313
 20
724.9313875607518
 30
0.0
 10
91.71233060148354
 20
724.8769099861493
 30
0.0
 10
89.89130113157434
 20
724.767810642833
 30
0.0
 10
87.26149045565946
 20
723.9243953231097
 30
0.0
 10
84.83011950098474
 20
722.6119312866964
 30
0.0
 10
82.69978185430566
 20
720.8333222212569
 30
0.0
 10
80.94448565871227
 20
718.6639175163504
 30
0.0
 10
79.65084568702264
 20
716.1896460589963
 30
0.0
 10
78.81855184154007
 20
713.5029551361965
 30
0.0
 10
78.71449006693926
 20
711.6420844443857
 30
0.0
 10
78.66247283025851
 20
710.7118932038502
 30
0.0
  0
SPLINE
  5
2BC
330
1F
100
AcDbEntity
  8
0
  6
PHANTOM
 62
     8
370
     0
100
AcDbSpline
210
0.0
220
0.0
230
1.0
 70
     8
 71
     3
 72
    18
 73
    14
 74
     0
 42
0.00000001
 43
0.00000001
 40
0.0
 40
0.0
 40
0.0
 40
0.0
 40
0.0751664513327212
 40
0.1521745310509214
 40
0.2310242970706849
 40
0.3117158110178314
 40
0.3942491386195679
 40
0.478624349958204
 40
0.5552518124430169
 40
0.6599014285991691
 40
0.768909289707371
 40
0.882275460751614
 40
1.0
 40
1.0
 40
1.0
 40
1.0
 10
226.1756530533576
 20
722.6877888132942
 30
0.0
 10
222.82749575059
 20
722.8062775966032
 30
0.0
 10
216.0491490493725
 20
723.0461582177467
 30
0.0
 10
205.7302602451245
 20
723.3725004173336
 30
0.0
 10
195.1509549488383
 20
723.677151048958
 30
0.0
 10
184.3146015570016
 20
723.9548813904272
 30
0.0
 10
173.2287635272744
 20
724.2038931097195
 30
0.0
 10
162.3301424856743
 20
724.413189000565
 30
0.0
 10
150.4560773103429
 20
724.6037216537883
 30
0.0
 10
137.5064240294049
 20
724.7657975395426
 30
0.0
 10
122.9719920710682
 20
724.8864917584065
 30
0.0
 10
107.9227490486252
 20
724.9517453397825
 30
0.0
 10
97.78573893515741
 20
724.938258275721
 30
0.0
 10
92.62164192990313
 20
724.9313875607518
 30
0.0
  0
SPLINE
  5
2BD
330
1F
100
AcDbEntity
  8
0
  6
PHANTOM
 62
     8
370
     0
100
AcDbSpline
210
0.0
220
0.0
230
1.0
 70
     8
 71
     3
 72
    11
 73
     7
 74
     0
 42
0.00000001
 43
0.00000001
 40
0.0
 40
0.0
 40
0.0
 40
0.0
 40
0.2409718574848748
 40
0.4999999999999942
 40
0.7590281425151068
 40
1.0
 40
1.0
 40
1.0
 40
1.0
 10
226.1756530533576
 20
722.6877888132942
 30
0.0
 10
226.1861140497127
 20
723.285618818813
 30
0.0
 10
226.2078198963294
 20
724.526074886502
 30
0.0
 10
226.1414214059535
 20
726.0878744825533
 30
0.0
 10
226.0094318028036
 20
727.1581908348918
 30
0.0
 10
225.8838938215861
 20
727.2953286166131
 30
0.0
 10
225.8233915805484
 20
727.3614213085984
 30
0.0
  0
SPLINE
  5
2BE
330
1F
100
AcDbEntity
  8
0
  6
PHANTOM
 62
     8
370
     0
100
AcDbSpline
210
0.0
220
0.0
230
1.0
 70
     8
 71
     3
 72
    11
 73
     7
 74
     0
 42
0.00000001
 43
0.00000001
 40
0.0
 40
0.0
 40
0.0
 40
0.0
 40
0.2796494430124983
 40
0.559294946216956
 40
0.7796459486664107
 40
1.0
 40
1.0
 40
1.0
 40
1.0
 10
92.62164192990224
 20
724.9313875607515
 30
0.0
 10
92.6498609658155
 20
725.6274175866612
 30
0.0
 10
92.70629864008146
 20
727.0194678325438
 30
0.0
 10
92.99161239777327
 20
728.524768957881
 30
0.0
 10
93.33209793230735
 20
729.405897302796
 30
0.0
 10
93.56737799911564
 20
729.4941371240836
 30
0.0
 10
93.6850188463766
 20
729.5382573399575
 30
0.0
  0
SPLINE
  5
2BF
330
1F
100
AcDbEntity
  8
0
  6
PHANTOM
 62
     8
370
     0
100
AcDbSpline
210
0.0
220
0.0
230
1.0
 70
     8
 71
     3
 72
    11
 73
     7
 74
     0
 42
0.00000001
 43
0.00000001
 40
0.0
 40
0.0
 40
0.0
 40
0.0
 40
0.2796494430125115
 40
0.5592949462169534
 40
0.779645948666416
 40
1.0
 40
1.0
 40
1.0
 40
1.0
 10
93.68501884637148
 20
691.8855290677429
 30
0.0
 10
93.53532071192683
 20
691.9602899275724
 30
0.0
 10
93.23592655204193
 20
692.1098105939715
 30
0.0
 10
92.89361060837587
 20
693.3235907830061
 30
0.0
 10
92.6788768878497
 20
694.8478398422321
 30
0.0
 10
92.64072033720706
 20
695.9442099837418
 30
0.0
 10
92.62164192989847
 20
696.4923988469491
 30
0.0
  0
SPLINE
  5
2C0
330
1F
100
AcDbEntity
  8
0
  6
PHANTOM
 62
     8
370
     0
100
AcDbSpline
210
0.0
220
0.0
230
1.0
 70
     8
 71
     3
 72
    11
 73
     7
 74
     0
 42
0.00000001
 43
0.00000001
 40
0.0
 40
0.0
 40
0.0
 40
0.0
 40
0.2409718574848784
 40
0.4999999999999915
 40
0.7590281425151044
 40
0.9999999999999999
 40
0.9999999999999999
 40
0.9999999999999999
 40
0.9999999999999999
 10
225.8233915805463
 20
694.0623650991027
 30
0.0
 10
225.883893821584
 20
694.1284577910881
 30
0.0
 10
226.0094318028014
 20
694.2655955728093
 30
0.0
 10
226.1414214059511
 20
695.3359119251471
 30
0.0
 10
226.2078198963266
 20
696.8977115211989
 30
0.0
 10
226.1861140497095
 20
698.1381675888879
 30
0.0
 10
226.1756530533542
 20
698.7359975944066
 30
0.0
  0
SPLINE
  5
2C1
330
1F
100
AcDbEntity
  8
0
  6
PHANTOM
 62
     8
370
     0
100
AcDbSpline
210
0.0
220
0.0
230
1.0
 70
     8
 71
     3
 72
    11
 73
     7
 74
     0
 42
0.00000001
 43
0.00000001
 40
0.0
 40
0.0
 40
0.0
 40
0.0
 40
0.2412814690434152
 40
0.4999999999999977
 40
0.7587185309565867
 40
1.0
 40
1.0
 40
1.0
 40
1.0
 10
226.1756530533542
 20
698.7359975944064
 30
0.0
 10
226.3434223149081
 20
698.174685850807
 30
0.0
 10
226.6910852792852
 20
697.0114971777917
 30
0.0
 10
227.055475632092
 20
695.5416053119833
 30
0.0
 10
227.240370318038
 20
694.51920629526
 30
0.0
 10
227.1827315128352
 20
694.3664578561599
 30
0.0
 10
227.1549171616487
 20
694.2927471205992
 30
0.0
  0
SPLINE
  5
2C2
330
1F
100
AcDbEntity
  8
0
  6
PHANTOM
 62
     8
370
     0
100
AcDbSpline
210
0.0
220
0.0
230
1.0
 70
     8
 71
     3
 72
    11
 73
     7
 74
     0
 42
0.00000001
 43
0.00000001
 40
0.0
 40
0.0
 40
0.0
 40
0.0
 40
0.2412814690434205
 40
0.5000000000000118
 40
0.7587185309566096
 40
1.0
 40
1.0
 40
1.0
 40
1.0
 10
227.1549171616523
 20
727.1310392871017
 30
0.0
 10
227.1827315128386
 20
727.057328551541
 30
0.0
 10
227.2403703180413
 20
726.9045801124402
 30
0.0
 10
227.0554756320951
 20
725.8821810957182
 30
0.0
 10
226.6910852792883
 20
724.4122892299075
 30
0.0
 10
226.3434223149113
 20
723.2491005568932
 30
0.0
 10
226.1756530533576
 20
722.6877888132942
 30
0.0
  0
SPLINE
  5
2C3
330
1F
100
AcDbEntity
  8
0
  6
PHANTOM
 62
     8
370
     0
100
AcDbSpline
210
0.0
220
0.0
230
1.0
 70
     8
 71
     3
 72
    11
 73
     7
 74
     0
 42
0.00000001
 43
0.00000001
 40
0.0
 40
0.0
 40
0.0
 40
0.0
 40
0.2409247020683565
 40
0.4999999999999928
 40
0.7590752979316252
 40
1.0
 40
1.0
 40
1.0
 40
1.0
 10
238.830145839255
 20
702.8114829251905
 30
0.0
 10
238.9983405816825
 20
702.2377729519252
 30
0.0
 10
239.3474013898593
 20
701.0471312943044
 30
0.0
 10
239.6805673737269
 20
699.532217643256
 30
0.0
 10
239.8103591190639
 20
698.4810066901156
 30
0.0
 10
239.7032753414384
 20
698.3303958476203
 30
0.0
 10
239.6516770869968
 20
698.2578241029071
 30
0.0
  0
SPLINE
  5
2C4
330
1F
100
AcDbEntity
  8
0
  6
PHANTOM
 62
     8
370
     0
100
AcDbSpline
210
0.0
220
0.0
230
1.0
 70
     8
 71
     3
 72
    11
 73
     7
 74
     0
 42
0.00000001
 43
0.00000001
 40
0.0
 40
0.0
 40
0.0
 40
0.0
 40
0.2411401958829557
 40
0.4999999999999927
 40
0.7588598041170598
 40
1.0
 40
1.0
 40
1.0
 40
1.0
 10
238.830145839255
 20
718.6123034825099
 30
0.0
 10
238.9966270213878
 20
719.1798675077309
 30
0.0
 10
239.3418228555441
 20
720.3567016376498
 30
0.0
 10
239.6742004933862
 20
721.8594424320225
 30
0.0
 10
239.8091383034991
 20
722.9142899162852
 30
0.0
 10
239.7096992832913
 20
723.0824674899158
 30
0.0
 10
239.6617417936687
 20
723.1635762360128
 30
0.0
  0
SPLINE
  5
2C5
330
1F
100
AcDbEntity
  8
0
  6
PHANTOM
 62
     8
370
     0
100
AcDbSpline
210
0.0
220
0.0
230
1.0
 70
     8
 71
     3
 72
    12
 73
     8
 74
     0
 42
0.00000001
 43
0.00000001
 40
0.0
 40
0.0
 40
0.0
 40
0.0
 40
0.1539443181739216
 40
0.2888223361904321
 40
0.5006770088580589
 40
0.758057084478143
 40
1.0
 40
1.0
 40
1.0
 40
1.0
 10
243.1483756639983
 20
718.4018724181401
 30
0.0
 10
243.1250252855607
 20
718.4175710508601
 30
0.0
 10
243.081216518006
 20
718.4470240104174
 30
0.0
 10
242.6950643777135
 20
718.4954001733564
 30
0.0
 10
241.9180544359509
 20
718.5490180258435
 30
0.0
 10
240.5616043733513
 20
718.5951025048029
 30
0.0
 10
239.3952792442565
 20
718.6066892290296
 30
0.0
 10
238.8301458392551
 20
718.6123034825101
 30
0.0
  0
SPLINE
  5
2C6
330
1F
100
AcDbEntity
  8
0
  6
PHANTOM
 62
     8
370
     0
100
AcDbSpline
210
0.0
220
0.0
230
1.0
 70
     8
 71
     3
 72
    12
 73
     8
 74
     0
 42
0.00000001
 43
0.00000001
 40
0.0
 40
0.0
 40
0.0
 40
0.0
 40
0.2417569558116116
 40
0.4993003709493395
 40
0.7091660897291485
 40
0.8445511759943403
 40
1.0
 40
1.0
 40
1.0
 40
1.0
 10
238.830145839255
 20
702.8114829251905
 30
0.0
 10
239.4016366344279
 20
702.8171971009051
 30
0.0
 10
240.5819359357076
 20
702.8289985816298
 30
0.0
 10
241.9448212900278
 20
702.8758905995111
 30
0.0
 10
242.7180244901469
 20
702.930451216505
 30
0.0
 10
243.0964419820411
 20
702.979584202264
 30
0.0
 10
243.1297908226731
 20
703.0096256308694
 30
0.0
 10
243.1476155600065
 20
703.0256825780931
 30
0.0
  0
SPLINE
  5
2C7
330
1F
100
AcDbEntity
  8
0
  6
PHANTOM
 62
     8
370
     0
100
AcDbSpline
210
0.0
220
0.0
230
1.0
 70
     8
 71
     3
 72
     9
 73
     5
 74
     0
 42
0.00000001
 43
0.00000001
 40
0.0
 40
0.0
 40
0.0
 40
0.0
 40
0.4981409362270802
 40
1.0
 40
1.0
 40
1.0
 40
1.0
 10
75.74303052658354
 20
699.0915929842857
 30
0.0
 10
76.08996752808983
 20
699.1647707688545
 30
0.0
 10
76.78643107138727
 20
699.3116725375049
 30
0.0
 10
77.75686030680457
 20
699.3467732596545
 30
0.0
 10
78.24387901434903
 20
699.3643888752109
 30
0.0
  0
SPLINE
  5
2C8
330
1F
100
AcDbEntity
  8
0
  6
PHANTOM
 62
     8
370
     0
100
AcDbSpline
210
0.0
220
0.0
230
1.0
 70
     8
 71
     3
 72
     9
 73
     5
 74
     0
 42
0.00000001
 43
0.00000001
 40
0.0
 40
0.0
 40
0.0
 40
0.0
 40
0.4930675421780005
 40
1.0
 40
1.0
 40
1.0
 40
1.0
 10
75.56021802975704
 20
698.184517584702
 30
0.0
 10
75.56903803870763
 20
698.4223903206426
 30
0.0
 10
75.58692607269101
 20
698.9048247045605
 30
0.0
 10
75.690516949032
 20
699.0287640880116
 30
0.0
 10
75.74303052658348
 20
699.0915929842855
 30
0.0
  0
SPLINE
  5
2C9
330
1F
100
AcDbEntity
  8
0
  6
PHANTOM
 62
     8
370
     0
100
AcDbSpline
210
0.0
220
0.0
230
1.0
 70
     8
 71
     3
 72
     9
 73
     5
 74
     0
 42
0.00000001
 43
0.00000001
 40
0.0
 40
0.0
 40
0.0
 40
0.0
 40
0.4988223809751219
 40
1.0
 40
1.0
 40
1.0
 40
1.0
 10
74.15670442288746
 20
710.7118932038502
 30
0.0
 10
74.222392502789
 20
708.6097346349097
 30
0.0
 10
74.35407881520561
 20
704.3954919523115
 30
0.0
 10
75.15754168281418
 20
700.2580882358282
 30
0.0
 10
75.56021928977718
 20
698.1845140922561
 30
0.0
  0
SPLINE
  5
2CA
330
1F
100
AcDbEntity
  8
0
  6
PHANTOM
 62
     8
370
     0
100
AcDbSpline
210
0.0
220
0.0
230
1.0
 70
     8
 71
     3
 72
     9
 73
     5
 74
     0
 42
0.00000001
 43
0.00000001
 40
0.0
 40
0.0
 40
0.0
 40
0.0
 40
0.5014029062524855
 40
1.0
 40
1.0
 40
1.0
 40
1.0
 10
75.5602192897754
 20
723.2392723154369
 30
0.0
 10
75.1573808254929
 20
721.1647596335213
 30
0.0
 10
74.35395815031653
 20
717.0273430847806
 30
0.0
 10
74.22233255978789
 20
712.8131017071088
 30
0.0
 10
74.15670442288746
 20
710.7118932038507
 30
0.0
  0
SPLINE
  5
2CB
330
1F
100
AcDbEntity
  8
0
  6
PHANTOM
 62
     8
370
     0
100
AcDbSpline
210
0.0
220
0.0
230
1.0
 70
     8
 71
     3
 72
     9
 73
     5
 74
     0
 42
0.00000001
 43
0.00000001
 40
0.0
 40
0.0
 40
0.0
 40
0.0
 40
0.5069324322845403
 40
1.0
 40
1.0
 40
1.0
 40
1.0
 10
75.74303135522237
 20
722.3321964432922
 30
0.0
 10
75.69051781163039
 20
722.3950254326444
 30
0.0
 10
75.58692699706087
 20
722.5189650059497
 30
0.0
 10
75.56903906062473
 20
723.0013995368182
 30
0.0
 10
75.56021909931476
 20
723.2392723575355
 30
0.0
  0
SPLINE
  5
2CC
330
1F
100
AcDbEntity
  8
0
  6
PHANTOM
 62
     8
370
     0
100
AcDbSpline
210
0.0
220
0.0
230
1.0
 70
     8
 71
     3
 72
     9
 73
     5
 74
     0
 42
0.00000001
 43
0.00000001
 40
0.0
 40
0.0
 40
0.0
 40
0.0
 40
0.501859108978588
 40
1.0
 40
1.0
 40
1.0
 40
1.0
 10
78.24387901472495
 20
722.0593975325872
 30
0.0
 10
77.7568602664695
 20
722.0770131503361
 30
0.0
 10
76.7864310373445
 20
722.112113873694
 30
0.0
 10
76.08996749575519
 20
722.2590156444421
 30
0.0
 10
75.74303052658394
 20
722.3321934234149
 30
0.0
  0
LINE
  5
2CD
330
1F
100
AcDbEntity
  8
0
  6
PHANTOM
 62
     8
370
     0
100
AcDbLine
 10
81.7859547063
 20
728.5679663494
 30
0.0
 11
82.2903549523
 21
726.1151570681
 31
0.0
  0
SPLINE
  5
2CE
330
1F
100
AcDbEntity
  8
0
  6
PHANTOM
 62
     8
370
     0
100
AcDbSpline
210
0.0
220
0.0
230
1.0
 70
     8
 71
     3
 72
    11
 73
     7
 74
     0
 42
0.00000001
 43
0.00000001
 40
0.0
 40
0.0
 40
0.0
 40
0.0
 40
0.0542896976572614
 40
0.3683194134078798
 40
0.6823279415375388
 40
1.0
 40
1.0
 40
1.0
 40
1.0
 10
100.6351877983464
 20
729.5358957175428
 30
0.0
 10
100.2983123834587
 20
729.6051280053736
 30
0.0
 10
98.0128372278165
 20
730.0748229335658
 30
0.0
 10
93.65975311470277
 20
730.2311307159971
 30
0.0
 10
87.65994728331793
 20
729.8964948529471
 30
0.0
 10
83.75151085800393
 20
729.0125075012254
 30
0.0
 10
81.78595885125705
 20
728.56795041393
 30
0.0
  0
SPLINE
  5
2CF
330
1F
100
AcDbEntity
  8
0
  6
PHANTOM
 62
     8
370
     0
100
AcDbSpline
210
0.0
220
0.0
230
1.0
 70
     8
 71
     3
 72
    11
 73
     7
 74
     0
 42
0.00000001
 43
0.00000001
 40
0.0
 40
0.0
 40
0.0
 40
0.0
 40
0.3179045934260313
 40
0.6319133889103302
 40
0.9459009981851626
 40
1.0
 40
1.0
 40
1.0
 40
1.0
 10
81.78595826329472
 20
692.8558337355738
 30
0.0
 10
83.75309750546323
 20
692.4109687460655
 30
0.0
 10
87.66326945856662
 20
691.526690415582
 30
0.0
 10
93.66473959948418
 20
691.1926626618726
 30
0.0
 10
98.01660000882123
 20
691.3494119707685
 30
0.0
 10
100.300768077353
 20
691.8188907981188
 30
0.0
 10
100.6364804036424
 20
691.887891775519
 30
0.0
  0
LINE
  5
2D0
330
1F
100
AcDbEntity
  8
0
  6
PHANTOM
 62
     8
370
     0
100
AcDbLine
 10
82.2903549523
 20
695.3086293402
 30
0.0
 11
81.7859547063
 21
692.8558200583
 31
0.0
  0
SPLINE
  5
2D1
330
1F
100
AcDbEntity
  8
0
  6
PHANTOM
 62
     8
370
     0
100
AcDbSpline
210
0.0
220
0.0
230
1.0
 70
     8
 71
     3
 72
     9
 73
     5
 74
     0
 42
0.00000001
 43
0.00000001
 40
0.0
 40
0.0
 40
0.0
 40
0.0
 40
0.499999999999976
 40
1.0
 40
1.0
 40
1.0
 40
1.0
 10
75.74303052658394
 20
722.3321934234149
 30
0.0
 10
75.91788121510967
 20
722.8478096955796
 30
0.0
 10
76.26758259216105
 20
723.8790422399089
 30
0.0
 10
76.94845268139977
 20
724.734853821566
 30
0.0
 10
77.28888772601917
 20
725.1627596123948
 30
0.0
  0
LINE
  5
2D2
330
1F
100
AcDbEntity
  8
0
  6
PHANTOM
 62
     8
370
     0
100
AcDbLine
 10
77.2888877667
 20
725.1627595316
 30
0.0
 11
78.4522337277
 21
722.3466760117
 31
0.0
  0
LINE
  5
2D3
330
1F
100
AcDbEntity
  8
0
  6
PHANTOM
 62
     8
370
     0
100
AcDbLine
 10
77.288887726
 20
696.2610267953
 30
0.0
 11
78.452246024
 21
699.0770934436
 31
0.0
  0
SPLINE
  5
2D4
330
1F
100
AcDbEntity
  8
0
  6
PHANTOM
 62
     8
370
     0
100
AcDbSpline
210
0.0
220
0.0
230
1.0
 70
     8
 71
     3
 72
     9
 73
     5
 74
     0
 42
0.00000001
 43
0.00000001
 40
0.0
 40
0.0
 40
0.0
 40
0.0
 40
0.5000000000000311
 40
1.0
 40
1.0
 40
1.0
 40
1.0
 10
75.74303052658348
 20
699.0915929842855
 30
0.0
 10
75.91825697579941
 20
698.5761757535748
 30
0.0
 10
76.26870987423106
 20
697.5453412921534
 30
0.0
 10
76.9488284420896
 20
696.6891316275882
 30
0.0
 10
77.28888772601883
 20
696.2610267953054
 30
0.0
  0
SPLINE
  5
2D5
330
1F
100
AcDbEntity
  8
0
  6
PHANTOM
 62
     8
370
     0
100
AcDbSpline
210
0.0
220
0.0
230
1.0
 70
     8
 71
     3
 72
     9
 73
     5
 74
     0
 42
0.00000001
 43
0.00000001
 40
0.0
 40
0.0
 40
0.0
 40
0.0
 40
0.5597592586404087
 40
1.0
 40
1.0
 40
1.0
 40
1.0
 10
79.4554347850538
 20
694.1117342098186
 30
0.0
 10
79.85473211731153
 20
693.8072386819914
 30
0.0
 10
80.56806972824715
 20
693.2632628153544
 30
0.0
 10
81.41368181454084
 20
692.9803637517623
 30
0.0
 10
81.78595470631339
 20
692.8558200582765
 30
0.0
  0
LINE
  5
2D6
330
1F
100
AcDbEntity
  8
0
  6
PHANTOM
 62
     8
370
     0
100
AcDbLine
 10
79.4554347851
 20
694.1117342098
 30
0.0
 11
82.0625678159
 21
695.4737723852
 31
0.0
  0
LINE
  5
2D7
330
1F
100
AcDbEntity
  8
0
  6
PHANTOM
 62
     8
370
     0
100
AcDbLine
 10
82.0625678147
 20
725.9500140216
 30
0.0
 11
79.4554347851
 21
727.3120521979
 31
0.0
  0
SPLINE
  5
2D8
330
1F
100
AcDbEntity
  8
0
  6
PHANTOM
 62
     8
370
     0
100
AcDbSpline
210
0.0
220
0.0
230
1.0
 70
     8
 71
     3
 72
     9
 73
     5
 74
     0
 42
0.00000001
 43
0.00000001
 40
0.0
 40
0.0
 40
0.0
 40
0.0
 40
0.5597592586404012
 40
1.0
 40
1.0
 40
1.0
 40
1.0
 10
81.78595470631362
 20
728.5679663494235
 30
0.0
 10
81.31370257738735
 20
728.4027850072589
 30
0.0
 10
80.47003251452256
 20
728.1076914654997
 30
0.0
 10
79.7655685312928
 20
727.5552565532176
 30
0.0
 10
79.45543478505462
 20
727.3120521978816
 30
0.0
  0
LINE
  5
2D9
330
1F
100
AcDbEntity
  8
0
  6
PHANTOM
 62
     8
370
     0
100
AcDbLine
 10
79.4554347851
 20
694.1117342098
 30
0.0
 11
79.4327002569
 21
694.0933454037
 31
0.0
  0
LINE
  5
2DA
330
1F
100
AcDbEntity
  8
0
  6
PHANTOM
 62
     8
370
     0
100
AcDbLine
 10
77.288887726
 20
696.2610267953
 30
0.0
 11
79.4327002569
 21
694.0933454037
 31
0.0
  0
LINE
  5
2DB
330
1F
100
AcDbEntity
  8
0
  6
PHANTOM
 62
     8
370
     0
100
AcDbLine
 10
79.4327002325
 20
727.3304409826
 30
0.0
 11
77.288887726
 21
725.1627596124
 31
0.0
  0
LINE
  5
2DC
330
1F
100
AcDbEntity
  8
0
  6
PHANTOM
 62
     8
370
     0
100
AcDbLine
 10
79.4327002569
 20
727.330441004
 30
0.0
 11
79.4554347851
 21
727.3120521979
 31
0.0
  0
SPLINE
  5
2DD
330
1F
100
AcDbEntity
  8
0
  6
PHANTOM
 62
     8
370
     0
100
AcDbSpline
210
0.0
220
0.0
230
1.0
 70
     8
 71
     3
 72
    11
 73
     7
 74
     0
 42
0.00000001
 43
0.00000001
 40
0.0
 40
0.0
 40
0.0
 40
0.0
 40
0.2497198786961784
 40
0.4998781115659477
 40
0.7499828480208842
 40
1.0
 40
1.0
 40
1.0
 40
1.0
 10
105.0393557358461
 20
688.0566481688068
 30
0.0
 10
103.1655638033366
 20
687.6794078975871
 30
0.0
 10
99.41469071473519
 20
686.9242651537718
 30
0.0
 10
93.67103261093462
 20
686.6214116513779
 30
0.0
 10
87.92505605985956
 20
686.9236352592894
 30
0.0
 10
84.17231650698103
 20
687.6790212949427
 30
0.0
 10
82.29627533216299
 20
688.056648168804
 30
0.0
  0
SPLINE
  5
2DE
330
1F
100
AcDbEntity
  8
0
  6
PHANTOM
 62
     8
370
     0
100
AcDbSpline
210
0.0
220
0.0
230
1.0
 70
     8
 71
     3
 72
    14
 73
    10
 74
     0
 42
0.00000001
 43
0.00000001
 40
0.0
 40
0.0
 40
0.0
 40
0.0
 40
0.2791918478263948
 40
0.5343449254478635
 40
0.7755261414620617
 40
0.8900858992422835
 40
0.9453237118668866
 40
0.9724156924431128
 40
1.0
 40
1.0
 40
1.0
 40
1.0
 10
82.29627533216532
 20
688.0566481396985
 30
0.0
 10
82.04546056348377
 20
688.4280945822999
 30
0.0
 10
81.56542649402299
 20
689.1390054603396
 30
0.0
 10
81.10326605484941
 20
690.2453416179534
 30
0.0
 10
80.80666870870535
 20
691.0658418396508
 30
0.0
 10
80.68838368401055
 20
691.5765712017968
 30
0.0
 10
80.68312604294292
 20
691.8017959389574
 30
0.0
 10
80.70569692073315
 20
691.9189842895913
 30
0.0
 10
80.74093483928074
 20
691.9667116610143
 30
0.0
 10
80.75871244665073
 20
691.9907902248156
 30
0.0
  0
SPLINE
  5
2DF
330
1F
100
AcDbEntity
  8
0
  6
PHANTOM
 62
     8
370
     0
100
AcDbSpline
210
0.0
220
0.0
230
1.0
 70
     8
 71
     3
 72
     9
 73
     5
 74
     0
 42
0.00000001
 43
0.00000001
 40
0.0
 40
0.0
 40
0.0
 40
0.0
 40
0.5037586425555398
 40
0.9999999999999999
 40
0.9999999999999999
 40
0.9999999999999999
 40
0.9999999999999999
 10
80.75871244665078
 20
691.9907902248156
 30
0.0
 10
80.98226000680464
 20
692.2028198024407
 30
0.0
 10
81.42601926226844
 20
692.6237149687239
 30
0.0
 10
81.65478811277488
 20
692.7743639605632
 30
0.0
 10
81.76831267769124
 20
692.8491222207714
 30
0.0
  0
LINE
  5
2E0
330
1F
100
AcDbEntity
  8
0
  6
PHANTOM
 62
     8
370
     0
100
AcDbLine
 10
81.7683126777
 20
692.8491222208
 30
0.0
 11
81.7859547063
 21
692.8558200583
 31
0.0
  0
SPLINE
  5
2E1
330
1F
100
AcDbEntity
  8
0
  6
PHANTOM
 62
     8
370
     0
100
AcDbSpline
210
0.0
220
0.0
230
1.0
 70
     8
 71
     3
 72
    13
 73
     9
 74
     0
 42
0.00000001
 43
0.00000001
 40
0.0
 40
0.0
 40
0.0
 40
0.0
 40
0.027583302447344
 40
0.1096880215260346
 40
0.22420265641265
 40
0.4655087954427596
 40
0.7206545801796815
 40
1.0
 40
1.0
 40
1.0
 40
1.0
 10
106.5769186213465
 20
691.9907902248156
 30
0.0
 10
106.5942558701312
 20
691.9665076530817
 30
0.0
 10
106.6631993377063
 20
691.869945348546
 30
0.0
 10
106.6489722660027
 20
691.606250482448
 30
0.0
 10
106.5330992575695
 20
691.0684357081813
 30
0.0
 10
106.2309403128504
 20
690.2446014074485
 30
0.0
 10
105.7706792936598
 20
689.1393832730762
 30
0.0
 10
105.2903789512697
 20
688.4282916509369
 30
0.0
 10
105.0393557358438
 20
688.0566481402045
 30
0.0
  0
SPLINE
  5
2E2
330
1F
100
AcDbEntity
  8
0
  6
PHANTOM
 62
     8
370
     0
100
AcDbSpline
210
0.0
220
0.0
230
1.0
 70
     8
 71
     3
 72
    11
 73
     7
 74
     0
 42
0.00000001
 43
0.00000001
 40
0.0
 40
0.0
 40
0.0
 40
0.0
 40
0.2497198786961811
 40
0.4998781115659495
 40
0.7499828480208863
 40
1.0
 40
1.0
 40
1.0
 40
1.0
 10
82.29627533215111
 20
733.3671382388936
 30
0.0
 10
84.17006726466047
 20
733.744378510113
 30
0.0
 10
87.92094035326198
 20
734.4995212539291
 30
0.0
 10
93.66459845706265
 20
734.8023747563227
 30
0.0
 10
99.41057500813777
 20
734.5001511484119
 30
0.0
 10
103.1633145610162
 20
733.7447651127579
 30
0.0
 10
105.0393557358341
 20
733.3671382388964
 30
0.0
  0
SPLINE
  5
2E3
330
1F
100
AcDbEntity
  8
0
  6
PHANTOM
 62
     8
370
     0
100
AcDbSpline
210
0.0
220
0.0
230
1.0
 70
     8
 71
     3
 72
    14
 73
    10
 74
     0
 42
0.00000001
 43
0.00000001
 40
0.0
 40
0.0
 40
0.0
 40
0.0
 40
0.2791918478263753
 40
0.5343449254477772
 40
0.7755261414619732
 40
0.8900858992421596
 40
0.9453237118667595
 40
0.9724156924429727
 40
1.0
 40
1.0
 40
1.0
 40
1.0
 10
105.0393557358318
 20
733.3671382680019
 30
0.0
 10
105.2901705045134
 20
732.9956918254005
 30
0.0
 10
105.770204573974
 20
732.2847809473608
 30
0.0
 10
106.2323650131477
 20
731.1784447897461
 30
0.0
 10
106.5289623592917
 20
730.3579445680507
 30
0.0
 10
106.647247383987
 20
729.8472152059036
 30
0.0
 10
106.6525050250539
 20
729.6219904687439
 30
0.0
 10
106.6299341472647
 20
729.5048021181086
 30
0.0
 10
106.594696228715
 20
729.4570747466865
 30
0.0
 10
106.5769186213439
 20
729.432996182886
 30
0.0
  0
LINE
  5
2E4
330
1F
100
AcDbEntity
  8
0
  6
PHANTOM
 62
     8
370
     0
100
AcDbLine
 10
81.7859547063
 20
728.5679663494
 30
0.0
 11
81.7683126777
 21
728.5746641869
 31
0.0
  0
SPLINE
  5
2E5
330
1F
100
AcDbEntity
  8
0
  6
PHANTOM
 62
     8
370
     0
100
AcDbSpline
210
0.0
220
0.0
230
1.0
 70
     8
 71
     3
 72
     9
 73
     5
 74
     0
 42
0.00000001
 43
0.00000001
 40
0.0
 40
0.0
 40
0.0
 40
0.0
 40
0.4930591591325232
 40
0.9999999999999999
 40
0.9999999999999999
 40
0.9999999999999999
 40
0.9999999999999999
 10
81.76831267769124
 20
728.574664186929
 30
0.0
 10
81.65568335186212
 20
728.6487679247126
 30
0.0
 10
81.42725371265358
 20
728.7990617310663
 30
0.0
 10
80.98361236465091
 20
729.219738133634
 30
0.0
 10
80.75871244665089
 20
729.4329961828848
 30
0.0
  0
SPLINE
  5
2E6
330
1F
100
AcDbEntity
  8
0
  6
PHANTOM
 62
     8
370
     0
100
AcDbSpline
210
0.0
220
0.0
230
1.0
 70
     8
 71
     3
 72
    13
 73
     9
 74
     0
 42
0.00000001
 43
0.00000001
 40
0.0
 40
0.0
 40
0.0
 40
0.0
 40
0.0275833024473414
 40
0.1096880215260317
 40
0.2242026564126185
 40
0.4655087954427654
 40
0.7206545801796885
 40
1.0
 40
1.0
 40
1.0
 40
1.0
 10
80.75871244665078
 20
729.4329961828848
 30
0.0
 10
80.74137519786612
 20
729.4572787546186
 30
0.0
 10
80.67243173029092
 20
729.553841059155
 30
0.0
 10
80.6866588019945
 20
729.8175359252522
 30
0.0
 10
80.80253181042774
 20
730.3553506995191
 30
0.0
 10
81.10469075514659
 20
731.1791850002517
 30
0.0
 10
81.56495177433737
 20
732.2844031346235
 30
0.0
 10
82.04525211672753
 20
732.9954947567633
 30
0.0
 10
82.29627533215339
 20
733.3671382674961
 30
0.0
  0
SPLINE
  5
2E7
330
1F
100
AcDbEntity
  8
0
  6
PHANTOM
 62
     8
370
     0
100
AcDbSpline
210
0.0
220
0.0
230
1.0
 70
     8
 71
     3
 72
    10
 73
     6
 74
     0
 42
0.00000001
 43
0.00000001
 40
0.0
 40
0.0
 40
0.0
 40
0.0
 40
0.0909063308143514
 40
0.4470690802098486
 40
1.0
 40
1.0
 40
1.0
 40
1.0
 10
77.28888772601917
 20
725.162759612395
 30
0.0
 10
77.31355209893998
 20
725.2294776573477
 30
0.0
 10
77.43484924532001
 20
725.5575909441036
 30
0.0
 10
78.13799098740814
 20
726.8267915237737
 30
0.0
 10
78.80870293823261
 20
727.9510673791459
 30
0.0
 10
79.2166448131505
 20
728.6348768741187
 30
0.0
  0
SPLINE
  5
2E8
330
1F
100
AcDbEntity
  8
0
  6
PHANTOM
 62
     8
370
     0
100
AcDbSpline
210
0.0
220
0.0
230
1.0
 70
     8
 71
     3
 72
     9
 73
     5
 74
     0
 42
0.00000001
 43
0.00000001
 40
0.0
 40
0.0
 40
0.0
 40
0.0
 40
0.5084977662863843
 40
0.9999999999999999
 40
0.9999999999999999
 40
0.9999999999999999
 40
0.9999999999999999
 10
79.2166416181883
 20
728.6348812147006
 30
0.0
 10
79.27093338917224
 20
728.3275657867699
 30
0.0
 10
79.37770233602603
 20
727.7232063415454
 30
0.0
 10
79.41457651536498
 20
727.459870941367
 30
0.0
 10
79.43270025687643
 20
727.3304410039628
 30
0.0
  0
SPLINE
  5
2E9
330
1F
100
AcDbEntity
  8
0
  6
PHANTOM
 62
     8
370
     0
100
AcDbSpline
210
0.0
220
0.0
230
1.0
 70
     8
 71
     3
 72
    11
 73
     7
 74
     0
 42
0.00000001
 43
0.00000001
 40
0.0
 40
0.0
 40
0.0
 40
0.0
 40
0.5522724207430627
 40
0.8026996540898699
 40
0.9092019317733202
 40
1.0
 40
1.0
 40
1.0
 40
1.0
 10
79.21664481315548
 20
692.7889095335726
 30
0.0
 10
78.7980761177754
 20
693.4875697385173
 30
0.0
 10
78.18970797485348
 20
694.503036533113
 30
0.0
 10
77.60477961282619
 20
695.5727849795849
 30
0.0
 10
77.36312339988716
 20
696.0548159710008
 30
0.0
 10
77.31228409146229
 20
696.1960366961742
 30
0.0
 10
77.28888772601921
 20
696.2610267953054
 30
0.0
  0
SPLINE
  5
2EA
330
1F
100
AcDbEntity
  8
0
  6
PHANTOM
 62
     8
370
     0
100
AcDbSpline
210
0.0
220
0.0
230
1.0
 70
     8
 71
     3
 72
     9
 73
     5
 74
     0
 42
0.00000001
 43
0.00000001
 40
0.0
 40
0.0
 40
0.0
 40
0.0
 40
0.4946879814414475
 40
0.9999999999999999
 40
0.9999999999999999
 40
0.9999999999999999
 40
0.9999999999999999
 10
79.43270025687643
 20
694.0933454037375
 30
0.0
 10
79.41442745030469
 20
693.9628248061341
 30
0.0
 10
79.37748940600758
 20
693.6989805194321
 30
0.0
 10
79.27063595248013
 20
693.0944046473126
 30
0.0
 10
79.2166416181882
 20
692.788905193
 30
0.0
  0
SPLINE
  5
2EB
330
1F
100
AcDbEntity
  8
0
  6
PHANTOM
 62
     8
370
     0
100
AcDbSpline
210
0.0
220
0.0
230
1.0
 70
     8
 71
     3
 72
     9
 73
     5
 74
     0
 42
0.00000001
 43
0.00000001
 40
0.0
 40
0.0
 40
0.0
 40
0.0
 40
0.5010426260494368
 40
1.0
 40
1.0
 40
1.0
 40
1.0
 10
75.59534426911296
 20
723.4066124896193
 30
0.0
 10
75.589274511361
 20
723.3786704647879
 30
0.0
 10
75.57716025713107
 20
723.3229027049631
 30
0.0
 10
75.5658582961075
 20
723.2671103596432
 30
0.0
 10
75.56021909931471
 20
723.2392723575357
 30
0.0
  0
SPLINE
  5
2EC
330
1F
100
AcDbEntity
  8
0
  6
PHANTOM
 62
     8
370
     0
100
AcDbSpline
210
0.0
220
0.0
230
1.0
 70
     8
 71
     3
 72
     9
 73
     5
 74
     0
 42
0.00000001
 43
0.00000001
 40
0.0
 40
0.0
 40
0.0
 40
0.0
 40
0.5087495613788122
 40
1.0
 40
1.0
 40
1.0
 40
1.0
 10
77.60069531381319
 20
728.0461341531898
 30
0.0
 10
77.15633516801357
 20
727.3031684938734
 30
0.0
 10
76.28289923895764
 20
725.8427924744758
 30
0.0
 10
75.82183383317431
 20
724.209144783056
 30
0.0
 10
75.59533525035012
 20
723.406614638093
 30
0.0
  0
LINE
  5
2ED
330
1F
100
AcDbEntity
  8
0
  6
PHANTOM
 62
     8
370
     0
100
AcDbLine
 10
77.9365239695
 20
728.5528631953
 30
0.0
 11
77.6006953138
 21
728.0461341532
 31
0.0
  0
SPLINE
  5
2EE
330
1F
100
AcDbEntity
  8
0
  6
PHANTOM
 62
     8
370
     0
100
AcDbSpline
210
0.0
220
0.0
230
1.0
 70
     8
 71
     3
 72
     9
 73
     5
 74
     0
 42
0.00000001
 43
0.00000001
 40
0.0
 40
0.0
 40
0.0
 40
0.0
 40
0.5846332181907569
 40
1.0
 40
1.0
 40
1.0
 40
1.0
 10
79.21664161818698
 20
728.6348812147004
 30
0.0
 10
78.9417448046138
 20
728.5970683462989
 30
0.0
 10
78.47154091434572
 20
728.5323904128095
 30
0.0
 10
78.09342086758953
 20
728.5469454815621
 30
0.0
 10
77.93636236063084
 20
728.5529911736292
 30
0.0
  0
SPLINE
  5
2EF
330
1F
100
AcDbEntity
  8
0
  6
PHANTOM
 62
     8
370
     0
100
AcDbSpline
210
0.0
220
0.0
230
1.0
 70
     8
 71
     3
 72
     9
 73
     5
 74
     0
 42
0.00000001
 43
0.00000001
 40
0.0
 40
0.0
 40
0.0
 40
0.0
 40
0.4152320671990476
 40
0.9999999999999999
 40
0.9999999999999999
 40
0.9999999999999999
 40
0.9999999999999999
 10
77.93636166687857
 20
692.870794683696
 30
0.0
 10
78.09336720154336
 20
692.8768406586504
 30
0.0
 10
78.47148234983604
 20
692.8914011308102
 30
0.0
 10
78.94168322463157
 20
692.8267254545241
 30
0.0
 10
79.21664161818698
 20
692.7889051930002
 30
0.0
  0
LINE
  5
2F0
330
1F
100
AcDbEntity
  8
0
  6
PHANTOM
 62
     8
370
     0
100
AcDbLine
 10
77.6006953138
 20
693.3776522545
 30
0.0
 11
77.9365239696
 21
692.8709232124
 31
0.0
  0
SPLINE
  5
2F1
330
1F
100
AcDbEntity
  8
0
  6
PHANTOM
 62
     8
370
     0
100
AcDbSpline
210
0.0
220
0.0
230
1.0
 70
     8
 71
     3
 72
     9
 73
     5
 74
     0
 42
0.00000001
 43
0.00000001
 40
0.0
 40
0.0
 40
0.0
 40
0.0
 40
0.4911116185984478
 40
1.0
 40
1.0
 40
1.0
 40
1.0
 10
75.59533525034878
 20
698.0171717696135
 30
0.0
 10
75.82175713023464
 20
697.2148660432928
 30
0.0
 10
76.2827966807384
 20
695.5812135375539
 30
0.0
 10
77.15622022174307
 20
694.1208263345056
 30
0.0
 10
77.60069531380293
 20
693.3776522545267
 30
0.0
  0
SPLINE
  5
2F2
330
1F
100
AcDbEntity
  8
0
  6
PHANTOM
 62
     8
370
     0
100
AcDbSpline
210
0.0
220
0.0
230
1.0
 70
     8
 71
     3
 72
     9
 73
     5
 74
     0
 42
0.00000001
 43
0.00000001
 40
0.0
 40
0.0
 40
0.0
 40
0.0
 40
0.4989573739502187
 40
1.0
 40
1.0
 40
1.0
 40
1.0
 10
75.56021909931476
 20
698.1845140501705
 30
0.0
 10
75.56585829610741
 20
698.156676048063
 30
0.0
 10
75.57716025713057
 20
698.1008837027426
 30
0.0
 10
75.58927451135999
 20
698.0451159429183
 30
0.0
 10
75.59534426911169
 20
698.0171739180865
 30
0.0
  0
SPLINE
  5
2F3
330
1F
100
AcDbEntity
  8
0
  6
PHANTOM
 62
     8
370
     0
100
AcDbSpline
210
0.0
220
0.0
230
1.0
 70
     8
 71
     3
 72
     9
 73
     5
 74
     0
 42
0.00000001
 43
0.00000001
 40
0.0
 40
0.0
 40
0.0
 40
0.0
 40
0.5597604262798227
 40
1.0
 40
1.0
 40
1.0
 40
1.0
 10
81.76831267769124
 20
692.8491222207714
 30
0.0
 10
81.29531495853676
 20
693.0125572274072
 30
0.0
 10
80.45031467457942
 20
693.304530362632
 30
0.0
 10
79.74375554631274
 20
693.8522274649051
 30
0.0
 10
79.43270025687643
 20
694.0933454037375
 30
0.0
  0
SPLINE
  5
2F4
330
1F
100
AcDbEntity
  8
0
  6
PHANTOM
 62
     8
370
     0
100
AcDbSpline
210
0.0
220
0.0
230
1.0
 70
     8
 71
     3
 72
     9
 73
     5
 74
     0
 42
0.00000001
 43
0.00000001
 40
0.0
 40
0.0
 40
0.0
 40
0.0
 40
0.5597604262798695
 40
1.0
 40
1.0
 40
1.0
 40
1.0
 10
79.43270025687643
 20
727.3304410039628
 30
0.0
 10
79.83314908323914
 20
727.6323068457594
 30
0.0
 10
80.54854232570896
 20
728.1715836999715
 30
0.0
 10
81.39546416721322
 20
728.4514541425788
 30
0.0
 10
81.76831267769124
 20
728.574664186929
 30
0.0
  0
SPLINE
  5
2F5
330
1F
100
AcDbEntity
  8
0
  6
PHANTOM
 62
     8
370
     0
100
AcDbSpline
210
0.0
220
0.0
230
1.0
 70
     8
 71
     3
 72
     9
 73
     5
 74
     0
 42
0.00000001
 43
0.00000001
 40
0.0
 40
0.0
 40
0.0
 40
0.0
 40
0.500000000000016
 40
1.0
 40
1.0
 40
1.0
 40
1.0
 10
79.21664161818698
 20
728.6348812147002
 30
0.0
 10
79.46335890102019
 20
728.7895914151067
 30
0.0
 10
79.95679346668649
 20
729.0990118159192
 30
0.0
 10
80.49140611999606
 20
729.3216680605628
 30
0.0
 10
80.75871244665078
 20
729.4329961828848
 30
0.0
  0
SPLINE
  5
2F6
330
1F
100
AcDbEntity
  8
0
  6
PHANTOM
 62
     8
370
     0
100
AcDbSpline
210
0.0
220
0.0
230
1.0
 70
     8
 71
     3
 72
     9
 73
     5
 74
     0
 42
0.00000001
 43
0.00000001
 40
0.0
 40
0.0
 40
0.0
 40
0.0
 40
0.4999999999999987
 40
1.0
 40
1.0
 40
1.0
 40
1.0
 10
80.75871244665073
 20
691.9907902248156
 30
0.0
 10
80.491406119996
 20
692.1021183471375
 30
0.0
 10
79.95679346668649
 20
692.324774591781
 30
0.0
 10
79.46335890102019
 20
692.6341949925935
 30
0.0
 10
79.21664161818698
 20
692.7889051930002
 30
0.0
  0
LINE
  5
2F7
330
1F
100
AcDbEntity
  8
0
  6
PHANTOM
 62
     8
370
     0
100
AcDbLine
 10
73.683559915
 20
735.3012773582
 30
0.0
 11
73.9422751579
 21
735.3012773582
 31
0.0
  0
LINE
  5
2F8
330
1F
100
AcDbEntity
  8
0
  6
PHANTOM
 62
     8
370
     0
100
AcDbLine
 10
73.9422751579
 20
735.3012773582
 30
0.0
 11
73.9564412594
 21
730.0021008851
 31
0.0
  0
LINE
  5
2F9
330
1F
100
AcDbEntity
  8
0
  6
PHANTOM
 62
     8
370
     0
100
AcDbLine
 10
73.9564412594
 20
730.0021008851
 30
0.0
 11
73.9714713772
 21
727.3956405953
 31
0.0
  0
LINE
  5
2FA
330
1F
100
AcDbEntity
  8
0
  6
PHANTOM
 62
     8
370
     0
100
AcDbLine
 10
73.9714713772
 20
727.3956405953
 30
0.0
 11
74.0210153136
 21
722.614701747
 31
0.0
  0
SPLINE
  5
2FB
330
1F
100
AcDbEntity
  8
0
  6
PHANTOM
 62
     8
370
     0
100
AcDbSpline
210
0.0
220
0.0
230
1.0
 70
     8
 71
     3
 72
    10
 73
     6
 74
     0
 42
0.00000001
 43
0.00000001
 40
0.0
 40
0.0
 40
0.0
 40
0.0
 40
0.326299709500546
 40
0.6632089860927926
 40
1.0
 40
1.0
 40
1.0
 40
1.0
 10
74.02101531363498
 20
722.614701746966
 30
0.0
 10
74.03378632483427
 20
721.2966575591536
 30
0.0
 10
74.05974359400214
 20
718.6177132512883
 30
0.0
 10
74.10610371336269
 20
714.659676621989
 30
0.0
 10
74.13983949372782
 20
712.0276670005067
 30
0.0
 10
74.15670442288751
 20
710.71189320386
 30
0.0
  0
SPLINE
  5
2FC
330
1F
100
AcDbEntity
  8
0
  6
PHANTOM
 62
     8
370
     0
100
AcDbSpline
210
0.0
220
0.0
230
1.0
 70
     8
 71
     3
 72
    10
 73
     6
 74
     0
 42
0.00000001
 43
0.00000001
 40
0.0
 40
0.0
 40
0.0
 40
0.0
 40
0.3367347375756426
 40
0.6736830328244574
 40
1.0
 40
1.0
 40
1.0
 40
1.0
 10
74.15670442288751
 20
710.71189320386
 30
0.0
 10
74.1398424286881
 20
709.3963378014723
 30
0.0
 10
74.10610774638732
 20
706.7643926694985
 30
0.0
 10
74.05974602720478
 20
702.8063754466965
 30
0.0
 10
74.03378685359452
 20
700.1272002929443
 30
0.0
 10
74.02101531363492
 20
698.8090846607328
 30
0.0
  0
LINE
  5
2FD
330
1F
100
AcDbEntity
  8
0
  6
PHANTOM
 62
     8
370
     0
100
AcDbLine
 10
74.0210153136
 20
698.8090846607
 30
0.0
 11
73.9714713772
 21
694.0281458125
 31
0.0
  0
LINE
  5
2FE
330
1F
100
AcDbEntity
  8
0
  6
PHANTOM
 62
     8
370
     0
100
AcDbLine
 10
73.9714713772
 20
694.0281458125
 30
0.0
 11
73.9564412594
 21
691.4216855226
 31
0.0
  0
LINE
  5
2FF
330
1F
100
AcDbEntity
  8
0
  6
PHANTOM
 62
     8
370
     0
100
AcDbLine
 10
73.9564412594
 20
691.4216855226
 30
0.0
 11
73.9422751579
 21
686.1225090495
 31
0.0
  0
LINE
  5
300
330
1F
100
AcDbEntity
  8
0
  6
PHANTOM
 62
     8
370
     0
100
AcDbLine
 10
73.9422751579
 20
686.1225090495
 30
0.0
 11
73.683559915
 21
686.1225090495
 31
0.0
  0
LINE
  5
301
330
1F
100
AcDbEntity
  8
0
  6
PHANTOM
 62
     8
370
     0
100
AcDbLine
 10
113.652071153
 20
686.1225090495
 30
0.0
 11
113.3933559101
 21
686.1225090495
 31
0.0
  0
LINE
  5
302
330
1F
100
AcDbEntity
  8
0
  6
PHANTOM
 62
     8
370
     0
100
AcDbLine
 10
113.3933559101
 20
686.1225090495
 30
0.0
 11
113.3791898086
 21
691.4216855226
 31
0.0
  0
LINE
  5
303
330
1F
100
AcDbEntity
  8
0
  6
PHANTOM
 62
     8
370
     0
100
AcDbLine
 10
113.3791898086
 20
691.4216855226
 30
0.0
 11
113.3764764668
 21
691.8922219279
 31
0.0
  0
LINE
  5
304
330
1F
100
AcDbEntity
  8
0
  6
PHANTOM
 62
     8
370
     0
100
AcDbLine
 10
113.3764764774
 20
729.5315663101
 30
0.0
 11
113.3791898086
 21
730.0021008851
 31
0.0
  0
LINE
  5
305
330
1F
100
AcDbEntity
  8
0
  6
PHANTOM
 62
     8
370
     0
100
AcDbLine
 10
113.3791898086
 20
730.0021008851
 30
0.0
 11
113.3933559101
 21
735.3012773582
 31
0.0
  0
LINE
  5
306
330
1F
100
AcDbEntity
  8
0
  6
PHANTOM
 62
     8
370
     0
100
AcDbLine
 10
113.3933559101
 20
735.3012773582
 30
0.0
 11
113.652071153
 21
735.3012773582
 31
0.0
  0
SPLINE
  5
307
330
1F
100
AcDbEntity
  8
0
  6
PHANTOM
 62
     8
370
     0
100
AcDbSpline
210
0.0
220
0.0
230
1.0
 70
     8
 71
     3
 72
     9
 73
     5
 74
     0
 42
0.00000001
 43
0.00000001
 40
0.0
 40
0.0
 40
0.0
 40
0.0
 40
0.5020198222544404
 40
1.0
 40
1.0
 40
1.0
 40
1.0
 10
75.1671991553135
 20
698.1126348310027
 30
0.0
 10
74.87185927645446
 20
700.214532926798
 30
0.0
 10
74.2835560546159
 20
704.4014156007855
 30
0.0
 10
74.19887427203098
 20
708.6140732158959
 30
0.0
 10
74.15670442288746
 20
710.7118932038502
 30
0.0
  0
SPLINE
  5
308
330
1F
100
AcDbEntity
  8
0
  6
PHANTOM
 62
     8
370
     0
100
AcDbSpline
210
0.0
220
0.0
230
1.0
 70
     8
 71
     3
 72
     9
 73
     5
 74
     0
 42
0.00000001
 43
0.00000001
 40
0.0
 40
0.0
 40
0.0
 40
0.0
 40
0.4999024868579277
 40
1.0
 40
1.0
 40
1.0
 40
1.0
 10
75.19907924696578
 20
697.9162010048337
 30
0.0
 10
75.19373910288374
 20
697.9489301235592
 30
0.0
 10
75.18305673137637
 20
698.0144011295771
 30
0.0
 10
75.17248543490862
 20
698.0798859453387
 30
0.0
 10
75.16719875583445
 20
698.1126347388495
 30
0.0
  0
SPLINE
  5
309
330
1F
100
AcDbEntity
  8
0
  6
PHANTOM
 62
     8
370
     0
100
AcDbSpline
210
0.0
220
0.0
230
1.0
 70
     8
 71
     3
 72
     9
 73
     5
 74
     0
 42
0.00000001
 43
0.00000001
 40
0.0
 40
0.0
 40
0.0
 40
0.0
 40
0.5000000057791776
 40
0.9999999999999999
 40
0.9999999999999999
 40
0.9999999999999999
 40
0.9999999999999999
 10
74.02101531363492
 20
698.8090846607328
 30
0.0
 10
74.08674619384159
 20
698.6470441345112
 30
0.0
 10
74.21820795273554
 20
698.3229630858149
 30
0.0
 10
74.87212215140838
 20
698.0517883641161
 30
0.0
 10
75.19907924696578
 20
697.9162010048337
 30
0.0
  0
SPLINE
  5
30A
330
1F
100
AcDbEntity
  8
0
  6
PHANTOM
 62
     8
370
     0
100
AcDbSpline
210
0.0
220
0.0
230
1.0
 70
     8
 71
     3
 72
     9
 73
     5
 74
     0
 42
0.00000001
 43
0.00000001
 40
0.0
 40
0.0
 40
0.0
 40
0.0
 40
0.497754830812866
 40
1.0
 40
1.0
 40
1.0
 40
1.0
 10
74.15670442288751
 20
710.7118932038509
 30
0.0
 10
74.19883263611926
 20
712.8087629917169
 30
0.0
 10
74.2834691089847
 20
717.0214188175609
 30
0.0
 10
74.87174195848617
 20
721.2083071418776
 30
0.0
 10
75.16719915531223
 20
723.3111515766916
 30
0.0
  0
SPLINE
  5
30B
330
1F
100
AcDbEntity
  8
0
  6
PHANTOM
 62
     8
370
     0
100
AcDbSpline
210
0.0
220
0.0
230
1.0
 70
     8
 71
     3
 72
     9
 73
     5
 74
     0
 42
0.00000001
 43
0.00000001
 40
0.0
 40
0.0
 40
0.0
 40
0.0
 40
0.4999999942208164
 40
1.0
 40
1.0
 40
1.0
 40
1.0
 10
75.19907924696645
 20
723.5075854028686
 30
0.0
 10
74.87212215140893
 20
723.3719980435864
 30
0.0
 10
74.21820795273575
 20
723.1008233218876
 30
0.0
 10
74.0867461938417
 20
722.7767422731902
 30
0.0
 10
74.02101531363492
 20
722.6147017469692
 30
0.0
  0
SPLINE
  5
30C
330
1F
100
AcDbEntity
  8
0
  6
PHANTOM
 62
     8
370
     0
100
AcDbSpline
210
0.0
220
0.0
230
1.0
 70
     8
 71
     3
 72
     9
 73
     5
 74
     0
 42
0.00000001
 43
0.00000001
 40
0.0
 40
0.0
 40
0.0
 40
0.0
 40
0.5000975148653889
 40
1.0
 40
1.0
 40
1.0
 40
1.0
 10
75.16719875582345
 20
723.3111516688456
 30
0.0
 10
75.1724854349074
 20
723.3439004624707
 30
0.0
 10
75.1830567313581
 20
723.4093852782352
 30
0.0
 10
75.1937391028904
 20
723.4748562842551
 30
0.0
 10
75.19907924696645
 20
723.5075854028688
 30
0.0
  0
SPLINE
  5
30D
330
1F
100
AcDbEntity
  8
0
  6
PHANTOM
 62
     8
370
     0
100
AcDbSpline
210
0.0
220
0.0
230
1.0
 70
     8
 71
     3
 72
     9
 73
     5
 74
     0
 42
0.00000001
 43
0.00000001
 40
0.0
 40
0.0
 40
0.0
 40
0.0
 40
0.5596745030196795
 40
1.0
 40
1.0
 40
1.0
 40
1.0
 10
75.56021928977718
 20
698.1845140922561
 30
0.0
 10
75.51905148789284
 20
698.1783567663595
 30
0.0
 10
75.44549480152918
 20
698.1673551469122
 30
0.0
 10
75.25227761083231
 20
698.1293635151428
 30
0.0
 10
75.1671991553135
 20
698.1126348310027
 30
0.0
  0
SPLINE
  5
30E
330
1F
100
AcDbEntity
  8
0
  6
PHANTOM
 62
     8
370
     0
100
AcDbSpline
210
0.0
220
0.0
230
1.0
 70
     8
 71
     3
 72
     9
 73
     5
 74
     0
 42
0.00000001
 43
0.00000001
 40
0.0
 40
0.0
 40
0.0
 40
0.0
 40
0.5596745030196506
 40
1.0
 40
1.0
 40
1.0
 40
1.0
 10
75.16719915531223
 20
723.3111515766916
 30
0.0
 10
75.27310052944114
 20
723.2904114925115
 30
0.0
 10
75.46232010896014
 20
723.2533540884874
 30
0.0
 10
75.53029028724318
 20
723.2435772893683
 30
0.0
 10
75.56021928977546
 20
723.2392723154371
 30
0.0
  0
LINE
  5
30F
330
1F
100
AcDbEntity
  8
0
  6
PHANTOM
 62
     8
370
     0
100
AcDbLine
 10
78.7525727903
 20
729.4994838596
 30
0.0
 11
77.9365239695
 21
728.5528631953
 31
0.0
  0
LINE
  5
310
330
1F
100
AcDbEntity
  8
0
  6
PHANTOM
 62
     8
370
     0
100
AcDbLine
 10
79.6285483685
 20
730.4485497469
 30
0.0
 11
78.7525727903
 21
729.4994838596
 31
0.0
  0
SPLINE
  5
311
330
1F
100
AcDbEntity
  8
0
  6
PHANTOM
 62
     8
370
     0
100
AcDbSpline
210
0.0
220
0.0
230
1.0
 70
     8
 71
     3
 72
     9
 73
     5
 74
     0
 42
0.00000001
 43
0.00000001
 40
0.0
 40
0.0
 40
0.0
 40
0.0
 40
0.5062800776096517
 40
1.0
 40
1.0
 40
1.0
 40
1.0
 10
82.29627533215123
 20
733.3671382388936
 30
0.0
 10
81.81184074885728
 20
732.8966106013809
 30
0.0
 10
80.85498977897299
 20
731.9672285096854
 30
0.0
 10
80.03392460329428
 20
730.9505193261351
 30
0.0
 10
79.62854836848076
 20
730.4485497469392
 30
0.0
  0
LINE
  5
312
330
1F
100
AcDbEntity
  8
0
  6
PHANTOM
 62
     8
370
     0
100
AcDbLine
 10
107.7070826995
 20
690.9752366608
 30
0.0
 11
108.5830582777
 21
691.9243025481
 31
0.0
  0
SPLINE
  5
313
330
1F
100
AcDbEntity
  8
0
  6
PHANTOM
 62
     8
370
     0
100
AcDbSpline
210
0.0
220
0.0
230
1.0
 70
     8
 71
     3
 72
     9
 73
     5
 74
     0
 42
0.00000001
 43
0.00000001
 40
0.0
 40
0.0
 40
0.0
 40
0.0
 40
0.5062800776096524
 40
1.0
 40
1.0
 40
1.0
 40
1.0
 10
105.0393557358461
 20
688.0566481688068
 30
0.0
 10
105.52379031914
 20
688.5271758063193
 30
0.0
 10
106.4806412890243
 20
689.456557898015
 30
0.0
 10
107.3017064647032
 20
690.4732670815655
 30
0.0
 10
107.7070826995168
 20
690.9752366607619
 30
0.0
  0
SPLINE
  5
314
330
1F
100
AcDbEntity
  8
0
  6
PHANTOM
 62
     8
370
     0
100
AcDbSpline
210
0.0
220
0.0
230
1.0
 70
     8
 71
     3
 72
     9
 73
     5
 74
     0
 42
0.00000001
 43
0.00000001
 40
0.0
 40
0.0
 40
0.0
 40
0.0
 40
0.4938393578689101
 40
1.0
 40
1.0
 40
1.0
 40
1.0
 10
107.7070826995177
 20
730.4485497469371
 30
0.0
 10
107.3016075908746
 20
730.9506417890365
 30
0.0
 10
106.4805407759636
 20
731.9673530618397
 30
0.0
 10
105.5236806643632
 20
732.8967261565141
 30
0.0
 10
105.039355735846
 20
733.3671382388934
 30
0.0
  0
LINE
  5
315
330
1F
100
AcDbEntity
  8
0
  6
PHANTOM
 62
     8
370
     0
100
AcDbLine
 10
108.5830582777
 20
729.4994838596
 30
0.0
 11
107.7070826995
 21
730.4485497469
 31
0.0
  0
SPLINE
  5
316
330
1F
100
AcDbEntity
  8
0
  6
PHANTOM
 62
     8
370
     0
100
AcDbSpline
210
0.0
220
0.0
230
1.0
 70
     8
 71
     3
 72
     9
 73
     5
 74
     0
 42
0.00000001
 43
0.00000001
 40
0.0
 40
0.0
 40
0.0
 40
0.0
 40
0.4937199223901982
 40
1.0
 40
1.0
 40
1.0
 40
1.0
 10
79.62854836847954
 20
690.9752366607632
 30
0.0
 10
80.03392460329317
 20
690.4732670815669
 30
0.0
 10
80.85498977897242
 20
689.456557898016
 30
0.0
 10
81.81184074885705
 20
688.5271758063202
 30
0.0
 10
82.29627533215123
 20
688.056648168807
 30
0.0
  0
LINE
  5
317
330
1F
100
AcDbEntity
  8
0
  6
PHANTOM
 62
     8
370
     0
100
AcDbLine
 10
78.7525727903
 20
691.9243025481
 30
0.0
 11
79.6285483685
 21
690.9752366608
 31
0.0
  0
LINE
  5
318
330
1F
100
AcDbEntity
  8
0
  6
PHANTOM
 62
     8
370
     0
100
AcDbLine
 10
77.9365239695
 20
692.8709232124
 30
0.0
 11
78.7525727903
 21
691.9243025481
 31
0.0
  0
SPLINE
  5
319
330
1F
100
AcDbEntity
  8
0
  6
PHANTOM
 62
     8
370
     0
100
AcDbSpline
210
0.0
220
0.0
230
1.0
 70
     8
 71
     3
 72
     9
 73
     5
 74
     0
 42
0.00000001
 43
0.00000001
 40
0.0
 40
0.0
 40
0.0
 40
0.0
 40
0.5596751585677606
 40
1.0
 40
1.0
 40
1.0
 40
1.0
 10
75.1990789613069
 20
697.9162009380656
 30
0.0
 10
75.30529699216348
 20
697.9426688675306
 30
0.0
 10
75.49508213668993
 20
697.9899604599119
 30
0.0
 10
75.56468665282057
 20
698.0088529409122
 30
0.0
 10
75.59533525034878
 20
698.0171717696137
 30
0.0
  0
SPLINE
  5
31A
330
1F
100
AcDbEntity
  8
0
  6
PHANTOM
 62
     8
370
     0
100
AcDbSpline
210
0.0
220
0.0
230
1.0
 70
     8
 71
     3
 72
     9
 73
     5
 74
     0
 42
0.00000001
 43
0.00000001
 40
0.0
 40
0.0
 40
0.0
 40
0.0
 40
0.5596751585677067
 40
1.0
 40
1.0
 40
1.0
 40
1.0
 10
75.19907896130806
 20
723.507585469645
 30
0.0
 10
75.30529699216481
 20
723.4811175401793
 30
0.0
 10
75.49508213669137
 20
723.4338259477962
 30
0.0
 10
75.56468665282179
 20
723.4149334667937
 30
0.0
 10
75.59533525034989
 20
723.406614638092
 30
0.0
  0
SPLINE
  5
31B
330
1F
100
AcDbEntity
  8
0
  6
PHANTOM
 62
     8
370
     0
100
AcDbSpline
210
0.0
220
0.0
230
1.0
 70
     8
 71
     3
 72
     9
 73
     5
 74
     0
 42
0.00000001
 43
0.00000001
 40
0.0
 40
0.0
 40
0.0
 40
0.0
 40
0.5596584717904297
 40
1.0
 40
1.0
 40
1.0
 40
1.0
 10
77.01713349778555
 20
692.8549848352355
 30
0.0
 10
77.14734352473518
 20
692.9671005805477
 30
0.0
 10
77.380003322653
 20
693.1674294435301
 30
0.0
 10
77.53322530981899
 20
693.3133828905976
 30
0.0
 10
77.60069531380293
 20
693.3776522545267
 30
0.0
  0
SPLINE
  5
31C
330
1F
100
AcDbEntity
  8
0
  6
PHANTOM
 62
     8
370
     0
100
AcDbSpline
210
0.0
220
0.0
230
1.0
 70
     8
 71
     3
 72
     9
 73
     5
 74
     0
 42
0.00000001
 43
0.00000001
 40
0.0
 40
0.0
 40
0.0
 40
0.0
 40
0.5096966135637486
 40
1.0
 40
1.0
 40
1.0
 40
1.0
 10
77.01713349778555
 20
692.854984835236
 30
0.0
 10
76.61466111659315
 20
693.6818475736786
 30
0.0
 10
75.82502985265683
 20
695.3041121060276
 30
0.0
 10
75.40501410482526
 20
697.0568349783036
 30
0.0
 10
75.19907896130684
 20
697.9162009380653
 30
0.0
  0
SPLINE
  5
31D
330
1F
100
AcDbEntity
  8
0
  6
PHANTOM
 62
     8
370
     0
100
AcDbSpline
210
0.0
220
0.0
230
1.0
 70
     8
 71
     3
 72
     9
 73
     5
 74
     0
 42
0.00000001
 43
0.00000001
 40
0.0
 40
0.0
 40
0.0
 40
0.0
 40
0.5596584717904244
 40
1.0
 40
1.0
 40
1.0
 40
1.0
 10
77.60069531381308
 20
728.04613415319
 30
0.0
 10
77.51250931471598
 20
728.1296249129371
 30
0.0
 10
77.35493821815953
 20
728.278806537009
 30
0.0
 10
77.12040723106462
 20
728.4801442265731
 30
0.0
 10
77.0171334977947
 20
728.5688015724819
 30
0.0
  0
SPLINE
  5
31E
330
1F
100
AcDbEntity
  8
0
  6
PHANTOM
 62
     8
370
     0
100
AcDbSpline
210
0.0
220
0.0
230
1.0
 70
     8
 71
     3
 72
     9
 73
     5
 74
     0
 42
0.00000001
 43
0.00000001
 40
0.0
 40
0.0
 40
0.0
 40
0.0
 40
0.4904418664836613
 40
1.0
 40
1.0
 40
1.0
 40
1.0
 10
75.19907896130806
 20
723.5075854696412
 30
0.0
 10
75.40508382233618
 20
724.3671921004669
 30
0.0
 10
75.82512312792228
 20
726.1199108008282
 30
0.0
 10
76.61476503929133
 20
727.7421674846097
 30
0.0
 10
77.01713349779482
 20
728.5688015724824
 30
0.0
  0
SPLINE
  5
31F
330
1F
100
AcDbEntity
  8
0
  6
PHANTOM
 62
     8
370
     0
100
AcDbSpline
210
0.0
220
0.0
230
1.0
 70
     8
 71
     3
 72
     9
 73
     5
 74
     0
 42
0.00000001
 43
0.00000001
 40
0.0
 40
0.0
 40
0.0
 40
0.0
 40
0.5596453382885592
 40
1.0
 40
1.0
 40
1.0
 40
1.0
 10
77.32198705856996
 20
729.1283068375168
 30
0.0
 10
77.4566447397973
 20
729.0059822082476
 30
0.0
 10
77.69725727065313
 20
728.7874069411989
 30
0.0
 10
77.86337378712649
 20
728.6245694455926
 30
0.0
 10
77.93652396954276
 20
728.552863195301
 30
0.0
  0
LINE
  5
320
330
1F
100
AcDbEntity
  8
0
  6
PHANTOM
 62
     8
370
     0
100
AcDbLine
 10
77.0171334978
 20
728.5688015725
 30
0.0
 11
77.3219870586
 21
729.1283068375
 31
0.0
  0
SPLINE
  5
321
330
1F
100
AcDbEntity
  8
0
  6
PHANTOM
 62
     8
370
     0
100
AcDbSpline
210
0.0
220
0.0
230
1.0
 70
     8
 71
     3
 72
     9
 73
     5
 74
     0
 42
0.00000001
 43
0.00000001
 40
0.0
 40
0.0
 40
0.0
 40
0.0
 40
0.5596453382885349
 40
0.9999999999999999
 40
0.9999999999999999
 40
0.9999999999999999
 40
0.9999999999999999
 10
77.93652396955197
 20
692.8709232123856
 30
0.0
 10
77.8411711226139
 20
692.7778692472814
 30
0.0
 10
77.67079027529078
 20
692.6115961476279
 30
0.0
 10
77.42862546270356
 20
692.3921248008381
 30
0.0
 10
77.32198705857829
 20
692.2954795701669
 30
0.0
  0
LINE
  5
322
330
1F
100
AcDbEntity
  8
0
  6
PHANTOM
 62
     8
370
     0
100
AcDbLine
 10
77.3219870586
 20
692.2954795702
 30
0.0
 11
77.0171334978
 21
692.8549848352
 31
0.0
  0
SPLINE
  5
323
330
1F
100
AcDbEntity
  8
0
  6
PHANTOM
 62
     8
370
     0
100
AcDbSpline
210
0.0
220
0.0
230
1.0
 70
     8
 71
     3
 72
     9
 73
     5
 74
     0
 42
0.00000001
 43
0.00000001
 40
0.0
 40
0.0
 40
0.0
 40
0.0
 40
0.5594950807463813
 40
1.0
 40
1.0
 40
1.0
 40
1.0
 10
78.11242611238228
 20
730.4294278614359
 30
0.0
 10
78.25186717305033
 20
730.2363123020589
 30
0.0
 10
78.50109378015834
 20
729.8911518779147
 30
0.0
 10
78.67567076824677
 20
729.6192555358098
 30
0.0
 10
78.75257279028813
 20
729.4994838595853
 30
0.0
  0
LINE
  5
324
330
1F
100
AcDbEntity
  8
0
  6
PHANTOM
 62
     8
370
     0
100
AcDbLine
 10
77.3219870586
 20
729.1283068375
 30
0.0
 11
78.1124261124
 21
730.4294278614
 31
0.0
  0
SPLINE
  5
325
330
1F
100
AcDbEntity
  8
0
  6
PHANTOM
 62
     8
370
     0
100
AcDbSpline
210
0.0
220
0.0
230
1.0
 70
     8
 71
     3
 72
     9
 73
     5
 74
     0
 42
0.00000001
 43
0.00000001
 40
0.0
 40
0.0
 40
0.0
 40
0.0
 40
0.5594950807464024
 40
1.0
 40
1.0
 40
1.0
 40
1.0
 10
109.223204955621
 20
690.9943585462731
 30
0.0
 10
109.083763894953
 20
691.1874741056497
 30
0.0
 10
108.834537287845
 20
691.5326345297931
 30
0.0
 10
108.6599602997567
 20
691.8045308718973
 30
0.0
 10
108.5830582777153
 20
691.9243025481213
 30
0.0
  0
LINE
  5
326
330
1F
100
AcDbEntity
  8
0
  6
PHANTOM
 62
     8
370
     0
100
AcDbLine
 10
109.7679173959
 20
691.8909954275
 30
0.0
 11
109.2232049556
 21
690.9943585463
 31
0.0
  0
SPLINE
  5
327
330
1F
100
AcDbEntity
  8
0
  6
PHANTOM
 62
     8
370
     0
100
AcDbSpline
210
0.0
220
0.0
230
1.0
 70
     8
 71
     3
 72
     9
 73
     5
 74
     0
 42
0.00000001
 43
0.00000001
 40
0.0
 40
0.0
 40
0.0
 40
0.0
 40
0.5594950807457599
 40
1.0
 40
1.0
 40
1.0
 40
1.0
 10
109.2232049556118
 20
730.4294278614346
 30
0.0
 10
109.0837638949438
 20
730.2363123020577
 30
0.0
 10
108.8345372878356
 20
729.8911518779142
 30
0.0
 10
108.6599602997474
 20
729.6192555358086
 30
0.0
 10
108.583058277706
 20
729.4994838595844
 30
0.0
  0
LINE
  5
328
330
1F
100
AcDbEntity
  8
0
  6
PHANTOM
 62
     8
370
     0
100
AcDbLine
 10
109.2232049556
 20
730.4294278614
 30
0.0
 11
109.7679164875
 21
729.5327924755
 31
0.0
  0
SPLINE
  5
329
330
1F
100
AcDbEntity
  8
0
  6
PHANTOM
 62
     8
370
     0
100
AcDbSpline
210
0.0
220
0.0
230
1.0
 70
     8
 71
     3
 72
     9
 73
     5
 74
     0
 42
0.00000001
 43
0.00000001
 40
0.0
 40
0.0
 40
0.0
 40
0.0
 40
0.5594950807457714
 40
1.0
 40
1.0
 40
1.0
 40
1.0
 10
78.11242611238978
 20
690.9943585462611
 30
0.0
 10
78.25186717305766
 20
691.1874741056378
 30
0.0
 10
78.50109378016585
 20
691.5326345297817
 30
0.0
 10
78.67567076825411
 20
691.8045308718869
 30
0.0
 10
78.75257279029563
 20
691.9243025481113
 30
0.0
  0
LINE
  5
32A
330
1F
100
AcDbEntity
  8
0
  6
PHANTOM
 62
     8
370
     0
100
AcDbLine
 10
78.1124261124
 20
690.9943585463
 30
0.0
 11
77.3219870586
 21
692.2954795702
 31
0.0
  0
SPLINE
  5
32B
330
1F
100
AcDbEntity
  8
0
  6
PHANTOM
 62
     8
370
     0
100
AcDbSpline
210
0.0
220
0.0
230
1.0
 70
     8
 71
     3
 72
     9
 73
     5
 74
     0
 42
0.00000001
 43
0.00000001
 40
0.0
 40
0.0
 40
0.0
 40
0.0
 40
0.5595869082377748
 40
1.0
 40
1.0
 40
1.0
 40
1.0
 10
78.9518145651683
 20
690.1276968425182
 30
0.0
 10
79.08662032953384
 20
690.3007032421569
 30
0.0
 10
79.32752261366693
 20
690.6098713036179
 30
0.0
 10
79.5365083251508
 20
690.8635244807758
 30
0.0
 10
79.62854836847954
 20
690.9752366607632
 30
0.0
  0
SPLINE
  5
32C
330
1F
100
AcDbEntity
  8
0
  6
PHANTOM
 62
     8
370
     0
100
AcDbSpline
210
0.0
220
0.0
230
1.0
 70
     8
 71
     3
 72
    11
 73
     7
 74
     0
 42
0.00000001
 43
0.00000001
 40
0.0
 40
0.0
 40
0.0
 40
0.0
 40
0.4999749010151568
 40
0.8439861808919337
 40
0.9454953606332716
 40
1.0
 40
1.0
 40
1.0
 40
1.0
 10
78.9518145651683
 20
690.1276968425182
 30
0.0
 10
78.81261680361784
 20
690.2727292997527
 30
0.0
 10
78.57764303409243
 20
690.5175523687476
 30
0.0
 10
78.31064879672178
 20
690.7887556156342
 30
0.0
 10
78.1709014871142
 20
690.9332392598932
 30
0.0
 10
78.12756577868946
 20
690.9785343535216
 30
0.0
 10
78.11242611239
 20
690.9943585462594
 30
0.0
  0
SPLINE
  5
32D
330
1F
100
AcDbEntity
  8
0
  6
PHANTOM
 62
     8
370
     0
100
AcDbSpline
210
0.0
220
0.0
230
1.0
 70
     8
 71
     3
 72
     9
 73
     5
 74
     0
 42
0.00000001
 43
0.00000001
 40
0.0
 40
0.0
 40
0.0
 40
0.0
 40
0.4999999999999816
 40
0.9999999999999999
 40
0.9999999999999999
 40
0.9999999999999999
 40
0.9999999999999999
 10
108.3838165028289
 20
731.2960895651822
 30
0.0
 10
108.263483324333
 20
731.1414981363681
 30
0.0
 10
108.0228169673412
 20
730.8323152787402
 30
0.0
 10
107.8123274554589
 20
730.5764715908713
 30
0.0
 10
107.7070826995177
 20
730.4485497469371
 30
0.0
  0
SPLINE
  5
32E
330
1F
100
AcDbEntity
  8
0
  6
PHANTOM
 62
     8
370
     0
100
AcDbSpline
210
0.0
220
0.0
230
1.0
 70
     8
 71
     3
 72
    11
 73
     7
 74
     0
 42
0.00000001
 43
0.00000001
 40
0.0
 40
0.0
 40
0.0
 40
0.0
 40
0.4999749010162303
 40
0.8439861809880137
 40
0.945495360705171
 40
1.0
 40
1.0
 40
1.0
 40
1.0
 10
108.3838165028289
 20
731.2960895651822
 30
0.0
 10
108.5230142643801
 20
731.151057107947
 30
0.0
 10
108.757988033933
 20
730.9062340389244
 30
0.0
 10
109.0249822713244
 20
730.6350307920159
 30
0.0
 10
109.1647295809326
 20
730.4905471477584
 30
0.0
 10
109.2080652893314
 20
730.4452520541583
 30
0.0
 10
109.2232049556111
 20
730.4294278614417
 30
0.0
  0
SPLINE
  5
32F
330
1F
100
AcDbEntity
  8
0
  6
PHANTOM
 62
     8
370
     0
100
AcDbSpline
210
0.0
220
0.0
230
1.0
 70
     8
 71
     3
 72
     9
 73
     5
 74
     0
 42
0.00000001
 43
0.00000001
 40
0.0
 40
0.0
 40
0.0
 40
0.0
 40
0.5595869082379082
 40
1.0
 40
1.0
 40
1.0
 40
1.0
 10
107.7070826995167
 20
690.9752366607619
 30
0.0
 10
107.8256759590781
 20
690.8308867208304
 30
0.0
 10
108.0376059699761
 20
690.572928684631
 30
0.0
 10
108.2779610006487
 20
690.2638285767106
 30
0.0
 10
108.3838165028277
 20
690.1276968425173
 30
0.0
  0
SPLINE
  5
330
330
1F
100
AcDbEntity
  8
0
  6
PHANTOM
 62
     8
370
     0
100
AcDbSpline
210
0.0
220
0.0
230
1.0
 70
     8
 71
     3
 72
    10
 73
     6
 74
     0
 42
0.00000001
 43
0.00000001
 40
0.0
 40
0.0
 40
0.0
 40
0.0
 40
0.0545406000987032
 40
0.500011097747604
 40
1.0
 40
1.0
 40
1.0
 40
1.0
 10
109.223204955613
 20
690.9943585462591
 30
0.0
 10
109.2080551999297
 20
690.9785252463624
 30
0.0
 10
109.0691669963517
 20
690.8333705240483
 30
0.0
 10
108.7861960916922
 20
690.5470018995798
 30
0.0
 10
108.5230019227604
 20
690.272736879491
 30
0.0
 10
108.3838165028289
 20
690.1276968425158
 30
0.0
  0
SPLINE
  5
331
330
1F
100
AcDbEntity
  8
0
  6
PHANTOM
 62
     8
370
     0
100
AcDbSpline
210
0.0
220
0.0
230
1.0
 70
     8
 71
     3
 72
     9
 73
     5
 74
     0
 42
0.00000001
 43
0.00000001
 40
0.0
 40
0.0
 40
0.0
 40
0.0
 40
0.5595869082379139
 40
1.0
 40
1.0
 40
1.0
 40
1.0
 10
79.62854836848076
 20
730.4485497469387
 30
0.0
 10
79.50995510891946
 20
730.5928996868704
 30
0.0
 10
79.29802509802137
 20
730.8508577230693
 30
0.0
 10
79.05767006734892
 20
731.1599578309903
 30
0.0
 10
78.95181456516987
 20
731.2960895651836
 30
0.0
  0
SPLINE
  5
332
330
1F
100
AcDbEntity
  8
0
  6
PHANTOM
 62
     8
370
     0
100
AcDbSpline
210
0.0
220
0.0
230
1.0
 70
     8
 71
     3
 72
    10
 73
     6
 74
     0
 42
0.00000001
 43
0.00000001
 40
0.0
 40
0.0
 40
0.0
 40
0.0
 40
0.0545405997366338
 40
0.5000110977483986
 40
1.0
 40
1.0
 40
1.0
 40
1.0
 10
78.11242611238461
 20
730.4294278614359
 30
0.0
 10
78.1275758679677
 20
730.4452611612268
 30
0.0
 10
78.26646407155013
 20
730.5904158835393
 30
0.0
 10
78.54943497620087
 20
730.8767845080167
 30
0.0
 10
78.81262914523579
 20
731.15104952821
 30
0.0
 10
78.9518145651683
 20
731.2960895651851
 30
0.0
  0
SPLINE
  5
333
330
1F
100
AcDbEntity
  8
0
  6
PHANTOM
 62
     8
370
     0
100
AcDbSpline
210
0.0
220
0.0
230
1.0
 70
     8
 71
     3
 72
    11
 73
     7
 74
     0
 42
0.00000001
 43
0.00000001
 40
0.0
 40
0.0
 40
0.0
 40
0.0
 40
0.2500000093002269
 40
0.5000000156015965
 40
0.7500000140582601
 40
0.9999999999999999
 40
0.9999999999999999
 40
0.9999999999999999
 40
0.9999999999999999
 10
73.97147137716465
 20
694.0281458124527
 30
0.0
 10
74.02467277471963
 20
693.905387605
 30
0.0
 10
74.13107556919141
 20
693.6598711915675
 30
0.0
 10
74.79198878580856
 20
693.3230091099734
 30
0.0
 10
75.74995846117233
 20
693.0362925883799
 30
0.0
 10
76.59474202333143
 20
692.9154208705412
 30
0.0
 10
77.01713379383862
 20
692.8549850131348
 30
0.0
  0
SPLINE
  5
334
330
1F
100
AcDbEntity
  8
0
  6
PHANTOM
 62
     8
370
     0
100
AcDbSpline
210
0.0
220
0.0
230
1.0
 70
     8
 71
     3
 72
    11
 73
     7
 74
     0
 42
0.00000001
 43
0.00000001
 40
0.0
 40
0.0
 40
0.0
 40
0.0
 40
0.249999985941736
 40
0.4999999843984025
 40
0.7499999906997833
 40
1.0
 40
1.0
 40
1.0
 40
1.0
 10
77.01713379384833
 20
728.5688013945834
 30
0.0
 10
76.59474202333982
 20
728.5083655371775
 30
0.0
 10
75.74995846117827
 20
728.3874938193403
 30
0.0
 10
74.79198878581128
 20
728.1007772977463
 30
0.0
 10
74.13107556919185
 20
727.7639152161538
 30
0.0
 10
74.02467277471969
 20
727.5183988027218
 30
0.0
 10
73.97147137716448
 20
727.3956405952691
 30
0.0
  0
LINE
  5
335
330
1F
100
AcDbEntity
  8
0
  6
PHANTOM
 62
     8
370
     0
100
AcDbLine
 10
82.2962753322
 20
688.0566481688
 30
0.0
 11
78.9518145652
 21
690.1276968425
 31
0.0
  0
LINE
  5
336
330
1F
100
AcDbEntity
  8
0
  6
PHANTOM
 62
     8
370
     0
100
AcDbLine
 10
105.0393557358
 20
733.3671382389
 30
0.0
 11
108.3838165028
 21
731.2960895652
 31
0.0
  0
LINE
  5
337
330
1F
100
AcDbEntity
  8
0
  6
PHANTOM
 62
     8
370
     0
100
AcDbLine
 10
108.3838165028
 20
690.1276968425
 30
0.0
 11
105.0393557358
 21
688.0566481688
 31
0.0
  0
LINE
  5
338
330
1F
100
AcDbEntity
  8
0
  6
PHANTOM
 62
     8
370
     0
100
AcDbLine
 10
78.9518145652
 20
731.2960895652
 30
0.0
 11
82.2962753322
 21
733.3671382389
 31
0.0
  0
LINE
  5
339
330
1F
100
AcDbEntity
  8
0
  6
PHANTOM
 62
     8
370
     0
100
AcDbLine
 10
78.9399426861
 20
735.7370560719
 30
0.0
 11
78.9518145652
 21
731.2960895652
 31
0.0
  0
SPLINE
  5
33A
330
1F
100
AcDbEntity
  8
0
  6
PHANTOM
 62
     8
370
     0
100
AcDbSpline
210
0.0
220
0.0
230
1.0
 70
     8
 71
     3
 72
    11
 73
     7
 74
     0
 42
0.00000001
 43
0.00000001
 40
0.0
 40
0.0
 40
0.0
 40
0.0
 40
0.2499999999999967
 40
0.4999999999999996
 40
0.7499999999999984
 40
0.9999999999999999
 40
0.9999999999999999
 40
0.9999999999999999
 40
0.9999999999999999
 10
73.95644125938794
 20
730.0021008850673
 30
0.0
 10
74.0307960539891
 20
730.0519662365535
 30
0.0
 10
74.17950564319142
 20
730.1516969395256
 30
0.0
 10
75.11571734692996
 20
730.2829965586169
 30
0.0
 10
76.45006388290449
 20
730.3851604437438
 30
0.0
 10
77.55830536922458
 20
730.4146720555419
 30
0.0
 10
78.11242611238461
 20
730.4294278614412
 30
0.0
  0
SPLINE
  5
33B
330
1F
100
AcDbEntity
  8
0
  6
PHANTOM
 62
     8
370
     0
100
AcDbSpline
210
0.0
220
0.0
230
1.0
 70
     8
 71
     3
 72
    11
 73
     7
 74
     0
 42
0.00000001
 43
0.00000001
 40
0.0
 40
0.0
 40
0.0
 40
0.0
 40
0.2499999999999973
 40
0.5000000000000017
 40
0.7499999999999978
 40
1.0
 40
1.0
 40
1.0
 40
1.0
 10
78.93994268608829
 20
735.7370560719206
 30
0.0
 10
78.29746099714768
 20
735.7290575612939
 30
0.0
 10
77.01249761926643
 20
735.71306054004
 30
0.0
 10
75.38044098758783
 20
735.6116531610871
 30
0.0
 10
74.21746457563854
 20
735.469343666572
 30
0.0
 10
74.0340049638018
 20
735.3572994609787
 30
0.0
 10
73.94227515788343
 20
735.3012773581823
 30
0.0
  0
LINE
  5
33C
330
1F
100
AcDbEntity
  8
0
  6
PHANTOM
 62
     8
370
     0
100
AcDbLine
 10
108.3956883819
 20
685.6867303358
 30
0.0
 11
108.3838165028
 21
690.1276968425
 31
0.0
  0
SPLINE
  5
33D
330
1F
100
AcDbEntity
  8
0
  6
PHANTOM
 62
     8
370
     0
100
AcDbSpline
210
0.0
220
0.0
230
1.0
 70
     8
 71
     3
 72
    11
 73
     7
 74
     0
 42
0.00000001
 43
0.00000001
 40
0.0
 40
0.0
 40
0.0
 40
0.0
 40
0.2499999999999991
 40
0.5000000000000007
 40
0.7499999999999966
 40
0.9999999999999999
 40
0.9999999999999999
 40
0.9999999999999999
 40
0.9999999999999999
 10
109.223204955613
 20
690.9943585462591
 30
0.0
 10
109.777325698773
 20
691.009114352158
 30
0.0
 10
110.885567185093
 20
691.0386259639566
 30
0.0
 10
112.2199137210673
 20
691.1407898490837
 30
0.0
 10
113.1561254248058
 20
691.2720894681751
 30
0.0
 10
113.3048350140081
 20
691.3718201711469
 30
0.0
 10
113.3791898086093
 20
691.4216855226331
 30
0.0
  0
SPLINE
  5
33E
330
1F
100
AcDbEntity
  8
0
  6
PHANTOM
 62
     8
370
     0
100
AcDbSpline
210
0.0
220
0.0
230
1.0
 70
     8
 71
     3
 72
    11
 73
     7
 74
     0
 42
0.00000001
 43
0.00000001
 40
0.0
 40
0.0
 40
0.0
 40
0.0
 40
0.2500000000000019
 40
0.5000000000000021
 40
0.749999999999998
 40
1.0
 40
1.0
 40
1.0
 40
1.0
 10
108.3956883819089
 20
685.6867303357798
 30
0.0
 10
109.0381700708496
 20
685.6947288464067
 30
0.0
 10
110.3231334487308
 20
685.7107258676608
 30
0.0
 10
111.9551900804093
 20
685.8121332466121
 30
0.0
 10
113.1181664923587
 20
685.9544427411287
 30
0.0
 10
113.3016261041955
 20
686.0664869467215
 30
0.0
 10
113.3933559101138
 20
686.1225090495182
 30
0.0
  0
SPLINE
  5
33F
330
1F
100
AcDbEntity
  8
0
  6
PHANTOM
 62
     8
370
     0
100
AcDbSpline
210
0.0
220
0.0
230
1.0
 70
     8
 71
     3
 72
    11
 73
     7
 74
     0
 42
0.00000001
 43
0.00000001
 40
0.0
 40
0.0
 40
0.0
 40
0.0
 40
0.2499999999999984
 40
0.4999999999999989
 40
0.7499999999999992
 40
1.0
 40
1.0
 40
1.0
 40
1.0
 10
73.95644125938789
 20
691.4216855226331
 30
0.0
 10
74.03079605398915
 20
691.3718201711471
 30
0.0
 10
74.17950564319176
 20
691.2720894681746
 30
0.0
 10
75.11571734693167
 20
691.1407898490837
 30
0.0
 10
76.4500638829081
 20
691.0386259639562
 30
0.0
 10
77.55830536922936
 20
691.009114352158
 30
0.0
 10
78.11242611239
 20
690.9943585462589
 30
0.0
  0
LINE
  5
340
330
1F
100
AcDbEntity
  8
0
  6
PHANTOM
 62
     8
370
     0
100
AcDbLine
 10
78.9518145652
 20
690.1276968425
 30
0.0
 11
78.9399426861
 21
685.6867303358
 31
0.0
  0
SPLINE
  5
341
330
1F
100
AcDbEntity
  8
0
  6
PHANTOM
 62
     8
370
     0
100
AcDbSpline
210
0.0
220
0.0
230
1.0
 70
     8
 71
     3
 72
    11
 73
     7
 74
     0
 42
0.00000001
 43
0.00000001
 40
0.0
 40
0.0
 40
0.0
 40
0.0
 40
0.249999999999999
 40
0.4999999999999964
 40
0.7499999999999999
 40
0.9999999999999999
 40
0.9999999999999999
 40
0.9999999999999999
 40
0.9999999999999999
 10
73.94227515788332
 20
686.1225090495182
 30
0.0
 10
74.03400496380169
 20
686.0664869467215
 30
0.0
 10
74.21746457563843
 20
685.9544427411287
 30
0.0
 10
75.38044098758778
 20
685.8121332466121
 30
0.0
 10
77.01249761926631
 20
685.7107258676608
 30
0.0
 10
78.29746099714762
 20
685.694728846407
 30
0.0
 10
78.93994268608829
 20
685.6867303357798
 30
0.0
  0
SPLINE
  5
342
330
1F
100
AcDbEntity
  8
0
  6
PHANTOM
 62
     8
370
     0
100
AcDbSpline
210
0.0
220
0.0
230
1.0
 70
     8
 71
     3
 72
    11
 73
     7
 74
     0
 42
0.00000001
 43
0.00000001
 40
0.0
 40
0.0
 40
0.0
 40
0.0
 40
0.2500000000000001
 40
0.5000000000000053
 40
0.7499999999999994
 40
0.9999999999999999
 40
0.9999999999999999
 40
0.9999999999999999
 40
0.9999999999999999
 10
109.2232049556111
 20
730.4294278614415
 30
0.0
 10
109.7773256987713
 20
730.4146720555426
 30
0.0
 10
110.8855671850917
 20
730.3851604437442
 30
0.0
 10
112.2199137210668
 20
730.2829965586167
 30
0.0
 10
113.1561254248057
 20
730.1516969395258
 30
0.0
 10
113.3048350140082
 20
730.0519662365538
 30
0.0
 10
113.3791898086093
 20
730.0021008850675
 30
0.0
  0
LINE
  5
343
330
1F
100
AcDbEntity
  8
0
  6
PHANTOM
 62
     8
370
     0
100
AcDbLine
 10
108.3838165028
 20
731.2960895652
 30
0.0
 11
108.3956883819
 21
735.7370560719
 31
0.0
  0
SPLINE
  5
344
330
1F
100
AcDbEntity
  8
0
  6
PHANTOM
 62
     8
370
     0
100
AcDbSpline
210
0.0
220
0.0
230
1.0
 70
     8
 71
     3
 72
    11
 73
     7
 74
     0
 42
0.00000001
 43
0.00000001
 40
0.0
 40
0.0
 40
0.0
 40
0.0
 40
0.2499999999999999
 40
0.4999999999999982
 40
0.7499999999999972
 40
1.0
 40
1.0
 40
1.0
 40
1.0
 10
113.3933559101139
 20
735.3012773581823
 30
0.0
 10
113.3016261041955
 20
735.3572994609784
 30
0.0
 10
113.1181664923587
 20
735.4693436665708
 30
0.0
 10
111.9551900804094
 20
735.611653161088
 30
0.0
 10
110.3231334487308
 20
735.7130605400391
 30
0.0
 10
109.0381700708496
 20
735.7290575612935
 30
0.0
 10
108.3956883819089
 20
735.7370560719206
 30
0.0
  0
LINE
  5
345
330
1F
100
AcDbEntity
  8
0
  6
PHANTOM
 62
     8
370
     0
100
AcDbLine
 10
78.9399426861
 20
735.7370560719
 30
0.0
 11
79.1182063311
 21
736.7631165019
 31
0.0
  0
LINE
  5
346
330
1F
100
AcDbEntity
  8
0
  6
PHANTOM
 62
     8
370
     0
100
AcDbLine
 10
82.5104119113
 20
746.1476719176
 30
0.0
 11
79.1182063311
 21
736.7631165019
 31
0.0
  0
LINE
  5
347
330
1F
100
AcDbEntity
  8
0
  6
PHANTOM
 62
     8
370
     0
100
AcDbLine
 10
104.8252191567
 20
746.1476719176
 30
0.0
 11
82.5104119113
 21
746.1476719176
 31
0.0
  0
LINE
  5
348
330
1F
100
AcDbEntity
  8
0
  6
PHANTOM
 62
     8
370
     0
100
AcDbLine
 10
108.2174247369
 20
736.7631165019
 30
0.0
 11
104.8252191567
 21
746.1476719176
 31
0.0
  0
LINE
  5
349
330
1F
100
AcDbEntity
  8
0
  6
PHANTOM
 62
     8
370
     0
100
AcDbLine
 10
108.2174247369
 20
736.7631165019
 30
0.0
 11
108.3956883819
 21
735.7370560719
 31
0.0
  0
CIRCLE
  5
34A
330
1F
100
AcDbEntity
  8
0
  6
PHANTOM
 62
     8
370
     0
100
AcDbCircle
 10
93.667815534
 20
740.8862046893
 30
0.0
 40
4.75
  0
LINE
  5
34B
330
1F
100
AcDbEntity
  8
0
  6
PHANTOM
 62
     8
370
     0
100
AcDbLine
 10
82.5104119113
 20
675.2761144901
 30
0.0
 11
104.8252191567
 21
675.2761144901
 31
0.0
  0
LINE
  5
34C
330
1F
100
AcDbEntity
  8
0
  6
PHANTOM
 62
     8
370
     0
100
AcDbLine
 10
79.1182063311
 20
684.6606699058
 30
0.0
 11
82.5104119113
 21
675.2761144901
 31
0.0
  0
LINE
  5
34D
330
1F
100
AcDbEntity
  8
0
  6
PHANTOM
 62
     8
370
     0
100
AcDbLine
 10
79.1182063311
 20
684.6606699058
 30
0.0
 11
78.9399426861
 21
685.6867303358
 31
0.0
  0
LINE
  5
34E
330
1F
100
AcDbEntity
  8
0
  6
PHANTOM
 62
     8
370
     0
100
AcDbLine
 10
108.3956883819
 20
685.6867303358
 30
0.0
 11
108.2174247369
 21
684.6606699058
 31
0.0
  0
LINE
  5
34F
330
1F
100
AcDbEntity
  8
0
  6
PHANTOM
 62
     8
370
     0
100
AcDbLine
 10
104.8252191567
 20
675.2761144901
 30
0.0
 11
108.2174247369
 21
684.6606699058
 31
0.0
  0
CIRCLE
  5
350
330
1F
100
AcDbEntity
  8
0
  6
PHANTOM
 62
     8
370
     0
100
AcDbCircle
 10
93.667815534
 20
680.5375817184
 30
0.0
 40
4.75
  0
LINE
  5
351
330
1F
100
AcDbEntity
  8
0
  6
PHANTOM
 62
     8
370
     0
100
AcDbLine
 10
73.9422751579
 20
735.3012773582
 30
0.0
 11
74.4219350337
 21
738.0374385048
 31
0.0
  0
SPLINE
  5
352
330
1F
100
AcDbEntity
  8
0
  6
PHANTOM
 62
     8
370
     0
100
AcDbSpline
210
0.0
220
0.0
230
1.0
 70
     8
 71
     3
 72
    11
 73
     7
 74
     0
 42
0.00000001
 43
0.00000001
 40
0.0
 40
0.0
 40
0.0
 40
0.0
 40
0.2499999999999945
 40
0.4999999999999988
 40
0.749999999999996
 40
0.9999999999999999
 40
0.9999999999999999
 40
0.9999999999999999
 40
0.9999999999999999
 10
74.42193503373495
 20
738.0374385047877
 30
0.0
 10
74.52193189440237
 20
738.0560970501879
 30
0.0
 10
74.7219256157372
 20
738.0934141409882
 30
0.0
 10
75.8206181556953
 20
737.8341133101384
 30
0.0
 10
77.33773643105246
 20
737.3836201222312
 30
0.0
 10
78.52471636443781
 20
736.9699510420088
 30
0.0
 10
79.11820633113042
 20
736.7631165018977
 30
0.0
  0
LINE
  5
353
330
1F
100
AcDbEntity
  8
0
  6
PHANTOM
 62
     8
370
     0
100
AcDbLine
 10
113.3933559101
 20
686.1225090495
 30
0.0
 11
112.9136960343
 21
683.3863479029
 31
0.0
  0
SPLINE
  5
354
330
1F
100
AcDbEntity
  8
0
  6
PHANTOM
 62
     8
370
     0
100
AcDbSpline
210
0.0
220
0.0
230
1.0
 70
     8
 71
     3
 72
    11
 73
     7
 74
     0
 42
0.00000001
 43
0.00000001
 40
0.0
 40
0.0
 40
0.0
 40
0.0
 40
0.2499999999999951
 40
0.5000000000000001
 40
0.7499999999999938
 40
0.9999999999999999
 40
0.9999999999999999
 40
0.9999999999999999
 40
0.9999999999999999
 10
112.9136960342623
 20
683.3863479029127
 30
0.0
 10
112.8136991735949
 20
683.3676893575124
 30
0.0
 10
112.61370545226
 20
683.3303722667122
 30
0.0
 10
111.515012912302
 20
683.5896730975625
 30
0.0
 10
109.9978946369448
 20
684.0401662854697
 30
0.0
 10
108.8109147035595
 20
684.453835365692
 30
0.0
 10
108.2174247368668
 20
684.6606699058028
 30
0.0
  0
SPLINE
  5
355
330
1F
100
AcDbEntity
  8
0
  6
PHANTOM
 62
     8
370
     0
100
AcDbSpline
210
0.0
220
0.0
230
1.0
 70
     8
 71
     3
 72
    11
 73
     7
 74
     0
 42
0.00000001
 43
0.00000001
 40
0.0
 40
0.0
 40
0.0
 40
0.0
 40
0.2500000000000029
 40
0.4999999999999996
 40
0.7500000000000048
 40
1.0
 40
1.0
 40
1.0
 40
1.0
 10
79.11820633113042
 20
684.6606699058028
 30
0.0
 10
78.5247163644377
 20
684.4538353656918
 30
0.0
 10
77.3377364310524
 20
684.0401662854699
 30
0.0
 10
75.82061815569507
 20
683.5896730975625
 30
0.0
 10
74.72192561573726
 20
683.3303722667129
 30
0.0
 10
74.52193189440237
 20
683.367689357513
 30
0.0
 10
74.4219350337349
 20
683.3863479029127
 30
0.0
  0
LINE
  5
356
330
1F
100
AcDbEntity
  8
0
  6
PHANTOM
 62
     8
370
     0
100
AcDbLine
 10
74.4219350337
 20
683.3863479029
 30
0.0
 11
73.9422751579
 21
686.1225090495
 31
0.0
  0
LINE
  5
357
330
1F
100
AcDbEntity
  8
0
  6
PHANTOM
 62
     8
370
     0
100
AcDbLine
 10
112.9136960343
 20
738.0374385048
 30
0.0
 11
113.3933559101
 21
735.3012773582
 31
0.0
  0
SPLINE
  5
358
330
1F
100
AcDbEntity
  8
0
  6
PHANTOM
 62
     8
370
     0
100
AcDbSpline
210
0.0
220
0.0
230
1.0
 70
     8
 71
     3
 72
    11
 73
     7
 74
     0
 42
0.00000001
 43
0.00000001
 40
0.0
 40
0.0
 40
0.0
 40
0.0
 40
0.2500000000000034
 40
0.4999999999999977
 40
0.7500000000000034
 40
1.0
 40
1.0
 40
1.0
 40
1.0
 10
108.2174247368668
 20
736.7631165018977
 30
0.0
 10
108.8109147035595
 20
736.9699510420088
 30
0.0
 10
109.9978946369448
 20
737.3836201222307
 30
0.0
 10
111.5150129123021
 20
737.8341133101379
 30
0.0
 10
112.61370545226
 20
738.0934141409878
 30
0.0
 10
112.8136991735949
 20
738.0560970501879
 30
0.0
 10
112.9136960342623
 20
738.0374385047877
 30
0.0
  0
LINE
  5
359
330
1F
100
AcDbEntity
  8
0
  6
PHANTOM
 62
     8
370
     0
100
AcDbLine
 10
77.8141406139
 20
747.4219939205
 30
0.0
 11
74.4219350337
 21
738.0374385048
 31
0.0
  0
ARC
  5
35A
330
1F
100
AcDbEntity
  8
0
  6
PHANTOM
 62
     8
370
     0
100
AcDbCircle
 10
76.0200580499
 20
731.5194757679
 30
0.0
 40
16.00340013376072
100
AcDbArc
 50
66.0737172465
 51
83.5632490606
  0
LINE
  5
35B
330
1F
100
AcDbEntity
  8
0
  6
PHANTOM
 62
     8
370
     0
100
AcDbLine
 10
109.5214904541
 20
674.0017924872
 30
0.0
 11
112.9136960343
 21
683.3863479029
 31
0.0
  0
ARC
  5
35C
330
1F
100
AcDbEntity
  8
0
  6
PHANTOM
 62
     8
370
     0
100
AcDbCircle
 10
111.3155730181
 20
689.9043106398
 30
0.0
 40
16.00340013373473
100
AcDbArc
 50
246.0737172465
 51
263.5632490606
  0
LINE
  5
35D
330
1F
100
AcDbEntity
  8
0
  6
PHANTOM
 62
     8
370
     0
100
AcDbLine
 10
112.9136960343
 20
738.0374385048
 30
0.0
 11
109.5214904541
 21
747.4219939205
 31
0.0
  0
ARC
  5
35E
330
1F
100
AcDbEntity
  8
0
  6
PHANTOM
 62
     8
370
     0
100
AcDbCircle
 10
111.3155730179
 20
731.5194757686
 30
0.0
 40
16.00340013302537
100
AcDbArc
 50
96.4367509389
 51
113.9262827538
  0
ARC
  5
35F
330
1F
100
AcDbEntity
  8
0
  6
PHANTOM
 62
     8
370
     0
100
AcDbCircle
 10
76.0200580501
 20
689.9043106391
 30
0.0
 40
16.00340013302547
100
AcDbArc
 50
276.4367509389
 51
293.9262827538
  0
LINE
  5
360
330
1F
100
AcDbEntity
  8
0
  6
PHANTOM
 62
     8
370
     0
100
AcDbLine
 10
74.4219350337
 20
683.3863479029
 30
0.0
 11
77.8141406139
 21
674.0017924872
 31
0.0
  0
ARC
  5
361
330
1F
100
AcDbEntity
  8
0
  6
PHANTOM
 62
     8
370
     0
100
AcDbCircle
 10
82.5110645134
 20
675.7096952875
 30
0.0
 40
4.997802126240133
100
AcDbArc
 50
199.9823574415
 51
269.9925184418
  0
LINE
  5
362
330
1F
100
AcDbEntity
  8
0
  6
PHANTOM
 62
     8
370
     0
100
AcDbLine
 10
82.5104119113
 20
675.2761144901
 30
0.0
 11
82.5104119113
 21
670.7118932039
 31
0.0
  0
ARC
  5
363
330
1F
100
AcDbEntity
  8
0
  6
PHANTOM
 62
     8
370
     0
100
AcDbCircle
 10
104.8245665546
 20
675.7096952875
 30
0.0
 40
4.997802126242294
100
AcDbArc
 50
270.0074815583
 51
340.0176425584
  0
LINE
  5
364
330
1F
100
AcDbEntity
  8
0
  6
PHANTOM
 62
     8
370
     0
100
AcDbLine
 10
104.8252191567
 20
670.7118932039
 30
0.0
 11
104.8252191567
 21
675.2761144901
 31
0.0
  0
LINE
  5
365
330
1F
100
AcDbEntity
  8
0
  6
PHANTOM
 62
     8
370
     0
100
AcDbLine
 10
82.5104119113
 20
750.7118932039
 30
0.0
 11
82.5104119113
 21
746.1476719176
 31
0.0
  0
ARC
  5
366
330
1F
100
AcDbEntity
  8
0
  6
PHANTOM
 62
     8
370
     0
100
AcDbCircle
 10
82.5110645134
 20
745.7140911202
 30
0.0
 40
4.997802126242481
100
AcDbArc
 50
90.0074815583
 51
160.0176425584
  0
LINE
  5
367
330
1F
100
AcDbEntity
  8
0
  6
PHANTOM
 62
     8
370
     0
100
AcDbLine
 10
104.8252191567
 20
746.1476719176
 30
0.0
 11
104.8252191567
 21
750.7118932039
 31
0.0
  0
ARC
  5
368
330
1F
100
AcDbEntity
  8
0
  6
PHANTOM
 62
     8
370
     0
100
AcDbCircle
 10
104.8245665546
 20
745.7140911202
 30
0.0
 40
4.997802126240019
100
AcDbArc
 50
19.9823574415
 51
89.9925184418
  0
LINE
  5
369
330
1F
100
AcDbEntity
  8
0
  6
PHANTOM
 62
     8
370
     0
100
AcDbLine
 10
74.4219350337
 20
738.0374385048
 30
0.0
 11
74.1662159785
 21
738.0374385048
 31
0.0
  0
LINE
  5
36A
330
1F
100
AcDbEntity
  8
0
  6
PHANTOM
 62
     8
370
     0
100
AcDbLine
 10
112.9136960343
 20
683.3863479029
 30
0.0
 11
113.1694150894
 21
683.3863479029
 31
0.0
  0
LINE
  5
36B
330
1F
100
AcDbEntity
  8
0
  6
PHANTOM
 62
     8
370
     0
100
AcDbLine
 10
113.1694150894
 20
738.0374385048
 30
0.0
 11
112.9136960343
 21
738.0374385048
 31
0.0
  0
LINE
  5
36C
330
1F
100
AcDbEntity
  8
0
  6
PHANTOM
 62
     8
370
     0
100
AcDbLine
 10
74.1662159785
 20
683.3863479029
 30
0.0
 11
74.4219350337
 21
683.3863479029
 31
0.0
  0
LINE
  5
36D
330
1F
100
AcDbEntity
  8
0
  6
PHANTOM
 62
     8
370
     0
100
AcDbLine
 10
77.8141406139
 20
747.4219939205
 30
0.0
 11
77.5835089596
 21
747.4219939205
 31
0.0
  0
LINE
  5
36E
330
1F
100
AcDbEntity
  8
0
  6
PHANTOM
 62
     8
370
     0
100
AcDbLine
 10
109.7521221084
 20
674.0017924872
 30
0.0
 11
109.5214904541
 21
674.0017924872
 31
0.0
  0
LINE
  5
36F
330
1F
100
AcDbEntity
  8
0
  6
PHANTOM
 62
     8
370
     0
100
AcDbLine
 10
113.1694150894
 20
683.3863479029
 30
0.0
 11
109.7521221084
 21
674.0017924872
 31
0.0
  0
LINE
  5
370
330
1F
100
AcDbEntity
  8
0
  6
PHANTOM
 62
     8
370
     0
100
AcDbLine
 10
109.7521221084
 20
747.4219939205
 30
0.0
 11
109.5214904541
 21
747.4219939205
 31
0.0
  0
LINE
  5
371
330
1F
100
AcDbEntity
  8
0
  6
PHANTOM
 62
     8
370
     0
100
AcDbLine
 10
77.8141406139
 20
674.0017924872
 30
0.0
 11
77.5835089596
 21
674.0017924872
 31
0.0
  0
LINE
  5
372
330
1F
100
AcDbEntity
  8
0
  6
PHANTOM
 62
     8
370
     0
100
AcDbLine
 10
77.5835089596
 20
674.0017924872
 30
0.0
 11
74.1662159785
 21
683.3863479029
 31
0.0
  0
LINE
  5
373
330
1F
100
AcDbEntity
  8
0
  6
PHANTOM
 62
     8
370
     0
100
AcDbLine
 10
638.947815534
 20
223.0118932038
 30
0.0
 11
638.947815534
 21
220.5118932038
 31
0.0
  0
LINE
  5
374
330
1F
100
AcDbEntity
  8
0
  6
PHANTOM
 62
     8
370
     0
100
AcDbLine
 10
659.447815534
 20
220.5118932038
 30
0.0
 11
659.447815534
 21
223.0118932038
 31
0.0
  0
LINE
  5
375
330
1F
100
AcDbEntity
  8
0
  6
PHANTOM
 62
     8
370
     0
100
AcDbLine
 10
636.447815534
 20
217.5118932038
 30
0.0
 11
633.947815534
 21
217.5118932038
 31
0.0
  0
LINE
  5
376
330
1F
100
AcDbEntity
  8
0
  6
PHANTOM
 62
     8
370
     0
100
AcDbLine
 10
631.947815534
 20
217.5118932038
 30
0.0
 11
631.947815534
 21
212.5118932039
 31
0.0
  0
LINE
  5
377
330
1F
100
AcDbEntity
  8
0
  6
PHANTOM
 62
     8
370
     0
100
AcDbLine
 10
659.447815534
 20
218.0118932038
 30
0.0
 11
659.447815534
 21
220.5118932038
 31
0.0
  0
LINE
  5
378
330
1F
100
AcDbEntity
  8
0
  6
PHANTOM
 62
     8
370
     0
100
AcDbLine
 10
644.447815534
 20
220.5118932038
 30
0.0
 11
644.447815534
 21
218.0118932038
 31
0.0
  0
LINE
  5
379
330
1F
100
AcDbEntity
  8
0
  6
PHANTOM
 62
     8
370
     0
100
AcDbLine
 10
639.447815534
 20
215.0118932038
 30
0.0
 11
642.117815534
 21
215.0118932039
 31
0.0
  0
LINE
  5
37A
330
1F
100
AcDbEntity
  8
0
  6
PHANTOM
 62
     8
370
     0
100
AcDbLine
 10
658.117815534
 20
215.0118932039
 30
0.0
 11
664.447815534
 21
215.0118932038
 31
0.0
  0
LINE
  5
37B
330
1F
100
AcDbEntity
  8
0
  6
PHANTOM
 62
     8
370
     0
100
AcDbLine
 10
169.847815534
 20
-313.2381067962
 30
0.0
 11
157.047815534
 21
-313.2381067962
 31
0.0
  0
LINE
  5
37C
330
1F
100
AcDbEntity
  8
0
  6
PHANTOM
 62
     8
370
     0
100
AcDbLine
 10
169.847815534
 20
-313.4881067962
 30
0.0
 11
157.047815534
 21
-313.4881067962
 31
0.0
  0
LINE
  5
37D
330
1F
100
AcDbEntity
  8
0
  6
PHANTOM
 62
     8
370
     0
100
AcDbLine
 10
168.147815534
 20
-312.2381067962
 30
0.0
 11
158.747815534
 21
-312.2381067962
 31
0.0
  0
LINE
  5
37E
330
1F
100
AcDbEntity
  8
0
  6
PHANTOM
 62
     8
370
     0
100
AcDbLine
 10
661.947815534
 20
-315.9881067962
 30
0.0
 11
661.947815534
 21
-314.8881067978
 31
0.0
  0
LINE
  5
37F
330
1F
100
AcDbEntity
  8
0
  6
PHANTOM
 62
     8
370
     0
100
AcDbLine
 10
638.447815534
 20
-314.8881067978
 30
0.0
 11
638.447815534
 21
-315.9881067962
 31
0.0
  0
LINE
  5
380
330
1F
100
AcDbEntity
  8
0
  6
PHANTOM
 62
     8
370
     0
100
AcDbLine
 10
98.447815534
 20
-315.9881067962
 30
0.0
 11
98.447815534
 21
-313.9881067962
 31
0.0
  0
LINE
  5
381
330
1F
100
AcDbEntity
  8
0
  6
PHANTOM
 62
     8
370
     0
100
AcDbLine
 10
74.947815534
 20
-315.9881067962
 30
0.0
 11
74.947815534
 21
-313.9881067962
 31
0.0
  0
LINE
  5
382
330
1F
100
AcDbEntity
  8
0
  6
PHANTOM
 62
     8
370
     0
100
AcDbLine
 10
73.447815534
 20
-317.4881067962
 30
0.0
 11
71.447815534
 21
-317.4881067962
 31
0.0
  0
LINE
  5
383
330
1F
100
AcDbEntity
  8
0
  6
PHANTOM
 62
     8
370
     0
100
AcDbLine
 10
663.447815534
 20
-317.4881067962
 30
0.0
 11
665.447815534
 21
-317.4881067962
 31
0.0
  0
LINE
  5
384
330
1F
100
AcDbEntity
  8
0
  6
PHANTOM
 62
     8
370
     0
100
AcDbLine
 10
663.447815534
 20
-325.9881067962
 30
0.0
 11
665.447815534
 21
-325.9881067962
 31
0.0
  0
LINE
  5
385
330
1F
100
AcDbEntity
  8
0
  6
PHANTOM
 62
     8
370
     0
100
AcDbLine
 10
71.447815534
 20
-325.9881067962
 30
0.0
 11
73.447815534
 21
-325.9881067962
 31
0.0
  0
LINE
  5
386
330
1F
100
AcDbEntity
  8
0
  6
PHANTOM
 62
     8
370
     0
100
AcDbLine
 10
104.447815534
 20
-317.4881067962
 30
0.0
 11
510.447815534
 21
-317.4881067962
 31
0.0
  0
LINE
  5
387
330
1F
100
AcDbEntity
  8
0
  6
PHANTOM
 62
     8
370
     0
100
AcDbLine
 10
563.447815534
 20
-317.4881067962
 30
0.0
 11
510.447815534
 21
-317.4881067962
 31
0.0
  0
LINE
  5
388
330
1F
100
AcDbEntity
  8
0
  6
PHANTOM
 62
     8
370
     0
100
AcDbLine
 10
665.997815534
 20
1089.0618932038
 30
0.0
 11
654.9478155339
 21
1089.0618932038
 31
0.0
  0
LINE
  5
389
330
1F
100
AcDbEntity
  8
0
  6
PHANTOM
 62
     8
370
     0
100
AcDbLine
 10
644.9478155339
 20
1089.0618932038
 30
0.0
 11
631.897815534
 21
1089.0618932038
 31
0.0
  0
LINE
  5
38A
330
1F
100
AcDbEntity
  8
0
  6
PHANTOM
 62
     8
370
     0
100
AcDbLine
 10
631.897815534
 20
1089.0618932038
 30
0.0
 11
631.897815534
 21
1085.5118932038
 31
0.0
  0
LINE
  5
38B
330
1F
100
AcDbEntity
  8
0
  6
PHANTOM
 62
     8
370
     0
100
AcDbLine
 10
631.897815534
 20
225.5118932038
 30
0.0
 11
631.897815534
 21
220.5118932038
 31
0.0
  0
LINE
  5
38C
330
1F
100
AcDbEntity
  8
0
  6
PHANTOM
 62
     8
370
     0
100
AcDbLine
 10
665.997815534
 20
1089.0618932038
 30
0.0
 11
665.997815534
 21
1084.304822136
 31
0.0
  0
LINE
  5
38D
330
1F
100
AcDbEntity
  8
0
  6
PHANTOM
 62
     8
370
     0
100
AcDbLine
 10
665.997815534
 20
226.782603882
 30
0.0
 11
665.997815534
 21
211.6411825258
 31
0.0
  0
LINE
  5
38E
330
1F
100
AcDbEntity
  8
0
  6
PHANTOM
 62
     8
370
     0
100
AcDbLine
 10
665.997815534
 20
-310.617396118
 30
0.0
 11
665.997815534
 21
-311.0381067962
 31
0.0
  0
LINE
  5
38F
330
1F
100
AcDbEntity
  8
0
  6
PHANTOM
 62
     8
370
     0
100
AcDbLine
 10
665.5471048559
 20
-311.0381067962
 30
0.0
 11
665.997815534
 21
-311.0381067962
 31
0.0
  0
LINE
  5
390
330
1F
100
AcDbEntity
  8
0
  6
PHANTOM
 62
     8
370
     0
100
AcDbLine
 10
665.997815534
 20
1090.2411825257
 30
0.0
 11
665.997815534
 21
1089.0618932038
 31
0.0
  0
LINE
  5
391
330
1F
100
AcDbEntity
  8
0
  6
PHANTOM
 62
     8
370
     0
100
AcDbLine
 10
72.197815534
 20
-313.4881067962
 30
0.0
 11
72.197815534
 21
-313.9881067962
 31
0.0
  0
LINE
  5
392
330
1F
100
AcDbEntity
  8
0
  6
PHANTOM
 62
     8
370
     0
100
AcDbLine
 10
104.997815534
 20
1089.0618932038
 30
0.0
 11
70.897815534
 21
1089.0618932038
 31
0.0
  0
LINE
  5
393
330
1F
100
AcDbEntity
  8
0
  6
PHANTOM
 62
     8
370
     0
100
AcDbLine
 10
104.997815534
 20
212.5118932039
 30
0.0
 11
104.997815534
 21
225.5118932038
 31
0.0
  0
LINE
  5
394
330
1F
100
AcDbEntity
  8
0
  6
PHANTOM
 62
     8
370
     0
100
AcDbLine
 10
104.997815534
 20
1085.5118932038
 30
0.0
 11
104.997815534
 21
1089.0618932038
 31
0.0
  0
LINE
  5
395
330
1F
100
AcDbEntity
  8
0
  6
PHANTOM
 62
     8
370
     0
100
AcDbLine
 10
70.897815534
 20
-311.0381067962
 30
0.0
 11
71.2885262121
 21
-311.0381067962
 31
0.0
  0
LINE
  5
396
330
1F
100
AcDbEntity
  8
0
  6
PHANTOM
 62
     8
370
     0
100
AcDbLine
 10
70.897815534
 20
1089.0618932038
 30
0.0
 11
70.897815534
 21
1084.304822136
 31
0.0
  0
LINE
  5
397
330
1F
100
AcDbEntity
  8
0
  6
PHANTOM
 62
     8
370
     0
100
AcDbLine
 10
70.897815534
 20
226.782603882
 30
0.0
 11
70.897815534
 21
211.6411825258
 31
0.0
  0
LINE
  5
398
330
1F
100
AcDbEntity
  8
0
  6
PHANTOM
 62
     8
370
     0
100
AcDbLine
 10
70.897815534
 20
-310.617396118
 30
0.0
 11
70.897815534
 21
-311.0381067962
 31
0.0
  0
LINE
  5
399
330
1F
100
AcDbEntity
  8
0
  6
PHANTOM
 62
     8
370
     0
100
AcDbLine
 10
70.897815534
 20
1089.0618932038
 30
0.0
 11
70.897815534
 21
1090.2411825257
 31
0.0
  0
LINE
  5
39A
330
1F
100
AcDbEntity
  8
0
  6
PHANTOM
 62
     8
370
     0
100
AcDbLine
 10
640.347815534
 20
-319.9881067961
 30
0.0
 11
576.547815534
 21
-319.9881067961
 31
0.0
  0
LINE
  5
39B
330
1F
100
AcDbEntity
  8
0
  6
PHANTOM
 62
     8
370
     0
100
AcDbLine
 10
640.283902307
 20
-407.2280040749
 30
0.0
 11
576.611728761
 21
-407.2280040749
 31
0.0
  0
LINE
  5
39C
330
1F
100
AcDbEntity
  8
0
  6
PHANTOM
 62
     8
370
     0
100
AcDbLine
 10
640.347815534
 20
-406.4555408504
 30
0.0
 11
576.547815534
 21
-406.4555408504
 31
0.0
  0
LINE
  5
39D
330
1F
100
AcDbEntity
  8
0
  6
PHANTOM
 62
     8
370
     0
100
AcDbLine
 10
104.447815534
 20
-319.9881067962
 30
0.0
 11
96.547815534
 21
-319.9881067962
 31
0.0
  0
LINE
  5
39E
330
1F
100
AcDbEntity
  8
0
  6
PHANTOM
 62
     8
370
     0
100
AcDbLine
 10
160.347815534
 20
-406.4555408505
 30
0.0
 11
96.547815534
 21
-406.4555408505
 31
0.0
  0
LINE
  5
39F
330
1F
100
AcDbEntity
  8
0
  6
PHANTOM
 62
     8
370
     0
100
AcDbLine
 10
160.283902307
 20
-407.228004075
 30
0.0
 11
96.611728761
 21
-407.228004075
 31
0.0
  0
ENDSEC
  0
SECTION
  2
OBJECTS
  0
DICTIONARY
  5
C
330
0
100
AcDbDictionary
281
     1
  3
ACAD_GROUP
350
D
  3
ACAD_LAYOUT
350
1A
  3
ACAD_MATERIAL
350
3B
  3
ACAD_MLEADERSTYLE
350
3A1
  3
ACAD_MLINESTYLE
350
17
  3
ACAD_PLOTSETTINGS
350
19
  3
ACAD_PLOTSTYLENAME
350
E
  3
ACAD_TABLESTYLE
350
3A0
  3
ACAD_VISUALSTYLE
350
2A
  0
DICTIONARY
  5
D
102
{ACAD_REACTORS
330
C
102
}
330
C
100
AcDbDictionary
281
     1
  0
DICTIONARY
  5
1A
102
{ACAD_REACTORS
330
C
102
}
330
C
100
AcDbDictionary
281
     1
  3
Layout1
350
1E
  3
Layout2
350
26
  3
Model
350
22
  0
DICTIONARY
  5
3B
102
{ACAD_REACTORS
330
C
102
}
330
C
100
AcDbDictionary
281
     1
  3
ByBlock
350
3D
  3
ByLayer
350
3C
  3
Global
350
3E
  0
DICTIONARY
  5
3A1
102
{ACAD_REACTORS
330
C
102
}
330
C
100
AcDbDictionary
281
     1
  0
DICTIONARY
  5
17
102
{ACAD_REACTORS
330
C
102
}
330
C
100
AcDbDictionary
281
     1
  3
Standard
350
18
  0
DICTIONARY
  5
19
102
{ACAD_REACTORS
330
C
102
}
330
C
100
AcDbDictionary
281
     1
  0
ACDBDICTIONARYWDFLT
  5
E
102
{ACAD_REACTORS
330
C
102
}
330
C
100
AcDbDictionary
281
     1
  3
Normal
350
F
100
AcDbDictionaryWithDefault
340
F
  0
DICTIONARY
  5
3A0
102
{ACAD_REACTORS
330
C
102
}
330
C
100
AcDbDictionary
281
     1
  0
DICTIONARY
  5
2A
102
{ACAD_REACTORS
330
C
102
}
330
C
100
AcDbDictionary
281
     1
  3
2dWireframe
350
2F
  3
3D Hidden
350
31
  3
3dWireframe
350
30
  3
Basic
350
32
  3
Brighten
350
36
  3
ColorChange
350
3A
  3
Conceptual
350
34
  3
Dim
350
35
  3
Facepattern
350
39
  3
Flat
350
2B
  3
FlatWithEdges
350
2C
  3
Gouraud
350
2D
  3
GouraudWithEdges
350
2E
  3
Linepattern
350
38
  3
Realistic
350
33
  3
Thicken
350
37
  0
LAYOUT
  5
1E
102
{ACAD_REACTORS
330
1A
102
}
330
1A
100
AcDbPlotSettings
  1

  2
none_device
  4

  6

 40
0.0
 41
0.0
 42
0.0
 43
0.0
 44
0.0
 45
0.0
 46
0.0
 47
0.0
 48
0.0
 49
0.0
140
0.0
141
0.0
142
1.0
143
1.0
 70
   688
 72
     0
 73
     0
 74
     5
  7

 75
    16
 76
     0
 77
     2
 78
   300
147
1.0
148
0.0
149
0.0
100
AcDbLayout
  1
Layout1
 70
     1
 71
     1
 10
0.0
 20
0.0
 11
420.0
 21
297.0
 12
0.0
 22
0.0
 32
0.0
 14
1.0000000000E+20
 24
1.0000000000E+20
 34
1.0000000000E+20
 15
-1.0000000000E+20
 25
-1.0000000000E+20
 35
-1.0000000000E+20
146
0.0
 13
0.0
 23
0.0
 33
0.0
 16
1.0
 26
0.0
 36
0.0
 17
0.0
 27
1.0
 37
0.0
 76
     0
330
1B
  0
LAYOUT
  5
26
102
{ACAD_REACTORS
330
1A
102
}
330
1A
100
AcDbPlotSettings
  1

  2
none_device
  4

  6

 40
0.0
 41
0.0
 42
0.0
 43
0.0
 44
0.0
 45
0.0
 46
0.0
 47
0.0
 48
0.0
 49
0.0
140
0.0
141
0.0
142
1.0
143
1.0
 70
   688
 72
     0
 73
     0
 74
     5
  7

 75
    16
 76
     0
 77
     2
 78
   300
147
1.0
148
0.0
149
0.0
100
AcDbLayout
  1
Layout2
 70
     1
 71
     2
 10
0.0
 20
0.0
 11
0.0
 21
0.0
 12
0.0
 22
0.0
 32
0.0
 14
0.0
 24
0.0
 34
0.0
 15
0.0
 25
0.0
 35
0.0
146
0.0
 13
0.0
 23
0.0
 33
0.0
 16
1.0
 26
0.0
 36
0.0
 17
0.0
 27
1.0
 37
0.0
 76
     0
330
23
  0
LAYOUT
  5
22
102
{ACAD_REACTORS
330
1A
102
}
330
1A
100
AcDbPlotSettings
  1

  2
none_device
  4

  6

 40
0.0
 41
0.0
 42
0.0
 43
0.0
 44
0.0
 45
0.0
 46
0.0
 47
0.0
 48
0.0
 49
0.0
140
0.0
141
0.0
142
1.0
143
1.0
 70
  1712
 72
     0
 73
     0
 74
     0
  7

 75
     0
 76
     0
 77
     2
 78
   300
147
1.0
148
0.0
149
0.0
100
AcDbLayout
  1
Model
 70
     1
 71
     0
 10
0.0
 20
0.0
 11
841.0
 21
594.0
 12
0.0
 22
0.0
 32
0.0
 14
0.0
 24
0.0
 34
0.0
 15
841.0
 25
594.0
 35
0.0
146
0.0
 13
0.0
 23
0.0
 33
0.0
 16
1.0
 26
0.0
 36
0.0
 17
0.0
 27
1.0
 37
0.0
 76
     0
330
1F
331
29
  0
MATERIAL
  5
3D
102
{ACAD_REACTORS
330
3B
102
}
330
3B
100
AcDbMaterial
  1
ByBlock
 72
     1
 94
      127
  0
MATERIAL
  5
3C
102
{ACAD_REACTORS
330
3B
102
}
330
3B
100
AcDbMaterial
  1
ByLayer
 72
     1
 94
      127
  0
MATERIAL
  5
3E
102
{ACAD_REACTORS
330
3B
102
}
330
3B
100
AcDbMaterial
  1
Global
 72
     1
 94
      127
  0
MLINESTYLE
  5
18
102
{ACAD_REACTORS
330
17
102
}
330
17
100
AcDbMlineStyle
  2
Standard
 70
     0
  3

 62
   256
 51
90.0
 52
90.0
 71
     2
 49
0.5
 62
   256
  6
BYLAYER
 49
-0.5
 62
   256
  6
BYLAYER
  0
ACDBPLACEHOLDER
  5
F
102
{ACAD_REACTORS
330
E
102
}
330
E
  0
VISUALSTYLE
  5
2F
102
{ACAD_REACTORS
330
2A
102
}
330
2A
100
AcDbVisualStyle
  2
2dWireframe
 70
     4
 71
     0
 72
     2
 73
     0
 90
        0
 40
-0.6
 41
-30.0
 62
     5
 63
     7
421
 16777215
 74
     1
 91
        4
 64
     7
 65
   257
 75
     1
175
     1
 42
1.0
 92
        0
 66
   257
 43
1.0
 76
     1
 77
     6
 78
     2
 67
     7
 79
     5
170
     0
171
     0
290
     0
174
     0
 93
        1
 44
0.0
173
     0
291
     0
 45
0.0
  0
VISUALSTYLE
  5
31
102
{ACAD_REACTORS
330
2A
102
}
330
2A
100
AcDbVisualStyle
  2
3D Hidden
 70
     6
 71
     1
 72
     2
 73
     2
 90
        0
 40
-0.6
 41
-30.0
 62
     5
 63
     7
421
 16777215
 74
     2
 91
        2
 64
     7
 65
   257
 75
     2
175
     1
 42
40.0
 92
        0
 66
   257
 43
1.0
 76
     1
 77
     6
 78
     2
 67
     7
 79
     3
170
     0
171
     0
290
     0
174
     0
 93
        1
 44
0.0
173
     0
291
     0
 45
0.0
  0
VISUALSTYLE
  5
30
102
{ACAD_REACTORS
330
2A
102
}
330
2A
100
AcDbVisualStyle
  2
3dWireframe
 70
     5
 71
     0
 72
     2
 73
     0
 90
        0
 40
-0.6
 41
-30.0
 62
     5
 63
     7
421
 16777215
 74
     1
 91
        4
 64
     7
 65
   257
 75
     1
175
     1
 42
1.0
 92
        0
 66
   257
 43
1.0
 76
     1
 77
     6
 78
     2
 67
     7
 79
     5
170
     0
171
     0
290
     0
174
     0
 93
        1
 44
0.0
173
     0
291
     0
 45
0.0
  0
VISUALSTYLE
  5
32
102
{ACAD_REACTORS
330
2A
102
}
330
2A
100
AcDbVisualStyle
  2
Basic
 70
     7
 71
     1
 72
     0
 73
     1
 90
        0
 40
-0.6
 41
-30.0
 62
     5
 63
     7
421
 16777215
 74
     0
 91
        4
 64
     7
 65
   257
 75
     1
175
     1
 42
1.0
 92
        8
 66
     7
 43
1.0
 76
     1
 77
     6
 78
     2
 67
     7
 79
     5
170
     0
171
     0
290
     0
174
     0
 93
        1
 44
0.0
173
     0
291
     1
 45
0.0
  0
VISUALSTYLE
  5
36
102
{ACAD_REACTORS
330
2A
102
}
330
2A
100
AcDbVisualStyle
  2
Brighten
 70
    12
 71
     2
 72
     2
 73
     0
 90
        0
 40
-0.6
 41
-30.0
 62
     5
 63
     7
421
 16777215
 74
     1
 91
        4
 64
     7
 65
   257
 75
     1
175
     1
 42
1.0
 92
        8
 66
     7
 43
1.0
 76
     1
 77
     6
 78
     2
 67
     7
 79
     5
170
     0
171
     0
290
     0
174
     0
 93
        1
 44
50.0
173
     0
291
     1
 45
0.0
  0
VISUALSTYLE
  5
3A
102
{ACAD_REACTORS
330
2A
102
}
330
2A
100
AcDbVisualStyle
  2
ColorChange
 70
    16
 71
     2
 72
     2
 73
     3
 90
        0
 40
-0.6
 41
-30.0
 62
     5
 63
     8
421
  8421504
 74
     1
 91
        4
 64
     7
 65
   257
 75
     1
175
     1
 42
1.0
 92
        8
 66
     8
424
  8421504
 43
1.0
 76
     1
 77
     6
 78
     2
 67
     7
 79
     5
170
     0
171
     0
290
     0
174
     0
 93
        1
 44
0.0
173
     0
291
     1
 45
0.0
  0
VISUALSTYLE
  5
34
102
{ACAD_REACTORS
330
2A
102
}
330
2A
100
AcDbVisualStyle
  2
Conceptual
 70
     9
 71
     3
 72
     2
 73
     0
 90
        0
 40
-0.6
 41
-30.0
 62
     5
 63
     7
421
 16777215
 74
     2
 91
        2
 64
     7
 65
   257
 75
     1
175
     1
 42
40.0
 92
        8
 66
     7
 43
1.0
 76
     1
 77
     6
 78
     2
 67
     7
 79
     3
170
     0
171
     0
290
     0
174
     0
 93
        1
 44
0.0
173
     0
291
     0
 45
0.0
  0
VISUALSTYLE
  5
35
102
{ACAD_REACTORS
330
2A
102
}
330
2A
100
AcDbVisualStyle
  2
Dim
 70
    11
 71
     2
 72
     2
 73
     0
 90
        0
 40
-0.6
 41
-30.0
 62
     5
 63
     7
421
 16777215
 74
     1
 91
        4
 64
     7
 65
   257
 75
     1
175
     1
 42
1.0
 92
        8
 66
     7
 43
1.0
 76
     1
 77
     6
 78
     2
 67
     7
 79
     5
170
     0
171
     0
290
     0
174
     0
 93
        1
 44
-50.0
173
     0
291
     1
 45
0.0
  0
VISUALSTYLE
  5
39
102
{ACAD_REACTORS
330
2A
102
}
330
2A
100
AcDbVisualStyle
  2
Facepattern
 70
    15
 71
     2
 72
     2
 73
     0
 90
        0
 40
-0.6
 41
-30.0
 62
     5
 63
     7
421
 16777215
 74
     1
 91
        4
 64
     7
 65
   257
 75
     1
175
     1
 42
1.0
 92
        8
 66
     7
 43
1.0
 76
     1
 77
     6
 78
     2
 67
     7
 79
     5
170
     0
171
     0
290
     0
174
     0
 93
        1
 44
0.0
173
     0
291
     1
 45
0.0
  0
VISUALSTYLE
  5
2B
102
{ACAD_REACTORS
330
2A
102
}
330
2A
100
AcDbVisualStyle
  2
Flat
 70
     0
 71
     2
 72
     1
 73
     1
 90
        2
 40
-0.6
 41
30.0
 62
     5
 63
     7
421
 16777215
 74
     0
 91
        4
 64
     7
 65
   257
 75
     1
175
     1
 42
1.0
 92
        8
 66
     7
 43
1.0
 76
     1
 77
     6
 78
     2
 67
     7
 79
     5
170
     0
171
     0
290
     0
174
     0
 93
       13
 44
0.0
173
     0
291
     1
 45
0.0
  0
VISUALSTYLE
  5
2C
102
{ACAD_REACTORS
330
2A
102
}
330
2A
100
AcDbVisualStyle
  2
FlatWithEdges
 70
     1
 71
     2
 72
     1
 73
     1
 90
        2
 40
-0.6
 41
30.0
 62
     5
 63
     7
421
 16777215
 74
     1
 91
        4
 64
     7
 65
   257
 75
     1
175
     1
 42
1.0
 92
        0
 66
   257
 43
1.0
 76
     1
 77
     6
 78
     2
 67
     7
 79
     5
170
     0
171
     0
290
     0
174
     0
 93
       13
 44
0.0
173
     0
291
     1
 45
0.0
  0
VISUALSTYLE
  5
2D
102
{ACAD_REACTORS
330
2A
102
}
330
2A
100
AcDbVisualStyle
  2
Gouraud
 70
     2
 71
     2
 72
     2
 73
     1
 90
        2
 40
-0.6
 41
30.0
 62
     5
 63
     7
421
 16777215
 74
     0
 91
        4
 64
     7
 65
   257
 75
     1
175
     1
 42
1.0
 92
        0
 66
     7
 43
1.0
 76
     1
 77
     6
 78
     2
 67
     7
 79
     5
170
     0
171
     0
290
     0
174
     0
 93
       13
 44
0.0
173
     0
291
     1
 45
0.0
  0
VISUALSTYLE
  5
2E
102
{ACAD_REACTORS
330
2A
102
}
330
2A
100
AcDbVisualStyle
  2
GouraudWithEdges
 70
     3
 71
     2
 72
     2
 73
     1
 90
        2
 40
-0.6
 41
30.0
 62
     5
 63
     7
421
 16777215
 74
     1
 91
        4
 64
     7
 65
   257
 75
     1
175
     1
 42
1.0
 92
        0
 66
   257
 43
1.0
 76
     1
 77
     6
 78
     2
 67
     7
 79
     5
170
     0
171
     0
290
     0
174
     0
 93
       13
 44
0.0
173
     0
291
     1
 45
0.0
  0
VISUALSTYLE
  5
38
102
{ACAD_REACTORS
330
2A
102
}
330
2A
100
AcDbVisualStyle
  2
Linepattern
 70
    14
 71
     2
 72
     2
 73
     0
 90
        0
 40
-0.6
 41
-30.0
 62
     5
 63
     7
421
 16777215
 74
     1
 91
        4
 64
     7
 65
   257
 75
     7
175
     7
 42
1.0
 92
        8
 66
     7
 43
1.0
 76
     1
 77
     6
 78
     2
 67
     7
 79
     5
170
     0
171
     0
290
     0
174
     0
 93
        1
 44
0.0
173
     0
291
     1
 45
0.0
  0
VISUALSTYLE
  5
33
102
{ACAD_REACTORS
330
2A
102
}
330
2A
100
AcDbVisualStyle
  2
Realistic
 70
     8
 71
     2
 72
     2
 73
     0
 90
        0
 40
-0.6
 41
-30.0
 62
     5
 63
     7
421
 16777215
 74
     1
 91
        0
 64
     7
 65
   257
 75
     1
175
     1
 42
1.0
 92
        8
 66
     8
424
  7895160
 43
1.0
 76
     1
 77
     6
 78
     2
 67
     7
 79
     5
170
     0
171
     0
290
     0
174
     0
 93
       13
 44
0.0
173
     0
291
     0
 45
0.0
  0
VISUALSTYLE
  5
37
102
{ACAD_REACTORS
330
2A
102
}
330
2A
100
AcDbVisualStyle
  2
Thicken
 70
    13
 71
     2
 72
     2
 73
     0
 90
        0
 40
-0.6
 41
-30.0
 62
     5
 63
     7
421
 16777215
 74
     1
 91
        4
 64
     7
 65
   257
 75
     1
175
     1
 42
1.0
 92
       12
 66
     7
 43
1.0
 76
     1
 77
     6
 78
     2
 67
     7
 79
     5
170
     0
171
     0
290
     0
174
     0
 93
        1
 44
0.0
173
     0
291
     1
 45
0.0
  0
ENDSEC
  0
EOF
