  0
SECTION
  2
HEADER
  9
$ACADVER
  1
AC1015
  9
$ACADMAINTVER
 70
     6
  9
$DWGCODEPAGE
  3
ANSI_1252
  9
$INSBASE
 10
0.0
 20
0.0
 30
0.0
  9
$EXTMIN
 10
0.0
 20
0.0
 30
0.0
  9
$EXTMAX
 10
420.0
 20
297.0
 30
0.0
  9
$LIMMIN
 10
0.0
 20
0.0
  9
$LIMMAX
 10
420.0
 20
297.0
  9
$ORTHOMODE
 70
     0
  9
$REGENMODE
 70
     1
  9
$FILLMODE
 70
     1
  9
$QTEXTMODE
 70
     0
  9
$MIRRTEXT
 70
     1
  9
$LTSCALE
 40
1.0
  9
$ATTMODE
 70
     1
  9
$TEXTSIZE
 40
3.5
  9
$TRACEWID
 40
1.0
  9
$TEXTSTYLE
  7
Standard
  9
$CLAYER
  8
0
  9
$CELTYPE
  6
ByLayer
  9
$CECOLOR
 62
   256
  9
$CELTSCALE
 40
1.0
  9
$DISPSILH
 70
     0
  9
$DIMSCALE
 40
1.0
  9
$DIMASZ
 40
3.302
  9
$DIMEXO
 40
1.0
  9
$DIMDLI
 40
3.75
  9
$DIMRND
 40
0.0
  9
$DIMDLE
 40
0.0
  9
$DIMEXE
 40
1.0
  9
$DIMTP
 40
0.0
  9
$DIMTM
 40
0.0
  9
$DIMTXT
 40
3.5
  9
$DIMCEN
 40
2.5
  9
$DIMTSZ
 40
0.0
  9
$DIMTOL
 70
     0
  9
$DIMLIM
 70
     0
  9
$DIMTIH
 70
     1
  9
$DIMTOH
 70
     1
  9
$DIMSE1
 70
     0
  9
$DIMSE2
 70
     0
  9
$DIMTAD
 70
     1
  9
$DIMZIN
 70
     0
  9
$DIMBLK
  1

  9
$DIMASO
 70
     1
  9
$DIMSHO
 70
     1
  9
$DIMPOST
  1

  9
$DIMAPOST
  1

  9
$DIMALT
 70
     0
  9
$DIMALTD
 70
     3
  9
$DIMALTF
 40
0.0393700787
  9
$DIMLFAC
 40
15.0
  9
$DIMTOFL
 70
     1
  9
$DIMTVP
 40
0.0
  9
$DIMTIX
 70
     0
  9
$DIMSOXD
 70
     0
  9
$DIMSAH
 70
     0
  9
$DIMBLK1
  1

  9
$DIMBLK2
  1

  9
$DIMSTYLE
  2
ISO-25
  9
$DIMCLRD
 70
     0
  9
$DIMCLRE
 70
     0
  9
$DIMCLRT
 70
     0
  9
$DIMTFAC
 40
1.0
  9
$DIMGAP
 40
1.524
  9
$DIMJUST
 70
     0
  9
$DIMSD1
 70
     0
  9
$DIMSD2
 70
     0
  9
$DIMTOLJ
 70
     0
  9
$DIMTZIN
 70
     0
  9
$DIMALTZ
 70
     0
  9
$DIMALTTZ
 70
     0
  9
$DIMUPT
 70
     0
  9
$DIMDEC
 70
     1
  9
$DIMTDEC
 70
     1
  9
$DIMALTU
 70
     2
  9
$DIMALTTD
 70
     3
  9
$DIMTXSTY
  7
Standard
  9
$DIMAUNIT
 70
     0
  9
$DIMADEC
 70
     1
  9
$DIMALTRND
 40
0.0
  9
$DIMAZIN
 70
     0
  9
$DIMDSEP
 70
    44
  9
$DIMATFIT
 70
     3
  9
$DIMFRAC
 70
     0
  9
$DIMLDRBLK
  1

  9
$DIMLUNIT
 70
     2
  9
$DIMLWD
 70
    -2
  9
$DIMLWE
 70
    -2
  9
$DIMTMOVE
 70
     0
  9
$LUNITS
 70
     2
  9
$LUPREC
 70
     1
  9
$SKETCHINC
 40
1.0
  9
$FILLETRAD
 40
10.0
  9
$AUNITS
 70
     0
  9
$AUPREC
 70
     1
  9
$MENU
  1
.
  9
$ELEVATION
 40
0.0
  9
$PELEVATION
 40
0.0
  9
$THICKNESS
 40
0.0
  9
$LIMCHECK
 70
     0
  9
$CHAMFERA
 40
10.0
  9
$CHAMFERB
 40
10.0
  9
$CHAMFERC
 40
20.0
  9
$CHAMFERD
 40
0.0
  9
$SKPOLY
 70
     0
  9
$TDCREATE
 40
2455901.380677732
  9
$TDUCREATE
 40
2455901.380677732
  9
$TDUPDATE
 40
2455901.380677743
  9
$TDUUPDATE
 40
2455901.380677743
  9
$TDINDWG
 40
0.0000000116
  9
$TDUSRTIMER
 40
0.0000000116
  9
$USRTIMER
 70
     1
  9
$ANGBASE
 50
0.0
  9
$ANGDIR
 70
     0
  9
$PDMODE
 70
     0
  9
$PDSIZE
 40
-1.0
  9
$PLINEWID
 40
0.0
  9
$SPLFRAME
 70
     0
  9
$SPLINETYPE
 70
     6
  9
$SPLINESEGS
 70
     8
  9
$HANDSEED
  5
4D7
  9
$SURFTAB1
 70
     6
  9
$SURFTAB2
 70
     6
  9
$SURFTYPE
 70
     6
  9
$SURFU
 70
     6
  9
$SURFV
 70
     6
  9
$UCSBASE
  2

  9
$UCSNAME
  2

  9
$UCSORG
 10
0.0
 20
0.0
 30
0.0
  9
$UCSXDIR
 10
1.0
 20
0.0
 30
0.0
  9
$UCSYDIR
 10
0.0
 20
1.0
 30
0.0
  9
$UCSORTHOREF
  2

  9
$UCSORTHOVIEW
 70
     0
  9
$UCSORGTOP
 10
0.0
 20
0.0
 30
0.0
  9
$UCSORGBOTTOM
 10
0.0
 20
0.0
 30
0.0
  9
$UCSORGLEFT
 10
0.0
 20
0.0
 30
0.0
  9
$UCSORGRIGHT
 10
0.0
 20
0.0
 30
0.0
  9
$UCSORGFRONT
 10
0.0
 20
0.0
 30
0.0
  9
$UCSORGBACK
 10
0.0
 20
0.0
 30
0.0
  9
$PUCSBASE
  2

  9
$PUCSNAME
  2

  9
$PUCSORG
 10
0.0
 20
0.0
 30
0.0
  9
$PUCSXDIR
 10
1.0
 20
0.0
 30
0.0
  9
$PUCSYDIR
 10
0.0
 20
1.0
 30
0.0
  9
$PUCSORTHOREF
  2

  9
$PUCSORTHOVIEW
 70
     0
  9
$PUCSORGTOP
 10
0.0
 20
0.0
 30
0.0
  9
$PUCSORGBOTTOM
 10
0.0
 20
0.0
 30
0.0
  9
$PUCSORGLEFT
 10
0.0
 20
0.0
 30
0.0
  9
$PUCSORGRIGHT
 10
0.0
 20
0.0
 30
0.0
  9
$PUCSORGFRONT
 10
0.0
 20
0.0
 30
0.0
  9
$PUCSORGBACK
 10
0.0
 20
0.0
 30
0.0
  9
$USERI1
 70
     0
  9
$USERI2
 70
     0
  9
$USERI3
 70
     0
  9
$USERI4
 70
     0
  9
$USERI5
 70
     0
  9
$USERR1
 40
0.0
  9
$USERR2
 40
0.0
  9
$USERR3
 40
0.0
  9
$USERR4
 40
0.0
  9
$USERR5
 40
0.0
  9
$WORLDVIEW
 70
     1
  9
$SHADEDGE
 70
     3
  9
$SHADEDIF
 70
    70
  9
$TILEMODE
 70
     1
  9
$MAXACTVP
 70
    64
  9
$PINSBASE
 10
0.0
 20
0.0
 30
0.0
  9
$PLIMCHECK
 70
     0
  9
$PEXTMIN
 10
1.0000000000E+20
 20
1.0000000000E+20
 30
1.0000000000E+20
  9
$PEXTMAX
 10
-1.0000000000E+20
 20
-1.0000000000E+20
 30
-1.0000000000E+20
  9
$PLIMMIN
 10
0.0
 20
0.0
  9
$PLIMMAX
 10
420.0
 20
297.0
  9
$UNITMODE
 70
     0
  9
$VISRETAIN
 70
     1
  9
$PLINEGEN
 70
     0
  9
$PSLTSCALE
 70
     1
  9
$TREEDEPTH
 70
  3020
  9
$CMLSTYLE
  2
Standard
  9
$CMLJUST
 70
     0
  9
$CMLSCALE
 40
20.0
  9
$PROXYGRAPHICS
 70
     1
  9
$MEASUREMENT
 70
     1
  9
$CELWEIGHT
370
    -1
  9
$ENDCAPS
280
     0
  9
$JOINSTYLE
280
     0
  9
$LWDISPLAY
290
     1
  9
$INSUNITS
 70
     4
  9
$HYPERLINKBASE
  1

  9
$STYLESHEET
  1

  9
$XEDIT
290
     1
  9
$CEPSNTYPE
380
     0
  9
$PSTYLEMODE
290
     1
  9
$FINGERPRINTGUID
  2
{777CAF93-BD9F-42D2-A9D1-89D3C0F451A0}
  9
$VERSIONGUID
  2
{FAEB1C32-E019-11D5-929B-00C0DF256EC4}
  9
$EXTNAMES
290
     1
  9
$PSVPSCALE
 40
0.0
  9
$OLESTARTUP
290
     0
  0
ENDSEC
  0
SECTION
  2
CLASSES
  0
CLASS
  1
ACDBDICTIONARYWDFLT
  2
AcDbDictionaryWithDefault
  3
ObjectDBX Classes
 90
        0
280
     0
281
     0
  0
CLASS
  1
VISUALSTYLE
  2
AcDbVisualStyle
  3
ObjectDBX Classes
 90
     4095
280
     0
281
     0
  0
CLASS
  1
MATERIAL
  2
AcDbMaterial
  3
ObjectDBX Classes
 90
     1153
280
     0
281
     0
  0
CLASS
  1
ACDBPLACEHOLDER
  2
AcDbPlaceHolder
  3
ObjectDBX Classes
 90
        0
280
     0
281
     0
  0
CLASS
  1
LAYOUT
  2
AcDbLayout
  3
ObjectDBX Classes
 90
        0
280
     0
281
     0
  0
ENDSEC
  0
SECTION
  2
TABLES
  0
TABLE
  2
VPORT
  5
8
330
0
100
AcDbSymbolTable
 70
     1
  0
VPORT
  5
29
330
8
100
AcDbSymbolTableRecord
100
AcDbViewportTableRecord
  2
*Active
 70
     0
 10
0.0
 20
0.0
 11
1.0
 21
1.0
 12
210.0
 22
148.5
 13
0.0
 23
0.0
 14
10.0
 24
10.0
 15
10.0
 25
10.0
 16
0.0
 26
0.0
 36
1.0
 17
0.0
 27
0.0
 37
0.0
 40
297.0
 41
1.4141414141
 42
50.0
 43
0.0
 44
0.0
 50
0.0
 51
0.0
 71
     0
 72
  2000
 73
     1
 74
     3
 75
     0
 76
     0
 77
     0
 78
     0
281
     0
 65
     1
110
0.0
120
0.0
130
0.0
111
1.0
121
0.0
131
0.0
112
0.0
122
1.0
132
0.0
 79
     0
146
0.0
  0
ENDTAB
  0
TABLE
  2
LTYPE
  5
5
330
0
100
AcDbSymbolTable
 70
     6
  0
LTYPE
  5
14
330
5
100
AcDbSymbolTableRecord
100
AcDbLinetypeTableRecord
  2
ByBlock
 70
     0
  3

 72
    65
 73
     0
 40
0.0
  0
LTYPE
  5
15
330
5
100
AcDbSymbolTableRecord
100
AcDbLinetypeTableRecord
  2
ByLayer
 70
     0
  3

 72
    65
 73
     0
 40
0.0
  0
LTYPE
  5
16
330
5
100
AcDbSymbolTableRecord
100
AcDbLinetypeTableRecord
  2
Continuous
 70
     0
  3
Solid line
 72
    65
 73
     0
 40
0.0
  0
LTYPE
  5
3F
330
5
100
AcDbSymbolTableRecord
100
AcDbLinetypeTableRecord
  2
HIDDEN
 70
     0
  3
Hidden __ __ __ __ __ __ __ __ __ __ __ __ __ __
 72
    65
 73
     2
 40
1.905
 49
1.27
 74
     0
 49
-0.635
 74
     0
  0
LTYPE
  5
40
330
5
100
AcDbSymbolTableRecord
100
AcDbLinetypeTableRecord
  2
PHANTOM
 70
     0
  3
Phantom ______  __  __  ______  __  __  ______
 72
    65
 73
     6
 40
12.7
 49
6.35
 74
     0
 49
-1.27
 74
     0
 49
1.27
 74
     0
 49
-1.27
 74
     0
 49
1.27
 74
     0
 49
-1.27
 74
     0
  0
LTYPE
  5
41
330
5
100
AcDbSymbolTableRecord
100
AcDbLinetypeTableRecord
  2
CENTER
 70
     0
  3
Center ____ _ ____ _ ____ _ ____ _ ____ _ ____
 72
    65
 73
     4
 40
10.16
 49
6.35
 74
     0
 49
-1.27
 74
     0
 49
1.27
 74
     0
 49
-1.27
 74
     0
  0
LTYPE
  5
42
330
5
100
AcDbSymbolTableRecord
100
AcDbLinetypeTableRecord
  2
CENTERX2
 70
     0
  3
Center (2x) ________  __  ________  __  _____
 72
    65
 73
     4
 40
20.32
 49
12.7
 74
     0
 49
-2.54
 74
     0
 49
2.54
 74
     0
 49
-2.54
 74
     0
  0
LTYPE
  5
43
330
5
100
AcDbSymbolTableRecord
100
AcDbLinetypeTableRecord
  2
DOT2
 70
     0
  3
Dot (.5x) ........................................
 72
    65
 73
     2
 40
0.635
 49
0.0
 74
     0
 49
-0.635
 74
     0
  0
ENDTAB
  0
TABLE
  2
LAYER
  5
2
330
0
100
AcDbSymbolTable
 70
     4
  0
LAYER
  5
10
330
2
100
AcDbSymbolTableRecord
100
AcDbLayerTableRecord
  2
0
 70
     0
 62
     7
  6
Continuous
370
    -3
390
F
  0
LAYER
  5
44
330
2
100
AcDbSymbolTableRecord
100
AcDbLayerTableRecord
  2
FORMAT
 70
     0
 62
     7
  6
Continuous
370
    -3
390
F
  0
LAYER
  5
45
330
2
100
AcDbSymbolTableRecord
100
AcDbLayerTableRecord
  2
SLD-0
 70
     0
 62
     1
  6
Continuous
370
    -3
390
F
  0
LAYER
  5
46
330
2
100
AcDbSymbolTableRecord
100
AcDbLayerTableRecord
  2
WATERMARK
 70
     0
 62
    20
  6
Continuous
370
    -3
390
F
  0
ENDTAB
  0
TABLE
  2
STYLE
  5
3
330
0
100
AcDbSymbolTable
 70
     1
  0
STYLE
  5
11
330
3
100
AcDbSymbolTableRecord
100
AcDbTextStyleTableRecord
  2
Standard
 70
     0
 40
0.0
 41
1.0
 50
0.0
 71
     0
 42
2.5
  3
txt
  4

  0
ENDTAB
  0
TABLE
  2
VIEW
  5
6
330
0
100
AcDbSymbolTable
 70
     0
  0
ENDTAB
  0
TABLE
  2
UCS
  5
7
330
0
100
AcDbSymbolTable
 70
     0
  0
ENDTAB
  0
TABLE
  2
APPID
  5
9
330
0
100
AcDbSymbolTable
 70
     1
  0
APPID
  5
12
330
9
100
AcDbSymbolTableRecord
100
AcDbRegAppTableRecord
  2
ACAD
 70
     0
  0
ENDTAB
  0
TABLE
  2
DIMSTYLE
  5
A
330
0
100
AcDbSymbolTable
 70
     1
100
AcDbDimStyleTable
  0
DIMSTYLE
105
27
330
A
100
AcDbSymbolTableRecord
100
AcDbDimStyleTableRecord
  2
ISO-25
 70
     0
 41
2.5
 42
0.625
 43
3.75
 44
1.25
 73
     0
 74
     0
 77
     1
 78
     8
140
2.5
141
2.5
143
0.0393700787
147
0.625
171
     3
172
     1
178
     0
271
     2
272
     2
274
     3
278
    44
283
     0
284
     8
340
11
  0
ENDTAB
  0
TABLE
  2
BLOCK_RECORD
  5
1
330
0
100
AcDbSymbolTable
 70
     1
  0
BLOCK_RECORD
  5
1F
330
1
100
AcDbSymbolTableRecord
100
AcDbBlockTableRecord
  2
*Model_Space
340
22
  0
BLOCK_RECORD
  5
1B
330
1
100
AcDbSymbolTableRecord
100
AcDbBlockTableRecord
  2
*Paper_Space
340
1E
  0
BLOCK_RECORD
  5
23
330
1
100
AcDbSymbolTableRecord
100
AcDbBlockTableRecord
  2
*Paper_Space0
340
26
  0
ENDTAB
  0
ENDSEC
  0
SECTION
  2
BLOCKS
  0
BLOCK
  5
20
330
1F
100
AcDbEntity
  8
0
100
AcDbBlockBegin
  2
*Model_Space
 70
     0
 10
0.0
 20
0.0
 30
0.0
  3
*Model_Space
  1

  0
ENDBLK
  5
21
330
1F
100
AcDbEntity
  8
0
100
AcDbBlockEnd
  0
BLOCK
  5
1C
330
1B
100
AcDbEntity
 67
     1
  8
0
100
AcDbBlockBegin
  2
*Paper_Space
 70
     0
 10
0.0
 20
0.0
 30
0.0
  3
*Paper_Space
  1

  0
ENDBLK
  5
1D
330
1B
100
AcDbEntity
 67
     1
  8
0
100
AcDbBlockEnd
  0
BLOCK
  5
24
330
23
100
AcDbEntity
  8
0
100
AcDbBlockBegin
  2
*Paper_Space0
 70
     0
 10
0.0
 20
0.0
 30
0.0
  3
*Paper_Space0
  1

  0
ENDBLK
  5
25
330
23
100
AcDbEntity
  8
0
100
AcDbBlockEnd
  0
ENDSEC
  0
SECTION
  2
ENTITIES
  0
ARC
  5
47
330
1F
100
AcDbEntity
  8
0
  6
Continuous
 62
     7
370
    15
100
AcDbCircle
 10
128.1536340764
 20
151.4906876652
 30
0.0
 40
0.0666666666666989
100
AcDbArc
 50
0.0
 51
84.0575267544
  0
ARC
  5
48
330
1F
100
AcDbEntity
  8
0
  6
Continuous
 62
     7
370
    15
100
AcDbCircle
 10
125.1203007431
 20
151.4906876652
 30
0.0
 40
0.0666666666666975
100
AcDbArc
 50
95.9424732455
 51
180.0
  0
ARC
  5
49
330
1F
100
AcDbEntity
  8
0
  6
Continuous
 62
     7
370
    15
100
AcDbCircle
 10
128.1536340764
 20
151.0107752298
 30
0.0
 40
0.0666666666666629
100
AcDbArc
 50
270.0
 51
0.0
  0
ARC
  5
4A
330
1F
100
AcDbEntity
  8
0
  6
Continuous
 62
     7
370
    15
100
AcDbCircle
 10
125.1203007431
 20
151.0107752298
 30
0.0
 40
0.0666666666666629
100
AcDbArc
 50
180.0
 51
270.0
  0
LINE
  5
4B
330
1F
100
AcDbEntity
  8
0
  6
Continuous
 62
     7
370
    15
100
AcDbLine
 10
128.2203007431
 20
151.0107752298
 30
0.0
 11
128.2203007431
 21
151.4906876652
 31
0.0
  0
LINE
  5
4C
330
1F
100
AcDbEntity
  8
0
  6
Continuous
 62
     7
370
    15
100
AcDbLine
 10
125.0536340764
 20
151.4906876652
 30
0.0
 11
125.0536340764
 21
151.0107752298
 31
0.0
  0
LINE
  5
4D
330
1F
100
AcDbEntity
  8
0
  6
Continuous
 62
     7
370
    15
100
AcDbLine
 10
128.1605360684
 20
151.5569960881
 30
0.0
 11
127.3236340764
 21
151.6441085631
 31
0.0
  0
LINE
  5
4E
330
1F
100
AcDbEntity
  8
0
  6
Continuous
 62
     7
370
    15
100
AcDbLine
 10
125.9503007431
 20
151.6441085631
 30
0.0
 11
125.1133987511
 21
151.5569960881
 31
0.0
  0
LINE
  5
4F
330
1F
100
AcDbEntity
  8
0
  6
Continuous
 62
     7
370
    15
100
AcDbLine
 10
127.0369674097
 20
151.9107752298
 30
0.0
 11
127.0369674097
 21
154.2274418964
 31
0.0
  0
LINE
  5
50
330
1F
100
AcDbEntity
  8
0
  6
Continuous
 62
     7
370
    15
100
AcDbLine
 10
126.2369674097
 20
154.2274418964
 30
0.0
 11
126.2369674097
 21
151.9107752298
 31
0.0
  0
ARC
  5
51
330
1F
100
AcDbEntity
  8
0
  6
Continuous
 62
     7
370
    15
100
AcDbCircle
 10
95.1536340764
 20
151.0107752298
 30
0.0
 40
0.0666666666666771
100
AcDbArc
 50
270.0
 51
0.0
  0
ARC
  5
52
330
1F
100
AcDbEntity
  8
0
  6
Continuous
 62
     7
370
    15
100
AcDbCircle
 10
92.1203007431
 20
151.0107752298
 30
0.0
 40
0.0666666666666771
100
AcDbArc
 50
180.0
 51
270.0
  0
LINE
  5
53
330
1F
100
AcDbEntity
  8
0
  6
Continuous
 62
     7
370
    15
100
AcDbLine
 10
95.2203007431
 20
151.0107752298
 30
0.0
 11
95.2203007431
 21
151.4906876652
 31
0.0
  0
LINE
  5
54
330
1F
100
AcDbEntity
  8
0
  6
Continuous
 62
     7
370
    15
100
AcDbLine
 10
92.0536340764
 20
151.4906876652
 30
0.0
 11
92.0536340764
 21
151.0107752298
 31
0.0
  0
ARC
  5
55
330
1F
100
AcDbEntity
  8
0
  6
Continuous
 62
     7
370
    15
100
AcDbCircle
 10
95.1536340764
 20
151.4906876652
 30
0.0
 40
0.0666666666666989
100
AcDbArc
 50
0.0
 51
84.0575267544
  0
ARC
  5
56
330
1F
100
AcDbEntity
  8
0
  6
Continuous
 62
     7
370
    15
100
AcDbCircle
 10
92.1203007431
 20
151.4906876652
 30
0.0
 40
0.0666666666666989
100
AcDbArc
 50
95.9424732456
 51
180.0
  0
LINE
  5
57
330
1F
100
AcDbEntity
  8
0
  6
Continuous
 62
     7
370
    15
100
AcDbLine
 10
95.1605360684
 20
151.5569960881
 30
0.0
 11
94.3236340764
 21
151.6441085631
 31
0.0
  0
LINE
  5
58
330
1F
100
AcDbEntity
  8
0
  6
Continuous
 62
     7
370
    15
100
AcDbLine
 10
92.9503007431
 20
151.6441085631
 30
0.0
 11
92.1133987511
 21
151.5569960881
 31
0.0
  0
LINE
  5
59
330
1F
100
AcDbEntity
  8
0
  6
Continuous
 62
     7
370
    15
100
AcDbLine
 10
94.0369674097
 20
151.9107752298
 30
0.0
 11
94.0369674097
 21
154.2274418964
 31
0.0
  0
LINE
  5
5A
330
1F
100
AcDbEntity
  8
0
  6
Continuous
 62
     7
370
    15
100
AcDbLine
 10
93.2369674097
 20
154.2274418964
 30
0.0
 11
93.2369674097
 21
151.9107752298
 31
0.0
  0
ARC
  5
5B
330
1F
100
AcDbEntity
  8
0
  6
Continuous
 62
     7
370
    15
100
AcDbCircle
 10
118.8344687722
 20
222.7537230296
 30
0.0
 40
6.069165304237528
100
AcDbArc
 50
352.2201603022
 51
0.0350609372
  0
ARC
  5
5C
330
1F
100
AcDbEntity
  8
0
  6
Continuous
 62
     7
370
    15
100
AcDbCircle
 10
124.814744124
 20
221.9366708295
 30
0.0
 40
0.0333333333333411
100
AcDbArc
 50
270.0
 51
352.2201603022
  0
ARC
  5
5D
330
1F
100
AcDbEntity
  8
0
  6
Continuous
 62
     7
370
    15
100
AcDbCircle
 10
118.8344687722
 20
222.7611607633
 30
0.0
 40
6.069165304237504
100
AcDbArc
 50
352.2201603022
 51
0.0
  0
ARC
  5
5E
330
1F
100
AcDbEntity
  8
0
  6
Continuous
 62
     7
370
    15
100
AcDbCircle
 10
118.8344687722
 20
222.7611607633
 30
0.0
 40
6.069165304237512
100
AcDbArc
 50
0.0
 51
7.7798396978
  0
ARC
  5
5F
330
1F
100
AcDbEntity
  8
0
  6
Continuous
 62
     7
370
    15
100
AcDbCircle
 10
124.814744124
 20
223.5782129634
 30
0.0
 40
0.0333333333333411
100
AcDbArc
 50
7.7798396978
 51
90.0
  0
ARC
  5
60
330
1F
100
AcDbEntity
  8
0
  6
Continuous
 62
     7
370
    15
100
AcDbCircle
 10
124.814744124
 20
221.9441085631
 30
0.0
 40
0.0333333333333314
100
AcDbArc
 50
270.0
 51
352.2201603022
  0
ARC
  5
61
330
1F
100
AcDbEntity
  8
0
  6
Continuous
 62
     7
370
    15
100
AcDbCircle
 10
124.1678021055
 20
155.7611607633
 30
0.0
 40
6.069165304237503
100
AcDbArc
 50
352.2201603022
 51
7.7798396978
  0
ARC
  5
62
330
1F
100
AcDbEntity
  8
0
  6
Continuous
 62
     7
370
    15
100
AcDbCircle
 10
130.1480774573
 20
156.5782129634
 30
0.0
 40
0.0333333333333599
100
AcDbArc
 50
7.7798396978
 51
90.0
  0
ARC
  5
63
330
1F
100
AcDbEntity
  8
0
  6
Continuous
 62
     7
370
    15
100
AcDbCircle
 10
130.1480774573
 20
154.9441085631
 30
0.0
 40
0.0333333333333314
100
AcDbArc
 50
270.0
 51
352.2201603022
  0
ARC
  5
64
330
1F
100
AcDbEntity
  8
0
  6
Continuous
 62
     7
370
    15
100
AcDbCircle
 10
96.106132714
 20
155.7611607633
 30
0.0
 40
6.069165304237519
100
AcDbArc
 50
172.2201603022
 51
187.7798396978
  0
ARC
  5
65
330
1F
100
AcDbEntity
  8
0
  6
Continuous
 62
     7
370
    15
100
AcDbCircle
 10
90.1258573622
 20
156.5782129634
 30
0.0
 40
0.0333333333333373
100
AcDbArc
 50
90.0
 51
172.2201603022
  0
ARC
  5
66
330
1F
100
AcDbEntity
  8
0
  6
Continuous
 62
     7
370
    15
100
AcDbCircle
 10
90.1258573622
 20
154.9441085631
 30
0.0
 40
0.0333333333333314
100
AcDbArc
 50
187.7798396978
 51
270.0
  0
ARC
  5
67
330
1F
100
AcDbEntity
  8
0
  6
Continuous
 62
     7
370
    15
100
AcDbCircle
 10
96.106132714
 20
155.7537230296
 30
0.0
 40
6.069165304237498
100
AcDbArc
 50
179.9648839349
 51
187.7798396978
  0
ARC
  5
68
330
1F
100
AcDbEntity
  8
0
  6
Continuous
 62
     7
370
    15
100
AcDbCircle
 10
90.1258573622
 20
154.9366708295
 30
0.0
 40
0.0333333333333599
100
AcDbArc
 50
187.7798396978
 51
270.0
  0
LINE
  5
69
330
1F
100
AcDbEntity
  8
0
  6
Continuous
 62
     7
370
    15
100
AcDbLine
 10
125.7903007431
 20
154.9107752298
 30
0.0
 11
125.7903007431
 21
154.2941085631
 31
0.0
  0
LINE
  5
6A
330
1F
100
AcDbEntity
  8
0
  6
Continuous
 62
     7
370
    15
100
AcDbLine
 10
127.4836340764
 20
154.2941085631
 30
0.0
 11
127.4836340764
 21
154.9107752298
 31
0.0
  0
LINE
  5
6B
330
1F
100
AcDbEntity
  8
0
  6
Continuous
 62
     7
370
    15
100
AcDbLine
 10
125.7903007431
 20
154.2941085631
 30
0.0
 11
125.8569674097
 21
154.2274418964
 31
0.0
  0
LINE
  5
6C
330
1F
100
AcDbEntity
  8
0
  6
Continuous
 62
     7
370
    15
100
AcDbLine
 10
127.4169674097
 20
154.2274418964
 30
0.0
 11
127.4836340764
 21
154.2941085631
 31
0.0
  0
LINE
  5
6D
330
1F
100
AcDbEntity
  8
0
  6
Continuous
 62
     7
370
    15
100
AcDbLine
 10
92.7903007431
 20
154.9107752298
 30
0.0
 11
92.7903007431
 21
154.2941085631
 31
0.0
  0
LINE
  5
6E
330
1F
100
AcDbEntity
  8
0
  6
Continuous
 62
     7
370
    15
100
AcDbLine
 10
94.4836340764
 20
154.2941085631
 30
0.0
 11
94.4836340764
 21
154.9107752298
 31
0.0
  0
LINE
  5
6F
330
1F
100
AcDbEntity
  8
0
  6
Continuous
 62
     7
370
    15
100
AcDbLine
 10
92.7903007431
 20
154.2941085631
 30
0.0
 11
92.8569674097
 21
154.2274418964
 31
0.0
  0
LINE
  5
70
330
1F
100
AcDbEntity
  8
0
  6
Continuous
 62
     7
370
    15
100
AcDbLine
 10
94.4169674097
 20
154.2274418964
 30
0.0
 11
94.4836340764
 21
154.2941085631
 31
0.0
  0
LINE
  5
71
330
1F
100
AcDbEntity
  8
0
  6
Continuous
 62
     7
370
    15
100
AcDbLine
 10
128.5834738651
 20
234.6981289813
 30
0.0
 11
128.8569674098
 21
234.6981289813
 31
0.0
  0
LINE
  5
72
330
1F
100
AcDbEntity
  8
0
  6
Continuous
 62
     7
370
    15
100
AcDbLine
 10
128.9903007431
 20
235.2314623146
 30
0.0
 11
128.5834738651
 21
235.2314623146
 31
0.0
  0
LINE
  5
73
330
1F
100
AcDbEntity
  8
0
  6
Continuous
 62
     7
370
    15
100
AcDbLine
 10
129.1450569492
 20
237.0695598322
 30
0.0
 11
128.9903007431
 21
237.1314623146
 31
0.0
  0
LINE
  5
74
330
1F
100
AcDbEntity
  8
0
  6
Continuous
 62
     7
370
    15
100
AcDbLine
 10
129.6569674098
 20
236.864795648
 30
0.0
 11
129.4545390885
 21
236.9457669764
 31
0.0
  0
LINE
  5
75
330
1F
100
AcDbEntity
  8
0
  6
Continuous
 62
     7
370
    15
100
AcDbLine
 10
130.6751380246
 20
233.5229724246
 30
0.0
 11
130.9509917216
 21
233.6471065883
 31
0.0
  0
LINE
  5
76
330
1F
100
AcDbEntity
  8
0
  6
Continuous
 62
     7
370
    15
100
AcDbLine
 10
129.6873647933
 20
236.8511168254
 30
0.0
 11
129.6569674098
 21
236.864795648
 31
0.0
  0
ARC
  5
77
330
1F
100
AcDbEntity
  8
0
  6
Continuous
 62
     7
370
    15
100
AcDbCircle
 10
130.9236340764
 20
233.7079013553
 30
0.0
 40
0.0666666666666699
100
AcDbArc
 50
294.2277453179
 51
360.0
  0
LINE
  5
78
330
1F
100
AcDbEntity
  8
0
  6
Continuous
 62
     7
370
    15
100
AcDbLine
 10
128.8569674098
 20
234.4906749962
 30
0.0
 11
128.9903007431
 21
234.4883476542
 31
0.0
  0
LINE
  5
79
330
1F
100
AcDbEntity
  8
0
  6
Continuous
 62
     7
370
    15
100
AcDbLine
 10
129.4549621302
 20
236.9463157817
 30
0.0
 11
129.1451319098
 21
237.0702478699
 31
0.0
  0
LINE
  5
7A
330
1F
100
AcDbEntity
  8
0
  6
Continuous
 62
     7
370
    15
100
AcDbLine
 10
90.8482340764
 20
227.8070977979
 30
0.0
 11
90.8102047451
 21
227.7556681989
 31
0.0
  0
LINE
  5
7B
330
1F
100
AcDbEntity
  8
0
  6
Continuous
 62
     7
370
    15
100
AcDbLine
 10
90.8102047451
 20
226.1918607302
 30
0.0
 11
90.8482340764
 21
226.1404311312
 31
0.0
  0
LINE
  5
7C
330
1F
100
AcDbEntity
  8
0
  6
Continuous
 62
     7
370
    15
100
AcDbLine
 10
90.8102047451
 20
227.7556681989
 30
0.0
 11
90.7595007431
 21
227.7556681989
 31
0.0
  0
LINE
  5
7D
330
1F
100
AcDbEntity
  8
0
  6
Continuous
 62
     7
370
    15
100
AcDbLine
 10
90.7595007431
 20
226.1918607302
 30
0.0
 11
90.8102047451
 21
226.1918607302
 31
0.0
  0
LINE
  5
7E
330
1F
100
AcDbEntity
  8
0
  6
Continuous
 62
     7
370
    15
100
AcDbLine
 10
90.5176340764
 20
227.6870977979
 30
0.0
 11
90.4571674097
 21
227.5937644646
 31
0.0
  0
LINE
  5
7F
330
1F
100
AcDbEntity
  8
0
  6
Continuous
 62
     7
370
    15
100
AcDbLine
 10
90.4571674097
 20
226.3537644646
 30
0.0
 11
90.5176340764
 21
226.2604311312
 31
0.0
  0
LINE
  5
80
330
1F
100
AcDbEntity
  8
0
  6
Continuous
 62
     7
370
    15
100
AcDbLine
 10
90.5176340764
 20
226.2604311312
 30
0.0
 11
90.5781007431
 21
226.3537644646
 31
0.0
  0
LINE
  5
81
330
1F
100
AcDbEntity
  8
0
  6
Continuous
 62
     7
370
    15
100
AcDbLine
 10
90.5781007431
 20
227.5937644646
 30
0.0
 11
90.5176340764
 21
227.6870977979
 31
0.0
  0
LINE
  5
82
330
1F
100
AcDbEntity
  8
0
  6
Continuous
 62
     7
370
    15
100
AcDbLine
 10
90.6385674097
 20
226.2604311312
 30
0.0
 11
90.6990340764
 21
226.3537644646
 31
0.0
  0
LINE
  5
83
330
1F
100
AcDbEntity
  8
0
  6
Continuous
 62
     7
370
    15
100
AcDbLine
 10
90.6990340764
 20
227.5937644646
 30
0.0
 11
90.6385674097
 21
227.6870977979
 31
0.0
  0
LINE
  5
84
330
1F
100
AcDbEntity
  8
0
  6
Continuous
 62
     7
370
    15
100
AcDbLine
 10
90.6385674097
 20
227.6870977979
 30
0.0
 11
90.5781007431
 21
227.5937644646
 31
0.0
  0
LINE
  5
85
330
1F
100
AcDbEntity
  8
0
  6
Continuous
 62
     7
370
    15
100
AcDbLine
 10
90.5781007431
 20
226.3537644646
 30
0.0
 11
90.6385674097
 21
226.2604311312
 31
0.0
  0
LINE
  5
86
330
1F
100
AcDbEntity
  8
0
  6
Continuous
 62
     7
370
    15
100
AcDbLine
 10
90.7595007431
 20
227.6870977979
 30
0.0
 11
90.6990340764
 21
227.5937644646
 31
0.0
  0
LINE
  5
87
330
1F
100
AcDbEntity
  8
0
  6
Continuous
 62
     7
370
    15
100
AcDbLine
 10
90.6990340764
 20
226.3537644646
 30
0.0
 11
90.7595007431
 21
226.2604311312
 31
0.0
  0
LINE
  5
88
330
1F
100
AcDbEntity
  8
0
  6
Continuous
 62
     7
370
    15
100
AcDbLine
 10
90.3967007431
 20
226.2710114269
 30
0.0
 11
90.4571674097
 21
226.3537644646
 31
0.0
  0
LINE
  5
89
330
1F
100
AcDbEntity
  8
0
  6
Continuous
 62
     7
370
    15
100
AcDbLine
 10
90.4571674097
 20
227.5937644646
 30
0.0
 11
90.3967007431
 21
227.6765175022
 31
0.0
  0
LINE
  5
8A
330
1F
100
AcDbEntity
  8
0
  6
Continuous
 62
     7
370
    15
100
AcDbLine
 10
90.3967007431
 20
227.6765175022
 30
0.0
 11
90.3362340764
 21
227.5775375028
 31
0.0
  0
LINE
  5
8B
330
1F
100
AcDbEntity
  8
0
  6
Continuous
 62
     7
370
    15
100
AcDbLine
 10
90.3362340764
 20
226.3699914263
 30
0.0
 11
90.3967007431
 21
226.2710114269
 31
0.0
  0
LINE
  5
8C
330
1F
100
AcDbEntity
  8
0
  6
Continuous
 62
     7
370
    15
100
AcDbLine
 10
90.2757674097
 20
226.2815917226
 30
0.0
 11
90.3362340764
 21
226.3699914263
 31
0.0
  0
LINE
  5
8D
330
1F
100
AcDbEntity
  8
0
  6
Continuous
 62
     7
370
    15
100
AcDbLine
 10
90.3362340764
 20
227.5775375028
 30
0.0
 11
90.2757674097
 21
227.6659372065
 31
0.0
  0
LINE
  5
8E
330
1F
100
AcDbEntity
  8
0
  6
Continuous
 62
     7
370
    15
100
AcDbLine
 10
90.2757674097
 20
227.6659372065
 30
0.0
 11
90.2153007431
 21
227.5669572071
 31
0.0
  0
LINE
  5
8F
330
1F
100
AcDbEntity
  8
0
  6
Continuous
 62
     7
370
    15
100
AcDbLine
 10
90.2153007431
 20
226.380571722
 30
0.0
 11
90.2757674097
 21
226.2815917226
 31
0.0
  0
LINE
  5
90
330
1F
100
AcDbEntity
  8
0
  6
Continuous
 62
     7
370
    15
100
AcDbLine
 10
90.1548340764
 20
226.2906327666
 30
0.0
 11
90.2153007431
 21
226.380571722
 31
0.0
  0
LINE
  5
91
330
1F
100
AcDbEntity
  8
0
  6
Continuous
 62
     7
370
    15
100
AcDbLine
 10
90.2153007431
 20
227.5669572071
 30
0.0
 11
90.1548340764
 21
227.6568961625
 31
0.0
  0
LINE
  5
92
330
1F
100
AcDbEntity
  8
0
  6
Continuous
 62
     7
370
    15
100
AcDbLine
 10
90.1548340764
 20
227.6568961625
 30
0.0
 11
90.0943674097
 21
227.5563769114
 31
0.0
  0
LINE
  5
93
330
1F
100
AcDbEntity
  8
0
  6
Continuous
 62
     7
370
    15
100
AcDbLine
 10
90.0943674097
 20
226.3911520177
 30
0.0
 11
90.1548340764
 21
226.2906327666
 31
0.0
  0
LINE
  5
94
330
1F
100
AcDbEntity
  8
0
  6
Continuous
 62
     7
370
    15
100
AcDbLine
 10
90.0339007431
 20
226.3012130623
 30
0.0
 11
90.0943674097
 21
226.3911520177
 31
0.0
  0
LINE
  5
95
330
1F
100
AcDbEntity
  8
0
  6
Continuous
 62
     7
370
    15
100
AcDbLine
 10
90.0943674097
 20
227.5563769114
 30
0.0
 11
90.0339007431
 21
227.6463158668
 31
0.0
  0
LINE
  5
96
330
1F
100
AcDbEntity
  8
0
  6
Continuous
 62
     7
370
    15
100
AcDbLine
 10
90.0339007431
 20
227.6463158668
 30
0.0
 11
89.9734340764
 21
227.5457966157
 31
0.0
  0
LINE
  5
97
330
1F
100
AcDbEntity
  8
0
  6
Continuous
 62
     7
370
    15
100
AcDbLine
 10
89.9734340764
 20
226.4017323134
 30
0.0
 11
90.0339007431
 21
226.3012130623
 31
0.0
  0
LINE
  5
98
330
1F
100
AcDbEntity
  8
0
  6
Continuous
 62
     7
370
    15
100
AcDbLine
 10
89.9129674097
 20
227.6357355711
 30
0.0
 11
89.8525007431
 21
227.53521632
 31
0.0
  0
LINE
  5
99
330
1F
100
AcDbEntity
  8
0
  6
Continuous
 62
     7
370
    15
100
AcDbLine
 10
89.8525007431
 20
226.4123126091
 30
0.0
 11
89.9129674097
 21
226.311793358
 31
0.0
  0
LINE
  5
9A
330
1F
100
AcDbEntity
  8
0
  6
Continuous
 62
     7
370
    15
100
AcDbLine
 10
89.9129674097
 20
226.311793358
 30
0.0
 11
89.9734340764
 21
226.4017323134
 31
0.0
  0
LINE
  5
9B
330
1F
100
AcDbEntity
  8
0
  6
Continuous
 62
     7
370
    15
100
AcDbLine
 10
89.9734340764
 20
227.5457966157
 30
0.0
 11
89.9129674097
 21
227.6357355711
 31
0.0
  0
LINE
  5
9C
330
1F
100
AcDbEntity
  8
0
  6
Continuous
 62
     7
370
    15
100
AcDbLine
 10
89.7920340764
 20
227.6251552754
 30
0.0
 11
89.7315674097
 21
227.5246360243
 31
0.0
  0
LINE
  5
9D
330
1F
100
AcDbEntity
  8
0
  6
Continuous
 62
     7
370
    15
100
AcDbLine
 10
89.7315674097
 20
226.4228929048
 30
0.0
 11
89.7920340764
 21
226.3223736537
 31
0.0
  0
LINE
  5
9E
330
1F
100
AcDbEntity
  8
0
  6
Continuous
 62
     7
370
    15
100
AcDbLine
 10
89.7920340764
 20
226.3223736537
 30
0.0
 11
89.8525007431
 21
226.4123126091
 31
0.0
  0
LINE
  5
9F
330
1F
100
AcDbEntity
  8
0
  6
Continuous
 62
     7
370
    15
100
AcDbLine
 10
89.8525007431
 20
227.53521632
 30
0.0
 11
89.7920340764
 21
227.6251552754
 31
0.0
  0
LINE
  5
A0
330
1F
100
AcDbEntity
  8
0
  6
Continuous
 62
     7
370
    15
100
AcDbLine
 10
133.7841405939
 20
228.9924829669
 30
0.0
 11
133.884279312
 21
228.8909771356
 31
0.0
  0
LINE
  5
A1
330
1F
100
AcDbEntity
  8
0
  6
Continuous
 62
     7
370
    15
100
AcDbLine
 10
137.2064068603
 20
232.1683612039
 30
0.0
 11
137.1062681421
 21
232.2698670351
 31
0.0
  0
ARC
  5
A2
330
1F
100
AcDbEntity
  8
0
  6
Continuous
 62
     7
370
    15
100
AcDbCircle
 10
133.931738277
 20
228.937796908
 30
0.0
 40
0.0666666666666654
100
AcDbArc
 50
224.6115510614
 51
306.0807854514
  0
ARC
  5
A3
330
1F
100
AcDbEntity
  8
0
  6
Continuous
 62
     7
370
    15
100
AcDbCircle
 10
137.1589478953
 20
232.1215414315
 30
0.0
 40
0.0666666666666853
100
AcDbArc
 50
323.1423166714
 51
44.6115510614
  0
LINE
  5
A4
330
1F
100
AcDbEntity
  8
0
  6
Continuous
 62
     7
370
    15
100
AcDbLine
 10
133.9709999676
 20
228.883917746
 30
0.0
 11
134.9214384147
 21
229.576501277
 31
0.0
  0
LINE
  5
A5
330
1F
100
AcDbEntity
  8
0
  6
Continuous
 62
     7
370
    15
100
AcDbLine
 10
136.5068828864
 20
231.1405924737
 30
0.0
 11
137.2122897546
 21
232.081552802
 31
0.0
  0
ARC
  5
A6
330
1F
100
AcDbEntity
  8
0
  6
Continuous
 62
     7
370
    15
100
AcDbCircle
 10
134.9999617959
 20
229.468742953
 30
0.0
 40
0.1333333333333208
100
AcDbArc
 50
44.6115510614
 51
126.0807854515
  0
ARC
  5
A7
330
1F
100
AcDbEntity
  8
0
  6
Continuous
 62
     7
370
    15
100
AcDbCircle
 10
136.613566605
 20
231.0606152147
 30
0.0
 40
0.1333333333333304
100
AcDbArc
 50
143.1423166713
 51
224.6115510614
  0
LINE
  5
A8
330
1F
100
AcDbEntity
  8
0
  6
Continuous
 62
     7
370
    15
100
AcDbLine
 10
135.0948797259
 20
229.5623824978
 30
0.0
 11
135.2015176174
 21
229.4542887652
 31
0.0
  0
LINE
  5
A9
330
1F
100
AcDbEntity
  8
0
  6
Continuous
 62
     7
370
    15
100
AcDbLine
 10
136.6252865666
 20
230.8588819373
 30
0.0
 11
136.5186486751
 21
230.9669756699
 31
0.0
  0
LINE
  5
AA
330
1F
100
AcDbEntity
  8
0
  6
Continuous
 62
     7
370
    15
100
AcDbLine
 10
135.2951571622
 20
229.3593708352
 30
0.0
 11
135.30192456
 21
229.3575055639
 31
0.0
  0
LINE
  5
AB
330
1F
100
AcDbEntity
  8
0
  6
Continuous
 62
     7
370
    15
100
AcDbLine
 10
136.7206994521
 20
230.7571719405
 30
0.0
 11
136.7189261114
 21
230.7639640074
 31
0.0
  0
LINE
  5
AC
330
1F
100
AcDbEntity
  8
0
  6
Continuous
 62
     7
370
    15
100
AcDbLine
 10
135.2015176174
 20
229.4542887652
 30
0.0
 11
135.2951571622
 21
229.3593708352
 31
0.0
  0
LINE
  5
AD
330
1F
100
AcDbEntity
  8
0
  6
Continuous
 62
     7
370
    15
100
AcDbLine
 10
136.7189261114
 20
230.7639640074
 30
0.0
 11
136.6252865666
 21
230.8588819373
 31
0.0
  0
ARC
  5
AE
330
1F
100
AcDbEntity
  8
0
  6
Continuous
 62
     7
370
    15
100
AcDbCircle
 10
135.4217781769
 20
228.5665345717
 30
0.0
 40
0.8000000000000054
100
AcDbArc
 50
1.202872365
 51
98.6163228235
  0
ARC
  5
AF
330
1F
100
AcDbEntity
  8
0
  6
Continuous
 62
     7
370
    15
100
AcDbCircle
 10
137.5099726358
 20
230.6266045574
 30
0.0
 40
0.8000000000000069
100
AcDbArc
 50
170.6067792992
 51
268.0202297578
  0
ARC
  5
B0
330
1F
100
AcDbEntity
  8
0
  6
Continuous
 62
     7
370
    15
100
AcDbCircle
 10
140.3714991824
 20
224.7215832252
 30
0.0
 40
0.3333333333333462
100
AcDbArc
 50
224.6115510614
 51
314.6115510614
  0
ARC
  5
B1
330
1F
100
AcDbEntity
  8
0
  6
Continuous
 62
     7
370
    15
100
AcDbCircle
 10
141.2874572065
 20
225.6252048326
 30
0.0
 40
0.3333333333333465
100
AcDbArc
 50
314.6115510614
 51
44.6115510614
  0
LINE
  5
B2
330
1F
100
AcDbEntity
  8
0
  6
Continuous
 62
     7
370
    15
100
AcDbLine
 10
136.3175669354
 20
228.3562272562
 30
0.0
 11
140.1342043576
 21
224.4874843632
 31
0.0
  0
LINE
  5
B3
330
1F
100
AcDbEntity
  8
0
  6
Continuous
 62
     7
370
    15
100
AcDbLine
 10
141.5247520313
 20
225.8593036946
 30
0.0
 11
137.7081146091
 21
229.7280465876
 31
0.0
  0
ARC
  5
B4
330
1F
100
AcDbEntity
  8
0
  6
Continuous
 62
     7
370
    15
100
AcDbCircle
 10
136.5548617602
 20
228.5903261182
 30
0.0
 40
0.333333333333341
100
AcDbArc
 50
181.202872365
 51
224.6115510614
  0
ARC
  5
B5
330
1F
100
AcDbEntity
  8
0
  6
Continuous
 62
     7
370
    15
100
AcDbCircle
 10
137.4708197843
 20
229.4939477256
 30
0.0
 40
0.3333333333333376
100
AcDbArc
 50
44.6115510614
 51
88.0202297578
  0
LINE
  5
B6
330
1F
100
AcDbEntity
  8
0
  6
Continuous
 62
     7
370
    15
100
AcDbLine
 10
132.7338567811
 20
233.5090146885
 30
0.0
 11
129.8722971837
 21
233.5284155385
 31
0.0
  0
LINE
  5
B7
330
1F
100
AcDbEntity
  8
0
  6
Continuous
 62
     7
370
    15
100
AcDbLine
 10
126.5384335739
 20
233.5510185231
 30
0.0
 11
124.8569674097
 21
233.5624185557
 31
0.0
  0
LINE
  5
B8
330
1F
100
AcDbEntity
  8
0
  6
Continuous
 62
     7
370
    15
100
AcDbLine
 10
124.8569674097
 20
233.0290729649
 30
0.0
 11
132.7302409619
 21
232.9756936124
 31
0.0
  0
ARC
  5
B9
330
1F
100
AcDbEntity
  8
0
  6
Continuous
 62
     7
370
    15
100
AcDbCircle
 10
132.7297889845
 20
232.9090284778
 30
0.0
 40
0.066666666666671
100
AcDbArc
 50
44.6115510614
 51
89.6115510614
  0
ARC
  5
BA
330
1F
100
AcDbEntity
  8
0
  6
Continuous
 62
     7
370
    15
100
AcDbCircle
 10
132.7297889845
 20
232.9090284778
 30
0.0
 40
0.599999999999984
100
AcDbArc
 50
44.6115510614
 51
89.6115510614
  0
LINE
  5
BB
330
1F
100
AcDbEntity
  8
0
  6
Continuous
 62
     7
370
    15
100
AcDbLine
 10
135.6350402279
 20
230.8184540906
 30
0.0
 11
133.1569196692
 21
233.3304064295
 31
0.0
  0
LINE
  5
BC
330
1F
100
AcDbEntity
  8
0
  6
Continuous
 62
     7
370
    15
100
AcDbLine
 10
132.7772479494
 20
232.9558482502
 30
0.0
 11
135.2553685081
 21
230.4438959114
 31
0.0
  0
LINE
  5
BD
330
1F
100
AcDbEntity
  8
0
  6
Continuous
 62
     7
370
    15
100
AcDbLine
 10
125.0741379546
 20
233.860953074
 30
0.0
 11
124.8569674097
 21
233.8624254505
 31
0.0
  0
LINE
  5
BE
330
1F
100
AcDbEntity
  8
0
  6
Continuous
 62
     7
370
    15
100
AcDbLine
 10
127.9441285695
 20
234.3415065546
 30
0.0
 11
127.9390664226
 21
233.594857048
 31
0.0
  0
LINE
  5
BF
330
1F
100
AcDbEntity
  8
0
  6
Continuous
 62
     7
370
    15
100
AcDbLine
 10
128.4723874988
 20
233.5912412288
 30
0.0
 11
128.4774496457
 21
234.3378907354
 31
0.0
  0
SPLINE
  5
C0
330
1F
100
AcDbEntity
  8
0
  6
Continuous
 62
     7
370
    15
100
AcDbSpline
210
0.0
220
0.0
230
1.0
 70
     8
 71
     3
 72
    13
 73
     9
 74
     0
 42
0.00000001
 43
0.00000001
 40
0.0
 40
0.0
 40
0.0
 40
0.0
 40
0.1239317526203002
 40
0.2987841668419461
 40
0.5020680672611139
 40
0.7406521314646254
 40
0.9955241344172306
 40
1.0
 40
1.0
 40
1.0
 40
1.0
 10
90.4808679090987
 20
238.2390206262449
 30
0.0
 10
90.480876628854
 20
238.2390308018431
 30
0.0
 10
90.48089765110839
 20
238.239055333955
 30
0.0
 10
90.48284380490406
 20
238.2400287191574
 30
0.0
 10
90.48677413509492
 20
238.2412343233653
 30
0.0
 10
90.49276368498857
 20
238.2422479901812
 30
0.0
 10
90.49771253806426
 20
238.2426413451204
 30
0.0
 10
90.50024804446304
 20
238.2425630999659
 30
0.0
 10
90.5002918026242
 20
238.242561749599
 30
0.0
  0
LINE
  5
C1
330
1F
100
AcDbEntity
  8
0
  6
Continuous
 62
     7
370
    15
100
AcDbLine
 10
90.5003007431
 20
238.2425672361
 30
0.0
 11
90.8403007431
 21
238.2425672361
 31
0.0
  0
ARC
  5
C2
330
1F
100
AcDbEntity
  8
0
  6
Continuous
 62
     7
370
    15
100
AcDbCircle
 10
90.8403007431
 20
238.2592339028
 30
0.0
 40
0.0166666666667084
100
AcDbArc
 50
270.0
 51
0.0
  0
ARC
  5
C3
330
1F
100
AcDbEntity
  8
0
  6
Continuous
 62
     7
370
    15
100
AcDbCircle
 10
90.8403007431
 20
238.6493972219
 30
0.0
 40
0.0166666666666657
100
AcDbArc
 50
0.0
 51
90.0
  0
LINE
  5
C4
330
1F
100
AcDbEntity
  8
0
  6
Continuous
 62
     7
370
    15
100
AcDbLine
 10
90.8403007431
 20
238.6660638886
 30
0.0
 11
90.5003007431
 21
238.6660638886
 31
0.0
  0
ARC
  5
C5
330
1F
100
AcDbEntity
  8
0
  6
Continuous
 62
     7
370
    15
100
AcDbCircle
 10
90.4669674097
 20
238.794795648
 30
0.0
 40
0.0166666666666657
100
AcDbArc
 50
0.0
 51
90.0
  0
ARC
  5
C6
330
1F
100
AcDbEntity
  8
0
  6
Continuous
 62
     7
370
    15
100
AcDbCircle
 10
90.4203007431
 20
238.794795648
 30
0.0
 40
0.0166666666666657
100
AcDbArc
 50
90.0
 51
180.0
  0
LINE
  5
C7
330
1F
100
AcDbEntity
  8
0
  6
Continuous
 62
     7
370
    15
100
AcDbLine
 10
90.4669674097
 20
238.8114623146
 30
0.0
 11
90.4203007431
 21
238.8114623146
 31
0.0
  0
LINE
  5
C8
330
1F
100
AcDbEntity
  8
0
  6
Continuous
 62
     7
370
    15
100
AcDbLine
 10
90.5636340764
 20
237.7968607407
 30
0.0
 11
90.8403007431
 21
237.7968607407
 31
0.0
  0
ARC
  5
C9
330
1F
100
AcDbEntity
  8
0
  6
Continuous
 62
     7
370
    15
100
AcDbCircle
 10
90.8403007431
 20
237.8135274073
 30
0.0
 40
0.0166666666666799
100
AcDbArc
 50
270.0
 51
0.0
  0
ARC
  5
CA
330
1F
100
AcDbEntity
  8
0
  6
Continuous
 62
     7
370
    15
100
AcDbCircle
 10
90.4669674097
 20
237.6481289813
 30
0.0
 40
0.0966666666666667
100
AcDbArc
 50
291.9174333884
 51
0.0
  0
SPLINE
  5
CB
330
1F
100
AcDbEntity
  8
0
  6
Continuous
 62
     7
370
    15
100
AcDbSpline
210
0.0
220
0.0
230
1.0
 70
     8
 71
     3
 72
    12
 73
     8
 74
     0
 42
0.00000001
 43
0.00000001
 40
0.0
 40
0.0
 40
0.0
 40
0.0
 40
0.1507019443585361
 40
0.427567013226018
 40
0.6575725695157866
 40
0.8494792207952266
 40
1.0
 40
1.0
 40
1.0
 40
1.0
 10
90.48331443074524
 20
237.7701786387543
 30
0.0
 10
90.48335521648565
 20
237.7689468937259
 30
0.0
 10
90.48347093255877
 20
237.7654522238653
 30
0.0
 10
90.48095992341406
 20
237.7603316907126
 30
0.0
 10
90.47660160458943
 20
237.7559976619879
 30
0.0
 10
90.47167729723927
 20
237.753599802761
 30
0.0
 10
90.46837329361156
 20
237.7534373510158
 30
0.0
 10
90.46692095318478
 20
237.7533659421242
 30
0.0
  0
LINE
  5
CC
330
1F
100
AcDbEntity
  8
0
  6
Continuous
 62
     7
370
    15
100
AcDbLine
 10
90.4669674097
 20
237.7532665327
 30
0.0
 11
90.1269674097
 21
237.7532665327
 31
0.0
  0
ARC
  5
CD
330
1F
100
AcDbEntity
  8
0
  6
Continuous
 62
     7
370
    15
100
AcDbCircle
 10
90.1269674097
 20
237.736599866
 30
0.0
 40
0.0166666666666657
100
AcDbArc
 50
90.0
 51
180.0
  0
ARC
  5
CE
330
1F
100
AcDbEntity
  8
0
  6
Continuous
 62
     7
370
    15
100
AcDbCircle
 10
90.4669674097
 20
238.814795648
 30
0.0
 40
0.0966666666666782
100
AcDbArc
 50
0.0
 51
67.5820446015
  0
LINE
  5
CF
330
1F
100
AcDbEntity
  8
0
  6
Continuous
 62
     7
370
    15
100
AcDbLine
 10
90.1269674097
 20
238.8313232478
 30
0.0
 11
90.4669674097
 21
238.8313232478
 31
0.0
  0
LINE
  5
D0
330
1F
100
AcDbEntity
  8
0
  6
Continuous
 62
     7
370
    15
100
AcDbLine
 10
90.1269674097
 20
238.7096580966
 30
0.0
 11
90.4036340764
 21
238.7096580966
 31
0.0
  0
ARC
  5
D1
330
1F
100
AcDbEntity
  8
0
  6
Continuous
 62
     7
370
    15
100
AcDbCircle
 10
90.1269674097
 20
238.7263247633
 30
0.0
 40
0.0166666666666799
100
AcDbArc
 50
180.0
 51
270.0
  0
LINE
  5
D2
330
1F
100
AcDbEntity
  8
0
  6
Continuous
 62
     7
370
    15
100
AcDbLine
 10
90.3738619439
 20
237.8465621352
 30
0.0
 11
90.4036340764
 21
237.8981289813
 31
0.0
  0
LINE
  5
D3
330
1F
100
AcDbEntity
  8
0
  6
Continuous
 62
     7
370
    15
100
AcDbLine
 10
90.0569674097
 20
237.8981289813
 30
0.0
 11
90.0867395422
 21
237.8465621352
 31
0.0
  0
LINE
  5
D4
330
1F
100
AcDbEntity
  8
0
  6
Continuous
 62
     7
370
    15
100
AcDbLine
 10
90.4036340764
 20
238.564795648
 30
0.0
 11
90.3738619439
 21
238.6163624941
 31
0.0
  0
LINE
  5
D5
330
1F
100
AcDbEntity
  8
0
  6
Continuous
 62
     7
370
    15
100
AcDbLine
 10
90.0867395422
 20
238.6163624941
 30
0.0
 11
90.0569674097
 21
238.564795648
 31
0.0
  0
LINE
  5
D6
330
1F
100
AcDbEntity
  8
0
  6
Continuous
 62
     7
370
    15
100
AcDbLine
 10
90.9386204803
 20
238.5849793582
 30
0.0
 11
90.9269674097
 21
238.564795648
 31
0.0
  0
LINE
  5
D7
330
1F
100
AcDbEntity
  8
0
  6
Continuous
 62
     7
370
    15
100
AcDbLine
 10
91.2736340764
 20
238.564795648
 30
0.0
 11
91.2619810059
 21
238.5849793582
 31
0.0
  0
LINE
  5
D8
330
1F
100
AcDbEntity
  8
0
  6
Continuous
 62
     7
370
    15
100
AcDbLine
 10
91.2619810059
 20
237.8779452711
 30
0.0
 11
91.2736340764
 21
237.8981289813
 31
0.0
  0
LINE
  5
D9
330
1F
100
AcDbEntity
  8
0
  6
Continuous
 62
     7
370
    15
100
AcDbLine
 10
90.9269674097
 20
237.8981289813
 30
0.0
 11
90.9386204803
 21
237.8779452711
 31
0.0
  0
LINE
  5
DA
330
1F
100
AcDbEntity
  8
0
  6
Continuous
 62
     7
370
    15
100
AcDbLine
 10
91.2736340764
 20
237.824795648
 30
0.0
 11
91.2836340764
 21
237.824795648
 31
0.0
  0
LINE
  5
DB
330
1F
100
AcDbEntity
  8
0
  6
Continuous
 62
     7
370
    15
100
AcDbLine
 10
91.2836340764
 20
238.6381289813
 30
0.0
 11
91.2736340764
 21
238.6381289813
 31
0.0
  0
LINE
  5
DC
330
1F
100
AcDbEntity
  8
0
  6
Continuous
 62
     7
370
    15
100
AcDbLine
 10
90.9269674097
 20
238.4314623146
 30
0.0
 11
90.9103007431
 21
238.4314623146
 31
0.0
  0
LINE
  5
DD
330
1F
100
AcDbEntity
  8
0
  6
Continuous
 62
     7
370
    15
100
AcDbLine
 10
90.9103007431
 20
238.0314623146
 30
0.0
 11
90.9269674097
 21
238.0314623146
 31
0.0
  0
LINE
  5
DE
330
1F
100
AcDbEntity
  8
0
  6
Continuous
 62
     7
370
    15
100
AcDbLine
 10
95.3036340764
 20
193.5374418964
 30
0.0
 11
115.6369674097
 21
193.5374418964
 31
0.0
  0
LINE
  5
DF
330
1F
100
AcDbEntity
  8
0
  6
Continuous
 62
     7
370
    15
100
AcDbLine
 10
95.3036340764
 20
195.2041085631
 30
0.0
 11
115.6369674097
 21
195.2041085631
 31
0.0
  0
LINE
  5
E0
330
1F
100
AcDbEntity
  8
0
  6
Continuous
 62
     7
370
    15
100
AcDbLine
 10
119.0036340764
 20
195.0407752298
 30
0.0
 11
118.9703007431
 21
195.0407752298
 31
0.0
  0
SPLINE
  5
E1
330
1F
100
AcDbEntity
  8
0
  6
Continuous
 62
     7
370
    15
100
AcDbSpline
210
0.0
220
0.0
230
1.0
 70
     8
 71
     3
 72
    10
 73
     6
 74
     0
 42
0.00000001
 43
0.00000001
 40
0.0
 40
0.0
 40
0.0
 40
0.0
 40
0.3047409560718553
 40
0.821878148882302
 40
1.0
 40
1.0
 40
1.0
 40
1.0
 10
118.9703007430743
 20
195.1349599914262
 30
0.0
 10
118.9767227439007
 20
195.127052528301
 30
0.0
 10
118.9940427071224
 20
195.1057263132773
 30
0.0
 10
119.0024715116891
 20
195.0707315064315
 30
0.0
 10
119.0033969769005
 20
195.0468846689466
 30
0.0
 10
119.0036340764076
 20
195.0407752297768
 30
0.0
  0
LINE
  5
E2
330
1F
100
AcDbEntity
  8
0
  6
Continuous
 62
     7
370
    15
100
AcDbLine
 10
119.0036340764
 20
195.0407752298
 30
0.0
 11
119.0036340764
 21
193.5374418964
 31
0.0
  0
LINE
  5
E3
330
1F
100
AcDbEntity
  8
0
  6
Continuous
 62
     7
370
    15
100
AcDbLine
 10
119.0036340764
 20
193.5374418964
 30
0.0
 11
118.9703007431
 21
193.5374418964
 31
0.0
  0
LINE
  5
E4
330
1F
100
AcDbEntity
  8
0
  6
Continuous
 62
     7
370
    15
100
AcDbLine
 10
95.3036340764
 20
171.2041085631
 30
0.0
 11
115.6369674097
 21
171.2041085631
 31
0.0
  0
LINE
  5
E5
330
1F
100
AcDbEntity
  8
0
  6
Continuous
 62
     7
370
    15
100
AcDbLine
 10
95.3036340764
 20
172.8707752298
 30
0.0
 11
115.6369674097
 21
172.8707752298
 31
0.0
  0
LINE
  5
E6
330
1F
100
AcDbEntity
  8
0
  6
Continuous
 62
     7
370
    15
100
AcDbLine
 10
119.0036340764
 20
172.7074418964
 30
0.0
 11
118.9703007431
 21
172.7074418964
 31
0.0
  0
SPLINE
  5
E7
330
1F
100
AcDbEntity
  8
0
  6
Continuous
 62
     7
370
    15
100
AcDbSpline
210
0.0
220
0.0
230
1.0
 70
     8
 71
     3
 72
    10
 73
     6
 74
     0
 42
0.00000001
 43
0.00000001
 40
0.0
 40
0.0
 40
0.0
 40
0.0
 40
0.3047409560709233
 40
0.8218781488820986
 40
1.0
 40
1.0
 40
1.0
 40
1.0
 10
118.9703007430743
 20
172.8016266580931
 30
0.0
 10
118.9767227439007
 20
172.7937191949679
 30
0.0
 10
118.9940427071225
 20
172.7723929799442
 30
0.0
 10
119.0024715116891
 20
172.7373981730985
 30
0.0
 10
119.0033969769005
 20
172.7135513356135
 30
0.0
 10
119.0036340764076
 20
172.7074418964438
 30
0.0
  0
LINE
  5
E8
330
1F
100
AcDbEntity
  8
0
  6
Continuous
 62
     7
370
    15
100
AcDbLine
 10
119.0036340764
 20
171.2041085631
 30
0.0
 11
118.9703007431
 21
171.2041085631
 31
0.0
  0
LINE
  5
E9
330
1F
100
AcDbEntity
  8
0
  6
Continuous
 62
     7
370
    15
100
AcDbLine
 10
119.0036340764
 20
172.7074418964
 30
0.0
 11
119.0036340764
 21
171.2041085631
 31
0.0
  0
LINE
  5
EA
330
1F
100
AcDbEntity
  8
0
  6
Continuous
 62
     7
370
    15
100
AcDbLine
 10
128.1536340703
 20
150.9441085631
 30
0.0
 11
125.1203007431
 21
150.9441085631
 31
0.0
  0
LINE
  5
EB
330
1F
100
AcDbEntity
  8
0
  6
Continuous
 62
     7
370
    15
100
AcDbLine
 10
127.3236340764
 20
151.6441085631
 30
0.0
 11
125.9503007431
 21
151.6441085631
 31
0.0
  0
LINE
  5
EC
330
1F
100
AcDbEntity
  8
0
  6
Continuous
 62
     7
370
    15
100
AcDbLine
 10
126.6369674097
 20
151.9107752298
 30
0.0
 11
126.6369674097
 21
151.6441085631
 31
0.0
  0
LINE
  5
ED
330
1F
100
AcDbEntity
  8
0
  6
Continuous
 62
     7
370
    15
100
AcDbLine
 10
126.6369674097
 20
151.9107752298
 30
0.0
 11
126.8369674097
 21
151.9107752298
 31
0.0
  0
LINE
  5
EE
330
1F
100
AcDbEntity
  8
0
  6
Continuous
 62
     7
370
    15
100
AcDbLine
 10
126.8369674097
 20
151.9107752298
 30
0.0
 11
127.0369674097
 21
151.9107752298
 31
0.0
  0
LINE
  5
EF
330
1F
100
AcDbEntity
  8
0
  6
Continuous
 62
     7
370
    15
100
AcDbLine
 10
127.0369674097
 20
151.9107752298
 30
0.0
 11
127.0369674097
 21
151.6441085631
 31
0.0
  0
LINE
  5
F0
330
1F
100
AcDbEntity
  8
0
  6
Continuous
 62
     7
370
    15
100
AcDbLine
 10
126.2369674097
 20
151.9107752298
 30
0.0
 11
126.2369674097
 21
151.6441085631
 31
0.0
  0
LINE
  5
F1
330
1F
100
AcDbEntity
  8
0
  6
Continuous
 62
     7
370
    15
100
AcDbLine
 10
126.2369674097
 20
151.9107752298
 30
0.0
 11
126.4369674097
 21
151.9107752298
 31
0.0
  0
LINE
  5
F2
330
1F
100
AcDbEntity
  8
0
  6
Continuous
 62
     7
370
    15
100
AcDbLine
 10
126.4369674097
 20
151.9107752298
 30
0.0
 11
126.6369674097
 21
151.9107752298
 31
0.0
  0
LINE
  5
F3
330
1F
100
AcDbEntity
  8
0
  6
Continuous
 62
     7
370
    15
100
AcDbLine
 10
95.1536340703
 20
150.9441085631
 30
0.0
 11
92.1203007431
 21
150.9441085631
 31
0.0
  0
LINE
  5
F4
330
1F
100
AcDbEntity
  8
0
  6
Continuous
 62
     7
370
    15
100
AcDbLine
 10
94.3236340764
 20
151.6441085631
 30
0.0
 11
92.9503007431
 21
151.6441085631
 31
0.0
  0
LINE
  5
F5
330
1F
100
AcDbEntity
  8
0
  6
Continuous
 62
     7
370
    15
100
AcDbLine
 10
93.2369674097
 20
151.9107752298
 30
0.0
 11
93.2369674097
 21
151.6441085631
 31
0.0
  0
LINE
  5
F6
330
1F
100
AcDbEntity
  8
0
  6
Continuous
 62
     7
370
    15
100
AcDbLine
 10
93.2369674097
 20
151.9107752298
 30
0.0
 11
93.4369674097
 21
151.9107752298
 31
0.0
  0
LINE
  5
F7
330
1F
100
AcDbEntity
  8
0
  6
Continuous
 62
     7
370
    15
100
AcDbLine
 10
93.4369674097
 20
151.9107752298
 30
0.0
 11
93.6369674097
 21
151.9107752298
 31
0.0
  0
LINE
  5
F8
330
1F
100
AcDbEntity
  8
0
  6
Continuous
 62
     7
370
    15
100
AcDbLine
 10
93.6369674097
 20
151.9107752298
 30
0.0
 11
93.6369674097
 21
151.6441085631
 31
0.0
  0
LINE
  5
F9
330
1F
100
AcDbEntity
  8
0
  6
Continuous
 62
     7
370
    15
100
AcDbLine
 10
93.6369674097
 20
151.9107752298
 30
0.0
 11
93.8369674097
 21
151.9107752298
 31
0.0
  0
LINE
  5
FA
330
1F
100
AcDbEntity
  8
0
  6
Continuous
 62
     7
370
    15
100
AcDbLine
 10
93.8369674097
 20
151.9107752298
 30
0.0
 11
94.0369674097
 21
151.9107752298
 31
0.0
  0
LINE
  5
FB
330
1F
100
AcDbEntity
  8
0
  6
Continuous
 62
     7
370
    15
100
AcDbLine
 10
94.0369674097
 20
151.9107752298
 30
0.0
 11
94.0369674097
 21
151.6441085631
 31
0.0
  0
LINE
  5
FC
330
1F
100
AcDbEntity
  8
0
  6
Continuous
 62
     7
370
    15
100
AcDbLine
 10
124.6369674097
 20
221.9033374962
 30
0.0
 11
124.6369674097
 21
221.9107752298
 31
0.0
  0
LINE
  5
FD
330
1F
100
AcDbEntity
  8
0
  6
Continuous
 62
     7
370
    15
100
AcDbLine
 10
124.763658707
 20
221.9033374962
 30
0.0
 11
124.6369674097
 21
221.9033374962
 31
0.0
  0
LINE
  5
FE
330
1F
100
AcDbEntity
  8
0
  6
Continuous
 62
     7
370
    15
100
AcDbLine
 10
124.814744124
 20
221.9033374962
 30
0.0
 11
124.763658707
 21
221.9033374962
 31
0.0
  0
ARC
  5
FF
330
1F
100
AcDbEntity
  8
0
  6
Continuous
 62
     7
370
    15
100
AcDbCircle
 10
118.8344687722
 20
222.7611607633
 30
0.0
 40
6.013811579571979
100
AcDbArc
 50
352.4703333922
 51
7.5296666078
  0
LINE
  5
100
330
1F
100
AcDbEntity
  8
0
  6
Continuous
 62
     7
370
    15
100
AcDbLine
 10
124.7964241242
 20
221.9731137504
 30
0.0
 11
124.7636796141
 21
221.9774418964
 31
0.0
  0
ARC
  5
101
330
1F
100
AcDbEntity
  8
0
  6
Continuous
 62
     7
370
    15
100
AcDbCircle
 10
118.8344687722
 20
222.7611607633
 30
0.0
 40
5.980782262369872
100
AcDbArc
 50
352.4703333922
 51
7.5296666078
  0
LINE
  5
102
330
1F
100
AcDbEntity
  8
0
  6
Continuous
 62
     7
370
    15
100
AcDbLine
 10
124.7964241242
 20
223.5492077761
 30
0.0
 11
124.7636796141
 21
223.5448796301
 31
0.0
  0
LINE
  5
103
330
1F
100
AcDbEntity
  8
0
  6
Continuous
 62
     7
370
    15
100
AcDbLine
 10
124.7636796141
 20
223.5448796301
 30
0.0
 11
124.6369674097
 21
223.5448796301
 31
0.0
  0
LINE
  5
104
330
1F
100
AcDbEntity
  8
0
  6
Continuous
 62
     7
370
    15
100
AcDbLine
 10
124.6369674097
 20
221.9774418964
 30
0.0
 11
124.7636796141
 21
221.9774418964
 31
0.0
  0
LINE
  5
105
330
1F
100
AcDbEntity
  8
0
  6
Continuous
 62
     7
370
    15
100
AcDbLine
 10
124.6369674097
 20
221.9774418964
 30
0.0
 11
124.6369674097
 21
223.5448796301
 31
0.0
  0
LINE
  5
106
330
1F
100
AcDbEntity
  8
0
  6
Continuous
 62
     7
370
    15
100
AcDbLine
 10
124.6369674097
 20
223.5448796301
 30
0.0
 11
124.6369674097
 21
223.564795648
 31
0.0
  0
SPLINE
  5
107
330
1F
100
AcDbEntity
  8
0
  6
Continuous
 62
     7
370
    15
100
AcDbSpline
210
0.0
220
0.0
230
1.0
 70
     8
 71
     3
 72
    12
 73
     8
 74
     0
 42
0.00000001
 43
0.00000001
 40
0.0
 40
0.0
 40
0.0
 40
0.0
 40
0.2133156169751055
 40
0.4267224136241112
 40
0.6381129376194639
 40
0.8486020118332938
 40
1.0
 40
1.0
 40
1.0
 40
1.0
 10
124.7964241242443
 20
221.9731137504056
 30
0.0
 10
124.795978674643
 20
221.9693840178495
 30
0.0
 10
124.7950875850373
 20
221.9619229584997
 30
0.0
 10
124.7945139078242
 20
221.9519213270891
 30
0.0
 10
124.7946162756217
 20
221.9443667684982
 30
0.0
 10
124.7953086503412
 20
221.9402200551915
 30
0.0
 10
124.7960802835505
 20
221.9397803041684
 30
0.0
 10
124.7964031017101
 20
221.9395963312467
 30
0.0
  0
ARC
  5
108
330
1F
100
AcDbEntity
  8
0
  6
Continuous
 62
     7
370
    15
100
AcDbCircle
 10
124.7635414103
 20
221.9439199189
 30
0.0
 40
0.0331448966656877
100
AcDbArc
 50
270.2027649033
 51
352.504689302
  0
SPLINE
  5
109
330
1F
100
AcDbEntity
  8
0
  6
Continuous
 62
     7
370
    15
100
AcDbSpline
210
0.0
220
0.0
230
1.0
 70
     8
 71
     3
 72
    12
 73
     8
 74
     0
 42
0.00000001
 43
0.00000001
 40
0.0
 40
0.0
 40
0.0
 40
0.0
 40
0.1509989516209267
 40
0.3615900694439617
 40
0.5734572595018956
 40
0.7871309963282505
 40
1.0
 40
1.0
 40
1.0
 40
1.0
 10
124.7636587069942
 20
221.9107752297763
 30
0.0
 10
124.7633375459024
 20
221.9111424116726
 30
0.0
 10
124.7625684765794
 20
221.9120216848462
 30
0.0
 10
124.7618815531355
 20
221.9202769563281
 30
0.0
 10
124.761780101733
 20
221.9352832109391
 30
0.0
 10
124.7623484572409
 20
221.9551420276903
 30
0.0
 10
124.7632364535689
 20
221.9700179620428
 30
0.0
 10
124.7636796140676
 20
221.9774418964429
 30
0.0
  0
LINE
  5
10A
330
1F
100
AcDbEntity
  8
0
  6
Continuous
 62
     7
370
    15
100
AcDbLine
 10
124.763658707
 20
221.9107752298
 30
0.0
 11
124.6369674097
 21
221.9107752298
 31
0.0
  0
LINE
  5
10B
330
1F
100
AcDbEntity
  8
0
  6
Continuous
 62
     7
370
    15
100
AcDbLine
 10
124.6369674097
 20
221.9107752298
 30
0.0
 11
124.6369674097
 21
221.9774418964
 31
0.0
  0
LINE
  5
10C
330
1F
100
AcDbEntity
  8
0
  6
Continuous
 62
     7
370
    15
100
AcDbLine
 10
124.8035280335
 20
223.6115462967
 30
0.0
 11
124.814744124
 21
223.6115462967
 31
0.0
  0
LINE
  5
10D
330
1F
100
AcDbEntity
  8
0
  6
Continuous
 62
     7
370
    15
100
AcDbLine
 10
124.814744124
 20
221.9107752298
 30
0.0
 11
124.763658707
 21
221.9107752298
 31
0.0
  0
LINE
  5
10E
330
1F
100
AcDbEntity
  8
0
  6
Continuous
 62
     7
370
    15
100
AcDbLine
 10
129.9703007431
 20
154.9107752298
 30
0.0
 11
129.9703007431
 21
154.9774418964
 31
0.0
  0
LINE
  5
10F
330
1F
100
AcDbEntity
  8
0
  6
Continuous
 62
     7
370
    15
100
AcDbLine
 10
129.9703007431
 20
154.9774418964
 30
0.0
 11
130.0970129474
 21
154.9774418964
 31
0.0
  0
SPLINE
  5
110
330
1F
100
AcDbEntity
  8
0
  6
Continuous
 62
     7
370
    15
100
AcDbSpline
210
0.0
220
0.0
230
1.0
 70
     8
 71
     3
 72
    12
 73
     8
 74
     0
 42
0.00000001
 43
0.00000001
 40
0.0
 40
0.0
 40
0.0
 40
0.0
 40
0.1509989516209223
 40
0.3615900694439748
 40
0.5734572595018308
 40
0.7871309963282611
 40
1.0
 40
1.0
 40
1.0
 40
1.0
 10
130.096992040328
 20
154.9107752297764
 30
0.0
 10
130.0966708792361
 20
154.9111424116728
 30
0.0
 10
130.0959018099131
 20
154.9120216848463
 30
0.0
 10
130.0952148864692
 20
154.9202769563282
 30
0.0
 10
130.0951134350667
 20
154.9352832109392
 30
0.0
 10
130.0956817905746
 20
154.9551420276905
 30
0.0
 10
130.0965697869026
 20
154.970017962043
 30
0.0
 10
130.0970129474013
 20
154.9774418964431
 30
0.0
  0
LINE
  5
111
330
1F
100
AcDbEntity
  8
0
  6
Continuous
 62
     7
370
    15
100
AcDbLine
 10
130.0969920403
 20
154.9107752298
 30
0.0
 11
129.9703007431
 21
154.9107752298
 31
0.0
  0
LINE
  5
112
330
1F
100
AcDbEntity
  8
0
  6
Continuous
 62
     7
370
    15
100
AcDbLine
 10
129.9703007431
 20
154.9774418964
 30
0.0
 11
129.9703007431
 21
156.5448796301
 31
0.0
  0
LINE
  5
113
330
1F
100
AcDbEntity
  8
0
  6
Continuous
 62
     7
370
    15
100
AcDbLine
 10
130.0970129474
 20
156.5448796301
 30
0.0
 11
129.9703007431
 21
156.5448796301
 31
0.0
  0
ARC
  5
114
330
1F
100
AcDbEntity
  8
0
  6
Continuous
 62
     7
370
    15
100
AcDbCircle
 10
124.1678021055
 20
155.7611607633
 30
0.0
 40
5.980782262369869
100
AcDbArc
 50
352.4703333922
 51
7.5296666078
  0
LINE
  5
115
330
1F
100
AcDbEntity
  8
0
  6
Continuous
 62
     7
370
    15
100
AcDbLine
 10
130.0970129474
 20
156.5448796301
 30
0.0
 11
130.1297574576
 21
156.5492077761
 31
0.0
  0
ARC
  5
116
330
1F
100
AcDbEntity
  8
0
  6
Continuous
 62
     7
370
    15
100
AcDbCircle
 10
124.1678021055
 20
155.7611607633
 30
0.0
 40
6.013811579571986
100
AcDbArc
 50
352.4703333922
 51
7.5296666078
  0
LINE
  5
117
330
1F
100
AcDbEntity
  8
0
  6
Continuous
 62
     7
370
    15
100
AcDbLine
 10
130.0970129474
 20
154.9774418964
 30
0.0
 11
130.1297574576
 21
154.9731137504
 31
0.0
  0
SPLINE
  5
118
330
1F
100
AcDbEntity
  8
0
  6
Continuous
 62
     7
370
    15
100
AcDbSpline
210
0.0
220
0.0
230
1.0
 70
     8
 71
     3
 72
    12
 73
     8
 74
     0
 42
0.00000001
 43
0.00000001
 40
0.0
 40
0.0
 40
0.0
 40
0.0
 40
0.2133156169751565
 40
0.4267224136240798
 40
0.6381129376194461
 40
0.8486020118333183
 40
0.9999999999999999
 40
0.9999999999999999
 40
0.9999999999999999
 40
0.9999999999999999
 10
130.1297574575781
 20
154.9731137504057
 30
0.0
 10
130.1293120079767
 20
154.9693840178496
 30
0.0
 10
130.128420918371
 20
154.9619229584998
 30
0.0
 10
130.1278472411579
 20
154.9519213270893
 30
0.0
 10
130.1279496089554
 20
154.9443667684984
 30
0.0
 10
130.1286419836749
 20
154.9402200551917
 30
0.0
 10
130.1294136168842
 20
154.9397803041686
 30
0.0
 10
130.1297364350439
 20
154.9395963312469
 30
0.0
  0
ARC
  5
119
330
1F
100
AcDbEntity
  8
0
  6
Continuous
 62
     7
370
    15
100
AcDbCircle
 10
130.0968747436
 20
154.9439199189
 30
0.0
 40
0.033144896665684
100
AcDbArc
 50
270.2027649033
 51
352.504689302
  0
SPLINE
  5
11A
330
1F
100
AcDbEntity
  8
0
  6
Continuous
 62
     7
370
    15
100
AcDbSpline
210
0.0
220
0.0
230
1.0
 70
     8
 71
     3
 72
    12
 73
     8
 74
     0
 42
0.00000001
 43
0.00000001
 40
0.0
 40
0.0
 40
0.0
 40
0.0
 40
0.1511023596224502
 40
0.3616887884228696
 40
0.5735263345932965
 40
0.7871625574723242
 40
0.9999999999999999
 40
0.9999999999999999
 40
0.9999999999999999
 40
0.9999999999999999
 10
130.0970129474013
 20
156.5448796300739
 30
0.0
 10
130.096689824606
 20
156.5501344275887
 30
0.0
 10
130.095916376113
 20
156.5627126649591
 30
0.0
 10
130.095221189062
 20
156.5814482462693
 30
0.0
 10
130.0951100793278
 20
156.5980640646836
 30
0.0
 10
130.0956687168491
 20
156.6093767900562
 30
0.0
 10
130.096551483639
 20
156.6108240314013
 30
0.0
 10
130.0969920403279
 20
156.6115462967406
 30
0.0
  0
ARC
  5
11B
330
1F
100
AcDbEntity
  8
0
  6
Continuous
 62
     7
370
    15
100
AcDbCircle
 10
130.0968747436
 20
156.5784016076
 30
0.0
 40
0.0331448966656521
100
AcDbArc
 50
7.4953106979
 51
89.7972350968
  0
SPLINE
  5
11C
330
1F
100
AcDbEntity
  8
0
  6
Continuous
 62
     7
370
    15
100
AcDbSpline
210
0.0
220
0.0
230
1.0
 70
     8
 71
     3
 72
    12
 73
     8
 74
     0
 42
0.00000001
 43
0.00000001
 40
0.0
 40
0.0
 40
0.0
 40
0.0
 40
0.2132717419578283
 40
0.4266341069896376
 40
0.6379963734418314
 40
0.8484894891139981
 40
1.0
 40
1.0
 40
1.0
 40
1.0
 10
130.1297364350438
 20
156.5827251952701
 30
0.0
 10
130.1292935998327
 20
156.5823636049928
 30
0.0
 10
130.1284077412415
 20
156.5816402707917
 30
0.0
 10
130.1278438572728
 20
156.5759516786949
 30
0.0
 10
130.1279559640193
 20
156.5675851123785
 30
0.0
 10
130.1286566521937
 20
156.5581568098528
 30
0.0
 10
130.1294326688838
 20
156.5518481565317
 30
0.0
 10
130.129757457578
 20
156.5492077761112
 30
0.0
  0
LINE
  5
11D
330
1F
100
AcDbEntity
  8
0
  6
Continuous
 62
     7
370
    15
100
AcDbLine
 10
129.9703007431
 20
156.6115462967
 30
0.0
 11
130.0969920403
 21
156.6115462967
 31
0.0
  0
LINE
  5
11E
330
1F
100
AcDbEntity
  8
0
  6
Continuous
 62
     7
370
    15
100
AcDbLine
 10
129.9703007431
 20
156.5448796301
 30
0.0
 11
129.9703007431
 21
156.6115462967
 31
0.0
  0
LINE
  5
11F
330
1F
100
AcDbEntity
  8
0
  6
Continuous
 62
     7
370
    15
100
AcDbLine
 10
130.0969920403
 20
156.6115462967
 30
0.0
 11
130.1480774573
 21
156.6115462967
 31
0.0
  0
LINE
  5
120
330
1F
100
AcDbEntity
  8
0
  6
Continuous
 62
     7
370
    15
100
AcDbLine
 10
130.1480774573
 20
154.9107752298
 30
0.0
 11
130.0969920403
 21
154.9107752298
 31
0.0
  0
SPLINE
  5
121
330
1F
100
AcDbEntity
  8
0
  6
Continuous
 62
     7
370
    15
100
AcDbSpline
210
0.0
220
0.0
230
1.0
 70
     8
 71
     3
 72
    12
 73
     8
 74
     0
 42
0.00000001
 43
0.00000001
 40
0.0
 40
0.0
 40
0.0
 40
0.0
 40
0.1509989516209219
 40
0.3615900694439413
 40
0.5734572595018494
 40
0.7871309963282626
 40
1.0
 40
1.0
 40
1.0
 40
1.0
 10
90.17694277915434
 20
156.6115462967403
 30
0.0
 10
90.17726394024619
 20
156.611179114844
 30
0.0
 10
90.17803300956922
 20
156.6102998416704
 30
0.0
 10
90.17871993301311
 20
156.6020445701885
 30
0.0
 10
90.1788213844156
 20
156.5870383155775
 30
0.0
 10
90.17825302890763
 20
156.5671794988262
 30
0.0
 10
90.17736503257973
 20
156.5523035644737
 30
0.0
 10
90.17692187208104
 20
156.5448796300736
 30
0.0
  0
LINE
  5
122
330
1F
100
AcDbEntity
  8
0
  6
Continuous
 62
     7
370
    15
100
AcDbLine
 10
90.1769218721
 20
156.5448796301
 30
0.0
 11
90.1441773619
 21
156.5492077761
 31
0.0
  0
SPLINE
  5
123
330
1F
100
AcDbEntity
  8
0
  6
Continuous
 62
     7
370
    15
100
AcDbSpline
210
0.0
220
0.0
230
1.0
 70
     8
 71
     3
 72
    12
 73
     8
 74
     0
 42
0.00000001
 43
0.00000001
 40
0.0
 40
0.0
 40
0.0
 40
0.0
 40
0.2133156169751561
 40
0.4267224136240807
 40
0.638112937619447
 40
0.8486020118333187
 40
1.0
 40
1.0
 40
1.0
 40
1.0
 10
90.14417736190427
 20
156.549207776111
 30
0.0
 10
90.14462281150557
 20
156.552937508667
 30
0.0
 10
90.14551390111124
 20
156.5603985680169
 30
0.0
 10
90.14608757832438
 20
156.5704001994274
 30
0.0
 10
90.14598521052689
 20
156.5779547580184
 30
0.0
 10
90.14529283580738
 20
156.582101471325
 30
0.0
 10
90.14452120259813
 20
156.5825412223481
 30
0.0
 10
90.14419838443845
 20
156.5827251952698
 30
0.0
  0
ARC
  5
124
330
1F
100
AcDbEntity
  8
0
  6
Continuous
 62
     7
370
    15
100
AcDbCircle
 10
90.1770600759
 20
156.5784016076
 30
0.0
 40
0.0331448966657069
100
AcDbArc
 50
90.2027649033
 51
172.5046893019
  0
LINE
  5
125
330
1F
100
AcDbEntity
  8
0
  6
Continuous
 62
     7
370
    15
100
AcDbLine
 10
90.3036340764
 20
154.9774418964
 30
0.0
 11
90.3036340764
 21
154.9107752298
 31
0.0
  0
LINE
  5
126
330
1F
100
AcDbEntity
  8
0
  6
Continuous
 62
     7
370
    15
100
AcDbLine
 10
90.3036340764
 20
154.9107752298
 30
0.0
 11
90.1769427792
 21
154.9107752298
 31
0.0
  0
SPLINE
  5
127
330
1F
100
AcDbEntity
  8
0
  6
Continuous
 62
     7
370
    15
100
AcDbSpline
210
0.0
220
0.0
230
1.0
 70
     8
 71
     3
 72
    12
 73
     8
 74
     0
 42
0.00000001
 43
0.00000001
 40
0.0
 40
0.0
 40
0.0
 40
0.0
 40
0.1511023596224502
 40
0.3616887884228696
 40
0.5735263345932966
 40
0.7871625574723244
 40
1.0
 40
1.0
 40
1.0
 40
1.0
 10
90.17692187208104
 20
154.9774418964428
 30
0.0
 10
90.17724499487632
 20
154.9721870989279
 30
0.0
 10
90.1780184433693
 20
154.9596088615575
 30
0.0
 10
90.17871363042032
 20
154.9408732802474
 30
0.0
 10
90.17882474015444
 20
154.9242574618331
 30
0.0
 10
90.17826610263322
 20
154.9129447364605
 30
0.0
 10
90.17738333584325
 20
154.9114974951154
 30
0.0
 10
90.17694277915436
 20
154.9107752297762
 30
0.0
  0
LINE
  5
128
330
1F
100
AcDbEntity
  8
0
  6
Continuous
 62
     7
370
    15
100
AcDbLine
 10
90.1769218721
 20
154.9774418964
 30
0.0
 11
90.3036340764
 21
154.9774418964
 31
0.0
  0
LINE
  5
129
330
1F
100
AcDbEntity
  8
0
  6
Continuous
 62
     7
370
    15
100
AcDbLine
 10
90.3036340764
 20
156.5448796301
 30
0.0
 11
90.1769218721
 21
156.5448796301
 31
0.0
  0
LINE
  5
12A
330
1F
100
AcDbEntity
  8
0
  6
Continuous
 62
     7
370
    15
100
AcDbLine
 10
90.1769427792
 20
156.6115462967
 30
0.0
 11
90.3036340764
 21
156.6115462967
 31
0.0
  0
LINE
  5
12B
330
1F
100
AcDbEntity
  8
0
  6
Continuous
 62
     7
370
    15
100
AcDbLine
 10
90.3036340764
 20
156.6115462967
 30
0.0
 11
90.3036340764
 21
156.5448796301
 31
0.0
  0
ARC
  5
12C
330
1F
100
AcDbEntity
  8
0
  6
Continuous
 62
     7
370
    15
100
AcDbCircle
 10
96.106132714
 20
155.7611607633
 30
0.0
 40
5.980782262369876
100
AcDbArc
 50
172.4703333922
 51
187.5296666078
  0
LINE
  5
12D
330
1F
100
AcDbEntity
  8
0
  6
Continuous
 62
     7
370
    15
100
AcDbLine
 10
90.3036340764
 20
156.5448796301
 30
0.0
 11
90.3036340764
 21
154.9774418964
 31
0.0
  0
ARC
  5
12E
330
1F
100
AcDbEntity
  8
0
  6
Continuous
 62
     7
370
    15
100
AcDbCircle
 10
90.1770600759
 20
154.9439199189
 30
0.0
 40
0.0331448966656783
100
AcDbArc
 50
187.495310698
 51
269.7972350967
  0
SPLINE
  5
12F
330
1F
100
AcDbEntity
  8
0
  6
Continuous
 62
     7
370
    15
100
AcDbSpline
210
0.0
220
0.0
230
1.0
 70
     8
 71
     3
 72
    12
 73
     8
 74
     0
 42
0.00000001
 43
0.00000001
 40
0.0
 40
0.0
 40
0.0
 40
0.0
 40
0.2132717419577643
 40
0.4266341069896344
 40
0.6379963734418292
 40
0.8484894891139971
 40
1.0
 40
1.0
 40
1.0
 40
1.0
 10
90.14419838443845
 20
154.9395963312466
 30
0.0
 10
90.14464121964963
 20
154.9399579215239
 30
0.0
 10
90.14552707824079
 20
154.940681255725
 30
0.0
 10
90.14609096220954
 20
154.9463698478218
 30
0.0
 10
90.14597885546304
 20
154.9547364141383
 30
0.0
 10
90.14527816728857
 20
154.9641647166638
 30
0.0
 10
90.14450215059848
 20
154.970473369985
 30
0.0
 10
90.14417736190427
 20
154.9731137504054
 30
0.0
  0
LINE
  5
130
330
1F
100
AcDbEntity
  8
0
  6
Continuous
 62
     7
370
    15
100
AcDbLine
 10
90.1769218721
 20
154.9774418964
 30
0.0
 11
90.1441773619
 21
154.9731137504
 31
0.0
  0
ARC
  5
131
330
1F
100
AcDbEntity
  8
0
  6
Continuous
 62
     7
370
    15
100
AcDbCircle
 10
96.106132714
 20
155.7611607633
 30
0.0
 40
6.013811579571984
100
AcDbArc
 50
172.4703333922
 51
187.5296666078
  0
LINE
  5
132
330
1F
100
AcDbEntity
  8
0
  6
Continuous
 62
     7
370
    15
100
AcDbLine
 10
90.1258573622
 20
156.6115462967
 30
0.0
 11
90.1769427792
 21
156.6115462967
 31
0.0
  0
LINE
  5
133
330
1F
100
AcDbEntity
  8
0
  6
Continuous
 62
     7
370
    15
100
AcDbLine
 10
90.1769427792
 20
154.9107752298
 30
0.0
 11
90.1258573622
 21
154.9107752298
 31
0.0
  0
LINE
  5
134
330
1F
100
AcDbEntity
  8
0
  6
Continuous
 62
     7
370
    15
100
AcDbLine
 10
90.3036340764
 20
154.9107752298
 30
0.0
 11
90.3036340764
 21
154.9033374961
 31
0.0
  0
LINE
  5
135
330
1F
100
AcDbEntity
  8
0
  6
Continuous
 62
     7
370
    15
100
AcDbLine
 10
90.3036340764
 20
154.9033374961
 30
0.0
 11
90.1769427792
 21
154.9033374961
 31
0.0
  0
LINE
  5
136
330
1F
100
AcDbEntity
  8
0
  6
Continuous
 62
     7
370
    15
100
AcDbLine
 10
90.1769427792
 20
154.9033374961
 30
0.0
 11
90.1258573622
 21
154.9033374961
 31
0.0
  0
LINE
  5
137
330
1F
100
AcDbEntity
  8
0
  6
Continuous
 62
     7
370
    15
100
AcDbLine
 10
118.9036340764
 20
156.6041085631
 30
0.0
 11
118.9036340764
 21
221.9107752298
 31
0.0
  0
LINE
  5
138
330
1F
100
AcDbEntity
  8
0
  6
Continuous
 62
     7
370
    15
100
AcDbLine
 10
115.7036340764
 20
156.6041085631
 30
0.0
 11
118.9036340764
 21
156.6041085631
 31
0.0
  0
LINE
  5
139
330
1F
100
AcDbEntity
  8
0
  6
Continuous
 62
     7
370
    15
100
AcDbLine
 10
115.7036340764
 20
156.6041085631
 30
0.0
 11
115.7036340764
 21
221.9107752298
 31
0.0
  0
LINE
  5
13A
330
1F
100
AcDbEntity
  8
0
  6
Continuous
 62
     7
370
    15
100
AcDbLine
 10
115.7036340764
 20
221.9107752298
 30
0.0
 11
118.9036340764
 21
221.9107752298
 31
0.0
  0
LINE
  5
13B
330
1F
100
AcDbEntity
  8
0
  6
Continuous
 62
     7
370
    15
100
AcDbLine
 10
118.9703007431
 20
156.6041085631
 30
0.0
 11
118.9703007431
 21
221.9107752298
 31
0.0
  0
LINE
  5
13C
330
1F
100
AcDbEntity
  8
0
  6
Continuous
 62
     7
370
    15
100
AcDbLine
 10
115.6369674097
 20
156.6041085631
 30
0.0
 11
115.6369674097
 21
221.9107752298
 31
0.0
  0
LINE
  5
13D
330
1F
100
AcDbEntity
  8
0
  6
Continuous
 62
     7
370
    15
100
AcDbLine
 10
115.6383143499
 20
156.6041085631
 30
0.0
 11
115.7036340764
 21
156.6041085631
 31
0.0
  0
LINE
  5
13E
330
1F
100
AcDbEntity
  8
0
  6
Continuous
 62
     7
370
    15
100
AcDbLine
 10
115.6383143499
 20
221.9107752298
 30
0.0
 11
115.7036340764
 21
221.9107752298
 31
0.0
  0
LINE
  5
13F
330
1F
100
AcDbEntity
  8
0
  6
Continuous
 62
     7
370
    15
100
AcDbLine
 10
95.3036340764
 20
221.9774418964
 30
0.0
 11
124.6369674097
 21
221.9774418964
 31
0.0
  0
LINE
  5
140
330
1F
100
AcDbEntity
  8
0
  6
Continuous
 62
     7
370
    15
100
AcDbLine
 10
95.3036340764
 20
223.5374418964
 30
0.0
 11
95.3036340764
 21
221.9774418964
 31
0.0
  0
LINE
  5
141
330
1F
100
AcDbEntity
  8
0
  6
Continuous
 62
     7
370
    15
100
AcDbLine
 10
95.3036340764
 20
223.5374418964
 30
0.0
 11
124.6369674097
 21
223.5374418964
 31
0.0
  0
LINE
  5
142
330
1F
100
AcDbEntity
  8
0
  6
Continuous
 62
     7
370
    15
100
AcDbLine
 10
124.6369674097
 20
223.5374418964
 30
0.0
 11
124.6369674097
 21
221.9774418964
 31
0.0
  0
LINE
  5
143
330
1F
100
AcDbEntity
  8
0
  6
Continuous
 62
     7
370
    15
100
AcDbLine
 10
95.3036340764
 20
223.564795648
 30
0.0
 11
95.3036340764
 21
223.5374418964
 31
0.0
  0
LINE
  5
144
330
1F
100
AcDbEntity
  8
0
  6
Continuous
 62
     7
370
    15
100
AcDbLine
 10
95.3036340764
 20
221.9107752298
 30
0.0
 11
115.6383143499
 21
221.9107752298
 31
0.0
  0
LINE
  5
145
330
1F
100
AcDbEntity
  8
0
  6
Continuous
 62
     7
370
    15
100
AcDbLine
 10
118.9689538029
 20
221.9107752298
 30
0.0
 11
124.6369674097
 21
221.9107752298
 31
0.0
  0
LINE
  5
146
330
1F
100
AcDbEntity
  8
0
  6
Continuous
 62
     7
370
    15
100
AcDbLine
 10
95.3036340764
 20
221.9774418964
 30
0.0
 11
95.3036340764
 21
221.9107752298
 31
0.0
  0
LINE
  5
147
330
1F
100
AcDbEntity
  8
0
  6
Continuous
 62
     7
370
    15
100
AcDbLine
 10
126.3076583688
 20
154.9107752298
 30
0.0
 11
126.9662764507
 21
154.9107752298
 31
0.0
  0
LINE
  5
148
330
1F
100
AcDbEntity
  8
0
  6
Continuous
 62
     7
370
    15
100
AcDbLine
 10
125.7903007431
 20
154.2941085631
 30
0.0
 11
127.4836340764
 21
154.2941085631
 31
0.0
  0
LINE
  5
149
330
1F
100
AcDbEntity
  8
0
  6
Continuous
 62
     7
370
    15
100
AcDbLine
 10
125.8569674097
 20
154.2274418964
 30
0.0
 11
127.4169674097
 21
154.2274418964
 31
0.0
  0
LINE
  5
14A
330
1F
100
AcDbEntity
  8
0
  6
Continuous
 62
     7
370
    15
100
AcDbLine
 10
92.7903007431
 20
154.2941085631
 30
0.0
 11
94.4836340764
 21
154.2941085631
 31
0.0
  0
LINE
  5
14B
330
1F
100
AcDbEntity
  8
0
  6
Continuous
 62
     7
370
    15
100
AcDbLine
 10
93.3076583688
 20
154.9107752298
 30
0.0
 11
93.9662764507
 21
154.9107752298
 31
0.0
  0
LINE
  5
14C
330
1F
100
AcDbEntity
  8
0
  6
Continuous
 62
     7
370
    15
100
AcDbLine
 10
92.8569674097
 20
154.2274418964
 30
0.0
 11
94.4169674097
 21
154.2274418964
 31
0.0
  0
LINE
  5
14D
330
1F
100
AcDbEntity
  8
0
  6
Continuous
 62
     7
370
    15
100
AcDbLine
 10
129.9703007431
 20
156.5374418964
 30
0.0
 11
90.3036340764
 21
156.5374418964
 31
0.0
  0
LINE
  5
14E
330
1F
100
AcDbEntity
  8
0
  6
Continuous
 62
     7
370
    15
100
AcDbLine
 10
129.9703007431
 20
154.9774418964
 30
0.0
 11
90.3036340764
 21
154.9774418964
 31
0.0
  0
LINE
  5
14F
330
1F
100
AcDbEntity
  8
0
  6
Continuous
 62
     7
370
    15
100
AcDbLine
 10
90.3036340764
 20
154.9774418964
 30
0.0
 11
90.3036340764
 21
156.5374418964
 31
0.0
  0
LINE
  5
150
330
1F
100
AcDbEntity
  8
0
  6
Continuous
 62
     7
370
    15
100
AcDbLine
 10
129.9703007431
 20
154.9774418964
 30
0.0
 11
129.9703007431
 21
156.5374418964
 31
0.0
  0
LINE
  5
151
330
1F
100
AcDbEntity
  8
0
  6
Continuous
 62
     7
370
    15
100
AcDbLine
 10
129.9703007431
 20
156.6041085631
 30
0.0
 11
118.9689538029
 21
156.6041085631
 31
0.0
  0
LINE
  5
152
330
1F
100
AcDbEntity
  8
0
  6
Continuous
 62
     7
370
    15
100
AcDbLine
 10
115.6383143499
 20
156.6041085631
 30
0.0
 11
95.3022871362
 21
156.6041085631
 31
0.0
  0
LINE
  5
153
330
1F
100
AcDbEntity
  8
0
  6
Continuous
 62
     7
370
    15
100
AcDbLine
 10
91.9716476833
 20
156.6041085631
 30
0.0
 11
90.3036340764
 21
156.6041085631
 31
0.0
  0
LINE
  5
154
330
1F
100
AcDbEntity
  8
0
  6
Continuous
 62
     7
370
    15
100
AcDbLine
 10
129.9703007431
 20
154.9107752298
 30
0.0
 11
126.9662764507
 21
154.9107752298
 31
0.0
  0
LINE
  5
155
330
1F
100
AcDbEntity
  8
0
  6
Continuous
 62
     7
370
    15
100
AcDbLine
 10
126.3076583688
 20
154.9107752298
 30
0.0
 11
93.9662764507
 21
154.9107752298
 31
0.0
  0
LINE
  5
156
330
1F
100
AcDbEntity
  8
0
  6
Continuous
 62
     7
370
    15
100
AcDbLine
 10
93.3076583688
 20
154.9107752298
 30
0.0
 11
90.3036340764
 21
154.9107752298
 31
0.0
  0
LINE
  5
157
330
1F
100
AcDbEntity
  8
0
  6
Continuous
 62
     7
370
    15
100
AcDbLine
 10
93.3369674097
 20
223.6041085631
 30
0.0
 11
93.4703007431
 21
223.6041085631
 31
0.0
  0
LINE
  5
158
330
1F
100
AcDbEntity
  8
0
  6
Continuous
 62
     7
370
    15
100
AcDbLine
 10
92.0369674097
 20
156.6041085631
 30
0.0
 11
95.2369674097
 21
156.6041085631
 31
0.0
  0
LINE
  5
159
330
1F
100
AcDbEntity
  8
0
  6
Continuous
 62
     7
370
    15
100
AcDbLine
 10
95.3036340764
 20
156.6041085631
 30
0.0
 11
95.3036340764
 21
221.9107752298
 31
0.0
  0
LINE
  5
15A
330
1F
100
AcDbEntity
  8
0
  6
Continuous
 62
     7
370
    15
100
AcDbLine
 10
91.9703007431
 20
156.6041085631
 30
0.0
 11
91.9703007431
 21
223.564795648
 31
0.0
  0
LINE
  5
15B
330
1F
100
AcDbEntity
  8
0
  6
Continuous
 62
     7
370
    15
100
AcDbLine
 10
91.9716476833
 20
156.6041085631
 30
0.0
 11
92.0369674097
 21
156.6041085631
 31
0.0
  0
LINE
  5
15C
330
1F
100
AcDbEntity
  8
0
  6
Continuous
 62
     7
370
    15
100
AcDbLine
 10
128.9903007431
 20
233.5877298719
 30
0.0
 11
128.9903007431
 21
237.1314623146
 31
0.0
  0
LINE
  5
15D
330
1F
100
AcDbEntity
  8
0
  6
Continuous
 62
     7
370
    15
100
AcDbLine
 10
129.6569674098
 20
236.5447808689
 30
0.0
 11
129.6569674098
 21
236.864795648
 31
0.0
  0
SPLINE
  5
15E
330
1F
100
AcDbEntity
  8
0
  6
Continuous
 62
     7
370
    15
100
AcDbSpline
210
0.0
220
0.0
230
1.0
 70
     8
 71
     3
 72
     9
 73
     5
 74
     0
 42
0.00000001
 43
0.00000001
 40
0.0
 40
0.0
 40
0.0
 40
0.0
 40
0.5209744652334811
 40
1.0
 40
1.0
 40
1.0
 40
1.0
 10
129.6150601215103
 20
236.4711334284059
 30
0.0
 10
129.6169329235398
 20
236.4873842753202
 30
0.0
 10
129.6205277293404
 20
236.5185774488803
 30
0.0
 10
129.6451653569921
 20
236.5362941274885
 30
0.0
 10
129.6569674097533
 20
236.5447808689331
 30
0.0
  0
SPLINE
  5
15F
330
1F
100
AcDbEntity
  8
0
  6
Continuous
 62
     7
370
    15
100
AcDbSpline
210
0.0
220
0.0
230
1.0
 70
     8
 71
     3
 72
    16
 73
    12
 74
     0
 42
0.00000001
 43
0.00000001
 40
0.0
 40
0.0
 40
0.0
 40
0.0
 40
0.0000597702847832
 40
0.1251210323923315
 40
0.2500906799919286
 40
0.375058195678474
 40
0.5000239897295069
 40
0.6249879290177786
 40
0.7499516896828786
 40
0.8749147384303056
 40
0.9999999999999999
 40
0.9999999999999999
 40
0.9999999999999999
 40
0.9999999999999999
 10
129.1450567894584
 20
237.0695594328603
 30
0.0
 10
129.1450549647324
 20
237.0695603171527
 30
0.0
 10
129.1412351468397
 20
237.0714114639417
 30
0.0
 10
129.154650059556
 20
237.0648590589045
 30
0.0
 10
129.1859388874226
 20
237.0499279903665
 30
0.0
 10
129.237129723467
 20
237.0267401211435
 30
0.0
 10
129.2972759688916
 20
237.0015130891352
 30
0.0
 10
129.3585048977016
 20
236.9780480300964
 30
0.0
 10
129.4105461650376
 20
236.9598516203243
 30
0.0
 10
129.447287443169
 20
236.9480088150434
 30
0.0
 10
129.4521210859172
 20
236.9465144994332
 30
0.0
 10
129.4545390885293
 20
236.9457669764495
 30
0.0
  0
LINE
  5
160
330
1F
100
AcDbEntity
  8
0
  6
Continuous
 62
     7
370
    15
100
AcDbLine
 10
129.6569674098
 20
236.4224889314
 30
0.0
 11
129.6569674098
 21
233.583209994
 31
0.0
  0
ARC
  5
161
330
1F
100
AcDbEntity
  8
0
  6
Continuous
 62
     7
370
    15
100
AcDbCircle
 10
129.602846252
 20
236.41823733
 30
0.0
 40
0.0542878976920208
100
AcDbArc
 50
4.4917657769
 51
76.998104743
  0
SPLINE
  5
162
330
1F
100
AcDbEntity
  8
0
  6
Continuous
 62
     7
370
    15
100
AcDbSpline
210
0.0
220
0.0
230
1.0
 70
     8
 71
     3
 72
    12
 73
     8
 74
     0
 42
0.00000001
 43
0.00000001
 40
0.0
 40
0.0
 40
0.0
 40
0.0
 40
0.0304717459519019
 40
0.0888135668590946
 40
0.392555617548861
 40
0.6962774394173943
 40
1.0
 40
1.0
 40
1.0
 40
1.0
 10
129.6874147612072
 20
236.4792046867491
 30
0.0
 10
129.6874310701842
 20
236.4799115399268
 30
0.0
 10
129.6874786046587
 20
236.4819717484904
 30
0.0
 10
129.6872204423411
 20
236.4911745246896
 30
0.0
 10
129.6839602288984
 20
236.5071719766266
 30
0.0
 10
129.6737176905981
 20
236.527786954394
 30
0.0
 10
129.663131204943
 20
236.5378825593815
 30
0.0
 10
129.6578379556783
 20
236.5429303680139
 30
0.0
  0
SPLINE
  5
163
330
1F
100
AcDbEntity
  8
0
  6
Continuous
 62
     7
370
    15
100
AcDbSpline
210
0.0
220
0.0
230
1.0
 70
     8
 71
     3
 72
     9
 73
     5
 74
     0
 42
0.00000001
 43
0.00000001
 40
0.0
 40
0.0
 40
0.0
 40
0.0
 40
0.4684410573255462
 40
1.0
 40
1.0
 40
1.0
 40
1.0
 10
129.6874147612072
 20
236.4792046867491
 30
0.0
 10
129.6789689984622
 20
236.4732704361689
 30
0.0
 10
129.6609394884248
 20
236.4606023523462
 30
0.0
 10
129.6583460011219
 20
236.4357169758445
 30
0.0
 10
129.6569674097533
 20
236.4224889314232
 30
0.0
  0
SPLINE
  5
164
330
1F
100
AcDbEntity
  8
0
  6
Continuous
 62
     7
370
    15
100
AcDbSpline
210
0.0
220
0.0
230
1.0
 70
     8
 71
     3
 72
    11
 73
     7
 74
     0
 42
0.00000001
 43
0.00000001
 40
0.0
 40
0.0
 40
0.0
 40
0.0
 40
0.3704320937829367
 40
0.744249846930188
 40
0.9442480537636226
 40
1.0
 40
1.0
 40
1.0
 40
1.0
 10
129.6569674097533
 20
236.5447808689331
 30
0.0
 10
129.6569788858503
 20
236.5445705052487
 30
0.0
 10
129.6570019429329
 20
236.544147855207
 30
0.0
 10
129.6572522069567
 20
236.5435381738994
 30
0.0
 10
129.6576105419144
 20
236.5431198849187
 30
0.0
 10
129.6577972536735
 20
236.542964287324
 30
0.0
 10
129.6578379556783
 20
236.5429303680139
 30
0.0
  0
SPLINE
  5
165
330
1F
100
AcDbEntity
  8
0
  6
Continuous
 62
     7
370
    15
100
AcDbSpline
210
0.0
220
0.0
230
1.0
 70
     8
 71
     3
 72
    11
 73
     7
 74
     0
 42
0.00000001
 43
0.00000001
 40
0.0
 40
0.0
 40
0.0
 40
0.0
 40
0.3658281109895135
 40
0.7252591430831493
 40
0.9820690181776693
 40
1.0
 40
1.0
 40
1.0
 40
1.0
 10
129.8534769284659
 20
236.4420296959503
 30
0.0
 10
129.8307390660385
 20
236.4532547891547
 30
0.0
 10
129.7856609484083
 20
236.4755086871847
 30
0.0
 10
129.7283253655452
 20
236.4876692853796
 30
0.0
 10
129.6985585843876
 20
236.4839706292828
 30
0.0
 10
129.6880975043496
 20
236.4794966794099
 30
0.0
 10
129.6874147612072
 20
236.4792046867491
 30
0.0
  0
SPLINE
  5
166
330
1F
100
AcDbEntity
  8
0
  6
Continuous
 62
     7
370
    15
100
AcDbSpline
210
0.0
220
0.0
230
1.0
 70
     8
 71
     3
 72
    12
 73
     8
 74
     0
 42
0.00000001
 43
0.00000001
 40
0.0
 40
0.0
 40
0.0
 40
0.0
 40
0.2238925571846068
 40
0.4477848984195805
 40
0.6716824862030643
 40
0.8955821585467924
 40
0.9999999999999999
 40
0.9999999999999999
 40
0.9999999999999999
 40
0.9999999999999999
 10
129.7015515842772
 20
236.8446496791496
 30
0.0
 10
129.6998583472967
 20
236.8454145700941
 30
0.0
 10
129.6964718749689
 20
236.8469443512452
 30
0.0
 10
129.6921069249608
 20
236.8489353747343
 30
0.0
 10
129.688932084152
 20
236.8503916493052
 30
0.0
 10
129.6875194968204
 20
236.8510434212296
 30
0.0
 10
129.6874020409344
 20
236.8510989312411
 30
0.0
 10
129.6873646853576
 20
236.8511165856011
 30
0.0
  0
LINE
  5
167
330
1F
100
AcDbEntity
  8
0
  6
Continuous
 62
     7
370
    15
100
AcDbLine
 10
129.7015515843
 20
236.8446496791
 30
0.0
 11
130.8611339305
 21
236.3192341641
 31
0.0
  0
LINE
  5
168
330
1F
100
AcDbEntity
  8
0
  6
Continuous
 62
     7
370
    15
100
AcDbLine
 10
130.8611339305
 20
236.3192341641
 30
0.0
 11
130.9509917216
 21
236.2786847064
 31
0.0
  0
LINE
  5
169
330
1F
100
AcDbEntity
  8
0
  6
Continuous
 62
     7
370
    15
100
AcDbLine
 10
130.9509917216
 20
236.0528395131
 30
0.0
 11
130.9509917216
 21
236.2786847064
 31
0.0
  0
LINE
  5
16A
330
1F
100
AcDbEntity
  8
0
  6
Continuous
 62
     7
370
    15
100
AcDbLine
 10
129.8796710799
 20
236.5186304447
 30
0.0
 11
130.9509917216
 21
236.0528395131
 31
0.0
  0
SPLINE
  5
16B
330
1F
100
AcDbEntity
  8
0
  6
Continuous
 62
     7
370
    15
100
AcDbSpline
210
0.0
220
0.0
230
1.0
 70
     8
 71
     3
 72
    10
 73
     6
 74
     0
 42
0.00000001
 43
0.00000001
 40
0.0
 40
0.0
 40
0.0
 40
0.0
 40
0.2857669779336455
 40
0.6445560549562982
 40
1.0
 40
1.0
 40
1.0
 40
1.0
 10
129.6578379556783
 20
236.5429303680139
 30
0.0
 10
129.6735303527494
 20
236.5482670605015
 30
0.0
 10
129.7089250285867
 20
236.5603041316886
 30
0.0
 10
129.788288960667
 20
236.551779442702
 30
0.0
 10
129.8493056312693
 20
236.5296455558203
 30
0.0
 10
129.8796710798586
 20
236.518630444744
 30
0.0
  0
ARC
  5
16C
330
1F
100
AcDbEntity
  8
0
  6
Continuous
 62
     7
370
    15
100
AcDbCircle
 10
129.6049104684
 20
236.569807711
 30
0.0
 40
0.2794861467193033
100
AcDbArc
 50
332.794127652
 51
349.4489224795
  0
ARC
  5
16D
330
1F
100
AcDbEntity
  8
0
  6
Continuous
 62
     7
370
    15
100
AcDbCircle
 10
130.5887304534
 20
233.7732195972
 30
0.0
 40
0.3767653645097799
100
AcDbArc
 50
15.9496313683
 51
26.8769008126
  0
LINE
  5
16E
330
1F
100
AcDbEntity
  8
0
  6
Continuous
 62
     7
370
    15
100
AcDbLine
 10
130.9247975702
 20
235.9860454444
 30
0.0
 11
129.8534769285
 21
236.442029696
 31
0.0
  0
ARC
  5
16F
330
1F
100
AcDbEntity
  8
0
  6
Continuous
 62
     7
370
    15
100
AcDbCircle
 10
130.5887304534
 20
236.1563716987
 30
0.0
 40
0.3767653645083393
100
AcDbArc
 50
333.1230991874
 51
344.0503686317
  0
LINE
  5
170
330
1F
100
AcDbEntity
  8
0
  6
Continuous
 62
     7
370
    15
100
AcDbLine
 10
130.9247975702
 20
233.9435458515
 30
0.0
 11
130.9247975702
 21
235.9860454444
 31
0.0
  0
ARC
  5
171
330
1F
100
AcDbEntity
  8
0
  6
Continuous
 62
     7
370
    15
100
AcDbCircle
 10
130.9399104975
 20
233.8656239759
 30
0.0
 40
0.0793739205275684
100
AcDbArc
 50
50.5914088266
 51
100.9762263585
  0
ARC
  5
172
330
1F
100
AcDbEntity
  8
0
  6
Continuous
 62
     7
370
    15
100
AcDbCircle
 10
130.9346686137
 20
233.9300240223
 30
0.0
 40
0.0557169215896261
100
AcDbArc
 50
287.0355498026
 51
356.8386162461
  0
ARC
  5
173
330
1F
100
AcDbEntity
  8
0
  6
Continuous
 62
     7
370
    15
100
AcDbCircle
 10
130.9399104975
 20
236.06396732
 30
0.0
 40
0.0793739205274147
100
AcDbArc
 50
259.0237736415
 51
309.4085911735
  0
ARC
  5
174
330
1F
100
AcDbEntity
  8
0
  6
Continuous
 62
     7
370
    15
100
AcDbCircle
 10
130.9346686137
 20
235.9995672736
 30
0.0
 40
0.0557169215892699
100
AcDbArc
 50
3.1613837536
 51
72.9644501977
  0
LINE
  5
175
330
1F
100
AcDbEntity
  8
0
  6
Continuous
 62
     7
370
    15
100
AcDbLine
 10
130.9903007431
 20
236.0026399818
 30
0.0
 11
130.9903007431
 21
233.9269513142
 31
0.0
  0
LINE
  5
176
330
1F
100
AcDbEntity
  8
0
  6
Continuous
 62
     7
370
    15
100
AcDbLine
 10
130.9903007431
 20
233.9269513142
 30
0.0
 11
130.9903007431
 21
233.7079013553
 31
0.0
  0
LINE
  5
177
330
1F
100
AcDbEntity
  8
0
  6
Continuous
 62
     7
370
    15
100
AcDbLine
 10
130.9903007431
 20
236.2177055661
 30
0.0
 11
130.9903007431
 21
236.0026399818
 31
0.0
  0
SPLINE
  5
178
330
1F
100
AcDbEntity
  8
0
  6
Continuous
 62
     7
370
    15
100
AcDbSpline
210
0.0
220
0.0
230
1.0
 70
     8
 71
     3
 72
    11
 73
     7
 74
     0
 42
0.00000001
 43
0.00000001
 40
0.0
 40
0.0
 40
0.0
 40
0.0
 40
0.2933118760924417
 40
0.5865991201415265
 40
0.8805021461501322
 40
1.0
 40
1.0
 40
1.0
 40
1.0
 10
130.9509917215752
 20
236.2786847064427
 30
0.0
 10
130.957528706706
 20
236.2749251180345
 30
0.0
 10
130.9706021279979
 20
236.2674062569445
 30
0.0
 10
130.9840067334404
 20
236.2487091621879
 30
0.0
 10
130.9897410347024
 20
236.2312793377979
 30
0.0
 10
130.9901752334045
 20
236.2207493650036
 30
0.0
 10
130.9903007430867
 20
236.2177055660875
 30
0.0
  0
LINE
  5
179
330
1F
100
AcDbEntity
  8
0
  6
Continuous
 62
     7
370
    15
100
AcDbLine
 10
128.8569674098
 20
235.0481289813
 30
0.0
 11
128.8569674098
 21
235.0218627858
 31
0.0
  0
SPLINE
  5
17A
330
1F
100
AcDbEntity
  8
0
  6
Continuous
 62
     7
370
    15
100
AcDbSpline
210
0.0
220
0.0
230
1.0
 70
    24
 71
     3
 72
    15
 73
    11
 74
     0
 42
0.00000001
 43
0.00000001
 40
0.0
 40
0.0
 40
0.0
 40
0.0
 40
0.0013085590450105
 40
0.0031123972377984
 40
0.00590324708874
 40
0.0102791707597012
 40
0.0184846044874135
 40
0.0492181494333268
 40
0.1106093070873723
 40
1.0
 40
1.0
 40
1.0
 40
1.0
 10
128.8569674097533
 20
235.0481289812933
 30
0.0
 10
128.856972856355
 20
235.0481289812932
 30
0.0
 10
128.8569858110538
 20
235.0481289812932
 30
0.0
 10
128.8571142270701
 20
235.0481289812933
 30
0.0
 10
128.8573950254069
 20
235.0481289812932
 30
0.0
 10
128.8579746351564
 20
235.0481289812932
 30
0.0
 10
128.8597560469834
 20
235.0481289812932
 30
0.0
 10
128.8641422090585
 20
235.0481289812932
 30
0.0
 10
128.9075634059088
 20
235.0481289812931
 30
0.0
 10
128.9503122007605
 20
235.0481289812932
 30
0.0
 10
128.9903007430866
 20
235.0481289812932
 30
0.0
  0
LINE
  5
17B
330
1F
100
AcDbEntity
  8
0
  6
Continuous
 62
     7
370
    15
100
AcDbLine
 10
128.8569674098
 20
235.0218627858
 30
0.0
 11
128.8569674098
 21
234.914795648
 31
0.0
  0
LINE
  5
17C
330
1F
100
AcDbEntity
  8
0
  6
Continuous
 62
     7
370
    15
100
AcDbLine
 10
128.8569674098
 20
234.914795648
 30
0.0
 11
128.8569674098
 21
234.8814623146
 31
0.0
  0
LINE
  5
17D
330
1F
100
AcDbEntity
  8
0
  6
Continuous
 62
     7
370
    15
100
AcDbLine
 10
128.9903007431
 20
234.8791349726
 30
0.0
 11
128.8569674098
 21
234.8814623146
 31
0.0
  0
LINE
  5
17E
330
1F
100
AcDbEntity
  8
0
  6
Continuous
 62
     7
370
    15
100
AcDbLine
 10
128.9903007431
 20
234.6807261215
 30
0.0
 11
128.8569674098
 21
234.6809724573
 31
0.0
  0
LINE
  5
17F
330
1F
100
AcDbEntity
  8
0
  6
Continuous
 62
     7
370
    15
100
AcDbLine
 10
128.8569674098
 20
234.8814623146
 30
0.0
 11
128.8569674098
 21
234.6809724573
 31
0.0
  0
LINE
  5
180
330
1F
100
AcDbEntity
  8
0
  6
Continuous
 62
     7
370
    15
100
AcDbLine
 10
128.8569674098
 20
234.606314293
 30
0.0
 11
128.8569674098
 21
234.5666689675
 31
0.0
  0
LINE
  5
181
330
1F
100
AcDbEntity
  8
0
  6
Continuous
 62
     7
370
    15
100
AcDbLine
 10
128.8569674098
 20
234.6809724573
 30
0.0
 11
128.8569674098
 21
234.606314293
 31
0.0
  0
LINE
  5
182
330
1F
100
AcDbEntity
  8
0
  6
Continuous
 62
     7
370
    15
100
AcDbLine
 10
128.8569674098
 20
234.5666689675
 30
0.0
 11
128.8569674098
 21
234.4963908512
 31
0.0
  0
LINE
  5
183
330
1F
100
AcDbEntity
  8
0
  6
Continuous
 62
     7
370
    15
100
AcDbLine
 10
128.8569674098
 20
234.4963908512
 30
0.0
 11
128.8569674098
 21
234.4906749962
 31
0.0
  0
SPLINE
  5
184
330
1F
100
AcDbEntity
  8
0
  6
Continuous
 62
     7
370
    15
100
AcDbSpline
210
0.0
220
0.0
230
1.0
 70
     8
 71
     3
 72
    16
 73
    12
 74
     0
 42
0.00000001
 43
0.00000001
 40
0.0
 40
0.0
 40
0.0
 40
0.0
 40
0.0001752464039652
 40
0.1252144210065771
 40
0.2502435855708542
 40
0.3752580360337731
 40
0.5002621062641212
 40
0.6252646105096331
 40
0.7502654112533484
 40
0.8753601771999073
 40
0.9999999999999999
 40
0.9999999999999999
 40
0.9999999999999999
 40
0.9999999999999999
 10
129.1453149018524
 20
237.0701733166072
 30
0.0
 10
129.1453095609451
 20
237.0701759050981
 30
0.0
 10
129.1414934562739
 20
237.0720253945973
 30
0.0
 10
129.1549121846721
 20
237.0654706989195
 30
0.0
 10
129.1862264875097
 20
237.0505271261388
 30
0.0
 10
129.2374563251256
 20
237.0273224528315
 30
0.0
 10
129.2976426668501
 20
237.0020817004221
 30
0.0
 10
129.358892754905
 20
236.9786136239527
 30
0.0
 10
129.4109340195936
 20
236.9604224403449
 30
0.0
 10
129.4475779444286
 20
236.9486145275373
 30
0.0
 10
129.4523866897262
 20
236.9471279137278
 30
0.0
 10
129.4547866823135
 20
236.9463859609102
 30
0.0
  0
LINE
  5
185
330
1F
100
AcDbEntity
  8
0
  6
Continuous
 62
     7
370
    15
100
AcDbLine
 10
91.2836340764
 20
226.1404311312
 30
0.0
 11
90.9226644076
 21
226.1404311312
 31
0.0
  0
SPLINE
  5
186
330
1F
100
AcDbEntity
  8
0
  6
Continuous
 62
     7
370
    15
100
AcDbSpline
210
0.0
220
0.0
230
1.0
 70
     8
 71
     3
 72
     9
 73
     5
 74
     0
 42
0.00000001
 43
0.00000001
 40
0.0
 40
0.0
 40
0.0
 40
0.0
 40
0.4954579634770079
 40
1.0
 40
1.0
 40
1.0
 40
1.0
 10
90.92266440763802
 20
226.1404311312202
 30
0.0
 10
90.90186127779612
 20
226.2080996296545
 30
0.0
 10
90.85987359897084
 20
226.3446773081308
 30
0.0
 10
90.85213734283366
 20
226.4858634528842
 30
0.0
 10
90.84823407640715
 20
226.5570977978869
 30
0.0
  0
SPLINE
  5
187
330
1F
100
AcDbEntity
  8
0
  6
Continuous
 62
     7
370
    15
100
AcDbSpline
210
0.0
220
0.0
230
1.0
 70
     8
 71
     3
 72
    10
 73
     6
 74
     0
 42
0.00000001
 43
0.00000001
 40
0.0
 40
0.0
 40
0.0
 40
0.0
 40
0.0700995828662873
 40
0.5307893632080798
 40
0.9999999999999999
 40
0.9999999999999999
 40
0.9999999999999999
 40
0.9999999999999999
 10
90.84823407640715
 20
226.5570977978869
 30
0.0
 10
90.84832297117923
 20
226.5669754872856
 30
0.0
 10
90.84899607646072
 20
226.6417686922026
 30
0.0
 10
90.86525238427656
 20
226.782786155069
 30
0.0
 10
90.90341051641519
 20
226.9097173297995
 30
0.0
 10
90.92266440763802
 20
226.9737644645536
 30
0.0
  0
LINE
  5
188
330
1F
100
AcDbEntity
  8
0
  6
Continuous
 62
     7
370
    15
100
AcDbLine
 10
91.2836340764
 20
226.9737644646
 30
0.0
 11
90.9226644076
 21
226.9737644646
 31
0.0
  0
SPLINE
  5
189
330
1F
100
AcDbEntity
  8
0
  6
Continuous
 62
     7
370
    15
100
AcDbSpline
210
0.0
220
0.0
230
1.0
 70
     8
 71
     3
 72
     9
 73
     5
 74
     0
 42
0.00000001
 43
0.00000001
 40
0.0
 40
0.0
 40
0.0
 40
0.0
 40
0.4954579634770057
 40
0.9999999999999999
 40
0.9999999999999999
 40
0.9999999999999999
 40
0.9999999999999999
 10
90.92266440763802
 20
226.9737644645536
 30
0.0
 10
90.90186127779612
 20
227.0414329629878
 30
0.0
 10
90.85987359897085
 20
227.1780106414642
 30
0.0
 10
90.85213734283366
 20
227.3191967862175
 30
0.0
 10
90.84823407640715
 20
227.3904311312202
 30
0.0
  0
SPLINE
  5
18A
330
1F
100
AcDbEntity
  8
0
  6
Continuous
 62
     7
370
    15
100
AcDbSpline
210
0.0
220
0.0
230
1.0
 70
     8
 71
     3
 72
    10
 73
     6
 74
     0
 42
0.00000001
 43
0.00000001
 40
0.0
 40
0.0
 40
0.0
 40
0.0
 40
0.0700995828662817
 40
0.5307893632080776
 40
1.0
 40
1.0
 40
1.0
 40
1.0
 10
90.84823407640715
 20
227.3904311312202
 30
0.0
 10
90.84832297117921
 20
227.4003088206189
 30
0.0
 10
90.84899607646071
 20
227.475102025536
 30
0.0
 10
90.86525238427656
 20
227.6161194884023
 30
0.0
 10
90.90341051641519
 20
227.7430506631328
 30
0.0
 10
90.92266440763802
 20
227.8070977978869
 30
0.0
  0
LINE
  5
18B
330
1F
100
AcDbEntity
  8
0
  6
Continuous
 62
     7
370
    15
100
AcDbLine
 10
91.2836340764
 20
227.8070977979
 30
0.0
 11
90.9226644076
 21
227.8070977979
 31
0.0
  0
LINE
  5
18C
330
1F
100
AcDbEntity
  8
0
  6
Continuous
 62
     7
370
    15
100
AcDbLine
 10
90.8482340764
 20
227.3904311312
 30
0.0
 11
90.8482340764
 21
226.5570977979
 31
0.0
  0
LINE
  5
18D
330
1F
100
AcDbEntity
  8
0
  6
Continuous
 62
     7
370
    15
100
AcDbLine
 10
90.8482340764
 20
227.8070977979
 30
0.0
 11
90.8482340764
 21
227.3904311312
 31
0.0
  0
LINE
  5
18E
330
1F
100
AcDbEntity
  8
0
  6
Continuous
 62
     7
370
    15
100
AcDbLine
 10
90.8482340764
 20
226.5570977979
 30
0.0
 11
90.8482340764
 21
226.1404311312
 31
0.0
  0
LINE
  5
18F
330
1F
100
AcDbEntity
  8
0
  6
Continuous
 62
     7
370
    15
100
AcDbLine
 10
90.8102047451
 20
227.7556681989
 30
0.0
 11
90.8102047451
 21
226.1918607302
 31
0.0
  0
LINE
  5
190
330
1F
100
AcDbEntity
  8
0
  6
Continuous
 62
     7
370
    15
100
AcDbLine
 10
90.7595007431
 20
226.9737644646
 30
0.0
 11
90.7595007431
 21
227.7556681989
 31
0.0
  0
LINE
  5
191
330
1F
100
AcDbEntity
  8
0
  6
Continuous
 62
     7
370
    15
100
AcDbLine
 10
90.7595007431
 20
226.1918607302
 30
0.0
 11
90.7595007431
 21
226.9737644646
 31
0.0
  0
SPLINE
  5
192
330
1F
100
AcDbEntity
  8
0
  6
Continuous
 62
     7
370
    15
100
AcDbSpline
210
0.0
220
0.0
230
1.0
 70
    24
 71
     3
 72
    10
 73
     6
 74
     0
 42
0.00000001
 43
0.00000001
 40
0.0
 40
0.0
 40
0.0
 40
0.0
 40
0.2493796958011974
 40
0.6223881312080708
 40
1.0
 40
1.0
 40
1.0
 40
1.0
 10
90.92266440763802
 20
227.8070977978869
 30
0.0
 10
90.91201505047708
 20
227.8070977978869
 30
0.0
 10
90.88543697049082
 20
227.8070977978869
 30
0.0
 10
90.85523889729465
 20
227.8070977978869
 30
0.0
 10
90.85057854376875
 20
227.8070977978869
 30
0.0
 10
90.84823407640714
 20
227.8070977978869
 30
0.0
  0
SPLINE
  5
193
330
1F
100
AcDbEntity
  8
0
  6
Continuous
 62
     7
370
    15
100
AcDbSpline
210
0.0
220
0.0
230
1.0
 70
    24
 71
     3
 72
    10
 73
     6
 74
     0
 42
0.00000001
 43
0.00000001
 40
0.0
 40
0.0
 40
0.0
 40
0.0
 40
0.3727277859602129
 40
0.7506207681064128
 40
1.0
 40
1.0
 40
1.0
 40
1.0
 10
90.84823407640715
 20
226.1404311312202
 30
0.0
 10
90.85052136376753
 20
226.1404311312202
 30
0.0
 10
90.85512763531476
 20
226.1404311312202
 30
0.0
 10
90.88522846914482
 20
226.1404311312202
 30
0.0
 10
90.91201508329142
 20
226.1404311312202
 30
0.0
 10
90.92266440763802
 20
226.1404311312202
 30
0.0
  0
LINE
  5
194
330
1F
100
AcDbEntity
  8
0
  6
Continuous
 62
     7
370
    15
100
AcDbLine
 10
90.5176340764
 20
227.6870977979
 30
0.0
 11
90.5176340764
 21
226.2604311312
 31
0.0
  0
LINE
  5
195
330
1F
100
AcDbEntity
  8
0
  6
Continuous
 62
     7
370
    15
100
AcDbLine
 10
90.4571674097
 20
227.5937644646
 30
0.0
 11
90.4571674097
 21
226.3537644646
 31
0.0
  0
LINE
  5
196
330
1F
100
AcDbEntity
  8
0
  6
Continuous
 62
     7
370
    15
100
AcDbLine
 10
90.5781007431
 20
227.5937644646
 30
0.0
 11
90.5781007431
 21
226.3537644646
 31
0.0
  0
LINE
  5
197
330
1F
100
AcDbEntity
  8
0
  6
Continuous
 62
     7
370
    15
100
AcDbLine
 10
90.6990340764
 20
227.5937644646
 30
0.0
 11
90.6990340764
 21
226.3537644646
 31
0.0
  0
LINE
  5
198
330
1F
100
AcDbEntity
  8
0
  6
Continuous
 62
     7
370
    15
100
AcDbLine
 10
90.6385674097
 20
227.6870977979
 30
0.0
 11
90.6385674097
 21
226.2604311312
 31
0.0
  0
LINE
  5
199
330
1F
100
AcDbEntity
  8
0
  6
Continuous
 62
     7
370
    15
100
AcDbLine
 10
90.3967007431
 20
227.6765175022
 30
0.0
 11
90.3967007431
 21
226.2710114269
 31
0.0
  0
LINE
  5
19A
330
1F
100
AcDbEntity
  8
0
  6
Continuous
 62
     7
370
    15
100
AcDbLine
 10
90.3362340764
 20
227.5775375028
 30
0.0
 11
90.3362340764
 21
226.3699914263
 31
0.0
  0
LINE
  5
19B
330
1F
100
AcDbEntity
  8
0
  6
Continuous
 62
     7
370
    15
100
AcDbLine
 10
90.2757674097
 20
227.6659372065
 30
0.0
 11
90.2757674097
 21
226.2815917226
 31
0.0
  0
LINE
  5
19C
330
1F
100
AcDbEntity
  8
0
  6
Continuous
 62
     7
370
    15
100
AcDbLine
 10
90.2153007431
 20
227.5669572071
 30
0.0
 11
90.2153007431
 21
226.380571722
 31
0.0
  0
LINE
  5
19D
330
1F
100
AcDbEntity
  8
0
  6
Continuous
 62
     7
370
    15
100
AcDbLine
 10
90.1548340764
 20
227.6568961625
 30
0.0
 11
90.1548340764
 21
226.2906327666
 31
0.0
  0
LINE
  5
19E
330
1F
100
AcDbEntity
  8
0
  6
Continuous
 62
     7
370
    15
100
AcDbLine
 10
90.0943674097
 20
227.5563769114
 30
0.0
 11
90.0943674097
 21
226.3911520177
 31
0.0
  0
LINE
  5
19F
330
1F
100
AcDbEntity
  8
0
  6
Continuous
 62
     7
370
    15
100
AcDbLine
 10
90.0339007431
 20
227.6463158668
 30
0.0
 11
90.0339007431
 21
226.3012130623
 31
0.0
  0
LINE
  5
1A0
330
1F
100
AcDbEntity
  8
0
  6
Continuous
 62
     7
370
    15
100
AcDbLine
 10
89.9734340764
 20
227.5457966157
 30
0.0
 11
89.9734340764
 21
226.4017323134
 31
0.0
  0
LINE
  5
1A1
330
1F
100
AcDbEntity
  8
0
  6
Continuous
 62
     7
370
    15
100
AcDbLine
 10
89.9129674097
 20
227.6357355711
 30
0.0
 11
89.9129674097
 21
226.311793358
 31
0.0
  0
LINE
  5
1A2
330
1F
100
AcDbEntity
  8
0
  6
Continuous
 62
     7
370
    15
100
AcDbLine
 10
89.8525007431
 20
227.53521632
 30
0.0
 11
89.8525007431
 21
226.4123126091
 31
0.0
  0
LINE
  5
1A3
330
1F
100
AcDbEntity
  8
0
  6
Continuous
 62
     7
370
    15
100
AcDbLine
 10
89.7920340764
 20
227.6251552754
 30
0.0
 11
89.7920340764
 21
226.3223736537
 31
0.0
  0
LINE
  5
1A4
330
1F
100
AcDbEntity
  8
0
  6
Continuous
 62
     7
370
    15
100
AcDbLine
 10
89.7315674097
 20
227.5246360243
 30
0.0
 11
89.7315674097
 21
226.4228929048
 31
0.0
  0
LINE
  5
1A5
330
1F
100
AcDbEntity
  8
0
  6
Continuous
 62
     7
370
    15
100
AcDbLine
 10
126.5380267942
 20
233.491019902
 30
0.0
 11
129.8718904041
 21
233.4684169174
 31
0.0
  0
LINE
  5
1A6
330
1F
100
AcDbEntity
  8
0
  6
Continuous
 62
     7
370
    15
100
AcDbLine
 10
126.5387951558
 20
233.6043506307
 30
0.0
 11
129.8726587657
 21
233.5817476461
 31
0.0
  0
LINE
  5
1A7
330
1F
100
AcDbEntity
  8
0
  6
Continuous
 62
     7
370
    15
100
AcDbLine
 10
129.8726587657
 20
233.5817476461
 30
0.0
 11
129.8718904041
 21
233.4684169174
 31
0.0
  0
LINE
  5
1A8
330
1F
100
AcDbEntity
  8
0
  6
Continuous
 62
     7
370
    15
100
AcDbLine
 10
126.5380267942
 20
233.491019902
 30
0.0
 11
126.5387951558
 21
233.6043506307
 31
0.0
  0
LINE
  5
1A9
330
1F
100
AcDbEntity
  8
0
  6
Continuous
 62
     7
370
    15
100
AcDbLine
 10
129.8683783329
 20
232.9503983216
 30
0.0
 11
129.8686813645
 21
232.9950944623
 31
0.0
  0
LINE
  5
1AA
330
1F
100
AcDbEntity
  8
0
  6
Continuous
 62
     7
370
    15
100
AcDbLine
 10
131.153367312
 20
232.9416863316
 30
0.0
 11
129.8683783329
 21
232.9503983216
 31
0.0
  0
LINE
  5
1AB
330
1F
100
AcDbEntity
  8
0
  6
Continuous
 62
     7
370
    15
100
AcDbLine
 10
129.9703541834
 20
230.924357565
 30
0.0
 11
131.153367312
 21
232.9416863316
 31
0.0
  0
LINE
  5
1AC
330
1F
100
AcDbEntity
  8
0
  6
Continuous
 62
     7
370
    15
100
AcDbLine
 10
129.8713137498
 20
230.925029041
 30
0.0
 11
129.9703541834
 21
230.924357565
 31
0.0
  0
LINE
  5
1AD
330
1F
100
AcDbEntity
  8
0
  6
Continuous
 62
     7
370
    15
100
AcDbLine
 10
129.8712685521
 20
230.9183625276
 30
0.0
 11
129.8713137498
 21
230.925029041
 31
0.0
  0
LINE
  5
1AE
330
1F
100
AcDbEntity
  8
0
  6
Continuous
 62
     7
370
    15
100
AcDbLine
 10
129.8712685521
 20
230.9183625276
 30
0.0
 11
126.504072375
 21
230.9411915009
 31
0.0
  0
LINE
  5
1AF
330
1F
100
AcDbEntity
  8
0
  6
Continuous
 62
     7
370
    15
100
AcDbLine
 10
126.5041175727
 20
230.9478580143
 30
0.0
 11
126.504072375
 21
230.9411915009
 31
0.0
  0
LINE
  5
1B0
330
1F
100
AcDbEntity
  8
0
  6
Continuous
 62
     7
370
    15
100
AcDbLine
 10
126.4050771392
 20
230.9485294903
 30
0.0
 11
126.5041175727
 21
230.9478580143
 31
0.0
  0
LINE
  5
1B1
330
1F
100
AcDbEntity
  8
0
  6
Continuous
 62
     7
370
    15
100
AcDbLine
 10
125.2495257438
 20
232.9817132961
 30
0.0
 11
126.4050771392
 21
230.9485294903
 31
0.0
  0
LINE
  5
1B2
330
1F
100
AcDbEntity
  8
0
  6
Continuous
 62
     7
370
    15
100
AcDbLine
 10
126.534514723
 20
232.9730013062
 30
0.0
 11
125.2495257438
 21
232.9817132961
 31
0.0
  0
LINE
  5
1B3
330
1F
100
AcDbEntity
  8
0
  6
Continuous
 62
     7
370
    15
100
AcDbLine
 10
126.5348177546
 20
233.0176974469
 30
0.0
 11
126.534514723
 21
232.9730013062
 31
0.0
  0
LINE
  5
1B4
330
1F
100
AcDbEntity
  8
0
  6
Continuous
 62
     7
370
    15
100
AcDbLine
 10
126.5031458213
 20
230.8045279751
 30
0.0
 11
126.504072375
 21
230.9411915009
 31
0.0
  0
LINE
  5
1B5
330
1F
100
AcDbEntity
  8
0
  6
Continuous
 62
     7
370
    15
100
AcDbLine
 10
129.8712685521
 20
230.9183625276
 30
0.0
 11
129.8703419984
 21
230.7816990018
 31
0.0
  0
LINE
  5
1B6
330
1F
100
AcDbEntity
  8
0
  6
Continuous
 62
     7
370
    15
100
AcDbLine
 10
129.8703419984
 20
230.7816990018
 30
0.0
 11
126.5031458213
 21
230.8045279751
 31
0.0
  0
LINE
  5
1B7
330
1F
100
AcDbEntity
  8
0
  6
Continuous
 62
     7
370
    15
100
AcDbLine
 10
125.1777784742
 20
232.9021978908
 30
0.0
 11
125.1781400562
 21
232.9555299984
 31
0.0
  0
LINE
  5
1B8
330
1F
100
AcDbEntity
  8
0
  6
Continuous
 62
     7
370
    15
100
AcDbLine
 10
125.1777784742
 20
232.9021978908
 30
0.0
 11
124.8569674097
 21
232.9043729311
 31
0.0
  0
LINE
  5
1B9
330
1F
100
AcDbEntity
  8
0
  6
Continuous
 62
     7
370
    15
100
AcDbLine
 10
125.1781400562
 20
232.9555299984
 30
0.0
 11
124.8569674097
 21
232.9577074901
 31
0.0
  0
LINE
  5
1BA
330
1F
100
AcDbEntity
  8
0
  6
Continuous
 62
     7
370
    15
100
AcDbLine
 10
130.9215883363
 20
232.3092262434
 30
0.0
 11
131.2301628555
 21
232.8354218022
 31
0.0
  0
LINE
  5
1BB
330
1F
100
AcDbEntity
  8
0
  6
Continuous
 62
     7
370
    15
100
AcDbLine
 10
131.1841566864
 20
232.8624009951
 30
0.0
 11
131.2301628555
 21
232.8354218022
 31
0.0
  0
LINE
  5
1BC
330
1F
100
AcDbEntity
  8
0
  6
Continuous
 62
     7
370
    15
100
AcDbLine
 10
130.8755821672
 20
232.3362054363
 30
0.0
 11
130.9215883363
 21
232.3092262434
 31
0.0
  0
LINE
  5
1BD
330
1F
100
AcDbEntity
  8
0
  6
Continuous
 62
     7
370
    15
100
AcDbLine
 10
130.8755821672
 20
232.3362054363
 30
0.0
 11
131.1841566864
 21
232.8624009951
 31
0.0
  0
LINE
  5
1BE
330
1F
100
AcDbEntity
  8
0
  6
Continuous
 62
     7
370
    15
100
AcDbLine
 10
131.1784059153
 20
232.8657733942
 30
0.0
 11
131.1323997462
 21
232.8927525871
 31
0.0
  0
ARC
  5
1BF
330
1F
100
AcDbEntity
  8
0
  6
Continuous
 62
     7
370
    15
100
AcDbCircle
 10
131.1812813008
 20
232.8640871947
 30
0.0
 40
0.0566666666666742
100
AcDbArc
 50
329.6115510614
 51
149.6115510614
  0
ARC
  5
1C0
330
1F
100
AcDbEntity
  8
0
  6
Continuous
 62
     7
370
    15
100
AcDbCircle
 10
131.1812813008
 20
232.8640871947
 30
0.0
 40
0.0033333333333377
100
AcDbArc
 50
329.6115510611
 51
149.6115510618
  0
LINE
  5
1C1
330
1F
100
AcDbEntity
  8
0
  6
Continuous
 62
     7
370
    15
100
AcDbLine
 10
129.9498197047
 20
230.8761623409
 30
0.0
 11
129.9958258738
 21
230.8491831479
 31
0.0
  0
LINE
  5
1C2
330
1F
100
AcDbEntity
  8
0
  6
Continuous
 62
     7
370
    15
100
AcDbLine
 10
131.1323997462
 20
232.8927525871
 30
0.0
 11
129.9498197047
 21
230.8761623409
 31
0.0
  0
LINE
  5
1C3
330
1F
100
AcDbEntity
  8
0
  6
Continuous
 62
     7
370
    15
100
AcDbLine
 10
131.1784059153
 20
232.8657733942
 30
0.0
 11
129.9958258738
 21
230.8491831479
 31
0.0
  0
LINE
  5
1C4
330
1F
100
AcDbEntity
  8
0
  6
Continuous
 62
     7
370
    15
100
AcDbLine
 10
126.4249562506
 20
230.9000602694
 30
0.0
 11
125.2960308644
 21
232.8863958165
 31
0.0
  0
LINE
  5
1C5
330
1F
100
AcDbEntity
  8
0
  6
Continuous
 62
     7
370
    15
100
AcDbLine
 10
126.4249562506
 20
230.9000602694
 30
0.0
 11
126.3785884996
 21
230.8737073548
 31
0.0
  0
LINE
  5
1C6
330
1F
100
AcDbEntity
  8
0
  6
Continuous
 62
     7
370
    15
100
AcDbLine
 10
126.3785884996
 20
230.8737073548
 30
0.0
 11
125.2496631134
 21
232.8600429018
 31
0.0
  0
LINE
  5
1C7
330
1F
100
AcDbEntity
  8
0
  6
Continuous
 62
     7
370
    15
100
AcDbLine
 10
125.2496631134
 20
232.8600429018
 30
0.0
 11
125.2960308644
 21
232.8863958165
 31
0.0
  0
ARC
  5
1C8
330
1F
100
AcDbEntity
  8
0
  6
Continuous
 62
     7
370
    15
100
AcDbCircle
 10
125.1772135025
 20
232.8188664727
 30
0.0
 40
0.0833333333333488
100
AcDbArc
 50
29.6115510614
 51
89.6115510614
  0
ARC
  5
1C9
330
1F
100
AcDbEntity
  8
0
  6
Continuous
 62
     7
370
    15
100
AcDbCircle
 10
125.1772135025
 20
232.8188664727
 30
0.0
 40
0.1366666666666989
100
AcDbArc
 50
29.6115510614
 51
89.6115510614
  0
LINE
  5
1CA
330
1F
100
AcDbEntity
  8
0
  6
Continuous
 62
     7
370
    15
100
AcDbLine
 10
129.8773700938
 20
230.8349859117
 30
0.0
 11
129.8770085119
 21
230.7816538041
 31
0.0
  0
ARC
  5
1CB
330
1F
100
AcDbEntity
  8
0
  6
Continuous
 62
     7
370
    15
100
AcDbCircle
 10
129.8779350656
 20
230.9183173298
 30
0.0
 40
0.0833333333333395
100
AcDbArc
 50
269.6115510614
 51
329.6115510614
  0
ARC
  5
1CC
330
1F
100
AcDbEntity
  8
0
  6
Continuous
 62
     7
370
    15
100
AcDbCircle
 10
129.8779350656
 20
230.9183173298
 30
0.0
 40
0.1366666666666987
100
AcDbArc
 50
269.6115510614
 51
329.6115510614
  0
LINE
  5
1CD
330
1F
100
AcDbEntity
  8
0
  6
Continuous
 62
     7
370
    15
100
AcDbLine
 10
129.8703419984
 20
230.7816990018
 30
0.0
 11
129.8770085119
 21
230.7816538041
 31
0.0
  0
LINE
  5
1CE
330
1F
100
AcDbEntity
  8
0
  6
Continuous
 62
     7
370
    15
100
AcDbLine
 10
129.8707035804
 20
230.8350311094
 30
0.0
 11
129.8773700938
 21
230.8349859117
 31
0.0
  0
LINE
  5
1CF
330
1F
100
AcDbEntity
  8
0
  6
Continuous
 62
     7
370
    15
100
AcDbLine
 10
126.4964793078
 20
230.8045731729
 30
0.0
 11
126.4968408898
 21
230.8579052805
 31
0.0
  0
ARC
  5
1D0
330
1F
100
AcDbEntity
  8
0
  6
Continuous
 62
     7
370
    15
100
AcDbCircle
 10
126.4974058615
 20
230.9412366986
 30
0.0
 40
0.0833333333333674
100
AcDbArc
 50
209.6115510614
 51
269.6115510614
  0
ARC
  5
1D1
330
1F
100
AcDbEntity
  8
0
  6
Continuous
 62
     7
370
    15
100
AcDbCircle
 10
126.4974058615
 20
230.9412366986
 30
0.0
 40
0.1366666666666987
100
AcDbArc
 50
209.6115510614
 51
269.6115510614
  0
LINE
  5
1D2
330
1F
100
AcDbEntity
  8
0
  6
Continuous
 62
     7
370
    15
100
AcDbLine
 10
126.5031458213
 20
230.8045279751
 30
0.0
 11
126.4964793078
 21
230.8045731729
 31
0.0
  0
LINE
  5
1D3
330
1F
100
AcDbEntity
  8
0
  6
Continuous
 62
     7
370
    15
100
AcDbLine
 10
126.5035074032
 20
230.8578600827
 30
0.0
 11
126.4968408898
 21
230.8579052805
 31
0.0
  0
LINE
  5
1D4
330
1F
100
AcDbEntity
  8
0
  6
Continuous
 62
     7
370
    15
100
AcDbLine
 10
125.540719602
 20
224.7795360928
 30
0.0
 11
125.5435566263
 21
224.7795261897
 31
0.0
  0
LINE
  5
1D5
330
1F
100
AcDbEntity
  8
0
  6
Continuous
 62
     7
370
    15
100
AcDbLine
 10
124.9796340691
 20
226.6710806595
 30
0.0
 11
125.540719602
 21
224.7795360928
 31
0.0
  0
ARC
  5
1D6
330
1F
100
AcDbEntity
  8
0
  6
Continuous
 62
     7
370
    15
100
AcDbCircle
 10
124.8193734733
 20
226.6235428412
 30
0.0
 40
0.1671625039556868
100
AcDbArc
 50
16.5218437462
 51
77.0033224917
  0
LINE
  5
1D7
330
1F
100
AcDbEntity
  8
0
  6
Continuous
 62
     7
370
    15
100
AcDbLine
 10
129.3348950457
 20
226.7309590878
 30
0.0
 11
124.8569674097
 21
227.593889261
 31
0.0
  0
LINE
  5
1D8
330
1F
100
AcDbEntity
  8
0
  6
Continuous
 62
     7
370
    15
100
AcDbLine
 10
128.7165580222
 20
224.7733703764
 30
0.0
 11
129.3348950457
 21
226.7309590878
 31
0.0
  0
LINE
  5
1D9
330
1F
100
AcDbEntity
  8
0
  6
Continuous
 62
     7
370
    15
100
AcDbLine
 10
128.7143649601
 20
224.7733780317
 30
0.0
 11
128.7165580222
 21
224.7733703764
 31
0.0
  0
LINE
  5
1DA
330
1F
100
AcDbEntity
  8
0
  6
Continuous
 62
     7
370
    15
100
AcDbLine
 10
128.6277976741
 20
224.7736802098
 30
0.0
 11
128.7143649601
 21
224.7733780317
 31
0.0
  0
LINE
  5
1DB
330
1F
100
AcDbEntity
  8
0
  6
Continuous
 62
     7
370
    15
100
AcDbLine
 10
128.7101400301
 20
224.760059365
 30
0.0
 11
128.7143649601
 21
224.7733780317
 31
0.0
  0
LINE
  5
1DC
330
1F
100
AcDbEntity
  8
0
  6
Continuous
 62
     7
370
    15
100
AcDbLine
 10
125.5461638006
 20
224.7711037704
 30
0.0
 11
128.7101400301
 21
224.760059365
 31
0.0
  0
LINE
  5
1DD
330
1F
100
AcDbEntity
  8
0
  6
Continuous
 62
     7
370
    15
100
AcDbLine
 10
125.5461638006
 20
224.7711037704
 30
0.0
 11
125.5435566263
 21
224.7795261897
 31
0.0
  0
LINE
  5
1DE
330
1F
100
AcDbEntity
  8
0
  6
Continuous
 62
     7
370
    15
100
AcDbLine
 10
125.5435566263
 20
224.7795261897
 30
0.0
 11
125.6285820665
 21
224.7792293937
 31
0.0
  0
LINE
  5
1DF
330
1F
100
AcDbEntity
  8
0
  6
Continuous
 62
     7
370
    15
100
AcDbLine
 10
128.6272740764
 20
224.6236811236
 30
0.0
 11
125.628075643
 21
224.6341503436
 31
0.0
  0
SPLINE
  5
1E0
330
1F
100
AcDbEntity
  8
0
  6
Continuous
 62
     7
370
    15
100
AcDbSpline
210
0.0
220
0.0
230
1.0
 70
     8
 71
     3
 72
    12
 73
     8
 74
     0
 42
0.00000001
 43
0.00000001
 40
0.0
 40
0.0
 40
0.0
 40
0.0
 40
0.2159937691249914
 40
0.4359952219493064
 40
0.681527221821601
 40
0.952073646238709
 40
1.0
 40
1.0
 40
1.0
 40
1.0
 10
125.5539941757867
 20
224.7387384744478
 30
0.0
 10
125.5566524408457
 20
224.7254262161681
 30
0.0
 10
125.5620182940788
 20
224.6985546956291
 30
0.0
 10
125.5774708874119
 20
224.6659609949697
 30
0.0
 10
125.5976533992629
 20
224.6421889132674
 30
0.0
 10
125.6156961094785
 20
224.634580543074
 30
0.0
 10
125.6264563545012
 20
224.6342066153088
 30
0.0
 10
125.6280756430082
 20
224.634150343641
 30
0.0
  0
LINE
  5
1E1
330
1F
100
AcDbEntity
  8
0
  6
Continuous
 62
     7
370
    15
100
AcDbLine
 10
128.7020838953
 20
224.7277495237
 30
0.0
 11
128.7101400301
 21
224.760059365
 31
0.0
  0
SPLINE
  5
1E2
330
1F
100
AcDbEntity
  8
0
  6
Continuous
 62
     7
370
    15
100
AcDbSpline
210
0.0
220
0.0
230
1.0
 70
     8
 71
     3
 72
    11
 73
     7
 74
     0
 42
0.00000001
 43
0.00000001
 40
0.0
 40
0.0
 40
0.0
 40
0.0
 40
0.2798678389797354
 40
0.5726134300670881
 40
0.846784252152337
 40
1.0
 40
1.0
 40
1.0
 40
1.0
 10
128.6272740763804
 20
224.6236811236029
 30
0.0
 10
128.6359465384978
 20
224.6253079201889
 30
0.0
 10
128.6536905147197
 20
224.6286363682752
 30
0.0
 10
128.6761592419799
 20
224.6565910740734
 30
0.0
 10
128.6923375605295
 20
224.6925543212814
 30
0.0
 10
128.6995119248746
 20
224.718461825203
 30
0.0
 10
128.7020838952541
 20
224.7277495236648
 30
0.0
  0
LINE
  5
1E3
330
1F
100
AcDbEntity
  8
0
  6
Continuous
 62
     7
370
    15
100
AcDbLine
 10
125.5461638006
 20
224.7711037704
 30
0.0
 11
125.5539941758
 21
224.7387384744
 31
0.0
  0
ARC
  5
1E4
330
1F
100
AcDbEntity
  8
0
  6
Continuous
 62
     7
370
    15
100
AcDbCircle
 10
124.8173298316
 20
226.6474767952
 30
0.0
 40
0.0833333333333564
100
AcDbArc
 50
17.2
 51
61.5982590335
  0
ARC
  5
1E5
330
1F
100
AcDbEntity
  8
0
  6
Continuous
 62
     7
370
    15
100
AcDbCircle
 10
124.8173298316
 20
226.6474767952
 30
0.0
 40
0.1366666666666954
100
AcDbArc
 50
17.2
 51
73.1401844847
  0
LINE
  5
1E6
330
1F
100
AcDbEntity
  8
0
  6
Continuous
 62
     7
370
    15
100
AcDbLine
 10
124.8969363618
 20
226.6721191327
 30
0.0
 11
124.9478845411
 21
226.6878902287
 31
0.0
  0
LINE
  5
1E7
330
1F
100
AcDbEntity
  8
0
  6
Continuous
 62
     7
370
    15
100
AcDbLine
 10
125.5489461685
 20
224.7461738402
 30
0.0
 11
124.9478845411
 21
226.6878902287
 31
0.0
  0
LINE
  5
1E8
330
1F
100
AcDbEntity
  8
0
  6
Continuous
 62
     7
370
    15
100
AcDbLine
 10
125.5489461685
 20
224.7461738402
 30
0.0
 11
125.4979979892
 21
224.7304027442
 31
0.0
  0
LINE
  5
1E9
330
1F
100
AcDbEntity
  8
0
  6
Continuous
 62
     7
370
    15
100
AcDbLine
 10
125.4979979892
 20
224.7304027442
 30
0.0
 11
124.8969363618
 21
226.6721191327
 31
0.0
  0
SPLINE
  5
1EA
330
1F
100
AcDbEntity
  8
0
  6
Continuous
 62
     7
370
    15
100
AcDbSpline
210
0.0
220
0.0
230
1.0
 70
     8
 71
     3
 72
    11
 73
     7
 74
     0
 42
0.00000001
 43
0.00000001
 40
0.0
 40
0.0
 40
0.0
 40
0.0
 40
0.2500000000000063
 40
0.4999999999999992
 40
0.7500000000000074
 40
1.0
 40
1.0
 40
1.0
 40
1.0
 10
125.6280756430082
 20
224.634150343641
 30
0.0
 10
125.6136371232793
 20
224.6355274416284
 30
0.0
 10
125.5847600838213
 20
224.6382816376031
 30
0.0
 10
125.546047103524
 20
224.6593162651085
 30
0.0
 10
125.5146130091563
 20
224.6901877423824
 30
0.0
 10
125.5035363291932
 20
224.7169977435818
 30
0.0
 10
125.4979979892116
 20
224.7304027441816
 30
0.0
  0
LINE
  5
1EB
330
1F
100
AcDbEntity
  8
0
  6
Continuous
 62
     7
370
    15
100
AcDbLine
 10
128.7071836877
 20
224.7351494668
 30
0.0
 11
129.3400262367
 21
226.7301219502
 31
0.0
  0
LINE
  5
1EC
330
1F
100
AcDbEntity
  8
0
  6
Continuous
 62
     7
370
    15
100
AcDbLine
 10
129.3908630723
 20
226.7139955561
 30
0.0
 11
129.3400262367
 21
226.7301219502
 31
0.0
  0
LINE
  5
1ED
330
1F
100
AcDbEntity
  8
0
  6
Continuous
 62
     7
370
    15
100
AcDbLine
 10
128.7580205233
 20
224.7190230726
 30
0.0
 11
129.3908630723
 21
226.7139955561
 31
0.0
  0
LINE
  5
1EE
330
1F
100
AcDbEntity
  8
0
  6
Continuous
 62
     7
370
    15
100
AcDbLine
 10
128.7071836877
 20
224.7351494668
 30
0.0
 11
128.7580205233
 21
224.7190230726
 31
0.0
  0
SPLINE
  5
1EF
330
1F
100
AcDbEntity
  8
0
  6
Continuous
 62
     7
370
    15
100
AcDbSpline
210
0.0
220
0.0
230
1.0
 70
     8
 71
     3
 72
    11
 73
     7
 74
     0
 42
0.00000001
 43
0.00000001
 40
0.0
 40
0.0
 40
0.0
 40
0.0
 40
0.2499999999999962
 40
0.5000000000000114
 40
0.7500000000000031
 40
0.9999999999999999
 40
0.9999999999999999
 40
0.9999999999999999
 40
0.9999999999999999
 10
128.7580205233389
 20
224.7190230725803
 30
0.0
 10
128.7523887345243
 20
224.705657063244
 30
0.0
 10
128.741125156895
 20
224.6789250445714
 30
0.0
 10
128.7094763067354
 20
224.6482737692087
 30
0.0
 10
128.6706174216363
 20
224.6275099196947
 30
0.0
 10
128.6417218581324
 20
224.6249573889669
 30
0.0
 10
128.6272740763804
 20
224.6236811236029
 30
0.0
  0
ARC
  5
1F0
330
1F
100
AcDbEntity
  8
0
  6
Continuous
 62
     7
370
    15
100
AcDbCircle
 10
124.8172367476
 20
226.620810291
 30
0.0
 40
0.1700000000000033
100
AcDbArc
 50
17.2
 51
76.4844192255
  0
LINE
  5
1F1
330
1F
100
AcDbEntity
  8
0
  6
Continuous
 62
     7
370
    15
100
AcDbLine
 10
128.4085826561
 20
226.9094664188
 30
0.0
 11
129.336543237
 21
226.7308646697
 31
0.0
  0
LINE
  5
1F2
330
1F
100
AcDbEntity
  8
0
  6
Continuous
 62
     7
370
    15
100
AcDbLine
 10
129.336543237
 20
226.7308646697
 30
0.0
 11
128.7157724945
 21
224.7684530225
 31
0.0
  0
LINE
  5
1F3
330
1F
100
AcDbEntity
  8
0
  6
Continuous
 62
     7
370
    15
100
AcDbLine
 10
128.7157724945
 20
224.7684530225
 30
0.0
 11
128.71280594
 21
224.7684633777
 31
0.0
  0
ARC
  5
1F4
330
1F
100
AcDbEntity
  8
0
  6
Continuous
 62
     7
370
    15
100
AcDbCircle
 10
124.9586327077
 20
234.0237093996
 30
0.0
 40
0.1333333334034436
100
AcDbArc
 50
269.6115510614
 51
359.6115465966
  0
LINE
  5
1F5
330
1F
100
AcDbEntity
  8
0
  6
Continuous
 62
     7
370
    15
100
AcDbLine
 10
124.9577287529
 20
233.8903791305
 30
0.0
 11
124.8569674097
 21
233.891062274
 31
0.0
  0
ARC
  5
1F6
330
1F
100
AcDbEntity
  8
0
  6
Continuous
 62
     7
370
    15
100
AcDbCircle
 10
124.9712880749
 20
235.8903331662
 30
0.0
 40
0.1333333334034581
100
AcDbArc
 50
359.6115465966
 51
89.6115510614
  0
LINE
  5
1F7
330
1F
100
AcDbEntity
  8
0
  6
Continuous
 62
     7
370
    15
100
AcDbLine
 10
124.8569674097
 20
236.0244446371
 30
0.0
 11
124.9721920297
 21
236.0236634353
 31
0.0
  0
LINE
  5
1F8
330
1F
100
AcDbEntity
  8
0
  6
Continuous
 62
     7
370
    15
100
AcDbLine
 10
125.0919629768
 20
234.0228054448
 30
0.0
 11
125.104618344
 21
235.8894292114
 31
0.0
  0
LINE
  5
1F9
330
1F
100
AcDbEntity
  8
0
  6
Continuous
 62
     7
370
    15
100
AcDbLine
 10
125.0919610294
 20
234.022805458
 30
0.0
 11
125.1203884953
 21
234.022612725
 31
0.0
  0
LWPOLYLINE
  5
1FA
330
1F
100
AcDbEntity
  8
0
  6
Continuous
 62
     7
370
    15
100
AcDbPolyline
 90
        9
 70
   128
 43
0.0
 10
125.1203884953
 20
234.022612725
 10
125.1187426903
 20
233.9966112425
 10
125.1142212284
 20
233.9716289076
 10
125.1069978667
 20
233.9486257774
 10
125.097350195
 20
233.9284858494
 10
125.085648968
 20
233.9119830897
 10
125.0723438573
 20
233.8997516901
 10
125.0579461707
 20
233.8922616963
 10
125.0430092032
 20
233.8898009447
  0
LINE
  5
1FB
330
1F
100
AcDbEntity
  8
0
  6
Continuous
 62
     7
370
    15
100
AcDbLine
 10
125.0430092032
 20
233.8898009447
 30
0.0
 11
124.9577268056
 21
233.8903791437
 31
0.0
  0
LWPOLYLINE
  5
1FC
330
1F
100
AcDbEntity
  8
0
  6
Continuous
 62
     7
370
    15
100
AcDbPolyline
 90
        9
 70
   128
 43
0.0
 10
125.1330438625
 20
235.8892364916
 10
125.1317507632
 20
235.9152578993
 10
125.1275684526
 20
235.9402992442
 10
125.1206576547
 20
235.9633982014
 10
125.1112839474
 20
235.9836670908
 10
125.0998075572
 20
236.0003269906
 10
125.0866695152
 20
236.0127376699
 10
125.072374709
 20
236.0204221935
 10
125.0574724801
 20
236.0230852494
  0
LINE
  5
1FD
330
1F
100
AcDbEntity
  8
0
  6
Continuous
 62
     7
370
    15
100
AcDbLine
 10
125.1330438625
 20
235.8892364916
 30
0.0
 11
125.1046163966
 21
235.8894292246
 31
0.0
  0
LINE
  5
1FE
330
1F
100
AcDbEntity
  8
0
  6
Continuous
 62
     7
370
    15
100
AcDbLine
 10
124.9721900824
 20
236.0236634485
 30
0.0
 11
125.0574724801
 21
236.0230852494
 31
0.0
  0
LINE
  5
1FF
330
1F
100
AcDbEntity
  8
0
  6
Continuous
 62
     7
370
    15
100
AcDbLine
 10
125.1203884953
 20
234.022612725
 30
0.0
 11
125.1330438625
 21
235.8892364916
 31
0.0
  0
LINE
  5
200
330
1F
100
AcDbEntity
  8
0
  6
Continuous
 62
     7
370
    15
100
AcDbLine
 10
125.1203884953
 20
234.022612725
 30
0.0
 11
125.9198557205
 21
234.0171924836
 31
0.0
  0
LWPOLYLINE
  5
201
330
1F
100
AcDbEntity
  8
0
  6
Continuous
 62
     7
370
    15
100
AcDbPolyline
 90
        9
 70
   128
 43
0.0
 10
125.8424764285
 20
233.8843807034
 10
125.8574133959
 20
233.8868414549
 10
125.8718110825
 20
233.8943314487
 10
125.8851161933
 20
233.9065628484
 10
125.8968174203
 20
233.9230656081
 10
125.9064650919
 20
233.9432055361
 10
125.9136884536
 20
233.9662086662
 10
125.9182099155
 20
233.9911910011
 10
125.9198557205
 20
234.0171924836
  0
LINE
  5
202
330
1F
100
AcDbEntity
  8
0
  6
Continuous
 62
     7
370
    15
100
AcDbLine
 10
125.8424764285
 20
233.8843807034
 30
0.0
 11
125.0430092032
 21
233.8898009447
 31
0.0
  0
LWPOLYLINE
  5
203
330
1F
100
AcDbEntity
  8
0
  6
Continuous
 62
     7
370
    15
100
AcDbPolyline
 90
        9
 70
   128
 43
0.0
 10
125.9325110878
 20
235.8838162502
 10
125.9312179884
 20
235.909837658
 10
125.9270356779
 20
235.9348790029
 10
125.9201248799
 20
235.95797796
 10
125.9107511727
 20
235.9782468495
 10
125.8992747824
 20
235.9949067492
 10
125.8861367404
 20
236.0073174286
 10
125.8718419343
 20
236.0150019522
 10
125.8569397053
 20
236.0176650081
  0
LINE
  5
204
330
1F
100
AcDbEntity
  8
0
  6
Continuous
 62
     7
370
    15
100
AcDbLine
 10
125.9325110878
 20
235.8838162502
 30
0.0
 11
125.1330438625
 21
235.8892364916
 31
0.0
  0
LINE
  5
205
330
1F
100
AcDbEntity
  8
0
  6
Continuous
 62
     7
370
    15
100
AcDbLine
 10
125.0574724801
 20
236.0230852494
 30
0.0
 11
125.8569397053
 21
236.0176650081
 31
0.0
  0
LINE
  5
206
330
1F
100
AcDbEntity
  8
0
  6
Continuous
 62
     7
370
    15
100
AcDbLine
 10
126.7401443774
 20
235.0651557527
 30
0.0
 11
125.9325110878
 21
235.8838162502
 31
0.0
  0
LINE
  5
207
330
1F
100
AcDbEntity
  8
0
  6
Continuous
 62
     7
370
    15
100
AcDbLine
 10
126.7385149925
 20
234.8248270154
 30
0.0
 11
126.7401443774
 21
235.0651557527
 31
0.0
  0
LINE
  5
208
330
1F
100
AcDbEntity
  8
0
  6
Continuous
 62
     7
370
    15
100
AcDbLine
 10
125.9198557205
 20
234.0171924836
 30
0.0
 11
126.7385149925
 21
234.8248270154
 31
0.0
  0
ARC
  5
209
330
1F
100
AcDbEntity
  8
0
  6
Continuous
 62
     7
370
    15
100
AcDbCircle
 10
125.8560357505
 20
235.884334739
 30
0.0
 40
0.1333333333684002
100
AcDbArc
 50
44.6115510768
 51
89.6115510614
  0
LWPOLYLINE
  5
20A
330
1F
100
AcDbEntity
  8
0
  6
Continuous
 62
     7
370
    15
100
AcDbPolyline
 90
        9
 70
   128
 43
0.0
 10
125.9325110878
 20
235.8838162502
 10
125.9417603237
 20
235.8985706174
 10
125.9492314034
 20
235.9130296944
 10
125.9547693568
 20
235.9268935616
 10
125.9582593121
 20
235.9398746453
 10
125.9596288782
 20
235.9517036834
 10
125.9588496466
 20
235.9621353099
 10
125.9559377807
 20
235.9709531452
 10
125.9509536805
 20
235.9779742838
  0
ARC
  5
20B
330
1F
100
AcDbEntity
  8
0
  6
Continuous
 62
     7
370
    15
100
AcDbCircle
 10
125.8433803833
 20
234.0177109724
 30
0.0
 40
0.133333333368392
100
AcDbArc
 50
269.6115510614
 51
314.6115510464
  0
LWPOLYLINE
  5
20C
330
1F
100
AcDbEntity
  8
0
  6
Continuous
 62
     7
370
    15
100
AcDbPolyline
 90
        9
 70
   128
 43
0.0
 10
125.9198557205
 20
234.0171924836
 10
125.9289040516
 20
234.0023140624
 10
125.9361783937
 20
233.987755014
 10
125.9415278578
 20
233.9738173322
 10
125.9448414815
 20
233.9607901214
 10
125.9460505316
 20
233.9489436008
 10
125.9451299292
 20
233.9385234989
 10
125.9420987699
 20
233.9297459562
 10
125.9370199281
 20
233.9227930425
  0
LINE
  5
20D
330
1F
100
AcDbEntity
  8
0
  6
Continuous
 62
     7
370
    15
100
AcDbLine
 10
125.9509536805
 20
235.9779742838
 30
0.0
 11
126.727528682
 21
235.1907961359
 31
0.0
  0
ELLIPSE
  5
20E
330
1F
100
AcDbEntity
  8
0
  6
Continuous
 62
     7
370
    15
100
AcDbEllipse
 10
126.6326107521
 20
235.0971565911
 30
0.0
 11
0.09491811283976404
 21
0.09363935942070611
 31
0.0
210
0.0
220
0.0
230
1.0
 40
0.7496718139
 41
5.497789749101636
 42
6.283187912499261
  0
ELLIPSE
  5
20F
330
1F
100
AcDbEntity
  8
0
  6
Continuous
 62
     7
370
    15
100
AcDbEllipse
 10
126.7054451137
 20
235.0233277687
 30
0.0
 11
0.04164726585186429
 21
0.1469340202484943
 31
0.0
210
0.0
220
0.0
230
1.0
 40
0.152192158
 41
5.043888123798173
 42
5.411673246163612
  0
ELLIPSE
  5
210
330
1F
100
AcDbEntity
  8
0
  6
Continuous
 62
     7
370
    15
100
AcDbEllipse
 10
126.7043860647
 20
234.867121642
 30
0.0
 11
-0.03965115740805914
 21
0.1474852086668932
 31
0.0
210
0.0
220
0.0
230
0.9999999999999996
 40
0.152192158
 41
4.013104714606742
 42
4.380889836971799
  0
ELLIPSE
  5
211
330
1F
100
AcDbEntity
  8
0
  6
Continuous
 62
     7
370
    15
100
AcDbEllipse
 10
126.6305573529
 20
234.7942871684
 30
0.0
 11
-0.09363973019549121
 21
0.09491774705870172
 31
0.0
210
0.0
220
0.0
230
0.9999999999999998
 40
0.7496718139
 41
3.141590048270432
 42
3.926988211667567
  0
LINE
  5
212
330
1F
100
AcDbEntity
  8
0
  6
Continuous
 62
     7
370
    15
100
AcDbLine
 10
126.7241968977
 20
234.6993692385
 30
0.0
 11
125.9370199281
 21
233.9227930425
 31
0.0
  0
LINE
  5
213
330
1F
100
AcDbEntity
  8
0
  6
Continuous
 62
     7
370
    15
100
AcDbLine
 10
126.7401443774
 20
235.0651557527
 30
0.0
 11
126.7657290967
 21
235.064982293
 31
0.0
  0
LINE
  5
214
330
1F
100
AcDbEntity
  8
0
  6
Continuous
 62
     7
370
    15
100
AcDbLine
 10
126.7657290967
 20
235.064982293
 30
0.0
 11
126.7640997118
 21
234.8246535557
 31
0.0
  0
LINE
  5
215
330
1F
100
AcDbEntity
  8
0
  6
Continuous
 62
     7
370
    15
100
AcDbLine
 10
126.7385149925
 20
234.8248270154
 30
0.0
 11
126.7640997118
 21
234.8246535557
 31
0.0
  0
LINE
  5
216
330
1F
100
AcDbEntity
  8
0
  6
Continuous
 62
     7
370
    15
100
AcDbLine
 10
126.7640997118
 20
234.8246535557
 30
0.0
 11
126.7638876917
 21
234.7933832132
 31
0.0
  0
ARC
  5
217
330
1F
100
AcDbEntity
  8
0
  6
Continuous
 62
     7
370
    15
100
AcDbCircle
 10
126.7422212079
 20
234.7985425409
 30
0.0
 40
0.022272296245216
100
AcDbArc
 50
282.617487177
 51
346.6058978252
  0
ARC
  5
218
330
1F
100
AcDbEntity
  8
0
  6
Continuous
 62
     7
370
    15
100
AcDbCircle
 10
126.7442066435
 20
235.0913875584
 30
0.0
 40
0.0222722962452391
100
AcDbArc
 50
12.6172042977
 51
76.6056149458
  0
LINE
  5
219
330
1F
100
AcDbEntity
  8
0
  6
Continuous
 62
     7
370
    15
100
AcDbLine
 10
126.7659410909
 20
235.0962526358
 30
0.0
 11
126.7657290967
 21
235.064982293
 31
0.0
  0
ARC
  5
21A
330
1F
100
AcDbEntity
  8
0
  6
Continuous
 62
     7
370
    15
100
AcDbCircle
 10
126.6326107521
 20
235.0971565911
 30
0.0
 40
0.1333334030867516
100
AcDbArc
 50
359.6115510614
 51
44.6115510615
  0
ARC
  5
21B
330
1F
100
AcDbEntity
  8
0
  6
Continuous
 62
     7
370
    15
100
AcDbCircle
 10
126.6305573529
 20
234.7942871684
 30
0.0
 40
0.1333334030867518
100
AcDbArc
 50
314.6115510613
 51
359.6115510614
  0
LINE
  5
21C
330
1F
100
AcDbEntity
  8
0
  6
Continuous
 62
     7
370
    15
100
AcDbLine
 10
125.8458945621
 20
233.8844025691
 30
0.0
 11
125.842429027
 21
233.8843810247
 31
0.0
  0
LINE
  5
21D
330
1F
100
AcDbEntity
  8
0
  6
Continuous
 62
     7
370
    15
100
AcDbLine
 10
125.8568923039
 20
236.0176653294
 30
0.0
 11
125.8595668285
 21
236.0176203644
 31
0.0
  0
LINE
  5
21E
330
1F
100
AcDbEntity
  8
0
  6
Continuous
 62
     7
370
    15
100
AcDbLine
 10
133.7841405939
 20
228.9924829669
 30
0.0
 11
137.1062681421
 21
232.2698670351
 31
0.0
  0
LINE
  5
21F
330
1F
100
AcDbEntity
  8
0
  6
Continuous
 62
     7
370
    15
100
AcDbLine
 10
135.2015176174
 20
229.4542887652
 30
0.0
 11
136.6252865666
 21
230.8588819373
 31
0.0
  0
LINE
  5
220
330
1F
100
AcDbEntity
  8
0
  6
Continuous
 62
     7
370
    15
100
AcDbLine
 10
136.7181494186
 20
230.7546562516
 30
0.0
 11
136.7206994521
 21
230.7571719405
 31
0.0
  0
LINE
  5
221
330
1F
100
AcDbEntity
  8
0
  6
Continuous
 62
     7
370
    15
100
AcDbLine
 10
135.30192456
 20
229.3575055639
 30
0.0
 11
136.7181494186
 21
230.7546562516
 31
0.0
  0
LINE
  5
222
330
1F
100
AcDbEntity
  8
0
  6
Continuous
 62
     7
370
    15
100
AcDbLine
 10
136.7163671019
 20
230.7614394633
 30
0.0
 11
136.7189261114
 21
230.7639640074
 31
0.0
  0
LINE
  5
223
330
1F
100
AcDbEntity
  8
0
  6
Continuous
 62
     7
370
    15
100
AcDbLine
 10
135.2951571622
 20
229.3593708352
 30
0.0
 11
136.7163671019
 21
230.7614394633
 31
0.0
  0
LINE
  5
224
330
1F
100
AcDbEntity
  8
0
  6
Continuous
 62
     7
370
    15
100
AcDbLine
 10
136.622727557
 20
230.8563573933
 30
0.0
 11
136.6252865666
 21
230.8588819373
 31
0.0
  0
LINE
  5
225
330
1F
100
AcDbEntity
  8
0
  6
Continuous
 62
     7
370
    15
100
AcDbLine
 10
135.2015176174
 20
229.4542887652
 30
0.0
 11
136.622727557
 21
230.8563573933
 31
0.0
  0
LINE
  5
226
330
1F
100
AcDbEntity
  8
0
  6
Continuous
 62
     7
370
    15
100
AcDbLine
 10
141.5199097723
 20
225.3862858844
 30
0.0
 11
141.5215560685
 21
225.3879100077
 31
0.0
  0
LINE
  5
227
330
1F
100
AcDbEntity
  8
0
  6
Continuous
 62
     7
370
    15
100
AcDbLine
 10
140.6055980445
 20
224.4842884003
 30
0.0
 11
141.5199097723
 21
225.3862858844
 31
0.0
  0
LINE
  5
228
330
1F
100
AcDbEntity
  8
0
  6
Continuous
 62
     7
370
    15
100
AcDbLine
 10
125.0741379546
 20
233.860953074
 30
0.0
 11
125.0721040562
 21
233.5609599686
 31
0.0
  0
LINE
  5
229
330
1F
100
AcDbEntity
  8
0
  6
Continuous
 62
     7
370
    15
100
AcDbLine
 10
128.4774496457
 20
234.3378907354
 30
0.0
 11
127.9441285695
 21
234.3415065546
 31
0.0
  0
LINE
  5
22A
330
1F
100
AcDbEntity
  8
0
  6
Continuous
 62
     7
370
    15
100
AcDbLine
 10
124.9868071984
 20
255.232036678
 30
0.0
 11
126.860170532
 21
255.232036678
 31
0.0
  0
ARC
  5
22B
330
1F
100
AcDbEntity
  8
0
  6
Continuous
 62
     7
370
    15
100
AcDbCircle
 10
126.860170532
 20
253.5653700114
 30
0.0
 40
1.666666666666661
100
AcDbArc
 50
0.3437767398
 51
90.0
  0
LINE
  5
22C
330
1F
100
AcDbEntity
  8
0
  6
Continuous
 62
     7
370
    15
100
AcDbLine
 10
128.5268071984
 20
253.5753700114
 30
0.0
 11
128.4434738651
 21
253.5753700114
 31
0.0
  0
LINE
  5
22D
330
1F
100
AcDbEntity
  8
0
  6
Continuous
 62
     7
370
    15
100
AcDbLine
 10
128.4434738651
 20
253.5753700114
 30
0.0
 11
128.4434738651
 21
253.522036678
 31
0.0
  0
LINE
  5
22E
330
1F
100
AcDbEntity
  8
0
  6
Continuous
 62
     7
370
    15
100
AcDbLine
 10
128.4434738651
 20
253.522036678
 30
0.0
 11
128.4468071984
 21
253.522036678
 31
0.0
  0
LINE
  5
22F
330
1F
100
AcDbEntity
  8
0
  6
Continuous
 62
     7
370
    15
100
AcDbLine
 10
128.4468071984
 20
253.522036678
 30
0.0
 11
128.4468071984
 21
242.712036678
 31
0.0
  0
LINE
  5
230
330
1F
100
AcDbEntity
  8
0
  6
Continuous
 62
     7
370
    15
100
AcDbLine
 10
128.4468071984
 20
242.712036678
 30
0.0
 11
124.9868071984
 21
242.712036678
 31
0.0
  0
LINE
  5
231
330
1F
100
AcDbEntity
  8
0
  6
Continuous
 62
     7
370
    15
100
AcDbLine
 10
124.9868071984
 20
255.232036678
 30
0.0
 11
124.9868071984
 21
242.712036678
 31
0.0
  0
LINE
  5
232
330
1F
100
AcDbEntity
  8
0
  6
Continuous
 62
     7
370
    15
100
AcDbLine
 10
128.4468071984
 20
242.5753700114
 30
0.0
 11
124.9039452696
 21
242.5753700114
 31
0.0
  0
SPLINE
  5
233
330
1F
100
AcDbEntity
  8
0
  6
Continuous
 62
     7
370
    15
100
AcDbSpline
210
0.0
220
0.0
230
1.0
 70
     8
 71
     3
 72
    11
 73
     7
 74
     0
 42
0.00000001
 43
0.00000001
 40
0.0
 40
0.0
 40
0.0
 40
0.0
 40
0.2500000000000058
 40
0.4999999999999937
 40
0.7499999999999943
 40
1.0
 40
1.0
 40
1.0
 40
1.0
 10
124.9039452696185
 20
242.5753700113549
 30
0.0
 10
124.9108504303529
 20
242.5774243263025
 30
0.0
 10
124.9246607518216
 20
242.5815329561977
 30
0.0
 10
124.9453762340248
 20
242.6131370153244
 30
0.0
 10
124.9660917162279
 20
242.658311490061
 30
0.0
 10
124.9799020376967
 20
242.6941282820347
 30
0.0
 10
124.9868071984311
 20
242.7120366780215
 30
0.0
  0
LINE
  5
234
330
1F
100
AcDbEntity
  8
0
  6
Continuous
 62
     7
370
    15
100
AcDbLine
 10
128.4468071984
 20
242.712036678
 30
0.0
 11
128.4468071984
 21
242.5753700114
 31
0.0
  0
SPLINE
  5
235
330
1F
100
AcDbEntity
  8
0
  6
Continuous
 62
     7
370
    15
100
AcDbSpline
210
0.0
220
0.0
230
1.0
 70
     8
 71
     3
 72
    11
 73
     7
 74
     0
 42
0.00000001
 43
0.00000001
 40
0.0
 40
0.0
 40
0.0
 40
0.0
 40
0.2499999999999946
 40
0.4999999999999887
 40
0.7500000000000053
 40
1.0
 40
1.0
 40
1.0
 40
1.0
 10
124.9039452696185
 20
242.6287033446882
 30
0.0
 10
124.9108504303529
 20
242.6299559757538
 30
0.0
 10
124.9246607518216
 20
242.632461237885
 30
0.0
 10
124.9453762340248
 20
242.6517320056452
 30
0.0
 10
124.9660917162279
 20
242.67927741707
 30
0.0
 10
124.9799020376967
 20
242.701116924371
 30
0.0
 10
124.9868071984311
 20
242.7120366780215
 30
0.0
  0
LINE
  5
236
330
1F
100
AcDbEntity
  8
0
  6
Continuous
 62
     7
370
    15
100
AcDbLine
 10
124.9039452696
 20
242.6287033447
 30
0.0
 11
124.9039452696
 21
242.5753700114
 31
0.0
  0
SPLINE
  5
237
330
1F
100
AcDbEntity
  8
0
  6
Continuous
 62
     7
370
    15
100
AcDbSpline
210
0.0
220
0.0
230
1.0
 70
     8
 71
     3
 72
    12
 73
     8
 74
     0
 42
0.00000001
 43
0.00000001
 40
0.0
 40
0.0
 40
0.0
 40
0.0
 40
0.3486243089905816
 40
0.5715639950100869
 40
0.7575575392541674
 40
0.9445154454284581
 40
1.0
 40
1.0
 40
1.0
 40
1.0
 10
124.9868071984311
 20
242.7120366780215
 30
0.0
 10
124.9738014205176
 20
242.6989745893015
 30
0.0
 10
124.9524786550342
 20
242.6775595031487
 30
0.0
 10
124.9267578911416
 20
242.652445967846
 30
0.0
 10
124.910401855434
 20
242.6378740528416
 30
0.0
 10
124.9039743165681
 20
242.6312972542052
 30
0.0
 10
124.9035670668736
 20
242.6295700347596
 30
0.0
 10
124.9034738650977
 20
242.629174749209
 30
0.0
  0
LINE
  5
238
330
1F
100
AcDbEntity
  8
0
  6
Continuous
 62
     7
370
    15
100
AcDbLine
 10
124.8501405318
 20
242.6291747492
 30
0.0
 11
124.9034738651
 21
242.6291747492
 31
0.0
  0
SPLINE
  5
239
330
1F
100
AcDbEntity
  8
0
  6
Continuous
 62
     7
370
    15
100
AcDbSpline
210
0.0
220
0.0
230
1.0
 70
     8
 71
     3
 72
    11
 73
     7
 74
     0
 42
0.00000001
 43
0.00000001
 40
0.0
 40
0.0
 40
0.0
 40
0.0
 40
0.2713144292407212
 40
0.5804659662367406
 40
0.8527785743570383
 40
1.0
 40
1.0
 40
1.0
 40
1.0
 10
124.9868071984311
 20
242.7120366780215
 30
0.0
 10
124.9711845113991
 20
242.7025743572981
 30
0.0
 10
124.9377604205809
 20
242.6823301146422
 30
0.0
 10
124.8938470801656
 20
242.6552367517135
 30
0.0
 10
124.8633308244264
 20
242.6391436288573
 30
0.0
 10
124.8573856506576
 20
242.6348681445507
 30
0.0
 10
124.8552993909325
 20
242.6333678064512
 30
0.0
  0
LINE
  5
23A
330
1F
100
AcDbEntity
  8
0
  6
Continuous
 62
     7
370
    15
100
AcDbLine
 10
124.8501405318
 20
255.1487033447
 30
0.0
 11
124.8501405318
 21
255.0867134311
 31
0.0
  0
SPLINE
  5
23B
330
1F
100
AcDbEntity
  8
0
  6
Continuous
 62
     7
370
    15
100
AcDbSpline
210
0.0
220
0.0
230
1.0
 70
     8
 71
     3
 72
    11
 73
     7
 74
     0
 42
0.00000001
 43
0.00000001
 40
0.0
 40
0.0
 40
0.0
 40
0.0
 40
0.2500000000000032
 40
0.4999999999999971
 40
0.749999999999991
 40
1.0
 40
1.0
 40
1.0
 40
1.0
 10
124.8501405317644
 20
255.1487033446882
 30
0.0
 10
124.852194846712
 20
255.1556477891326
 30
0.0
 10
124.8563034766072
 20
255.1695366780216
 30
0.0
 10
124.8879075357339
 20
255.1903700113549
 30
0.0
 10
124.9330820104705
 20
255.2112033446882
 30
0.0
 10
124.9688988024442
 20
255.2250922335771
 30
0.0
 10
124.9868071984311
 20
255.2320366780215
 30
0.0
  0
LINE
  5
23C
330
1F
100
AcDbEntity
  8
0
  6
Continuous
 62
     7
370
    15
100
AcDbLine
 10
128.5834738651
 20
242.712036678
 30
0.0
 11
128.4468071984
 21
242.712036678
 31
0.0
  0
LINE
  5
23D
330
1F
100
AcDbEntity
  8
0
  6
Continuous
 62
     7
370
    15
100
AcDbLine
 10
128.4468071984
 20
253.522036678
 30
0.0
 11
128.5834738651
 21
253.522036678
 31
0.0
  0
LINE
  5
23E
330
1F
100
AcDbEntity
  8
0
  6
Continuous
 62
     7
370
    15
100
AcDbLine
 10
128.5834738651
 20
253.522036678
 30
0.0
 11
128.5834738651
 21
242.712036678
 31
0.0
  0
SPLINE
  5
23F
330
1F
100
AcDbEntity
  8
0
  6
Continuous
 62
     7
370
    15
100
AcDbSpline
210
0.0
220
0.0
230
1.0
 70
     8
 71
     3
 72
    12
 73
     8
 74
     0
 42
0.00000001
 43
0.00000001
 40
0.0
 40
0.0
 40
0.0
 40
0.0
 40
0.230340272669857
 40
0.460765053184086
 40
0.6911902299722757
 40
0.9216152586331061
 40
0.9999999999999999
 40
0.9999999999999999
 40
0.9999999999999999
 40
0.9999999999999999
 10
124.9868071984311
 20
255.2953700113549
 30
0.0
 10
124.9703230801152
 20
255.2936289229156
 30
0.0
 10
124.9373487957469
 20
255.290146107262
 30
0.0
 10
124.8942512613341
 20
255.2631265946947
 30
0.0
 10
124.8633234223731
 20
255.2238740545674
 30
0.0
 10
124.8511813644284
 20
255.1862838842764
 30
0.0
 10
124.8503512408441
 20
255.1642868263719
 30
0.0
 10
124.8501405317644
 20
255.1587033446882
 30
0.0
  0
LINE
  5
240
330
1F
100
AcDbEntity
  8
0
  6
Continuous
 62
     7
370
    15
100
AcDbLine
 10
124.9868071984
 20
255.242036678
 30
0.0
 11
124.9868071984
 21
255.2953700114
 31
0.0
  0
SPLINE
  5
241
330
1F
100
AcDbEntity
  8
0
  6
Continuous
 62
     7
370
    15
100
AcDbSpline
210
0.0
220
0.0
230
1.0
 70
     8
 71
     3
 72
    10
 73
     6
 74
     0
 42
0.00000001
 43
0.00000001
 40
0.0
 40
0.0
 40
0.0
 40
0.0
 40
0.4056484728303905
 40
0.8115783783015584
 40
0.9999999999999999
 40
0.9999999999999999
 40
0.9999999999999999
 40
0.9999999999999999
 10
124.9868071984311
 20
255.2420366780215
 30
0.0
 10
124.9758123843333
 20
255.2406616615608
 30
0.0
 10
124.9538151281057
 20
255.2379106746742
 30
0.0
 10
124.9292749734942
 20
255.2223944298043
 30
0.0
 10
124.9212372485527
 20
255.2082537241144
 30
0.0
 10
124.9186891249272
 20
255.2037708304458
 30
0.0
  0
LINE
  5
242
330
1F
100
AcDbEntity
  8
0
  6
Continuous
 62
     7
370
    15
100
AcDbLine
 10
124.8569674097
 20
255.1587033447
 30
0.0
 11
124.8501405318
 21
255.1587033447
 31
0.0
  0
ARC
  5
243
330
1F
100
AcDbEntity
  8
0
  6
Continuous
 62
     7
370
    15
100
AcDbCircle
 10
126.8634738651
 20
253.5753700114
 30
0.0
 40
1.719999999999999
100
AcDbArc
 50
0.0
 51
90.0
  0
LINE
  5
244
330
1F
100
AcDbEntity
  8
0
  6
Continuous
 62
     7
370
    15
100
AcDbLine
 10
128.5301405318
 20
253.5753700114
 30
0.0
 11
128.5834738651
 21
253.5753700114
 31
0.0
  0
ARC
  5
245
330
1F
100
AcDbEntity
  8
0
  6
Continuous
 62
     7
370
    15
100
AcDbCircle
 10
126.8634738651
 20
253.5753700114
 30
0.0
 40
1.666666666666657
100
AcDbArc
 50
0.0
 51
90.0
  0
LINE
  5
246
330
1F
100
AcDbEntity
  8
0
  6
Continuous
 62
     7
370
    15
100
AcDbLine
 10
126.8634738651
 20
255.242036678
 30
0.0
 11
126.8634738651
 21
255.2953700114
 31
0.0
  0
LINE
  5
247
330
1F
100
AcDbEntity
  8
0
  6
Continuous
 62
     7
370
    15
100
AcDbLine
 10
128.5834738651
 20
253.5753700114
 30
0.0
 11
128.5834738651
 21
253.574036678
 31
0.0
  0
LINE
  5
248
330
1F
100
AcDbEntity
  8
0
  6
Continuous
 62
     7
370
    15
100
AcDbLine
 10
128.5301405318
 20
253.574036678
 30
0.0
 11
128.5834738651
 21
253.574036678
 31
0.0
  0
LINE
  5
249
330
1F
100
AcDbEntity
  8
0
  6
Continuous
 62
     7
370
    15
100
AcDbLine
 10
128.5301405318
 20
253.5753700114
 30
0.0
 11
128.5301405318
 21
253.574036678
 31
0.0
  0
LINE
  5
24A
330
1F
100
AcDbEntity
  8
0
  6
Continuous
 62
     7
370
    15
100
AcDbLine
 10
126.8634738651
 20
255.2953700114
 30
0.0
 11
124.9868071984
 21
255.2953700114
 31
0.0
  0
LINE
  5
24B
330
1F
100
AcDbEntity
  8
0
  6
Continuous
 62
     7
370
    15
100
AcDbLine
 10
126.8634738651
 20
255.242036678
 30
0.0
 11
124.9868071984
 21
255.242036678
 31
0.0
  0
LINE
  5
24C
330
1F
100
AcDbEntity
  8
0
  6
Continuous
 62
     7
370
    15
100
AcDbLine
 10
128.5834738651
 20
253.574036678
 30
0.0
 11
128.5834738651
 21
253.522036678
 31
0.0
  0
LINE
  5
24D
330
1F
100
AcDbEntity
  8
0
  6
Continuous
 62
     7
370
    15
100
AcDbLine
 10
128.5301405318
 20
253.574036678
 30
0.0
 11
128.5301405318
 21
253.522036678
 31
0.0
  0
SPLINE
  5
24E
330
1F
100
AcDbEntity
  8
0
  6
Continuous
 62
     7
370
    15
100
AcDbSpline
210
0.0
220
0.0
230
1.0
 70
     8
 71
     3
 72
    11
 73
     7
 74
     0
 42
0.00000001
 43
0.00000001
 40
0.0
 40
0.0
 40
0.0
 40
0.0
 40
0.2499999999999893
 40
0.4999999999999838
 40
0.7500000000000034
 40
1.0
 40
1.0
 40
1.0
 40
1.0
 10
128.446807198431
 20
242.6287033446882
 30
0.0
 10
128.4577269520815
 20
242.6299559757538
 30
0.0
 10
128.4795664593826
 20
242.632461237885
 30
0.0
 10
128.5071118708073
 20
242.6517320056452
 30
0.0
 10
128.5263826385676
 20
242.67927741707
 30
0.0
 10
128.5288879006988
 20
242.701116924371
 30
0.0
 10
128.5301405317644
 20
242.7120366780215
 30
0.0
  0
SPLINE
  5
24F
330
1F
100
AcDbEntity
  8
0
  6
Continuous
 62
     7
370
    15
100
AcDbSpline
210
0.0
220
0.0
230
1.0
 70
     8
 71
     3
 72
    11
 73
     7
 74
     0
 42
0.00000001
 43
0.00000001
 40
0.0
 40
0.0
 40
0.0
 40
0.0
 40
0.249999999999992
 40
0.4999999999999987
 40
0.7499999999999865
 40
1.0
 40
1.0
 40
1.0
 40
1.0
 10
128.446807198431
 20
242.5753700113549
 30
0.0
 10
128.4647155944179
 20
242.5774243263025
 30
0.0
 10
128.5005323863916
 20
242.5815329561977
 30
0.0
 10
128.5457068611281
 20
242.6131370153244
 30
0.0
 10
128.5773109202549
 20
242.658311490061
 30
0.0
 10
128.5814195501501
 20
242.6941282820347
 30
0.0
 10
128.5834738650977
 20
242.7120366780215
 30
0.0
  0
LINE
  5
250
330
1F
100
AcDbEntity
  8
0
  6
Continuous
 62
     7
370
    15
100
AcDbLine
 10
124.9039452696
 20
242.5753700114
 30
0.0
 11
124.9034738651
 21
242.5753700114
 31
0.0
  0
LWPOLYLINE
  5
251
330
1F
100
AcDbEntity
  8
0
  6
Continuous
 62
     7
370
    15
100
AcDbPolyline
 90
        3
 70
   128
 43
0.0
 10
125.9417943772
 20
242.5753700114
 10
125.9471080454
 20
242.5679646099
 10
125.9565444607
 20
242.5514623146
  0
ARC
  5
252
330
1F
100
AcDbEntity
  8
0
  6
Continuous
 62
     7
370
    15
100
AcDbCircle
 10
125.8334738651
 20
242.492036678
 30
0.0
 40
0.0833333333333252
100
AcDbArc
 50
45.488327225
 51
90.0
  0
LINE
  5
253
330
1F
100
AcDbEntity
  8
0
  6
Continuous
 62
     7
370
    15
100
AcDbLine
 10
128.4468071984
 20
223.564795648
 30
0.0
 11
128.4468071984
 21
223.7014623146
 31
0.0
  0
LINE
  5
254
330
1F
100
AcDbEntity
  8
0
  6
Continuous
 62
     7
370
    15
100
AcDbLine
 10
128.4468071984
 20
223.564795648
 30
0.0
 11
124.9039452696
 21
223.564795648
 31
0.0
  0
LINE
  5
255
330
1F
100
AcDbEntity
  8
0
  6
Continuous
 62
     7
370
    15
100
AcDbLine
 10
124.9034738651
 20
223.564795648
 30
0.0
 11
124.9039452696
 21
223.564795648
 31
0.0
  0
SPLINE
  5
256
330
1F
100
AcDbEntity
  8
0
  6
Continuous
 62
     7
370
    15
100
AcDbSpline
210
0.0
220
0.0
230
1.0
 70
     8
 71
     3
 72
    11
 73
     7
 74
     0
 42
0.00000001
 43
0.00000001
 40
0.0
 40
0.0
 40
0.0
 40
0.0
 40
0.2499999999999978
 40
0.5000000000000026
 40
0.7500000000000016
 40
1.0
 40
1.0
 40
1.0
 40
1.0
 10
124.9868071984311
 20
223.7014623146266
 30
0.0
 10
124.9798627539867
 20
223.6835539186398
 30
0.0
 10
124.9659738650978
 20
223.6477371266661
 30
0.0
 10
124.9451405317645
 20
223.6025626519295
 30
0.0
 10
124.9243071984311
 20
223.5709585928028
 30
0.0
 10
124.9104183095422
 20
223.5668499629076
 30
0.0
 10
124.9034738650978
 20
223.56479564796
 30
0.0
  0
LINE
  5
257
330
1F
100
AcDbEntity
  8
0
  6
Continuous
 62
     7
370
    15
100
AcDbLine
 10
124.9868071984
 20
223.7014623146
 30
0.0
 11
128.4468071984
 21
223.7014623146
 31
0.0
  0
LINE
  5
258
330
1F
100
AcDbEntity
  8
0
  6
Continuous
 62
     7
370
    15
100
AcDbLine
 10
128.4468071984
 20
242.414795648
 30
0.0
 11
124.9868071984
 21
242.414795648
 31
0.0
  0
LINE
  5
259
330
1F
100
AcDbEntity
  8
0
  6
Continuous
 62
     7
370
    15
100
AcDbLine
 10
124.8569674097
 20
223.7014623146
 30
0.0
 11
124.9868071984
 21
223.7014623146
 31
0.0
  0
LINE
  5
25A
330
1F
100
AcDbEntity
  8
0
  6
Continuous
 62
     7
370
    15
100
AcDbLine
 10
124.9868071984
 20
242.414795648
 30
0.0
 11
124.8569674097
 21
242.414795648
 31
0.0
  0
LINE
  5
25B
330
1F
100
AcDbEntity
  8
0
  6
Continuous
 62
     7
370
    15
100
AcDbLine
 10
124.9034738651
 20
223.6181289813
 30
0.0
 11
124.9034738651
 21
223.564795648
 31
0.0
  0
SPLINE
  5
25C
330
1F
100
AcDbEntity
  8
0
  6
Continuous
 62
     7
370
    15
100
AcDbSpline
210
0.0
220
0.0
230
1.0
 70
     8
 71
     3
 72
    11
 73
     7
 74
     0
 42
0.00000001
 43
0.00000001
 40
0.0
 40
0.0
 40
0.0
 40
0.0
 40
0.2499999999999986
 40
0.5000000000000114
 40
0.7500000000000073
 40
1.0
 40
1.0
 40
1.0
 40
1.0
 10
124.9868071984311
 20
223.7014623146266
 30
0.0
 10
124.9798627539867
 20
223.6905425609761
 30
0.0
 10
124.9659738650978
 20
223.6687030536751
 30
0.0
 10
124.9451405317645
 20
223.6411576422503
 30
0.0
 10
124.9243071984311
 20
223.6218868744901
 30
0.0
 10
124.9104183095422
 20
223.6193816123589
 30
0.0
 10
124.9034738650978
 20
223.6181289812933
 30
0.0
  0
SPLINE
  5
25D
330
1F
100
AcDbEntity
  8
0
  6
Continuous
 62
     7
370
    15
100
AcDbSpline
210
0.0
220
0.0
230
1.0
 70
     8
 71
     3
 72
    12
 73
     8
 74
     0
 42
0.00000001
 43
0.00000001
 40
0.0
 40
0.0
 40
0.0
 40
0.0
 40
0.2303402726698912
 40
0.4607650531841082
 40
0.6911902299723077
 40
0.9216152586331373
 40
1.0
 40
1.0
 40
1.0
 40
1.0
 10
124.9034738650978
 20
242.5514623146267
 30
0.0
 10
124.90987408187
 20
242.5497212261874
 30
0.0
 10
124.9226768635427
 20
242.5462384105338
 30
0.0
 10
124.9418858475913
 20
242.5192188979664
 30
0.0
 10
124.9610829368514
 20
242.4799663578391
 30
0.0
 10
124.9760995108255
 20
242.4423761875482
 30
0.0
 10
124.9846395041614
 20
242.4203791296436
 30
0.0
 10
124.9868071984311
 20
242.41479564796
 30
0.0
  0
LINE
  5
25E
330
1F
100
AcDbEntity
  8
0
  6
Continuous
 62
     7
370
    15
100
AcDbLine
 10
124.9039452696
 20
242.5514623146
 30
0.0
 11
124.9034738651
 21
242.5514623146
 31
0.0
  0
LINE
  5
25F
330
1F
100
AcDbEntity
  8
0
  6
Continuous
 62
     7
370
    15
100
AcDbLine
 10
124.9039452696
 20
242.5514623146
 30
0.0
 11
128.4468071984
 21
242.5514623146
 31
0.0
  0
LINE
  5
260
330
1F
100
AcDbEntity
  8
0
  6
Continuous
 62
     7
370
    15
100
AcDbLine
 10
128.4468071984
 20
242.414795648
 30
0.0
 11
128.4468071984
 21
242.5514623146
 31
0.0
  0
SPLINE
  5
261
330
1F
100
AcDbEntity
  8
0
  6
Continuous
 62
     7
370
    15
100
AcDbSpline
210
0.0
220
0.0
230
1.0
 70
     8
 71
     3
 72
    11
 73
     7
 74
     0
 42
0.00000001
 43
0.00000001
 40
0.0
 40
0.0
 40
0.0
 40
0.0
 40
0.2547151868506179
 40
0.5096070911609745
 40
0.7645000784892692
 40
1.0
 40
1.0
 40
1.0
 40
1.0
 10
124.9034738650978
 20
242.4981289812933
 30
0.0
 10
124.9105504996504
 20
242.4968274288129
 30
0.0
 10
124.9247086784153
 20
242.4942234208551
 30
0.0
 10
124.9459469978204
 20
242.4742293075562
 30
0.0
 10
124.9666579412342
 20
242.4464814272543
 30
0.0
 10
124.9802702162624
 20
242.4250754003212
 30
0.0
 10
124.9868071984311
 20
242.41479564796
 30
0.0
  0
LINE
  5
262
330
1F
100
AcDbEntity
  8
0
  6
Continuous
 62
     7
370
    15
100
AcDbLine
 10
124.9034738651
 20
242.4981289813
 30
0.0
 11
124.9034738651
 21
242.5514623146
 31
0.0
  0
LINE
  5
263
330
1F
100
AcDbEntity
  8
0
  6
Continuous
 62
     7
370
    15
100
AcDbLine
 10
128.5834738651
 20
242.414795648
 30
0.0
 11
128.5834738651
 21
233.5904880836
 31
0.0
  0
LINE
  5
264
330
1F
100
AcDbEntity
  8
0
  6
Continuous
 62
     7
370
    15
100
AcDbLine
 10
128.5834738651
 20
230.790423732
 30
0.0
 11
128.5834738651
 21
226.87580564
 31
0.0
  0
LINE
  5
265
330
1F
100
AcDbEntity
  8
0
  6
Continuous
 62
     7
370
    15
100
AcDbLine
 10
128.5834738651
 20
224.6238340158
 30
0.0
 11
128.5834738651
 21
223.7014623146
 31
0.0
  0
LINE
  5
266
330
1F
100
AcDbEntity
  8
0
  6
Continuous
 62
     7
370
    15
100
AcDbLine
 10
128.4468071984
 20
223.7014623146
 30
0.0
 11
128.5834738651
 21
223.7014623146
 31
0.0
  0
LINE
  5
267
330
1F
100
AcDbEntity
  8
0
  6
Continuous
 62
     7
370
    15
100
AcDbLine
 10
128.5834738651
 20
242.414795648
 30
0.0
 11
128.4468071984
 21
242.414795648
 31
0.0
  0
LINE
  5
268
330
1F
100
AcDbEntity
  8
0
  6
Continuous
 62
     7
370
    15
100
AcDbLine
 10
124.8569674097
 20
242.4976575768
 30
0.0
 11
124.9034738651
 21
242.4976575768
 31
0.0
  0
LINE
  5
269
330
1F
100
AcDbEntity
  8
0
  6
Continuous
 62
     7
370
    15
100
AcDbLine
 10
124.9034738651
 20
242.414795648
 30
0.0
 11
124.9034738651
 21
242.4976575768
 31
0.0
  0
LINE
  5
26A
330
1F
100
AcDbEntity
  8
0
  6
Continuous
 62
     7
370
    15
100
AcDbLine
 10
124.8569674097
 20
223.6186003858
 30
0.0
 11
124.9034738651
 21
223.6186003858
 31
0.0
  0
LINE
  5
26B
330
1F
100
AcDbEntity
  8
0
  6
Continuous
 62
     7
370
    15
100
AcDbLine
 10
124.9034738651
 20
223.7014623146
 30
0.0
 11
124.9034738651
 21
223.6186003858
 31
0.0
  0
SPLINE
  5
26C
330
1F
100
AcDbEntity
  8
0
  6
Continuous
 62
     7
370
    15
100
AcDbSpline
210
0.0
220
0.0
230
1.0
 70
     8
 71
     3
 72
    11
 73
     7
 74
     0
 42
0.00000001
 43
0.00000001
 40
0.0
 40
0.0
 40
0.0
 40
0.0
 40
0.2547151868506328
 40
0.5096070911609994
 40
0.7645000784893047
 40
1.0
 40
1.0
 40
1.0
 40
1.0
 10
128.4468071984311
 20
223.6181289812933
 30
0.0
 10
128.4579342492247
 20
223.6194305337737
 30
0.0
 10
128.4801960705878
 20
223.6220345417315
 30
0.0
 10
128.5080886576745
 20
223.6420286550304
 30
0.0
 10
128.5267085043513
 20
223.6697765353323
 30
0.0
 10
128.5290270861529
 20
223.6911825622654
 30
0.0
 10
128.5301405317645
 20
223.7014623146266
 30
0.0
  0
SPLINE
  5
26D
330
1F
100
AcDbEntity
  8
0
  6
Continuous
 62
     7
370
    15
100
AcDbSpline
210
0.0
220
0.0
230
1.0
 70
     8
 71
     3
 72
    12
 73
     8
 74
     0
 42
0.00000001
 43
0.00000001
 40
0.0
 40
0.0
 40
0.0
 40
0.0
 40
0.2303402726698903
 40
0.4607650531841398
 40
0.6911902299723135
 40
0.9216152586331443
 40
1.0
 40
1.0
 40
1.0
 40
1.0
 10
128.4468071984311
 20
223.56479564796
 30
0.0
 10
128.4632913167469
 20
223.5665367363992
 30
0.0
 10
128.4962656011152
 20
223.5700195520528
 30
0.0
 10
128.539363135528
 20
223.5970390646202
 30
0.0
 10
128.5702909744891
 20
223.6362916047475
 30
0.0
 10
128.5824330324337
 20
223.6738817750384
 30
0.0
 10
128.583263156018
 20
223.695878832943
 30
0.0
 10
128.5834738650978
 20
223.7014623146266
 30
0.0
  0
SPLINE
  5
26E
330
1F
100
AcDbEntity
  8
0
  6
Continuous
 62
     7
370
    15
100
AcDbSpline
210
0.0
220
0.0
230
1.0
 70
     8
 71
     3
 72
    11
 73
     7
 74
     0
 42
0.00000001
 43
0.00000001
 40
0.0
 40
0.0
 40
0.0
 40
0.0
 40
0.2547151868506541
 40
0.5096070911610077
 40
0.7645000784893443
 40
1.0
 40
1.0
 40
1.0
 40
1.0
 10
128.5301405317644
 20
242.41479564796
 30
0.0
 10
128.528838979284
 20
242.4259226987536
 30
0.0
 10
128.5262349713263
 20
242.4481845201167
 30
0.0
 10
128.5062408580273
 20
242.4760771072034
 30
0.0
 10
128.4784929777255
 20
242.4946969538802
 30
0.0
 10
128.4570869507924
 20
242.4970155356818
 30
0.0
 10
128.4468071984311
 20
242.4981289812933
 30
0.0
  0
SPLINE
  5
26F
330
1F
100
AcDbEntity
  8
0
  6
Continuous
 62
     7
370
    15
100
AcDbSpline
210
0.0
220
0.0
230
1.0
 70
     8
 71
     3
 72
    12
 73
     8
 74
     0
 42
0.00000001
 43
0.00000001
 40
0.0
 40
0.0
 40
0.0
 40
0.0
 40
0.230340272669909
 40
0.4607650531841703
 40
0.6911902299723518
 40
0.9216152586331992
 40
1.0
 40
1.0
 40
1.0
 40
1.0
 10
128.5834738650978
 20
242.41479564796
 30
0.0
 10
128.5817327766585
 20
242.4312797662758
 30
0.0
 10
128.5782499610049
 20
242.4642540506441
 30
0.0
 10
128.5512304484376
 20
242.5073515850569
 30
0.0
 10
128.5119779083102
 20
242.538279424018
 30
0.0
 10
128.4743877380193
 20
242.5504214819626
 30
0.0
 10
128.4523906801148
 20
242.5512516055469
 30
0.0
 10
128.4468071984311
 20
242.5514623146267
 30
0.0
  0
LINE
  5
270
330
1F
100
AcDbEntity
  8
0
  6
Continuous
 62
     7
370
    15
100
AcDbLine
 10
96.1569674097
 20
256.1652958027
 30
0.0
 11
96.1569674097
 21
255.2981289813
 31
0.0
  0
LINE
  5
271
330
1F
100
AcDbEntity
  8
0
  6
Continuous
 62
     7
370
    15
100
AcDbLine
 10
96.2336340764
 20
256.1652958027
 30
0.0
 11
96.1569674097
 21
256.1652958027
 31
0.0
  0
LINE
  5
272
330
1F
100
AcDbEntity
  8
0
  6
Continuous
 62
     7
370
    15
100
AcDbLine
 10
96.2336340764
 20
256.1652958027
 30
0.0
 11
102.2264511905
 21
257.1144647872
 31
0.0
  0
LINE
  5
273
330
1F
100
AcDbEntity
  8
0
  6
Continuous
 62
     7
370
    15
100
AcDbLine
 10
102.2984942914
 20
257.1406863316
 30
0.0
 11
102.2264511905
 21
257.1144647872
 31
0.0
  0
LINE
  5
274
330
1F
100
AcDbEntity
  8
0
  6
Continuous
 62
     7
370
    15
100
AcDbLine
 10
102.9691303218
 20
255.2981289813
 30
0.0
 11
102.2984942914
 21
257.1406863316
 31
0.0
  0
LINE
  5
275
330
1F
100
AcDbEntity
  8
0
  6
Continuous
 62
     7
370
    15
100
AcDbLine
 10
102.2009002278
 20
257.2757872162
 30
0.0
 11
102.2264511905
 21
257.1144647872
 31
0.0
  0
LINE
  5
276
330
1F
100
AcDbEntity
  8
0
  6
Continuous
 62
     7
370
    15
100
AcDbLine
 10
96.2336340764
 20
256.1652958027
 30
0.0
 11
96.2080831138
 21
256.3266182316
 31
0.0
  0
LINE
  5
277
330
1F
100
AcDbEntity
  8
0
  6
Continuous
 62
     7
370
    15
100
AcDbLine
 10
96.2080831138
 20
256.3266182316
 30
0.0
 11
102.2009002278
 21
257.2757872162
 31
0.0
  0
LINE
  5
278
330
1F
100
AcDbEntity
  8
0
  6
Continuous
 62
     7
370
    15
100
AcDbLine
 10
103.0424061548
 20
255.3502016661
 30
0.0
 11
102.3799343185
 21
257.1703280773
 31
0.0
  0
LINE
  5
279
330
1F
100
AcDbEntity
  8
0
  6
Continuous
 62
     7
370
    15
100
AcDbLine
 10
102.9672307451
 20
255.3228400546
 30
0.0
 11
102.3047589088
 21
257.1429664659
 31
0.0
  0
LINE
  5
27A
330
1F
100
AcDbEntity
  8
0
  6
Continuous
 62
     7
370
    15
100
AcDbLine
 10
102.3047589088
 20
257.1429664659
 30
0.0
 11
102.3799343185
 21
257.1703280773
 31
0.0
  0
LINE
  5
27B
330
1F
100
AcDbEntity
  8
0
  6
Continuous
 62
     7
370
    15
100
AcDbLine
 10
103.0424061548
 20
255.3502016661
 30
0.0
 11
102.9672307451
 21
255.3228400546
 31
0.0
  0
LINE
  5
27C
330
1F
100
AcDbEntity
  8
0
  6
Continuous
 62
     7
370
    15
100
AcDbLine
 10
96.0703007431
 20
255.3814623146
 30
0.0
 11
96.0703007431
 21
256.1652958027
 31
0.0
  0
LINE
  5
27D
330
1F
100
AcDbEntity
  8
0
  6
Continuous
 62
     7
370
    15
100
AcDbLine
 10
96.1503007431
 20
256.1652958027
 30
0.0
 11
96.0703007431
 21
256.1652958027
 31
0.0
  0
LINE
  5
27E
330
1F
100
AcDbEntity
  8
0
  6
Continuous
 62
     7
370
    15
100
AcDbLine
 10
96.1503007431
 20
255.3814623146
 30
0.0
 11
96.1503007431
 21
256.1652958027
 31
0.0
  0
LINE
  5
27F
330
1F
100
AcDbEntity
  8
0
  6
Continuous
 62
     7
370
    15
100
AcDbLine
 10
96.0703007431
 20
255.3814623146
 30
0.0
 11
96.1503007431
 21
255.3814623146
 31
0.0
  0
SPLINE
  5
280
330
1F
100
AcDbEntity
  8
0
  6
Continuous
 62
     7
370
    15
100
AcDbSpline
210
0.0
220
0.0
230
1.0
 70
     8
 71
     3
 72
     9
 73
     5
 74
     0
 42
0.00000001
 43
0.00000001
 40
0.0
 40
0.0
 40
0.0
 40
0.0
 40
0.469816747090234
 40
0.9999999999999999
 40
0.9999999999999999
 40
0.9999999999999999
 40
0.9999999999999999
 10
124.7980425668514
 20
255.1614623146249
 30
0.0
 10
124.796801280176
 20
255.1728830909513
 30
0.0
 10
124.7941592145554
 20
255.1971920931251
 30
0.0
 10
124.7785780133226
 20
255.216141529843
 30
0.0
 10
124.7703171213688
 20
255.2261882038429
 30
0.0
  0
ARC
  5
281
330
1F
100
AcDbEntity
  8
0
  6
Continuous
 62
     7
370
    15
100
AcDbCircle
 10
102.2264511905
 20
257.1144647872
 30
0.0
 40
0.083333333333361
100
AcDbArc
 50
20.0
 51
99.0
  0
ARC
  5
282
330
1F
100
AcDbEntity
  8
0
  6
Continuous
 62
     7
370
    15
100
AcDbCircle
 10
102.2264511905
 20
257.1144647872
 30
0.0
 40
0.1633333333333605
100
AcDbArc
 50
20.0
 51
99.0
  0
ARC
  5
283
330
1F
100
AcDbEntity
  8
0
  6
Continuous
 62
     7
370
    15
100
AcDbCircle
 10
103.1207138732
 20
255.3787033447
 30
0.0
 40
0.0833333333333382
100
AcDbArc
 50
200.0
 51
255.2154781779
  0
LWPOLYLINE
  5
284
330
1F
100
AcDbEntity
  8
0
  6
Continuous
 62
     7
370
    15
100
AcDbPolyline
 90
        3
 70
   128
 43
0.0
 10
102.9672307451
 20
255.3228400546
 10
102.9775151698
 20
255.3001418458
 10
102.9786380141
 20
255.2981289813
  0
ARC
  5
285
330
1F
100
AcDbEntity
  8
0
  6
Continuous
 62
     7
370
    15
100
AcDbCircle
 10
95.9869674097
 20
255.3814623146
 30
0.0
 40
0.0833333333333144
100
AcDbArc
 50
270.0
 51
0.0
  0
ARC
  5
286
330
1F
100
AcDbEntity
  8
0
  6
Continuous
 62
     7
370
    15
100
AcDbCircle
 10
95.9869674097
 20
255.3814623146
 30
0.0
 40
0.1633333333333434
100
AcDbArc
 50
329.3225755261
 51
0.0
  0
ARC
  5
287
330
1F
100
AcDbEntity
  8
0
  6
Continuous
 62
     7
370
    15
100
AcDbCircle
 10
96.2336340764
 20
256.1652958027
 30
0.0
 40
0.1633333333333627
100
AcDbArc
 50
99.0
 51
180.0
  0
ARC
  5
288
330
1F
100
AcDbEntity
  8
0
  6
Continuous
 62
     7
370
    15
100
AcDbCircle
 10
96.2336340764
 20
256.1652958027
 30
0.0
 40
0.083333333333361
100
AcDbArc
 50
99.0
 51
180.0
  0
LINE
  5
289
330
1F
100
AcDbEntity
  8
0
  6
Continuous
 62
     7
370
    15
100
AcDbLine
 10
105.0554233968
 20
253.7781289813
 30
0.0
 11
105.2836340764
 21
253.7501082332
 31
0.0
  0
LINE
  5
28A
330
1F
100
AcDbEntity
  8
0
  6
Continuous
 62
     7
370
    15
100
AcDbLine
 10
105.9503007431
 20
253.6682518593
 30
0.0
 11
106.2836340764
 21
253.6273236723
 31
0.0
  0
LINE
  5
28B
330
1F
100
AcDbEntity
  8
0
  6
Continuous
 62
     7
370
    15
100
AcDbLine
 10
106.9503007431
 20
253.5454672984
 30
0.0
 11
107.2836340764
 21
253.5045391114
 31
0.0
  0
LINE
  5
28C
330
1F
100
AcDbEntity
  8
0
  6
Continuous
 62
     7
370
    15
100
AcDbLine
 10
107.9503007431
 20
253.4226827375
 30
0.0
 11
108.2836340764
 21
253.3817545505
 31
0.0
  0
LINE
  5
28D
330
1F
100
AcDbEntity
  8
0
  6
Continuous
 62
     7
370
    15
100
AcDbLine
 10
108.9503007431
 20
253.2998981766
 30
0.0
 11
109.2836340764
 21
253.2589699896
 31
0.0
  0
LINE
  5
28E
330
1F
100
AcDbEntity
  8
0
  6
Continuous
 62
     7
370
    15
100
AcDbLine
 10
109.9503007431
 20
253.1771136157
 30
0.0
 11
110.2836340764
 21
253.1361854287
 31
0.0
  0
LINE
  5
28F
330
1F
100
AcDbEntity
  8
0
  6
Continuous
 62
     7
370
    15
100
AcDbLine
 10
110.9503007431
 20
253.0543290548
 30
0.0
 11
111.2836340764
 21
253.0134008678
 31
0.0
  0
LINE
  5
290
330
1F
100
AcDbEntity
  8
0
  6
Continuous
 62
     7
370
    15
100
AcDbLine
 10
111.9503007431
 20
252.9315444939
 30
0.0
 11
112.2836340764
 21
252.8906163069
 31
0.0
  0
LINE
  5
291
330
1F
100
AcDbEntity
  8
0
  6
Continuous
 62
     7
370
    15
100
AcDbLine
 10
112.9503007431
 20
252.8087599329
 30
0.0
 11
113.2836340764
 21
252.767831746
 31
0.0
  0
LINE
  5
292
330
1F
100
AcDbEntity
  8
0
  6
Continuous
 62
     7
370
    15
100
AcDbLine
 10
113.9503007431
 20
252.685975372
 30
0.0
 11
114.2836340764
 21
252.6450471851
 31
0.0
  0
LINE
  5
293
330
1F
100
AcDbEntity
  8
0
  6
Continuous
 62
     7
370
    15
100
AcDbLine
 10
114.9503007431
 20
252.5631908111
 30
0.0
 11
115.2836340764
 21
252.5222626242
 31
0.0
  0
LINE
  5
294
330
1F
100
AcDbEntity
  8
0
  6
Continuous
 62
     7
370
    15
100
AcDbLine
 10
115.9503007431
 20
252.4404062502
 30
0.0
 11
116.2836340764
 21
252.3994780633
 31
0.0
  0
LINE
  5
295
330
1F
100
AcDbEntity
  8
0
  6
Continuous
 62
     7
370
    15
100
AcDbLine
 10
116.9503007431
 20
252.3176216893
 30
0.0
 11
117.2836340764
 21
252.2766935024
 31
0.0
  0
LINE
  5
296
330
1F
100
AcDbEntity
  8
0
  6
Continuous
 62
     7
370
    15
100
AcDbLine
 10
117.9503007431
 20
252.1948371284
 30
0.0
 11
118.2836340764
 21
252.1539089415
 31
0.0
  0
LINE
  5
297
330
1F
100
AcDbEntity
  8
0
  6
Continuous
 62
     7
370
    15
100
AcDbLine
 10
118.9503007431
 20
252.0720525675
 30
0.0
 11
119.2836340764
 21
252.0311243806
 31
0.0
  0
LINE
  5
298
330
1F
100
AcDbEntity
  8
0
  6
Continuous
 62
     7
370
    15
100
AcDbLine
 10
119.9503007431
 20
251.9492680066
 30
0.0
 11
120.2836340764
 21
251.9083398197
 31
0.0
  0
LINE
  5
299
330
1F
100
AcDbEntity
  8
0
  6
Continuous
 62
     7
370
    15
100
AcDbLine
 10
120.9503007431
 20
251.8264834457
 30
0.0
 11
121.2836340764
 21
251.7855552588
 31
0.0
  0
LINE
  5
29A
330
1F
100
AcDbEntity
  8
0
  6
Continuous
 62
     7
370
    15
100
AcDbLine
 10
121.9503007431
 20
251.7036988848
 30
0.0
 11
122.2836340764
 21
251.6627706979
 31
0.0
  0
LINE
  5
29B
330
1F
100
AcDbEntity
  8
0
  6
Continuous
 62
     7
370
    15
100
AcDbLine
 10
122.9503007431
 20
251.5809143239
 30
0.0
 11
123.1034738651
 21
251.5621070294
 31
0.0
  0
LINE
  5
29C
330
1F
100
AcDbEntity
  8
0
  6
Continuous
 62
     7
370
    15
100
AcDbLine
 10
96.2036340764
 20
253.7781289813
 30
0.0
 11
96.2036340764
 21
251.264795648
 31
0.0
  0
LINE
  5
29D
330
1F
100
AcDbEntity
  8
0
  6
Continuous
 62
     7
370
    15
100
AcDbLine
 10
123.1501405318
 20
253.2309909101
 30
0.0
 11
123.1501405318
 21
253.1781289813
 31
0.0
  0
LINE
  5
29E
330
1F
100
AcDbEntity
  8
0
  6
Continuous
 62
     7
370
    15
100
AcDbLine
 10
123.2836340764
 20
253.2309909101
 30
0.0
 11
123.1501405318
 21
253.2309909101
 31
0.0
  0
LINE
  5
29F
330
1F
100
AcDbEntity
  8
0
  6
Continuous
 62
     7
370
    15
100
AcDbLine
 10
123.1501405318
 20
253.3314623146
 30
0.0
 11
123.1501405318
 21
253.2314623146
 31
0.0
  0
LINE
  5
2A0
330
1F
100
AcDbEntity
  8
0
  6
Continuous
 62
     7
370
    15
100
AcDbLine
 10
123.2836340764
 20
253.2314623146
 30
0.0
 11
123.1501405318
 21
253.2314623146
 31
0.0
  0
LINE
  5
2A1
330
1F
100
AcDbEntity
  8
0
  6
Continuous
 62
     7
370
    15
100
AcDbLine
 10
123.2836340764
 20
253.3314623146
 30
0.0
 11
123.1501405318
 21
253.3314623146
 31
0.0
  0
LINE
  5
2A2
330
1F
100
AcDbEntity
  8
0
  6
Continuous
 62
     7
370
    15
100
AcDbLine
 10
123.1034738651
 20
251.264795648
 30
0.0
 11
123.1034738651
 21
253.1781289813
 31
0.0
  0
LINE
  5
2A3
330
1F
100
AcDbEntity
  8
0
  6
Continuous
 62
     7
370
    15
100
AcDbLine
 10
123.1034738651
 20
253.1781289813
 30
0.0
 11
123.2836340764
 21
253.1781289813
 31
0.0
  0
LINE
  5
2A4
330
1F
100
AcDbEntity
  8
0
  6
Continuous
 62
     7
370
    15
100
AcDbLine
 10
91.3369674097
 20
255.244795648
 30
0.0
 11
91.3369674097
 21
255.1614623146
 31
0.0
  0
ARC
  5
2A5
330
1F
100
AcDbEntity
  8
0
  6
Continuous
 62
     7
370
    15
100
AcDbCircle
 10
124.7136340764
 20
255.1614623146
 30
0.0
 40
0.0833333333333428
100
AcDbArc
 50
0.0
 51
77.1725940541
  0
LINE
  5
2A6
330
1F
100
AcDbEntity
  8
0
  6
Continuous
 62
     7
370
    15
100
AcDbLine
 10
124.7236340764
 20
223.6181289813
 30
0.0
 11
124.7236340764
 21
223.6186003858
 31
0.0
  0
LINE
  5
2A7
330
1F
100
AcDbEntity
  8
0
  6
Continuous
 62
     7
370
    15
100
AcDbLine
 10
93.4369674097
 20
223.7014623146
 30
0.0
 11
93.4703007431
 21
223.7014623146
 31
0.0
  0
LINE
  5
2A8
330
1F
100
AcDbEntity
  8
0
  6
Continuous
 62
     7
370
    15
100
AcDbLine
 10
93.4369674097
 20
223.6181289813
 30
0.0
 11
93.4369674097
 21
223.7014623146
 31
0.0
  0
LINE
  5
2A9
330
1F
100
AcDbEntity
  8
0
  6
Continuous
 62
     7
370
    15
100
AcDbLine
 10
91.4203007431
 20
223.6181289813
 30
0.0
 11
93.4369674097
 21
223.6181289813
 31
0.0
  0
LINE
  5
2AA
330
1F
100
AcDbEntity
  8
0
  6
Continuous
 62
     7
370
    15
100
AcDbLine
 10
91.4203007431
 20
255.1614623146
 30
0.0
 11
91.4203007431
 21
223.6181289813
 31
0.0
  0
LINE
  5
2AB
330
1F
100
AcDbEntity
  8
0
  6
Continuous
 62
     7
370
    15
100
AcDbLine
 10
91.4236340764
 20
255.1614623146
 30
0.0
 11
91.4203007431
 21
255.1614623146
 31
0.0
  0
LINE
  5
2AC
330
1F
100
AcDbEntity
  8
0
  6
Continuous
 62
     7
370
    15
100
AcDbLine
 10
124.7203007431
 20
255.1614623146
 30
0.0
 11
91.4236340764
 21
255.1614623146
 31
0.0
  0
LINE
  5
2AD
330
1F
100
AcDbEntity
  8
0
  6
Continuous
 62
     7
370
    15
100
AcDbLine
 10
124.7203007431
 20
223.7014623146
 30
0.0
 11
124.7203007431
 21
255.1614623146
 31
0.0
  0
LINE
  5
2AE
330
1F
100
AcDbEntity
  8
0
  6
Continuous
 62
     7
370
    15
100
AcDbLine
 10
93.4703007431
 20
223.7014623146
 30
0.0
 11
124.7203007431
 21
223.7014623146
 31
0.0
  0
LINE
  5
2AF
330
1F
100
AcDbEntity
  8
0
  6
Continuous
 62
     7
370
    15
100
AcDbLine
 10
123.2836340764
 20
254.9981289813
 30
0.0
 11
122.9503007431
 21
254.9981289813
 31
0.0
  0
LINE
  5
2B0
330
1F
100
AcDbEntity
  8
0
  6
Continuous
 62
     7
370
    15
100
AcDbLine
 10
122.9503007431
 20
254.9981289813
 30
0.0
 11
122.9503007431
 21
251.264795648
 31
0.0
  0
LINE
  5
2B1
330
1F
100
AcDbEntity
  8
0
  6
Continuous
 62
     7
370
    15
100
AcDbLine
 10
122.9503007431
 20
251.264795648
 30
0.0
 11
123.2836340764
 21
251.264795648
 31
0.0
  0
LINE
  5
2B2
330
1F
100
AcDbEntity
  8
0
  6
Continuous
 62
     7
370
    15
100
AcDbLine
 10
123.2836340764
 20
251.264795648
 30
0.0
 11
123.2836340764
 21
254.9981289813
 31
0.0
  0
LINE
  5
2B3
330
1F
100
AcDbEntity
  8
0
  6
Continuous
 62
     7
370
    15
100
AcDbLine
 10
121.2836340764
 20
254.9981289813
 30
0.0
 11
120.9503007431
 21
254.9981289813
 31
0.0
  0
LINE
  5
2B4
330
1F
100
AcDbEntity
  8
0
  6
Continuous
 62
     7
370
    15
100
AcDbLine
 10
120.9503007431
 20
254.9981289813
 30
0.0
 11
120.9503007431
 21
251.264795648
 31
0.0
  0
LINE
  5
2B5
330
1F
100
AcDbEntity
  8
0
  6
Continuous
 62
     7
370
    15
100
AcDbLine
 10
120.9503007431
 20
251.264795648
 30
0.0
 11
121.2836340764
 21
251.264795648
 31
0.0
  0
LINE
  5
2B6
330
1F
100
AcDbEntity
  8
0
  6
Continuous
 62
     7
370
    15
100
AcDbLine
 10
121.2836340764
 20
251.264795648
 30
0.0
 11
121.2836340764
 21
254.9981289813
 31
0.0
  0
LINE
  5
2B7
330
1F
100
AcDbEntity
  8
0
  6
Continuous
 62
     7
370
    15
100
AcDbLine
 10
119.2836340764
 20
254.9981289813
 30
0.0
 11
118.9503007431
 21
254.9981289813
 31
0.0
  0
LINE
  5
2B8
330
1F
100
AcDbEntity
  8
0
  6
Continuous
 62
     7
370
    15
100
AcDbLine
 10
118.9503007431
 20
254.9981289813
 30
0.0
 11
118.9503007431
 21
251.264795648
 31
0.0
  0
LINE
  5
2B9
330
1F
100
AcDbEntity
  8
0
  6
Continuous
 62
     7
370
    15
100
AcDbLine
 10
118.9503007431
 20
251.264795648
 30
0.0
 11
119.2836340764
 21
251.264795648
 31
0.0
  0
LINE
  5
2BA
330
1F
100
AcDbEntity
  8
0
  6
Continuous
 62
     7
370
    15
100
AcDbLine
 10
119.2836340764
 20
251.264795648
 30
0.0
 11
119.2836340764
 21
254.9981289813
 31
0.0
  0
LINE
  5
2BB
330
1F
100
AcDbEntity
  8
0
  6
Continuous
 62
     7
370
    15
100
AcDbLine
 10
117.2836340764
 20
254.9981289813
 30
0.0
 11
116.9503007431
 21
254.9981289813
 31
0.0
  0
LINE
  5
2BC
330
1F
100
AcDbEntity
  8
0
  6
Continuous
 62
     7
370
    15
100
AcDbLine
 10
116.9503007431
 20
254.9981289813
 30
0.0
 11
116.9503007431
 21
251.264795648
 31
0.0
  0
LINE
  5
2BD
330
1F
100
AcDbEntity
  8
0
  6
Continuous
 62
     7
370
    15
100
AcDbLine
 10
116.9503007431
 20
251.264795648
 30
0.0
 11
117.2836340764
 21
251.264795648
 31
0.0
  0
LINE
  5
2BE
330
1F
100
AcDbEntity
  8
0
  6
Continuous
 62
     7
370
    15
100
AcDbLine
 10
117.2836340764
 20
251.264795648
 30
0.0
 11
117.2836340764
 21
254.9981289813
 31
0.0
  0
LINE
  5
2BF
330
1F
100
AcDbEntity
  8
0
  6
Continuous
 62
     7
370
    15
100
AcDbLine
 10
115.2836340764
 20
254.9981289813
 30
0.0
 11
114.9503007431
 21
254.9981289813
 31
0.0
  0
LINE
  5
2C0
330
1F
100
AcDbEntity
  8
0
  6
Continuous
 62
     7
370
    15
100
AcDbLine
 10
114.9503007431
 20
254.9981289813
 30
0.0
 11
114.9503007431
 21
251.264795648
 31
0.0
  0
LINE
  5
2C1
330
1F
100
AcDbEntity
  8
0
  6
Continuous
 62
     7
370
    15
100
AcDbLine
 10
114.9503007431
 20
251.264795648
 30
0.0
 11
115.2836340764
 21
251.264795648
 31
0.0
  0
LINE
  5
2C2
330
1F
100
AcDbEntity
  8
0
  6
Continuous
 62
     7
370
    15
100
AcDbLine
 10
115.2836340764
 20
251.264795648
 30
0.0
 11
115.2836340764
 21
254.9981289813
 31
0.0
  0
LINE
  5
2C3
330
1F
100
AcDbEntity
  8
0
  6
Continuous
 62
     7
370
    15
100
AcDbLine
 10
113.2836340764
 20
254.9981289813
 30
0.0
 11
112.9503007431
 21
254.9981289813
 31
0.0
  0
LINE
  5
2C4
330
1F
100
AcDbEntity
  8
0
  6
Continuous
 62
     7
370
    15
100
AcDbLine
 10
112.9503007431
 20
254.9981289813
 30
0.0
 11
112.9503007431
 21
251.264795648
 31
0.0
  0
LINE
  5
2C5
330
1F
100
AcDbEntity
  8
0
  6
Continuous
 62
     7
370
    15
100
AcDbLine
 10
112.9503007431
 20
251.264795648
 30
0.0
 11
113.2836340764
 21
251.264795648
 31
0.0
  0
LINE
  5
2C6
330
1F
100
AcDbEntity
  8
0
  6
Continuous
 62
     7
370
    15
100
AcDbLine
 10
113.2836340764
 20
251.264795648
 30
0.0
 11
113.2836340764
 21
254.9981289813
 31
0.0
  0
LINE
  5
2C7
330
1F
100
AcDbEntity
  8
0
  6
Continuous
 62
     7
370
    15
100
AcDbLine
 10
111.2836340764
 20
254.9981289813
 30
0.0
 11
110.9503007431
 21
254.9981289813
 31
0.0
  0
LINE
  5
2C8
330
1F
100
AcDbEntity
  8
0
  6
Continuous
 62
     7
370
    15
100
AcDbLine
 10
110.9503007431
 20
254.9981289813
 30
0.0
 11
110.9503007431
 21
251.264795648
 31
0.0
  0
LINE
  5
2C9
330
1F
100
AcDbEntity
  8
0
  6
Continuous
 62
     7
370
    15
100
AcDbLine
 10
110.9503007431
 20
251.264795648
 30
0.0
 11
111.2836340764
 21
251.264795648
 31
0.0
  0
LINE
  5
2CA
330
1F
100
AcDbEntity
  8
0
  6
Continuous
 62
     7
370
    15
100
AcDbLine
 10
111.2836340764
 20
251.264795648
 30
0.0
 11
111.2836340764
 21
254.9981289813
 31
0.0
  0
LINE
  5
2CB
330
1F
100
AcDbEntity
  8
0
  6
Continuous
 62
     7
370
    15
100
AcDbLine
 10
109.2836340764
 20
254.9981289813
 30
0.0
 11
108.9503007431
 21
254.9981289813
 31
0.0
  0
LINE
  5
2CC
330
1F
100
AcDbEntity
  8
0
  6
Continuous
 62
     7
370
    15
100
AcDbLine
 10
108.9503007431
 20
254.9981289813
 30
0.0
 11
108.9503007431
 21
251.264795648
 31
0.0
  0
LINE
  5
2CD
330
1F
100
AcDbEntity
  8
0
  6
Continuous
 62
     7
370
    15
100
AcDbLine
 10
108.9503007431
 20
251.264795648
 30
0.0
 11
109.2836340764
 21
251.264795648
 31
0.0
  0
LINE
  5
2CE
330
1F
100
AcDbEntity
  8
0
  6
Continuous
 62
     7
370
    15
100
AcDbLine
 10
109.2836340764
 20
251.264795648
 30
0.0
 11
109.2836340764
 21
254.9981289813
 31
0.0
  0
ARC
  5
2CF
330
1F
100
AcDbEntity
  8
0
  6
Continuous
 62
     7
370
    15
100
AcDbCircle
 10
107.1169674097
 20
254.5981289813
 30
0.0
 40
0.3765388528472751
100
AcDbArc
 50
296.2716831084
 51
243.7283168915
  0
LINE
  5
2D0
330
1F
100
AcDbEntity
  8
0
  6
Continuous
 62
     7
370
    15
100
AcDbLine
 10
106.9503007431
 20
254.2604845975
 30
0.0
 11
106.9503007431
 21
251.264795648
 31
0.0
  0
LINE
  5
2D1
330
1F
100
AcDbEntity
  8
0
  6
Continuous
 62
     7
370
    15
100
AcDbLine
 10
106.9503007431
 20
251.264795648
 30
0.0
 11
107.2836340764
 21
251.264795648
 31
0.0
  0
LINE
  5
2D2
330
1F
100
AcDbEntity
  8
0
  6
Continuous
 62
     7
370
    15
100
AcDbLine
 10
107.2836340764
 20
251.264795648
 30
0.0
 11
107.2836340764
 21
254.2604845975
 31
0.0
  0
LINE
  5
2D3
330
1F
100
AcDbEntity
  8
0
  6
Continuous
 62
     7
370
    15
100
AcDbLine
 10
105.2836340764
 20
254.9981289813
 30
0.0
 11
104.9503007431
 21
254.9981289813
 31
0.0
  0
LINE
  5
2D4
330
1F
100
AcDbEntity
  8
0
  6
Continuous
 62
     7
370
    15
100
AcDbLine
 10
104.9503007431
 20
254.9981289813
 30
0.0
 11
104.9503007431
 21
251.264795648
 31
0.0
  0
LINE
  5
2D5
330
1F
100
AcDbEntity
  8
0
  6
Continuous
 62
     7
370
    15
100
AcDbLine
 10
104.9503007431
 20
251.264795648
 30
0.0
 11
105.2836340764
 21
251.264795648
 31
0.0
  0
LINE
  5
2D6
330
1F
100
AcDbEntity
  8
0
  6
Continuous
 62
     7
370
    15
100
AcDbLine
 10
105.2836340764
 20
251.264795648
 30
0.0
 11
105.2836340764
 21
254.9981289813
 31
0.0
  0
LINE
  5
2D7
330
1F
100
AcDbEntity
  8
0
  6
Continuous
 62
     7
370
    15
100
AcDbLine
 10
103.2836340764
 20
254.9981289813
 30
0.0
 11
102.9503007431
 21
254.9981289813
 31
0.0
  0
LINE
  5
2D8
330
1F
100
AcDbEntity
  8
0
  6
Continuous
 62
     7
370
    15
100
AcDbLine
 10
102.9503007431
 20
254.9981289813
 30
0.0
 11
102.9503007431
 21
251.264795648
 31
0.0
  0
LINE
  5
2D9
330
1F
100
AcDbEntity
  8
0
  6
Continuous
 62
     7
370
    15
100
AcDbLine
 10
102.9503007431
 20
251.264795648
 30
0.0
 11
103.2836340764
 21
251.264795648
 31
0.0
  0
LINE
  5
2DA
330
1F
100
AcDbEntity
  8
0
  6
Continuous
 62
     7
370
    15
100
AcDbLine
 10
103.2836340764
 20
251.264795648
 30
0.0
 11
103.2836340764
 21
254.9981289813
 31
0.0
  0
LINE
  5
2DB
330
1F
100
AcDbEntity
  8
0
  6
Continuous
 62
     7
370
    15
100
AcDbLine
 10
101.2836340764
 20
254.9981289813
 30
0.0
 11
100.9503007431
 21
254.9981289813
 31
0.0
  0
LINE
  5
2DC
330
1F
100
AcDbEntity
  8
0
  6
Continuous
 62
     7
370
    15
100
AcDbLine
 10
100.9503007431
 20
254.9981289813
 30
0.0
 11
100.9503007431
 21
251.264795648
 31
0.0
  0
LINE
  5
2DD
330
1F
100
AcDbEntity
  8
0
  6
Continuous
 62
     7
370
    15
100
AcDbLine
 10
100.9503007431
 20
251.264795648
 30
0.0
 11
101.2836340764
 21
251.264795648
 31
0.0
  0
LINE
  5
2DE
330
1F
100
AcDbEntity
  8
0
  6
Continuous
 62
     7
370
    15
100
AcDbLine
 10
101.2836340764
 20
251.264795648
 30
0.0
 11
101.2836340764
 21
254.9981289813
 31
0.0
  0
LINE
  5
2DF
330
1F
100
AcDbEntity
  8
0
  6
Continuous
 62
     7
370
    15
100
AcDbLine
 10
99.2836340764
 20
254.9981289813
 30
0.0
 11
98.9503007431
 21
254.9981289813
 31
0.0
  0
LINE
  5
2E0
330
1F
100
AcDbEntity
  8
0
  6
Continuous
 62
     7
370
    15
100
AcDbLine
 10
98.9503007431
 20
254.9981289813
 30
0.0
 11
98.9503007431
 21
251.264795648
 31
0.0
  0
LINE
  5
2E1
330
1F
100
AcDbEntity
  8
0
  6
Continuous
 62
     7
370
    15
100
AcDbLine
 10
98.9503007431
 20
251.264795648
 30
0.0
 11
99.2836340764
 21
251.264795648
 31
0.0
  0
LINE
  5
2E2
330
1F
100
AcDbEntity
  8
0
  6
Continuous
 62
     7
370
    15
100
AcDbLine
 10
99.2836340764
 20
251.264795648
 30
0.0
 11
99.2836340764
 21
254.9981289813
 31
0.0
  0
LINE
  5
2E3
330
1F
100
AcDbEntity
  8
0
  6
Continuous
 62
     7
370
    15
100
AcDbLine
 10
97.2836340764
 20
254.9981289813
 30
0.0
 11
96.9503007431
 21
254.9981289813
 31
0.0
  0
LINE
  5
2E4
330
1F
100
AcDbEntity
  8
0
  6
Continuous
 62
     7
370
    15
100
AcDbLine
 10
96.9503007431
 20
254.9981289813
 30
0.0
 11
96.9503007431
 21
251.264795648
 31
0.0
  0
LINE
  5
2E5
330
1F
100
AcDbEntity
  8
0
  6
Continuous
 62
     7
370
    15
100
AcDbLine
 10
96.9503007431
 20
251.264795648
 30
0.0
 11
97.2836340764
 21
251.264795648
 31
0.0
  0
LINE
  5
2E6
330
1F
100
AcDbEntity
  8
0
  6
Continuous
 62
     7
370
    15
100
AcDbLine
 10
97.2836340764
 20
251.264795648
 30
0.0
 11
97.2836340764
 21
254.9981289813
 31
0.0
  0
LINE
  5
2E7
330
1F
100
AcDbEntity
  8
0
  6
Continuous
 62
     7
370
    15
100
AcDbLine
 10
95.2836340764
 20
254.9981289813
 30
0.0
 11
94.9503007431
 21
254.9981289813
 31
0.0
  0
LINE
  5
2E8
330
1F
100
AcDbEntity
  8
0
  6
Continuous
 62
     7
370
    15
100
AcDbLine
 10
94.9503007431
 20
254.9981289813
 30
0.0
 11
94.9503007431
 21
251.264795648
 31
0.0
  0
LINE
  5
2E9
330
1F
100
AcDbEntity
  8
0
  6
Continuous
 62
     7
370
    15
100
AcDbLine
 10
94.9503007431
 20
251.264795648
 30
0.0
 11
95.2836340764
 21
251.264795648
 31
0.0
  0
LINE
  5
2EA
330
1F
100
AcDbEntity
  8
0
  6
Continuous
 62
     7
370
    15
100
AcDbLine
 10
95.2836340764
 20
251.264795648
 30
0.0
 11
95.2836340764
 21
254.9981289813
 31
0.0
  0
LINE
  5
2EB
330
1F
100
AcDbEntity
  8
0
  6
Continuous
 62
     7
370
    15
100
AcDbLine
 10
92.9503007431
 20
254.9981289813
 30
0.0
 11
92.9503007431
 21
251.264795648
 31
0.0
  0
LINE
  5
2EC
330
1F
100
AcDbEntity
  8
0
  6
Continuous
 62
     7
370
    15
100
AcDbLine
 10
92.9503007431
 20
251.264795648
 30
0.0
 11
93.2836340764
 21
251.264795648
 31
0.0
  0
LINE
  5
2ED
330
1F
100
AcDbEntity
  8
0
  6
Continuous
 62
     7
370
    15
100
AcDbLine
 10
93.2836340764
 20
251.264795648
 30
0.0
 11
93.2836340764
 21
254.9981289813
 31
0.0
  0
LINE
  5
2EE
330
1F
100
AcDbEntity
  8
0
  6
Continuous
 62
     7
370
    15
100
AcDbLine
 10
93.2836340764
 20
254.9981289813
 30
0.0
 11
92.9503007431
 21
254.9981289813
 31
0.0
  0
ARC
  5
2EF
330
1F
100
AcDbEntity
  8
0
  6
Continuous
 62
     7
370
    15
100
AcDbCircle
 10
94.1169674097
 20
254.5981289813
 30
0.0
 40
0.3765388528472625
100
AcDbArc
 50
296.2716831084
 51
243.7283168916
  0
LINE
  5
2F0
330
1F
100
AcDbEntity
  8
0
  6
Continuous
 62
     7
370
    15
100
AcDbLine
 10
93.9503007431
 20
254.2604845975
 30
0.0
 11
93.9503007431
 21
251.264795648
 31
0.0
  0
LINE
  5
2F1
330
1F
100
AcDbEntity
  8
0
  6
Continuous
 62
     7
370
    15
100
AcDbLine
 10
93.9503007431
 20
251.264795648
 30
0.0
 11
94.2836340764
 21
251.264795648
 31
0.0
  0
LINE
  5
2F2
330
1F
100
AcDbEntity
  8
0
  6
Continuous
 62
     7
370
    15
100
AcDbLine
 10
94.2836340764
 20
251.264795648
 30
0.0
 11
94.2836340764
 21
254.2604845975
 31
0.0
  0
LINE
  5
2F3
330
1F
100
AcDbEntity
  8
0
  6
Continuous
 62
     7
370
    15
100
AcDbLine
 10
96.2836340764
 20
254.9981289813
 30
0.0
 11
95.9503007431
 21
254.9981289813
 31
0.0
  0
LINE
  5
2F4
330
1F
100
AcDbEntity
  8
0
  6
Continuous
 62
     7
370
    15
100
AcDbLine
 10
95.9503007431
 20
254.9981289813
 30
0.0
 11
95.9503007431
 21
251.264795648
 31
0.0
  0
LINE
  5
2F5
330
1F
100
AcDbEntity
  8
0
  6
Continuous
 62
     7
370
    15
100
AcDbLine
 10
95.9503007431
 20
251.264795648
 30
0.0
 11
96.2836340764
 21
251.264795648
 31
0.0
  0
LINE
  5
2F6
330
1F
100
AcDbEntity
  8
0
  6
Continuous
 62
     7
370
    15
100
AcDbLine
 10
96.2836340764
 20
251.264795648
 30
0.0
 11
96.2836340764
 21
254.9981289813
 31
0.0
  0
LINE
  5
2F7
330
1F
100
AcDbEntity
  8
0
  6
Continuous
 62
     7
370
    15
100
AcDbLine
 10
98.2836340764
 20
254.9981289813
 30
0.0
 11
97.9503007431
 21
254.9981289813
 31
0.0
  0
LINE
  5
2F8
330
1F
100
AcDbEntity
  8
0
  6
Continuous
 62
     7
370
    15
100
AcDbLine
 10
97.9503007431
 20
254.9981289813
 30
0.0
 11
97.9503007431
 21
251.264795648
 31
0.0
  0
LINE
  5
2F9
330
1F
100
AcDbEntity
  8
0
  6
Continuous
 62
     7
370
    15
100
AcDbLine
 10
97.9503007431
 20
251.264795648
 30
0.0
 11
98.2836340764
 21
251.264795648
 31
0.0
  0
LINE
  5
2FA
330
1F
100
AcDbEntity
  8
0
  6
Continuous
 62
     7
370
    15
100
AcDbLine
 10
98.2836340764
 20
251.264795648
 30
0.0
 11
98.2836340764
 21
254.9981289813
 31
0.0
  0
LINE
  5
2FB
330
1F
100
AcDbEntity
  8
0
  6
Continuous
 62
     7
370
    15
100
AcDbLine
 10
100.2836340764
 20
254.9981289813
 30
0.0
 11
99.9503007431
 21
254.9981289813
 31
0.0
  0
LINE
  5
2FC
330
1F
100
AcDbEntity
  8
0
  6
Continuous
 62
     7
370
    15
100
AcDbLine
 10
99.9503007431
 20
254.9981289813
 30
0.0
 11
99.9503007431
 21
251.264795648
 31
0.0
  0
LINE
  5
2FD
330
1F
100
AcDbEntity
  8
0
  6
Continuous
 62
     7
370
    15
100
AcDbLine
 10
99.9503007431
 20
251.264795648
 30
0.0
 11
100.2836340764
 21
251.264795648
 31
0.0
  0
LINE
  5
2FE
330
1F
100
AcDbEntity
  8
0
  6
Continuous
 62
     7
370
    15
100
AcDbLine
 10
100.2836340764
 20
251.264795648
 30
0.0
 11
100.2836340764
 21
254.9981289813
 31
0.0
  0
LINE
  5
2FF
330
1F
100
AcDbEntity
  8
0
  6
Continuous
 62
     7
370
    15
100
AcDbLine
 10
102.2836340764
 20
254.9981289813
 30
0.0
 11
101.9503007431
 21
254.9981289813
 31
0.0
  0
LINE
  5
300
330
1F
100
AcDbEntity
  8
0
  6
Continuous
 62
     7
370
    15
100
AcDbLine
 10
101.9503007431
 20
254.9981289813
 30
0.0
 11
101.9503007431
 21
251.264795648
 31
0.0
  0
LINE
  5
301
330
1F
100
AcDbEntity
  8
0
  6
Continuous
 62
     7
370
    15
100
AcDbLine
 10
101.9503007431
 20
251.264795648
 30
0.0
 11
102.2836340764
 21
251.264795648
 31
0.0
  0
LINE
  5
302
330
1F
100
AcDbEntity
  8
0
  6
Continuous
 62
     7
370
    15
100
AcDbLine
 10
102.2836340764
 20
251.264795648
 30
0.0
 11
102.2836340764
 21
254.9981289813
 31
0.0
  0
LINE
  5
303
330
1F
100
AcDbEntity
  8
0
  6
Continuous
 62
     7
370
    15
100
AcDbLine
 10
104.2836340764
 20
254.9981289813
 30
0.0
 11
103.9503007431
 21
254.9981289813
 31
0.0
  0
LINE
  5
304
330
1F
100
AcDbEntity
  8
0
  6
Continuous
 62
     7
370
    15
100
AcDbLine
 10
103.9503007431
 20
254.9981289813
 30
0.0
 11
103.9503007431
 21
251.264795648
 31
0.0
  0
LINE
  5
305
330
1F
100
AcDbEntity
  8
0
  6
Continuous
 62
     7
370
    15
100
AcDbLine
 10
103.9503007431
 20
251.264795648
 30
0.0
 11
104.2836340764
 21
251.264795648
 31
0.0
  0
LINE
  5
306
330
1F
100
AcDbEntity
  8
0
  6
Continuous
 62
     7
370
    15
100
AcDbLine
 10
104.2836340764
 20
251.264795648
 30
0.0
 11
104.2836340764
 21
254.9981289813
 31
0.0
  0
LINE
  5
307
330
1F
100
AcDbEntity
  8
0
  6
Continuous
 62
     7
370
    15
100
AcDbLine
 10
106.2836340764
 20
254.9981289813
 30
0.0
 11
105.9503007431
 21
254.9981289813
 31
0.0
  0
LINE
  5
308
330
1F
100
AcDbEntity
  8
0
  6
Continuous
 62
     7
370
    15
100
AcDbLine
 10
105.9503007431
 20
254.9981289813
 30
0.0
 11
105.9503007431
 21
251.264795648
 31
0.0
  0
LINE
  5
309
330
1F
100
AcDbEntity
  8
0
  6
Continuous
 62
     7
370
    15
100
AcDbLine
 10
105.9503007431
 20
251.264795648
 30
0.0
 11
106.2836340764
 21
251.264795648
 31
0.0
  0
LINE
  5
30A
330
1F
100
AcDbEntity
  8
0
  6
Continuous
 62
     7
370
    15
100
AcDbLine
 10
106.2836340764
 20
251.264795648
 30
0.0
 11
106.2836340764
 21
254.9981289813
 31
0.0
  0
LINE
  5
30B
330
1F
100
AcDbEntity
  8
0
  6
Continuous
 62
     7
370
    15
100
AcDbLine
 10
108.2836340764
 20
254.9981289813
 30
0.0
 11
107.9503007431
 21
254.9981289813
 31
0.0
  0
LINE
  5
30C
330
1F
100
AcDbEntity
  8
0
  6
Continuous
 62
     7
370
    15
100
AcDbLine
 10
107.9503007431
 20
254.9981289813
 30
0.0
 11
107.9503007431
 21
251.264795648
 31
0.0
  0
LINE
  5
30D
330
1F
100
AcDbEntity
  8
0
  6
Continuous
 62
     7
370
    15
100
AcDbLine
 10
107.9503007431
 20
251.264795648
 30
0.0
 11
108.2836340764
 21
251.264795648
 31
0.0
  0
LINE
  5
30E
330
1F
100
AcDbEntity
  8
0
  6
Continuous
 62
     7
370
    15
100
AcDbLine
 10
108.2836340764
 20
251.264795648
 30
0.0
 11
108.2836340764
 21
254.9981289813
 31
0.0
  0
LINE
  5
30F
330
1F
100
AcDbEntity
  8
0
  6
Continuous
 62
     7
370
    15
100
AcDbLine
 10
110.2836340764
 20
254.9981289813
 30
0.0
 11
109.9503007431
 21
254.9981289813
 31
0.0
  0
LINE
  5
310
330
1F
100
AcDbEntity
  8
0
  6
Continuous
 62
     7
370
    15
100
AcDbLine
 10
109.9503007431
 20
254.9981289813
 30
0.0
 11
109.9503007431
 21
251.264795648
 31
0.0
  0
LINE
  5
311
330
1F
100
AcDbEntity
  8
0
  6
Continuous
 62
     7
370
    15
100
AcDbLine
 10
109.9503007431
 20
251.264795648
 30
0.0
 11
110.2836340764
 21
251.264795648
 31
0.0
  0
LINE
  5
312
330
1F
100
AcDbEntity
  8
0
  6
Continuous
 62
     7
370
    15
100
AcDbLine
 10
110.2836340764
 20
251.264795648
 30
0.0
 11
110.2836340764
 21
254.9981289813
 31
0.0
  0
LINE
  5
313
330
1F
100
AcDbEntity
  8
0
  6
Continuous
 62
     7
370
    15
100
AcDbLine
 10
112.2836340764
 20
254.9981289813
 30
0.0
 11
111.9503007431
 21
254.9981289813
 31
0.0
  0
LINE
  5
314
330
1F
100
AcDbEntity
  8
0
  6
Continuous
 62
     7
370
    15
100
AcDbLine
 10
111.9503007431
 20
254.9981289813
 30
0.0
 11
111.9503007431
 21
251.264795648
 31
0.0
  0
LINE
  5
315
330
1F
100
AcDbEntity
  8
0
  6
Continuous
 62
     7
370
    15
100
AcDbLine
 10
111.9503007431
 20
251.264795648
 30
0.0
 11
112.2836340764
 21
251.264795648
 31
0.0
  0
LINE
  5
316
330
1F
100
AcDbEntity
  8
0
  6
Continuous
 62
     7
370
    15
100
AcDbLine
 10
112.2836340764
 20
251.264795648
 30
0.0
 11
112.2836340764
 21
254.9981289813
 31
0.0
  0
LINE
  5
317
330
1F
100
AcDbEntity
  8
0
  6
Continuous
 62
     7
370
    15
100
AcDbLine
 10
114.2836340764
 20
254.9981289813
 30
0.0
 11
113.9503007431
 21
254.9981289813
 31
0.0
  0
LINE
  5
318
330
1F
100
AcDbEntity
  8
0
  6
Continuous
 62
     7
370
    15
100
AcDbLine
 10
113.9503007431
 20
254.9981289813
 30
0.0
 11
113.9503007431
 21
251.264795648
 31
0.0
  0
LINE
  5
319
330
1F
100
AcDbEntity
  8
0
  6
Continuous
 62
     7
370
    15
100
AcDbLine
 10
113.9503007431
 20
251.264795648
 30
0.0
 11
114.2836340764
 21
251.264795648
 31
0.0
  0
LINE
  5
31A
330
1F
100
AcDbEntity
  8
0
  6
Continuous
 62
     7
370
    15
100
AcDbLine
 10
114.2836340764
 20
251.264795648
 30
0.0
 11
114.2836340764
 21
254.9981289813
 31
0.0
  0
LINE
  5
31B
330
1F
100
AcDbEntity
  8
0
  6
Continuous
 62
     7
370
    15
100
AcDbLine
 10
116.2836340764
 20
254.9981289813
 30
0.0
 11
115.9503007431
 21
254.9981289813
 31
0.0
  0
LINE
  5
31C
330
1F
100
AcDbEntity
  8
0
  6
Continuous
 62
     7
370
    15
100
AcDbLine
 10
115.9503007431
 20
254.9981289813
 30
0.0
 11
115.9503007431
 21
251.264795648
 31
0.0
  0
LINE
  5
31D
330
1F
100
AcDbEntity
  8
0
  6
Continuous
 62
     7
370
    15
100
AcDbLine
 10
115.9503007431
 20
251.264795648
 30
0.0
 11
116.2836340764
 21
251.264795648
 31
0.0
  0
LINE
  5
31E
330
1F
100
AcDbEntity
  8
0
  6
Continuous
 62
     7
370
    15
100
AcDbLine
 10
116.2836340764
 20
251.264795648
 30
0.0
 11
116.2836340764
 21
254.9981289813
 31
0.0
  0
LINE
  5
31F
330
1F
100
AcDbEntity
  8
0
  6
Continuous
 62
     7
370
    15
100
AcDbLine
 10
118.2836340764
 20
254.9981289813
 30
0.0
 11
117.9503007431
 21
254.9981289813
 31
0.0
  0
LINE
  5
320
330
1F
100
AcDbEntity
  8
0
  6
Continuous
 62
     7
370
    15
100
AcDbLine
 10
117.9503007431
 20
254.9981289813
 30
0.0
 11
117.9503007431
 21
251.264795648
 31
0.0
  0
LINE
  5
321
330
1F
100
AcDbEntity
  8
0
  6
Continuous
 62
     7
370
    15
100
AcDbLine
 10
117.9503007431
 20
251.264795648
 30
0.0
 11
118.2836340764
 21
251.264795648
 31
0.0
  0
LINE
  5
322
330
1F
100
AcDbEntity
  8
0
  6
Continuous
 62
     7
370
    15
100
AcDbLine
 10
118.2836340764
 20
251.264795648
 30
0.0
 11
118.2836340764
 21
254.9981289813
 31
0.0
  0
ARC
  5
323
330
1F
100
AcDbEntity
  8
0
  6
Continuous
 62
     7
370
    15
100
AcDbCircle
 10
120.1169674097
 20
254.5981289813
 30
0.0
 40
0.3765388528472562
100
AcDbArc
 50
296.2716831084
 51
243.7283168915
  0
LINE
  5
324
330
1F
100
AcDbEntity
  8
0
  6
Continuous
 62
     7
370
    15
100
AcDbLine
 10
119.9503007431
 20
254.2604845975
 30
0.0
 11
119.9503007431
 21
251.264795648
 31
0.0
  0
LINE
  5
325
330
1F
100
AcDbEntity
  8
0
  6
Continuous
 62
     7
370
    15
100
AcDbLine
 10
119.9503007431
 20
251.264795648
 30
0.0
 11
120.2836340764
 21
251.264795648
 31
0.0
  0
LINE
  5
326
330
1F
100
AcDbEntity
  8
0
  6
Continuous
 62
     7
370
    15
100
AcDbLine
 10
120.2836340764
 20
251.264795648
 30
0.0
 11
120.2836340764
 21
254.2604845975
 31
0.0
  0
LINE
  5
327
330
1F
100
AcDbEntity
  8
0
  6
Continuous
 62
     7
370
    15
100
AcDbLine
 10
122.2836340764
 20
254.9981289813
 30
0.0
 11
121.9503007431
 21
254.9981289813
 31
0.0
  0
LINE
  5
328
330
1F
100
AcDbEntity
  8
0
  6
Continuous
 62
     7
370
    15
100
AcDbLine
 10
121.9503007431
 20
254.9981289813
 30
0.0
 11
121.9503007431
 21
251.264795648
 31
0.0
  0
LINE
  5
329
330
1F
100
AcDbEntity
  8
0
  6
Continuous
 62
     7
370
    15
100
AcDbLine
 10
121.9503007431
 20
251.264795648
 30
0.0
 11
122.2836340764
 21
251.264795648
 31
0.0
  0
LINE
  5
32A
330
1F
100
AcDbEntity
  8
0
  6
Continuous
 62
     7
370
    15
100
AcDbLine
 10
122.2836340764
 20
251.264795648
 30
0.0
 11
122.2836340764
 21
254.9981289813
 31
0.0
  0
LINE
  5
32B
330
1F
100
AcDbEntity
  8
0
  6
Continuous
 62
     7
370
    15
100
AcDbLine
 10
91.4236340764
 20
255.2981289813
 30
0.0
 11
91.4236340764
 21
255.1614623146
 31
0.0
  0
LINE
  5
32C
330
1F
100
AcDbEntity
  8
0
  6
Continuous
 62
     7
370
    15
100
AcDbLine
 10
124.7203007431
 20
255.2981289813
 30
0.0
 11
91.4236340764
 21
255.2981289813
 31
0.0
  0
LINE
  5
32D
330
1F
100
AcDbEntity
  8
0
  6
Continuous
 62
     7
370
    15
100
AcDbLine
 10
124.7203007431
 20
255.1614623146
 30
0.0
 11
124.7203007431
 21
255.2981289813
 31
0.0
  0
SPLINE
  5
32E
330
1F
100
AcDbEntity
  8
0
  6
Continuous
 62
     7
370
    15
100
AcDbSpline
210
0.0
220
0.0
230
1.0
 70
     8
 71
     3
 72
    11
 73
     7
 74
     0
 42
0.00000001
 43
0.00000001
 40
0.0
 40
0.0
 40
0.0
 40
0.0
 40
0.269482955395268
 40
0.5390821959191261
 40
0.8086820214002481
 40
1.0
 40
1.0
 40
1.0
 40
1.0
 10
124.7203007430734
 20
255.1614623146249
 30
0.0
 10
124.7369921807455
 20
255.1544966246266
 30
0.0
 10
124.7703822586452
 20
255.1405622388512
 30
0.0
 10
124.813266909503
 20
255.1196590443295
 30
0.0
 10
124.8429795458225
 20
255.1007763149283
 30
0.0
 10
124.8493858455548
 20
255.0888622840883
 30
0.0
 10
124.8520449754566
 20
255.0839170025715
 30
0.0
  0
LINE
  5
32F
330
1F
100
AcDbEntity
  8
0
  6
Continuous
 62
     7
370
    15
100
AcDbLine
 10
124.8569674097
 20
242.6291747492
 30
0.0
 11
124.8569674097
 21
223.7014623146
 31
0.0
  0
LINE
  5
330
330
1F
100
AcDbEntity
  8
0
  6
Continuous
 62
     7
370
    15
100
AcDbLine
 10
124.8569674097
 20
223.7014623146
 30
0.0
 11
124.7203007431
 21
223.7014623146
 31
0.0
  0
LINE
  5
331
330
1F
100
AcDbEntity
  8
0
  6
Continuous
 62
     7
370
    15
100
AcDbLine
 10
93.4703007431
 20
223.564795648
 30
0.0
 11
93.4703007431
 21
223.7014623146
 31
0.0
  0
LINE
  5
332
330
1F
100
AcDbEntity
  8
0
  6
Continuous
 62
     7
370
    15
100
AcDbLine
 10
124.7203007431
 20
223.564795648
 30
0.0
 11
124.7203007431
 21
223.7014623146
 31
0.0
  0
LINE
  5
333
330
1F
100
AcDbEntity
  8
0
  6
Continuous
 62
     7
370
    15
100
AcDbLine
 10
93.4703007431
 20
223.564795648
 30
0.0
 11
124.7203007431
 21
223.564795648
 31
0.0
  0
LINE
  5
334
330
1F
100
AcDbEntity
  8
0
  6
Continuous
 62
     7
370
    15
100
AcDbLine
 10
91.4203007431
 20
223.6181289813
 30
0.0
 11
91.2836340764
 21
223.6181289813
 31
0.0
  0
LINE
  5
335
330
1F
100
AcDbEntity
  8
0
  6
Continuous
 62
     7
370
    15
100
AcDbLine
 10
91.2836340764
 20
223.6181289813
 30
0.0
 11
91.2836340764
 21
255.2443242434
 31
0.0
  0
LINE
  5
336
330
1F
100
AcDbEntity
  8
0
  6
Continuous
 62
     7
370
    15
100
AcDbLine
 10
91.2836340764
 20
255.2443242434
 30
0.0
 11
91.2836340764
 21
255.244795648
 31
0.0
  0
SPLINE
  5
337
330
1F
100
AcDbEntity
  8
0
  6
Continuous
 62
     7
370
    15
100
AcDbSpline
210
0.0
220
0.0
230
1.0
 70
     8
 71
     3
 72
    12
 73
     8
 74
     0
 42
0.00000001
 43
0.00000001
 40
0.0
 40
0.0
 40
0.0
 40
0.0
 40
0.2303402726698845
 40
0.4607650531840979
 40
0.6911902299723156
 40
0.9216152586331456
 40
1.0
 40
1.0
 40
1.0
 40
1.0
 10
91.28363407640678
 20
255.2447956479582
 30
0.0
 10
91.28537516484603
 20
255.238395431186
 30
0.0
 10
91.28885798049963
 20
255.2255926495133
 30
0.0
 10
91.31587749306699
 20
255.2063836654647
 30
0.0
 10
91.35513003319431
 20
255.1871865762046
 30
0.0
 10
91.39272020348524
 20
255.1721700022305
 30
0.0
 10
91.41471726138981
 20
255.1636300088945
 30
0.0
 10
91.42030074307344
 20
255.1614623146248
 30
0.0
  0
LINE
  5
338
330
1F
100
AcDbEntity
  8
0
  6
Continuous
 62
     7
370
    15
100
AcDbLine
 10
91.3369674097
 20
255.244795648
 30
0.0
 11
91.2836340764
 21
255.244795648
 31
0.0
  0
SPLINE
  5
339
330
1F
100
AcDbEntity
  8
0
  6
Continuous
 62
     7
370
    15
100
AcDbSpline
210
0.0
220
0.0
230
1.0
 70
     8
 71
     3
 72
    11
 73
     7
 74
     0
 42
0.00000001
 43
0.00000001
 40
0.0
 40
0.0
 40
0.0
 40
0.0
 40
0.2547151868506353
 40
0.5096070911609952
 40
0.7645000784893943
 40
1.0
 40
1.0
 40
1.0
 40
1.0
 10
91.33696740974013
 20
255.2447956479582
 30
0.0
 10
91.33826896222051
 20
255.2377190134056
 30
0.0
 10
91.3408729701783
 20
255.2235608346407
 30
0.0
 10
91.3608670834772
 20
255.2023225152356
 30
0.0
 10
91.38861496377912
 20
255.1816115718217
 30
0.0
 10
91.41002099071217
 20
255.1679992967935
 30
0.0
 10
91.42030074307344
 20
255.1614623146248
 30
0.0
  0
ARC
  5
33A
330
1F
100
AcDbEntity
  8
0
  6
Continuous
 62
     7
370
    15
100
AcDbCircle
 10
124.7203007431
 20
255.1614623146
 30
0.0
 40
0.1366666666666845
100
AcDbArc
 50
0.0
 51
90.0
  0
ARC
  5
33B
330
1F
100
AcDbEntity
  8
0
  6
Continuous
 62
     7
370
    15
100
AcDbCircle
 10
124.7203007431
 20
255.1614623146
 30
0.0
 40
0.0833333333333428
100
AcDbArc
 50
0.0
 51
90.0
  0
LINE
  5
33C
330
1F
100
AcDbEntity
  8
0
  6
Continuous
 62
     7
370
    15
100
AcDbLine
 10
124.8036340764
 20
255.1614623146
 30
0.0
 11
124.8036340764
 21
255.1235849759
 31
0.0
  0
LINE
  5
33D
330
1F
100
AcDbEntity
  8
0
  6
Continuous
 62
     7
370
    15
100
AcDbLine
 10
124.8031626719
 20
223.6181289813
 30
0.0
 11
124.8031626719
 21
223.564795648
 31
0.0
  0
LINE
  5
33E
330
1F
100
AcDbEntity
  8
0
  6
Continuous
 62
     7
370
    15
100
AcDbLine
 10
124.7203007431
 20
223.564795648
 30
0.0
 11
124.8031626719
 21
223.564795648
 31
0.0
  0
LINE
  5
33F
330
1F
100
AcDbEntity
  8
0
  6
Continuous
 62
     7
370
    15
100
AcDbLine
 10
124.8031626719
 20
223.6181289813
 30
0.0
 11
124.7203007431
 21
223.6181289813
 31
0.0
  0
LINE
  5
340
330
1F
100
AcDbEntity
  8
0
  6
Continuous
 62
     7
370
    15
100
AcDbLine
 10
124.8035280335
 20
223.6181289813
 30
0.0
 11
124.8035280335
 21
223.564795648
 31
0.0
  0
LINE
  5
341
330
1F
100
AcDbEntity
  8
0
  6
Continuous
 62
     7
370
    15
100
AcDbLine
 10
124.8031626719
 20
223.564795648
 30
0.0
 11
124.8035280335
 21
223.564795648
 31
0.0
  0
LINE
  5
342
330
1F
100
AcDbEntity
  8
0
  6
Continuous
 62
     7
370
    15
100
AcDbLine
 10
124.8031626719
 20
223.6181289813
 30
0.0
 11
124.8035280335
 21
223.6181289813
 31
0.0
  0
LINE
  5
343
330
1F
100
AcDbEntity
  8
0
  6
Continuous
 62
     7
370
    15
100
AcDbLine
 10
124.8569674097
 20
223.6186003858
 30
0.0
 11
124.8036340764
 21
223.6186003858
 31
0.0
  0
LINE
  5
344
330
1F
100
AcDbEntity
  8
0
  6
Continuous
 62
     7
370
    15
100
AcDbLine
 10
124.8569674097
 20
223.7014623146
 30
0.0
 11
124.8569674097
 21
223.6186003858
 31
0.0
  0
LINE
  5
345
330
1F
100
AcDbEntity
  8
0
  6
Continuous
 62
     7
370
    15
100
AcDbLine
 10
124.8036340764
 20
223.7014623146
 30
0.0
 11
124.8036340764
 21
223.6186003858
 31
0.0
  0
LINE
  5
346
330
1F
100
AcDbEntity
  8
0
  6
Continuous
 62
     7
370
    15
100
AcDbLine
 10
91.3374388143
 20
255.2981289813
 30
0.0
 11
91.3374388143
 21
255.244795648
 31
0.0
  0
LINE
  5
347
330
1F
100
AcDbEntity
  8
0
  6
Continuous
 62
     7
370
    15
100
AcDbLine
 10
91.4236340764
 20
255.244795648
 30
0.0
 11
91.3374388143
 21
255.244795648
 31
0.0
  0
LINE
  5
348
330
1F
100
AcDbEntity
  8
0
  6
Continuous
 62
     7
370
    15
100
AcDbLine
 10
91.4236340764
 20
255.2981289813
 30
0.0
 11
91.3374388143
 21
255.2981289813
 31
0.0
  0
LINE
  5
349
330
1F
100
AcDbEntity
  8
0
  6
Continuous
 62
     7
370
    15
100
AcDbLine
 10
124.7203007431
 20
255.1614623146
 30
0.0
 11
124.8031626719
 21
255.1614623146
 31
0.0
  0
LINE
  5
34A
330
1F
100
AcDbEntity
  8
0
  6
Continuous
 62
     7
370
    15
100
AcDbLine
 10
124.8031626719
 20
255.1614623146
 30
0.0
 11
124.8031626719
 21
255.1238172677
 31
0.0
  0
LWPOLYLINE
  5
34B
330
1F
100
AcDbEntity
  8
0
  6
Continuous
 62
     7
370
    15
100
AcDbPolyline
 90
        3
 70
   128
 43
0.0
 10
93.9136340764
 20
254.8114623146
 10
93.8406697792
 20
254.7985967404
 10
93.778570258
 20
254.7632618856
  0
LWPOLYLINE
  5
34C
330
1F
100
AcDbEntity
  8
0
  6
Continuous
 62
     7
370
    15
100
AcDbPolyline
 90
        3
 70
   128
 43
0.0
 10
93.7785702581
 20
254.432996077
 10
93.8406697792
 20
254.3976612222
 10
93.9136340764
 20
254.384795648
  0
LINE
  5
34D
330
1F
100
AcDbEntity
  8
0
  6
Continuous
 62
     7
370
    15
100
AcDbLine
 10
93.9136340764
 20
254.384795648
 30
0.0
 11
94.3336340764
 21
254.384795648
 31
0.0
  0
LWPOLYLINE
  5
34E
330
1F
100
AcDbEntity
  8
0
  6
Continuous
 62
     7
370
    15
100
AcDbPolyline
 90
        3
 70
   128
 43
0.0
 10
94.3336340764
 20
254.384795648
 10
94.4065983736
 20
254.3976612222
 10
94.4474631965
 20
254.4177015928
  0
LWPOLYLINE
  5
34F
330
1F
100
AcDbEntity
  8
0
  6
Continuous
 62
     7
370
    15
100
AcDbPolyline
 90
        3
 70
   128
 43
0.0
 10
94.4474631965
 20
254.7785563698
 10
94.4065983736
 20
254.7985967404
 10
94.3336340764
 20
254.8114623146
  0
LINE
  5
350
330
1F
100
AcDbEntity
  8
0
  6
Continuous
 62
     7
370
    15
100
AcDbLine
 10
94.3336340764
 20
254.8114623146
 30
0.0
 11
93.9136340764
 21
254.8114623146
 31
0.0
  0
LWPOLYLINE
  5
351
330
1F
100
AcDbEntity
  8
0
  6
Continuous
 62
     7
370
    15
100
AcDbPolyline
 90
        3
 70
   128
 43
0.0
 10
106.9136340764
 20
254.8114623146
 10
106.8406697792
 20
254.7985967404
 10
106.7785702597
 20
254.7632618869
  0
LWPOLYLINE
  5
352
330
1F
100
AcDbEntity
  8
0
  6
Continuous
 62
     7
370
    15
100
AcDbPolyline
 90
        3
 70
   128
 43
0.0
 10
106.7785702597
 20
254.4329960757
 10
106.8406697792
 20
254.3976612222
 10
106.9136340764
 20
254.384795648
  0
LINE
  5
353
330
1F
100
AcDbEntity
  8
0
  6
Continuous
 62
     7
370
    15
100
AcDbLine
 10
106.9136340764
 20
254.384795648
 30
0.0
 11
107.3336340764
 21
254.384795648
 31
0.0
  0
LWPOLYLINE
  5
354
330
1F
100
AcDbEntity
  8
0
  6
Continuous
 62
     7
370
    15
100
AcDbPolyline
 90
        3
 70
   128
 43
0.0
 10
107.3336340764
 20
254.384795648
 10
107.4065983736
 20
254.3976612222
 10
107.4474631967
 20
254.4177015929
  0
LWPOLYLINE
  5
355
330
1F
100
AcDbEntity
  8
0
  6
Continuous
 62
     7
370
    15
100
AcDbPolyline
 90
        3
 70
   128
 43
0.0
 10
107.4474631967
 20
254.7785563697
 10
107.4065983736
 20
254.7985967404
 10
107.3336340764
 20
254.8114623146
  0
LINE
  5
356
330
1F
100
AcDbEntity
  8
0
  6
Continuous
 62
     7
370
    15
100
AcDbLine
 10
107.3336340764
 20
254.8114623146
 30
0.0
 11
106.9136340764
 21
254.8114623146
 31
0.0
  0
LWPOLYLINE
  5
357
330
1F
100
AcDbEntity
  8
0
  6
Continuous
 62
     7
370
    15
100
AcDbPolyline
 90
        3
 70
   128
 43
0.0
 10
119.9136340764
 20
254.8114623146
 10
119.8406697792
 20
254.7985967404
 10
119.7785702575
 20
254.7632618852
  0
LWPOLYLINE
  5
358
330
1F
100
AcDbEntity
  8
0
  6
Continuous
 62
     7
370
    15
100
AcDbPolyline
 90
        3
 70
   128
 43
0.0
 10
119.7785702576
 20
254.4329960774
 10
119.8406697792
 20
254.3976612222
 10
119.9136340764
 20
254.384795648
  0
LINE
  5
359
330
1F
100
AcDbEntity
  8
0
  6
Continuous
 62
     7
370
    15
100
AcDbLine
 10
119.9136340764
 20
254.384795648
 30
0.0
 11
120.3336340764
 21
254.384795648
 31
0.0
  0
LWPOLYLINE
  5
35A
330
1F
100
AcDbEntity
  8
0
  6
Continuous
 62
     7
370
    15
100
AcDbPolyline
 90
        3
 70
   128
 43
0.0
 10
120.3336340764
 20
254.384795648
 10
120.4065983736
 20
254.3976612222
 10
120.4474631991
 20
254.4177015944
  0
LWPOLYLINE
  5
35B
330
1F
100
AcDbEntity
  8
0
  6
Continuous
 62
     7
370
    15
100
AcDbPolyline
 90
        3
 70
   128
 43
0.0
 10
120.4474631992
 20
254.7785563681
 10
120.4065983736
 20
254.7985967404
 10
120.3336340764
 20
254.8114623146
  0
LINE
  5
35C
330
1F
100
AcDbEntity
  8
0
  6
Continuous
 62
     7
370
    15
100
AcDbLine
 10
120.3336340764
 20
254.8114623146
 30
0.0
 11
119.9136340764
 21
254.8114623146
 31
0.0
  0
LINE
  5
35D
330
1F
100
AcDbEntity
  8
0
  6
Continuous
 62
     7
370
    15
100
AcDbLine
 10
92.9503007431
 20
253.7781289813
 30
0.0
 11
93.2836340764
 21
253.7781289813
 31
0.0
  0
LINE
  5
35E
330
1F
100
AcDbEntity
  8
0
  6
Continuous
 62
     7
370
    15
100
AcDbLine
 10
93.9503007431
 20
253.7781289813
 30
0.0
 11
94.2836340764
 21
253.7781289813
 31
0.0
  0
LINE
  5
35F
330
1F
100
AcDbEntity
  8
0
  6
Continuous
 62
     7
370
    15
100
AcDbLine
 10
94.9503007431
 20
253.7781289813
 30
0.0
 11
95.2836340764
 21
253.7781289813
 31
0.0
  0
LINE
  5
360
330
1F
100
AcDbEntity
  8
0
  6
Continuous
 62
     7
370
    15
100
AcDbLine
 10
95.9503007431
 20
253.7781289813
 30
0.0
 11
96.2836340764
 21
253.7781289813
 31
0.0
  0
LINE
  5
361
330
1F
100
AcDbEntity
  8
0
  6
Continuous
 62
     7
370
    15
100
AcDbLine
 10
96.9503007431
 20
253.7781289813
 30
0.0
 11
97.2836340764
 21
253.7781289813
 31
0.0
  0
LINE
  5
362
330
1F
100
AcDbEntity
  8
0
  6
Continuous
 62
     7
370
    15
100
AcDbLine
 10
97.9503007431
 20
253.7781289813
 30
0.0
 11
98.2836340764
 21
253.7781289813
 31
0.0
  0
LINE
  5
363
330
1F
100
AcDbEntity
  8
0
  6
Continuous
 62
     7
370
    15
100
AcDbLine
 10
98.9503007431
 20
253.7781289813
 30
0.0
 11
99.2836340764
 21
253.7781289813
 31
0.0
  0
LINE
  5
364
330
1F
100
AcDbEntity
  8
0
  6
Continuous
 62
     7
370
    15
100
AcDbLine
 10
99.9503007431
 20
253.7781289813
 30
0.0
 11
100.2836340764
 21
253.7781289813
 31
0.0
  0
LINE
  5
365
330
1F
100
AcDbEntity
  8
0
  6
Continuous
 62
     7
370
    15
100
AcDbLine
 10
100.9503007431
 20
253.7781289813
 30
0.0
 11
101.2836340764
 21
253.7781289813
 31
0.0
  0
LINE
  5
366
330
1F
100
AcDbEntity
  8
0
  6
Continuous
 62
     7
370
    15
100
AcDbLine
 10
101.9503007431
 20
253.7781289813
 30
0.0
 11
102.2836340764
 21
253.7781289813
 31
0.0
  0
LINE
  5
367
330
1F
100
AcDbEntity
  8
0
  6
Continuous
 62
     7
370
    15
100
AcDbLine
 10
102.9503007431
 20
253.7781289813
 30
0.0
 11
103.2836340764
 21
253.7781289813
 31
0.0
  0
LINE
  5
368
330
1F
100
AcDbEntity
  8
0
  6
Continuous
 62
     7
370
    15
100
AcDbLine
 10
103.9503007431
 20
253.7781289813
 30
0.0
 11
104.2836340764
 21
253.7781289813
 31
0.0
  0
LINE
  5
369
330
1F
100
AcDbEntity
  8
0
  6
Continuous
 62
     7
370
    15
100
AcDbLine
 10
104.9503007431
 20
253.7781289813
 30
0.0
 11
105.2836340764
 21
253.7781289813
 31
0.0
  0
LINE
  5
36A
330
1F
100
AcDbEntity
  8
0
  6
Continuous
 62
     7
370
    15
100
AcDbLine
 10
105.9503007431
 20
253.7781289813
 30
0.0
 11
106.2836340764
 21
253.7781289813
 31
0.0
  0
LINE
  5
36B
330
1F
100
AcDbEntity
  8
0
  6
Continuous
 62
     7
370
    15
100
AcDbLine
 10
106.9503007431
 20
253.7781289813
 30
0.0
 11
107.2836340764
 21
253.7781289813
 31
0.0
  0
LINE
  5
36C
330
1F
100
AcDbEntity
  8
0
  6
Continuous
 62
     7
370
    15
100
AcDbLine
 10
107.9503007431
 20
253.7781289813
 30
0.0
 11
108.2836340764
 21
253.7781289813
 31
0.0
  0
LINE
  5
36D
330
1F
100
AcDbEntity
  8
0
  6
Continuous
 62
     7
370
    15
100
AcDbLine
 10
108.9503007431
 20
253.7781289813
 30
0.0
 11
109.2836340764
 21
253.7781289813
 31
0.0
  0
LINE
  5
36E
330
1F
100
AcDbEntity
  8
0
  6
Continuous
 62
     7
370
    15
100
AcDbLine
 10
109.9503007431
 20
253.7781289813
 30
0.0
 11
110.2836340764
 21
253.7781289813
 31
0.0
  0
LINE
  5
36F
330
1F
100
AcDbEntity
  8
0
  6
Continuous
 62
     7
370
    15
100
AcDbLine
 10
110.9503007431
 20
253.7781289813
 30
0.0
 11
111.2836340764
 21
253.7781289813
 31
0.0
  0
LINE
  5
370
330
1F
100
AcDbEntity
  8
0
  6
Continuous
 62
     7
370
    15
100
AcDbLine
 10
111.9503007431
 20
253.7781289813
 30
0.0
 11
112.2836340764
 21
253.7781289813
 31
0.0
  0
LINE
  5
371
330
1F
100
AcDbEntity
  8
0
  6
Continuous
 62
     7
370
    15
100
AcDbLine
 10
112.9503007431
 20
253.7781289813
 30
0.0
 11
113.2836340764
 21
253.7781289813
 31
0.0
  0
LINE
  5
372
330
1F
100
AcDbEntity
  8
0
  6
Continuous
 62
     7
370
    15
100
AcDbLine
 10
113.9503007431
 20
253.7781289813
 30
0.0
 11
114.2836340764
 21
253.7781289813
 31
0.0
  0
LINE
  5
373
330
1F
100
AcDbEntity
  8
0
  6
Continuous
 62
     7
370
    15
100
AcDbLine
 10
114.9503007431
 20
253.7781289813
 30
0.0
 11
115.2836340764
 21
253.7781289813
 31
0.0
  0
LINE
  5
374
330
1F
100
AcDbEntity
  8
0
  6
Continuous
 62
     7
370
    15
100
AcDbLine
 10
115.9503007431
 20
253.7781289813
 30
0.0
 11
116.2836340764
 21
253.7781289813
 31
0.0
  0
LINE
  5
375
330
1F
100
AcDbEntity
  8
0
  6
Continuous
 62
     7
370
    15
100
AcDbLine
 10
116.9503007431
 20
253.7781289813
 30
0.0
 11
117.2836340764
 21
253.7781289813
 31
0.0
  0
LINE
  5
376
330
1F
100
AcDbEntity
  8
0
  6
Continuous
 62
     7
370
    15
100
AcDbLine
 10
117.9503007431
 20
253.7781289813
 30
0.0
 11
118.2836340764
 21
253.7781289813
 31
0.0
  0
LINE
  5
377
330
1F
100
AcDbEntity
  8
0
  6
Continuous
 62
     7
370
    15
100
AcDbLine
 10
118.9503007431
 20
253.7781289813
 30
0.0
 11
119.2836340764
 21
253.7781289813
 31
0.0
  0
LINE
  5
378
330
1F
100
AcDbEntity
  8
0
  6
Continuous
 62
     7
370
    15
100
AcDbLine
 10
119.9503007431
 20
253.7781289813
 30
0.0
 11
120.2836340764
 21
253.7781289813
 31
0.0
  0
LINE
  5
379
330
1F
100
AcDbEntity
  8
0
  6
Continuous
 62
     7
370
    15
100
AcDbLine
 10
120.9503007431
 20
253.7781289813
 30
0.0
 11
121.2836340764
 21
253.7781289813
 31
0.0
  0
LINE
  5
37A
330
1F
100
AcDbEntity
  8
0
  6
Continuous
 62
     7
370
    15
100
AcDbLine
 10
121.9503007431
 20
253.7781289813
 30
0.0
 11
122.2836340764
 21
253.7781289813
 31
0.0
  0
LINE
  5
37B
330
1F
100
AcDbEntity
  8
0
  6
Continuous
 62
     7
370
    15
100
AcDbLine
 10
122.9503007431
 20
253.7781289813
 30
0.0
 11
123.2836340764
 21
253.7781289813
 31
0.0
  0
LINE
  5
37C
330
1F
100
AcDbEntity
  8
0
  6
Continuous
 62
     7
370
    15
100
AcDbLine
 10
124.8014982485
 20
223.6186003858
 30
0.0
 11
124.8036340764
 21
223.6186003858
 31
0.0
  0
LINE
  5
37D
330
1F
100
AcDbEntity
  8
0
  6
Continuous
 62
     7
370
    15
100
AcDbLine
 10
124.7203007431
 20
223.6186003858
 30
0.0
 11
124.8014982485
 21
223.6186003858
 31
0.0
  0
LINE
  5
37E
330
1F
100
AcDbEntity
  8
0
  6
Continuous
 62
     7
370
    15
100
AcDbLine
 10
93.3369674097
 20
223.564795648
 30
0.0
 11
93.3369674097
 21
223.6181289813
 31
0.0
  0
LINE
  5
37F
330
1F
100
AcDbEntity
  8
0
  6
Continuous
 62
     7
370
    15
100
AcDbLine
 10
93.0036340764
 20
223.564795648
 30
0.0
 11
93.0036340764
 21
223.6181289813
 31
0.0
  0
LINE
  5
380
330
1F
100
AcDbEntity
  8
0
  6
Continuous
 62
     7
370
    15
100
AcDbLine
 10
93.0036340764
 20
223.564795648
 30
0.0
 11
93.3369674097
 21
223.564795648
 31
0.0
  0
LINE
  5
381
330
1F
100
AcDbEntity
  8
0
  6
Continuous
 62
     7
370
    15
100
AcDbLine
 10
91.4736340764
 20
223.6181289813
 30
0.0
 11
91.4736340764
 21
223.564795648
 31
0.0
  0
LINE
  5
382
330
1F
100
AcDbEntity
  8
0
  6
Continuous
 62
     7
370
    15
100
AcDbLine
 10
91.4736340764
 20
223.564795648
 30
0.0
 11
93.0036340764
 21
223.564795648
 31
0.0
  0
ARC
  5
383
330
1F
100
AcDbEntity
  8
0
  6
Continuous
 62
     7
370
    15
100
AcDbCircle
 10
91.4736340764
 20
223.7014623146
 30
0.0
 40
0.1366666666666561
100
AcDbArc
 50
217.5718693214
 51
270.0
  0
LWPOLYLINE
  5
384
330
1F
100
AcDbEntity
  8
0
  6
Continuous
 62
     7
370
    15
100
AcDbPolyline
 90
        3
 70
   128
 43
0.0
 10
91.3653135643
 20
255.244795648
 10
91.3599998961
 20
255.2373902465
 10
91.3487820305
 20
255.2170477842
  0
ARC
  5
385
330
1F
100
AcDbEntity
  8
0
  6
Continuous
 62
     7
370
    15
100
AcDbCircle
 10
91.4736340764
 20
255.1614623146
 30
0.0
 40
0.08333333333336
100
AcDbArc
 50
126.869897646
 51
167.7442452243
  0
LINE
  5
386
330
1F
100
AcDbEntity
  8
0
  6
Continuous
 62
     7
370
    15
100
AcDbLine
 10
93.4369674097
 20
223.6514623146
 30
0.0
 11
93.4703007431
 21
223.6514623146
 31
0.0
  0
LINE
  5
387
330
1F
100
AcDbEntity
  8
0
  6
Continuous
 62
     7
370
    15
100
AcDbLine
 10
93.4083481216
 20
223.6041085631
 30
0.0
 11
93.4083481216
 21
223.6181289813
 31
0.0
  0
LINE
  5
388
330
1F
100
AcDbEntity
  8
0
  6
Continuous
 62
     7
370
    15
100
AcDbLine
 10
93.3503007431
 20
223.6041085631
 30
0.0
 11
93.3503007431
 21
223.6181289813
 31
0.0
  0
LINE
  5
389
330
1F
100
AcDbEntity
  8
0
  6
Continuous
 62
     7
370
    15
100
AcDbLine
 10
93.4036340764
 20
223.6041085631
 30
0.0
 11
93.4036340764
 21
223.6181289813
 31
0.0
  0
LINE
  5
38A
330
1F
100
AcDbEntity
  8
0
  6
Continuous
 62
     7
370
    15
100
AcDbLine
 10
124.9520185548
 20
223.6514623146
 30
0.0
 11
124.9034738651
 21
223.6514623146
 31
0.0
  0
LINE
  5
38B
330
1F
100
AcDbEntity
  8
0
  6
Continuous
 62
     7
370
    15
100
AcDbLine
 10
128.5834738651
 20
228.2314623146
 30
0.0
 11
128.6901405318
 21
228.2314623146
 31
0.0
  0
SPLINE
  5
38C
330
1F
100
AcDbEntity
  8
0
  6
Continuous
 62
     7
370
    15
100
AcDbSpline
210
0.0
220
0.0
230
1.0
 70
    24
 71
     3
 72
    11
 73
     7
 74
     0
 42
0.00000001
 43
0.00000001
 40
0.0
 40
0.0
 40
0.0
 40
0.0
 40
0.2833534124411236
 40
0.5581116990962648
 40
0.7754835424211705
 40
1.0
 40
1.0
 40
1.0
 40
1.0
 10
128.6901405317641
 20
228.0985037893116
 30
0.0
 10
128.6901405317641
 20
228.118307027632
 30
0.0
 10
128.6901405317641
 20
228.1573128009926
 30
0.0
 10
128.6901405317641
 20
228.2005201190198
 30
0.0
 10
128.6901405317641
 20
228.2267804791606
 30
0.0
 10
128.6901405317641
 20
228.2298849712773
 30
0.0
 10
128.6901405317641
 20
228.2314623146267
 30
0.0
  0
LINE
  5
38D
330
1F
100
AcDbEntity
  8
0
  6
Continuous
 62
     7
370
    15
100
AcDbLine
 10
128.5834738651
 20
228.0985037893
 30
0.0
 11
128.6901405318
 21
228.0985037893
 31
0.0
  0
LINE
  5
38E
330
1F
100
AcDbEntity
  8
0
  6
Continuous
 62
     7
370
    15
100
AcDbLine
 10
128.6901405318
 20
224.3643945366
 30
0.0
 11
128.6901405318
 21
224.6406719179
 31
0.0
  0
LINE
  5
38F
330
1F
100
AcDbEntity
  8
0
  6
Continuous
 62
     7
370
    15
100
AcDbLine
 10
128.6901405318
 20
226.8552758313
 30
0.0
 11
128.6901405318
 21
228.0985037893
 31
0.0
  0
LINE
  5
390
330
1F
100
AcDbEntity
  8
0
  6
Continuous
 62
     7
370
    15
100
AcDbLine
 10
128.5834738651
 20
224.3643945366
 30
0.0
 11
128.6901405318
 21
224.3643945366
 31
0.0
  0
LINE
  5
391
330
1F
100
AcDbEntity
  8
0
  6
Continuous
 62
     7
370
    15
100
AcDbLine
 10
128.5834738651
 20
224.2314623146
 30
0.0
 11
128.6901405318
 21
224.2314623146
 31
0.0
  0
SPLINE
  5
392
330
1F
100
AcDbEntity
  8
0
  6
Continuous
 62
     7
370
    15
100
AcDbSpline
210
0.0
220
0.0
230
1.0
 70
    24
 71
     3
 72
    11
 73
     7
 74
     0
 42
0.00000001
 43
0.00000001
 40
0.0
 40
0.0
 40
0.0
 40
0.0
 40
0.2832771686238254
 40
0.5580022489005104
 40
0.7754022428539222
 40
1.0
 40
1.0
 40
1.0
 40
1.0
 10
128.6901405317641
 20
224.2314623146267
 30
0.0
 10
128.6901405317641
 20
224.2340145701051
 30
0.0
 10
128.6901405317641
 20
224.239042028914
 30
0.0
 10
128.6901405317641
 20
224.2745712733221
 30
0.0
 10
128.6901405317641
 20
224.3179329019819
 30
0.0
 10
128.6901405317641
 20
224.3487400973029
 30
0.0
 10
128.6901405317641
 20
224.3643945366205
 30
0.0
  0
SPLINE
  5
393
330
1F
100
AcDbEntity
  8
0
  6
Continuous
 62
     7
370
    15
100
AcDbSpline
210
0.0
220
0.0
230
1.0
 70
     8
 71
     3
 72
    11
 73
     7
 74
     0
 42
0.00000001
 43
0.00000001
 40
0.0
 40
0.0
 40
0.0
 40
0.0
 40
0.237151618383188
 40
0.4978002014464027
 40
0.7485397230460135
 40
1.0
 40
1.0
 40
1.0
 40
1.0
 10
128.6901405317641
 20
228.0985037893116
 30
0.0
 10
128.7031397879845
 20
228.0964562876882
 30
0.0
 10
128.7304262657632
 20
228.0921584181331
 30
0.0
 10
128.7599988638032
 20
228.0832902198061
 30
0.0
 10
128.7798153309649
 20
228.0730636770883
 30
0.0
 10
128.7822531874523
 20
228.0658788500781
 30
0.0
 10
128.7834738650974
 20
228.062281280754
 30
0.0
  0
LINE
  5
394
330
1F
100
AcDbEntity
  8
0
  6
Continuous
 62
     7
370
    15
100
AcDbLine
 10
128.7834738651
 20
228.0622812808
 30
0.0
 11
128.7834738651
 21
226.8373122486
 31
0.0
  0
LINE
  5
395
330
1F
100
AcDbEntity
  8
0
  6
Continuous
 62
     7
370
    15
100
AcDbLine
 10
128.7834738651
 20
224.9824739951
 30
0.0
 11
128.7834738651
 21
224.9756465776
 31
0.0
  0
LINE
  5
396
330
1F
100
AcDbEntity
  8
0
  6
Continuous
 62
     7
370
    15
100
AcDbLine
 10
128.7834738651
 20
224.7992621723
 30
0.0
 11
128.7834738651
 21
224.4006433485
 31
0.0
  0
SPLINE
  5
397
330
1F
100
AcDbEntity
  8
0
  6
Continuous
 62
     7
370
    15
100
AcDbSpline
210
0.0
220
0.0
230
1.0
 70
     8
 71
     3
 72
    11
 73
     7
 74
     0
 42
0.00000001
 43
0.00000001
 40
0.0
 40
0.0
 40
0.0
 40
0.0
 40
0.2371429336589585
 40
0.4977971043283301
 40
0.7485377110304062
 40
1.0
 40
1.0
 40
1.0
 40
1.0
 10
128.6901405317641
 20
224.3643945366205
 30
0.0
 10
128.7031394705399
 20
224.3664434962088
 30
0.0
 10
128.7304261114789
 20
224.3707445568991
 30
0.0
 10
128.7599987895359
 20
224.3796190833452
 30
0.0
 10
128.779815345616
 20
224.38985314735
 30
0.0
 10
128.7822531908487
 20
224.397043170682
 30
0.0
 10
128.7834738650974
 20
224.4006433484994
 30
0.0
  0
SPLINE
  5
398
330
1F
100
AcDbEntity
  8
0
  6
Continuous
 62
     7
370
    15
100
AcDbSpline
210
0.0
220
0.0
230
1.0
 70
     8
 71
     3
 72
    11
 73
     7
 74
     0
 42
0.00000001
 43
0.00000001
 40
0.0
 40
0.0
 40
0.0
 40
0.0
 40
0.2371941589275958
 40
0.4978619749471116
 40
0.7485798819786929
 40
1.0
 40
1.0
 40
1.0
 40
1.0
 10
128.6901405317641
 20
228.2314623146267
 30
0.0
 10
128.7031391478343
 20
228.2219344143776
 30
0.0
 10
128.7304227736099
 20
228.2019356957894
 30
0.0
 10
128.7599971078129
 20
228.1603776194345
 30
0.0
 10
128.779814998462
 20
228.1126631879737
 30
0.0
 10
128.782253106368
 20
228.0790908994619
 30
0.0
 10
128.7834738650974
 20
228.062281280754
 30
0.0
  0
SPLINE
  5
399
330
1F
100
AcDbEntity
  8
0
  6
Continuous
 62
     7
370
    15
100
AcDbSpline
210
0.0
220
0.0
230
1.0
 70
    24
 71
     3
 72
    13
 73
     9
 74
     0
 42
0.00000001
 43
0.00000001
 40
0.0
 40
0.0
 40
0.0
 40
0.0
 40
0.127536074047442
 40
0.2545887198592378
 40
0.4999418984797906
 40
0.7453299828649781
 40
0.8725055605771209
 40
1.0
 40
1.0
 40
1.0
 40
1.0
 10
128.6901405317641
 20
228.2314623146267
 30
0.0
 10
128.6901405317641
 20
228.2309778317019
 30
0.0
 10
128.6901405317641
 20
228.2300107022954
 30
0.0
 10
128.6901405317641
 20
228.2193112939636
 30
0.0
 10
128.6901405317641
 20
228.1949260002723
 30
0.0
 10
128.6901405317641
 20
228.158421000923
 30
0.0
 10
128.6901405317641
 20
228.1250978686606
 30
0.0
 10
128.6901405317641
 20
228.1073758787495
 30
0.0
 10
128.6901405317641
 20
228.0985037893116
 30
0.0
  0
SPLINE
  5
39A
330
1F
100
AcDbEntity
  8
0
  6
Continuous
 62
     7
370
    15
100
AcDbSpline
210
0.0
220
0.0
230
1.0
 70
     8
 71
     3
 72
    11
 73
     7
 74
     0
 42
0.00000001
 43
0.00000001
 40
0.0
 40
0.0
 40
0.0
 40
0.0
 40
0.251420113749144
 40
0.5021380165204801
 40
0.762799589481917
 40
1.0
 40
1.0
 40
1.0
 40
1.0
 10
128.7834738650974
 20
224.4006433484994
 30
0.0
 10
128.7822531069872
 20
224.3838337300175
 30
0.0
 10
128.7798150003181
 20
224.3502614419573
 30
0.0
 10
128.7599972623715
 20
224.3025473973066
 30
0.0
 10
128.7304230868925
 20
224.2609892688517
 30
0.0
 10
128.7031394808209
 20
224.2409904930789
 30
0.0
 10
128.6901405317641
 20
224.2314623146267
 30
0.0
  0
SPLINE
  5
39B
330
1F
100
AcDbEntity
  8
0
  6
Continuous
 62
     7
370
    15
100
AcDbSpline
210
0.0
220
0.0
230
1.0
 70
    24
 71
     3
 72
    13
 73
     9
 74
     0
 42
0.00000001
 43
0.00000001
 40
0.0
 40
0.0
 40
0.0
 40
0.0
 40
0.1275872441294484
 40
0.2546759233236651
 40
0.5000487292309116
 40
0.7453982611490086
 40
0.8725397565424716
 40
1.0
 40
1.0
 40
1.0
 40
1.0
 10
128.6901405317641
 20
224.3643945366205
 30
0.0
 10
128.6901405317641
 20
224.3555164365237
 30
0.0
 10
128.6901405317641
 20
224.3377949287434
 30
0.0
 10
128.6901405317641
 20
224.3044786732008
 30
0.0
 10
128.6901405317641
 20
224.2679851148526
 30
0.0
 10
128.6901405317641
 20
224.2436015964408
 30
0.0
 10
128.6901405317641
 20
224.2329175738954
 30
0.0
 10
128.6901405317641
 20
224.2319478057493
 30
0.0
 10
128.6901405317641
 20
224.2314623146267
 30
0.0
  0
SPLINE
  5
39C
330
1F
100
AcDbEntity
  8
0
  6
Continuous
 62
     7
370
    15
100
AcDbSpline
210
0.0
220
0.0
230
1.0
 70
     8
 71
     3
 72
    13
 73
     9
 74
     0
 42
0.00000001
 43
0.00000001
 40
0.0
 40
0.0
 40
0.0
 40
0.0
 40
0.0075462231145114
 40
0.2722763788513202
 40
0.481519541573075
 40
0.6613541616922187
 40
0.8304588949397755
 40
1.0
 40
1.0
 40
1.0
 40
1.0
 10
90.48363407640707
 20
238.2384485307241
 30
0.0
 10
90.48363386413757
 20
238.2384080027703
 30
0.0
 10
90.48362620521071
 20
238.2369457077474
 30
0.0
 10
90.48285382790321
 20
238.2343342536101
 30
0.0
 10
90.48000590928507
 20
238.2311218490573
 30
0.0
 10
90.47629446907811
 20
238.2288868895179
 30
0.0
 10
90.47188541618607
 20
238.2274053567519
 30
0.0
 10
90.46860815289286
 20
238.2272101932761
 30
0.0
 10
90.4669674097404
 20
238.2271124857965
 30
0.0
  0
LINE
  5
39D
330
1F
100
AcDbEntity
  8
0
  6
Continuous
 62
     7
370
    15
100
AcDbLine
 10
90.4836340764
 20
238.2384485307
 30
0.0
 11
90.4836340764
 21
237.7906118155
 31
0.0
  0
LINE
  5
39E
330
1F
100
AcDbEntity
  8
0
  6
Continuous
 62
     7
370
    15
100
AcDbLine
 10
90.4836340764
 20
237.7702818998
 30
0.0
 11
90.4836340764
 21
237.7589178155
 31
0.0
  0
SPLINE
  5
39F
330
1F
100
AcDbEntity
  8
0
  6
Continuous
 62
     7
370
    15
100
AcDbSpline
210
0.0
220
0.0
230
1.0
 70
     8
 71
     3
 72
    13
 73
     9
 74
     0
 42
0.00000001
 43
0.00000001
 40
0.0
 40
0.0
 40
0.0
 40
0.0
 40
0.1695411050602274
 40
0.3386458383078548
 40
0.5184804584269174
 40
0.7277236211486836
 40
0.9924537768856128
 40
1.0
 40
1.0
 40
1.0
 40
1.0
 10
90.42030074307374
 20
238.2271124857965
 30
0.0
 10
90.4186599999213
 20
238.2272101932761
 30
0.0
 10
90.41538273662806
 20
238.2274053567519
 30
0.0
 10
90.41097368373603
 20
238.2288868895179
 30
0.0
 10
90.40726224352909
 20
238.2311218490573
 30
0.0
 10
90.4044143249109
 20
238.2343342536101
 30
0.0
 10
90.40364194760352
 20
238.2369457077475
 30
0.0
 10
90.40363428867657
 20
238.2384080027703
 30
0.0
 10
90.40363407640707
 20
238.2384485307241
 30
0.0
  0
LINE
  5
3A0
330
1F
100
AcDbEntity
  8
0
  6
Continuous
 62
     7
370
    15
100
AcDbLine
 10
90.4036340764
 20
237.7532665327
 30
0.0
 11
90.4036340764
 21
238.2384485307
 31
0.0
  0
LINE
  5
3A1
330
1F
100
AcDbEntity
  8
0
  6
Continuous
 62
     7
370
    15
100
AcDbLine
 10
90.4669674097
 20
238.2271124858
 30
0.0
 11
90.4203007431
 21
238.2271124858
 31
0.0
  0
SPLINE
  5
3A2
330
1F
100
AcDbEntity
  8
0
  6
Continuous
 62
     7
370
    15
100
AcDbSpline
210
0.0
220
0.0
230
1.0
 70
     8
 71
     3
 72
    12
 73
     8
 74
     0
 42
0.00000001
 43
0.00000001
 40
0.0
 40
0.0
 40
0.0
 40
0.0
 40
0.2289440738516373
 40
0.4594214300241601
 40
0.6825355698157884
 40
0.8947175231628384
 40
1.0
 40
1.0
 40
1.0
 40
1.0
 10
90.40363407640707
 20
238.2462720746895
 30
0.0
 10
90.40478970871224
 20
238.2499942828253
 30
0.0
 10
90.40710871281351
 20
238.257463627438
 30
0.0
 10
90.42536670253435
 20
238.2674811535263
 30
0.0
 10
90.4518358048332
 20
238.2747448460961
 30
0.0
 10
90.47856087079006
 20
238.2780239927761
 30
0.0
 10
90.49488656366253
 20
238.2783029363166
 30
0.0
 10
90.50030074307375
 20
238.2783954438987
 30
0.0
  0
SPLINE
  5
3A3
330
1F
100
AcDbEntity
  8
0
  6
Continuous
 62
     7
370
    15
100
AcDbSpline
210
0.0
220
0.0
230
1.0
 70
     8
 71
     3
 72
    12
 73
     8
 74
     0
 42
0.00000001
 43
0.00000001
 40
0.0
 40
0.0
 40
0.0
 40
0.0
 40
0.2028202020467502
 40
0.4049472449426752
 40
0.6098312030740702
 40
0.8226939241827151
 40
1.0
 40
1.0
 40
1.0
 40
1.0
 10
90.50030074307375
 20
238.6598980989916
 30
0.0
 10
90.48982468703805
 20
238.6594787580066
 30
0.0
 10
90.46890837797855
 20
238.6586415091782
 30
0.0
 10
90.44088196128058
 20
238.6521254249086
 30
0.0
 10
90.4190767255846
 20
238.6423980929108
 30
0.0
 10
90.4058627745002
 20
238.6306381024745
 30
0.0
 10
90.40433042743872
 20
238.6222403851334
 30
0.0
 10
90.40363407640707
 20
238.6184241745105
 30
0.0
  0
LINE
  5
3A4
330
1F
100
AcDbEntity
  8
0
  6
Continuous
 62
     7
370
    15
100
AcDbLine
 10
90.5003007431
 20
238.659898099
 30
0.0
 11
90.5003007431
 21
238.2783954439
 31
0.0
  0
LINE
  5
3A5
330
1F
100
AcDbEntity
  8
0
  6
Continuous
 62
     7
370
    15
100
AcDbLine
 10
90.4036340764
 20
238.2462720747
 30
0.0
 11
90.4036340764
 21
238.6184241745
 31
0.0
  0
LINE
  5
3A6
330
1F
100
AcDbEntity
  8
0
  6
Continuous
 62
     7
370
    15
100
AcDbLine
 10
90.5003007431
 20
238.2783954439
 30
0.0
 11
90.8403007431
 21
238.2783954439
 31
0.0
  0
LINE
  5
3A7
330
1F
100
AcDbEntity
  8
0
  6
Continuous
 62
     7
370
    15
100
AcDbLine
 10
90.8403007431
 20
238.659898099
 30
0.0
 11
90.5003007431
 21
238.659898099
 31
0.0
  0
LINE
  5
3A8
330
1F
100
AcDbEntity
  8
0
  6
Continuous
 62
     7
370
    15
100
AcDbLine
 10
90.8403007431
 20
238.2783954439
 30
0.0
 11
90.8403007431
 21
238.659898099
 31
0.0
  0
LWPOLYLINE
  5
3A9
330
1F
100
AcDbEntity
  8
0
  6
Continuous
 62
     7
370
    15
100
AcDbPolyline
 90
        9
 70
   128
 43
0.0
 10
90.8403007431
 20
238.659898099
 10
90.8435522484
 20
238.6596963276
 10
90.8466788003
 20
238.6590987673
 10
90.849560247
 20
238.6581283821
 10
90.8520858561
 20
238.6568224633
 10
90.8541585699
 20
238.6552311966
 10
90.8556987353
 20
238.6534157336
 10
90.8566471644
 20
238.6514458414
 10
90.8569674097
 20
238.6493972219
  0
LINE
  5
3AA
330
1F
100
AcDbEntity
  8
0
  6
Continuous
 62
     7
370
    15
100
AcDbLine
 10
90.8569674097
 20
238.6493972219
 30
0.0
 11
90.8569674097
 21
238.2772451221
 31
0.0
  0
ARC
  5
3AB
330
1F
100
AcDbEntity
  8
0
  6
Continuous
 62
     7
370
    15
100
AcDbCircle
 10
90.8444475611
 20
238.2171631219
 30
0.0
 40
0.0613725782336609
100
AcDbArc
 50
78.2291837915
 51
93.8743090133
  0
LINE
  5
3AC
330
1F
100
AcDbEntity
  8
0
  6
Continuous
 62
     7
370
    15
100
AcDbLine
 10
90.5003007431
 20
238.2783954439
 30
0.0
 11
90.5003007431
 21
238.2617387846
 31
0.0
  0
SPLINE
  5
3AD
330
1F
100
AcDbEntity
  8
0
  6
Continuous
 62
     7
370
    15
100
AcDbSpline
210
0.0
220
0.0
230
1.0
 70
     8
 71
     3
 72
    12
 73
     8
 74
     0
 42
0.00000001
 43
0.00000001
 40
0.0
 40
0.0
 40
0.0
 40
0.0
 40
0.1044203826439633
 40
0.3151731030980015
 40
0.5377472974586669
 40
0.7690283494735356
 40
0.9999999999999999
 40
0.9999999999999999
 40
0.9999999999999999
 40
0.9999999999999999
 10
90.50030074307375
 20
238.2617387846103
 30
0.0
 10
90.49581943849796
 20
238.2616513094542
 30
0.0
 10
90.48229347131308
 20
238.2613872823006
 30
0.0
 10
90.46013631363543
 20
238.2582761241712
 30
0.0
 10
90.4382266610852
 20
238.2513473779223
 30
0.0
 10
90.42315588022679
 20
238.241716127403
 30
0.0
 10
90.42125203068763
 20
238.2344142381312
 30
0.0
 10
90.42030074307374
 20
238.2307657371969
 30
0.0
  0
ARC
  5
3AE
330
1F
100
AcDbEntity
  8
0
  6
Continuous
 62
     7
370
    15
100
AcDbCircle
 10
90.4197407739
 20
238.2468739459
 30
0.0
 40
0.0161179389049372
100
AcDbArc
 50
182.1400194109
 51
271.9909695492
  0
ARC
  5
3AF
330
1F
100
AcDbEntity
  8
0
  6
Continuous
 62
     7
370
    15
100
AcDbCircle
 10
90.8408607122
 20
238.2778469934
 30
0.0
 40
0.0161179389049367
100
AcDbArc
 50
268.0090304508
 51
357.8599805892
  0
LINE
  5
3B0
330
1F
100
AcDbEntity
  8
0
  6
Continuous
 62
     7
370
    15
100
AcDbLine
 10
90.8403007431
 20
238.2783954439
 30
0.0
 11
90.8403007431
 21
238.2617387846
 31
0.0
  0
LINE
  5
3B1
330
1F
100
AcDbEntity
  8
0
  6
Continuous
 62
     7
370
    15
100
AcDbLine
 10
90.8403007431
 20
238.2617387846
 30
0.0
 11
90.5003007431
 21
238.2617387846
 31
0.0
  0
LINE
  5
3B2
330
1F
100
AcDbEntity
  8
0
  6
Continuous
 62
     7
370
    15
100
AcDbLine
 10
90.4203007431
 20
238.2307657372
 30
0.0
 11
90.4203007431
 21
238.2271124858
 31
0.0
  0
LINE
  5
3B3
330
1F
100
AcDbEntity
  8
0
  6
Continuous
 62
     7
370
    15
100
AcDbLine
 10
90.8403007431
 20
238.2437275653
 30
0.0
 11
90.8403007431
 21
238.2617387846
 31
0.0
  0
LINE
  5
3B4
330
1F
100
AcDbEntity
  8
0
  6
Continuous
 62
     7
370
    15
100
AcDbLine
 10
90.5003007431
 20
238.2437275653
 30
0.0
 11
90.8403007431
 21
238.2437275653
 31
0.0
  0
SPLINE
  5
3B5
330
1F
100
AcDbEntity
  8
0
  6
Continuous
 62
     7
370
    15
100
AcDbSpline
210
0.0
220
0.0
230
1.0
 70
     8
 71
     3
 72
    12
 73
     8
 74
     0
 42
0.00000001
 43
0.00000001
 40
0.0
 40
0.0
 40
0.0
 40
0.0
 40
0.1009214352040148
 40
0.3119724040342766
 40
0.5359629038278946
 40
0.768118809935776
 40
1.0
 40
1.0
 40
1.0
 40
1.0
 10
90.50030074307374
 20
238.2437275652709
 30
0.0
 10
90.49849267916225
 20
238.2436930547747
 30
0.0
 10
90.49290351919866
 20
238.2435863745393
 30
0.0
 10
90.48367210570638
 20
238.2422996193696
 30
0.0
 10
90.47449066984177
 20
238.2393938607831
 30
0.0
 10
90.46817057335439
 20
238.2353548236189
 30
0.0
 10
90.46736830596079
 20
238.2322948288186
 30
0.0
 10
90.4669674097404
 20
238.2307657371969
 30
0.0
  0
LINE
  5
3B6
330
1F
100
AcDbEntity
  8
0
  6
Continuous
 62
     7
370
    15
100
AcDbLine
 10
90.4669674097
 20
238.2271124858
 30
0.0
 11
90.4669674097
 21
238.2307657372
 31
0.0
  0
ARC
  5
3B7
330
1F
100
AcDbEntity
  8
0
  6
Continuous
 62
     7
370
    15
100
AcDbCircle
 10
90.8408607122
 20
238.259835774
 30
0.0
 40
0.016117938904859
100
AcDbArc
 50
268.0090304505
 51
357.8599805893
  0
LINE
  5
3B8
330
1F
100
AcDbEntity
  8
0
  6
Continuous
 62
     7
370
    15
100
AcDbLine
 10
90.8569674097
 20
238.2772451221
 30
0.0
 11
90.8569674097
 21
238.2592339028
 31
0.0
  0
LINE
  5
3B9
330
1F
100
AcDbEntity
  8
0
  6
Continuous
 62
     7
370
    15
100
AcDbLine
 10
90.4036340764
 20
238.2384485307
 30
0.0
 11
90.4036340764
 21
238.2462720747
 31
0.0
  0
LINE
  5
3BA
330
1F
100
AcDbEntity
  8
0
  6
Continuous
 62
     7
370
    15
100
AcDbLine
 10
90.5003007431
 20
238.6660638886
 30
0.0
 11
90.5003007431
 21
238.659898099
 31
0.0
  0
LINE
  5
3BB
330
1F
100
AcDbEntity
  8
0
  6
Continuous
 62
     7
370
    15
100
AcDbLine
 10
90.4836340764
 20
238.793977965
 30
0.0
 11
90.4836340764
 21
238.6667459325
 31
0.0
  0
LINE
  5
3BC
330
1F
100
AcDbEntity
  8
0
  6
Continuous
 62
     7
370
    15
100
AcDbLine
 10
90.4036340764
 20
238.6106006305
 30
0.0
 11
90.4036340764
 21
238.794795648
 31
0.0
  0
LINE
  5
3BD
330
1F
100
AcDbEntity
  8
0
  6
Continuous
 62
     7
370
    15
100
AcDbLine
 10
90.8403007431
 20
237.7980210698
 30
0.0
 11
90.8403007431
 21
237.8160322892
 31
0.0
  0
LINE
  5
3BE
330
1F
100
AcDbEntity
  8
0
  6
Continuous
 62
     7
370
    15
100
AcDbLine
 10
90.8403007431
 20
237.8160322892
 30
0.0
 11
90.8403007431
 21
237.842347375
 31
0.0
  0
LWPOLYLINE
  5
3BF
330
1F
100
AcDbEntity
  8
0
  6
Continuous
 62
     7
370
    15
100
AcDbPolyline
 90
        9
 70
   128
 43
0.0
 10
90.8403007431
 20
237.842347375
 10
90.8435522484
 20
237.8421396879
 10
90.8466788003
 20
237.841524608
 10
90.849560247
 20
237.8405257724
 10
90.8520858561
 20
237.8391815659
 10
90.8541585699
 20
237.8375436455
 10
90.8556987353
 20
237.8356749556
 10
90.8566471644
 20
237.8336473089
 10
90.8569674097
 20
237.8315386267
  0
ARC
  5
3C0
330
1F
100
AcDbEntity
  8
0
  6
Continuous
 62
     7
370
    15
100
AcDbCircle
 10
90.8408607122
 20
237.8321404979
 30
0.0
 40
0.0161179389049092
100
AcDbArc
 50
268.0090304507
 51
357.8599805891
  0
LINE
  5
3C1
330
1F
100
AcDbEntity
  8
0
  6
Continuous
 62
     7
370
    15
100
AcDbLine
 10
90.8569674097
 20
237.869349175
 30
0.0
 11
90.8569674097
 21
237.8315386267
 31
0.0
  0
LINE
  5
3C2
330
1F
100
AcDbEntity
  8
0
  6
Continuous
 62
     7
370
    15
100
AcDbLine
 10
90.8569674097
 20
237.8315386267
 30
0.0
 11
90.8569674097
 21
237.8135274073
 31
0.0
  0
ARC
  5
3C3
330
1F
100
AcDbEntity
  8
0
  6
Continuous
 62
     7
370
    15
100
AcDbCircle
 10
90.8408607122
 20
237.8141292786
 30
0.0
 40
0.0161179389049651
100
AcDbArc
 50
268.0090304508
 51
357.8599805892
  0
SPLINE
  5
3C4
330
1F
100
AcDbEntity
  8
0
  6
Continuous
 62
     7
370
    15
100
AcDbSpline
210
0.0
220
0.0
230
1.0
 70
     8
 71
     3
 72
    13
 73
     9
 74
     0
 42
0.00000001
 43
0.00000001
 40
0.0
 40
0.0
 40
0.0
 40
0.0
 40
0.169541105060228
 40
0.3386458383077665
 40
0.5184804584269166
 40
0.7277236211486992
 40
0.9924537768855827
 40
1.0
 40
1.0
 40
1.0
 40
1.0
 10
90.5469674097404
 20
238.8098840843399
 30
0.0
 10
90.54860815289284
 20
238.8097485649968
 30
0.0
 10
90.55188541618608
 20
238.8094778751159
 30
0.0
 10
90.55629446907813
 20
238.8074191406261
 30
0.0
 10
90.56000590928505
 20
238.8043020222259
 30
0.0
 10
90.56285382790321
 20
238.7997987122351
 30
0.0
 10
90.56362620521068
 20
238.7961104623367
 30
0.0
 10
90.56363386413757
 20
238.7940354739642
 30
0.0
 10
90.56363407640707
 20
238.7939779650268
 30
0.0
  0
LINE
  5
3C5
330
1F
100
AcDbEntity
  8
0
  6
Continuous
 62
     7
370
    15
100
AcDbLine
 10
90.5636340764
 20
238.793977965
 30
0.0
 11
90.5636340764
 21
238.6660638886
 31
0.0
  0
LINE
  5
3C6
330
1F
100
AcDbEntity
  8
0
  6
Continuous
 62
     7
370
    15
100
AcDbLine
 10
90.5636340764
 20
238.2425672361
 30
0.0
 11
90.5636340764
 21
237.7906118155
 31
0.0
  0
SPLINE
  5
3C7
330
1F
100
AcDbEntity
  8
0
  6
Continuous
 62
     7
370
    15
100
AcDbSpline
210
0.0
220
0.0
230
1.0
 70
     8
 71
     3
 72
    13
 73
     9
 74
     0
 42
0.00000001
 43
0.00000001
 40
0.0
 40
0.0
 40
0.0
 40
0.0
 40
0.1695411050602385
 40
0.338645838307862
 40
0.5184804584269078
 40
0.7277236211487007
 40
0.9924537768855943
 40
1.0
 40
1.0
 40
1.0
 40
1.0
 10
90.54696740974042
 20
237.7848444587458
 30
0.0
 10
90.54860815289285
 20
237.7848929429945
 30
0.0
 10
90.55188541618608
 20
237.7849897867013
 30
0.0
 10
90.55629446907811
 20
237.7857279498683
 30
0.0
 10
90.56000590928507
 20
237.7868503731547
 30
0.0
 10
90.5628538279032
 20
237.7884814939664
 30
0.0
 10
90.56362620521074
 20
237.7898287404093
 30
0.0
 10
90.56363386413757
 20
237.7905906975805
 30
0.0
 10
90.56363407640708
 20
237.7906118154565
 30
0.0
  0
LINE
  5
3C8
330
1F
100
AcDbEntity
  8
0
  6
Continuous
 62
     7
370
    15
100
AcDbLine
 10
90.4836340764
 20
238.6106006305
 30
0.0
 11
90.4836340764
 21
238.793977965
 31
0.0
  0
SPLINE
  5
3C9
330
1F
100
AcDbEntity
  8
0
  6
Continuous
 62
     7
370
    15
100
AcDbSpline
210
0.0
220
0.0
230
1.0
 70
     8
 71
     3
 72
    13
 73
     9
 74
     0
 42
0.00000001
 43
0.00000001
 40
0.0
 40
0.0
 40
0.0
 40
0.0
 40
0.0075462231144566
 40
0.2722763788513545
 40
0.4815195415731396
 40
0.6613541616922187
 40
0.8304588949397839
 40
1.0
 40
1.0
 40
1.0
 40
1.0
 10
90.48363407640707
 20
238.7939779650268
 30
0.0
 10
90.48363428867657
 20
238.7940354739642
 30
0.0
 10
90.48364194760339
 20
238.7961104623369
 30
0.0
 10
90.48441432491094
 20
238.7997987122351
 30
0.0
 10
90.48726224352909
 20
238.8043020222259
 30
0.0
 10
90.49097368373604
 20
238.8074191406261
 30
0.0
 10
90.49538273662806
 20
238.8094778751159
 30
0.0
 10
90.49865999992129
 20
238.8097485649968
 30
0.0
 10
90.50030074307374
 20
238.8098840843399
 30
0.0
  0
SPLINE
  5
3CA
330
1F
100
AcDbEntity
  8
0
  6
Continuous
 62
     7
370
    15
100
AcDbSpline
210
0.0
220
0.0
230
1.0
 70
     8
 71
     3
 72
    13
 73
     9
 74
     0
 42
0.00000001
 43
0.00000001
 40
0.0
 40
0.0
 40
0.0
 40
0.0
 40
0.0075462231144906
 40
0.2722763788512875
 40
0.4815195415730707
 40
0.6613541616921974
 40
0.8304588949397617
 40
0.9999999999999999
 40
0.9999999999999999
 40
0.9999999999999999
 40
0.9999999999999999
 10
90.48363407640709
 20
237.7906118154565
 30
0.0
 10
90.48363428867657
 20
237.7905906975805
 30
0.0
 10
90.4836419476034
 20
237.7898287404095
 30
0.0
 10
90.48441432491094
 20
237.7884814939664
 30
0.0
 10
90.48726224352909
 20
237.7868503731547
 30
0.0
 10
90.49097368373604
 20
237.7857279498683
 30
0.0
 10
90.49538273662807
 20
237.7849897867013
 30
0.0
 10
90.49865999992129
 20
237.7848929429945
 30
0.0
 10
90.50030074307375
 20
237.7848444587458
 30
0.0
  0
LINE
  5
3CB
330
1F
100
AcDbEntity
  8
0
  6
Continuous
 62
     7
370
    15
100
AcDbLine
 10
90.5003007431
 20
238.8098840843
 30
0.0
 11
90.5469674097
 21
238.8098840843
 31
0.0
  0
LINE
  5
3CC
330
1F
100
AcDbEntity
  8
0
  6
Continuous
 62
     7
370
    15
100
AcDbLine
 10
90.5003007431
 20
237.7848444587
 30
0.0
 11
90.5469674097
 21
237.7848444587
 31
0.0
  0
SPLINE
  5
3CD
330
1F
100
AcDbEntity
  8
0
  6
Continuous
 62
     7
370
    15
100
AcDbSpline
210
0.0
220
0.0
230
1.0
 70
     8
 71
     3
 72
    12
 73
     8
 74
     0
 42
0.00000001
 43
0.00000001
 40
0.0
 40
0.0
 40
0.0
 40
0.0
 40
0.2289440738516478
 40
0.4594214300241691
 40
0.6825355698157872
 40
0.894717523162839
 40
1.0
 40
1.0
 40
1.0
 40
1.0
 10
90.56363407640708
 20
237.7702818997591
 30
0.0
 10
90.56247844410191
 20
237.759234618029
 30
0.0
 10
90.56015944000063
 20
237.7370660688067
 30
0.0
 10
90.5419014502798
 20
237.7077972785379
 30
0.0
 10
90.51543234798096
 20
237.6867235599329
 30
0.0
 10
90.48870728202408
 20
237.6772589888847
 30
0.0
 10
90.47238158915162
 20
237.6764539860573
 30
0.0
 10
90.4669674097404
 20
237.6761870185375
 30
0.0
  0
SPLINE
  5
3CE
330
1F
100
AcDbEntity
  8
0
  6
Continuous
 62
     7
370
    15
100
AcDbSpline
210
0.0
220
0.0
230
1.0
 70
     8
 71
     3
 72
     9
 73
     5
 74
     0
 42
0.00000001
 43
0.00000001
 40
0.0
 40
0.0
 40
0.0
 40
0.0
 40
0.8454234797239341
 40
1.0
 40
1.0
 40
1.0
 40
1.0
 10
90.4669674097404
 20
237.5514649539627
 30
0.0
 10
90.47772911812402
 20
237.5518186455436
 30
0.0
 10
90.49045848824649
 20
237.5522370057966
 30
0.0
 10
90.50117957483685
 20
237.5582395768309
 30
0.0
 10
90.50283680309556
 20
237.5591674333741
 30
0.0
  0
LINE
  5
3CF
330
1F
100
AcDbEntity
  8
0
  6
Continuous
 62
     7
370
    15
100
AcDbLine
 10
90.4669674097
 20
237.551464954
 30
0.0
 11
90.4669674097
 21
237.6761870185
 31
0.0
  0
LINE
  5
3D0
330
1F
100
AcDbEntity
  8
0
  6
Continuous
 62
     7
370
    15
100
AcDbLine
 10
90.5636340764
 20
237.7702818998
 30
0.0
 11
90.5636340764
 21
237.6481289813
 31
0.0
  0
LINE
  5
3D1
330
1F
100
AcDbEntity
  8
0
  6
Continuous
 62
     7
370
    15
100
AcDbLine
 10
90.4669674097
 20
237.6761870185
 30
0.0
 11
90.4669674097
 21
237.6948660885
 31
0.0
  0
SPLINE
  5
3D2
330
1F
100
AcDbEntity
  8
0
  6
Continuous
 62
     7
370
    15
100
AcDbSpline
210
0.0
220
0.0
230
1.0
 70
     8
 71
     3
 72
    12
 73
     8
 74
     0
 42
0.00000001
 43
0.00000001
 40
0.0
 40
0.0
 40
0.0
 40
0.0
 40
0.1044203826439618
 40
0.3151731030979954
 40
0.5377472974586579
 40
0.7690283494735294
 40
1.0
 40
1.0
 40
1.0
 40
1.0
 10
90.4669674097404
 20
237.6948660884683
 30
0.0
 10
90.47144871431617
 20
237.6950933975443
 30
0.0
 10
90.48497468150104
 20
237.6957794868405
 30
0.0
 10
90.50713183917871
 20
237.7038640049018
 30
0.0
 10
90.52904149172895
 20
237.7218687387863
 30
0.0
 10
90.54411227258737
 20
237.7468960808686
 30
0.0
 10
90.54601612212653
 20
237.7658704477265
 30
0.0
 10
90.54696740974042
 20
237.7753512810603
 30
0.0
  0
LWPOLYLINE
  5
3D3
330
1F
100
AcDbEntity
  8
0
  6
Continuous
 62
     7
370
    15
100
AcDbPolyline
 90
        9
 70
   128
 43
0.0
 10
90.5636340764
 20
237.7702818998
 10
90.5633138311
 20
237.771270887
 10
90.5623654019
 20
237.772221868
 10
90.5608252366
 20
237.7730982971
 10
90.5587525228
 20
237.7738664937
 10
90.5562269136
 20
237.7744969363
 10
90.5533454669
 20
237.7749653974
 10
90.5502189151
 20
237.7752538743
 10
90.5469674097
 20
237.7753512811
  0
LINE
  5
3D4
330
1F
100
AcDbEntity
  8
0
  6
Continuous
 62
     7
370
    15
100
AcDbLine
 10
90.4669674097
 20
237.6761870185
 30
0.0
 11
90.1269674097
 21
237.6761870185
 31
0.0
  0
LINE
  5
3D5
330
1F
100
AcDbEntity
  8
0
  6
Continuous
 62
     7
370
    15
100
AcDbLine
 10
90.1269674097
 20
237.6761870185
 30
0.0
 11
90.1269674097
 21
237.6948660885
 31
0.0
  0
LINE
  5
3D6
330
1F
100
AcDbEntity
  8
0
  6
Continuous
 62
     7
370
    15
100
AcDbLine
 10
90.1269674097
 20
237.6948660885
 30
0.0
 11
90.4669674097
 21
237.6948660885
 31
0.0
  0
LWPOLYLINE
  5
3D7
330
1F
100
AcDbEntity
  8
0
  6
Continuous
 62
     7
370
    15
100
AcDbPolyline
 90
        9
 70
   128
 43
0.0
 10
90.1103007431
 20
237.6897967072
 10
90.1106209884
 20
237.6907856944
 10
90.1115694175
 20
237.6917366754
 10
90.1131095829
 20
237.6926131045
 10
90.1151822967
 20
237.6933813011
 10
90.1177079059
 20
237.6940117437
 10
90.1205893525
 20
237.6944802048
 10
90.1237159044
 20
237.6947686817
 10
90.1269674097
 20
237.6948660885
  0
ARC
  5
3D8
330
1F
100
AcDbEntity
  8
0
  6
Continuous
 62
     7
370
    15
100
AcDbCircle
 10
90.1255790974
 20
237.6914968591
 30
0.0
 40
0.0153726584813042
100
AcDbArc
 50
186.3496636826
 51
275.1814695152
  0
LINE
  5
3D9
330
1F
100
AcDbEntity
  8
0
  6
Continuous
 62
     7
370
    15
100
AcDbLine
 10
90.1269674097
 20
237.551464954
 30
0.0
 11
90.4669674097
 21
237.551464954
 31
0.0
  0
LINE
  5
3DA
330
1F
100
AcDbEntity
  8
0
  6
Continuous
 62
     7
370
    15
100
AcDbLine
 10
90.1269674097
 20
237.6761870185
 30
0.0
 11
90.1269674097
 21
237.551464954
 31
0.0
  0
ARC
  5
3DB
330
1F
100
AcDbEntity
  8
0
  6
Continuous
 62
     7
370
    15
100
AcDbCircle
 10
90.1269673774
 20
237.5681315883
 30
0.0
 40
0.0166666343219533
100
AcDbArc
 50
180.0001111936
 51
270.0001111934
  0
LINE
  5
3DC
330
1F
100
AcDbEntity
  8
0
  6
Continuous
 62
     7
370
    15
100
AcDbLine
 10
90.1103007431
 20
237.5681315559
 30
0.0
 11
90.1103007431
 21
237.6897967072
 31
0.0
  0
LINE
  5
3DD
330
1F
100
AcDbEntity
  8
0
  6
Continuous
 62
     7
370
    15
100
AcDbLine
 10
90.5469674097
 20
237.7753512811
 30
0.0
 11
90.5469674097
 21
237.7848444587
 31
0.0
  0
LINE
  5
3DE
330
1F
100
AcDbEntity
  8
0
  6
Continuous
 62
     7
370
    15
100
AcDbLine
 10
90.1269674097
 20
237.7416692473
 30
0.0
 11
90.1269674097
 21
237.6948660885
 31
0.0
  0
LINE
  5
3DF
330
1F
100
AcDbEntity
  8
0
  6
Continuous
 62
     7
370
    15
100
AcDbLine
 10
90.4669674097
 20
237.7416692473
 30
0.0
 11
90.1269674097
 21
237.7416692473
 31
0.0
  0
SPLINE
  5
3E0
330
1F
100
AcDbEntity
  8
0
  6
Continuous
 62
     7
370
    15
100
AcDbSpline
210
0.0
220
0.0
230
1.0
 70
     8
 71
     3
 72
    12
 73
     8
 74
     0
 42
0.00000001
 43
0.00000001
 40
0.0
 40
0.0
 40
0.0
 40
0.0
 40
0.1009214352040159
 40
0.3119724040342815
 40
0.5359629038279008
 40
0.7681188099357731
 40
0.9999999999999999
 40
0.9999999999999999
 40
0.9999999999999999
 40
0.9999999999999999
 10
90.46696740974042
 20
237.7416692472924
 30
0.0
 10
90.46877547365189
 20
237.741758924743
 30
0.0
 10
90.47436463361547
 20
237.7420361392894
 30
0.0
 10
90.48359604710778
 20
237.7453798444234
 30
0.0
 10
90.49277748297239
 20
237.7529306203073
 30
0.0
 10
90.49909757945977
 20
237.763426283834
 30
0.0
 10
90.49989984685337
 20
237.7713778511289
 30
0.0
 10
90.50030074307375
 20
237.7753512810603
 30
0.0
  0
LINE
  5
3E1
330
1F
100
AcDbEntity
  8
0
  6
Continuous
 62
     7
370
    15
100
AcDbLine
 10
90.5003007431
 20
237.7848444587
 30
0.0
 11
90.5003007431
 21
237.7753512811
 31
0.0
  0
LINE
  5
3E2
330
1F
100
AcDbEntity
  8
0
  6
Continuous
 62
     7
370
    15
100
AcDbLine
 10
90.1103007431
 20
237.6897967072
 30
0.0
 11
90.1103007431
 21
237.736599866
 31
0.0
  0
LWPOLYLINE
  5
3E3
330
1F
100
AcDbEntity
  8
0
  6
Continuous
 62
     7
370
    15
100
AcDbPolyline
 90
        9
 70
   128
 43
0.0
 10
90.1103007431
 20
237.736599866
 10
90.1106209884
 20
237.7375888532
 10
90.1115694175
 20
237.7385398342
 10
90.1131095829
 20
237.7394162633
 10
90.1151822967
 20
237.7401844599
 10
90.1177079059
 20
237.7408149025
 10
90.1205893525
 20
237.7412833636
 10
90.1237159044
 20
237.7415718406
 10
90.1269674097
 20
237.7416692473
  0
LWPOLYLINE
  5
3E4
330
1F
100
AcDbEntity
  8
0
  6
Continuous
 62
     7
370
    15
100
AcDbPolyline
 90
        9
 70
   128
 43
0.0
 10
90.5003007431
 20
237.7753512811
 10
90.4970492377
 20
237.7752538743
 10
90.4939226859
 20
237.7749653974
 10
90.4910412392
 20
237.7744969363
 10
90.4885156301
 20
237.7738664937
 10
90.4864429162
 20
237.7730982971
 10
90.4849027509
 20
237.772221868
 10
90.4839543217
 20
237.771270887
 10
90.4836340764
 20
237.7702818998
  0
LINE
  5
3E5
330
1F
100
AcDbEntity
  8
0
  6
Continuous
 62
     7
370
    15
100
AcDbLine
 10
90.5636340764
 20
237.7906118155
 30
0.0
 11
90.5636340764
 21
237.7702818998
 31
0.0
  0
LINE
  5
3E6
330
1F
100
AcDbEntity
  8
0
  6
Continuous
 62
     7
370
    15
100
AcDbLine
 10
90.4836340764
 20
237.7702818998
 30
0.0
 11
90.4836340764
 21
237.7906118155
 31
0.0
  0
LWPOLYLINE
  5
3E7
330
1F
100
AcDbEntity
  8
0
  6
Continuous
 62
     7
370
    15
100
AcDbPolyline
 90
        9
 70
   128
 43
0.0
 10
90.4836340764
 20
238.8143078807
 10
90.4839543217
 20
238.815296868
 10
90.4849027509
 20
238.816247849
 10
90.4864429162
 20
238.8171242781
 10
90.4885156301
 20
238.8178924746
 10
90.4910412392
 20
238.8185229172
 10
90.4939226859
 20
238.8189913784
 10
90.4970492377
 20
238.8192798553
 10
90.5003007431
 20
238.819377262
  0
LINE
  5
3E8
330
1F
100
AcDbEntity
  8
0
  6
Continuous
 62
     7
370
    15
100
AcDbLine
 10
90.5003007431
 20
238.819377262
 30
0.0
 11
90.5003007431
 21
238.8098840843
 31
0.0
  0
LINE
  5
3E9
330
1F
100
AcDbEntity
  8
0
  6
Continuous
 62
     7
370
    15
100
AcDbLine
 10
90.4836340764
 20
238.793977965
 30
0.0
 11
90.4836340764
 21
238.8143078807
 31
0.0
  0
LINE
  5
3EA
330
1F
100
AcDbEntity
  8
0
  6
Continuous
 62
     7
370
    15
100
AcDbLine
 10
90.5469674097
 20
238.8098840843
 30
0.0
 11
90.5469674097
 21
238.819377262
 31
0.0
  0
LWPOLYLINE
  5
3EB
330
1F
100
AcDbEntity
  8
0
  6
Continuous
 62
     7
370
    15
100
AcDbPolyline
 90
        9
 70
   128
 43
0.0
 10
90.5469674097
 20
238.819377262
 10
90.5502189151
 20
238.8192798553
 10
90.5533454669
 20
238.8189913784
 10
90.5562269136
 20
238.8185229172
 10
90.5587525228
 20
238.8178924746
 10
90.5608252366
 20
238.8171242781
 10
90.5623654019
 20
238.816247849
 10
90.5633138311
 20
238.815296868
 10
90.5636340764
 20
238.8143078807
  0
LINE
  5
3EC
330
1F
100
AcDbEntity
  8
0
  6
Continuous
 62
     7
370
    15
100
AcDbLine
 10
90.5636340764
 20
238.8143078807
 30
0.0
 11
90.5636340764
 21
238.793977965
 31
0.0
  0
LINE
  5
3ED
330
1F
100
AcDbEntity
  8
0
  6
Continuous
 62
     7
370
    15
100
AcDbLine
 10
90.1269674097
 20
238.8530592958
 30
0.0
 11
90.4669674097
 21
238.8530592958
 31
0.0
  0
LINE
  5
3EE
330
1F
100
AcDbEntity
  8
0
  6
Continuous
 62
     7
370
    15
100
AcDbLine
 10
90.1269674097
 20
238.8998624546
 30
0.0
 11
90.1269674097
 21
238.8530592958
 31
0.0
  0
LINE
  5
3EF
330
1F
100
AcDbEntity
  8
0
  6
Continuous
 62
     7
370
    15
100
AcDbLine
 10
90.4669674097
 20
238.8998624546
 30
0.0
 11
90.1269674097
 21
238.8998624546
 31
0.0
  0
SPLINE
  5
3F0
330
1F
100
AcDbEntity
  8
0
  6
Continuous
 62
     7
370
    15
100
AcDbSpline
210
0.0
220
0.0
230
1.0
 70
     8
 71
     3
 72
    12
 73
     8
 74
     0
 42
0.00000001
 43
0.00000001
 40
0.0
 40
0.0
 40
0.0
 40
0.0
 40
0.1789601577904576
 40
0.392900916938182
 40
0.5976976172812882
 40
0.7987833678438683
 40
0.9999999999999999
 40
0.9999999999999999
 40
0.9999999999999999
 40
0.9999999999999999
 10
90.5469674097404
 20
238.8193772620254
 30
0.0
 10
90.5463932784168
 20
238.8267097698642
 30
0.0
 10
90.54513279269602
 20
238.8428080405011
 30
0.0
 10
90.53423039101924
 20
238.8656137668323
 30
0.0
 10
90.5161922369015
 20
238.8846009058695
 30
0.0
 10
90.49298356226419
 20
238.8973898518417
 30
0.0
 10
90.47564134123796
 20
238.8990380749526
 30
0.0
 10
90.4669674097404
 20
238.8998624546174
 30
0.0
  0
SPLINE
  5
3F1
330
1F
100
AcDbEntity
  8
0
  6
Continuous
 62
     7
370
    15
100
AcDbSpline
210
0.0
220
0.0
230
1.0
 70
     8
 71
     3
 72
    12
 73
     8
 74
     0
 42
0.00000001
 43
0.00000001
 40
0.0
 40
0.0
 40
0.0
 40
0.0
 40
0.1818603118647193
 40
0.3964966430178591
 40
0.6005836871109238
 40
0.8002123703306616
 40
1.0
 40
1.0
 40
1.0
 40
1.0
 10
90.50030074307374
 20
238.8193772620254
 30
0.0
 10
90.50005289296747
 20
238.8224883812898
 30
0.0
 10
90.49951252363623
 20
238.8292713254723
 30
0.0
 10
90.49490221036913
 20
238.8388227728921
 30
0.0
 10
90.48737958323886
 20
238.8467183851934
 30
0.0
 10
90.47775150985585
 20
238.8520307153825
 30
0.0
 10
90.47056306331869
 20
238.8527163447084
 30
0.0
 10
90.4669674097404
 20
238.8530592957933
 30
0.0
  0
LINE
  5
3F2
330
1F
100
AcDbEntity
  8
0
  6
Continuous
 62
     7
370
    15
100
AcDbLine
 10
90.4669674097
 20
238.8998624546
 30
0.0
 11
90.4669674097
 21
238.9114596753
 31
0.0
  0
SPLINE
  5
3F3
330
1F
100
AcDbEntity
  8
0
  6
Continuous
 62
     7
370
    15
100
AcDbSpline
210
0.0
220
0.0
230
1.0
 70
     8
 71
     3
 72
    12
 73
     8
 74
     0
 42
0.00000001
 43
0.00000001
 40
0.0
 40
0.0
 40
0.0
 40
0.0
 40
0.2028202020467091
 40
0.4049472449426301
 40
0.6098312030740375
 40
0.8226939241827074
 40
1.0
 40
1.0
 40
1.0
 40
1.0
 10
90.4669674097404
 20
238.9114596752933
 30
0.0
 10
90.4774434657761
 20
238.9104655955465
 30
0.0
 10
90.49835977483559
 20
238.9084808334238
 30
0.0
 10
90.52638619153356
 20
238.8930645757367
 30
0.0
 10
90.54819142722954
 20
238.8701583105153
 30
0.0
 10
90.56140537831395
 20
238.8426225050182
 30
0.0
 10
90.56293772537542
 20
238.8231547128272
 30
0.0
 10
90.56363407640707
 20
238.8143078807242
 30
0.0
  0
SPLINE
  5
3F4
330
1F
100
AcDbEntity
  8
0
  6
Continuous
 62
     7
370
    15
100
AcDbSpline
210
0.0
220
0.0
230
1.0
 70
     8
 71
     3
 72
    12
 73
     8
 74
     0
 42
0.00000001
 43
0.00000001
 40
0.0
 40
0.0
 40
0.0
 40
0.0
 40
0.1947219538556658
 40
0.4187768971764232
 40
0.6230742393893177
 40
0.8142730248047751
 40
1.0
 40
1.0
 40
1.0
 40
1.0
 10
90.48363407640707
 20
238.8143078807242
 30
0.0
 10
90.48351253512298
 20
238.8158786112453
 30
0.0
 10
90.48325114352937
 20
238.8192566877327
 30
0.0
 10
90.48100096709723
 20
238.8240528383618
 30
0.0
 10
90.47727139308306
 20
238.8280559802752
 30
0.0
 10
90.47244207427929
 20
238.8307905103544
 30
0.0
 10
90.46877455084238
 20
238.8311499135219
 30
0.0
 10
90.4669674097404
 20
238.8313270063877
 30
0.0
  0
LINE
  5
3F5
330
1F
100
AcDbEntity
  8
0
  6
Continuous
 62
     7
370
    15
100
AcDbLine
 10
90.5636340764
 20
238.814795648
 30
0.0
 11
90.5636340764
 21
238.8143078807
 31
0.0
  0
ARC
  5
3F6
330
1F
100
AcDbEntity
  8
0
  6
Continuous
 62
     7
370
    15
100
AcDbCircle
 10
90.1269655307
 20
238.847991794
 30
0.0
 40
0.0166647877034642
100
AcDbArc
 50
180.0064619497
 51
270.0064604925
  0
LWPOLYLINE
  5
3F7
330
1F
100
AcDbEntity
  8
0
  6
Continuous
 62
     7
370
    15
100
AcDbPolyline
 90
        9
 70
   128
 43
0.0
 10
90.1269674097
 20
238.8530592958
 10
90.1237159044
 20
238.8529618891
 10
90.1205893525
 20
238.8526734121
 10
90.1177079059
 20
238.852204951
 10
90.1151822967
 20
238.8515745084
 10
90.1131095829
 20
238.8508063118
 10
90.1115694175
 20
238.8499298827
 10
90.1106209884
 20
238.8489789017
 10
90.1103007431
 20
238.8479899145
  0
LINE
  5
3F8
330
1F
100
AcDbEntity
  8
0
  6
Continuous
 62
     7
370
    15
100
AcDbLine
 10
90.1103007431
 20
238.8479899145
 30
0.0
 11
90.1103007431
 21
238.8947930733
 31
0.0
  0
LWPOLYLINE
  5
3F9
330
1F
100
AcDbEntity
  8
0
  6
Continuous
 62
     7
370
    15
100
AcDbPolyline
 90
        9
 70
   128
 43
0.0
 10
90.1269674097
 20
238.8998624546
 10
90.1237159044
 20
238.8997650479
 10
90.1205893525
 20
238.8994765709
 10
90.1177079059
 20
238.8990081098
 10
90.1151822967
 20
238.8983776672
 10
90.1131095829
 20
238.8976094707
 10
90.1115694175
 20
238.8967330416
 10
90.1106209884
 20
238.8957820605
 10
90.1103007431
 20
238.8947930733
  0
ARC
  5
3FA
330
1F
100
AcDbEntity
  8
0
  6
Continuous
 62
     7
370
    15
100
AcDbCircle
 10
90.1254839663
 20
238.7281733378
 30
0.0
 40
0.0152953423068705
100
AcDbArc
 50
186.9416605483
 51
275.5656723022
  0
LINE
  5
3FB
330
1F
100
AcDbEntity
  8
0
  6
Continuous
 62
     7
370
    15
100
AcDbLine
 10
90.1103007431
 20
238.7263247633
 30
0.0
 11
90.1103007431
 21
238.8479899145
 31
0.0
  0
LINE
  5
3FC
330
1F
100
AcDbEntity
  8
0
  6
Continuous
 62
     7
370
    15
100
AcDbLine
 10
90.1269674097
 20
238.8998624546
 30
0.0
 11
90.1269674097
 21
238.9114596753
 31
0.0
  0
LINE
  5
3FD
330
1F
100
AcDbEntity
  8
0
  6
Continuous
 62
     7
370
    15
100
AcDbLine
 10
90.1269674097
 20
238.9114596753
 30
0.0
 11
90.4669674097
 21
238.9114596753
 31
0.0
  0
ARC
  5
3FE
330
1F
100
AcDbEntity
  8
0
  6
Continuous
 62
     7
370
    15
100
AcDbCircle
 10
90.1269673774
 20
238.894793041
 30
0.0
 40
0.0166666343220102
100
AcDbArc
 50
89.9998888068
 51
179.9998888063
  0
LINE
  5
3FF
330
1F
100
AcDbEntity
  8
0
  6
Continuous
 62
     7
370
    15
100
AcDbLine
 10
90.3738619439
 20
238.4263633156
 30
0.0
 11
90.4036340764
 21
238.2339184503
 31
0.0
  0
SPLINE
  5
400
330
1F
100
AcDbEntity
  8
0
  6
Continuous
 62
     7
370
    15
100
AcDbSpline
210
0.0
220
0.0
230
1.0
 70
     8
 71
     3
 72
     9
 73
     5
 74
     0
 42
0.00000001
 43
0.00000001
 40
0.0
 40
0.0
 40
0.0
 40
0.0
 40
0.0702005767034311
 40
1.0
 40
1.0
 40
1.0
 40
1.0
 10
90.40363407640707
 20
238.2339184503057
 30
0.0
 10
90.40360433532257
 20
238.2293563683144
 30
0.0
 10
90.40318067663056
 20
238.1643699792346
 30
0.0
 10
90.38798804450418
 20
238.1006864726912
 30
0.0
 10
90.37386194391472
 20
238.0414735850337
 30
0.0
  0
LINE
  5
401
330
1F
100
AcDbEntity
  8
0
  6
Continuous
 62
     7
370
    15
100
AcDbLine
 10
90.3738619439
 20
238.041473585
 30
0.0
 11
90.0867395422
 21
238.041473585
 31
0.0
  0
SPLINE
  5
402
330
1F
100
AcDbEntity
  8
0
  6
Continuous
 62
     7
370
    15
100
AcDbSpline
210
0.0
220
0.0
230
1.0
 70
     8
 71
     3
 72
     9
 73
     5
 74
     0
 42
0.00000001
 43
0.00000001
 40
0.0
 40
0.0
 40
0.0
 40
0.0
 40
0.0702005767034219
 40
1.0
 40
1.0
 40
1.0
 40
1.0
 10
90.05696740974041
 20
238.2339184503057
 30
0.0
 10
90.05699715082491
 20
238.2293563683144
 30
0.0
 10
90.05742080951696
 20
238.1643699792346
 30
0.0
 10
90.0726134416433
 20
238.1006864726912
 30
0.0
 10
90.08673954223276
 20
238.0414735850337
 30
0.0
  0
LINE
  5
403
330
1F
100
AcDbEntity
  8
0
  6
Continuous
 62
     7
370
    15
100
AcDbLine
 10
90.0867395422
 20
238.4263633156
 30
0.0
 11
90.0569674097
 21
238.2339184503
 31
0.0
  0
LINE
  5
404
330
1F
100
AcDbEntity
  8
0
  6
Continuous
 62
     7
370
    15
100
AcDbLine
 10
90.3738619439
 20
238.4263633156
 30
0.0
 11
90.0867395422
 21
238.4263633156
 31
0.0
  0
SPLINE
  5
405
330
1F
100
AcDbEntity
  8
0
  6
Continuous
 62
     7
370
    15
100
AcDbSpline
210
0.0
220
0.0
230
1.0
 70
     8
 71
     3
 72
     9
 73
     5
 74
     0
 42
0.00000001
 43
0.00000001
 40
0.0
 40
0.0
 40
0.0
 40
0.0
 40
0.2575513451038123
 40
0.9999999999999999
 40
0.9999999999999999
 40
0.9999999999999999
 40
0.9999999999999999
 10
90.37386194391472
 20
238.0414735850337
 30
0.0
 10
90.37835629209972
 20
238.0332924462056
 30
0.0
 10
90.39580659189599
 20
238.0015273671892
 30
0.0
 10
90.40029882441549
 20
237.9685253717107
 30
0.0
 10
90.40363407640707
 20
237.9440230845589
 30
0.0
  0
SPLINE
  5
406
330
1F
100
AcDbEntity
  8
0
  6
Continuous
 62
     7
370
    15
100
AcDbSpline
210
0.0
220
0.0
230
1.0
 70
     8
 71
     3
 72
     9
 73
     5
 74
     0
 42
0.00000001
 43
0.00000001
 40
0.0
 40
0.0
 40
0.0
 40
0.0
 40
0.2575513451038178
 40
1.0
 40
1.0
 40
1.0
 40
1.0
 10
90.08673954223276
 20
238.0414735850337
 30
0.0
 10
90.08224519404776
 20
238.0332924462057
 30
0.0
 10
90.0647948942515
 20
238.0015273671892
 30
0.0
 10
90.060302661732
 20
237.9685253717107
 30
0.0
 10
90.05696740974041
 20
237.9440230845589
 30
0.0
  0
LINE
  5
407
330
1F
100
AcDbEntity
  8
0
  6
Continuous
 62
     7
370
    15
100
AcDbLine
 10
90.0569674097
 20
237.9440230846
 30
0.0
 11
90.0569674097
 21
238.2339184503
 31
0.0
  0
SPLINE
  5
408
330
1F
100
AcDbEntity
  8
0
  6
Continuous
 62
     7
370
    15
100
AcDbSpline
210
0.0
220
0.0
230
1.0
 70
     8
 71
     3
 72
     9
 73
     5
 74
     0
 42
0.00000001
 43
0.00000001
 40
0.0
 40
0.0
 40
0.0
 40
0.0
 40
0.0702005767034364
 40
1.0
 40
1.0
 40
1.0
 40
1.0
 10
90.40363407640707
 20
238.5213576803748
 30
0.0
 10
90.40360433532257
 20
238.5191057518533
 30
0.0
 10
90.40318067663054
 20
238.487027261516
 30
0.0
 10
90.38798804450418
 20
238.4555918982311
 30
0.0
 10
90.37386194391472
 20
238.4263633155776
 30
0.0
  0
SPLINE
  5
409
330
1F
100
AcDbEntity
  8
0
  6
Continuous
 62
     7
370
    15
100
AcDbSpline
210
0.0
220
0.0
230
1.0
 70
     8
 71
     3
 72
     9
 73
     5
 74
     0
 42
0.00000001
 43
0.00000001
 40
0.0
 40
0.0
 40
0.0
 40
0.0
 40
0.0702005767034318
 40
1.0
 40
1.0
 40
1.0
 40
1.0
 10
90.05696740974041
 20
238.5213576803748
 30
0.0
 10
90.05699715082491
 20
238.5191057518533
 30
0.0
 10
90.05742080951696
 20
238.487027261516
 30
0.0
 10
90.0726134416433
 20
238.4555918982311
 30
0.0
 10
90.08673954223276
 20
238.4263633155776
 30
0.0
  0
LINE
  5
40A
330
1F
100
AcDbEntity
  8
0
  6
Continuous
 62
     7
370
    15
100
AcDbLine
 10
90.0569674097
 20
238.2339184503
 30
0.0
 11
90.0569674097
 21
238.5213576804
 31
0.0
  0
SPLINE
  5
40B
330
1F
100
AcDbEntity
  8
0
  6
Continuous
 62
     7
370
    15
100
AcDbSpline
210
0.0
220
0.0
230
1.0
 70
     8
 71
     3
 72
     9
 73
     5
 74
     0
 42
0.00000001
 43
0.00000001
 40
0.0
 40
0.0
 40
0.0
 40
0.0
 40
0.2686336050555606
 40
1.0
 40
1.0
 40
1.0
 40
1.0
 10
90.40363407640707
 20
237.9440230845589
 30
0.0
 10
90.40319214623479
 20
237.9351621072215
 30
0.0
 10
90.4015470424057
 20
237.9021767428788
 30
0.0
 10
90.38555672483236
 20
237.87006097642
 30
0.0
 10
90.37386194391472
 20
237.8465725840841
 30
0.0
  0
LINE
  5
40C
330
1F
100
AcDbEntity
  8
0
  6
Continuous
 62
     7
370
    15
100
AcDbLine
 10
90.3738619439
 20
237.8465725841
 30
0.0
 11
90.0867395422
 21
237.8465725841
 31
0.0
  0
SPLINE
  5
40D
330
1F
100
AcDbEntity
  8
0
  6
Continuous
 62
     7
370
    15
100
AcDbSpline
210
0.0
220
0.0
230
1.0
 70
     8
 71
     3
 72
     9
 73
     5
 74
     0
 42
0.00000001
 43
0.00000001
 40
0.0
 40
0.0
 40
0.0
 40
0.0
 40
0.2686336050555632
 40
1.0
 40
1.0
 40
1.0
 40
1.0
 10
90.05696740974041
 20
237.9440230845589
 30
0.0
 10
90.05740933991271
 20
237.9351621072215
 30
0.0
 10
90.05905444374179
 20
237.9021767428788
 30
0.0
 10
90.07504476131513
 20
237.87006097642
 30
0.0
 10
90.08673954223276
 20
237.8465725840841
 30
0.0
  0
LINE
  5
40E
330
1F
100
AcDbEntity
  8
0
  6
Continuous
 62
     7
370
    15
100
AcDbLine
 10
90.3738619439
 20
238.6163520452
 30
0.0
 11
90.4036340764
 21
238.5213576804
 31
0.0
  0
LINE
  5
40F
330
1F
100
AcDbEntity
  8
0
  6
Continuous
 62
     7
370
    15
100
AcDbLine
 10
90.0867395422
 20
238.6163520452
 30
0.0
 11
90.0569674097
 21
238.5213576804
 31
0.0
  0
LINE
  5
410
330
1F
100
AcDbEntity
  8
0
  6
Continuous
 62
     7
370
    15
100
AcDbLine
 10
90.3738619439
 20
238.6163520452
 30
0.0
 11
90.0867395422
 21
238.6163520452
 31
0.0
  0
LINE
  5
411
330
1F
100
AcDbEntity
  8
0
  6
Continuous
 62
     7
370
    15
100
AcDbLine
 10
90.0569674097
 20
237.8981289813
 30
0.0
 11
90.0569674097
 21
237.9440230846
 31
0.0
  0
LINE
  5
412
330
1F
100
AcDbEntity
  8
0
  6
Continuous
 62
     7
370
    15
100
AcDbLine
 10
90.0569674097
 20
238.5213576804
 30
0.0
 11
90.0569674097
 21
238.564795648
 31
0.0
  0
LINE
  5
413
330
1F
100
AcDbEntity
  8
0
  6
Continuous
 62
     7
370
    15
100
AcDbLine
 10
90.8805286106
 20
238.5255085596
 30
0.0
 11
90.9103007431
 21
238.3444519898
 31
0.0
  0
SPLINE
  5
414
330
1F
100
AcDbEntity
  8
0
  6
Continuous
 62
     7
370
    15
100
AcDbSpline
210
0.0
220
0.0
230
1.0
 70
     8
 71
     3
 72
     9
 73
     5
 74
     0
 42
0.00000001
 43
0.00000001
 40
0.0
 40
0.0
 40
0.0
 40
0.0
 40
0.070200576703421
 40
1.0
 40
1.0
 40
1.0
 40
1.0
 10
90.91030074307375
 20
238.3444519898331
 30
0.0
 10
90.91027100198923
 20
238.3401598778282
 30
0.0
 10
90.90984734329722
 20
238.2790191834576
 30
0.0
 10
90.89465471117084
 20
238.2191042710407
 30
0.0
 10
90.8805286105814
 20
238.1633954200285
 30
0.0
  0
LINE
  5
415
330
1F
100
AcDbEntity
  8
0
  6
Continuous
 62
     7
370
    15
100
AcDbLine
 10
90.8805286106
 20
238.16339542
 30
0.0
 11
90.5934062089
 21
238.16339542
 31
0.0
  0
LINE
  5
416
330
1F
100
AcDbEntity
  8
0
  6
Continuous
 62
     7
370
    15
100
AcDbLine
 10
90.5794675718
 20
238.2425672361
 30
0.0
 11
90.5934062089
 21
238.16339542
 31
0.0
  0
LINE
  5
417
330
1F
100
AcDbEntity
  8
0
  6
Continuous
 62
     7
370
    15
100
AcDbLine
 10
90.8805286106
 20
238.5255085596
 30
0.0
 11
90.8569674097
 21
238.5255085596
 31
0.0
  0
SPLINE
  5
418
330
1F
100
AcDbEntity
  8
0
  6
Continuous
 62
     7
370
    15
100
AcDbSpline
210
0.0
220
0.0
230
1.0
 70
     8
 71
     3
 72
     9
 73
     5
 74
     0
 42
0.00000001
 43
0.00000001
 40
0.0
 40
0.0
 40
0.0
 40
0.0
 40
0.2575513451037996
 40
1.0
 40
1.0
 40
1.0
 40
1.0
 10
90.59340620889941
 20
238.1633954200285
 30
0.0
 10
90.58891186071442
 20
238.1510525734522
 30
0.0
 10
90.57146156091817
 20
238.1031287446277
 30
0.0
 10
90.56696932839867
 20
238.0533387856179
 30
0.0
 10
90.56363407640708
 20
238.0163722975237
 30
0.0
  0
SPLINE
  5
419
330
1F
100
AcDbEntity
  8
0
  6
Continuous
 62
     7
370
    15
100
AcDbSpline
210
0.0
220
0.0
230
1.0
 70
     8
 71
     3
 72
     9
 73
     5
 74
     0
 42
0.00000001
 43
0.00000001
 40
0.0
 40
0.0
 40
0.0
 40
0.0
 40
0.2575513451038083
 40
1.0
 40
1.0
 40
1.0
 40
1.0
 10
90.8805286105814
 20
238.1633954200285
 30
0.0
 10
90.88502295876638
 20
238.1510525734522
 30
0.0
 10
90.90247325856265
 20
238.1031287446277
 30
0.0
 10
90.90696549108215
 20
238.0533387856179
 30
0.0
 10
90.91030074307375
 20
238.0163722975237
 30
0.0
  0
LINE
  5
41A
330
1F
100
AcDbEntity
  8
0
  6
Continuous
 62
     7
370
    15
100
AcDbLine
 10
90.9103007431
 20
238.3444519898
 30
0.0
 11
90.9103007431
 21
238.0163722975
 31
0.0
  0
SPLINE
  5
41B
330
1F
100
AcDbEntity
  8
0
  6
Continuous
 62
     7
370
    15
100
AcDbSpline
210
0.0
220
0.0
230
1.0
 70
     8
 71
     3
 72
     9
 73
     5
 74
     0
 42
0.00000001
 43
0.00000001
 40
0.0
 40
0.0
 40
0.0
 40
0.0
 40
0.2686336050555566
 40
1.0
 40
1.0
 40
1.0
 40
1.0
 10
90.91030074307375
 20
238.0163722975237
 30
0.0
 10
90.90985881290143
 20
238.0030037817106
 30
0.0
 10
90.90821370907236
 20
237.953238914019
 30
0.0
 10
90.89222339149902
 20
237.9047860046608
 30
0.0
 10
90.8805286105814
 20
237.8693491750189
 30
0.0
  0
LINE
  5
41C
330
1F
100
AcDbEntity
  8
0
  6
Continuous
 62
     7
370
    15
100
AcDbLine
 10
90.8805286106
 20
237.869349175
 30
0.0
 11
90.5934062089
 21
237.869349175
 31
0.0
  0
SPLINE
  5
41D
330
1F
100
AcDbEntity
  8
0
  6
Continuous
 62
     7
370
    15
100
AcDbSpline
210
0.0
220
0.0
230
1.0
 70
     8
 71
     3
 72
     9
 73
     5
 74
     0
 42
0.00000001
 43
0.00000001
 40
0.0
 40
0.0
 40
0.0
 40
0.0
 40
0.268633605055558
 40
1.0
 40
1.0
 40
1.0
 40
1.0
 10
90.56363407640708
 20
238.0163722975237
 30
0.0
 10
90.56407600657937
 20
238.0030037817106
 30
0.0
 10
90.56572111040846
 20
237.953238914019
 30
0.0
 10
90.5817114279818
 20
237.9047860046608
 30
0.0
 10
90.59340620889942
 20
237.8693491750189
 30
0.0
  0
SPLINE
  5
41E
330
1F
100
AcDbEntity
  8
0
  6
Continuous
 62
     7
370
    15
100
AcDbSpline
210
0.0
220
0.0
230
1.0
 70
     8
 71
     3
 72
     9
 73
     5
 74
     0
 42
0.00000001
 43
0.00000001
 40
0.0
 40
0.0
 40
0.0
 40
0.0
 40
0.0702005767034291
 40
0.9999999999999999
 40
0.9999999999999999
 40
0.9999999999999999
 40
0.9999999999999999
 10
90.91030074307375
 20
238.5595420069374
 30
0.0
 10
90.91027100198923
 20
238.5587352128626
 30
0.0
 10
90.90984734329722
 20
238.5472425141884
 30
0.0
 10
90.89465471117084
 20
238.5359802273992
 30
0.0
 10
90.8805286105814
 20
238.5255085596376
 30
0.0
  0
LINE
  5
41F
330
1F
100
AcDbEntity
  8
0
  6
Continuous
 62
     7
370
    15
100
AcDbLine
 10
90.9103007431
 20
238.5595420069
 30
0.0
 11
90.9103007431
 21
238.3444519898
 31
0.0
  0
LINE
  5
420
330
1F
100
AcDbEntity
  8
0
  6
Continuous
 62
     7
370
    15
100
AcDbLine
 10
90.5934062089
 20
237.869349175
 30
0.0
 11
90.5636340764
 21
237.9033826223
 31
0.0
  0
LINE
  5
421
330
1F
100
AcDbEntity
  8
0
  6
Continuous
 62
     7
370
    15
100
AcDbLine
 10
90.8805286106
 20
237.869349175
 30
0.0
 11
90.9103007431
 21
237.9033826223
 31
0.0
  0
LINE
  5
422
330
1F
100
AcDbEntity
  8
0
  6
Continuous
 62
     7
370
    15
100
AcDbLine
 10
90.9103007431
 20
238.0163722975
 30
0.0
 11
90.9103007431
 21
237.898495176
 31
0.0
  0
LINE
  5
423
330
1F
100
AcDbEntity
  8
0
  6
Continuous
 62
     7
370
    15
100
AcDbLine
 10
90.8805286106
 20
238.5935754542
 30
0.0
 11
90.9103007431
 21
238.5595420069
 31
0.0
  0
LINE
  5
424
330
1F
100
AcDbEntity
  8
0
  6
Continuous
 62
     7
370
    15
100
AcDbLine
 10
90.8805286106
 20
238.5935754542
 30
0.0
 11
90.8569674097
 21
238.5935754542
 31
0.0
  0
LINE
  5
425
330
1F
100
AcDbEntity
  8
0
  6
Continuous
 62
     7
370
    15
100
AcDbLine
 10
91.2438619439
 20
238.6082608165
 30
0.0
 11
91.2736340764
 21
238.4800454672
 31
0.0
  0
SPLINE
  5
426
330
1F
100
AcDbEntity
  8
0
  6
Continuous
 62
     7
370
    15
100
AcDbSpline
210
0.0
220
0.0
230
1.0
 70
     8
 71
     3
 72
     9
 73
     5
 74
     0
 42
0.00000001
 43
0.00000001
 40
0.0
 40
0.0
 40
0.0
 40
0.0
 40
0.0702005767034217
 40
1.0
 40
1.0
 40
1.0
 40
1.0
 10
91.27363407640706
 20
238.4800454671715
 30
0.0
 10
91.27360433532257
 20
238.477006004751
 30
0.0
 10
91.27318067663055
 20
238.4337091749637
 30
0.0
 10
91.25798804450416
 20
238.3912803836104
 30
0.0
 10
91.24386194391472
 20
238.351830117879
 30
0.0
  0
LINE
  5
427
330
1F
100
AcDbEntity
  8
0
  6
Continuous
 62
     7
370
    15
100
AcDbLine
 10
91.2438619439
 20
238.3518301179
 30
0.0
 11
90.9567395422
 21
238.3518301179
 31
0.0
  0
SPLINE
  5
428
330
1F
100
AcDbEntity
  8
0
  6
Continuous
 62
     7
370
    15
100
AcDbSpline
210
0.0
220
0.0
230
1.0
 70
     8
 71
     3
 72
     9
 73
     5
 74
     0
 42
0.00000001
 43
0.00000001
 40
0.0
 40
0.0
 40
0.0
 40
0.0
 40
0.0702005767034212
 40
1.0
 40
1.0
 40
1.0
 40
1.0
 10
90.9269674097404
 20
238.4800454671715
 30
0.0
 10
90.92699715082492
 20
238.477006004751
 30
0.0
 10
90.92742080951693
 20
238.4337091749637
 30
0.0
 10
90.94261344164332
 20
238.3912803836104
 30
0.0
 10
90.95673954223275
 20
238.351830117879
 30
0.0
  0
LINE
  5
429
330
1F
100
AcDbEntity
  8
0
  6
Continuous
 62
     7
370
    15
100
AcDbLine
 10
90.9567395422
 20
238.6082608165
 30
0.0
 11
90.9269674097
 21
238.4800454672
 31
0.0
  0
LINE
  5
42A
330
1F
100
AcDbEntity
  8
0
  6
Continuous
 62
     7
370
    15
100
AcDbLine
 10
91.2438619439
 20
238.6082608165
 30
0.0
 11
90.9567395422
 21
238.6082608165
 31
0.0
  0
SPLINE
  5
42B
330
1F
100
AcDbEntity
  8
0
  6
Continuous
 62
     7
370
    15
100
AcDbSpline
210
0.0
220
0.0
230
1.0
 70
     8
 71
     3
 72
     9
 73
     5
 74
     0
 42
0.00000001
 43
0.00000001
 40
0.0
 40
0.0
 40
0.0
 40
0.0
 40
0.2575513451038111
 40
1.0
 40
1.0
 40
1.0
 40
1.0
 10
91.24386194391472
 20
238.351830117879
 30
0.0
 10
91.24835629209971
 20
238.3360136734344
 30
0.0
 10
91.26580659189598
 20
238.2746028334396
 30
0.0
 10
91.27029882441548
 20
238.2108006857171
 30
0.0
 10
91.27363407640706
 20
238.1634308669609
 30
0.0
  0
SPLINE
  5
42C
330
1F
100
AcDbEntity
  8
0
  6
Continuous
 62
     7
370
    15
100
AcDbSpline
210
0.0
220
0.0
230
1.0
 70
     8
 71
     3
 72
     9
 73
     5
 74
     0
 42
0.00000001
 43
0.00000001
 40
0.0
 40
0.0
 40
0.0
 40
0.0
 40
0.2575513451038024
 40
1.0
 40
1.0
 40
1.0
 40
1.0
 10
90.95673954223275
 20
238.351830117879
 30
0.0
 10
90.95224519404776
 20
238.3360136734344
 30
0.0
 10
90.9347948942515
 20
238.2746028334396
 30
0.0
 10
90.930302661732
 20
238.2108006857171
 30
0.0
 10
90.9269674097404
 20
238.1634308669609
 30
0.0
  0
LINE
  5
42D
330
1F
100
AcDbEntity
  8
0
  6
Continuous
 62
     7
370
    15
100
AcDbLine
 10
90.9269674097
 20
238.163430867
 30
0.0
 11
90.9269674097
 21
238.4800454672
 31
0.0
  0
SPLINE
  5
42E
330
1F
100
AcDbEntity
  8
0
  6
Continuous
 62
     7
370
    15
100
AcDbSpline
210
0.0
220
0.0
230
1.0
 70
     8
 71
     3
 72
     9
 73
     5
 74
     0
 42
0.00000001
 43
0.00000001
 40
0.0
 40
0.0
 40
0.0
 40
0.0
 40
0.2686336050555637
 40
1.0
 40
1.0
 40
1.0
 40
1.0
 10
91.27363407640706
 20
238.1634308669609
 30
0.0
 10
91.27319214623478
 20
238.1463001032949
 30
0.0
 10
91.2715470424057
 20
238.0825301082397
 30
0.0
 10
91.25555672483235
 20
238.0204412906961
 30
0.0
 10
91.24386194391474
 20
237.9750316160429
 30
0.0
  0
LINE
  5
42F
330
1F
100
AcDbEntity
  8
0
  6
Continuous
 62
     7
370
    15
100
AcDbLine
 10
91.2438619439
 20
237.975031616
 30
0.0
 11
90.9567395422
 21
237.975031616
 31
0.0
  0
SPLINE
  5
430
330
1F
100
AcDbEntity
  8
0
  6
Continuous
 62
     7
370
    15
100
AcDbSpline
210
0.0
220
0.0
230
1.0
 70
     8
 71
     3
 72
     9
 73
     5
 74
     0
 42
0.00000001
 43
0.00000001
 40
0.0
 40
0.0
 40
0.0
 40
0.0
 40
0.2686336050555657
 40
1.0
 40
1.0
 40
1.0
 40
1.0
 10
90.9269674097404
 20
238.1634308669609
 30
0.0
 10
90.9274093399127
 20
238.1463001032949
 30
0.0
 10
90.92905444374179
 20
238.0825301082397
 30
0.0
 10
90.94504476131513
 20
238.0204412906961
 30
0.0
 10
90.95673954223275
 20
237.9750316160429
 30
0.0
  0
LINE
  5
431
330
1F
100
AcDbEntity
  8
0
  6
Continuous
 62
     7
370
    15
100
AcDbLine
 10
90.9567395422
 20
237.975031616
 30
0.0
 11
90.9269674097
 21
237.9148477144
 31
0.0
  0
LINE
  5
432
330
1F
100
AcDbEntity
  8
0
  6
Continuous
 62
     7
370
    15
100
AcDbLine
 10
90.9269674097
 20
237.9148477144
 30
0.0
 11
90.9269674097
 21
238.163430867
 31
0.0
  0
LINE
  5
433
330
1F
100
AcDbEntity
  8
0
  6
Continuous
 62
     7
370
    15
100
AcDbLine
 10
91.2438619439
 20
237.975031616
 30
0.0
 11
91.2736340764
 21
237.9148477144
 31
0.0
  0
LINE
  5
434
330
1F
100
AcDbEntity
  8
0
  6
Continuous
 62
     7
370
    15
100
AcDbLine
 10
91.257548295
 20
237.8805044979
 30
0.0
 11
91.2438619439
 21
237.8546638128
 31
0.0
  0
LINE
  5
435
330
1F
100
AcDbEntity
  8
0
  6
Continuous
 62
     7
370
    15
100
AcDbLine
 10
91.2438619439
 20
237.8546638128
 30
0.0
 11
90.9567395422
 21
237.8546638128
 31
0.0
  0
SPLINE
  5
436
330
1F
100
AcDbEntity
  8
0
  6
Continuous
 62
     7
370
    15
100
AcDbSpline
210
0.0
220
0.0
230
1.0
 70
     8
 71
     3
 72
     9
 73
     5
 74
     0
 42
0.00000001
 43
0.00000001
 40
0.0
 40
0.0
 40
0.0
 40
0.0
 40
0.0702005767034272
 40
0.9999999999999999
 40
0.9999999999999999
 40
0.9999999999999999
 40
0.9999999999999999
 10
90.9269674097404
 20
237.9148477144174
 30
0.0
 10
90.92699715082492
 20
237.9134209998445
 30
0.0
 10
90.92742080951695
 20
237.8930975973892
 30
0.0
 10
90.94261344164332
 20
237.8731816495797
 30
0.0
 10
90.95673954223275
 20
237.8546638127919
 30
0.0
  0
LINE
  5
437
330
1F
100
AcDbEntity
  8
0
  6
Continuous
 62
     7
370
    15
100
AcDbLine
 10
90.9430531911
 20
238.5824201314
 30
0.0
 11
90.9567395422
 21
238.6082608165
 31
0.0
  0
LINE
  5
438
330
1F
100
AcDbEntity
  8
0
  6
Continuous
 62
     7
370
    15
100
AcDbLine
 10
90.9269674097
 20
238.4800454672
 30
0.0
 11
90.9269674097
 21
238.564795648
 31
0.0
  0
LINE
  5
439
330
1F
100
AcDbEntity
  8
0
  6
Continuous
 62
     7
370
    15
100
AcDbLine
 10
91.257548295
 20
238.5824201314
 30
0.0
 11
91.2438619439
 21
238.6082608165
 31
0.0
  0
LINE
  5
43A
330
1F
100
AcDbEntity
  8
0
  6
Continuous
 62
     7
370
    15
100
AcDbLine
 10
90.9269674097
 20
237.8981289813
 30
0.0
 11
90.9269674097
 21
237.9148477144
 31
0.0
  0
LINE
  5
43B
330
1F
100
AcDbEntity
  8
0
  6
Continuous
 62
     7
370
    15
100
AcDbLine
 10
91.2736340764
 20
238.0756890513
 30
0.0
 11
91.2736340764
 21
237.824795648
 31
0.0
  0
LINE
  5
43C
330
1F
100
AcDbEntity
  8
0
  6
Continuous
 62
     7
370
    15
100
AcDbLine
 10
91.2736340764
 20
238.6381289813
 30
0.0
 11
91.2736340764
 21
238.0756890513
 31
0.0
  0
CIRCLE
  5
43D
330
1F
100
AcDbEntity
  8
0
  6
Continuous
 62
     7
370
    15
100
AcDbCircle
 10
120.0705623566
 20
254.5953700114
 30
0.0
 40
0.1966666666666583
  0
ARC
  5
43E
330
1F
100
AcDbEntity
  8
0
  6
Continuous
 62
     7
370
    15
100
AcDbCircle
 10
120.0705623566
 20
254.5953700114
 30
0.0
 40
0.2666666666666657
100
AcDbArc
 50
180.0
 51
231.2461014813
  0
ARC
  5
43F
330
1F
100
AcDbEntity
  8
0
  6
Continuous
 62
     7
370
    15
100
AcDbCircle
 10
120.0705623566
 20
254.5953700114
 30
0.0
 40
0.2666666666667019
100
AcDbArc
 50
307.8468238116
 51
54.129763759
  0
ARC
  5
440
330
1F
100
AcDbEntity
  8
0
  6
Continuous
 62
     7
370
    15
100
AcDbCircle
 10
120.0705623566
 20
254.5953700114
 30
0.0
 40
0.2666666666667102
100
AcDbArc
 50
125.870236241
 51
180.0
  0
CIRCLE
  5
441
330
1F
100
AcDbEntity
  8
0
  6
Continuous
 62
     7
370
    15
100
AcDbCircle
 10
120.0705623566
 20
254.5953700114
 30
0.0
 40
0.1833333333333371
  0
CIRCLE
  5
442
330
1F
100
AcDbEntity
  8
0
  6
Continuous
 62
     7
370
    15
100
AcDbCircle
 10
120.0705623566
 20
254.5953700114
 30
0.0
 40
0.1400000000000006
  0
ARC
  5
443
330
1F
100
AcDbEntity
  8
0
  6
Continuous
 62
     7
370
    15
100
AcDbCircle
 10
107.0705623566
 20
254.5953700114
 30
0.0
 40
0.2666666666667011
100
AcDbArc
 50
180.0
 51
231.2461015561
  0
ARC
  5
444
330
1F
100
AcDbEntity
  8
0
  6
Continuous
 62
     7
370
    15
100
AcDbCircle
 10
107.0705623566
 20
254.5953700114
 30
0.0
 40
0.2666666666666634
100
AcDbArc
 50
307.8468238116
 51
54.129763759
  0
ARC
  5
445
330
1F
100
AcDbEntity
  8
0
  6
Continuous
 62
     7
370
    15
100
AcDbCircle
 10
107.0705623566
 20
254.5953700114
 30
0.0
 40
0.2666666666666657
100
AcDbArc
 50
125.870236241
 51
180.0
  0
CIRCLE
  5
446
330
1F
100
AcDbEntity
  8
0
  6
Continuous
 62
     7
370
    15
100
AcDbCircle
 10
107.0705623566
 20
254.5953700114
 30
0.0
 40
0.1966666666666725
  0
CIRCLE
  5
447
330
1F
100
AcDbEntity
  8
0
  6
Continuous
 62
     7
370
    15
100
AcDbCircle
 10
107.0705623566
 20
254.5953700114
 30
0.0
 40
0.1833333333333371
  0
CIRCLE
  5
448
330
1F
100
AcDbEntity
  8
0
  6
Continuous
 62
     7
370
    15
100
AcDbCircle
 10
107.0705623566
 20
254.5953700114
 30
0.0
 40
0.1400000000000006
  0
ARC
  5
449
330
1F
100
AcDbEntity
  8
0
  6
Continuous
 62
     7
370
    15
100
AcDbCircle
 10
94.0703007431
 20
254.5981289813
 30
0.0
 40
0.2666666666666657
100
AcDbArc
 50
180.0
 51
233.1205785448
  0
ARC
  5
44A
330
1F
100
AcDbEntity
  8
0
  6
Continuous
 62
     7
370
    15
100
AcDbCircle
 10
94.0703007431
 20
254.5981289813
 30
0.0
 40
0.2666666666666885
100
AcDbArc
 50
306.8698976447
 51
53.130102353
  0
ARC
  5
44B
330
1F
100
AcDbEntity
  8
0
  6
Continuous
 62
     7
370
    15
100
AcDbCircle
 10
94.0703007431
 20
254.5981289813
 30
0.0
 40
0.2666666666666899
100
AcDbArc
 50
126.8794214384
 51
180.0
  0
CIRCLE
  5
44C
330
1F
100
AcDbEntity
  8
0
  6
Continuous
 62
     7
370
    15
100
AcDbCircle
 10
94.0703007431
 20
254.5981289813
 30
0.0
 40
0.1966666666666583
  0
CIRCLE
  5
44D
330
1F
100
AcDbEntity
  8
0
  6
Continuous
 62
     7
370
    15
100
AcDbCircle
 10
94.0703007431
 20
254.5981289813
 30
0.0
 40
0.1833333333333229
  0
CIRCLE
  5
44E
330
1F
100
AcDbEntity
  8
0
  6
Continuous
 62
     7
370
    15
100
AcDbCircle
 10
94.0703007431
 20
254.5981289813
 30
0.0
 40
0.1400000000000006
  0
LINE
  5
44F
330
1F
100
AcDbEntity
  8
0
  6
Continuous
 62
     8
370
    15
100
AcDbLine
 10
95.3036340764
 20
195.0407752298
 30
0.0
 11
115.6369674097
 21
195.0407752298
 31
0.0
  0
LINE
  5
450
330
1F
100
AcDbEntity
  8
0
  6
Continuous
 62
     8
370
    15
100
AcDbLine
 10
95.3036340764
 20
172.7074418964
 30
0.0
 11
115.6369674097
 21
172.7074418964
 31
0.0
  0
LINE
  5
451
330
1F
100
AcDbEntity
  8
0
  6
Continuous
 62
     8
370
    15
100
AcDbLine
 10
128.1605360684
 20
151.5569960881
 30
0.0
 11
125.1133987511
 21
151.5569960881
 31
0.0
  0
LINE
  5
452
330
1F
100
AcDbEntity
  8
0
  6
Continuous
 62
     8
370
    15
100
AcDbLine
 10
128.2203007431
 20
151.4906876652
 30
0.0
 11
125.0536340764
 21
151.4906876652
 31
0.0
  0
LINE
  5
453
330
1F
100
AcDbEntity
  8
0
  6
Continuous
 62
     8
370
    15
100
AcDbLine
 10
128.2203007431
 20
151.0107752298
 30
0.0
 11
125.0536340764
 21
151.0107752298
 31
0.0
  0
LINE
  5
454
330
1F
100
AcDbEntity
  8
0
  6
Continuous
 62
     8
370
    15
100
AcDbLine
 10
95.2203007431
 20
151.0107752298
 30
0.0
 11
92.0536340764
 21
151.0107752298
 31
0.0
  0
LINE
  5
455
330
1F
100
AcDbEntity
  8
0
  6
Continuous
 62
     8
370
    15
100
AcDbLine
 10
95.2203007431
 20
151.4906876652
 30
0.0
 11
92.0536340764
 21
151.4906876652
 31
0.0
  0
LINE
  5
456
330
1F
100
AcDbEntity
  8
0
  6
Continuous
 62
     8
370
    15
100
AcDbLine
 10
95.1605360684
 20
151.5569960881
 30
0.0
 11
92.1133987511
 21
151.5569960881
 31
0.0
  0
SPLINE
  5
457
330
1F
100
AcDbEntity
  8
0
  6
Continuous
 62
     8
370
    15
100
AcDbSpline
210
0.0
220
0.0
230
1.0
 70
     8
 71
     3
 72
     9
 73
     5
 74
     0
 42
0.00000001
 43
0.00000001
 40
0.0
 40
0.0
 40
0.0
 40
0.0
 40
0.5246666681899477
 40
1.0
 40
1.0
 40
1.0
 40
1.0
 10
124.763658706994
 20
221.9033374961595
 30
0.0
 10
124.763325704451
 20
221.9035796858266
 30
0.0
 10
124.7626910109149
 20
221.9040412925606
 30
0.0
 10
124.76239818246
 20
221.9086056422371
 30
0.0
 10
124.7622589913348
 20
221.9107752297763
 30
0.0
  0
ARC
  5
458
330
1F
100
AcDbEntity
  8
0
  6
Continuous
 62
     8
370
    15
100
AcDbCircle
 10
124.7636409913
 20
221.9362166036
 30
0.0
 40
0.032879112250733
100
AcDbArc
 50
270.0308717825
 51
309.3049665409
  0
LINE
  5
459
330
1F
100
AcDbEntity
  8
0
  6
Continuous
 62
     8
370
    15
100
AcDbLine
 10
124.8458617948
 20
221.9321585976
 30
0.0
 11
124.8477706417
 21
221.9321585976
 31
0.0
  0
SPLINE
  5
45A
330
1F
100
AcDbEntity
  8
0
  6
Continuous
 62
     8
370
    15
100
AcDbSpline
210
0.0
220
0.0
230
1.0
 70
     8
 71
     3
 72
     9
 73
     5
 74
     0
 42
0.00000001
 43
0.00000001
 40
0.0
 40
0.0
 40
0.0
 40
0.0
 40
0.7719134123007418
 40
1.0
 40
1.0
 40
1.0
 40
1.0
 10
124.7636796140675
 20
223.5448796300737
 30
0.0
 10
124.7633299144689
 20
223.5502354689719
 30
0.0
 10
124.7628768849022
 20
223.5571738623368
 30
0.0
 10
124.7626558002954
 20
223.563380090544
 30
0.0
 10
124.7626053738618
 20
223.5647956479583
 30
0.0
  0
SPLINE
  5
45B
330
1F
100
AcDbEntity
  8
0
  6
Continuous
 62
     8
370
    15
100
AcDbSpline
210
0.0
220
0.0
230
1.0
 70
     8
 71
     3
 72
     9
 73
     5
 74
     0
 42
0.00000001
 43
0.00000001
 40
0.0
 40
0.0
 40
0.0
 40
0.0
 40
0.5138157422924597
 40
1.0
 40
1.0
 40
1.0
 40
1.0
 10
124.7949188954537
 20
223.5647956479583
 30
0.0
 10
124.7950829018446
 20
223.5622686437524
 30
0.0
 10
124.7954020948497
 20
223.5573505301216
 30
0.0
 10
124.7960897817158
 20
223.5518715634536
 30
0.0
 10
124.7964241242443
 20
223.5492077761111
 30
0.0
  0
LINE
  5
45C
330
1F
100
AcDbEntity
  8
0
  6
Continuous
 62
     8
370
    15
100
AcDbLine
 10
124.8477706417
 20
223.5827251953
 30
0.0
 11
124.8035280335
 21
223.5827251953
 31
0.0
  0
LINE
  5
45D
330
1F
100
AcDbEntity
  8
0
  6
Continuous
 62
     8
370
    15
100
AcDbLine
 10
124.7964031017
 20
221.9395963312
 30
0.0
 11
124.8477706417
 21
221.9395963312
 31
0.0
  0
LINE
  5
45E
330
1F
100
AcDbEntity
  8
0
  6
Continuous
 62
     8
370
    15
100
AcDbLine
 10
130.129736435
 20
154.9395963312
 30
0.0
 11
130.181103975
 21
154.9395963312
 31
0.0
  0
LINE
  5
45F
330
1F
100
AcDbEntity
  8
0
  6
Continuous
 62
     8
370
    15
100
AcDbLine
 10
130.181103975
 20
156.5827251953
 30
0.0
 11
130.129736435
 21
156.5827251953
 31
0.0
  0
LINE
  5
460
330
1F
100
AcDbEntity
  8
0
  6
Continuous
 62
     8
370
    15
100
AcDbLine
 10
90.1441983844
 20
156.5827251953
 30
0.0
 11
90.0928308444
 21
156.5827251953
 31
0.0
  0
LINE
  5
461
330
1F
100
AcDbEntity
  8
0
  6
Continuous
 62
     8
370
    15
100
AcDbLine
 10
90.0928308444
 20
154.9395963312
 30
0.0
 11
90.1441983844
 21
154.9395963312
 31
0.0
  0
SPLINE
  5
462
330
1F
100
AcDbEntity
  8
0
  6
Continuous
 62
     8
370
    15
100
AcDbSpline
210
0.0
220
0.0
230
1.0
 70
     8
 71
     3
 72
     9
 73
     5
 74
     0
 42
0.00000001
 43
0.00000001
 40
0.0
 40
0.0
 40
0.0
 40
0.0
 40
0.2597056170226437
 40
1.0
 40
1.0
 40
1.0
 40
1.0
 10
90.17833891071754
 20
154.9107752297762
 30
0.0
 10
90.17828121488081
 20
154.909419350539
 30
0.0
 10
90.17805905627905
 20
154.9041985191506
 30
0.0
 10
90.17741762622228
 20
154.903703762049
 30
0.0
 10
90.17694277915419
 20
154.9033374961458
 30
0.0
  0
ARC
  5
463
330
1F
100
AcDbEntity
  8
0
  6
Continuous
 62
     8
370
    15
100
AcDbCircle
 10
90.1769604949
 20
154.9362166036
 30
0.0
 40
0.0328791122514147
100
AcDbArc
 50
230.6950334223
 51
269.969128217
  0
LINE
  5
464
330
1F
100
AcDbEntity
  8
0
  6
Continuous
 62
     8
370
    15
100
AcDbLine
 10
90.0928308444
 20
154.9321585976
 30
0.0
 11
90.0947396914
 21
154.9321585976
 31
0.0
  0
LINE
  5
465
330
1F
100
AcDbEntity
  8
0
  6
Continuous
 62
     8
370
    15
100
AcDbLine
 10
95.2369674097
 20
156.6041085631
 30
0.0
 11
95.2369674097
 21
223.564795648
 31
0.0
  0
LINE
  5
466
330
1F
100
AcDbEntity
  8
0
  6
Continuous
 62
     8
370
    15
100
AcDbLine
 10
92.0369674097
 20
156.6041085631
 30
0.0
 11
92.0369674097
 21
223.564795648
 31
0.0
  0
LINE
  5
467
330
1F
100
AcDbEntity
  8
0
  6
Continuous
 62
     8
370
    15
100
AcDbLine
 10
129.6150601215
 20
233.5834941177
 30
0.0
 11
129.6150601215
 21
236.4711334284
 31
0.0
  0
LINE
  5
468
330
1F
100
AcDbEntity
  8
0
  6
Continuous
 62
     8
370
    15
100
AcDbLine
 10
129.8534769285
 20
236.442029696
 30
0.0
 11
129.8534769285
 21
233.5818776954
 31
0.0
  0
LINE
  5
469
330
1F
100
AcDbEntity
  8
0
  6
Continuous
 62
     8
370
    15
100
AcDbLine
 10
130.9509917216
 20
233.8767517828
 30
0.0
 11
130.1455561475
 21
233.5265628927
 31
0.0
  0
LINE
  5
46A
330
1F
100
AcDbEntity
  8
0
  6
Continuous
 62
     8
370
    15
100
AcDbLine
 10
130.9509917216
 20
233.6471065883
 30
0.0
 11
130.9509917216
 21
233.8767517828
 31
0.0
  0
LINE
  5
46B
330
1F
100
AcDbEntity
  8
0
  6
Continuous
 62
     8
370
    15
100
AcDbLine
 10
129.9482520875
 20
233.5279005781
 30
0.0
 11
130.9247975702
 21
233.9435458515
 31
0.0
  0
LINE
  5
46C
330
1F
100
AcDbEntity
  8
0
  6
Continuous
 62
     8
370
    15
100
AcDbLine
 10
128.9903007431
 20
235.0223562152
 30
0.0
 11
128.8569674098
 21
235.0218627858
 31
0.0
  0
LINE
  5
46D
330
1F
100
AcDbEntity
  8
0
  6
Continuous
 62
     8
370
    15
100
AcDbLine
 10
128.9903007431
 20
234.914795648
 30
0.0
 11
128.8569674098
 21
234.914795648
 31
0.0
  0
LINE
  5
46E
330
1F
100
AcDbEntity
  8
0
  6
Continuous
 62
     8
370
    15
100
AcDbLine
 10
128.9903007431
 20
234.5650645916
 30
0.0
 11
128.8569674098
 21
234.5666689675
 31
0.0
  0
LINE
  5
46F
330
1F
100
AcDbEntity
  8
0
  6
Continuous
 62
     8
370
    15
100
AcDbLine
 10
128.9903007431
 20
234.6074779639
 30
0.0
 11
128.8569674098
 21
234.606314293
 31
0.0
  0
LINE
  5
470
330
1F
100
AcDbEntity
  8
0
  6
Continuous
 62
     8
370
    15
100
AcDbLine
 10
128.9903007431
 20
234.4944625916
 30
0.0
 11
128.8569674098
 21
234.4963908512
 31
0.0
  0
LINE
  5
471
330
1F
100
AcDbEntity
  8
0
  6
Continuous
 62
     8
370
    15
100
AcDbLine
 10
124.8569674097
 20
234.0243986717
 30
0.0
 11
125.0919629768
 21
234.0228054448
 31
0.0
  0
LINE
  5
472
330
1F
100
AcDbEntity
  8
0
  6
Continuous
 62
     8
370
    15
100
AcDbLine
 10
125.104618344
 20
235.8894292114
 30
0.0
 11
124.8569674097
 21
235.8911082394
 31
0.0
  0
LINE
  5
473
330
1F
100
AcDbEntity
  8
0
  6
Continuous
 62
     8
370
    15
100
AcDbLine
 10
133.884279312
 20
228.8909771356
 30
0.0
 11
137.2064068603
 21
232.1683612039
 31
0.0
  0
LINE
  5
474
330
1F
100
AcDbEntity
  8
0
  6
Continuous
 62
     8
370
    15
100
AcDbLine
 10
133.9709999676
 20
228.883917746
 30
0.0
 11
137.2122897546
 21
232.081552802
 31
0.0
  0
LINE
  5
475
330
1F
100
AcDbEntity
  8
0
  6
Continuous
 62
     8
370
    15
100
AcDbLine
 10
134.9214384147
 20
229.576501277
 30
0.0
 11
136.5068828864
 21
231.1405924737
 31
0.0
  0
LINE
  5
476
330
1F
100
AcDbEntity
  8
0
  6
Continuous
 62
     8
370
    15
100
AcDbLine
 10
135.0948797259
 20
229.5623824978
 30
0.0
 11
136.5186486751
 21
230.9669756699
 31
0.0
  0
LINE
  5
477
330
1F
100
AcDbEntity
  8
0
  6
Continuous
 62
     8
370
    15
100
AcDbLine
 10
137.4800693509
 20
229.8248466289
 30
0.0
 11
137.4823353288
 21
229.8270820879
 31
0.0
  0
LINE
  5
478
330
1F
100
AcDbEntity
  8
0
  6
Continuous
 62
     8
370
    15
100
AcDbLine
 10
136.2216018828
 20
228.5833286045
 30
0.0
 11
137.4800693509
 21
229.8248466289
 31
0.0
  0
LINE
  5
479
330
1F
100
AcDbEntity
  8
0
  6
Continuous
 62
     8
370
    15
100
AcDbLine
 10
141.522252732
 20
225.8568380566
 30
0.0
 11
141.5247520313
 21
225.8593036946
 31
0.0
  0
LINE
  5
47A
330
1F
100
AcDbEntity
  8
0
  6
Continuous
 62
     8
370
    15
100
AcDbLine
 10
140.1342043576
 20
224.4874843632
 30
0.0
 11
141.522252732
 21
225.8568380566
 31
0.0
  0
LINE
  5
47B
330
1F
100
AcDbEntity
  8
0
  6
Continuous
 62
     8
370
    15
100
AcDbLine
 10
137.7056153098
 20
229.7255809496
 30
0.0
 11
137.7081146091
 21
229.7280465876
 31
0.0
  0
LINE
  5
47C
330
1F
100
AcDbEntity
  8
0
  6
Continuous
 62
     8
370
    15
100
AcDbLine
 10
136.3175669354
 20
228.3562272562
 30
0.0
 11
137.7056153098
 21
229.7255809496
 31
0.0
  0
LINE
  5
47D
330
1F
100
AcDbEntity
  8
0
  6
Continuous
 62
     8
370
    15
100
AcDbLine
 10
132.7338567811
 20
233.5090146885
 30
0.0
 11
132.7302409619
 21
232.9756936124
 31
0.0
  0
LINE
  5
47E
330
1F
100
AcDbEntity
  8
0
  6
Continuous
 62
     8
370
    15
100
AcDbLine
 10
133.1569196692
 20
233.3304064295
 30
0.0
 11
132.7772479494
 21
232.9558482502
 31
0.0
  0
LINE
  5
47F
330
1F
100
AcDbEntity
  8
0
  6
Continuous
 62
     8
370
    15
100
AcDbLine
 10
128.4468071984
 20
223.7014623146
 30
0.0
 11
128.4468071984
 21
224.6243110744
 31
0.0
  0
LINE
  5
480
330
1F
100
AcDbEntity
  8
0
  6
Continuous
 62
     8
370
    15
100
AcDbLine
 10
128.4468071984
 20
226.9021094574
 30
0.0
 11
128.4468071984
 21
230.791350307
 31
0.0
  0
LINE
  5
481
330
1F
100
AcDbEntity
  8
0
  6
Continuous
 62
     8
370
    15
100
AcDbLine
 10
128.4468071984
 20
234.3380984856
 30
0.0
 11
128.4468071984
 21
242.414795648
 31
0.0
  0
LINE
  5
482
330
1F
100
AcDbEntity
  8
0
  6
Continuous
 62
     8
370
    15
100
AcDbLine
 10
124.9868071984
 20
242.414795648
 30
0.0
 11
124.9868071984
 21
236.0235643471
 31
0.0
  0
LINE
  5
483
330
1F
100
AcDbEntity
  8
0
  6
Continuous
 62
     8
370
    15
100
AcDbLine
 10
124.9868071984
 20
233.890181984
 30
0.0
 11
124.9868071984
 21
233.8615451605
 31
0.0
  0
LINE
  5
484
330
1F
100
AcDbEntity
  8
0
  6
Continuous
 62
     8
370
    15
100
AcDbLine
 10
124.9868071984
 20
233.0281926749
 30
0.0
 11
124.9868071984
 21
232.9568272002
 31
0.0
  0
LINE
  5
485
330
1F
100
AcDbEntity
  8
0
  6
Continuous
 62
     8
370
    15
100
AcDbLine
 10
124.9868071984
 20
232.9034926411
 30
0.0
 11
124.9868071984
 21
227.5688681619
 31
0.0
  0
LINE
  5
486
330
1F
100
AcDbEntity
  8
0
  6
Continuous
 62
     8
370
    15
100
AcDbLine
 10
124.9868071984
 20
226.6468984396
 30
0.0
 11
124.9868071984
 21
226.5621514389
 31
0.0
  0
LINE
  5
487
330
1F
100
AcDbEntity
  8
0
  6
Continuous
 62
     8
370
    15
100
AcDbLine
 10
124.9868071984
 20
226.3817933684
 30
0.0
 11
124.9868071984
 21
223.7014623146
 31
0.0
  0
LINE
  5
488
330
1F
100
AcDbEntity
  8
0
  6
Continuous
 62
     8
370
    15
100
AcDbLine
 10
123.1034738651
 20
251.4244140199
 30
0.0
 11
122.9503007431
 21
251.4432213144
 31
0.0
  0
LINE
  5
489
330
1F
100
AcDbEntity
  8
0
  6
Continuous
 62
     8
370
    15
100
AcDbLine
 10
122.2836340764
 20
251.5250776884
 30
0.0
 11
121.9503007431
 21
251.5660058753
 31
0.0
  0
LINE
  5
48A
330
1F
100
AcDbEntity
  8
0
  6
Continuous
 62
     8
370
    15
100
AcDbLine
 10
121.2836340764
 20
251.6478622493
 30
0.0
 11
120.9503007431
 21
251.6887904362
 31
0.0
  0
LINE
  5
48B
330
1F
100
AcDbEntity
  8
0
  6
Continuous
 62
     8
370
    15
100
AcDbLine
 10
120.2836340764
 20
251.7706468102
 30
0.0
 11
119.9503007431
 21
251.8115749971
 31
0.0
  0
LINE
  5
48C
330
1F
100
AcDbEntity
  8
0
  6
Continuous
 62
     8
370
    15
100
AcDbLine
 10
119.2836340764
 20
251.8934313711
 30
0.0
 11
118.9503007431
 21
251.9343595581
 31
0.0
  0
LINE
  5
48D
330
1F
100
AcDbEntity
  8
0
  6
Continuous
 62
     8
370
    15
100
AcDbLine
 10
118.2836340764
 20
252.016215932
 30
0.0
 11
117.9503007431
 21
252.057144119
 31
0.0
  0
LINE
  5
48E
330
1F
100
AcDbEntity
  8
0
  6
Continuous
 62
     8
370
    15
100
AcDbLine
 10
117.2836340764
 20
252.1390004929
 30
0.0
 11
116.9503007431
 21
252.1799286799
 31
0.0
  0
LINE
  5
48F
330
1F
100
AcDbEntity
  8
0
  6
Continuous
 62
     8
370
    15
100
AcDbLine
 10
116.2836340764
 20
252.2617850538
 30
0.0
 11
115.9503007431
 21
252.3027132408
 31
0.0
  0
LINE
  5
490
330
1F
100
AcDbEntity
  8
0
  6
Continuous
 62
     8
370
    15
100
AcDbLine
 10
115.2836340764
 20
252.3845696147
 30
0.0
 11
114.9503007431
 21
252.4254978017
 31
0.0
  0
LINE
  5
491
330
1F
100
AcDbEntity
  8
0
  6
Continuous
 62
     8
370
    15
100
AcDbLine
 10
114.2836340764
 20
252.5073541756
 30
0.0
 11
113.9503007431
 21
252.5482823626
 31
0.0
  0
LINE
  5
492
330
1F
100
AcDbEntity
  8
0
  6
Continuous
 62
     8
370
    15
100
AcDbLine
 10
113.2836340764
 20
252.6301387365
 30
0.0
 11
112.9503007431
 21
252.6710669235
 31
0.0
  0
LINE
  5
493
330
1F
100
AcDbEntity
  8
0
  6
Continuous
 62
     8
370
    15
100
AcDbLine
 10
112.2836340764
 20
252.7529232974
 30
0.0
 11
111.9503007431
 21
252.7938514844
 31
0.0
  0
LINE
  5
494
330
1F
100
AcDbEntity
  8
0
  6
Continuous
 62
     8
370
    15
100
AcDbLine
 10
111.2836340764
 20
252.8757078583
 30
0.0
 11
110.9503007431
 21
252.9166360453
 31
0.0
  0
LINE
  5
495
330
1F
100
AcDbEntity
  8
0
  6
Continuous
 62
     8
370
    15
100
AcDbLine
 10
110.2836340764
 20
252.9984924192
 30
0.0
 11
109.9503007431
 21
253.0394206062
 31
0.0
  0
LINE
  5
496
330
1F
100
AcDbEntity
  8
0
  6
Continuous
 62
     8
370
    15
100
AcDbLine
 10
109.2836340764
 20
253.1212769801
 30
0.0
 11
108.9503007431
 21
253.1622051671
 31
0.0
  0
LINE
  5
497
330
1F
100
AcDbEntity
  8
0
  6
Continuous
 62
     8
370
    15
100
AcDbLine
 10
108.2836340764
 20
253.244061541
 30
0.0
 11
107.9503007431
 21
253.284989728
 31
0.0
  0
LINE
  5
498
330
1F
100
AcDbEntity
  8
0
  6
Continuous
 62
     8
370
    15
100
AcDbLine
 10
107.2836340764
 20
253.3668461019
 30
0.0
 11
106.9503007431
 21
253.4077742889
 31
0.0
  0
LINE
  5
499
330
1F
100
AcDbEntity
  8
0
  6
Continuous
 62
     8
370
    15
100
AcDbLine
 10
106.2836340764
 20
253.4896306628
 30
0.0
 11
105.9503007431
 21
253.5305588498
 31
0.0
  0
LINE
  5
49A
330
1F
100
AcDbEntity
  8
0
  6
Continuous
 62
     8
370
    15
100
AcDbLine
 10
105.2836340764
 20
253.6124152237
 30
0.0
 11
104.9503007431
 21
253.6533434107
 31
0.0
  0
LINE
  5
49B
330
1F
100
AcDbEntity
  8
0
  6
Continuous
 62
     8
370
    15
100
AcDbLine
 10
104.2836340764
 20
253.7351997846
 30
0.0
 11
103.9503007431
 21
253.7761279716
 31
0.0
  0
LINE
  5
49C
330
1F
100
AcDbEntity
  8
0
  6
Continuous
 62
     8
370
    15
100
AcDbLine
 10
91.4203007431
 20
255.1614623146
 30
0.0
 11
91.4203007431
 21
255.225493557
 31
0.0
  0
LINE
  5
49D
330
1F
100
AcDbEntity
  8
0
  6
Continuous
 62
     8
370
    15
100
AcDbLine
 10
124.8036340764
 20
255.1614623146
 30
0.0
 11
124.8501405318
 21
255.1614623146
 31
0.0
  0
LINE
  5
49E
330
1F
100
AcDbEntity
  8
0
  6
Continuous
 62
     8
370
    15
100
AcDbLine
 10
92.9503007431
 20
253.914795648
 30
0.0
 11
93.2836340764
 21
253.914795648
 31
0.0
  0
LINE
  5
49F
330
1F
100
AcDbEntity
  8
0
  6
Continuous
 62
     8
370
    15
100
AcDbLine
 10
93.9503007431
 20
253.914795648
 30
0.0
 11
94.2836340764
 21
253.914795648
 31
0.0
  0
LINE
  5
4A0
330
1F
100
AcDbEntity
  8
0
  6
Continuous
 62
     8
370
    15
100
AcDbLine
 10
94.9503007431
 20
253.914795648
 30
0.0
 11
95.2836340764
 21
253.914795648
 31
0.0
  0
LINE
  5
4A1
330
1F
100
AcDbEntity
  8
0
  6
Continuous
 62
     8
370
    15
100
AcDbLine
 10
95.9503007431
 20
253.914795648
 30
0.0
 11
96.2836340764
 21
253.914795648
 31
0.0
  0
LINE
  5
4A2
330
1F
100
AcDbEntity
  8
0
  6
Continuous
 62
     8
370
    15
100
AcDbLine
 10
96.9503007431
 20
253.914795648
 30
0.0
 11
97.2836340764
 21
253.914795648
 31
0.0
  0
LINE
  5
4A3
330
1F
100
AcDbEntity
  8
0
  6
Continuous
 62
     8
370
    15
100
AcDbLine
 10
97.9503007431
 20
253.914795648
 30
0.0
 11
98.2836340764
 21
253.914795648
 31
0.0
  0
LINE
  5
4A4
330
1F
100
AcDbEntity
  8
0
  6
Continuous
 62
     8
370
    15
100
AcDbLine
 10
98.9503007431
 20
253.914795648
 30
0.0
 11
99.2836340764
 21
253.914795648
 31
0.0
  0
LINE
  5
4A5
330
1F
100
AcDbEntity
  8
0
  6
Continuous
 62
     8
370
    15
100
AcDbLine
 10
99.9503007431
 20
253.914795648
 30
0.0
 11
100.2836340764
 21
253.914795648
 31
0.0
  0
LINE
  5
4A6
330
1F
100
AcDbEntity
  8
0
  6
Continuous
 62
     8
370
    15
100
AcDbLine
 10
100.9503007431
 20
253.914795648
 30
0.0
 11
101.2836340764
 21
253.914795648
 31
0.0
  0
LINE
  5
4A7
330
1F
100
AcDbEntity
  8
0
  6
Continuous
 62
     8
370
    15
100
AcDbLine
 10
101.9503007431
 20
253.914795648
 30
0.0
 11
102.2836340764
 21
253.914795648
 31
0.0
  0
LINE
  5
4A8
330
1F
100
AcDbEntity
  8
0
  6
Continuous
 62
     8
370
    15
100
AcDbLine
 10
102.9503007431
 20
253.914795648
 30
0.0
 11
103.2836340764
 21
253.914795648
 31
0.0
  0
LINE
  5
4A9
330
1F
100
AcDbEntity
  8
0
  6
Continuous
 62
     8
370
    15
100
AcDbLine
 10
103.9503007431
 20
253.914795648
 30
0.0
 11
104.2836340764
 21
253.914795648
 31
0.0
  0
LINE
  5
4AA
330
1F
100
AcDbEntity
  8
0
  6
Continuous
 62
     8
370
    15
100
AcDbLine
 10
104.9503007431
 20
253.914795648
 30
0.0
 11
105.2836340764
 21
253.914795648
 31
0.0
  0
LINE
  5
4AB
330
1F
100
AcDbEntity
  8
0
  6
Continuous
 62
     8
370
    15
100
AcDbLine
 10
105.9503007431
 20
253.914795648
 30
0.0
 11
106.2836340764
 21
253.914795648
 31
0.0
  0
LINE
  5
4AC
330
1F
100
AcDbEntity
  8
0
  6
Continuous
 62
     8
370
    15
100
AcDbLine
 10
106.9503007431
 20
253.914795648
 30
0.0
 11
107.2836340764
 21
253.914795648
 31
0.0
  0
LINE
  5
4AD
330
1F
100
AcDbEntity
  8
0
  6
Continuous
 62
     8
370
    15
100
AcDbLine
 10
107.9503007431
 20
253.914795648
 30
0.0
 11
108.2836340764
 21
253.914795648
 31
0.0
  0
LINE
  5
4AE
330
1F
100
AcDbEntity
  8
0
  6
Continuous
 62
     8
370
    15
100
AcDbLine
 10
108.9503007431
 20
253.914795648
 30
0.0
 11
109.2836340764
 21
253.914795648
 31
0.0
  0
LINE
  5
4AF
330
1F
100
AcDbEntity
  8
0
  6
Continuous
 62
     8
370
    15
100
AcDbLine
 10
109.9503007431
 20
253.914795648
 30
0.0
 11
110.2836340764
 21
253.914795648
 31
0.0
  0
LINE
  5
4B0
330
1F
100
AcDbEntity
  8
0
  6
Continuous
 62
     8
370
    15
100
AcDbLine
 10
110.9503007431
 20
253.914795648
 30
0.0
 11
111.2836340764
 21
253.914795648
 31
0.0
  0
LINE
  5
4B1
330
1F
100
AcDbEntity
  8
0
  6
Continuous
 62
     8
370
    15
100
AcDbLine
 10
111.9503007431
 20
253.914795648
 30
0.0
 11
112.2836340764
 21
253.914795648
 31
0.0
  0
LINE
  5
4B2
330
1F
100
AcDbEntity
  8
0
  6
Continuous
 62
     8
370
    15
100
AcDbLine
 10
112.9503007431
 20
253.914795648
 30
0.0
 11
113.2836340764
 21
253.914795648
 31
0.0
  0
LINE
  5
4B3
330
1F
100
AcDbEntity
  8
0
  6
Continuous
 62
     8
370
    15
100
AcDbLine
 10
113.9503007431
 20
253.914795648
 30
0.0
 11
114.2836340764
 21
253.914795648
 31
0.0
  0
LINE
  5
4B4
330
1F
100
AcDbEntity
  8
0
  6
Continuous
 62
     8
370
    15
100
AcDbLine
 10
114.9503007431
 20
253.914795648
 30
0.0
 11
115.2836340764
 21
253.914795648
 31
0.0
  0
LINE
  5
4B5
330
1F
100
AcDbEntity
  8
0
  6
Continuous
 62
     8
370
    15
100
AcDbLine
 10
115.9503007431
 20
253.914795648
 30
0.0
 11
116.2836340764
 21
253.914795648
 31
0.0
  0
LINE
  5
4B6
330
1F
100
AcDbEntity
  8
0
  6
Continuous
 62
     8
370
    15
100
AcDbLine
 10
116.9503007431
 20
253.914795648
 30
0.0
 11
117.2836340764
 21
253.914795648
 31
0.0
  0
LINE
  5
4B7
330
1F
100
AcDbEntity
  8
0
  6
Continuous
 62
     8
370
    15
100
AcDbLine
 10
117.9503007431
 20
253.914795648
 30
0.0
 11
118.2836340764
 21
253.914795648
 31
0.0
  0
LINE
  5
4B8
330
1F
100
AcDbEntity
  8
0
  6
Continuous
 62
     8
370
    15
100
AcDbLine
 10
118.9503007431
 20
253.914795648
 30
0.0
 11
119.2836340764
 21
253.914795648
 31
0.0
  0
LINE
  5
4B9
330
1F
100
AcDbEntity
  8
0
  6
Continuous
 62
     8
370
    15
100
AcDbLine
 10
119.9503007431
 20
253.914795648
 30
0.0
 11
120.2836340764
 21
253.914795648
 31
0.0
  0
LINE
  5
4BA
330
1F
100
AcDbEntity
  8
0
  6
Continuous
 62
     8
370
    15
100
AcDbLine
 10
120.9503007431
 20
253.914795648
 30
0.0
 11
121.2836340764
 21
253.914795648
 31
0.0
  0
LINE
  5
4BB
330
1F
100
AcDbEntity
  8
0
  6
Continuous
 62
     8
370
    15
100
AcDbLine
 10
121.9503007431
 20
253.914795648
 30
0.0
 11
122.2836340764
 21
253.914795648
 31
0.0
  0
LINE
  5
4BC
330
1F
100
AcDbEntity
  8
0
  6
Continuous
 62
     8
370
    15
100
AcDbLine
 10
122.9503007431
 20
253.914795648
 30
0.0
 11
123.2836340764
 21
253.914795648
 31
0.0
  0
LINE
  5
4BD
330
1F
100
AcDbEntity
  8
0
  6
Continuous
 62
     8
370
    15
100
AcDbLine
 10
124.8014982485
 20
223.7014623146
 30
0.0
 11
124.8014982485
 21
223.6186003858
 31
0.0
  0
LINE
  5
4BE
330
1F
100
AcDbEntity
  8
0
  6
Continuous
 62
     8
370
    15
100
AcDbLine
 10
90.4669674097
 20
237.7532665327
 30
0.0
 11
90.4669674097
 21
238.2271124858
 31
0.0
  0
LINE
  5
4BF
330
1F
100
AcDbEntity
  8
0
  6
Continuous
 62
     8
370
    15
100
AcDbLine
 10
90.4203007431
 20
238.2271124858
 30
0.0
 11
90.4203007431
 21
237.7532665327
 31
0.0
  0
LINE
  5
4C0
330
1F
100
AcDbEntity
  8
0
  6
Continuous
 62
     8
370
    15
100
AcDbLine
 10
90.5003007431
 20
238.2425672377
 30
0.0
 11
90.5003007431
 21
238.2437275653
 31
0.0
  0
ARC
  5
4C1
330
1F
100
AcDbEntity
  8
0
  6
Continuous
 62
     8
370
    15
100
AcDbCircle
 10
90.4672345827
 20
238.2475523259
 30
0.0
 40
0.0167887146743367
100
AcDbArc
 50
269.0881655198
 51
330.4280671503
  0
LINE
  5
4C2
330
1F
100
AcDbEntity
  8
0
  6
Continuous
 62
     8
370
    15
100
AcDbLine
 10
90.8403007431
 20
238.2425672361
 30
0.0
 11
90.8403007431
 21
238.2437275653
 31
0.0
  0
LINE
  5
4C3
330
1F
100
AcDbEntity
  8
0
  6
Continuous
 62
     8
370
    15
100
AcDbLine
 10
90.8403007431
 20
238.6660638886
 30
0.0
 11
90.8403007431
 21
238.659898099
 31
0.0
  0
LINE
  5
4C4
330
1F
100
AcDbEntity
  8
0
  6
Continuous
 62
     8
370
    15
100
AcDbLine
 10
90.4669674097
 20
238.6631749118
 30
0.0
 11
90.4669674097
 21
238.8114623146
 31
0.0
  0
LINE
  5
4C5
330
1F
100
AcDbEntity
  8
0
  6
Continuous
 62
     8
370
    15
100
AcDbLine
 10
90.4203007431
 20
238.8114623146
 30
0.0
 11
90.4203007431
 21
238.6302772606
 31
0.0
  0
LINE
  5
4C6
330
1F
100
AcDbEntity
  8
0
  6
Continuous
 62
     8
370
    15
100
AcDbLine
 10
90.8403007431
 20
237.8160322892
 30
0.0
 11
90.5636340764
 21
237.8160322892
 31
0.0
  0
LINE
  5
4C7
330
1F
100
AcDbEntity
  8
0
  6
Continuous
 62
     8
370
    15
100
AcDbLine
 10
90.5636340764
 20
237.7980210698
 30
0.0
 11
90.8403007431
 21
237.7980210698
 31
0.0
  0
LINE
  5
4C8
330
1F
100
AcDbEntity
  8
0
  6
Continuous
 62
     8
370
    15
100
AcDbLine
 10
90.5636340764
 20
237.842347375
 30
0.0
 11
90.8403007431
 21
237.842347375
 31
0.0
  0
LINE
  5
4C9
330
1F
100
AcDbEntity
  8
0
  6
Continuous
 62
     8
370
    15
100
AcDbLine
 10
90.8403007431
 20
237.842347375
 30
0.0
 11
90.8403007431
 21
237.869349175
 31
0.0
  0
LINE
  5
4CA
330
1F
100
AcDbEntity
  8
0
  6
Continuous
 62
     8
370
    15
100
AcDbLine
 10
90.8403007431
 20
237.7980210698
 30
0.0
 11
90.8403007431
 21
237.7968607407
 31
0.0
  0
LINE
  5
4CB
330
1F
100
AcDbEntity
  8
0
  6
Continuous
 62
     8
370
    15
100
AcDbLine
 10
90.5469674097
 20
237.7848444587
 30
0.0
 11
90.5469674097
 21
238.2425672361
 31
0.0
  0
LINE
  5
4CC
330
1F
100
AcDbEntity
  8
0
  6
Continuous
 62
     8
370
    15
100
AcDbLine
 10
90.5469674097
 20
238.6660638886
 30
0.0
 11
90.5469674097
 21
238.8098840843
 31
0.0
  0
LINE
  5
4CD
330
1F
100
AcDbEntity
  8
0
  6
Continuous
 62
     8
370
    15
100
AcDbLine
 10
90.5003007431
 20
238.8098840843
 30
0.0
 11
90.5003007431
 21
238.6660638886
 31
0.0
  0
LINE
  5
4CE
330
1F
100
AcDbEntity
  8
0
  6
Continuous
 62
     8
370
    15
100
AcDbLine
 10
90.5003007431
 20
238.243257994
 30
0.0
 11
90.5003007431
 21
237.7848444587
 31
0.0
  0
LINE
  5
4CF
330
1F
100
AcDbEntity
  8
0
  6
Continuous
 62
     8
370
    15
100
AcDbLine
 10
90.4669674097
 20
237.7532664404
 30
0.0
 11
90.4669674097
 21
237.7416692473
 31
0.0
  0
LINE
  5
4D0
330
1F
100
AcDbEntity
  8
0
  6
Continuous
 62
     8
370
    15
100
AcDbLine
 10
90.1269674097
 20
237.7532665327
 30
0.0
 11
90.1269674097
 21
237.7416692473
 31
0.0
  0
LINE
  5
4D1
330
1F
100
AcDbEntity
  8
0
  6
Continuous
 62
     8
370
    15
100
AcDbLine
 10
90.4669674097
 20
238.8530592958
 30
0.0
 11
90.4669674097
 21
238.8313232478
 31
0.0
  0
LINE
  5
4D2
330
1F
100
AcDbEntity
  8
0
  6
Continuous
 62
     8
370
    15
100
AcDbLine
 10
90.1269674097
 20
238.8530592958
 30
0.0
 11
90.1269674097
 21
238.8313232478
 31
0.0
  0
LINE
  5
4D3
330
1F
100
AcDbEntity
  8
0
  6
Continuous
 62
     8
370
    15
100
AcDbLine
 10
90.4669674097
 20
238.8114623146
 30
0.0
 11
90.4669674097
 21
238.8313232478
 31
0.0
  0
LINE
  5
4D4
330
1F
100
AcDbEntity
  8
0
  6
Continuous
 62
     8
370
    15
100
AcDbLine
 10
90.1269674097
 20
238.8313232478
 30
0.0
 11
90.1269674097
 21
238.7129501025
 31
0.0
  0
LINE
  5
4D5
330
1F
100
AcDbEntity
  8
0
  6
Continuous
 62
     8
370
    15
100
AcDbLine
 10
90.1269674097
 20
238.7129501025
 30
0.0
 11
90.4036340764
 21
238.7129501025
 31
0.0
  0
LINE
  5
4D6
330
1F
100
AcDbEntity
  8
0
  6
Continuous
 62
     8
370
    15
100
AcDbLine
 10
90.1269674097
 20
238.7129501025
 30
0.0
 11
90.1269674097
 21
238.7096580966
 31
0.0
  0
ENDSEC
  0
SECTION
  2
OBJECTS
  0
DICTIONARY
  5
C
330
0
100
AcDbDictionary
281
     1
  3
ACAD_GROUP
350
D
  3
ACAD_LAYOUT
350
1A
  3
ACAD_MLINESTYLE
350
17
  3
ACAD_PLOTSETTINGS
350
19
  3
ACAD_PLOTSTYLENAME
350
E
  0
DICTIONARY
  5
D
102
{ACAD_REACTORS
330
C
102
}
330
C
100
AcDbDictionary
281
     1
  0
DICTIONARY
  5
1A
102
{ACAD_REACTORS
330
C
102
}
330
C
100
AcDbDictionary
281
     1
  3
Layout1
350
1E
  3
Layout2
350
26
  3
Model
350
22
  0
DICTIONARY
  5
17
102
{ACAD_REACTORS
330
C
102
}
330
C
100
AcDbDictionary
281
     1
  3
Standard
350
18
  0
DICTIONARY
  5
19
102
{ACAD_REACTORS
330
C
102
}
330
C
100
AcDbDictionary
281
     1
  0
ACDBDICTIONARYWDFLT
  5
E
102
{ACAD_REACTORS
330
C
102
}
330
C
100
AcDbDictionary
281
     1
  3
Normal
350
F
100
AcDbDictionaryWithDefault
340
F
  0
LAYOUT
  5
1E
102
{ACAD_REACTORS
330
1A
102
}
330
1A
100
AcDbPlotSettings
  1

  2
none_device
  4

  6

 40
0.0
 41
0.0
 42
0.0
 43
0.0
 44
0.0
 45
0.0
 46
0.0
 47
0.0
 48
0.0
 49
0.0
140
0.0
141
0.0
142
1.0
143
1.0
 70
   688
 72
     0
 73
     0
 74
     5
  7

 75
    16
147
1.0
148
0.0
149
0.0
100
AcDbLayout
  1
Layout1
 70
     1
 71
     1
 10
0.0
 20
0.0
 11
420.0
 21
297.0
 12
0.0
 22
0.0
 32
0.0
 14
1.0000000000E+20
 24
1.0000000000E+20
 34
1.0000000000E+20
 15
-1.0000000000E+20
 25
-1.0000000000E+20
 35
-1.0000000000E+20
146
0.0
 13
0.0
 23
0.0
 33
0.0
 16
1.0
 26
0.0
 36
0.0
 17
0.0
 27
1.0
 37
0.0
 76
     0
330
1B
  0
LAYOUT
  5
26
102
{ACAD_REACTORS
330
1A
102
}
330
1A
100
AcDbPlotSettings
  1

  2
none_device
  4

  6

 40
0.0
 41
0.0
 42
0.0
 43
0.0
 44
0.0
 45
0.0
 46
0.0
 47
0.0
 48
0.0
 49
0.0
140
0.0
141
0.0
142
1.0
143
1.0
 70
   688
 72
     0
 73
     0
 74
     5
  7

 75
    16
147
1.0
148
0.0
149
0.0
100
AcDbLayout
  1
Layout2
 70
     1
 71
     2
 10
0.0
 20
0.0
 11
0.0
 21
0.0
 12
0.0
 22
0.0
 32
0.0
 14
0.0
 24
0.0
 34
0.0
 15
0.0
 25
0.0
 35
0.0
146
0.0
 13
0.0
 23
0.0
 33
0.0
 16
1.0
 26
0.0
 36
0.0
 17
0.0
 27
1.0
 37
0.0
 76
     0
330
23
  0
LAYOUT
  5
22
102
{ACAD_REACTORS
330
1A
102
}
330
1A
100
AcDbPlotSettings
  1

  2
none_device
  4

  6

 40
0.0
 41
0.0
 42
0.0
 43
0.0
 44
0.0
 45
0.0
 46
0.0
 47
0.0
 48
0.0
 49
0.0
140
0.0
141
0.0
142
1.0
143
1.0
 70
  1712
 72
     0
 73
     0
 74
     0
  7

 75
     0
147
1.0
148
0.0
149
0.0
100
AcDbLayout
  1
Model
 70
     1
 71
     0
 10
0.0
 20
0.0
 11
420.0
 21
297.0
 12
0.0
 22
0.0
 32
0.0
 14
0.0
 24
0.0
 34
0.0
 15
420.0
 25
297.0
 35
0.0
146
0.0
 13
0.0
 23
0.0
 33
0.0
 16
1.0
 26
0.0
 36
0.0
 17
0.0
 27
1.0
 37
0.0
 76
     0
330
1F
331
29
  0
MLINESTYLE
  5
18
102
{ACAD_REACTORS
330
17
102
}
330
17
100
AcDbMlineStyle
  2
Standard
 70
     0
  3

 62
   256
 51
90.0
 52
90.0
 71
     2
 49
0.5
 62
   256
  6
BYLAYER
 49
-0.5
 62
   256
  6
BYLAYER
  0
ACDBPLACEHOLDER
  5
F
102
{ACAD_REACTORS
330
E
102
}
330
E
  0
ENDSEC
  0
EOF
