  0
SECTION
  2
HEADER
  9
$ACADVER
  1
AC1009
  9
$DWGCODEPAGE
  3
ansi_1252
  9
$INSBASE
 10
0.0
 20
0.0
 30
0.0
  9
$EXTMIN
 10
0.0
 20
0.0
 30
0.0
  9
$EXTMAX
 10
841.0
 20
594.0
 30
0.0
  9
$LIMMIN
 10
0.0
 20
0.0
  9
$LIMMAX
 10
841.0
 20
594.0
  9
$ORTHOMODE
 70
     0
  9
$REGENMODE
 70
     1
  9
$FILLMODE
 70
     1
  9
$QTEXTMODE
 70
     0
  9
$MIRRTEXT
 70
     1
  9
$DRAGMODE
 70
     2
  9
$LTSCALE
 40
1.0
  9
$OSMODE
 70
    37
  9
$ATTMODE
 70
     1
  9
$TEXTSIZE
 40
3.5
  9
$TRACEWID
 40
1.0
  9
$TEXTSTYLE
  7
STANDARD
  9
$CLAYER
  8
0
  9
$CELTYPE
  6
BYLAYER
  9
$CECOLOR
 62
   256
  9
$DIMSCALE
 40
1.0
  9
$DIMASZ
 40
3.302
  9
$DIMEXO
 40
1.0
  9
$DIMDLI
 40
3.75
  9
$DIMRND
 40
0.0
  9
$DIMDLE
 40
0.0
  9
$DIMEXE
 40
1.0
  9
$DIMTP
 40
0.0
  9
$DIMTM
 40
0.0
  9
$DIMTXT
 40
3.5
  9
$DIMCEN
 40
2.5
  9
$DIMTSZ
 40
0.0
  9
$DIMTOL
 70
     0
  9
$DIMLIM
 70
     0
  9
$DIMTIH
 70
     1
  9
$DIMTOH
 70
     1
  9
$DIMSE1
 70
     0
  9
$DIMSE2
 70
     0
  9
$DIMTAD
 70
     1
  9
$DIMZIN
 70
     0
  9
$DIMBLK
  1

  9
$DIMASO
 70
     1
  9
$DIMSHO
 70
     1
  9
$DIMPOST
  1

  9
$DIMAPOST
  1

  9
$DIMALT
 70
     0
  9
$DIMALTD
 70
     3
  9
$DIMALTF
 40
0.0393700787
  9
$DIMLFAC
 40
1.0
  9
$DIMTOFL
 70
     1
  9
$DIMTVP
 40
0.0
  9
$DIMTIX
 70
     0
  9
$DIMSOXD
 70
     0
  9
$DIMSAH
 70
     0
  9
$DIMBLK1
  1

  9
$DIMBLK2
  1

  9
$DIMSTYLE
  2
ISO-25
  9
$DIMCLRD
 70
     0
  9
$DIMCLRE
 70
     0
  9
$DIMCLRT
 70
     0
  9
$DIMTFAC
 40
1.0
  9
$DIMGAP
 40
1.524
  9
$LUNITS
 70
     2
  9
$LUPREC
 70
     1
  9
$SKETCHINC
 40
1.0
  9
$FILLETRAD
 40
10.0
  9
$AUNITS
 70
     0
  9
$AUPREC
 70
     1
  9
$MENU
  1
.
  9
$ELEVATION
 40
0.0
  9
$PELEVATION
 40
0.0
  9
$THICKNESS
 40
0.0
  9
$LIMCHECK
 70
     0
  9
$CHAMFERA
 40
10.0
  9
$CHAMFERB
 40
10.0
  9
$SKPOLY
 70
     0
  9
$TDCREATE
 40
2455862.556508889
  9
$TDUPDATE
 40
2455862.556508901
  9
$TDINDWG
 40
0.0000000116
  9
$TDUSRTIMER
 40
0.0000000116
  9
$USRTIMER
 70
     1
  9
$ANGBASE
 50
0.0
  9
$ANGDIR
 70
     0
  9
$PDMODE
 70
     0
  9
$PDSIZE
 40
-1.0
  9
$PLINEWID
 40
0.0
  9
$COORDS
 70
     1
  9
$SPLFRAME
 70
     0
  9
$SPLINETYPE
 70
     6
  9
$SPLINESEGS
 70
     8
  9
$ATTDIA
 70
     0
  9
$ATTREQ
 70
     1
  9
$HANDLING
 70
     1
  9
$HANDSEED
  5
A84
  9
$SURFTAB1
 70
     6
  9
$SURFTAB2
 70
     6
  9
$SURFTYPE
 70
     6
  9
$SURFU
 70
     6
  9
$SURFV
 70
     6
  9
$UCSNAME
  2

  9
$UCSORG
 10
0.0
 20
0.0
 30
0.0
  9
$UCSXDIR
 10
1.0
 20
0.0
 30
0.0
  9
$UCSYDIR
 10
0.0
 20
1.0
 30
0.0
  9
$PUCSNAME
  2

  9
$PUCSORG
 10
0.0
 20
0.0
 30
0.0
  9
$PUCSXDIR
 10
1.0
 20
0.0
 30
0.0
  9
$PUCSYDIR
 10
0.0
 20
1.0
 30
0.0
  9
$USERI1
 70
     0
  9
$USERI2
 70
     0
  9
$USERI3
 70
     0
  9
$USERI4
 70
     0
  9
$USERI5
 70
     0
  9
$USERR1
 40
0.0
  9
$USERR2
 40
0.0
  9
$USERR3
 40
0.0
  9
$USERR4
 40
0.0
  9
$USERR5
 40
0.0
  9
$WORLDVIEW
 70
     1
  9
$SHADEDGE
 70
     3
  9
$SHADEDIF
 70
    70
  9
$TILEMODE
 70
     1
  9
$MAXACTVP
 70
    64
  9
$PLIMCHECK
 70
     0
  9
$PEXTMIN
 10
1.0000000000E+20
 20
1.0000000000E+20
 30
1.0000000000E+20
  9
$PEXTMAX
 10
-1.0000000000E+20
 20
-1.0000000000E+20
 30
-1.0000000000E+20
  9
$PLIMMIN
 10
0.0
 20
0.0
  9
$PLIMMAX
 10
420.0
 20
297.0
  9
$UNITMODE
 70
     0
  9
$VISRETAIN
 70
     1
  9
$PLINEGEN
 70
     0
  9
$PSLTSCALE
 70
     1
  0
ENDSEC
  0
SECTION
  2
TABLES
  0
TABLE
  2
VPORT
 70
     1
  0
VPORT
  2
*ACTIVE
 70
     0
 10
0.0
 20
0.0
 11
1.0
 21
1.0
 12
420.5
 22
297.0
 13
0.0
 23
0.0
 14
10.0
 24
10.0
 15
10.0
 25
10.0
 16
0.0
 26
0.0
 36
1.0
 17
0.0
 27
0.0
 37
0.0
 40
594.0
 41
1.4158249158
 42
50.0
 43
0.0
 44
0.0
 50
0.0
 51
0.0
 71
     0
 72
  2000
 73
     1
 74
     3
 75
     0
 76
     0
 77
     0
 78
     0
  0
ENDTAB
  0
TABLE
  2
LTYPE
 70
     8
  0
LTYPE
  2
CONTINUOUS
 70
     0
  3
Solid line
 72
    65
 73
     0
 40
0.0
  0
LTYPE
  2
SLD-SOLID
 70
     0
  3
SolidWorks Line Style
 72
    65
 73
     0
 40
0.0
  0
LTYPE
  2
SLD-DASHED
 70
     0
  3
SolidWorks Line Style
 72
    65
 73
     2
 40
1.905
 49
1.27
 49
-0.635
  0
LTYPE
  2
SLD-PHANTOM
 70
     0
  3
SolidWorks Line Style
 72
    65
 73
     6
 40
12.7
 49
6.35
 49
-1.27
 49
1.27
 49
-1.27
 49
1.27
 49
-1.27
  0
LTYPE
  2
SLD-CHAIN
 70
     0
  3
SolidWorks Line Style
 72
    65
 73
     4
 40
10.16
 49
6.35
 49
-1.27
 49
1.27
 49
-1.27
  0
LTYPE
  2
SLD-CENTER
 70
     0
  3
SolidWorks Line Style
 72
    65
 73
     4
 40
19.05
 49
15.24
 49
-1.27
 49
1.27
 49
-1.27
  0
LTYPE
  2
SLD-STITCH
 70
     0
  3
SolidWorks Line Style
 72
    65
 73
     2
 40
0.635
 49
0.0
 49
-0.635
  0
LTYPE
  2
SLD-THIN-THICK-CHAIN
 70
     0
  3
SolidWorks Line Style
 72
    65
 73
     4
 40
10.16
 49
6.35
 49
-1.27
 49
1.27
 49
-1.27
  0
ENDTAB
  0
TABLE
  2
LAYER
 70
     1
  0
LAYER
  2
0
 70
     0
 62
     7
  6
CONTINUOUS
  0
ENDTAB
  0
TABLE
  2
STYLE
 70
     1
  0
STYLE
  2
STANDARD
 70
     0
 40
0.0
 41
1.0
 50
0.0
 71
     0
 42
2.5
  3
txt
  4

  0
ENDTAB
  0
TABLE
  2
VIEW
 70
     0
  0
ENDTAB
  0
TABLE
  2
UCS
 70
     0
  0
ENDTAB
  0
TABLE
  2
APPID
 70
     1
  0
APPID
  2
ACAD
 70
     0
  0
ENDTAB
  0
TABLE
  2
DIMSTYLE
 70
     1
  0
DIMSTYLE
  2
ISO-25
 70
     0
  3

  4

  5

  6

  7

 40
1.0
 41
2.5
 42
0.625
 43
3.75
 44
1.25
 45
0.0
 46
0.0
 47
0.0
 48
0.0
140
2.5
141
2.5
142
0.0
143
0.0393700787
144
1.0
145
0.0
146
1.0
147
0.625
 71
     0
 72
     0
 73
     0
 74
     0
 75
     0
 76
     0
 77
     1
 78
     8
170
     0
171
     3
172
     1
173
     0
174
     0
175
     0
176
     0
177
     0
178
     0
  0
ENDTAB
  0
ENDSEC
  0
SECTION
  2
BLOCKS
  0
BLOCK
  8
0
  2
$MODEL_SPACE
 70
     0
 10
0.0
 20
0.0
 30
0.0
  3
$MODEL_SPACE
  1

  0
ENDBLK
  5
21
  8
0
  0
BLOCK
 67
     1
  8
0
  2
$PAPER_SPACE
 70
     0
 10
0.0
 20
0.0
 30
0.0
  3
$PAPER_SPACE
  1

  0
ENDBLK
  5
1D
 67
     1
  8
0
  0
ENDSEC
  0
SECTION
  2
ENTITIES
  0
ARC
  5
46
  8
0
  6
SLD-SOLID
 62
     7
 10
633.890293383
 20
133.8063812041
 30
0.0
 40
13.00599594552341
 50
115.0458189161
 51
180.0
  0
ARC
  5
47
  8
0
  6
SLD-SOLID
 62
     7
 10
556.878301492
 20
133.8063812041
 30
0.0
 40
13.0059959455233
 50
0.0
 51
64.9541810839
  0
ARC
  5
48
  8
0
  6
SLD-SOLID
 62
     7
 10
633.890293383
 20
-142.6275466427
 30
0.0
 40
13.00599594552341
 50
180.0
 51
244.9541810839
  0
ARC
  5
49
  8
0
  6
SLD-SOLID
 62
     7
 10
556.878301492
 20
-142.6275466427
 30
0.0
 40
13.0059959455233
 50
295.0458189161
 51
0.0
  0
LINE
  5
4A
  8
0
  6
SLD-SOLID
 62
     7
 10
620.8842960442
 20
-142.6275571705
 30
0.0
 11
620.8842960442
 21
-90.3392931344
 31
0.0
  0
LINE
  5
4B
  8
0
  6
SLD-SOLID
 62
     7
 10
569.8842969979
 20
-90.3392931344
 30
0.0
 11
569.8842969979
 21
-142.6275571705
 31
0.0
  0
LINE
  5
4C
  8
0
  6
SLD-SOLID
 62
     7
 10
620.8842960442
 20
-88.4818782927
 30
0.0
 11
620.8842960442
 21
79.6607086538
 31
0.0
  0
LINE
  5
4D
  8
0
  6
SLD-SOLID
 62
     7
 10
569.8842969979
 20
79.6607086538
 30
0.0
 11
569.8842969979
 21
-88.4818782927
 31
0.0
  0
ARC
  5
4E
  8
0
  6
SLD-SOLID
 62
     7
 10
620.6842974375
 20
81.5181260618
 30
0.0
 40
0.2000000000000595
 50
282.153197469
 51
0.0
  0
ARC
  5
4F
  8
0
  6
SLD-SOLID
 62
     7
 10
570.0842974375
 20
81.5181260618
 30
0.0
 40
0.2000000000000595
 50
180.0
 51
257.846802531
  0
ARC
  5
50
  8
0
  6
SLD-SOLID
 62
     7
 10
620.6842974375
 20
-88.4818739382
 30
0.0
 40
0.2000000000000039
 50
282.153197469
 51
0.0
  0
ARC
  5
51
  8
0
  6
SLD-SOLID
 62
     7
 10
570.0842974375
 20
-88.4818739382
 30
0.0
 40
0.2000000000000039
 50
180.0
 51
257.846802531
  0
LINE
  5
52
  8
0
  6
SLD-SOLID
 62
     7
 10
620.8842960442
 20
81.5181234954
 30
0.0
 11
620.8842960442
 21
133.8063819437
 31
0.0
  0
LINE
  5
53
  8
0
  6
SLD-SOLID
 62
     7
 10
569.8842969979
 20
133.8063819437
 30
0.0
 11
569.8842969979
 21
81.5181234954
 31
0.0
  0
ARC
  5
54
  8
0
  6
SLD-SOLID
 62
     7
 10
620.6842974375
 20
-90.3392915003
 30
0.0
 40
0.2000000000000039
 50
0.0
 51
77.846802531
  0
ARC
  5
55
  8
0
  6
SLD-SOLID
 62
     7
 10
570.0842974375
 20
-90.3392915003
 30
0.0
 40
0.2000000000000039
 50
102.153197469
 51
180.0
  0
ARC
  5
56
  8
0
  6
SLD-SOLID
 62
     7
 10
620.6842974375
 20
79.6607084997
 30
0.0
 40
0.2000000000000039
 50
0.0
 51
77.846802531
  0
ARC
  5
57
  8
0
  6
SLD-SOLID
 62
     7
 10
570.0842974375
 20
79.6607084997
 30
0.0
 40
0.2000000000000039
 50
102.153197469
 51
180.0
  0
ARC
  5
58
  8
0
  6
SLD-SOLID
 62
     7
 10
620.8842974375
 20
80.5894172807
 30
0.0
 40
0.749999999999889
 50
102.153197469
 51
257.846802531
  0
ARC
  5
59
  8
0
  6
SLD-SOLID
 62
     7
 10
569.8842974375
 20
80.5894172807
 30
0.0
 40
0.749999999999889
 50
282.153197469
 51
77.846802531
  0
ARC
  5
5A
  8
0
  6
SLD-SOLID
 62
     7
 10
620.8842974375
 20
-89.4105827193
 30
0.0
 40
0.7499999999999925
 50
102.153197469
 51
257.846802531
  0
ARC
  5
5B
  8
0
  6
SLD-SOLID
 62
     7
 10
569.8842974375
 20
-89.4105827193
 30
0.0
 40
0.7499999999999925
 50
282.153197469
 51
77.846802531
  0
LINE
  5
5C
  8
0
  6
SLD-SOLID
 62
     7
 10
601.3842937792
 20
-173.9105781437
 30
0.0
 11
601.3842937792
 21
-154.4105907799
 31
0.0
  0
LINE
  5
5D
  8
0
  6
SLD-SOLID
 62
     7
 10
589.3842992628
 20
-154.4105907799
 30
0.0
 11
589.3842992628
 21
-173.9105781437
 31
0.0
  0
LINE
  5
5E
  8
0
  6
SLD-SOLID
 62
     7
 10
589.3842992628
 20
-173.9105781437
 30
0.0
 11
589.8843002761
 21
-174.4105717064
 31
0.0
  0
LINE
  5
5F
  8
0
  6
SLD-SOLID
 62
     7
 10
600.8843002165
 20
-174.4105717064
 30
0.0
 11
601.3842937792
 21
-173.9105781437
 31
0.0
  0
ARC
  5
60
  8
0
  6
SLD-SOLID
 62
     7
 10
173.890293383
 20
133.8063812041
 30
0.0
 40
13.00599594552331
 50
115.0458189161
 51
180.0
  0
ARC
  5
61
  8
0
  6
SLD-SOLID
 62
     7
 10
96.878301492
 20
133.8063812041
 30
0.0
 40
13.00599594552333
 50
0.0
 51
53.9386439307
  0
ARC
  5
62
  8
0
  6
SLD-SOLID
 62
     7
 10
173.890293383
 20
-142.6275466427
 30
0.0
 40
13.00599594552335
 50
180.0
 51
244.9541810839
  0
ARC
  5
63
  8
0
  6
SLD-SOLID
 62
     7
 10
96.878301492
 20
-142.6275466427
 30
0.0
 40
13.00599594552338
 50
295.0458189161
 51
0.0
  0
ARC
  5
64
  8
0
  6
SLD-SOLID
 62
     7
 10
160.6842974375
 20
81.5181260618
 30
0.0
 40
0.2000000000000714
 50
282.153197469
 51
0.0
  0
ARC
  5
65
  8
0
  6
SLD-SOLID
 62
     7
 10
110.0842974375
 20
81.5181260618
 30
0.0
 40
0.2000000000000684
 50
180.0
 51
257.846802531
  0
LINE
  5
66
  8
0
  6
SLD-SOLID
 62
     7
 10
160.8842951501
 20
-88.4818782927
 30
0.0
 11
160.8842951501
 21
79.6607086538
 31
0.0
  0
LINE
  5
67
  8
0
  6
SLD-SOLID
 62
     7
 10
109.8842961038
 20
79.6607086538
 30
0.0
 11
109.8842961038
 21
-88.4818782927
 31
0.0
  0
LINE
  5
68
  8
0
  6
SLD-SOLID
 62
     7
 10
160.8842951501
 20
81.5181234954
 30
0.0
 11
160.8842951501
 21
133.8063819437
 31
0.0
  0
LINE
  5
69
  8
0
  6
SLD-SOLID
 62
     7
 10
109.8842961038
 20
133.8063819437
 30
0.0
 11
109.8842961038
 21
81.5181234954
 31
0.0
  0
ARC
  5
6A
  8
0
  6
SLD-SOLID
 62
     7
 10
160.6842974375
 20
-90.3392915003
 30
0.0
 40
0.2000000000000455
 50
0.0
 51
77.846802531
  0
ARC
  5
6B
  8
0
  6
SLD-SOLID
 62
     7
 10
110.0842974375
 20
-90.3392915003
 30
0.0
 40
0.2000000000000313
 50
102.153197469
 51
180.0
  0
ARC
  5
6C
  8
0
  6
SLD-SOLID
 62
     7
 10
160.6842974375
 20
-88.4818739382
 30
0.0
 40
0.2000000000000455
 50
282.153197469
 51
0.0
  0
ARC
  5
6D
  8
0
  6
SLD-SOLID
 62
     7
 10
110.0842974375
 20
-88.4818739382
 30
0.0
 40
0.2000000000000313
 50
180.0
 51
257.846802531
  0
ARC
  5
6E
  8
0
  6
SLD-SOLID
 62
     7
 10
160.6842974375
 20
79.6607084997
 30
0.0
 40
0.2000000000000455
 50
0.0
 51
77.846802531
  0
ARC
  5
6F
  8
0
  6
SLD-SOLID
 62
     7
 10
110.0842974375
 20
79.6607084997
 30
0.0
 40
0.2000000000000313
 50
102.153197469
 51
180.0
  0
LINE
  5
70
  8
0
  6
SLD-SOLID
 62
     7
 10
160.8842951501
 20
-142.6275571705
 30
0.0
 11
160.8842951501
 21
-90.3392931344
 31
0.0
  0
LINE
  5
71
  8
0
  6
SLD-SOLID
 62
     7
 10
109.8842961038
 20
-90.3392931344
 30
0.0
 11
109.8842961038
 21
-142.6275571705
 31
0.0
  0
ARC
  5
72
  8
0
  6
SLD-SOLID
 62
     7
 10
160.8842974375
 20
80.5894172807
 30
0.0
 40
0.749999999999913
 50
102.153197469
 51
257.846802531
  0
ARC
  5
73
  8
0
  6
SLD-SOLID
 62
     7
 10
109.8842974375
 20
80.5894172807
 30
0.0
 40
0.749999999999913
 50
282.153197469
 51
77.846802531
  0
ARC
  5
74
  8
0
  6
SLD-SOLID
 62
     7
 10
160.8842974375
 20
-89.4105827193
 30
0.0
 40
0.7500000000000044
 50
102.153197469
 51
257.846802531
  0
ARC
  5
75
  8
0
  6
SLD-SOLID
 62
     7
 10
109.8842974375
 20
-89.4105827193
 30
0.0
 40
0.7500000000000044
 50
282.153197469
 51
77.846802531
  0
LINE
  5
76
  8
0
  6
SLD-SOLID
 62
     7
 10
129.3842834676
 20
-173.9105781437
 30
0.0
 11
129.8843068326
 21
-174.4105717064
 31
0.0
  0
LINE
  5
77
  8
0
  6
SLD-SOLID
 62
     7
 10
140.8842844213
 20
-174.4105717064
 30
0.0
 11
141.3843077863
 21
-173.9105781437
 31
0.0
  0
LINE
  5
78
  8
0
  6
SLD-SOLID
 62
     7
 10
141.3843077863
 20
-173.9105781437
 30
0.0
 11
141.3843077863
 21
-154.4105907799
 31
0.0
  0
LINE
  5
79
  8
0
  6
SLD-SOLID
 62
     7
 10
129.3842834676
 20
-154.4105907799
 30
0.0
 11
129.3842834676
 21
-173.9105781437
 31
0.0
  0
LINE
  5
7A
  8
0
  6
SLD-SOLID
 62
     7
 10
672.5736302579
 20
330.2946487544
 30
0.0
 11
672.872413441
 21
329.5733282445
 31
0.0
  0
LINE
  5
7B
  8
0
  6
SLD-SOLID
 62
     7
 10
667.6275474275
 20
334.0637782691
 30
0.0
 11
667.1276134694
 21
333.180199015
 31
0.0
  0
LINE
  5
7C
  8
0
  6
SLD-SOLID
 62
     7
 10
667.1276134694
 20
333.180199015
 30
0.0
 11
668.1059045041
 21
332.9089233755
 31
0.0
  0
LINE
  5
7D
  8
0
  6
SLD-SOLID
 62
     7
 10
668.1059045041
 20
332.9089233755
 30
0.0
 11
667.6059705461
 21
332.0253590225
 31
0.0
  0
LINE
  5
7E
  8
0
  6
SLD-SOLID
 62
     7
 10
667.1491903509
 20
335.2186182617
 30
0.0
 11
666.6492563928
 21
334.3350539087
 31
0.0
  0
LINE
  5
7F
  8
0
  6
SLD-SOLID
 62
     7
 10
666.6492563928
 20
334.3350539087
 30
0.0
 11
667.6275474275
 21
334.0637782691
 31
0.0
  0
LINE
  5
80
  8
0
  6
SLD-SOLID
 62
     7
 10
667.6059705461
 20
332.0253590225
 30
0.0
 11
668.5842466796
 21
331.7540684818
 31
0.0
  0
LINE
  5
81
  8
0
  6
SLD-SOLID
 62
     7
 10
668.5842466796
 20
331.7540684818
 30
0.0
 11
668.0843276227
 21
330.8705041288
 31
0.0
  0
LINE
  5
82
  8
0
  6
SLD-SOLID
 62
     7
 10
668.76750116
 20
328.8151869653
 30
0.0
 11
668.94536142
 21
328.7917772411
 31
0.0
  0
LINE
  5
83
  8
0
  6
SLD-SOLID
 62
     7
 10
668.0843276227
 20
330.8705041288
 30
0.0
 11
667.9751170123
 21
330.7281682371
 31
0.0
  0
LINE
  5
84
  8
0
  6
SLD-SOLID
 62
     7
 10
662.5851434911
 20
362.8305444597
 30
0.0
 11
661.9658363307
 21
364.3256822704
 31
0.0
  0
LINE
  5
85
  8
0
  6
SLD-SOLID
 62
     7
 10
671.2041688407
 20
360.5755815385
 30
0.0
 11
671.9695371831
 21
358.7278226493
 31
0.0
  0
LINE
  5
86
  8
0
  6
SLD-SOLID
 62
     7
 10
671.474773928
 20
361.2288633464
 30
0.0
 11
671.2041688407
 21
360.5755815385
 31
0.0
  0
LINE
  5
87
  8
0
  6
SLD-SOLID
 62
     7
 10
665.7105875457
 20
333.9880952714
 30
0.0
 11
665.7455903734
 21
333.9622268556
 31
0.0
  0
LINE
  5
88
  8
0
  6
SLD-SOLID
 62
     7
 10
671.6451985086
 20
351.0182002662
 30
0.0
 11
671.4141113008
 21
350.9228030323
 31
0.0
  0
LINE
  5
89
  8
0
  6
SLD-SOLID
 62
     7
 10
660.7894939626
 20
346.5219387887
 30
0.0
 11
660.5586451734
 21
346.4259902118
 31
0.0
  0
LINE
  5
8A
  8
0
  6
SLD-SOLID
 62
     7
 10
665.7455903734
 20
333.9622268556
 30
0.0
 11
665.7461268152
 21
333.9609602569
 31
0.0
  0
LINE
  5
8B
  8
0
  6
SLD-SOLID
 62
     7
 10
671.4141113008
 20
350.9228030323
 30
0.0
 11
670.6487429584
 21
352.7705619214
 31
0.0
  0
LINE
  5
8C
  8
0
  6
SLD-SOLID
 62
     7
 10
660.0241256202
 20
348.3696976779
 30
0.0
 11
660.7894939626
 21
346.5219387887
 31
0.0
  0
POLYLINE
  5
8D
  8
0
  6
SLD-SOLID
 62
     7
 66
     1
 10
0.0
 20
0.0
 30
0.0
  0
VERTEX
  5
57F
  8
0
  6
SLD-SOLID
 62
     7
 10
654.2511326517
 20
373.9053258775
 30
0.0
  0
VERTEX
  5
580
  8
0
  6
SLD-SOLID
 62
     7
 10
654.1371536697
 20
372.9714552043
 30
0.0
  0
VERTEX
  5
581
  8
0
  6
SLD-SOLID
 62
     7
 10
654.2970729316
 20
371.2109128116
 30
0.0
  0
VERTEX
  5
582
  8
0
  6
SLD-SOLID
 62
     7
 10
655.3708506072
 20
367.3732826589
 30
0.0
  0
VERTEX
  5
583
  8
0
  6
SLD-SOLID
 62
     7
 10
658.431876942
 20
359.4011763214
 30
0.0
  0
SEQEND
  5
584
  8
0
  6
SLD-SOLID
 62
     7
  0
ARC
  5
8E
  8
0
  6
SLD-SOLID
 62
     7
 10
682.4320908381
 20
380.8091846938
 30
0.0
 40
24.33640432036326
 50
192.0691996608
 51
204.6474730498
  0
LINE
  5
8F
  8
0
  6
SLD-SOLID
 62
     7
 10
666.195292517
 20
356.3360521673
 30
0.0
 11
663.9487934554
 21
361.7595682023
 31
0.0
  0
LINE
  5
90
  8
0
  6
SLD-SOLID
 62
     7
 10
658.4055167879
 20
359.4634631751
 30
0.0
 11
660.6520158494
 21
354.0399471401
 31
0.0
  0
LINE
  5
91
  8
0
  6
SLD-SOLID
 62
     7
 10
277.6842904533
 20
374.6894100784
 30
0.0
 11
277.6842904533
 21
372.6894209264
 31
0.0
  0
LINE
  5
92
  8
0
  6
SLD-SOLID
 62
     7
 10
282.6843005861
 20
372.6894209264
 30
0.0
 11
282.6843005861
 21
374.6894100784
 31
0.0
  0
LINE
  5
93
  8
0
  6
SLD-SOLID
 62
     7
 10
277.6842904533
 20
372.6894209264
 30
0.0
 11
277.8842938388
 21
372.4894175409
 31
0.0
  0
LINE
  5
94
  8
0
  6
SLD-SOLID
 62
     7
 10
282.4842972005
 20
372.4894175409
 30
0.0
 11
282.6843005861
 21
372.6894209264
 31
0.0
  0
LINE
  5
95
  8
0
  6
SLD-SOLID
 62
     7
 10
617.6842940296
 20
372.6894209264
 30
0.0
 11
617.8842974151
 21
372.4894175409
 31
0.0
  0
LINE
  5
96
  8
0
  6
SLD-SOLID
 62
     7
 10
622.4843007768
 20
372.4894175409
 30
0.0
 11
622.6843041624
 21
372.6894209264
 31
0.0
  0
LINE
  5
97
  8
0
  6
SLD-SOLID
 62
     7
 10
617.6842940296
 20
374.6894100784
 30
0.0
 11
617.6842940296
 21
372.6894209264
 31
0.0
  0
LINE
  5
98
  8
0
  6
SLD-SOLID
 62
     7
 10
622.6843041624
 20
372.6894209264
 30
0.0
 11
622.6843041624
 21
374.6894100784
 31
0.0
  0
LINE
  5
99
  8
0
  6
SLD-SOLID
 62
     7
 10
447.6842959667
 20
374.6894100784
 30
0.0
 11
447.6842959667
 21
372.6894209264
 31
0.0
  0
LINE
  5
9A
  8
0
  6
SLD-SOLID
 62
     7
 10
452.6842986489
 20
372.6894209264
 30
0.0
 11
452.6842986489
 21
374.6894100784
 31
0.0
  0
LINE
  5
9B
  8
0
  6
SLD-SOLID
 62
     7
 10
447.6842959667
 20
372.6894209264
 30
0.0
 11
447.884295627
 21
372.4894175409
 31
0.0
  0
LINE
  5
9C
  8
0
  6
SLD-SOLID
 62
     7
 10
452.4842989887
 20
372.4894175409
 30
0.0
 11
452.6842986489
 21
372.6894209264
 31
0.0
  0
LINE
  5
9D
  8
0
  6
SLD-SOLID
 62
     7
 10
107.6842886651
 20
372.6894209264
 30
0.0
 11
107.8842920507
 21
372.4894175409
 31
0.0
  0
LINE
  5
9E
  8
0
  6
SLD-SOLID
 62
     7
 10
112.4843103136
 20
372.4894175409
 30
0.0
 11
112.6842838968
 21
372.6894209264
 31
0.0
  0
LINE
  5
9F
  8
0
  6
SLD-SOLID
 62
     7
 10
107.6842886651
 20
374.6894100784
 30
0.0
 11
107.6842886651
 21
372.6894209264
 31
0.0
  0
LINE
  5
A0
  8
0
  6
SLD-SOLID
 62
     7
 10
112.6842838968
 20
372.6894209264
 30
0.0
 11
112.6842838968
 21
374.6894100784
 31
0.0
  0
LINE
  5
A1
  8
0
  6
SLD-SOLID
 62
     7
 10
710.3842986072
 20
146.2894171579
 30
0.0
 11
710.3842986072
 21
146.7894172399
 31
0.0
  0
LINE
  5
A2
  8
0
  6
SLD-SOLID
 62
     7
 10
702.3842972959
 20
146.7894172399
 30
0.0
 11
702.3842972959
 21
146.2894171579
 31
0.0
  0
LINE
  5
A3
  8
0
  6
SLD-SOLID
 62
     7
 10
792.1842974866
 20
146.2894171579
 30
0.0
 11
792.1842974866
 21
146.7894172399
 31
0.0
  0
LINE
  5
A4
  8
0
  6
SLD-SOLID
 62
     7
 10
784.1843110765
 20
146.7894172399
 30
0.0
 11
784.1843110765
 21
146.2894171579
 31
0.0
  0
LINE
  5
A5
  8
0
  6
SLD-SOLID
 62
     7
 10
792.9843110288
 20
496.015618193
 30
0.0
 11
50.7842940534
 21
496.015618193
 31
0.0
  0
ARC
  5
A6
  8
0
  6
SLD-SOLID
 62
     7
 10
49.9342974375
 20
150.2894172807
 30
0.0
 40
0.3000000000000185
 50
0.0
 51
90.0
  0
ARC
  5
A7
  8
0
  6
SLD-SOLID
 62
     7
 10
49.9342974375
 20
149.8894172807
 30
0.0
 40
0.3000000000000185
 50
270.0
 51
0.0
  0
POLYLINE
  5
A8
  8
0
  6
SLD-SOLID
 62
     7
 66
     1
 10
0.0
 20
0.0
 30
0.0
  0
VERTEX
  5
585
  8
0
  6
SLD-SOLID
 62
     7
 10
40.7695514406
 20
149.5964882067
 30
0.0
  0
VERTEX
  5
586
  8
0
  6
SLD-SOLID
 62
     7
 10
40.7757801259
 20
149.5951815611
 30
0.0
  0
VERTEX
  5
587
  8
0
  6
SLD-SOLID
 62
     7
 10
40.8343118871
 20
149.58941714
 30
0.0
  0
SEQEND
  5
588
  8
0
  6
SLD-SOLID
 62
     7
  0
LINE
  5
A9
  8
0
  6
SLD-SOLID
 62
     7
 10
50.2342921937
 20
149.8894170961
 30
0.0
 11
50.2342921937
 21
150.2894173479
 31
0.0
  0
LINE
  5
AA
  8
0
  6
SLD-SOLID
 62
     7
 10
49.3843001569
 20
148.2894174857
 30
0.0
 11
49.3843001569
 21
148.789417102
 31
0.0
  0
LINE
  5
AB
  8
0
  6
SLD-SOLID
 62
     7
 10
41.3842839445
 20
148.789417102
 30
0.0
 11
41.3842839445
 21
148.2894174857
 31
0.0
  0
ARC
  5
AC
  8
0
  6
SLD-SOLID
 62
     7
 10
49.1842974375
 20
150.8894172807
 30
0.0
 40
0.3000000000000185
 50
180.0
 51
270.0
  0
LINE
  5
AD
  8
0
  6
SLD-SOLID
 62
     7
 10
48.8843065942
 20
150.88941726
 30
0.0
 11
48.8843065942
 21
151.7894173609
 31
0.0
  0
LINE
  5
AE
  8
0
  6
SLD-SOLID
 62
     7
 10
93.8842934812
 20
196.5766387163
 30
0.0
 11
93.8842934812
 21
204.857884544
 31
0.0
  0
LINE
  5
AF
  8
0
  6
SLD-SOLID
 62
     7
 10
85.8843070711
 20
204.857884544
 30
0.0
 11
85.8843070711
 21
196.5766387163
 31
0.0
  0
LINE
  5
B0
  8
0
  6
SLD-SOLID
 62
     7
 10
647.8842986072
 20
196.5766387163
 30
0.0
 11
647.8842986072
 21
204.857884544
 31
0.0
  0
LINE
  5
B1
  8
0
  6
SLD-SOLID
 62
     7
 10
639.8842972959
 20
204.857884544
 30
0.0
 11
639.8842972959
 21
196.5766387163
 31
0.0
  0
ARC
  5
B2
  8
0
  6
SLD-SOLID
 62
     7
 10
89.8842974375
 20
207.6702165582
 30
0.0
 40
4.0
 50
0.0
 51
180.0
  0
LINE
  5
B3
  8
0
  6
SLD-SOLID
 62
     7
 10
85.8843070711
 20
207.670217949
 30
0.0
 11
85.8843070711
 21
204.857884544
 31
0.0
  0
LINE
  5
B4
  8
0
  6
SLD-SOLID
 62
     7
 10
93.8842934812
 20
204.857884544
 30
0.0
 11
93.8842934812
 21
207.670217949
 31
0.0
  0
ARC
  5
B5
  8
0
  6
SLD-SOLID
 62
     7
 10
643.8842974375
 20
207.6702165582
 30
0.0
 40
4.000000000000114
 50
0.0
 51
180.0
  0
LINE
  5
B6
  8
0
  6
SLD-SOLID
 62
     7
 10
647.8842986072
 20
204.857884544
 30
0.0
 11
647.8842986072
 21
207.670217949
 31
0.0
  0
LINE
  5
B7
  8
0
  6
SLD-SOLID
 62
     7
 10
639.8842972959
 20
207.670217949
 30
0.0
 11
639.8842972959
 21
204.857884544
 31
0.0
  0
LINE
  5
B8
  8
0
  6
SLD-SOLID
 62
     7
 10
93.8842934812
 20
202.2412071107
 30
0.0
 11
105.8842879976
 21
202.2412071107
 31
0.0
  0
LINE
  5
B9
  8
0
  6
SLD-SOLID
 62
     7
 10
627.8843027795
 20
202.2412071107
 30
0.0
 11
639.8842972959
 21
202.2412071107
 31
0.0
  0
LINE
  5
BA
  8
0
  6
SLD-SOLID
 62
     7
 10
639.8842972959
 20
210.241208422
 30
0.0
 11
628.3857715572
 21
210.241208422
 31
0.0
  0
LINE
  5
BB
  8
0
  6
SLD-SOLID
 62
     7
 10
105.3828341211
 20
210.241208422
 30
0.0
 11
93.8842934812
 21
210.241208422
 31
0.0
  0
LINE
  5
BC
  8
0
  6
SLD-SOLID
 62
     7
 10
647.8842986072
 20
206.6983828424
 30
0.0
 11
652.6842904533
 21
206.6983828424
 31
0.0
  0
LINE
  5
BD
  8
0
  6
SLD-SOLID
 62
     7
 10
639.8842972959
 20
209.6913853763
 30
0.0
 11
640.4325110162
 21
209.6913853763
 31
0.0
  0
LINE
  5
BE
  8
0
  6
SLD-SOLID
 62
     7
 10
647.3360848869
 20
209.6913853763
 30
0.0
 11
652.6842904533
 21
209.6913853763
 31
0.0
  0
LINE
  5
BF
  8
0
  6
SLD-SOLID
 62
     7
 10
668.8842964614
 20
217.6913829623
 30
0.0
 11
650.6843013013
 21
217.6913829623
 31
0.0
  0
LINE
  5
C0
  8
0
  6
SLD-SOLID
 62
     7
 10
649.8843026603
 20
217.6913829623
 30
0.0
 11
646.8842965806
 21
217.6913829623
 31
0.0
  0
LINE
  5
C1
  8
0
  6
SLD-SOLID
 62
     7
 10
640.8842993225
 20
217.6913829623
 30
0.0
 11
639.8842972959
 21
217.6913829623
 31
0.0
  0
LINE
  5
C2
  8
0
  6
SLD-SOLID
 62
     7
 10
618.8842994417
 20
238.1518432973
 30
0.0
 11
618.8842994417
 21
211.4879289745
 31
0.0
  0
LINE
  5
C3
  8
0
  6
SLD-SOLID
 62
     7
 10
624.8842966998
 20
211.4879289745
 30
0.0
 11
624.8842966998
 21
238.1518432973
 31
0.0
  0
LINE
  5
C4
  8
0
  6
SLD-SOLID
 62
     7
 10
640.8842993225
 20
230.9344509719
 30
0.0
 11
640.8842993225
 21
212.1213512598
 31
0.0
  0
LINE
  5
C5
  8
0
  6
SLD-SOLID
 62
     7
 10
640.8842993225
 20
210.9902413665
 30
0.0
 11
640.8842993225
 21
210.9372193097
 31
0.0
  0
LINE
  5
C6
  8
0
  6
SLD-SOLID
 62
     7
 10
646.8842965806
 20
210.9372193097
 30
0.0
 11
646.8842965806
 21
211.0038684784
 31
0.0
  0
LINE
  5
C7
  8
0
  6
SLD-SOLID
 62
     7
 10
646.8842965806
 20
212.1213512598
 30
0.0
 11
646.8842965806
 21
230.9344509719
 31
0.0
  0
LINE
  5
C8
  8
0
  6
SLD-SOLID
 62
     7
 10
668.8842964614
 20
197.9936571895
 30
0.0
 11
647.8842986072
 21
197.9936571895
 31
0.0
  0
LINE
  5
C9
  8
0
  6
SLD-SOLID
 62
     7
 10
639.8842972959
 20
197.9936571895
 30
0.0
 11
630.884293958
 21
197.9936571895
 31
0.0
  0
LINE
  5
CA
  8
0
  6
SLD-SOLID
 62
     7
 10
664.3477273429
 20
191.993656206
 30
0.0
 11
668.8842964614
 21
191.993656206
 31
0.0
  0
ARC
  5
CB
  8
0
  6
SLD-SOLID
 62
     7
 10
630.851443619
 20
203.7367351251
 30
0.0
 40
5.743171886699783
 50
238.8929958088
 51
270.3277276183
  0
LINE
  5
CC
  8
0
  6
SLD-SOLID
 62
     7
 10
611.3842991436
 20
212.299714434
 30
0.0
 11
611.3842991436
 21
211.4879289745
 31
0.0
  0
LINE
  5
CD
  8
0
  6
SLD-SOLID
 62
     7
 10
615.3842997993
 20
211.4879289745
 30
0.0
 11
615.3842997993
 21
212.299714434
 31
0.0
  0
LINE
  5
CE
  8
0
  6
SLD-SOLID
 62
     7
 10
582.3842999781
 20
212.299714434
 30
0.0
 11
582.3842999781
 21
211.4879289745
 31
0.0
  0
LINE
  5
CF
  8
0
  6
SLD-SOLID
 62
     7
 10
586.3843006338
 20
211.4879289745
 30
0.0
 11
586.3843006338
 21
212.299714434
 31
0.0
  0
LINE
  5
D0
  8
0
  6
SLD-SOLID
 62
     7
 10
553.3842970873
 20
212.299714434
 30
0.0
 11
553.3842970873
 21
211.4879289745
 31
0.0
  0
LINE
  5
D1
  8
0
  6
SLD-SOLID
 62
     7
 10
557.3842977429
 20
211.4879289745
 30
0.0
 11
557.3842977429
 21
212.299714434
 31
0.0
  0
LINE
  5
D2
  8
0
  6
SLD-SOLID
 62
     7
 10
524.3842979217
 20
212.299714434
 30
0.0
 11
524.3842979217
 21
211.4879289745
 31
0.0
  0
LINE
  5
D3
  8
0
  6
SLD-SOLID
 62
     7
 10
528.3842985774
 20
211.4879289745
 30
0.0
 11
528.3842985774
 21
212.299714434
 31
0.0
  0
LINE
  5
D4
  8
0
  6
SLD-SOLID
 62
     7
 10
495.3842974756
 20
212.299714434
 30
0.0
 11
495.3842974756
 21
211.4879289745
 31
0.0
  0
LINE
  5
D5
  8
0
  6
SLD-SOLID
 62
     7
 10
499.3842975492
 20
211.4879289745
 30
0.0
 11
499.3842975492
 21
212.299714434
 31
0.0
  0
LINE
  5
D6
  8
0
  6
SLD-SOLID
 62
     7
 10
466.384297728
 20
212.299714434
 30
0.0
 11
466.384297728
 21
211.4879289745
 31
0.0
  0
LINE
  5
D7
  8
0
  6
SLD-SOLID
 62
     7
 10
470.384296521
 20
211.4879289745
 30
0.0
 11
470.384296521
 21
212.299714434
 31
0.0
  0
LINE
  5
D8
  8
0
  6
SLD-SOLID
 62
     7
 10
437.3842966998
 20
212.299714434
 30
0.0
 11
437.3842966998
 21
211.4879289745
 31
0.0
  0
LINE
  5
D9
  8
0
  6
SLD-SOLID
 62
     7
 10
441.3842973555
 20
211.4879289745
 30
0.0
 11
441.3842973555
 21
212.299714434
 31
0.0
  0
LINE
  5
DA
  8
0
  6
SLD-SOLID
 62
     7
 10
408.3842975343
 20
212.299714434
 30
0.0
 11
408.3842975343
 21
211.4879289745
 31
0.0
  0
LINE
  5
DB
  8
0
  6
SLD-SOLID
 62
     7
 10
412.38429819
 20
211.4879289745
 30
0.0
 11
412.38429819
 21
212.299714434
 31
0.0
  0
LINE
  5
DC
  8
0
  6
SLD-SOLID
 62
     7
 10
379.3842983688
 20
212.299714434
 30
0.0
 11
379.3842983688
 21
211.4879289745
 31
0.0
  0
LINE
  5
DD
  8
0
  6
SLD-SOLID
 62
     7
 10
383.3842990244
 20
211.4879289745
 30
0.0
 11
383.3842990244
 21
212.299714434
 31
0.0
  0
LINE
  5
DE
  8
0
  6
SLD-SOLID
 62
     7
 10
86.8842941965
 20
230.9344509719
 30
0.0
 11
86.8842941965
 21
212.1213512598
 31
0.0
  0
LINE
  5
DF
  8
0
  6
SLD-SOLID
 62
     7
 10
86.8842941965
 20
211.0038684784
 30
0.0
 11
86.8842941965
 21
210.9372193097
 31
0.0
  0
LINE
  5
E0
  8
0
  6
SLD-SOLID
 62
     7
 10
92.8843063558
 20
210.9372193097
 30
0.0
 11
92.8843063558
 21
210.9902413665
 31
0.0
  0
LINE
  5
E1
  8
0
  6
SLD-SOLID
 62
     7
 10
92.8843063558
 20
212.1213512598
 30
0.0
 11
92.8843063558
 21
230.9344509719
 31
0.0
  0
LINE
  5
E2
  8
0
  6
SLD-SOLID
 62
     7
 10
93.8842934812
 20
217.6913829623
 30
0.0
 11
92.8843063558
 21
217.6913829623
 31
0.0
  0
LINE
  5
E3
  8
0
  6
SLD-SOLID
 62
     7
 10
86.8842941965
 20
217.6913829623
 30
0.0
 11
83.8843030179
 21
217.6913829623
 31
0.0
  0
LINE
  5
E4
  8
0
  6
SLD-SOLID
 62
     7
 10
83.0842894758
 20
217.6913829623
 30
0.0
 11
64.8843092168
 21
217.6913829623
 31
0.0
  0
LINE
  5
E5
  8
0
  6
SLD-SOLID
 62
     7
 10
76.2842935766
 20
209.6913853763
 30
0.0
 11
86.4324909891
 21
209.6913853763
 31
0.0
  0
LINE
  5
E6
  8
0
  6
SLD-SOLID
 62
     7
 10
93.3360797609
 20
209.6913853763
 30
0.0
 11
93.8842934812
 21
209.6913853763
 31
0.0
  0
LINE
  5
E7
  8
0
  6
SLD-SOLID
 62
     7
 10
76.2842935766
 20
206.6983828424
 30
0.0
 11
85.8843070711
 21
206.6983828424
 31
0.0
  0
ARC
  5
E8
  8
0
  6
SLD-SOLID
 62
     7
 10
102.9127037713
 20
203.7673463868
 30
0.0
 40
5.773759079045276
 50
269.7181030566
 51
300.975442021
  0
LINE
  5
E9
  8
0
  6
SLD-SOLID
 62
     7
 10
64.8843092168
 20
191.993656206
 30
0.0
 11
69.420848533
 21
191.993656206
 31
0.0
  0
LINE
  5
EA
  8
0
  6
SLD-SOLID
 62
     7
 10
102.8842968191
 20
197.9936571895
 30
0.0
 11
93.8842934812
 21
197.9936571895
 31
0.0
  0
LINE
  5
EB
  8
0
  6
SLD-SOLID
 62
     7
 10
85.8843070711
 20
197.9936571895
 30
0.0
 11
64.8843092168
 21
197.9936571895
 31
0.0
  0
LINE
  5
EC
  8
0
  6
SLD-SOLID
 62
     7
 10
108.8843089784
 20
238.1518432973
 30
0.0
 11
108.8843089784
 21
211.4879289745
 31
0.0
  0
LINE
  5
ED
  8
0
  6
SLD-SOLID
 62
     7
 10
114.8842913354
 20
211.4879289745
 30
0.0
 11
114.8842913354
 21
238.1518432973
 31
0.0
  0
LINE
  5
EE
  8
0
  6
SLD-SOLID
 62
     7
 10
118.384305879
 20
212.299714434
 30
0.0
 11
118.384305879
 21
211.4879289745
 31
0.0
  0
LINE
  5
EF
  8
0
  6
SLD-SOLID
 62
     7
 10
122.3842841829
 20
211.4879289745
 30
0.0
 11
122.3842841829
 21
212.299714434
 31
0.0
  0
LINE
  5
F0
  8
0
  6
SLD-SOLID
 62
     7
 10
147.3842901433
 20
212.299714434
 30
0.0
 11
147.3842901433
 21
211.4879289745
 31
0.0
  0
LINE
  5
F1
  8
0
  6
SLD-SOLID
 62
     7
 10
151.3842982496
 20
211.4879289745
 30
0.0
 11
151.3842982496
 21
212.299714434
 31
0.0
  0
LINE
  5
F2
  8
0
  6
SLD-SOLID
 62
     7
 10
176.38430421
 20
212.299714434
 30
0.0
 11
176.38430421
 21
211.4879289745
 31
0.0
  0
LINE
  5
F3
  8
0
  6
SLD-SOLID
 62
     7
 10
180.3843123163
 20
211.4879289745
 30
0.0
 11
180.3843123163
 21
212.299714434
 31
0.0
  0
LINE
  5
F4
  8
0
  6
SLD-SOLID
 62
     7
 10
205.3842884744
 20
212.299714434
 30
0.0
 11
205.3842884744
 21
211.4879289745
 31
0.0
  0
LINE
  5
F5
  8
0
  6
SLD-SOLID
 62
     7
 10
209.3842965806
 20
211.4879289745
 30
0.0
 11
209.3842965806
 21
212.299714434
 31
0.0
  0
LINE
  5
F6
  8
0
  6
SLD-SOLID
 62
     7
 10
234.3843025411
 20
212.299714434
 30
0.0
 11
234.3843025411
 21
211.4879289745
 31
0.0
  0
LINE
  5
F7
  8
0
  6
SLD-SOLID
 62
     7
 10
238.3843106473
 20
211.4879289745
 30
0.0
 11
238.3843106473
 21
212.299714434
 31
0.0
  0
LINE
  5
F8
  8
0
  6
SLD-SOLID
 62
     7
 10
263.3843017066
 20
212.299714434
 30
0.0
 11
263.3843017066
 21
211.4879289745
 31
0.0
  0
LINE
  5
F9
  8
0
  6
SLD-SOLID
 62
     7
 10
267.3842949117
 20
211.4879289745
 30
0.0
 11
267.3842949117
 21
212.299714434
 31
0.0
  0
LINE
  5
FA
  8
0
  6
SLD-SOLID
 62
     7
 10
292.3843008722
 20
212.299714434
 30
0.0
 11
292.3843008722
 21
211.4879289745
 31
0.0
  0
LINE
  5
FB
  8
0
  6
SLD-SOLID
 62
     7
 10
296.3842940772
 20
211.4879289745
 30
0.0
 11
296.3842940772
 21
212.299714434
 31
0.0
  0
LINE
  5
FC
  8
0
  6
SLD-SOLID
 62
     7
 10
321.3843000377
 20
212.299714434
 30
0.0
 11
321.3843000377
 21
211.4879289745
 31
0.0
  0
LINE
  5
FD
  8
0
  6
SLD-SOLID
 62
     7
 10
325.3842932428
 20
211.4879289745
 30
0.0
 11
325.3842932428
 21
212.299714434
 31
0.0
  0
LINE
  5
FE
  8
0
  6
SLD-SOLID
 62
     7
 10
350.3842992032
 20
212.299714434
 30
0.0
 11
350.3842992032
 21
211.4879289745
 31
0.0
  0
LINE
  5
FF
  8
0
  6
SLD-SOLID
 62
     7
 10
354.3842924083
 20
211.4879289745
 30
0.0
 11
354.3842924083
 21
212.299714434
 31
0.0
  0
POLYLINE
  5
100
  8
0
  6
SLD-SOLID
 62
     7
 66
     1
 10
0.0
 20
0.0
 30
0.0
  0
VERTEX
  5
589
  8
0
  6
SLD-SOLID
 62
     7
 10
57.5947207654
 20
160.3333890541
 30
0.0
  0
VERTEX
  5
58A
  8
0
  6
SLD-SOLID
 62
     7
 10
58.45892851
 20
158.880697201
 30
0.0
  0
VERTEX
  5
58B
  8
0
  6
SLD-SOLID
 62
     7
 10
60.0632173265
 20
156.7628520877
 30
0.0
  0
VERTEX
  5
58C
  8
0
  6
SLD-SOLID
 62
     7
 10
61.9382602418
 20
154.7648163848
 30
0.0
  0
VERTEX
  5
58D
  8
0
  6
SLD-SOLID
 62
     7
 10
64.0672785486
 20
152.9051317936
 30
0.0
  0
VERTEX
  5
58E
  8
0
  6
SLD-SOLID
 62
     7
 10
66.4308113302
 20
151.2010843596
 30
0.0
  0
VERTEX
  5
58F
  8
0
  6
SLD-SOLID
 62
     7
 10
69.007073089
 20
149.6683797902
 30
0.0
  0
VERTEX
  5
590
  8
0
  6
SLD-SOLID
 62
     7
 10
71.772311374
 20
148.3209511368
 30
0.0
  0
VERTEX
  5
591
  8
0
  6
SLD-SOLID
 62
     7
 10
74.7011048044
 20
147.1708674087
 30
0.0
  0
VERTEX
  5
592
  8
0
  6
SLD-SOLID
 62
     7
 10
75.2342981542
 20
147.0069257645
 30
0.0
  0
SEQEND
  5
593
  8
0
  6
SLD-SOLID
 62
     7
  0
POLYLINE
  5
101
  8
0
  6
SLD-SOLID
 62
     7
 66
     1
 10
0.0
 20
0.0
 30
0.0
  0
VERTEX
  5
594
  8
0
  6
SLD-SOLID
 62
     7
 10
104.5343023981
 20
147.0130557297
 30
0.0
  0
VERTEX
  5
595
  8
0
  6
SLD-SOLID
 62
     7
 10
106.7534429277
 20
147.8007995626
 30
0.0
  0
VERTEX
  5
596
  8
0
  6
SLD-SOLID
 62
     7
 10
109.595243379
 20
149.066052503
 30
0.0
  0
VERTEX
  5
597
  8
0
  6
SLD-SOLID
 62
     7
 10
112.2599286283
 20
150.5233083023
 30
0.0
  0
VERTEX
  5
598
  8
0
  6
SLD-SOLID
 62
     7
 10
114.722941562
 20
152.1599745481
 30
0.0
  0
VERTEX
  5
599
  8
0
  6
SLD-SOLID
 62
     7
 10
116.9613045896
 20
153.961698046
 30
0.0
  0
VERTEX
  5
59A
  8
0
  6
SLD-SOLID
 62
     7
 10
118.9539772714
 20
155.9123663917
 30
0.0
  0
VERTEX
  5
59B
  8
0
  6
SLD-SOLID
 62
     7
 10
120.6818861211
 20
157.9940906829
 30
0.0
  0
VERTEX
  5
59C
  8
0
  6
SLD-SOLID
 62
     7
 10
122.1284908498
 20
160.1872659391
 30
0.0
  0
VERTEX
  5
59D
  8
0
  6
SLD-SOLID
 62
     7
 10
122.1897346223
 20
160.3086568518
 30
0.0
  0
SEQEND
  5
59E
  8
0
  6
SLD-SOLID
 62
     7
  0
LINE
  5
102
  8
0
  6
SLD-SOLID
 62
     7
 10
54.8842889512
 20
171.5846365421
 30
0.0
 11
54.8842889512
 21
170.0976235895
 31
0.0
  0
LINE
  5
103
  8
0
  6
SLD-SOLID
 62
     7
 10
124.884311601
 20
170.0976235895
 30
0.0
 11
124.884311601
 21
171.5846365421
 31
0.0
  0
LINE
  5
104
  8
0
  6
SLD-SOLID
 62
     7
 10
74.8842996801
 20
166.2156438558
 30
0.0
 11
74.8842996801
 21
164.6321216701
 31
0.0
  0
LINE
  5
105
  8
0
  6
SLD-SOLID
 62
     7
 10
104.8843008722
 20
164.6321216701
 30
0.0
 11
104.8843008722
 21
166.2156438558
 31
0.0
  0
POLYLINE
  5
106
  8
0
  6
SLD-SOLID
 62
     7
 66
     1
 10
0.0
 20
0.0
 30
0.0
  0
VERTEX
  5
59F
  8
0
  6
SLD-SOLID
 62
     7
 10
611.7001888598
 20
160.1564424215
 30
0.0
  0
VERTEX
  5
5A0
  8
0
  6
SLD-SOLID
 62
     7
 10
612.4463198031
 20
158.8994030478
 30
0.0
  0
VERTEX
  5
5A1
  8
0
  6
SLD-SOLID
 62
     7
 10
614.0482169832
 20
156.7806090331
 30
0.0
  0
VERTEX
  5
5A2
  8
0
  6
SLD-SOLID
 62
     7
 10
615.920994922
 20
154.7814608363
 30
0.0
  0
VERTEX
  5
5A3
  8
0
  6
SLD-SOLID
 62
     7
 10
618.0479047144
 20
152.9205086278
 30
0.0
  0
VERTEX
  5
5A4
  8
0
  6
SLD-SOLID
 62
     7
 10
620.4095152462
 20
151.2150514042
 30
0.0
  0
VERTEX
  5
5A5
  8
0
  6
SLD-SOLID
 62
     7
 10
622.9840559209
 20
149.6808087556
 30
0.0
  0
VERTEX
  5
5A6
  8
0
  6
SLD-SOLID
 62
     7
 10
625.7477593864
 20
148.3317297986
 30
0.0
  0
VERTEX
  5
5A7
  8
0
  6
SLD-SOLID
 62
     7
 10
628.6752415145
 20
147.1799003063
 30
0.0
  0
VERTEX
  5
5A8
  8
0
  6
SLD-SOLID
 62
     7
 10
629.2343032802
 20
147.0076186685
 30
0.0
  0
SEQEND
  5
5A9
  8
0
  6
SLD-SOLID
 62
     7
  0
POLYLINE
  5
107
  8
0
  6
SLD-SOLID
 62
     7
 66
     1
 10
0.0
 20
0.0
 30
0.0
  0
VERTEX
  5
5AA
  8
0
  6
SLD-SOLID
 62
     7
 10
658.5342926229
 20
147.013579133
 30
0.0
  0
VERTEX
  5
5AB
  8
0
  6
SLD-SOLID
 62
     7
 10
660.7282650913
 20
147.7907682872
 30
0.0
  0
VERTEX
  5
5AC
  8
0
  6
SLD-SOLID
 62
     7
 10
663.5714662517
 20
149.0543178386
 30
0.0
  0
VERTEX
  5
5AD
  8
0
  6
SLD-SOLID
 62
     7
 10
666.2377906288
 20
150.5099712974
 30
0.0
  0
VERTEX
  5
5AE
  8
0
  6
SLD-SOLID
 62
     7
 10
668.7026364053
 20
152.1451506867
 30
0.0
  0
VERTEX
  5
5AF
  8
0
  6
SLD-SOLID
 62
     7
 10
670.9430557931
 20
153.945518761
 30
0.0
  0
VERTEX
  5
5B0
  8
0
  6
SLD-SOLID
 62
     7
 10
672.9379189456
 20
155.8949780171
 30
0.0
  0
VERTEX
  5
5B1
  8
0
  6
SLD-SOLID
 62
     7
 10
674.6681821788
 20
157.9756549197
 30
0.0
  0
VERTEX
  5
5B2
  8
0
  6
SLD-SOLID
 62
     7
 10
676.1172903026
 20
160.1679582252
 30
0.0
  0
VERTEX
  5
5B3
  8
0
  6
SLD-SOLID
 62
     7
 10
676.2115550483
 20
160.3544169208
 30
0.0
  0
SEQEND
  5
5B4
  8
0
  6
SLD-SOLID
 62
     7
  0
LINE
  5
108
  8
0
  6
SLD-SOLID
 62
     7
 10
608.8842940772
 20
171.5846365421
 30
0.0
 11
608.8842940772
 21
170.0976235895
 31
0.0
  0
LINE
  5
109
  8
0
  6
SLD-SOLID
 62
     7
 10
678.8843018258
 20
170.0976235895
 30
0.0
 11
678.8843018258
 21
171.5846365421
 31
0.0
  0
LINE
  5
10A
  8
0
  6
SLD-SOLID
 62
     7
 10
628.8843048061
 20
166.2156438558
 30
0.0
 11
628.8843048061
 21
164.6321216701
 31
0.0
  0
LINE
  5
10B
  8
0
  6
SLD-SOLID
 62
     7
 10
658.884291097
 20
164.6321216701
 30
0.0
 11
658.884291097
 21
166.2156438558
 31
0.0
  0
POLYLINE
  5
10C
  8
0
  6
SLD-SOLID
 62
     7
 66
     1
 10
0.0
 20
0.0
 30
0.0
  0
VERTEX
  5
5B5
  8
0
  6
SLD-SOLID
 62
     7
 10
629.2688739742
 20
91.7288461803
 30
0.0
  0
VERTEX
  5
5B6
  8
0
  6
SLD-SOLID
 62
     7
 10
629.2440635408
 20
91.189282584
 30
0.0
  0
VERTEX
  5
5B7
  8
0
  6
SLD-SOLID
 62
     7
 10
629.4787121261
 20
89.4316310166
 30
0.0
  0
VERTEX
  5
5B8
  8
0
  6
SLD-SOLID
 62
     7
 10
630.0115776504
 20
87.7490514992
 30
0.0
  0
VERTEX
  5
5B9
  8
0
  6
SLD-SOLID
 62
     7
 10
630.8243316854
 20
86.1663768171
 30
0.0
  0
VERTEX
  5
5BA
  8
0
  6
SLD-SOLID
 62
     7
 10
631.9021922792
 20
84.7035894273
 30
0.0
  0
VERTEX
  5
5BB
  8
0
  6
SLD-SOLID
 62
     7
 10
633.2317185844
 20
83.3813944934
 30
0.0
  0
VERTEX
  5
5BC
  8
0
  6
SLD-SOLID
 62
     7
 10
634.7959530795
 20
82.2237530826
 30
0.0
  0
VERTEX
  5
5BD
  8
0
  6
SLD-SOLID
 62
     7
 10
636.5687442268
 20
81.2573308228
 30
0.0
  0
VERTEX
  5
5BE
  8
0
  6
SLD-SOLID
 62
     7
 10
638.5127050126
 20
80.5076310514
 30
0.0
  0
VERTEX
  5
5BF
  8
0
  6
SLD-SOLID
 62
     7
 10
640.5822676862
 20
79.9945989727
 30
0.0
  0
VERTEX
  5
5C0
  8
0
  6
SLD-SOLID
 62
     7
 10
642.7284968341
 20
79.7309378265
 30
0.0
  0
VERTEX
  5
5C1
  8
0
  6
SLD-SOLID
 62
     7
 10
644.9055415834
 20
79.7229657052
 30
0.0
  0
VERTEX
  5
5C2
  8
0
  6
SLD-SOLID
 62
     7
 10
647.0699203456
 20
79.9735510825
 30
0.0
  0
VERTEX
  5
5C3
  8
0
  6
SLD-SOLID
 62
     7
 10
649.1778088058
 20
80.4832676528
 30
0.0
  0
VERTEX
  5
5C4
  8
0
  6
SLD-SOLID
 62
     7
 10
651.1856657709
 20
81.250789213
 30
0.0
  0
VERTEX
  5
5C5
  8
0
  6
SLD-SOLID
 62
     7
 10
653.0465525831
 20
82.2711611269
 30
0.0
  0
VERTEX
  5
5C6
  8
0
  6
SLD-SOLID
 62
     7
 10
653.934363767
 20
82.8942531823
 30
0.0
  0
SEQEND
  5
5C7
  8
0
  6
SLD-SOLID
 62
     7
  0
ARC
  5
10D
  8
0
  6
SLD-SOLID
 62
     7
 10
647.7134012988
 20
91.7050097225
 30
0.0
 40
10.7856295524367
 50
305.2245581571
 51
359.32235924
  0
LINE
  5
10E
  8
0
  6
SLD-SOLID
 62
     7
 10
629.2343032802
 20
148.3059791951
 30
0.0
 11
629.2343032802
 21
91.6307220338
 31
0.0
  0
LINE
  5
10F
  8
0
  6
SLD-SOLID
 62
     7
 10
658.5342926229
 20
91.6307220338
 30
0.0
 11
658.5342926229
 21
148.3059791951
 31
0.0
  0
ARC
  5
110
  8
0
  6
SLD-SOLID
 62
     7
 10
640.9963763603
 20
147.8327549486
 30
0.0
 40
11.74141157960077
 50
106.9912758011
 51
177.2108534706
  0
ARC
  5
111
  8
0
  6
SLD-SOLID
 62
     7
 10
647.0776355611
 20
148.0092487607
 30
0.0
 40
11.42323556932669
 50
1.2212024756
 51
68.5364435979
  0
LINE
  5
112
  8
0
  6
SLD-SOLID
 62
     7
 10
631.8436456169
 20
156.8118653829
 30
0.0
 11
631.8858755077
 21
156.7710057004
 31
0.0
  0
LINE
  5
113
  8
0
  6
SLD-SOLID
 62
     7
 10
655.8827203954
 20
156.7710057004
 30
0.0
 11
655.9249502862
 21
156.8118653829
 31
0.0
  0
LINE
  5
114
  8
0
  6
SLD-SOLID
 62
     7
 10
628.8843048061
 20
164.6321216701
 30
0.0
 11
628.8843048061
 21
163.241618882
 31
0.0
  0
LINE
  5
115
  8
0
  6
SLD-SOLID
 62
     7
 10
658.884291097
 20
163.241618882
 30
0.0
 11
658.884291097
 21
164.6321216701
 31
0.0
  0
POLYLINE
  5
116
  8
0
  6
SLD-SOLID
 62
     7
 66
     1
 10
0.0
 20
0.0
 30
0.0
  0
VERTEX
  5
5C8
  8
0
  6
SLD-SOLID
 62
     7
 10
75.2613288606
 20
91.5569612859
 30
0.0
  0
VERTEX
  5
5C9
  8
0
  6
SLD-SOLID
 62
     7
 10
75.3431660379
 20
90.1592472671
 30
0.0
  0
VERTEX
  5
5CA
  8
0
  6
SLD-SOLID
 62
     7
 10
75.7538122381
 20
88.4414786576
 30
0.0
  0
VERTEX
  5
5CB
  8
0
  6
SLD-SOLID
 62
     7
 10
76.4515442098
 20
86.8145177244
 30
0.0
  0
VERTEX
  5
5CC
  8
0
  6
SLD-SOLID
 62
     7
 10
77.4202090944
 20
85.2992186426
 30
0.0
  0
VERTEX
  5
5CD
  8
0
  6
SLD-SOLID
 62
     7
 10
78.6462766374
 20
83.9155564187
 30
0.0
  0
VERTEX
  5
5CE
  8
0
  6
SLD-SOLID
 62
     7
 10
80.1149350847
 20
82.6859796523
 30
0.0
  0
VERTEX
  5
5CF
  8
0
  6
SLD-SOLID
 62
     7
 10
81.8044585431
 20
81.6363418578
 30
0.0
  0
VERTEX
  5
5D0
  8
0
  6
SLD-SOLID
 62
     7
 10
83.6820644582
 20
80.7932192563
 30
0.0
  0
VERTEX
  5
5D1
  8
0
  6
SLD-SOLID
 62
     7
 10
85.7049268926
 20
80.1792988656
 30
0.0
  0
VERTEX
  5
5D2
  8
0
  6
SLD-SOLID
 62
     7
 10
87.8250045026
 20
79.8103088616
 30
0.0
  0
VERTEX
  5
5D3
  8
0
  6
SLD-SOLID
 62
     7
 10
89.9945241655
 20
79.6949589728
 30
0.0
  0
VERTEX
  5
5D4
  8
0
  6
SLD-SOLID
 62
     7
 10
92.1694380487
 20
79.8372576116
 30
0.0
  0
VERTEX
  5
5D5
  8
0
  6
SLD-SOLID
 62
     7
 10
94.3061751569
 20
80.238679993
 30
0.0
  0
VERTEX
  5
5D6
  8
0
  6
SLD-SOLID
 62
     7
 10
96.3612837041
 20
80.8987269281
 30
0.0
  0
VERTEX
  5
5D7
  8
0
  6
SLD-SOLID
 62
     7
 10
98.2898515905
 20
81.8145075916
 30
0.0
  0
VERTEX
  5
5D8
  8
0
  6
SLD-SOLID
 62
     7
 10
99.2326778615
 20
82.3934475063
 30
0.0
  0
SEQEND
  5
5D9
  8
0
  6
SLD-SOLID
 62
     7
  0
POLYLINE
  5
117
  8
0
  6
SLD-SOLID
 62
     7
 66
     1
 10
0.0
 20
0.0
 30
0.0
  0
VERTEX
  5
5DA
  8
0
  6
SLD-SOLID
 62
     7
 10
99.2326778615
 20
82.3934475063
 30
0.0
  0
VERTEX
  5
5DB
  8
0
  6
SLD-SOLID
 62
     7
 10
100.2365094865
 20
83.1313232063
 30
0.0
  0
VERTEX
  5
5DC
  8
0
  6
SLD-SOLID
 62
     7
 10
101.7148536886
 20
84.5314661144
 30
0.0
  0
VERTEX
  5
5DD
  8
0
  6
SLD-SOLID
 62
     7
 10
102.9157084669
 20
86.1206153511
 30
0.0
  0
VERTEX
  5
5DE
  8
0
  6
SLD-SOLID
 62
     7
 10
103.792820617
 20
87.8368789433
 30
0.0
  0
VERTEX
  5
5DF
  8
0
  6
SLD-SOLID
 62
     7
 10
104.3308121408
 20
89.6225968479
 30
0.0
  0
VERTEX
  5
5E0
  8
0
  6
SLD-SOLID
 62
     7
 10
104.5321864332
 20
91.4252499221
 30
0.0
  0
VERTEX
  5
5E1
  8
0
  6
SLD-SOLID
 62
     7
 10
104.5164210046
 20
91.6548842667
 30
0.0
  0
SEQEND
  5
5E2
  8
0
  6
SLD-SOLID
 62
     7
  0
LINE
  5
118
  8
0
  6
SLD-SOLID
 62
     7
 10
75.2342981542
 20
148.3059791951
 30
0.0
 11
75.2342981542
 21
91.6307220338
 31
0.0
  0
LINE
  5
119
  8
0
  6
SLD-SOLID
 62
     7
 10
104.5343023981
 20
91.6307220338
 30
0.0
 11
104.5343023981
 21
148.3059791951
 31
0.0
  0
POLYLINE
  5
11A
  8
0
  6
SLD-SOLID
 62
     7
 66
     1
 10
0.0
 20
0.0
 30
0.0
  0
VERTEX
  5
5E3
  8
0
  6
SLD-SOLID
 62
     7
 10
89.7349757398
 20
160.2366875029
 30
0.0
  0
VERTEX
  5
5E4
  8
0
  6
SLD-SOLID
 62
     7
 10
89.6508139814
 20
160.2405981264
 30
0.0
  0
VERTEX
  5
5E5
  8
0
  6
SLD-SOLID
 62
     7
 10
87.4768835748
 20
160.0836646846
 30
0.0
  0
VERTEX
  5
5E6
  8
0
  6
SLD-SOLID
 62
     7
 10
85.3436333383
 20
159.6675846829
 30
0.0
  0
VERTEX
  5
5E7
  8
0
  6
SLD-SOLID
 62
     7
 10
83.2944554532
 20
158.9929679046
 30
0.0
  0
VERTEX
  5
5E8
  8
0
  6
SLD-SOLID
 62
     7
 10
81.3744408334
 20
158.0628974932
 30
0.0
  0
VERTEX
  5
5E9
  8
0
  6
SLD-SOLID
 62
     7
 10
79.6351772989
 20
156.8878214909
 30
0.0
  0
VERTEX
  5
5EA
  8
0
  6
SLD-SOLID
 62
     7
 10
78.1309348787
 20
155.4904516831
 30
0.0
  0
VERTEX
  5
5EB
  8
0
  6
SLD-SOLID
 62
     7
 10
76.9124669279
 20
153.909952716
 30
0.0
  0
VERTEX
  5
5EC
  8
0
  6
SLD-SOLID
 62
     7
 10
76.0164005006
 20
152.1993182702
 30
0.0
  0
VERTEX
  5
5ED
  8
0
  6
SLD-SOLID
 62
     7
 10
75.4591566766
 20
150.4160576603
 30
0.0
  0
VERTEX
  5
5EE
  8
0
  6
SLD-SOLID
 62
     7
 10
75.2390069211
 20
148.6131102881
 30
0.0
  0
VERTEX
  5
5EF
  8
0
  6
SLD-SOLID
 62
     7
 10
75.2613288606
 20
148.2322151876
 30
0.0
  0
SEQEND
  5
5F0
  8
0
  6
SLD-SOLID
 62
     7
  0
POLYLINE
  5
11B
  8
0
  6
SLD-SOLID
 62
     7
 66
     1
 10
0.0
 20
0.0
 30
0.0
  0
VERTEX
  5
5F1
  8
0
  6
SLD-SOLID
 62
     7
 10
104.5164210046
 20
148.3301363057
 30
0.0
  0
VERTEX
  5
5F2
  8
0
  6
SLD-SOLID
 62
     7
 10
104.4101757253
 20
149.8766169986
 30
0.0
  0
VERTEX
  5
5F3
  8
0
  6
SLD-SOLID
 62
     7
 10
103.9828104223
 20
151.5898719533
 30
0.0
  0
VERTEX
  5
5F4
  8
0
  6
SLD-SOLID
 62
     7
 10
103.2693428243
 20
153.2110500718
 30
0.0
  0
VERTEX
  5
5F5
  8
0
  6
SLD-SOLID
 62
     7
 10
102.2857767785
 20
154.7194476459
 30
0.0
  0
VERTEX
  5
5F6
  8
0
  6
SLD-SOLID
 62
     7
 10
101.0455829347
 20
156.095027736
 30
0.0
  0
VERTEX
  5
5F7
  8
0
  6
SLD-SOLID
 62
     7
 10
99.5637518609
 20
157.3151411591
 30
0.0
  0
VERTEX
  5
5F8
  8
0
  6
SLD-SOLID
 62
     7
 10
97.8626054967
 20
158.3537963322
 30
0.0
  0
VERTEX
  5
5F9
  8
0
  6
SLD-SOLID
 62
     7
 10
95.9755522455
 20
159.1845002128
 30
0.0
  0
VERTEX
  5
5FA
  8
0
  6
SLD-SOLID
 62
     7
 10
93.9458650793
 20
159.7849192201
 30
0.0
  0
VERTEX
  5
5FB
  8
0
  6
SLD-SOLID
 62
     7
 10
91.821793958
 20
160.1397330976
 30
0.0
  0
VERTEX
  5
5FC
  8
0
  6
SLD-SOLID
 62
     7
 10
89.7349757398
 20
160.2366875029
 30
0.0
  0
SEQEND
  5
5FD
  8
0
  6
SLD-SOLID
 62
     7
  0
LINE
  5
11C
  8
0
  6
SLD-SOLID
 62
     7
 10
77.8436404909
 20
156.8118653829
 30
0.0
 11
77.8858703817
 21
156.7710057004
 31
0.0
  0
LINE
  5
11D
  8
0
  6
SLD-SOLID
 62
     7
 10
101.8827301706
 20
156.7710057004
 30
0.0
 11
101.9249600614
 21
156.8118653829
 31
0.0
  0
LINE
  5
11E
  8
0
  6
SLD-SOLID
 62
     7
 10
74.8842996801
 20
164.6321216701
 30
0.0
 11
74.8842996801
 21
163.241618882
 31
0.0
  0
LINE
  5
11F
  8
0
  6
SLD-SOLID
 62
     7
 10
104.8843008722
 20
163.241618882
 30
0.0
 11
104.8843008722
 21
164.6321216701
 31
0.0
  0
ARC
  5
120
  8
0
  6
SLD-SOLID
 62
     7
 10
169.352736
 20
224.6054584755
 30
0.0
 40
4.813951584344937
 50
86.9376682104
 51
109.0468587998
  0
ARC
  5
121
  8
0
  6
SLD-SOLID
 62
     7
 10
170.3272361729
 20
218.7567491689
 30
0.0
 40
10.70611723815209
 50
103.7543994417
 51
138.0293018853
  0
ARC
  5
122
  8
0
  6
SLD-SOLID
 62
     7
 10
563.5636709079
 20
218.9857953223
 30
0.0
 40
10.46237062137955
 50
41.4860954573
 51
85.5331913915
  0
LINE
  5
123
  8
0
  6
SLD-SOLID
 62
     7
 10
565.4554707254
 20
231.6499078749
 30
0.0
 11
564.5817113365
 21
231.4700061558
 31
0.0
  0
ARC
  5
124
  8
0
  6
SLD-SOLID
 62
     7
 10
563.0943048375
 20
243.2918510961
 30
0.0
 40
11.8789707599807
 50
281.4649568916
 51
314.4470046891
  0
LINE
  5
125
  8
0
  6
SLD-SOLID
 62
     7
 10
303.9554697717
 20
231.6499078749
 30
0.0
 11
303.0817103828
 21
231.4700061558
 31
0.0
  0
ARC
  5
126
  8
0
  6
SLD-SOLID
 62
     7
 10
301.5942844971
 20
243.2919072279
 30
0.0
 40
11.8790296251351
 50
281.4649947189
 51
314.4469075143
  0
ARC
  5
127
  8
0
  6
SLD-SOLID
 62
     7
 10
170.6743025277
 20
243.2918679268
 30
0.0
 40
11.87898917388505
 50
225.5530206927
 51
258.5348328114
  0
LINE
  5
128
  8
0
  6
SLD-SOLID
 62
     7
 10
169.1868943418
 20
231.4700061558
 30
0.0
 11
168.3130902494
 21
231.6499153255
 31
0.0
  0
ARC
  5
129
  8
0
  6
SLD-SOLID
 62
     7
 10
432.1796898319
 20
243.299961894
 30
0.0
 40
11.88853844342676
 50
225.5613469858
 51
258.5714256891
  0
LINE
  5
12A
  8
0
  6
SLD-SOLID
 62
     7
 10
430.6873795832
 20
231.4699540018
 30
0.0
 11
429.8240212048
 21
231.6471437095
 31
0.0
  0
POLYLINE
  5
12B
  8
0
  6
SLD-SOLID
 62
     7
 66
     1
 10
0.0
 20
0.0
 30
0.0
  0
VERTEX
  5
5FE
  8
0
  6
SLD-SOLID
 62
     7
 10
547.7232304657
 20
231.4703712343
 30
0.0
  0
VERTEX
  5
5FF
  8
0
  6
SLD-SOLID
 62
     7
 10
547.6870765234
 20
231.4674506067
 30
0.0
  0
VERTEX
  5
600
  8
0
  6
SLD-SOLID
 62
     7
 10
547.5785439158
 20
231.4594635843
 30
0.0
  0
SEQEND
  5
601
  8
0
  6
SLD-SOLID
 62
     7
  0
LINE
  5
12C
  8
0
  6
SLD-SOLID
 62
     7
 10
548.9041139627
 20
231.4365977524
 30
0.0
 11
549.2342976178
 21
231.4313674448
 31
0.0
  0
LINE
  5
12D
  8
0
  6
SLD-SOLID
 62
     7
 10
152.57388775
 20
214.4931392847
 30
0.0
 11
162.3673779214
 21
225.9164700387
 31
0.0
  0
LINE
  5
12E
  8
0
  6
SLD-SOLID
 62
     7
 10
571.4012054051
 20
225.9164700387
 30
0.0
 11
581.1947104777
 21
214.4931392847
 31
0.0
  0
LINE
  5
12F
  8
0
  6
SLD-SOLID
 62
     7
 10
162.354860946
 20
234.8128283499
 30
0.0
 11
152.5613409723
 21
245.8050796865
 31
0.0
  0
LINE
  5
130
  8
0
  6
SLD-SOLID
 62
     7
 10
423.8548469985
 20
234.8128283499
 30
0.0
 11
414.0613419259
 21
245.8050796865
 31
0.0
  0
LINE
  5
131
  8
0
  6
SLD-SOLID
 62
     7
 10
319.7072488511
 20
245.8050796865
 30
0.0
 11
309.9137437786
 21
234.8128283499
 31
0.0
  0
LINE
  5
132
  8
0
  6
SLD-SOLID
 62
     7
 10
581.2072498048
 20
245.8050796865
 30
0.0
 11
571.4137447322
 21
234.8128283499
 31
0.0
  0
LINE
  5
133
  8
0
  6
SLD-SOLID
 62
     7
 10
320.3982305969
 20
214.1450481592
 30
0.0
 11
322.5034666503
 21
214.0950584887
 31
0.0
  0
LINE
  5
134
  8
0
  6
SLD-SOLID
 62
     7
 10
324.3493777955
 20
214.0512229978
 30
0.0
 11
325.8560342039
 21
214.0154453097
 31
0.0
  0
LINE
  5
135
  8
0
  6
SLD-SOLID
 62
     7
 10
407.9125640238
 20
214.0154453097
 30
0.0
 11
409.4192204321
 21
214.0512229978
 31
0.0
  0
LINE
  5
136
  8
0
  6
SLD-SOLID
 62
     7
 10
411.2651241268
 20
214.0950584887
 30
0.0
 11
413.3703676308
 21
214.1450481592
 31
0.0
  0
ARC
  5
137
  8
0
  6
SLD-SOLID
 62
     7
 10
581.9538965462
 20
215.1440097488
 30
0.0
 40
1.000000000000001
 50
220.6031561496
 51
268.6396558989
  0
ARC
  5
138
  8
0
  6
SLD-SOLID
 62
     7
 10
151.8146983288
 20
215.1440097488
 30
0.0
 40
1.000000000000294
 50
271.3603441011
 51
319.4298130428
  0
ARC
  5
139
  8
0
  6
SLD-SOLID
 62
     7
 10
151.8146983288
 20
245.1398622108
 30
0.0
 40
1.0
 50
41.6992946827
 51
90.0
  0
ARC
  5
13A
  8
0
  6
SLD-SOLID
 62
     7
 10
413.3146983288
 20
245.1398622108
 30
0.0
 40
1.0
 50
41.6992946827
 51
90.0
  0
ARC
  5
13B
  8
0
  6
SLD-SOLID
 62
     7
 10
320.4538965462
 20
245.1398622108
 30
0.0
 40
0.9999999999999759
 50
90.0
 51
138.3007053173
  0
ARC
  5
13C
  8
0
  6
SLD-SOLID
 62
     7
 10
581.9538965462
 20
245.1398622108
 30
0.0
 40
1.0
 50
90.0
 51
138.3007053173
  0
LINE
  5
13D
  8
0
  6
SLD-SOLID
 62
     7
 10
148.004089042
 20
246.139580953
 30
0.0
 11
145.8177012647
 21
246.0876578568
 31
0.0
  0
LINE
  5
13E
  8
0
  6
SLD-SOLID
 62
     7
 10
409.5040899957
 20
246.139580953
 30
0.0
 11
407.317709669
 21
246.0876578568
 31
0.0
  0
LINE
  5
13F
  8
0
  6
SLD-SOLID
 62
     7
 10
326.4508885587
 20
246.0876578568
 30
0.0
 11
324.2645007814
 21
246.139580953
 31
0.0
  0
LINE
  5
140
  8
0
  6
SLD-SOLID
 62
     7
 10
587.9508895124
 20
246.0876578568
 30
0.0
 11
585.7645091856
 21
246.139580953
 31
0.0
  0
LINE
  5
141
  8
0
  6
SLD-SOLID
 62
     7
 10
581.9301572884
 20
214.1442919253
 30
0.0
 11
583.526928469
 21
214.1063721953
 31
0.0
  0
LINE
  5
142
  8
0
  6
SLD-SOLID
 62
     7
 10
585.3264821018
 20
214.0636393903
 30
0.0
 11
587.3560277069
 21
214.0154453097
 31
0.0
  0
LINE
  5
143
  8
0
  6
SLD-SOLID
 62
     7
 10
146.4125556196
 20
214.0154453097
 30
0.0
 11
148.4421235765
 21
214.0636393903
 31
0.0
  0
LINE
  5
144
  8
0
  6
SLD-SOLID
 62
     7
 10
150.2416772092
 20
214.1063721953
 30
0.0
 11
151.8384260381
 21
214.1442919253
 31
0.0
  0
ARC
  5
145
  8
0
  6
SLD-SOLID
 62
     7
 10
556.9560383319
 20
233.6850610062
 30
0.0
 40
2.410736011052752
 50
34.8488119339
 51
96.4642792498
  0
ARC
  5
146
  8
0
  6
SLD-SOLID
 62
     7
 10
296.8907485821
 20
233.5642918751
 30
0.0
 40
2.530090922568041
 50
36.3144645201
 51
95.7545794332
  0
LINE
  5
147
  8
0
  6
SLD-SOLID
 62
     7
 10
123.6717743123
 20
245.036284077
 30
0.0
 11
123.7062555993
 21
245.2203581212
 31
0.0
  0
POLYLINE
  5
148
  8
0
  6
SLD-SOLID
 62
     7
 66
     1
 10
0.0
 20
0.0
 30
0.0
  0
VERTEX
  5
602
  8
0
  6
SLD-SOLID
 62
     7
 10
124.4563800538
 20
246.0106486557
 30
0.0
  0
VERTEX
  5
603
  8
0
  6
SLD-SOLID
 62
     7
 10
124.2490750993
 20
245.9981465815
 30
0.0
  0
VERTEX
  5
604
  8
0
  6
SLD-SOLID
 62
     7
 10
123.9905101503
 20
245.9887066959
 30
0.0
  0
SEQEND
  5
605
  8
0
  6
SLD-SOLID
 62
     7
  0
POLYLINE
  5
149
  8
0
  6
SLD-SOLID
 62
     7
 66
     1
 10
0.0
 20
0.0
 30
0.0
  0
VERTEX
  5
606
  8
0
  6
SLD-SOLID
 62
     7
 10
609.8937732423
 20
245.9850559114
 30
0.0
  0
VERTEX
  5
607
  8
0
  6
SLD-SOLID
 62
     7
 10
609.6219164575
 20
245.9935793756
 30
0.0
  0
VERTEX
  5
608
  8
0
  6
SLD-SOLID
 62
     7
 10
609.3224254692
 20
246.0098290919
 30
0.0
  0
SEQEND
  5
609
  8
0
  6
SLD-SOLID
 62
     7
  0
ARC
  5
14A
  8
0
  6
SLD-SOLID
 62
     7
 10
605.3282492417
 20
207.9659475326
 30
0.0
 40
5.998367901760657
 50
85.1945516287
 51
90.7165824437
  0
POLYLINE
  5
14B
  8
0
  6
SLD-SOLID
 62
     7
 66
     1
 10
0.0
 20
0.0
 30
0.0
  0
VERTEX
  5
60A
  8
0
  6
SLD-SOLID
 62
     7
 10
127.9284102167
 20
213.9421725748
 30
0.0
  0
VERTEX
  5
60B
  8
0
  6
SLD-SOLID
 62
     7
 10
127.9439968313
 20
213.9434242724
 30
0.0
  0
VERTEX
  5
60C
  8
0
  6
SLD-SOLID
 62
     7
 10
128.0789715494
 20
213.9504687963
 30
0.0
  0
SEQEND
  5
60D
  8
0
  6
SLD-SOLID
 62
     7
  0
ARC
  5
14C
  8
0
  6
SLD-SOLID
 62
     7
 10
606.7606191323
 20
222.0149418531
 30
0.0
 40
8.127079055621653
 50
263.3920710397
 51
271.6781365369
  0
ARC
  5
14D
  8
0
  6
SLD-SOLID
 62
     7
 10
126.2918606986
 20
234.2144876411
 30
0.0
 40
20.33846692083105
 50
268.7455462276
 51
274.6955274037
  0
POLYLINE
  5
14E
  8
0
  6
SLD-SOLID
 62
     7
 66
     1
 10
0.0
 20
0.0
 30
0.0
  0
VERTEX
  5
60E
  8
0
  6
SLD-SOLID
 62
     7
 10
102.9324871744
 20
213.825988221
 30
0.0
  0
VERTEX
  5
60F
  8
0
  6
SLD-SOLID
 62
     7
 10
102.9310864652
 20
213.8257796048
 30
0.0
  0
VERTEX
  5
610
  8
0
  6
SLD-SOLID
 62
     7
 10
103.0091685499
 20
213.8308348237
 30
0.0
  0
VERTEX
  5
611
  8
0
  6
SLD-SOLID
 62
     7
 10
103.2473785127
 20
213.8399170814
 30
0.0
  0
SEQEND
  5
612
  8
0
  6
SLD-SOLID
 62
     7
  0
POLYLINE
  5
14F
  8
0
  6
SLD-SOLID
 62
     7
 66
     1
 10
0.0
 20
0.0
 30
0.0
  0
VERTEX
  5
613
  8
0
  6
SLD-SOLID
 62
     7
 10
630.544562384
 20
213.8385946034
 30
0.0
  0
VERTEX
  5
614
  8
0
  6
SLD-SOLID
 62
     7
 10
630.7305735792
 20
213.8322988628
 30
0.0
  0
VERTEX
  5
615
  8
0
  6
SLD-SOLID
 62
     7
 10
630.8410805906
 20
213.8254480539
 30
0.0
  0
VERTEX
  5
616
  8
0
  6
SLD-SOLID
 62
     7
 10
630.8392328466
 20
213.825705099
 30
0.0
  0
SEQEND
  5
617
  8
0
  6
SLD-SOLID
 62
     7
  0
LINE
  5
150
  8
0
  6
SLD-SOLID
 62
     7
 10
628.3842963422
 20
-154.4105907799
 30
0.0
 11
562.3842966998
 21
-154.4105907799
 31
0.0
  0
LINE
  5
151
  8
0
  6
SLD-SOLID
 62
     7
 10
601.3842937792
 20
-173.9105781437
 30
0.0
 11
589.3842992628
 21
-173.9105781437
 31
0.0
  0
LINE
  5
152
  8
0
  6
SLD-SOLID
 62
     7
 10
600.8843002165
 20
-174.4105717064
 30
0.0
 11
589.8843002761
 21
-174.4105717064
 31
0.0
  0
LINE
  5
153
  8
0
  6
SLD-SOLID
 62
     7
 10
168.3842879976
 20
-154.4105907799
 30
0.0
 11
102.3843032564
 21
-154.4105907799
 31
0.0
  0
LINE
  5
154
  8
0
  6
SLD-SOLID
 62
     7
 10
141.3843077863
 20
-173.9105781437
 30
0.0
 11
129.3842834676
 21
-173.9105781437
 31
0.0
  0
LINE
  5
155
  8
0
  6
SLD-SOLID
 62
     7
 10
140.8842844213
 20
-174.4105717064
 30
0.0
 11
129.8843068326
 21
-174.4105717064
 31
0.0
  0
LINE
  5
156
  8
0
  6
SLD-SOLID
 62
     7
 10
629.2343032802
 20
145.5894174157
 30
0.0
 11
560.3843000973
 21
145.5894174157
 31
0.0
  0
LINE
  5
157
  8
0
  6
SLD-SOLID
 62
     7
 10
555.3842974151
 20
146.7894172399
 30
0.0
 11
555.3842974151
 21
145.5894174157
 31
0.0
  0
LINE
  5
158
  8
0
  6
SLD-SOLID
 62
     7
 10
560.3843000973
 20
145.5894174157
 30
0.0
 11
555.3842974151
 21
145.5894174157
 31
0.0
  0
ARC
  5
159
  8
0
  6
SLD-SOLID
 62
     7
 10
556.6342974375
 20
148.0394172807
 30
0.0
 40
2.449999999999966
 50
210.6774244725
 51
239.3225755274
  0
LINE
  5
15A
  8
0
  6
SLD-SOLID
 62
     7
 10
175.3842872823
 20
146.7894172399
 30
0.0
 11
175.3842872823
 21
145.5894174157
 31
0.0
  0
LINE
  5
15B
  8
0
  6
SLD-SOLID
 62
     7
 10
175.3842872823
 20
145.5894174157
 30
0.0
 11
170.3842920507
 21
145.5894174157
 31
0.0
  0
LINE
  5
15C
  8
0
  6
SLD-SOLID
 62
     7
 10
170.3842920507
 20
145.5894174157
 30
0.0
 11
104.5343023981
 21
145.5894174157
 31
0.0
  0
ARC
  5
15D
  8
0
  6
SLD-SOLID
 62
     7
 10
174.1342974375
 20
148.0394172807
 30
0.0
 40
2.450000000000048
 50
300.6774244726
 51
329.3225755275
  0
LINE
  5
15E
  8
0
  6
SLD-SOLID
 62
     7
 10
29.8842829908
 20
445.4891780494
 30
0.0
 11
30.684296533
 21
445.4891780494
 31
0.0
  0
LINE
  5
15F
  8
0
  6
SLD-SOLID
 62
     7
 10
29.8842829908
 20
378.3391961931
 30
0.0
 11
29.8842829908
 21
445.4891780494
 31
0.0
  0
LINE
  5
160
  8
0
  6
SLD-SOLID
 62
     7
 10
31.9342953409
 20
378.3391961931
 30
0.0
 11
29.8842829908
 21
378.3391961931
 31
0.0
  0
LINE
  5
161
  8
0
  6
SLD-SOLID
 62
     7
 10
30.684296533
 20
445.4891780494
 30
0.0
 11
30.684296533
 21
471.2891975521
 31
0.0
  0
LINE
  5
162
  8
0
  6
SLD-SOLID
 62
     7
 10
30.684296533
 20
471.2891975521
 30
0.0
 11
813.0843085493
 21
471.2891975521
 31
0.0
  0
LINE
  5
163
  8
0
  6
SLD-SOLID
 62
     7
 10
813.0843085493
 20
471.2891975521
 30
0.0
 11
813.0843085493
 21
445.4891780494
 31
0.0
  0
LINE
  5
164
  8
0
  6
SLD-SOLID
 62
     7
 10
813.0843085493
 20
445.4891780494
 30
0.0
 11
811.8343097413
 21
445.4891780494
 31
0.0
  0
LINE
  5
165
  8
0
  6
SLD-SOLID
 62
     7
 10
30.684296533
 20
445.4891780494
 30
0.0
 11
31.9342953409
 21
445.4891780494
 31
0.0
  0
LINE
  5
166
  8
0
  6
SLD-SOLID
 62
     7
 10
31.9342953409
 20
376.2891987441
 30
0.0
 11
811.8343097413
 21
376.2891987441
 31
0.0
  0
LINE
  5
167
  8
0
  6
SLD-SOLID
 62
     7
 10
31.9342953409
 20
376.2891987441
 30
0.0
 11
31.9342953409
 21
378.3391961931
 31
0.0
  0
LINE
  5
168
  8
0
  6
SLD-SOLID
 62
     7
 10
811.8343097413
 20
378.3391961931
 30
0.0
 11
811.8343097413
 21
376.2891987441
 31
0.0
  0
LINE
  5
169
  8
0
  6
SLD-SOLID
 62
     7
 10
813.0843085493
 20
445.4891780494
 30
0.0
 11
813.8842922891
 21
445.4891780494
 31
0.0
  0
LINE
  5
16A
  8
0
  6
SLD-SOLID
 62
     7
 10
813.8842922891
 20
445.4891780494
 30
0.0
 11
813.8842922891
 21
378.3391961931
 31
0.0
  0
LINE
  5
16B
  8
0
  6
SLD-SOLID
 62
     7
 10
813.8842922891
 20
378.3391961931
 30
0.0
 11
811.8343097413
 21
378.3391961931
 31
0.0
  0
LINE
  5
16C
  8
0
  6
SLD-SOLID
 62
     7
 10
813.8842922891
 20
470.3891972183
 30
0.0
 11
813.0843085493
 21
470.3891972183
 31
0.0
  0
LINE
  5
16D
  8
0
  6
SLD-SOLID
 62
     7
 10
813.8842922891
 20
470.3891972183
 30
0.0
 11
813.8842922891
 21
445.9892014144
 31
0.0
  0
LINE
  5
16E
  8
0
  6
SLD-SOLID
 62
     7
 10
813.8842922891
 20
445.9892014144
 30
0.0
 11
813.0843085493
 21
445.9892014144
 31
0.0
  0
LINE
  5
16F
  8
0
  6
SLD-SOLID
 62
     7
 10
29.8842829908
 20
445.9892014144
 30
0.0
 11
30.684296533
 21
445.9892014144
 31
0.0
  0
LINE
  5
170
  8
0
  6
SLD-SOLID
 62
     7
 10
29.8842829908
 20
445.9892014144
 30
0.0
 11
29.8842829908
 21
470.3891972183
 31
0.0
  0
LINE
  5
171
  8
0
  6
SLD-SOLID
 62
     7
 10
29.8842829908
 20
470.3891972183
 30
0.0
 11
30.684296533
 21
470.3891972183
 31
0.0
  0
ARC
  5
172
  8
0
  6
SLD-SOLID
 62
     7
 10
31.9343315993
 20
378.3392473529
 30
0.0
 40
2.050048609116661
 50
180.0014298417
 51
269.9989866323
  0
ARC
  5
173
  8
0
  6
SLD-SOLID
 62
     7
 10
31.9342920095
 20
378.3391928617
 30
0.0
 40
1.249995476537228
 50
179.9998473005
 51
270.0001526995
  0
ARC
  5
174
  8
0
  6
SLD-SOLID
 62
     7
 10
811.8343029789
 20
378.3391880543
 30
0.0
 40
2.049989310174864
 50
270.0001890044
 51
0.0002274726
  0
ARC
  5
175
  8
0
  6
SLD-SOLID
 62
     7
 10
811.8343006722
 20
378.3392052622
 30
0.0
 40
1.250007877066012
 50
270.0004156955
 51
359.9995843045
  0
LINE
  5
176
  8
0
  6
SLD-SOLID
 62
     7
 10
813.8842922891
 20
445.9892014144
 30
0.0
 11
813.8842922891
 21
445.4891780494
 31
0.0
  0
LINE
  5
177
  8
0
  6
SLD-SOLID
 62
     7
 10
29.8842829908
 20
445.4891780494
 30
0.0
 11
29.8842829908
 21
445.9892014144
 31
0.0
  0
LINE
  5
178
  8
0
  6
SLD-SOLID
 62
     7
 10
749.6064049447
 20
329.9809644102
 30
0.0
 11
748.1621844018
 21
329.9809644102
 31
0.0
  0
LINE
  5
179
  8
0
  6
SLD-SOLID
 62
     7
 10
750.3843051637
 20
311.5828434108
 30
0.0
 11
750.3843051637
 21
312.4975213884
 31
0.0
  0
LINE
  5
17A
  8
0
  6
SLD-SOLID
 62
     7
 10
747.3842841829
 20
312.4975213884
 30
0.0
 11
747.3842841829
 21
311.5828434108
 31
0.0
  0
ARC
  5
17B
  8
0
  6
SLD-SOLID
 62
     7
 10
748.8842974375
 20
275.789192031
 30
0.0
 40
1.5
 50
180.0
 51
360.0
  0
LINE
  5
17C
  8
0
  6
SLD-SOLID
 62
     7
 10
747.3842841829
 20
311.5828434108
 30
0.0
 11
747.3842841829
 21
275.7891887902
 31
0.0
  0
LINE
  5
17D
  8
0
  6
SLD-SOLID
 62
     7
 10
750.3843051637
 20
275.7891887902
 30
0.0
 11
750.3843051637
 21
311.5828434108
 31
0.0
  0
ARC
  5
17E
  8
0
  6
SLD-SOLID
 62
     7
 10
748.4722049142
 20
312.6944414814
 30
0.0
 40
1.088294549359843
 50
181.5017822055
 51
263.6425649399
  0
POLYLINE
  5
17F
  8
0
  6
SLD-SOLID
 62
     7
 66
     1
 10
0.0
 20
0.0
 30
0.0
  0
VERTEX
  5
618
  8
0
  6
SLD-SOLID
 62
     7
 10
748.3516973699
 20
311.6128394483
 30
0.0
  0
VERTEX
  5
619
  8
0
  6
SLD-SOLID
 62
     7
 10
748.3798307622
 20
311.600054252
 30
0.0
  0
VERTEX
  5
61A
  8
0
  6
SLD-SOLID
 62
     7
 10
748.3843011106
 20
311.5980276941
 30
0.0
  0
SEQEND
  5
61B
  8
0
  6
SLD-SOLID
 62
     7
  0
POLYLINE
  5
180
  8
0
  6
SLD-SOLID
 62
     7
 66
     1
 10
0.0
 20
0.0
 30
0.0
  0
VERTEX
  5
61C
  8
0
  6
SLD-SOLID
 62
     7
 10
749.384288236
 20
311.5980276941
 30
0.0
  0
VERTEX
  5
61D
  8
0
  6
SLD-SOLID
 62
     7
 10
749.3887585843
 20
311.600054252
 30
0.0
  0
VERTEX
  5
61E
  8
0
  6
SLD-SOLID
 62
     7
 10
749.4168919767
 20
311.6128394483
 30
0.0
  0
SEQEND
  5
61F
  8
0
  6
SLD-SOLID
 62
     7
  0
ARC
  5
181
  8
0
  6
SLD-SOLID
 62
     7
 10
749.2333688531
 20
312.7523308198
 30
0.0
 40
1.154175603047976
 50
279.1493201516
 51
355.7063327031
  0
ARC
  5
182
  8
0
  6
SLD-SOLID
 62
     7
 10
764.6727899205
 20
316.4122627677
 30
0.0
 40
0.0869442919713673
 50
34.265883492
 51
61.9245845246
  0
LINE
  5
183
  8
0
  6
SLD-SOLID
 62
     7
 10
749.1494161333
 20
320.9869960426
 30
0.0
 11
750.3843051637
 21
313.1057718872
 31
0.0
  0
POLYLINE
  5
184
  8
0
  6
SLD-SOLID
 62
     7
 66
     1
 10
0.0
 20
0.0
 30
0.0
  0
VERTEX
  5
620
  8
0
  6
SLD-SOLID
 62
     7
 10
748.8999408925
 20
321.084002602
 30
0.0
  0
VERTEX
  5
621
  8
0
  6
SLD-SOLID
 62
     7
 10
748.9827019418
 20
321.078086841
 30
0.0
  0
VERTEX
  5
622
  8
0
  6
SLD-SOLID
 62
     7
 10
749.0561050619
 20
321.0610995172
 30
0.0
  0
VERTEX
  5
623
  8
0
  6
SLD-SOLID
 62
     7
 10
749.1119248117
 20
321.0350373863
 30
0.0
  0
VERTEX
  5
624
  8
0
  6
SLD-SOLID
 62
     7
 10
749.143843099
 20
321.0029402851
 30
0.0
  0
VERTEX
  5
625
  8
0
  6
SLD-SOLID
 62
     7
 10
749.1494161333
 20
320.9869960426
 30
0.0
  0
SEQEND
  5
626
  8
0
  6
SLD-SOLID
 62
     7
  0
LINE
  5
185
  8
0
  6
SLD-SOLID
 62
     7
 10
748.8999408925
 20
321.084002602
 30
0.0
 11
748.868648454
 21
321.084002602
 31
0.0
  0
POLYLINE
  5
186
  8
0
  6
SLD-SOLID
 62
     7
 66
     1
 10
0.0
 20
0.0
 30
0.0
  0
VERTEX
  5
627
  8
0
  6
SLD-SOLID
 62
     7
 10
748.6191732133
 20
320.9869960426
 30
0.0
  0
VERTEX
  5
628
  8
0
  6
SLD-SOLID
 62
     7
 10
748.6385745252
 20
321.0206577657
 30
0.0
  0
VERTEX
  5
629
  8
0
  6
SLD-SOLID
 62
     7
 10
748.6839038576
 20
321.0499534486
 30
0.0
  0
VERTEX
  5
62A
  8
0
  6
SLD-SOLID
 62
     7
 10
748.7500948156
 20
321.0714707254
 30
0.0
  0
VERTEX
  5
62B
  8
0
  6
SLD-SOLID
 62
     7
 10
748.829637214
 20
321.0827062009
 30
0.0
  0
VERTEX
  5
62C
  8
0
  6
SLD-SOLID
 62
     7
 10
748.868648454
 20
321.084002602
 30
0.0
  0
SEQEND
  5
62D
  8
0
  6
SLD-SOLID
 62
     7
  0
LINE
  5
187
  8
0
  6
SLD-SOLID
 62
     7
 10
748.6191732133
 20
320.9869960426
 30
0.0
 11
747.3842841829
 21
313.1057718872
 31
0.0
  0
ARC
  5
188
  8
0
  6
SLD-SOLID
 62
     7
 10
733.093786461
 20
316.4145058785
 30
0.0
 40
0.0840208506427839
 50
117.5841420014
 51
146.2253899821
  0
ARC
  5
189
  8
0
  6
SLD-SOLID
 62
     7
 10
748.8842974375
 20
292.789192031
 30
0.0
 40
28.50000000000066
 50
56.2604749358
 51
123.7395250642
  0
LINE
  5
18A
  8
0
  6
SLD-SOLID
 62
     7
 10
747.3842841829
 20
313.1057718872
 30
0.0
 11
747.3842841829
 21
312.4975213884
 31
0.0
  0
LINE
  5
18B
  8
0
  6
SLD-SOLID
 62
     7
 10
750.3843051637
 20
312.4975213884
 30
0.0
 11
750.3843051637
 21
313.1057718872
 31
0.0
  0
ARC
  5
18C
  8
0
  6
SLD-SOLID
 62
     7
 10
764.6751708679
 20
269.1634709457
 30
0.0
 40
0.0834871230983819
 50
297.4906163929
 51
326.3189155907
  0
ARC
  5
18D
  8
0
  6
SLD-SOLID
 62
     7
 10
748.8842974375
 20
292.789192031
 30
0.0
 40
28.50000000000097
 50
236.2604749358
 51
303.7395250642
  0
ARC
  5
18E
  8
0
  6
SLD-SOLID
 62
     7
 10
733.0958727143
 20
269.1662057784
 30
0.0
 40
0.0870508454208334
 50
214.2831470586
 51
241.9073209579
  0
LINE
  5
18F
  8
0
  6
SLD-SOLID
 62
     7
 10
748.6191732133
 20
320.7494864343
 30
0.0
 11
748.6191732133
 21
320.9869960426
 31
0.0
  0
ARC
  5
190
  8
0
  6
SLD-SOLID
 62
     7
 10
763.3854993506
 20
269.5577693875
 30
0.0
 40
1.428775564179455
 50
342.0387056398
 51
21.1401784968
  0
ARC
  5
191
  8
0
  6
SLD-SOLID
 62
     7
 10
763.4324446641
 20
316.019310841
 30
0.0
 40
1.384610302594309
 50
338.2093439976
 51
18.6117966304
  0
ARC
  5
192
  8
0
  6
SLD-SOLID
 62
     7
 10
734.3360440685
 20
269.559094864
 30
0.0
 40
1.384520959930415
 50
158.2090369912
 51
198.6138638469
  0
ARC
  5
193
  8
0
  6
SLD-SOLID
 62
     7
 10
734.3361775832
 20
316.0192917113
 30
0.0
 40
1.384647588119011
 50
161.3878876931
 51
201.7891867181
  0
CIRCLE
  5
194
  8
0
  6
SLD-SOLID
 62
     7
 10
748.8842974375
 20
292.789192031
 30
0.0
 40
32.50000000000006
  0
POLYLINE
  5
195
  8
0
  6
SLD-SOLID
 62
     7
 66
     1
 10
0.0
 20
0.0
 30
0.0
  0
VERTEX
  5
62E
  8
0
  6
SLD-SOLID
 62
     7
 10
748.8842946733
 20
322.5037554382
 30
0.0
  0
VERTEX
  5
62F
  8
0
  6
SLD-SOLID
 62
     7
 10
749.840770408
 20
322.5611845134
 30
0.0
  0
VERTEX
  5
630
  8
0
  6
SLD-SOLID
 62
     7
 10
750.6511551584
 20
322.7308044313
 30
0.0
  0
VERTEX
  5
631
  8
0
  6
SLD-SOLID
 62
     7
 10
751.1919481004
 20
323.0009922861
 30
0.0
  0
VERTEX
  5
632
  8
0
  6
SLD-SOLID
 62
     7
 10
751.381878301
 20
323.344225633
 30
0.0
  0
VERTEX
  5
633
  8
0
  6
SLD-SOLID
 62
     7
 10
751.3619703496
 20
323.3830282567
 30
0.0
  0
SEQEND
  5
634
  8
0
  6
SLD-SOLID
 62
     7
  0
POLYLINE
  5
196
  8
0
  6
SLD-SOLID
 62
     7
 66
     1
 10
0.0
 20
0.0
 30
0.0
  0
VERTEX
  5
635
  8
0
  6
SLD-SOLID
 62
     7
 10
746.4061272586
 20
323.3819553731
 30
0.0
  0
VERTEX
  5
636
  8
0
  6
SLD-SOLID
 62
     7
 10
746.3868004526
 20
323.3443597434
 30
0.0
  0
VERTEX
  5
637
  8
0
  6
SLD-SOLID
 62
     7
 10
746.576626345
 20
323.0011561988
 30
0.0
  0
VERTEX
  5
638
  8
0
  6
SLD-SOLID
 62
     7
 10
747.1171063627
 20
322.7309236406
 30
0.0
  0
VERTEX
  5
639
  8
0
  6
SLD-SOLID
 62
     7
 10
747.9272228921
 20
322.5614378332
 30
0.0
  0
VERTEX
  5
63A
  8
0
  6
SLD-SOLID
 62
     7
 10
748.8842946733
 20
322.5037554382
 30
0.0
  0
SEQEND
  5
63B
  8
0
  6
SLD-SOLID
 62
     7
  0
POLYLINE
  5
197
  8
0
  6
SLD-SOLID
 62
     7
 66
     1
 10
0.0
 20
0.0
 30
0.0
  0
VERTEX
  5
63C
  8
0
  6
SLD-SOLID
 62
     7
 10
778.7721497262
 20
288.3004346965
 30
0.0
  0
VERTEX
  5
63D
  8
0
  6
SLD-SOLID
 62
     7
 10
778.5888356412
 20
287.7796391128
 30
0.0
  0
VERTEX
  5
63E
  8
0
  6
SLD-SOLID
 62
     7
 10
778.3594173635
 20
287.3790213941
 30
0.0
  0
VERTEX
  5
63F
  8
0
  6
SLD-SOLID
 62
     7
 10
778.1118196691
 20
287.1385017513
 30
0.0
  0
VERTEX
  5
640
  8
0
  6
SLD-SOLID
 62
     7
 10
777.8750104154
 20
287.0817581294
 30
0.0
  0
SEQEND
  5
641
  8
0
  6
SLD-SOLID
 62
     7
  0
POLYLINE
  5
198
  8
0
  6
SLD-SOLID
 62
     7
 66
     1
 10
0.0
 20
0.0
 30
0.0
  0
VERTEX
  5
642
  8
0
  6
SLD-SOLID
 62
     7
 10
777.6771527971
 20
287.8570506452
 30
0.0
  0
VERTEX
  5
643
  8
0
  6
SLD-SOLID
 62
     7
 10
777.5831860746
 20
286.9244912742
 30
0.0
  0
VERTEX
  5
644
  8
0
  6
SLD-SOLID
 62
     7
 10
777.6199919427
 20
286.1196050523
 30
0.0
  0
VERTEX
  5
645
  8
0
  6
SLD-SOLID
 62
     7
 10
777.7959150518
 20
285.5582187055
 30
0.0
  0
VERTEX
  5
646
  8
0
  6
SLD-SOLID
 62
     7
 10
778.0977827753
 20
285.319949138
 30
0.0
  0
SEQEND
  5
647
  8
0
  6
SLD-SOLID
 62
     7
  0
POLYLINE
  5
199
  8
0
  6
SLD-SOLID
 62
     7
 66
     1
 10
0.0
 20
0.0
 30
0.0
  0
VERTEX
  5
648
  8
0
  6
SLD-SOLID
 62
     7
 10
780.8487755502
 20
289.1209224342
 30
0.0
  0
VERTEX
  5
649
  8
0
  6
SLD-SOLID
 62
     7
 10
780.4906112398
 20
288.7362191556
 30
0.0
  0
VERTEX
  5
64A
  8
0
  6
SLD-SOLID
 62
     7
 10
780.1306885923
 20
288.6211374877
 30
0.0
  0
VERTEX
  5
64B
  8
0
  6
SLD-SOLID
 62
     7
 10
780.0451261247
 20
288.6643955587
 30
0.0
  0
SEQEND
  5
64C
  8
0
  6
SLD-SOLID
 62
     7
  0
POLYLINE
  5
19A
  8
0
  6
SLD-SOLID
 62
     7
 66
     1
 10
0.0
 20
0.0
 30
0.0
  0
VERTEX
  5
64D
  8
0
  6
SLD-SOLID
 62
     7
 10
778.9660436357
 20
290.2209410547
 30
0.0
  0
VERTEX
  5
64E
  8
0
  6
SLD-SOLID
 62
     7
 10
778.9208335126
 20
290.2457216857
 30
0.0
  0
VERTEX
  5
64F
  8
0
  6
SLD-SOLID
 62
     7
 10
778.6402446474
 20
290.1739576934
 30
0.0
  0
VERTEX
  5
650
  8
0
  6
SLD-SOLID
 62
     7
 10
778.3623379911
 20
289.8879150032
 30
0.0
  0
VERTEX
  5
651
  8
0
  6
SLD-SOLID
 62
     7
 10
778.1034154142
 20
289.4147286294
 30
0.0
  0
VERTEX
  5
652
  8
0
  6
SLD-SOLID
 62
     7
 10
777.8884810651
 20
288.7951085447
 30
0.0
  0
VERTEX
  5
653
  8
0
  6
SLD-SOLID
 62
     7
 10
777.7178031648
 20
288.0890021203
 30
0.0
  0
SEQEND
  5
654
  8
0
  6
SLD-SOLID
 62
     7
  0
POLYLINE
  5
19B
  8
0
  6
SLD-SOLID
 62
     7
 66
     1
 10
0.0
 20
0.0
 30
0.0
  0
VERTEX
  5
655
  8
0
  6
SLD-SOLID
 62
     7
 10
778.092209741
 20
288.7150446056
 30
0.0
  0
VERTEX
  5
656
  8
0
  6
SLD-SOLID
 62
     7
 10
778.1754476274
 20
288.7232849477
 30
0.0
  0
VERTEX
  5
657
  8
0
  6
SLD-SOLID
 62
     7
 10
778.252784654
 20
288.6656025527
 30
0.0
  0
VERTEX
  5
658
  8
0
  6
SLD-SOLID
 62
     7
 10
778.3125681127
 20
288.5461399435
 30
0.0
  0
VERTEX
  5
659
  8
0
  6
SLD-SOLID
 62
     7
 10
778.3493739808
 20
288.3753428338
 30
0.0
  0
SEQEND
  5
65A
  8
0
  6
SLD-SOLID
 62
     7
  0
POLYLINE
  5
19C
  8
0
  6
SLD-SOLID
 62
     7
 66
     1
 10
0.0
 20
0.0
 30
0.0
  0
VERTEX
  5
65B
  8
0
  6
SLD-SOLID
 62
     7
 10
778.3493739808
 20
288.3753428338
 30
0.0
  0
VERTEX
  5
65C
  8
0
  6
SLD-SOLID
 62
     7
 10
778.4317177976
 20
288.2384607671
 30
0.0
  0
VERTEX
  5
65D
  8
0
  6
SLD-SOLID
 62
     7
 10
778.5357875074
 20
288.1858447669
 30
0.0
  0
VERTEX
  5
65E
  8
0
  6
SLD-SOLID
 62
     7
 10
778.5918456758
 20
288.2037708639
 30
0.0
  0
SEQEND
  5
65F
  8
0
  6
SLD-SOLID
 62
     7
  0
ARC
  5
19D
  8
0
  6
SLD-SOLID
 62
     7
 10
778.7098038996
 20
288.3223744829
 30
0.0
 40
0.066093542276893
 50
340.6127924729
 51
21.3895746365
  0
LINE
  5
19E
  8
0
  6
SLD-SOLID
 62
     7
 10
764.8336333478
 20
318.7851110576
 30
0.0
 11
766.1272031511
 21
317.9705092786
 31
0.0
  0
LINE
  5
19F
  8
0
  6
SLD-SOLID
 62
     7
 10
765.4436272825
 20
318.8143173336
 30
0.0
 11
766.2238520826
 21
319.0032491563
 31
0.0
  0
LINE
  5
1A0
  8
0
  6
SLD-SOLID
 62
     7
 10
764.2075461591
 20
320.4713264583
 30
0.0
 11
763.9232618059
 21
319.9355701087
 31
0.0
  0
LINE
  5
1A1
  8
0
  6
SLD-SOLID
 62
     7
 10
762.3951775278
 20
320.7185665248
 30
0.0
 11
763.4122711862
 21
319.8748031734
 31
0.0
  0
LINE
  5
1A2
  8
0
  6
SLD-SOLID
 62
     7
 10
761.4297908986
 20
319.7148094057
 30
0.0
 11
764.0420240606
 21
319.0452257274
 31
0.0
  0
LINE
  5
1A3
  8
0
  6
SLD-SOLID
 62
     7
 10
764.0420240606
 20
319.0452257274
 30
0.0
 11
764.7457164968
 21
318.1058416246
 31
0.0
  0
POLYLINE
  5
1A4
  8
0
  6
SLD-SOLID
 62
     7
 66
     1
 10
0.0
 20
0.0
 30
0.0
  0
VERTEX
  5
660
  8
0
  6
SLD-SOLID
 62
     7
 10
755.0893468107
 20
263.8070309638
 30
0.0
  0
VERTEX
  5
661
  8
0
  6
SLD-SOLID
 62
     7
 10
754.5271856035
 20
263.6417770861
 30
0.0
  0
VERTEX
  5
662
  8
0
  6
SLD-SOLID
 62
     7
 10
754.0704650129
 20
263.4262541412
 30
0.0
  0
VERTEX
  5
663
  8
0
  6
SLD-SOLID
 62
     7
 10
753.7873429502
 20
263.1869042395
 30
0.0
  0
VERTEX
  5
664
  8
0
  6
SLD-SOLID
 62
     7
 10
753.7203175271
 20
262.9539245842
 30
0.0
  0
SEQEND
  5
665
  8
0
  6
SLD-SOLID
 62
     7
  0
POLYLINE
  5
1A5
  8
0
  6
SLD-SOLID
 62
     7
 66
     1
 10
0.0
 20
0.0
 30
0.0
  0
VERTEX
  5
666
  8
0
  6
SLD-SOLID
 62
     7
 10
756.5677506174
 20
262.2528100489
 30
0.0
  0
VERTEX
  5
667
  8
0
  6
SLD-SOLID
 62
     7
 10
756.2597138132
 20
262.3749399661
 30
0.0
  0
VERTEX
  5
668
  8
0
  6
SLD-SOLID
 62
     7
 10
756.1083180154
 20
262.5580677865
 30
0.0
  0
VERTEX
  5
669
  8
0
  6
SLD-SOLID
 62
     7
 10
756.1160070146
 20
262.6477429746
 30
0.0
  0
SEQEND
  5
66A
  8
0
  6
SLD-SOLID
 62
     7
  0
POLYLINE
  5
1A6
  8
0
  6
SLD-SOLID
 62
     7
 66
     1
 10
0.0
 20
0.0
 30
0.0
  0
VERTEX
  5
66B
  8
0
  6
SLD-SOLID
 62
     7
 10
756.7633730615
 20
263.5548660634
 30
0.0
  0
VERTEX
  5
66C
  8
0
  6
SLD-SOLID
 62
     7
 10
756.7722541536
 20
263.6195445536
 30
0.0
  0
VERTEX
  5
66D
  8
0
  6
SLD-SOLID
 62
     7
 10
756.6639823163
 20
263.7672374128
 30
0.0
  0
VERTEX
  5
66E
  8
0
  6
SLD-SOLID
 62
     7
 10
756.4316136087
 20
263.8670155881
 30
0.0
  0
VERTEX
  5
66F
  8
0
  6
SLD-SOLID
 62
     7
 10
756.0952049936
 20
263.9120617984
 30
0.0
  0
VERTEX
  5
670
  8
0
  6
SLD-SOLID
 62
     7
 10
755.68387334
 20
263.901020038
 30
0.0
  0
VERTEX
  5
671
  8
0
  6
SLD-SOLID
 62
     7
 10
755.2334410394
 20
263.8371611117
 30
0.0
  0
SEQEND
  5
672
  8
0
  6
SLD-SOLID
 62
     7
  0
POLYLINE
  5
1A7
  8
0
  6
SLD-SOLID
 62
     7
 66
     1
 10
0.0
 20
0.0
 30
0.0
  0
VERTEX
  5
673
  8
0
  6
SLD-SOLID
 62
     7
 10
755.6570810522
 20
263.7802759288
 30
0.0
  0
VERTEX
  5
674
  8
0
  6
SLD-SOLID
 62
     7
 10
755.6834263051
 20
263.7655759333
 30
0.0
  0
VERTEX
  5
675
  8
0
  6
SLD-SOLID
 62
     7
 10
755.7091755117
 20
263.7164691566
 30
0.0
  0
VERTEX
  5
676
  8
0
  6
SLD-SOLID
 62
     7
 10
755.6937081064
 20
263.6585185407
 30
0.0
  0
VERTEX
  5
677
  8
0
  6
SLD-SOLID
 62
     7
 10
755.6389314378
 20
263.5969394921
 30
0.0
  0
VERTEX
  5
678
  8
0
  6
SLD-SOLID
 62
     7
 10
755.547706529
 20
263.5364407776
 30
0.0
  0
SEQEND
  5
679
  8
0
  6
SLD-SOLID
 62
     7
  0
POLYLINE
  5
1A8
  8
0
  6
SLD-SOLID
 62
     7
 66
     1
 10
0.0
 20
0.0
 30
0.0
  0
VERTEX
  5
67A
  8
0
  6
SLD-SOLID
 62
     7
 10
755.547706529
 20
263.5364407776
 30
0.0
  0
VERTEX
  5
67B
  8
0
  6
SLD-SOLID
 62
     7
 10
755.4871482099
 20
263.4574497221
 30
0.0
  0
VERTEX
  5
67C
  8
0
  6
SLD-SOLID
 62
     7
 10
755.4813665594
 20
263.3849257706
 30
0.0
  0
VERTEX
  5
67D
  8
0
  6
SLD-SOLID
 62
     7
 10
755.5215698923
 20
263.3362809299
 30
0.0
  0
SEQEND
  5
67E
  8
0
  6
SLD-SOLID
 62
     7
  0
ARC
  5
1A9
  8
0
  6
SLD-SOLID
 62
     7
 10
755.6016738473
 20
263.31565212
 30
0.0
 40
0.0416979083005845
 50
272.2593001133
 51
312.6059265091
  0
POLYLINE
  5
1AA
  8
0
  6
SLD-SOLID
 62
     7
 66
     1
 10
0.0
 20
0.0
 30
0.0
  0
VERTEX
  5
67F
  8
0
  6
SLD-SOLID
 62
     7
 10
755.6033176626
 20
263.2739866255
 30
0.0
  0
VERTEX
  5
680
  8
0
  6
SLD-SOLID
 62
     7
 10
755.2581173623
 20
263.2604563712
 30
0.0
  0
VERTEX
  5
681
  8
0
  6
SLD-SOLID
 62
     7
 10
754.9721342767
 20
263.2999593495
 30
0.0
  0
VERTEX
  5
682
  8
0
  6
SLD-SOLID
 62
     7
 10
754.7748429025
 20
263.3866841076
 30
0.0
  0
VERTEX
  5
683
  8
0
  6
SLD-SOLID
 62
     7
 10
754.6865684236
 20
263.5103413938
 30
0.0
  0
SEQEND
  5
684
  8
0
  6
SLD-SOLID
 62
     7
  0
POLYLINE
  5
1AB
  8
0
  6
SLD-SOLID
 62
     7
 66
     1
 10
0.0
 20
0.0
 30
0.0
  0
VERTEX
  5
685
  8
0
  6
SLD-SOLID
 62
     7
 10
777.68630211
 20
287.8554860233
 30
0.0
  0
VERTEX
  5
686
  8
0
  6
SLD-SOLID
 62
     7
 10
777.5922757829
 20
286.9225988267
 30
0.0
  0
VERTEX
  5
687
  8
0
  6
SLD-SOLID
 62
     7
 10
777.6290220464
 20
286.1175039886
 30
0.0
  0
VERTEX
  5
688
  8
0
  6
SLD-SOLID
 62
     7
 10
777.8049153531
 20
285.5559835313
 30
0.0
  0
VERTEX
  5
689
  8
0
  6
SLD-SOLID
 62
     7
 10
778.1067830766
 20
285.317639458
 30
0.0
  0
SEQEND
  5
68A
  8
0
  6
SLD-SOLID
 62
     7
  0
LINE
  5
1AC
  8
0
  6
SLD-SOLID
 62
     7
 10
777.6771527971
 20
287.8570506452
 30
0.0
 11
777.68630211
 21
287.8554860233
 31
0.0
  0
LINE
  5
1AD
  8
0
  6
SLD-SOLID
 62
     7
 10
777.7269822801
 20
288.0874971031
 30
0.0
 11
777.7803880418
 21
288.1079265951
 31
0.0
  0
POLYLINE
  5
1AE
  8
0
  6
SLD-SOLID
 62
     7
 66
     1
 10
0.0
 20
0.0
 30
0.0
  0
VERTEX
  5
68B
  8
0
  6
SLD-SOLID
 62
     7
 10
779.5500797475
 20
289.2142633079
 30
0.0
  0
VERTEX
  5
68C
  8
0
  6
SLD-SOLID
 62
     7
 10
779.401842996
 20
289.7375622867
 30
0.0
  0
VERTEX
  5
68D
  8
0
  6
SLD-SOLID
 62
     7
 10
779.1927499021
 20
290.1009420036
 30
0.0
  0
VERTEX
  5
68E
  8
0
  6
SLD-SOLID
 62
     7
 10
778.9301020349
 20
290.2449319242
 30
0.0
  0
VERTEX
  5
68F
  8
0
  6
SLD-SOLID
 62
     7
 10
778.6494833673
 20
290.1731530307
 30
0.0
  0
VERTEX
  5
690
  8
0
  6
SLD-SOLID
 62
     7
 10
778.371576711
 20
289.8870060323
 30
0.0
  0
VERTEX
  5
691
  8
0
  6
SLD-SOLID
 62
     7
 10
778.1126541341
 20
289.413670647
 30
0.0
  0
VERTEX
  5
692
  8
0
  6
SLD-SOLID
 62
     7
 10
777.8976601804
 20
288.793841946
 30
0.0
  0
VERTEX
  5
693
  8
0
  6
SLD-SOLID
 62
     7
 10
777.7269822801
 20
288.0874971031
 30
0.0
  0
SEQEND
  5
694
  8
0
  6
SLD-SOLID
 62
     7
  0
POLYLINE
  5
1AF
  8
0
  6
SLD-SOLID
 62
     7
 66
     1
 10
0.0
 20
0.0
 30
0.0
  0
VERTEX
  5
695
  8
0
  6
SLD-SOLID
 62
     7
 10
780.8580142702
 20
289.1198644517
 30
0.0
  0
VERTEX
  5
696
  8
0
  6
SLD-SOLID
 62
     7
 10
780.4998201574
 20
288.7350419639
 30
0.0
  0
VERTEX
  5
697
  8
0
  6
SLD-SOLID
 62
     7
 10
780.1398975099
 20
288.6199155925
 30
0.0
  0
VERTEX
  5
698
  8
0
  6
SLD-SOLID
 62
     7
 10
779.8143369401
 20
288.7845287202
 30
0.0
  0
VERTEX
  5
699
  8
0
  6
SLD-SOLID
 62
     7
 10
779.5500797475
 20
289.2142633079
 30
0.0
  0
SEQEND
  5
69A
  8
0
  6
SLD-SOLID
 62
     7
  0
POLYLINE
  5
1B0
  8
0
  6
SLD-SOLID
 62
     7
 66
     1
 10
0.0
 20
0.0
 30
0.0
  0
VERTEX
  5
69B
  8
0
  6
SLD-SOLID
 62
     7
 10
780.8836740697
 20
289.0298316358
 30
0.0
  0
VERTEX
  5
69C
  8
0
  6
SLD-SOLID
 62
     7
 10
780.8843297208
 20
289.0653411029
 30
0.0
  0
VERTEX
  5
69D
  8
0
  6
SLD-SOLID
 62
     7
 10
780.8797699655
 20
289.0939662336
 30
0.0
  0
VERTEX
  5
69E
  8
0
  6
SLD-SOLID
 62
     7
 10
780.8706504548
 20
289.1133526443
 30
0.0
  0
VERTEX
  5
69F
  8
0
  6
SLD-SOLID
 62
     7
 10
780.8580142702
 20
289.1198644517
 30
0.0
  0
SEQEND
  5
6A0
  8
0
  6
SLD-SOLID
 62
     7
  0
POLYLINE
  5
1B1
  8
0
  6
SLD-SOLID
 62
     7
 66
     1
 10
0.0
 20
0.0
 30
0.0
  0
VERTEX
  5
6A1
  8
0
  6
SLD-SOLID
 62
     7
 10
778.1067830766
 20
285.317639458
 30
0.0
  0
VERTEX
  5
6A2
  8
0
  6
SLD-SOLID
 62
     7
 10
778.8438839162
 20
285.4871997713
 30
0.0
  0
VERTEX
  5
6A3
  8
0
  6
SLD-SOLID
 62
     7
 10
779.6283406461
 20
286.216358292
 30
0.0
  0
VERTEX
  5
6A4
  8
0
  6
SLD-SOLID
 62
     7
 10
780.345771953
 20
287.4367186902
 30
0.0
  0
VERTEX
  5
6A5
  8
0
  6
SLD-SOLID
 62
     7
 10
780.8836740697
 20
289.0298316358
 30
0.0
  0
SEQEND
  5
6A6
  8
0
  6
SLD-SOLID
 62
     7
  0
POLYLINE
  5
1B2
  8
0
  6
SLD-SOLID
 62
     7
 66
     1
 10
0.0
 20
0.0
 30
0.0
  0
VERTEX
  5
6A7
  8
0
  6
SLD-SOLID
 62
     7
 10
777.8841001237
 20
287.0799699901
 30
0.0
  0
VERTEX
  5
6A8
  8
0
  6
SLD-SOLID
 62
     7
 10
777.7901930059
 20
287.1489027618
 30
0.0
  0
VERTEX
  5
6A9
  8
0
  6
SLD-SOLID
 62
     7
 10
777.7276975358
 20
287.3109081863
 30
0.0
  0
VERTEX
  5
6AA
  8
0
  6
SLD-SOLID
 62
     7
 10
777.703676864
 20
287.5451842426
 30
0.0
  0
VERTEX
  5
6AB
  8
0
  6
SLD-SOLID
 62
     7
 10
777.720038339
 20
287.8215262769
 30
0.0
  0
SEQEND
  5
6AC
  8
0
  6
SLD-SOLID
 62
     7
  0
POLYLINE
  5
1B3
  8
0
  6
SLD-SOLID
 62
     7
 66
     1
 10
0.0
 20
0.0
 30
0.0
  0
VERTEX
  5
6AD
  8
0
  6
SLD-SOLID
 62
     7
 10
778.7813288415
 20
288.2990488885
 30
0.0
  0
VERTEX
  5
6AE
  8
0
  6
SLD-SOLID
 62
     7
 10
778.5979849542
 20
287.778089392
 30
0.0
  0
VERTEX
  5
6AF
  8
0
  6
SLD-SOLID
 62
     7
 10
778.3685666765
 20
287.3773524641
 30
0.0
  0
VERTEX
  5
6B0
  8
0
  6
SLD-SOLID
 62
     7
 10
778.1209391797
 20
287.1367434143
 30
0.0
  0
VERTEX
  5
6B1
  8
0
  6
SLD-SOLID
 62
     7
 10
777.8841001237
 20
287.0799699901
 30
0.0
  0
SEQEND
  5
6B2
  8
0
  6
SLD-SOLID
 62
     7
  0
ARC
  5
1B4
  8
0
  6
SLD-SOLID
 62
     7
 10
778.7208164846
 20
288.3210362967
 30
0.0
 40
0.0643831612907243
 50
340.0311825146
 51
21.969889666
  0
POLYLINE
  5
1B5
  8
0
  6
SLD-SOLID
 62
     7
 66
     1
 10
0.0
 20
0.0
 30
0.0
  0
VERTEX
  5
6B3
  8
0
  6
SLD-SOLID
 62
     7
 10
778.3585530961
 20
288.373971927
 30
0.0
  0
VERTEX
  5
6B4
  8
0
  6
SLD-SOLID
 62
     7
 10
778.4408075059
 20
288.2367620347
 30
0.0
  0
VERTEX
  5
6B5
  8
0
  6
SLD-SOLID
 62
     7
 10
778.5449368204
 20
288.1844142555
 30
0.0
  0
VERTEX
  5
6B6
  8
0
  6
SLD-SOLID
 62
     7
 10
778.6618513311
 20
288.2216373561
 30
0.0
  0
VERTEX
  5
6B7
  8
0
  6
SLD-SOLID
 62
     7
 10
778.7805241788
 20
288.3451232789
 30
0.0
  0
SEQEND
  5
6B8
  8
0
  6
SLD-SOLID
 62
     7
  0
POLYLINE
  5
1B6
  8
0
  6
SLD-SOLID
 62
     7
 66
     1
 10
0.0
 20
0.0
 30
0.0
  0
VERTEX
  5
6B9
  8
0
  6
SLD-SOLID
 62
     7
 10
777.7803880418
 20
288.1079265951
 30
0.0
  0
VERTEX
  5
6BA
  8
0
  6
SLD-SOLID
 62
     7
 10
777.8408271516
 20
288.3225927232
 30
0.0
  0
VERTEX
  5
6BB
  8
0
  6
SLD-SOLID
 62
     7
 10
777.9177469457
 20
288.5046700118
 30
0.0
  0
VERTEX
  5
6BC
  8
0
  6
SLD-SOLID
 62
     7
 10
778.0052763666
 20
288.6387059568
 30
0.0
  0
VERTEX
  5
6BD
  8
0
  6
SLD-SOLID
 62
     7
 10
778.0966800893
 20
288.7133011697
 30
0.0
  0
VERTEX
  5
6BE
  8
0
  6
SLD-SOLID
 62
     7
 10
778.184656545
 20
288.7220779537
 30
0.0
  0
VERTEX
  5
6BF
  8
0
  6
SLD-SOLID
 62
     7
 10
778.2619637693
 20
288.6643061517
 30
0.0
  0
VERTEX
  5
6C0
  8
0
  6
SLD-SOLID
 62
     7
 10
778.3218068326
 20
288.5448882459
 30
0.0
  0
VERTEX
  5
6C1
  8
0
  6
SLD-SOLID
 62
     7
 10
778.3585530961
 20
288.373971927
 30
0.0
  0
SEQEND
  5
6C2
  8
0
  6
SLD-SOLID
 62
     7
  0
LINE
  5
1B7
  8
0
  6
SLD-SOLID
 62
     7
 10
777.720038339
 20
287.8215262769
 30
0.0
 11
777.68630211
 21
287.8554860233
 31
0.0
  0
POLYLINE
  5
1B8
  8
0
  6
SLD-SOLID
 62
     7
 66
     1
 10
0.0
 20
0.0
 30
0.0
  0
VERTEX
  5
6C3
  8
0
  6
SLD-SOLID
 62
     7
 10
777.7178031648
 20
288.0890021203
 30
0.0
  0
VERTEX
  5
6C4
  8
0
  6
SLD-SOLID
 62
     7
 10
777.7223927225
 20
288.0882421611
 30
0.0
  0
VERTEX
  5
6C5
  8
0
  6
SLD-SOLID
 62
     7
 10
777.7269822801
 20
288.0874971031
 30
0.0
  0
SEQEND
  5
6C6
  8
0
  6
SLD-SOLID
 62
     7
  0
LINE
  5
1B9
  8
0
  6
SLD-SOLID
 62
     7
 10
777.8750104154
 20
287.0817581294
 30
0.0
 11
777.8841001237
 21
287.0799699901
 31
0.0
  0
LINE
  5
1BA
  8
0
  6
SLD-SOLID
 62
     7
 10
778.3493739808
 20
288.3753428338
 30
0.0
 11
778.3585530961
 21
288.373971927
 31
0.0
  0
POLYLINE
  5
1BB
  8
0
  6
SLD-SOLID
 62
     7
 66
     1
 10
0.0
 20
0.0
 30
0.0
  0
VERTEX
  5
6C7
  8
0
  6
SLD-SOLID
 62
     7
 10
755.0913137639
 20
263.797948706
 30
0.0
  0
VERTEX
  5
6C8
  8
0
  6
SLD-SOLID
 62
     7
 10
754.5289737428
 20
263.632665026
 30
0.0
  0
VERTEX
  5
6C9
  8
0
  6
SLD-SOLID
 62
     7
 10
754.0720743383
 20
263.4171122788
 30
0.0
  0
VERTEX
  5
6CA
  8
0
  6
SLD-SOLID
 62
     7
 10
753.7888628686
 20
263.177747476
 30
0.0
  0
VERTEX
  5
6CB
  8
0
  6
SLD-SOLID
 62
     7
 10
753.7218076433
 20
262.9447603701
 30
0.0
  0
SEQEND
  5
6CC
  8
0
  6
SLD-SOLID
 62
     7
  0
LINE
  5
1BC
  8
0
  6
SLD-SOLID
 62
     7
 10
755.0893468107
 20
263.8070309638
 30
0.0
 11
755.0913137639
 21
263.797948706
 31
0.0
  0
POLYLINE
  5
1BD
  8
0
  6
SLD-SOLID
 62
     7
 66
     1
 10
0.0
 20
0.0
 30
0.0
  0
VERTEX
  5
6CD
  8
0
  6
SLD-SOLID
 62
     7
 10
755.2597862924
 20
263.8018304585
 30
0.0
  0
VERTEX
  5
6CE
  8
0
  6
SLD-SOLID
 62
     7
 10
755.3992909635
 20
263.8162175296
 30
0.0
  0
VERTEX
  5
6CF
  8
0
  6
SLD-SOLID
 62
     7
 10
755.5223447526
 20
263.8130435823
 30
0.0
  0
VERTEX
  5
6D0
  8
0
  6
SLD-SOLID
 62
     7
 10
755.6207520212
 20
263.7926960467
 30
0.0
  0
VERTEX
  5
6D1
  8
0
  6
SLD-SOLID
 62
     7
 10
755.68554227
 20
263.756538379
 30
0.0
  0
VERTEX
  5
6D2
  8
0
  6
SLD-SOLID
 62
     7
 10
755.7112914766
 20
263.7074316023
 30
0.0
  0
VERTEX
  5
6D3
  8
0
  6
SLD-SOLID
 62
     7
 10
755.6958240713
 20
263.6494809864
 30
0.0
  0
VERTEX
  5
6D4
  8
0
  6
SLD-SOLID
 62
     7
 10
755.6410176004
 20
263.5878795861
 30
0.0
  0
VERTEX
  5
6D5
  8
0
  6
SLD-SOLID
 62
     7
 10
755.5497628892
 20
263.5273883222
 30
0.0
  0
SEQEND
  5
6D6
  8
0
  6
SLD-SOLID
 62
     7
  0
LINE
  5
1BE
  8
0
  6
SLD-SOLID
 62
     7
 10
755.2354079927
 20
263.8280937551
 30
0.0
 11
755.2597862924
 21
263.8018304585
 31
0.0
  0
POLYLINE
  5
1BF
  8
0
  6
SLD-SOLID
 62
     7
 66
     1
 10
0.0
 20
0.0
 30
0.0
  0
VERTEX
  5
6D7
  8
0
  6
SLD-SOLID
 62
     7
 10
756.3180965627
 20
263.0246529458
 30
0.0
  0
VERTEX
  5
6D8
  8
0
  6
SLD-SOLID
 62
     7
 10
756.5928739751
 20
263.2253790377
 30
0.0
  0
VERTEX
  5
6D9
  8
0
  6
SLD-SOLID
 62
     7
 10
756.7495149816
 20
263.4272972225
 30
0.0
  0
VERTEX
  5
6DA
  8
0
  6
SLD-SOLID
 62
     7
 10
756.774697944
 20
263.6105815052
 30
0.0
  0
VERTEX
  5
6DB
  8
0
  6
SLD-SOLID
 62
     7
 10
756.6663665021
 20
263.7582743643
 30
0.0
  0
VERTEX
  5
6DC
  8
0
  6
SLD-SOLID
 62
     7
 10
756.4339679922
 20
263.8580301879
 30
0.0
  0
VERTEX
  5
6DD
  8
0
  6
SLD-SOLID
 62
     7
 10
756.0974699701
 20
263.9030540465
 30
0.0
  0
VERTEX
  5
6DE
  8
0
  6
SLD-SOLID
 62
     7
 10
755.6859893049
 20
263.8919824837
 30
0.0
  0
VERTEX
  5
6DF
  8
0
  6
SLD-SOLID
 62
     7
 10
755.2354079927
 20
263.8280937551
 30
0.0
  0
SEQEND
  5
6E0
  8
0
  6
SLD-SOLID
 62
     7
  0
POLYLINE
  5
1C0
  8
0
  6
SLD-SOLID
 62
     7
 66
     1
 10
0.0
 20
0.0
 30
0.0
  0
VERTEX
  5
6E1
  8
0
  6
SLD-SOLID
 62
     7
 10
756.5700155939
 20
262.243802297
 30
0.0
  0
VERTEX
  5
6E2
  8
0
  6
SLD-SOLID
 62
     7
 10
756.2618893827
 20
262.365917313
 30
0.0
  0
VERTEX
  5
6E3
  8
0
  6
SLD-SOLID
 62
     7
 10
756.110493585
 20
262.5490376829
 30
0.0
  0
VERTEX
  5
6E4
  8
0
  6
SLD-SOLID
 62
     7
 10
756.1298948968
 20
262.7751404522
 30
0.0
  0
VERTEX
  5
6E5
  8
0
  6
SLD-SOLID
 62
     7
 10
756.3180965627
 20
263.0246529458
 30
0.0
  0
SEQEND
  5
6E6
  8
0
  6
SLD-SOLID
 62
     7
  0
POLYLINE
  5
1C1
  8
0
  6
SLD-SOLID
 62
     7
 66
     1
 10
0.0
 20
0.0
 30
0.0
  0
VERTEX
  5
6E7
  8
0
  6
SLD-SOLID
 62
     7
 10
756.5235835756
 20
262.2088665245
 30
0.0
  0
VERTEX
  5
6E8
  8
0
  6
SLD-SOLID
 62
     7
 10
756.5446240152
 20
262.216533172
 30
0.0
  0
VERTEX
  5
6E9
  8
0
  6
SLD-SOLID
 62
     7
 10
756.5600318159
 20
262.2253993629
 30
0.0
  0
VERTEX
  5
6EA
  8
0
  6
SLD-SOLID
 62
     7
 10
756.5687936986
 20
262.2347349404
 30
0.0
  0
VERTEX
  5
6EB
  8
0
  6
SLD-SOLID
 62
     7
 10
756.5700155939
 20
262.243802297
 30
0.0
  0
SEQEND
  5
6EC
  8
0
  6
SLD-SOLID
 62
     7
  0
POLYLINE
  5
1C2
  8
0
  6
SLD-SOLID
 62
     7
 66
     1
 10
0.0
 20
0.0
 30
0.0
  0
VERTEX
  5
6ED
  8
0
  6
SLD-SOLID
 62
     7
 10
753.7218076433
 20
262.9447603701
 30
0.0
  0
VERTEX
  5
6EE
  8
0
  6
SLD-SOLID
 62
     7
 10
753.9924127305
 20
262.5618303297
 30
0.0
  0
VERTEX
  5
6EF
  8
0
  6
SLD-SOLID
 62
     7
 10
754.5969528402
 20
262.2859427808
 30
0.0
  0
VERTEX
  5
6F0
  8
0
  6
SLD-SOLID
 62
     7
 10
755.4715019906
 20
262.1586868642
 30
0.0
  0
VERTEX
  5
6F1
  8
0
  6
SLD-SOLID
 62
     7
 10
756.5235835756
 20
262.2088665245
 30
0.0
  0
SEQEND
  5
6F2
  8
0
  6
SLD-SOLID
 62
     7
  0
POLYLINE
  5
1C3
  8
0
  6
SLD-SOLID
 62
     7
 66
     1
 10
0.0
 20
0.0
 30
0.0
  0
VERTEX
  5
6F3
  8
0
  6
SLD-SOLID
 62
     7
 10
754.6883565629
 20
263.5012293337
 30
0.0
  0
VERTEX
  5
6F4
  8
0
  6
SLD-SOLID
 62
     7
 10
754.7062677587
 20
263.5719427942
 30
0.0
  0
VERTEX
  5
6F5
  8
0
  6
SLD-SOLID
 62
     7
 10
754.7854525293
 20
263.646433699
 30
0.0
  0
VERTEX
  5
6F6
  8
0
  6
SLD-SOLID
 62
     7
 10
754.9155098642
 20
263.7154558776
 30
0.0
  0
VERTEX
  5
6F7
  8
0
  6
SLD-SOLID
 62
     7
 10
755.0795120443
 20
263.7705082177
 30
0.0
  0
SEQEND
  5
6F8
  8
0
  6
SLD-SOLID
 62
     7
  0
POLYLINE
  5
1C4
  8
0
  6
SLD-SOLID
 62
     7
 66
     1
 10
0.0
 20
0.0
 30
0.0
  0
VERTEX
  5
6F9
  8
0
  6
SLD-SOLID
 62
     7
 10
755.6053740228
 20
263.2649341701
 30
0.0
  0
VERTEX
  5
6FA
  8
0
  6
SLD-SOLID
 62
     7
 10
755.2600545133
 20
263.251381564
 30
0.0
  0
VERTEX
  5
6FB
  8
0
  6
SLD-SOLID
 62
     7
 10
754.974011823
 20
263.2908621906
 30
0.0
  0
VERTEX
  5
6FC
  8
0
  6
SLD-SOLID
 62
     7
 10
754.7766906465
 20
263.3775794981
 30
0.0
  0
VERTEX
  5
6FD
  8
0
  6
SLD-SOLID
 62
     7
 10
754.6883565629
 20
263.5012293337
 30
0.0
  0
SEQEND
  5
6FE
  8
0
  6
SLD-SOLID
 62
     7
  0
ARC
  5
1C5
  8
0
  6
SLD-SOLID
 62
     7
 10
755.6036497497
 20
263.3067945551
 30
0.0
 40
0.0418958822557719
 50
272.3587398212
 51
312.5064868013
  0
POLYLINE
  5
1C6
  8
0
  6
SLD-SOLID
 62
     7
 66
     1
 10
0.0
 20
0.0
 30
0.0
  0
VERTEX
  5
6FF
  8
0
  6
SLD-SOLID
 62
     7
 10
755.5497628892
 20
263.5273883222
 30
0.0
  0
VERTEX
  5
700
  8
0
  6
SLD-SOLID
 62
     7
 10
755.4891151632
 20
263.4482631563
 30
0.0
  0
VERTEX
  5
701
  8
0
  6
SLD-SOLID
 62
     7
 10
755.4833931173
 20
263.3758658646
 30
0.0
  0
VERTEX
  5
702
  8
0
  6
SLD-SOLID
 62
     7
 10
755.5324179376
 20
263.3165666936
 30
0.0
  0
VERTEX
  5
703
  8
0
  6
SLD-SOLID
 62
     7
 10
755.6319576944
 20
263.2759088753
 30
0.0
  0
SEQEND
  5
704
  8
0
  6
SLD-SOLID
 62
     7
  0
LINE
  5
1C7
  8
0
  6
SLD-SOLID
 62
     7
 10
755.0795120443
 20
263.7705082177
 30
0.0
 11
755.0913137639
 21
263.797948706
 31
0.0
  0
LINE
  5
1C8
  8
0
  6
SLD-SOLID
 62
     7
 10
755.2334410394
 20
263.8371611117
 30
0.0
 11
755.2354079927
 21
263.8280937551
 31
0.0
  0
LINE
  5
1C9
  8
0
  6
SLD-SOLID
 62
     7
 10
755.547706529
 20
263.5364407776
 30
0.0
 11
755.5497628892
 21
263.5273883222
 31
0.0
  0
LINE
  5
1CA
  8
0
  6
SLD-SOLID
 62
     7
 10
762.3992306436
 20
320.7269260763
 30
0.0
 11
763.4166521276
 21
319.8829839109
 31
0.0
  0
LINE
  5
1CB
  8
0
  6
SLD-SOLID
 62
     7
 10
763.9277619565
 20
319.9436912416
 30
0.0
 11
762.3992306436
 21
320.7269260763
 31
0.0
  0
LINE
  5
1CC
  8
0
  6
SLD-SOLID
 62
     7
 10
764.2120463098
 20
320.4794475912
 30
0.0
 11
763.9277619565
 21
319.9436912416
 31
0.0
  0
LINE
  5
1CD
  8
0
  6
SLD-SOLID
 62
     7
 10
765.0129241193
 20
319.4270232795
 30
0.0
 11
764.2120463098
 21
320.4794475912
 31
0.0
  0
LINE
  5
1CE
  8
0
  6
SLD-SOLID
 62
     7
 10
766.228978082
 20
319.0109977601
 30
0.0
 11
765.0129241193
 21
319.4270232795
 31
0.0
  0
LINE
  5
1CF
  8
0
  6
SLD-SOLID
 62
     7
 10
765.4486340726
 20
318.8221404432
 30
0.0
 11
766.228978082
 21
319.0109977601
 31
0.0
  0
LINE
  5
1D0
  8
0
  6
SLD-SOLID
 62
     7
 10
766.1324483598
 20
317.9781684755
 30
0.0
 11
765.4486340726
 21
318.8221404432
 31
0.0
  0
LINE
  5
1D1
  8
0
  6
SLD-SOLID
 62
     7
 10
764.8384613241
 20
318.7930235742
 30
0.0
 11
766.1324483598
 21
317.9781684755
 31
0.0
  0
LINE
  5
1D2
  8
0
  6
SLD-SOLID
 62
     7
 10
764.75063388
 20
318.1137094377
 30
0.0
 11
764.8384613241
 21
318.7930235742
 31
0.0
  0
LINE
  5
1D3
  8
0
  6
SLD-SOLID
 62
     7
 10
764.0466732229
 20
319.0532574533
 30
0.0
 11
764.75063388
 21
318.1137094377
 31
0.0
  0
LINE
  5
1D4
  8
0
  6
SLD-SOLID
 62
     7
 10
761.4336950029
 20
319.7232285617
 30
0.0
 11
764.0466732229
 21
319.0532574533
 31
0.0
  0
LINE
  5
1D5
  8
0
  6
SLD-SOLID
 62
     7
 10
763.4166521276
 20
319.8829839109
 30
0.0
 11
761.4336950029
 21
319.7232285617
 31
0.0
  0
LINE
  5
1D6
  8
0
  6
SLD-SOLID
 62
     7
 10
764.0420240606
 20
319.0452257274
 30
0.0
 11
764.0466732229
 21
319.0532574533
 31
0.0
  0
LINE
  5
1D7
  8
0
  6
SLD-SOLID
 62
     7
 10
761.4297908986
 20
319.7148094057
 30
0.0
 11
761.4336950029
 21
319.7232285617
 31
0.0
  0
POLYLINE
  5
1D8
  8
0
  6
SLD-SOLID
 62
     7
 66
     1
 10
0.0
 20
0.0
 30
0.0
  0
VERTEX
  5
705
  8
0
  6
SLD-SOLID
 62
     7
 10
748.8842946733
 20
322.5130537628
 30
0.0
  0
VERTEX
  5
706
  8
0
  6
SLD-SOLID
 62
     7
 10
749.8413068498
 20
322.5704977392
 30
0.0
  0
VERTEX
  5
707
  8
0
  6
SLD-SOLID
 62
     7
 10
750.6519896234
 20
322.7401623605
 30
0.0
  0
VERTEX
  5
708
  8
0
  6
SLD-SOLID
 62
     7
 10
751.1929613794
 20
323.0104843257
 30
0.0
  0
VERTEX
  5
709
  8
0
  6
SLD-SOLID
 62
     7
 10
751.3826531614
 20
323.3538964866
 30
0.0
  0
VERTEX
  5
70A
  8
0
  6
SLD-SOLID
 62
     7
 10
751.1924845422
 20
323.7229833482
 30
0.0
  0
VERTEX
  5
70B
  8
0
  6
SLD-SOLID
 62
     7
 10
750.6510359491
 20
324.0553090452
 30
0.0
  0
VERTEX
  5
70C
  8
0
  6
SLD-SOLID
 62
     7
 10
749.8400849546
 20
324.2869624971
 30
0.0
  0
VERTEX
  5
70D
  8
0
  6
SLD-SOLID
 62
     7
 10
748.8829535688
 20
324.3699768661
 30
0.0
  0
VERTEX
  5
70E
  8
0
  6
SLD-SOLID
 62
     7
 10
747.9260606016
 20
324.2865154623
 30
0.0
  0
VERTEX
  5
70F
  8
0
  6
SLD-SOLID
 62
     7
 10
747.1157056535
 20
324.0544894813
 30
0.0
  0
VERTEX
  5
710
  8
0
  6
SLD-SOLID
 62
     7
 10
746.57515113
 20
323.7219849704
 30
0.0
  0
VERTEX
  5
711
  8
0
  6
SLD-SOLID
 62
     7
 10
746.3860404933
 20
323.35291301
 30
0.0
  0
VERTEX
  5
712
  8
0
  6
SLD-SOLID
 62
     7
 10
746.5768051589
 20
323.0096647619
 30
0.0
  0
VERTEX
  5
713
  8
0
  6
SLD-SOLID
 62
     7
 10
747.1184474672
 20
322.7395812152
 30
0.0
  0
VERTEX
  5
714
  8
0
  6
SLD-SOLID
 62
     7
 10
747.9303223337
 20
322.5702891229
 30
0.0
  0
VERTEX
  5
715
  8
0
  6
SLD-SOLID
 62
     7
 10
748.8842946733
 20
322.5130537628
 30
0.0
  0
SEQEND
  5
716
  8
0
  6
SLD-SOLID
 62
     7
  0
LINE
  5
1D9
  8
0
  6
SLD-SOLID
 62
     7
 10
754.6865684236
 20
263.5103413938
 30
0.0
 11
754.6883565629
 21
263.5012293337
 31
0.0
  0
LINE
  5
1DA
  8
0
  6
SLD-SOLID
 62
     7
 10
764.7457164968
 20
318.1058416246
 30
0.0
 11
764.75063388
 21
318.1137094377
 31
0.0
  0
LINE
  5
1DB
  8
0
  6
SLD-SOLID
 62
     7
 10
766.1272031511
 20
317.9705092786
 30
0.0
 11
766.1324483598
 21
317.9781684755
 31
0.0
  0
LINE
  5
1DC
  8
0
  6
SLD-SOLID
 62
     7
 10
756.5677506174
 20
262.2528100489
 30
0.0
 11
756.5700155939
 21
262.243802297
 31
0.0
  0
LINE
  5
1DD
  8
0
  6
SLD-SOLID
 62
     7
 10
762.3951775278
 20
320.7185665248
 30
0.0
 11
762.3992306436
 21
320.7269260763
 31
0.0
  0
LINE
  5
1DE
  8
0
  6
SLD-SOLID
 62
     7
 10
766.2238520826
 20
319.0032491563
 30
0.0
 11
766.228978082
 21
319.0109977601
 31
0.0
  0
LINE
  5
1DF
  8
0
  6
SLD-SOLID
 62
     7
 10
780.8487755502
 20
289.1209224342
 30
0.0
 11
780.8580142702
 21
289.1198644517
 31
0.0
  0
LINE
  5
1E0
  8
0
  6
SLD-SOLID
 62
     7
 10
764.2075461591
 20
320.4713264583
 30
0.0
 11
764.2120463098
 21
320.4794475912
 31
0.0
  0
LINE
  5
1E1
  8
0
  6
SLD-SOLID
 62
     7
 10
813.8842922891
 20
150.0391919269
 30
0.0
 11
811.8343097413
 21
150.0391919269
 31
0.0
  0
LINE
  5
1E2
  8
0
  6
SLD-SOLID
 62
     7
 10
813.8842922891
 20
150.0391919269
 30
0.0
 11
813.8842922891
 21
374.2391863941
 31
0.0
  0
LINE
  5
1E3
  8
0
  6
SLD-SOLID
 62
     7
 10
811.8343097413
 20
374.2391863941
 30
0.0
 11
813.8842922891
 21
374.2391863941
 31
0.0
  0
LINE
  5
1E4
  8
0
  6
SLD-SOLID
 62
     7
 10
685.9342945064
 20
150.0391919269
 30
0.0
 11
683.8842970575
 21
150.0391919269
 31
0.0
  0
LINE
  5
1E5
  8
0
  6
SLD-SOLID
 62
     7
 10
683.8842970575
 20
374.2391863941
 30
0.0
 11
683.8842970575
 21
150.0391919269
 31
0.0
  0
LINE
  5
1E6
  8
0
  6
SLD-SOLID
 62
     7
 10
683.8842970575
 20
374.2391863941
 30
0.0
 11
685.9342945064
 21
374.2391863941
 31
0.0
  0
LINE
  5
1E7
  8
0
  6
SLD-SOLID
 62
     7
 10
811.8343097413
 20
150.0391919269
 30
0.0
 11
811.8343097413
 21
147.9891921496
 31
0.0
  0
LINE
  5
1E8
  8
0
  6
SLD-SOLID
 62
     7
 10
685.9342945064
 20
147.9891921496
 30
0.0
 11
811.8343097413
 21
147.9891921496
 31
0.0
  0
LINE
  5
1E9
  8
0
  6
SLD-SOLID
 62
     7
 10
685.9342945064
 20
147.9891921496
 30
0.0
 11
685.9342945064
 21
150.0391919269
 31
0.0
  0
LINE
  5
1EA
  8
0
  6
SLD-SOLID
 62
     7
 10
749.884311601
 20
328.2891908763
 30
0.0
 11
749.884311601
 21
329.2891929029
 31
0.0
  0
ARC
  5
1EB
  8
0
  6
SLD-SOLID
 62
     7
 10
748.8842974375
 20
329.289192031
 30
0.0
 40
1.0
 50
0.0
 51
180.0
  0
LINE
  5
1EC
  8
0
  6
SLD-SOLID
 62
     7
 10
747.8843075479
 20
329.2891929029
 30
0.0
 11
747.8843075479
 21
328.2891908763
 31
0.0
  0
ARC
  5
1ED
  8
0
  6
SLD-SOLID
 62
     7
 10
748.8842974375
 20
328.289192031
 30
0.0
 40
1.0
 50
180.0
 51
0.0
  0
LINE
  5
1EE
  8
0
  6
SLD-SOLID
 62
     7
 10
685.9342945064
 20
376.2891987441
 30
0.0
 11
811.8343097413
 21
376.2891987441
 31
0.0
  0
LINE
  5
1EF
  8
0
  6
SLD-SOLID
 62
     7
 10
811.8343097413
 20
376.2891987441
 30
0.0
 11
811.8343097413
 21
374.2391863941
 31
0.0
  0
LINE
  5
1F0
  8
0
  6
SLD-SOLID
 62
     7
 10
685.9342945064
 20
374.2391863941
 30
0.0
 11
685.9342945064
 21
376.2891987441
 31
0.0
  0
ARC
  5
1F1
  8
0
  6
SLD-SOLID
 62
     7
 10
685.9343160165
 20
374.2391797852
 30
0.0
 40
2.050018959057718
 50
90.0006011844
 51
179.9998152896
  0
ARC
  5
1F2
  8
0
  6
SLD-SOLID
 62
     7
 10
685.934291175
 20
374.2391897254
 30
0.0
 40
1.249995476537214
 50
89.9998473005
 51
180.0001526995
  0
ARC
  5
1F3
  8
0
  6
SLD-SOLID
 62
     7
 10
685.9342915211
 20
150.0391866133
 30
0.0
 40
2.04999446366655
 50
179.99985149
 51
270.0000834358
  0
ARC
  5
1F4
  8
0
  6
SLD-SOLID
 62
     7
 10
685.9343048386
 20
150.0392013277
 30
0.0
 40
1.250009140129116
 50
180.0004309004
 51
269.9995264109
  0
ARC
  5
1F5
  8
0
  6
SLD-SOLID
 62
     7
 10
811.8342978254
 20
150.0391866133
 30
0.0
 40
2.049994463736411
 50
270.0003330422
 51
0.000148509
  0
ARC
  5
1F6
  8
0
  6
SLD-SOLID
 62
     7
 10
811.8342870079
 20
150.0392137289
 30
0.0
 40
1.250021541502223
 50
270.0010420046
 51
359.9990006841
  0
ARC
  5
1F7
  8
0
  6
SLD-SOLID
 62
     7
 10
811.8342733296
 20
374.2391797849
 30
0.0
 40
2.0500189595392
 50
0.000184718
 51
89.998982331
  0
ARC
  5
1F8
  8
0
  6
SLD-SOLID
 62
     7
 10
811.8343006722
 20
374.2391773249
 30
0.0
 40
1.250007877066126
 50
0.0004156955
 51
89.9995843045
  0
POLYLINE
  5
1F9
  8
0
  6
SLD-SOLID
 62
     7
 66
     1
 10
0.0
 20
0.0
 30
0.0
  0
VERTEX
  5
717
  8
0
  6
SLD-SOLID
 62
     7
 10
812.7554101194
 20
375.0673780321
 30
0.0
  0
VERTEX
  5
718
  8
0
  6
SLD-SOLID
 62
     7
 10
812.1064943517
 20
375.3184924005
 30
0.0
  0
VERTEX
  5
719
  8
0
  6
SLD-SOLID
 62
     7
 10
811.8343097413
 20
375.4184791921
 30
0.0
  0
SEQEND
  5
71A
  8
0
  6
SLD-SOLID
 62
     7
  0
POLYLINE
  5
1FA
  8
0
  6
SLD-SOLID
 62
     7
 66
     1
 10
0.0
 20
0.0
 30
0.0
  0
VERTEX
  5
71B
  8
0
  6
SLD-SOLID
 62
     7
 10
811.8343097413
 20
148.8599028541
 30
0.0
  0
VERTEX
  5
71C
  8
0
  6
SLD-SOLID
 62
     7
 10
812.5551385129
 20
149.1296632318
 30
0.0
  0
VERTEX
  5
71D
  8
0
  6
SLD-SOLID
 62
     7
 10
812.7596718515
 20
149.2174129105
 30
0.0
  0
SEQEND
  5
71E
  8
0
  6
SLD-SOLID
 62
     7
  0
ARC
  5
1FB
  8
0
  6
SLD-SOLID
 62
     7
 10
811.1064293203
 20
373.3948393257
 30
0.0
 40
2.15056462729241
 50
23.1174013813
 51
70.2169143197
  0
ARC
  5
1FC
  8
0
  6
SLD-SOLID
 62
     7
 10
811.1126985013
 20
150.876900309
 30
0.0
 40
2.142195489362134
 50
289.6854352823
 51
336.9800683302
  0
LINE
  5
1FD
  8
0
  6
SLD-SOLID
 62
     7
 10
684.3513739551
 20
375.489185202
 30
0.0
 11
683.8842970575
 21
375.489185202
 31
0.0
  0
LINE
  5
1FE
  8
0
  6
SLD-SOLID
 62
     7
 10
683.8842970575
 20
375.489185202
 30
0.0
 11
683.8842970575
 21
374.2391863941
 31
0.0
  0
ARC
  5
1FF
  8
0
  6
SLD-SOLID
 62
     7
 10
730.8861246125
 20
159.9910330512
 30
0.0
 40
2.001841188213029
 50
180.2248973899
 51
270.0143928402
  0
LINE
  5
200
  8
0
  6
SLD-SOLID
 62
     7
 10
728.8842988456
 20
159.9831754445
 30
0.0
 11
728.8842988456
 21
215.9948149799
 31
0.0
  0
LINE
  5
201
  8
0
  6
SLD-SOLID
 62
     7
 10
766.8859404767
 20
157.9891919261
 30
0.0
 11
730.8866274799
 21
157.9891919261
 31
0.0
  0
ARC
  5
202
  8
0
  6
SLD-SOLID
 62
     7
 10
766.8823444211
 20
159.9911529256
 30
0.0
 40
2.001964229208225
 50
270.1029183829
 51
359.8967878915
  0
LINE
  5
203
  8
0
  6
SLD-SOLID
 62
     7
 10
768.8843054021
 20
215.9904452144
 30
0.0
 11
768.8843054021
 21
159.987546607
 31
0.0
  0
ARC
  5
204
  8
0
  6
SLD-SOLID
 62
     7
 10
766.8820486271
 20
215.9869377799
 30
0.0
 40
2.002259847112709
 50
0.1003672402
 51
89.8886324862
  0
LINE
  5
205
  8
0
  6
SLD-SOLID
 62
     7
 10
730.8866274799
 20
217.9891938446
 30
0.0
 11
766.8859404767
 21
217.9891938446
 31
0.0
  0
ARC
  5
206
  8
0
  6
SLD-SOLID
 62
     7
 10
730.8863838705
 20
215.9870939466
 30
0.0
 40
2.002099912909586
 50
89.9930284256
 51
179.7790401385
  0
ARC
  5
207
  8
0
  6
SLD-SOLID
 62
     7
 10
730.8838680539
 20
215.9896197914
 30
0.0
 40
1.999575957265378
 50
89.9209314807
 51
179.8511370834
  0
ARC
  5
208
  8
0
  6
SLD-SOLID
 62
     7
 10
766.8848878791
 20
159.9886094546
 30
0.0
 40
1.999417805505592
 50
270.0301634827
 51
359.9695427917
  0
ARC
  5
209
  8
0
  6
SLD-SOLID
 62
     7
 10
766.8846051027
 20
215.9894937647
 30
0.0
 40
1.999700525787615
 50
0.0272611071
 51
89.9617386193
  0
ARC
  5
20A
  8
0
  6
SLD-SOLID
 62
     7
 10
730.8835739014
 20
159.988471665
 30
0.0
 40
1.999282070817038
 50
180.1517802039
 51
270.0875100262
  0
LINE
  5
20B
  8
0
  6
SLD-SOLID
 62
     7
 10
46.9842893327
 20
151.7894173609
 30
0.0
 11
57.4632031167
 21
151.7894173609
 31
0.0
  0
LINE
  5
20C
  8
0
  6
SLD-SOLID
 62
     7
 10
60.3843075479
 20
376.2891987441
 30
0.0
 11
60.3843075479
 21
185.1224681465
 31
0.0
  0
LINE
  5
20D
  8
0
  6
SLD-SOLID
 62
     7
 10
57.4632031167
 20
151.7894173609
 30
0.0
 11
60.3843075479
 21
151.7894173609
 31
0.0
  0
ARC
  5
20E
  8
0
  6
SLD-SOLID
 62
     7
 10
63.3842974375
 20
291.2294805529
 30
0.0
 40
3.000000000000033
 50
180.0
 51
265.0
  0
ARC
  5
20F
  8
0
  6
SLD-SOLID
 62
     7
 10
63.3842974375
 20
240.2294805529
 30
0.0
 40
3.000000000000007
 50
180.0
 51
265.0
  0
ARC
  5
210
  8
0
  6
SLD-SOLID
 62
     7
 10
63.3842974375
 20
265.6294805529
 30
0.0
 40
3.000000000000007
 50
180.0
 51
265.0
  0
ARC
  5
211
  8
0
  6
SLD-SOLID
 62
     7
 10
63.3842974375
 20
214.8294805529
 30
0.0
 40
3.0
 50
180.0
 51
265.0
  0
ARC
  5
212
  8
0
  6
SLD-SOLID
 62
     7
 10
63.3842974375
 20
198.1513211012
 30
0.0
 40
3.000000000000004
 50
95.0
 51
180.0
  0
ARC
  5
213
  8
0
  6
SLD-SOLID
 62
     7
 10
63.3842974375
 20
223.5513211012
 30
0.0
 40
3.000000000000004
 50
95.0
 51
180.0
  0
ARC
  5
214
  8
0
  6
SLD-SOLID
 62
     7
 10
63.3842974375
 20
274.5513211012
 30
0.0
 40
3.000000000000085
 50
95.0
 51
180.0
  0
ARC
  5
215
  8
0
  6
SLD-SOLID
 62
     7
 10
63.3842974375
 20
248.9513211012
 30
0.0
 40
3.000000000000033
 50
95.0
 51
180.0
  0
LINE
  5
216
  8
0
  6
SLD-SOLID
 62
     7
 10
63.1228429521
 20
288.2408896564
 30
0.0
 11
75.3714484418
 21
287.1692875503
 31
0.0
  0
LINE
  5
217
  8
0
  6
SLD-SOLID
 62
     7
 10
63.1228429521
 20
237.2408980607
 30
0.0
 11
75.3714484418
 21
236.1692810534
 31
0.0
  0
LINE
  5
218
  8
0
  6
SLD-SOLID
 62
     7
 10
63.1228429521
 20
211.840896505
 30
0.0
 11
75.3714484418
 21
210.7692794977
 31
0.0
  0
LINE
  5
219
  8
0
  6
SLD-SOLID
 62
     7
 10
63.1228429521
 20
262.640895891
 30
0.0
 11
75.3714484418
 21
261.5692788838
 31
0.0
  0
LINE
  5
21A
  8
0
  6
SLD-SOLID
 62
     7
 10
63.1228429521
 20
251.9399026512
 30
0.0
 11
75.3714484418
 21
253.0115196584
 31
0.0
  0
LINE
  5
21B
  8
0
  6
SLD-SOLID
 62
     7
 10
63.1228429521
 20
277.5399038671
 30
0.0
 11
75.3714484418
 21
278.6115208744
 31
0.0
  0
LINE
  5
21C
  8
0
  6
SLD-SOLID
 62
     7
 10
63.1228429521
 20
226.5399048208
 30
0.0
 11
75.3714484418
 21
227.611521828
 31
0.0
  0
LINE
  5
21D
  8
0
  6
SLD-SOLID
 62
     7
 10
63.1228429521
 20
201.1399069904
 30
0.0
 11
75.3714484418
 21
202.2115202723
 31
0.0
  0
LINE
  5
21E
  8
0
  6
SLD-SOLID
 62
     7
 10
76.2842935766
 20
209.7730847178
 30
0.0
 11
76.2842935766
 21
203.2077150522
 31
0.0
  0
ARC
  5
21F
  8
0
  6
SLD-SOLID
 62
     7
 10
75.2842974375
 20
203.2077155473
 30
0.0
 40
1.0
 50
275.0
 51
0.0
  0
LINE
  5
220
  8
0
  6
SLD-SOLID
 62
     7
 10
76.2842935766
 20
260.5730841039
 30
0.0
 11
76.2842935766
 21
254.0077144383
 31
0.0
  0
ARC
  5
221
  8
0
  6
SLD-SOLID
 62
     7
 10
75.2842974375
 20
254.0077155473
 30
0.0
 40
1.000000000000014
 50
275.0
 51
0.0
  0
LINE
  5
222
  8
0
  6
SLD-SOLID
 62
     7
 10
76.2842935766
 20
286.1730853198
 30
0.0
 11
76.2842935766
 21
279.6077156542
 31
0.0
  0
ARC
  5
223
  8
0
  6
SLD-SOLID
 62
     7
 10
75.2842974375
 20
279.6077155473
 30
0.0
 40
1.000000000000014
 50
275.0
 51
0.0
  0
LINE
  5
224
  8
0
  6
SLD-SOLID
 62
     7
 10
76.2842935766
 20
235.1730862735
 30
0.0
 11
76.2842935766
 21
228.6077166079
 31
0.0
  0
ARC
  5
225
  8
0
  6
SLD-SOLID
 62
     7
 10
75.2842974375
 20
228.6077155473
 30
0.0
 40
1.000000000000014
 50
275.0
 51
0.0
  0
ARC
  5
226
  8
0
  6
SLD-SOLID
 62
     7
 10
75.2843008647
 20
209.7730914012
 30
0.0
 40
0.9999927119047842
 50
359.9996170696
 51
85.0004331113
  0
ARC
  5
227
  8
0
  6
SLD-SOLID
 62
     7
 10
75.2842818815
 20
286.1730820589
 30
0.0
 40
1.000011695055367
 50
0.0001868338
 51
84.999436462
  0
ARC
  5
228
  8
0
  6
SLD-SOLID
 62
     7
 10
75.2842968996
 20
260.5730871539
 30
0.0
 40
0.9999966770154316
 50
359.9998252488
 51
85.0002249321
  0
ARC
  5
229
  8
0
  6
SLD-SOLID
 62
     7
 10
75.2842968996
 20
235.1730893235
 30
0.0
 40
0.9999966770154074
 50
359.9998252488
 51
85.0002249321
  0
ARC
  5
22A
  8
0
  6
SLD-SOLID
 62
     7
 10
63.3842974375
 20
303.2493540086
 30
0.0
 40
3.000000000000089
 50
95.0
 51
180.0
  0
ARC
  5
22B
  8
0
  6
SLD-SOLID
 62
     7
 10
63.3842974375
 20
330.7294805529
 30
0.0
 40
3.000000000000028
 50
180.0
 51
265.0
  0
LINE
  5
22C
  8
0
  6
SLD-SOLID
 62
     7
 10
63.1228429521
 20
327.7409026502
 30
0.0
 11
75.3714484418
 21
326.669285643
 31
0.0
  0
LINE
  5
22D
  8
0
  6
SLD-SOLID
 62
     7
 10
63.1228429521
 20
306.237931001
 30
0.0
 11
75.3714484418
 21
307.3095480083
 31
0.0
  0
LINE
  5
22E
  8
0
  6
SLD-SOLID
 62
     7
 10
76.2842935766
 20
325.6730834125
 30
0.0
 11
76.2842935766
 21
318.1894222377
 31
0.0
  0
ARC
  5
22F
  8
0
  6
SLD-SOLID
 62
     7
 10
75.2843235863
 20
325.6731183667
 30
0.0
 40
0.9999699908749549
 50
359.9979972095
 51
85.0016260864
  0
LINE
  5
230
  8
0
  6
SLD-SOLID
 62
     7
 10
76.2842935766
 20
318.1894222377
 30
0.0
 11
76.2842935766
 21
308.3057502387
 31
0.0
  0
ARC
  5
231
  8
0
  6
SLD-SOLID
 62
     7
 10
75.2842974375
 20
308.3057484548
 30
0.0
 40
1.000000000000009
 50
275.0
 51
0.0
  0
LINE
  5
232
  8
0
  6
SLD-SOLID
 62
     7
 10
669.4329572166
 20
329.4771263479
 30
0.0
 11
672.1410346473
 21
330.1154622911
 31
0.0
  0
LINE
  5
233
  8
0
  6
SLD-SOLID
 62
     7
 10
669.4329572166
 20
329.4771263479
 30
0.0
 11
668.9137262548
 21
330.7306716321
 31
0.0
  0
LINE
  5
234
  8
0
  6
SLD-SOLID
 62
     7
 10
671.28000085
 20
332.1941891788
 30
0.0
 11
668.9137262548
 21
330.7306716321
 31
0.0
  0
LINE
  5
235
  8
0
  6
SLD-SOLID
 62
     7
 10
673.3842981304
 20
332.6902190326
 30
0.0
 11
671.28000085
 21
332.1941891788
 31
0.0
  0
LINE
  5
236
  8
0
  6
SLD-SOLID
 62
     7
 10
672.1410346473
 20
330.1154622911
 30
0.0
 11
673.2995254243
 21
330.8319846271
 31
0.0
  0
POLYLINE
  5
237
  8
0
  6
SLD-SOLID
 62
     7
 66
     1
 10
0.0
 20
0.0
 30
0.0
  0
VERTEX
  5
71F
  8
0
  6
SLD-SOLID
 62
     7
 10
673.3842981304
 20
336.4483067869
 30
0.0
  0
VERTEX
  5
720
  8
0
  6
SLD-SOLID
 62
     7
 10
672.3178369249
 20
336.0065618633
 30
0.0
  0
VERTEX
  5
721
  8
0
  6
SLD-SOLID
 62
     7
 10
671.1633098567
 20
335.5283388971
 30
0.0
  0
VERTEX
  5
722
  8
0
  6
SLD-SOLID
 62
     7
 10
670.0393897737
 20
335.0627968191
 30
0.0
  0
VERTEX
  5
723
  8
0
  6
SLD-SOLID
 62
     7
 10
669.0459591592
 20
334.6513012527
 30
0.0
  0
VERTEX
  5
724
  8
0
  6
SLD-SOLID
 62
     7
 10
668.2712775911
 20
334.3304196475
 30
0.0
  0
VERTEX
  5
725
  8
0
  6
SLD-SOLID
 62
     7
 10
667.7841735328
 20
334.128657925
 30
0.0
  0
VERTEX
  5
726
  8
0
  6
SLD-SOLID
 62
     7
 10
667.6275474275
 20
334.0637782691
 30
0.0
  0
SEQEND
  5
727
  8
0
  6
SLD-SOLID
 62
     7
  0
POLYLINE
  5
238
  8
0
  6
SLD-SOLID
 62
     7
 66
     1
 10
0.0
 20
0.0
 30
0.0
  0
VERTEX
  5
728
  8
0
  6
SLD-SOLID
 62
     7
 10
673.3842981304
 20
335.7718089698
 30
0.0
  0
VERTEX
  5
729
  8
0
  6
SLD-SOLID
 62
     7
 10
672.2964835609
 20
335.3212276576
 30
0.0
  0
VERTEX
  5
72A
  8
0
  6
SLD-SOLID
 62
     7
 10
671.0386616434
 20
334.8002085565
 30
0.0
  0
VERTEX
  5
72B
  8
0
  6
SLD-SOLID
 62
     7
 10
669.833366319
 20
334.3009600519
 30
0.0
  0
VERTEX
  5
72C
  8
0
  6
SLD-SOLID
 62
     7
 10
668.7700045551
 20
333.8604966281
 30
0.0
  0
VERTEX
  5
72D
  8
0
  6
SLD-SOLID
 62
     7
 10
667.9274332965
 20
333.5114965318
 30
0.0
  0
VERTEX
  5
72E
  8
0
  6
SLD-SOLID
 62
     7
 10
667.3681480134
 20
333.2798281787
 30
0.0
  0
VERTEX
  5
72F
  8
0
  6
SLD-SOLID
 62
     7
 10
667.1336037362
 20
333.1826875089
 30
0.0
  0
VERTEX
  5
730
  8
0
  6
SLD-SOLID
 62
     7
 10
667.1276134694
 20
333.180199015
 30
0.0
  0
SEQEND
  5
731
  8
0
  6
SLD-SOLID
 62
     7
  0
POLYLINE
  5
239
  8
0
  6
SLD-SOLID
 62
     7
 66
     1
 10
0.0
 20
0.0
 30
0.0
  0
VERTEX
  5
732
  8
0
  6
SLD-SOLID
 62
     7
 10
673.3842981304
 20
335.0953111528
 30
0.0
  0
VERTEX
  5
733
  8
0
  6
SLD-SOLID
 62
     7
 10
672.7961940015
 20
334.8517069696
 30
0.0
  0
VERTEX
  5
734
  8
0
  6
SLD-SOLID
 62
     7
 10
671.6416669334
 20
334.3734840034
 30
0.0
  0
VERTEX
  5
735
  8
0
  6
SLD-SOLID
 62
     7
 10
670.5177468503
 20
333.9079419254
 30
0.0
  0
VERTEX
  5
736
  8
0
  6
SLD-SOLID
 62
     7
 10
669.5243162359
 20
333.496446359
 30
0.0
  0
VERTEX
  5
737
  8
0
  6
SLD-SOLID
 62
     7
 10
668.7496346677
 20
333.1755647539
 30
0.0
  0
VERTEX
  5
738
  8
0
  6
SLD-SOLID
 62
     7
 10
668.2625306095
 20
332.9738030313
 30
0.0
  0
VERTEX
  5
739
  8
0
  6
SLD-SOLID
 62
     7
 10
668.1059045041
 20
332.9089233755
 30
0.0
  0
SEQEND
  5
73A
  8
0
  6
SLD-SOLID
 62
     7
  0
POLYLINE
  5
23A
  8
0
  6
SLD-SOLID
 62
     7
 66
     1
 10
0.0
 20
0.0
 30
0.0
  0
VERTEX
  5
73B
  8
0
  6
SLD-SOLID
 62
     7
 10
673.3842981304
 20
334.4188133357
 30
0.0
  0
VERTEX
  5
73C
  8
0
  6
SLD-SOLID
 62
     7
 10
672.7748406375
 20
334.166372764
 30
0.0
  0
VERTEX
  5
73D
  8
0
  6
SLD-SOLID
 62
     7
 10
671.51701872
 20
333.645368564
 30
0.0
  0
VERTEX
  5
73E
  8
0
  6
SLD-SOLID
 62
     7
 10
670.3117233957
 20
333.1461200593
 30
0.0
  0
VERTEX
  5
73F
  8
0
  6
SLD-SOLID
 62
     7
 10
669.2483616317
 20
332.7056566356
 30
0.0
  0
VERTEX
  5
740
  8
0
  6
SLD-SOLID
 62
     7
 10
668.4057903732
 20
332.3566416381
 30
0.0
  0
VERTEX
  5
741
  8
0
  6
SLD-SOLID
 62
     7
 10
667.8464901889
 20
332.1249881862
 30
0.0
  0
VERTEX
  5
742
  8
0
  6
SLD-SOLID
 62
     7
 10
667.6119608129
 20
332.0278326152
 30
0.0
  0
VERTEX
  5
743
  8
0
  6
SLD-SOLID
 62
     7
 10
667.6059705461
 20
332.0253590225
 30
0.0
  0
SEQEND
  5
744
  8
0
  6
SLD-SOLID
 62
     7
  0
POLYLINE
  5
23B
  8
0
  6
SLD-SOLID
 62
     7
 66
     1
 10
0.0
 20
0.0
 30
0.0
  0
VERTEX
  5
745
  8
0
  6
SLD-SOLID
 62
     7
 10
673.3842981304
 20
333.7423155187
 30
0.0
  0
VERTEX
  5
746
  8
0
  6
SLD-SOLID
 62
     7
 10
673.274536177
 20
333.6968520759
 30
0.0
  0
VERTEX
  5
747
  8
0
  6
SLD-SOLID
 62
     7
 10
672.12002401
 20
333.2186440109
 30
0.0
  0
VERTEX
  5
748
  8
0
  6
SLD-SOLID
 62
     7
 10
670.996103927
 20
332.7531019329
 30
0.0
  0
VERTEX
  5
749
  8
0
  6
SLD-SOLID
 62
     7
 10
670.0026733125
 20
332.3416063665
 30
0.0
  0
VERTEX
  5
74A
  8
0
  6
SLD-SOLID
 62
     7
 10
669.2279768432
 20
332.0207098602
 30
0.0
  0
VERTEX
  5
74B
  8
0
  6
SLD-SOLID
 62
     7
 10
668.7408727849
 20
331.8189481376
 30
0.0
  0
VERTEX
  5
74C
  8
0
  6
SLD-SOLID
 62
     7
 10
668.5842466796
 20
331.7540684818
 30
0.0
  0
SEQEND
  5
74D
  8
0
  6
SLD-SOLID
 62
     7
  0
POLYLINE
  5
23C
  8
0
  6
SLD-SOLID
 62
     7
 66
     1
 10
0.0
 20
0.0
 30
0.0
  0
VERTEX
  5
74E
  8
0
  6
SLD-SOLID
 62
     7
 10
671.28000085
 20
332.1941891788
 30
0.0
  0
VERTEX
  5
74F
  8
0
  6
SLD-SOLID
 62
     7
 10
671.8657803977
 20
332.4368396877
 30
0.0
  0
VERTEX
  5
750
  8
0
  6
SLD-SOLID
 62
     7
 10
672.4658948625
 20
332.6854059576
 30
0.0
  0
VERTEX
  5
751
  8
0
  6
SLD-SOLID
 62
     7
 10
673.0700922454
 20
332.9356709598
 30
0.0
  0
VERTEX
  5
752
  8
0
  6
SLD-SOLID
 62
     7
 10
673.3842981304
 20
333.0658177017
 30
0.0
  0
SEQEND
  5
753
  8
0
  6
SLD-SOLID
 62
     7
  0
POLYLINE
  5
23D
  8
0
  6
SLD-SOLID
 62
     7
 66
     1
 10
0.0
 20
0.0
 30
0.0
  0
VERTEX
  5
754
  8
0
  6
SLD-SOLID
 62
     7
 10
668.1860876525
 20
330.9126595138
 30
0.0
  0
VERTEX
  5
755
  8
0
  6
SLD-SOLID
 62
     7
 10
668.3506113733
 20
330.9808025239
 30
0.0
  0
VERTEX
  5
756
  8
0
  6
SLD-SOLID
 62
     7
 10
668.5895961965
 20
331.0797909378
 30
0.0
  0
VERTEX
  5
757
  8
0
  6
SLD-SOLID
 62
     7
 10
668.8989890064
 20
331.2079558252
 30
0.0
  0
VERTEX
  5
758
  8
0
  6
SLD-SOLID
 62
     7
 10
669.2734849895
 20
331.363062012
 30
0.0
  0
VERTEX
  5
759
  8
0
  6
SLD-SOLID
 62
     7
 10
669.7066617454
 20
331.5425017951
 30
0.0
  0
VERTEX
  5
75A
  8
0
  6
SLD-SOLID
 62
     7
 10
670.1911282981
 20
331.7431757329
 30
0.0
  0
VERTEX
  5
75B
  8
0
  6
SLD-SOLID
 62
     7
 10
670.7185847009
 20
331.9616416572
 30
0.0
  0
VERTEX
  5
75C
  8
0
  6
SLD-SOLID
 62
     7
 10
671.28000085
 20
332.1941891788
 30
0.0
  0
SEQEND
  5
75D
  8
0
  6
SLD-SOLID
 62
     7
  0
POLYLINE
  5
23E
  8
0
  6
SLD-SOLID
 62
     7
 66
     1
 10
0.0
 20
0.0
 30
0.0
  0
VERTEX
  5
75E
  8
0
  6
SLD-SOLID
 62
     7
 10
668.0843276227
 20
330.8705041288
 30
0.0
  0
VERTEX
  5
75F
  8
0
  6
SLD-SOLID
 62
     7
 10
668.0988711561
 20
330.8765241979
 30
0.0
  0
VERTEX
  5
760
  8
0
  6
SLD-SOLID
 62
     7
 10
668.1860876525
 20
330.9126595138
 30
0.0
  0
SEQEND
  5
761
  8
0
  6
SLD-SOLID
 62
     7
  0
POLYLINE
  5
23F
  8
0
  6
SLD-SOLID
 62
     7
 66
     1
 10
0.0
 20
0.0
 30
0.0
  0
VERTEX
  5
762
  8
0
  6
SLD-SOLID
 62
     7
 10
673.3133984054
 20
330.6010762332
 30
0.0
  0
VERTEX
  5
763
  8
0
  6
SLD-SOLID
 62
     7
 10
672.726814195
 20
330.3580978988
 30
0.0
  0
VERTEX
  5
764
  8
0
  6
SLD-SOLID
 62
     7
 10
672.1410346473
 20
330.1154622911
 30
0.0
  0
SEQEND
  5
765
  8
0
  6
SLD-SOLID
 62
     7
  0
LINE
  5
240
  8
0
  6
SLD-SOLID
 62
     7
 10
669.047136351
 20
328.8339326261
 30
0.0
 11
669.4329572166
 21
329.4771263479
 31
0.0
  0
POLYLINE
  5
241
  8
0
  6
SLD-SOLID
 62
     7
 66
     1
 10
0.0
 20
0.0
 30
0.0
  0
VERTEX
  5
766
  8
0
  6
SLD-SOLID
 62
     7
 10
672.1410346473
 20
330.1154622911
 30
0.0
  0
VERTEX
  5
767
  8
0
  6
SLD-SOLID
 62
     7
 10
671.5796184982
 20
329.8829147695
 30
0.0
  0
VERTEX
  5
768
  8
0
  6
SLD-SOLID
 62
     7
 10
671.0521620954
 20
329.6644339441
 30
0.0
  0
VERTEX
  5
769
  8
0
  6
SLD-SOLID
 62
     7
 10
670.5676955427
 20
329.4637749074
 30
0.0
  0
VERTEX
  5
76A
  8
0
  6
SLD-SOLID
 62
     7
 10
670.1345187868
 20
329.2843351243
 30
0.0
  0
VERTEX
  5
76B
  8
0
  6
SLD-SOLID
 62
     7
 10
669.7600228036
 20
329.1292140363
 30
0.0
  0
VERTEX
  5
76C
  8
0
  6
SLD-SOLID
 62
     7
 10
669.4506448949
 20
329.0010640501
 30
0.0
  0
VERTEX
  5
76D
  8
0
  6
SLD-SOLID
 62
     7
 10
669.2116451705
 20
328.9020756362
 30
0.0
  0
VERTEX
  5
76E
  8
0
  6
SLD-SOLID
 62
     7
 10
669.047136351
 20
328.8339326261
 30
0.0
  0
SEQEND
  5
76F
  8
0
  6
SLD-SOLID
 62
     7
  0
LINE
  5
242
  8
0
  6
SLD-SOLID
 62
     7
 10
668.9137262548
 20
330.7306716321
 30
0.0
 11
668.1860876525
 21
330.9126595138
 31
0.0
  0
LINE
  5
243
  8
0
  6
SLD-SOLID
 62
     7
 10
668.3194977487
 20
329.0159056066
 30
0.0
 11
669.047136351
 21
328.8339326261
 31
0.0
  0
LINE
  5
244
  8
0
  6
SLD-SOLID
 62
     7
 10
668.3194977487
 20
329.0159056066
 30
0.0
 11
667.8002667869
 21
330.269465792
 31
0.0
  0
LINE
  5
245
  8
0
  6
SLD-SOLID
 62
     7
 10
668.1860876525
 20
330.9126595138
 30
0.0
 11
667.8002667869
 21
330.269465792
 31
0.0
  0
POLYLINE
  5
246
  8
0
  6
SLD-SOLID
 62
     7
 66
     1
 10
0.0
 20
0.0
 30
0.0
  0
VERTEX
  5
770
  8
0
  6
SLD-SOLID
 62
     7
 10
669.047136351
 20
328.8339326261
 30
0.0
  0
VERTEX
  5
771
  8
0
  6
SLD-SOLID
 62
     7
 10
668.9599198545
 20
328.7977973102
 30
0.0
  0
VERTEX
  5
772
  8
0
  6
SLD-SOLID
 62
     7
 10
668.94536142
 20
328.7917772411
 30
0.0
  0
SEQEND
  5
773
  8
0
  6
SLD-SOLID
 62
     7
  0
POLYLINE
  5
247
  8
0
  6
SLD-SOLID
 62
     7
 66
     1
 10
0.0
 20
0.0
 30
0.0
  0
VERTEX
  5
774
  8
0
  6
SLD-SOLID
 62
     7
 10
661.9658363307
 20
364.3256822704
 30
0.0
  0
VERTEX
  5
775
  8
0
  6
SLD-SOLID
 62
     7
 10
661.8173760618
 20
364.2641851781
 30
0.0
  0
VERTEX
  5
776
  8
0
  6
SLD-SOLID
 62
     7
 10
661.4876878704
 20
364.127630937
 30
0.0
  0
SEQEND
  5
777
  8
0
  6
SLD-SOLID
 62
     7
  0
LINE
  5
248
  8
0
  6
SLD-SOLID
 62
     7
 10
673.3842981304
 20
352.0458737491
 30
0.0
 11
671.9627422536
 21
355.4778346895
 31
0.0
  0
LINE
  5
249
  8
0
  6
SLD-SOLID
 62
     7
 10
672.734115764
 20
355.7973453878
 30
0.0
 11
671.9627422536
 21
355.4778346895
 31
0.0
  0
LINE
  5
24A
  8
0
  6
SLD-SOLID
 62
     7
 10
672.3514390434
 20
356.721232283
 30
0.0
 11
672.734115764
 21
355.7973453878
 31
0.0
  0
LINE
  5
24B
  8
0
  6
SLD-SOLID
 62
     7
 10
671.5800506318
 20
356.4017066835
 30
0.0
 11
672.3514390434
 21
356.721232283
 31
0.0
  0
LINE
  5
24C
  8
0
  6
SLD-SOLID
 62
     7
 10
671.5800506318
 20
356.4017066835
 30
0.0
 11
670.9721577609
 21
357.8692922471
 31
0.0
  0
LINE
  5
24D
  8
0
  6
SLD-SOLID
 62
     7
 10
671.0535181011
 20
357.9029837726
 30
0.0
 11
670.9721577609
 21
357.8692922471
 31
0.0
  0
POLYLINE
  5
24E
  8
0
  6
SLD-SOLID
 62
     7
 66
     1
 10
0.0
 20
0.0
 30
0.0
  0
VERTEX
  5
778
  8
0
  6
SLD-SOLID
 62
     7
 10
673.3842981304
 20
359.2962274431
 30
0.0
  0
VERTEX
  5
779
  8
0
  6
SLD-SOLID
 62
     7
 10
672.3216814245
 20
358.7634513257
 30
0.0
  0
VERTEX
  5
77A
  8
0
  6
SLD-SOLID
 62
     7
 10
671.0535181011
 20
357.9029837726
 30
0.0
  0
SEQEND
  5
77B
  8
0
  6
SLD-SOLID
 62
     7
  0
POLYLINE
  5
24F
  8
0
  6
SLD-SOLID
 62
     7
 66
     1
 10
0.0
 20
0.0
 30
0.0
  0
VERTEX
  5
77C
  8
0
  6
SLD-SOLID
 62
     7
 10
670.9721577609
 20
357.8692922471
 30
0.0
  0
VERTEX
  5
77D
  8
0
  6
SLD-SOLID
 62
     7
 10
670.9106606687
 20
358.0177823184
 30
0.0
  0
VERTEX
  5
77E
  8
0
  6
SLD-SOLID
 62
     7
 10
670.8146822894
 20
358.2494655727
 30
0.0
  0
SEQEND
  5
77F
  8
0
  6
SLD-SOLID
 62
     7
  0
POLYLINE
  5
250
  8
0
  6
SLD-SOLID
 62
     7
 66
     1
 10
0.0
 20
0.0
 30
0.0
  0
VERTEX
  5
780
  8
0
  6
SLD-SOLID
 62
     7
 10
670.8146822894
 20
358.2494655727
 30
0.0
  0
VERTEX
  5
781
  8
0
  6
SLD-SOLID
 62
     7
 10
670.8621126855
 20
358.2691053031
 30
0.0
  0
VERTEX
  5
782
  8
0
  6
SLD-SOLID
 62
     7
 10
671.0035694087
 20
358.3277115701
 30
0.0
  0
VERTEX
  5
783
  8
0
  6
SLD-SOLID
 62
     7
 10
671.236638471
 20
358.4242412923
 30
0.0
  0
VERTEX
  5
784
  8
0
  6
SLD-SOLID
 62
     7
 10
671.5573412622
 20
358.5570851444
 30
0.0
  0
VERTEX
  5
785
  8
0
  6
SLD-SOLID
 62
     7
 10
671.9601792539
 20
358.7239483474
 30
0.0
  0
VERTEX
  5
786
  8
0
  6
SLD-SOLID
 62
     7
 10
672.4382681096
 20
358.9219847797
 30
0.0
  0
VERTEX
  5
787
  8
0
  6
SLD-SOLID
 62
     7
 10
672.9834270919
 20
359.1477969764
 30
0.0
  0
VERTEX
  5
788
  8
0
  6
SLD-SOLID
 62
     7
 10
673.3842981304
 20
359.3138406156
 30
0.0
  0
SEQEND
  5
789
  8
0
  6
SLD-SOLID
 62
     7
  0
POLYLINE
  5
251
  8
0
  6
SLD-SOLID
 62
     7
 66
     1
 10
0.0
 20
0.0
 30
0.0
  0
VERTEX
  5
78A
  8
0
  6
SLD-SOLID
 62
     7
 10
671.2041688407
 20
360.5755815385
 30
0.0
  0
VERTEX
  5
78B
  8
0
  6
SLD-SOLID
 62
     7
 10
671.2144059385
 20
360.5798134683
 30
0.0
  0
VERTEX
  5
78C
  8
0
  6
SLD-SOLID
 62
     7
 10
671.4575481857
 20
360.6805304168
 30
0.0
  0
VERTEX
  5
78D
  8
0
  6
SLD-SOLID
 62
     7
 10
672.0073861326
 20
360.9082797645
 30
0.0
  0
VERTEX
  5
78E
  8
0
  6
SLD-SOLID
 62
     7
 10
672.8231054986
 20
361.2461635946
 30
0.0
  0
VERTEX
  5
78F
  8
0
  6
SLD-SOLID
 62
     7
 10
673.3842981304
 20
361.4786217092
 30
0.0
  0
SEQEND
  5
790
  8
0
  6
SLD-SOLID
 62
     7
  0
POLYLINE
  5
252
  8
0
  6
SLD-SOLID
 62
     7
 66
     1
 10
0.0
 20
0.0
 30
0.0
  0
VERTEX
  5
791
  8
0
  6
SLD-SOLID
 62
     7
 10
671.474773928
 20
361.2288633464
 30
0.0
  0
VERTEX
  5
792
  8
0
  6
SLD-SOLID
 62
     7
 10
671.5732109989
 20
361.2696329235
 30
0.0
  0
VERTEX
  5
793
  8
0
  6
SLD-SOLID
 62
     7
 10
672.0008147205
 20
361.4467630266
 30
0.0
  0
VERTEX
  5
794
  8
0
  6
SLD-SOLID
 62
     7
 10
672.7305692876
 20
361.7490330814
 30
0.0
  0
VERTEX
  5
795
  8
0
  6
SLD-SOLID
 62
     7
 10
673.3842981304
 20
362.0198169826
 30
0.0
  0
SEQEND
  5
796
  8
0
  6
SLD-SOLID
 62
     7
  0
LINE
  5
253
  8
0
  6
SLD-SOLID
 62
     7
 10
671.9627422536
 20
355.4778346895
 30
0.0
 11
671.5800506318
 21
356.4017066835
 31
0.0
  0
LINE
  5
254
  8
0
  6
SLD-SOLID
 62
     7
 10
665.2302337135
 20
335.3711614488
 30
0.0
 11
667.0105648483
 21
334.9736133693
 31
0.0
  0
POLYLINE
  5
255
  8
0
  6
SLD-SOLID
 62
     7
 66
     1
 10
0.0
 20
0.0
 30
0.0
  0
VERTEX
  5
797
  8
0
  6
SLD-SOLID
 62
     7
 10
665.1512575591
 20
335.3384384988
 30
0.0
  0
VERTEX
  5
798
  8
0
  6
SLD-SOLID
 62
     7
 10
665.3891843999
 20
334.764013636
 30
0.0
  0
VERTEX
  5
799
  8
0
  6
SLD-SOLID
 62
     7
 10
665.6599832023
 20
334.1102698921
 30
0.0
  0
VERTEX
  5
79A
  8
0
  6
SLD-SOLID
 62
     7
 10
665.6965357507
 20
334.0219954132
 30
0.0
  0
SEQEND
  5
79B
  8
0
  6
SLD-SOLID
 62
     7
  0
POLYLINE
  5
256
  8
0
  6
SLD-SOLID
 62
     7
 66
     1
 10
0.0
 20
0.0
 30
0.0
  0
VERTEX
  5
79C
  8
0
  6
SLD-SOLID
 62
     7
 10
670.6155431713
 20
337.6018354772
 30
0.0
  0
VERTEX
  5
79D
  8
0
  6
SLD-SOLID
 62
     7
 10
669.5054364646
 20
335.8534226297
 30
0.0
  0
VERTEX
  5
79E
  8
0
  6
SLD-SOLID
 62
     7
 10
668.5807002033
 20
335.1792493938
 30
0.0
  0
VERTEX
  5
79F
  8
0
  6
SLD-SOLID
 62
     7
 10
667.4655718053
 20
334.9215934156
 30
0.0
  0
VERTEX
  5
7A0
  8
0
  6
SLD-SOLID
 62
     7
 10
665.8282620157
 20
335.1675966857
 30
0.0
  0
VERTEX
  5
7A1
  8
0
  6
SLD-SOLID
 62
     7
 10
665.2302337135
 20
335.3711614488
 30
0.0
  0
SEQEND
  5
7A2
  8
0
  6
SLD-SOLID
 62
     7
  0
ARC
  5
257
  8
0
  6
SLD-SOLID
 62
     7
 10
672.6355838201
 20
341.4915262978
 30
0.0
 40
4.253502166125506
 50
244.0380486771
 51
280.1381972225
  0
LINE
  5
258
  8
0
  6
SLD-SOLID
 62
     7
 10
665.1512724603
 20
335.3383937953
 30
0.0
 11
661.5158659662
 21
344.1150436281
 31
0.0
  0
LINE
  5
259
  8
0
  6
SLD-SOLID
 62
     7
 10
670.6945491279
 20
337.6344839214
 30
0.0
 11
667.0591426338
 21
346.4111486553
 31
0.0
  0
LINE
  5
25A
  8
0
  6
SLD-SOLID
 62
     7
 10
670.6945491279
 20
337.6344839214
 30
0.0
 11
670.6155431713
 21
337.6018354772
 31
0.0
  0
LINE
  5
25B
  8
0
  6
SLD-SOLID
 62
     7
 10
665.2302337135
 20
335.3711614488
 30
0.0
 11
665.1512724603
 21
335.3383937953
 31
0.0
  0
LINE
  5
25C
  8
0
  6
SLD-SOLID
 62
     7
 10
673.3842981304
 20
346.8196192859
 30
0.0
 11
672.6024193014
 21
348.7072387813
 31
0.0
  0
LINE
  5
25D
  8
0
  6
SLD-SOLID
 62
     7
 10
670.7735103811
 20
337.667266476
 30
0.0
 11
670.6945491279
 21
337.6344839214
 31
0.0
  0
POLYLINE
  5
25E
  8
0
  6
SLD-SOLID
 62
     7
 66
     1
 10
0.0
 20
0.0
 30
0.0
  0
VERTEX
  5
7A3
  8
0
  6
SLD-SOLID
 62
     7
 10
666.195292517
 20
356.3360521673
 30
0.0
  0
VERTEX
  5
7A4
  8
0
  6
SLD-SOLID
 62
     7
 10
667.6224810327
 20
356.8066457389
 30
0.0
  0
VERTEX
  5
7A5
  8
0
  6
SLD-SOLID
 62
     7
 10
669.1287053073
 20
357.0935377954
 30
0.0
  0
SEQEND
  5
7A6
  8
0
  6
SLD-SOLID
 62
     7
  0
LINE
  5
25F
  8
0
  6
SLD-SOLID
 62
     7
 10
669.7322023357
 20
355.6365618585
 30
0.0
 11
669.1287053073
 21
357.0935377954
 31
0.0
  0
LINE
  5
260
  8
0
  6
SLD-SOLID
 62
     7
 10
669.7322023357
 20
355.6365618585
 30
0.0
 11
668.9606202091
 21
355.3175130962
 31
0.0
  0
LINE
  5
261
  8
0
  6
SLD-SOLID
 62
     7
 10
668.9606202091
 20
355.3175130962
 30
0.0
 11
669.3433118308
 21
354.3936411022
 31
0.0
  0
LINE
  5
262
  8
0
  6
SLD-SOLID
 62
     7
 10
669.3433118308
 20
354.3936411022
 30
0.0
 11
670.1148939575
 21
354.7126749633
 31
0.0
  0
LINE
  5
263
  8
0
  6
SLD-SOLID
 62
     7
 10
670.8802622999
 20
352.8649160741
 30
0.0
 11
670.1148939575
 21
354.7126749633
 31
0.0
  0
LINE
  5
264
  8
0
  6
SLD-SOLID
 62
     7
 10
670.8802622999
 20
352.8649160741
 30
0.0
 11
665.3369856323
 21
350.5688110469
 31
0.0
  0
LINE
  5
265
  8
0
  6
SLD-SOLID
 62
     7
 10
665.3369856323
 20
350.5688110469
 30
0.0
 11
664.5716172899
 21
352.4165699361
 31
0.0
  0
LINE
  5
266
  8
0
  6
SLD-SOLID
 62
     7
 10
664.5716172899
 20
352.4165699361
 30
0.0
 11
665.3427970851
 21
352.7365723728
 31
0.0
  0
LINE
  5
267
  8
0
  6
SLD-SOLID
 62
     7
 10
665.3427970851
 20
352.7365723728
 30
0.0
 11
664.9601054634
 21
353.6604443668
 31
0.0
  0
LINE
  5
268
  8
0
  6
SLD-SOLID
 62
     7
 10
664.9601054634
 20
353.6604443668
 30
0.0
 11
664.1889256681
 21
353.3404568313
 31
0.0
  0
LINE
  5
269
  8
0
  6
SLD-SOLID
 62
     7
 10
664.1889256681
 20
353.3404568313
 30
0.0
 11
663.5854286397
 21
354.7974327682
 31
0.0
  0
LINE
  5
26A
  8
0
  6
SLD-SOLID
 62
     7
 10
663.5854286397
 20
354.7974327682
 30
0.0
 11
666.195292517
 21
356.3360521673
 31
0.0
  0
LINE
  5
26B
  8
0
  6
SLD-SOLID
 62
     7
 10
671.837050959
 20
350.5549976705
 30
0.0
 11
671.6456306423
 21
351.0171571849
 31
0.0
  0
LINE
  5
26C
  8
0
  6
SLD-SOLID
 62
     7
 10
666.2937742914
 20
348.2589075445
 30
0.0
 11
666.1023539747
 21
348.7210521577
 31
0.0
  0
LINE
  5
26D
  8
0
  6
SLD-SOLID
 62
     7
 10
666.1023539747
 20
348.7210521577
 30
0.0
 11
671.6456306423
 21
351.0171571849
 31
0.0
  0
LINE
  5
26E
  8
0
  6
SLD-SOLID
 62
     7
 10
665.3369856323
 20
350.5688110469
 30
0.0
 11
659.7937089647
 21
348.2727209209
 31
0.0
  0
POLYLINE
  5
26F
  8
0
  6
SLD-SOLID
 62
     7
 66
     1
 10
0.0
 20
0.0
 30
0.0
  0
VERTEX
  5
7A7
  8
0
  6
SLD-SOLID
 62
     7
 10
666.1018026317
 20
348.7223783611
 30
0.0
  0
VERTEX
  5
7A8
  8
0
  6
SLD-SOLID
 62
     7
 10
664.7806805814
 20
348.1751481174
 30
0.0
  0
VERTEX
  5
7A9
  8
0
  6
SLD-SOLID
 62
     7
 10
663.5425729001
 20
347.6623097537
 30
0.0
  0
VERTEX
  5
7AA
  8
0
  6
SLD-SOLID
 62
     7
 10
662.4652785505
 20
347.2160795806
 30
0.0
  0
VERTEX
  5
7AB
  8
0
  6
SLD-SOLID
 62
     7
 10
661.6164637054
 20
346.8644866823
 30
0.0
  0
VERTEX
  5
7AC
  8
0
  6
SLD-SOLID
 62
     7
 10
661.0494894231
 20
346.6296443819
 30
0.0
  0
VERTEX
  5
7AD
  8
0
  6
SLD-SOLID
 62
     7
 10
660.7999694789
 20
346.5262899278
 30
0.0
  0
VERTEX
  5
7AE
  8
0
  6
SLD-SOLID
 62
     7
 10
660.7894939626
 20
346.5219387887
 30
0.0
  0
SEQEND
  5
7AF
  8
0
  6
SLD-SOLID
 62
     7
  0
POLYLINE
  5
270
  8
0
  6
SLD-SOLID
 62
     7
 66
     1
 10
0.0
 20
0.0
 30
0.0
  0
VERTEX
  5
7B0
  8
0
  6
SLD-SOLID
 62
     7
 10
671.4141113008
 20
350.9228030323
 30
0.0
  0
VERTEX
  5
7B1
  8
0
  6
SLD-SOLID
 62
     7
 10
671.4036208833
 20
350.9184667943
 30
0.0
  0
VERTEX
  5
7B2
  8
0
  6
SLD-SOLID
 62
     7
 10
671.1541009391
 20
350.8151123403
 30
0.0
  0
VERTEX
  5
7B3
  8
0
  6
SLD-SOLID
 62
     7
 10
670.5871266569
 20
350.5802551387
 30
0.0
  0
VERTEX
  5
7B4
  8
0
  6
SLD-SOLID
 62
     7
 10
669.7383267129
 20
350.2286771415
 30
0.0
  0
VERTEX
  5
7B5
  8
0
  6
SLD-SOLID
 62
     7
 10
668.6610174621
 20
349.7824469684
 30
0.0
  0
VERTEX
  5
7B6
  8
0
  6
SLD-SOLID
 62
     7
 10
667.4229097808
 20
349.2695937036
 30
0.0
  0
VERTEX
  5
7B7
  8
0
  6
SLD-SOLID
 62
     7
 10
666.1018026317
 20
348.7223783611
 30
0.0
  0
SEQEND
  5
7B8
  8
0
  6
SLD-SOLID
 62
     7
  0
LINE
  5
271
  8
0
  6
SLD-SOLID
 62
     7
 10
660.5590773071
 20
346.4249471305
 30
0.0
 11
666.1023539747
 21
348.7210521577
 31
0.0
  0
LINE
  5
272
  8
0
  6
SLD-SOLID
 62
     7
 10
660.7504976238
 20
345.9628025173
 30
0.0
 11
660.5590773071
 21
346.4249471305
 31
0.0
  0
LINE
  5
273
  8
0
  6
SLD-SOLID
 62
     7
 10
663.8000351633
 20
352.097536075
 30
0.0
 11
664.5716172899
 21
352.4165699361
 31
0.0
  0
POLYLINE
  5
274
  8
0
  6
SLD-SOLID
 62
     7
 66
     1
 10
0.0
 20
0.0
 30
0.0
  0
VERTEX
  5
7B9
  8
0
  6
SLD-SOLID
 62
     7
 10
665.3427970851
 20
352.7365723728
 30
0.0
  0
VERTEX
  5
7BA
  8
0
  6
SLD-SOLID
 62
     7
 10
665.1506466115
 20
352.6569852708
 30
0.0
  0
VERTEX
  5
7BB
  8
0
  6
SLD-SOLID
 62
     7
 10
664.9579000915
 20
352.5771448492
 30
0.0
  0
VERTEX
  5
7BC
  8
0
  6
SLD-SOLID
 62
     7
 10
664.7647661413
 20
352.4971405147
 30
0.0
  0
VERTEX
  5
7BD
  8
0
  6
SLD-SOLID
 62
     7
 10
664.5714086736
 20
352.4170616744
 30
0.0
  0
VERTEX
  5
7BE
  8
0
  6
SLD-SOLID
 62
     7
 10
664.3780661071
 20
352.336967933
 30
0.0
  0
VERTEX
  5
7BF
  8
0
  6
SLD-SOLID
 62
     7
 10
664.1849172557
 20
352.2569635986
 30
0.0
  0
VERTEX
  5
7C0
  8
0
  6
SLD-SOLID
 62
     7
 10
663.9921707357
 20
352.1771231769
 30
0.0
  0
VERTEX
  5
7C1
  8
0
  6
SLD-SOLID
 62
     7
 10
663.8000351633
 20
352.097536075
 30
0.0
  0
SEQEND
  5
7C2
  8
0
  6
SLD-SOLID
 62
     7
  0
POLYLINE
  5
275
  8
0
  6
SLD-SOLID
 62
     7
 66
     1
 10
0.0
 20
0.0
 30
0.0
  0
VERTEX
  5
7C3
  8
0
  6
SLD-SOLID
 62
     7
 10
660.6520158494
 20
354.0399471401
 30
0.0
  0
VERTEX
  5
7C4
  8
0
  6
SLD-SOLID
 62
     7
 10
662.0792043651
 20
354.5105556129
 30
0.0
  0
VERTEX
  5
7C5
  8
0
  6
SLD-SOLID
 62
     7
 10
663.5854286397
 20
354.7974327682
 30
0.0
  0
SEQEND
  5
7C6
  8
0
  6
SLD-SOLID
 62
     7
  0
LINE
  5
276
  8
0
  6
SLD-SOLID
 62
     7
 10
664.1889256681
 20
353.3404568313
 30
0.0
 11
663.4173435415
 21
353.0214229701
 31
0.0
  0
LINE
  5
277
  8
0
  6
SLD-SOLID
 62
     7
 10
663.4173435415
 20
353.0214229701
 30
0.0
 11
663.8000351633
 21
352.097536075
 31
0.0
  0
LINE
  5
278
  8
0
  6
SLD-SOLID
 62
     7
 10
659.7937089647
 20
348.2727209209
 30
0.0
 11
659.0283406223
 21
350.1204798101
 31
0.0
  0
LINE
  5
279
  8
0
  6
SLD-SOLID
 62
     7
 10
659.0283406223
 20
350.1204798101
 30
0.0
 11
659.7995204175
 21
350.4404673456
 31
0.0
  0
LINE
  5
27A
  8
0
  6
SLD-SOLID
 62
     7
 10
659.7995204175
 20
350.4404673456
 30
0.0
 11
659.4168287958
 21
351.3643542407
 31
0.0
  0
LINE
  5
27B
  8
0
  6
SLD-SOLID
 62
     7
 10
659.4168287958
 20
351.3643542407
 30
0.0
 11
658.6456490005
 21
351.0443518041
 31
0.0
  0
LINE
  5
27C
  8
0
  6
SLD-SOLID
 62
     7
 10
658.6456490005
 20
351.0443518041
 30
0.0
 11
658.0421519721
 21
352.5013426422
 31
0.0
  0
LINE
  5
27D
  8
0
  6
SLD-SOLID
 62
     7
 10
658.0421519721
 20
352.5013426422
 30
0.0
 11
660.6520158494
 21
354.0399471401
 31
0.0
  0
POLYLINE
  5
27E
  8
0
  6
SLD-SOLID
 62
     7
 66
     1
 10
0.0
 20
0.0
 30
0.0
  0
VERTEX
  5
7C7
  8
0
  6
SLD-SOLID
 62
     7
 10
666.195292517
 20
356.3360521673
 30
0.0
  0
VERTEX
  5
7C8
  8
0
  6
SLD-SOLID
 62
     7
 10
665.5449760402
 20
356.0666838764
 30
0.0
  0
VERTEX
  5
7C9
  8
0
  6
SLD-SOLID
 62
     7
 10
664.8583603347
 20
355.7822803138
 30
0.0
  0
VERTEX
  5
7CA
  8
0
  6
SLD-SOLID
 62
     7
 10
664.1471875156
 20
355.4876992582
 30
0.0
  0
VERTEX
  5
7CB
  8
0
  6
SLD-SOLID
 62
     7
 10
663.4236467327
 20
355.1880071042
 30
0.0
  0
VERTEX
  5
7CC
  8
0
  6
SLD-SOLID
 62
     7
 10
662.7001059497
 20
354.8883000492
 30
0.0
  0
VERTEX
  5
7CD
  8
0
  6
SLD-SOLID
 62
     7
 10
661.9889480318
 20
354.5937189935
 30
0.0
  0
VERTEX
  5
7CE
  8
0
  6
SLD-SOLID
 62
     7
 10
661.3023323263
 20
354.309315431
 30
0.0
  0
VERTEX
  5
7CF
  8
0
  6
SLD-SOLID
 62
     7
 10
660.6520158494
 20
354.0399471401
 30
0.0
  0
SEQEND
  5
7D0
  8
0
  6
SLD-SOLID
 62
     7
  0
POLYLINE
  5
27F
  8
0
  6
SLD-SOLID
 62
     7
 66
     1
 10
0.0
 20
0.0
 30
0.0
  0
VERTEX
  5
7D1
  8
0
  6
SLD-SOLID
 62
     7
 10
673.3842981304
 20
337.1247897027
 30
0.0
  0
VERTEX
  5
7D2
  8
0
  6
SLD-SOLID
 62
     7
 10
672.9752165521
 20
336.9553485988
 30
0.0
  0
VERTEX
  5
7D3
  8
0
  6
SLD-SOLID
 62
     7
 10
671.6154259885
 20
336.3920996068
 30
0.0
  0
VERTEX
  5
7D4
  8
0
  6
SLD-SOLID
 62
     7
 10
670.2338350261
 20
335.8198354124
 30
0.0
  0
VERTEX
  5
7D5
  8
0
  6
SLD-SOLID
 62
     7
 10
668.9172727312
 20
335.2744976161
 30
0.0
  0
VERTEX
  5
7D6
  8
0
  6
SLD-SOLID
 62
     7
 10
667.7484554494
 20
334.790358889
 30
0.0
  0
VERTEX
  5
7D7
  8
0
  6
SLD-SOLID
 62
     7
 10
666.8008310045
 20
334.3978325008
 30
0.0
  0
VERTEX
  5
7D8
  8
0
  6
SLD-SOLID
 62
     7
 10
666.1339295352
 20
334.1215947746
 30
0.0
  0
VERTEX
  5
7D9
  8
0
  6
SLD-SOLID
 62
     7
 10
665.7896680082
 20
333.978990662
 30
0.0
  0
VERTEX
  5
7DA
  8
0
  6
SLD-SOLID
 62
     7
 10
665.7461268152
 20
333.9609602569
 30
0.0
  0
SEQEND
  5
7DB
  8
0
  6
SLD-SOLID
 62
     7
  0
POLYLINE
  5
280
  8
0
  6
SLD-SOLID
 62
     7
 66
     1
 10
0.0
 20
0.0
 30
0.0
  0
VERTEX
  5
7DC
  8
0
  6
SLD-SOLID
 62
     7
 10
669.1287053073
 20
357.0935377954
 30
0.0
  0
VERTEX
  5
7DD
  8
0
  6
SLD-SOLID
 62
     7
 10
669.0608901227
 20
357.2572717546
 30
0.0
  0
VERTEX
  5
7DE
  8
0
  6
SLD-SOLID
 62
     7
 10
668.9669234003
 20
357.4840972303
 30
0.0
  0
SEQEND
  5
7DF
  8
0
  6
SLD-SOLID
 62
     7
  0
POLYLINE
  5
281
  8
0
  6
SLD-SOLID
 62
     7
 66
     1
 10
0.0
 20
0.0
 30
0.0
  0
VERTEX
  5
7E0
  8
0
  6
SLD-SOLID
 62
     7
 10
668.9669234003
 20
357.4840972303
 30
0.0
  0
VERTEX
  5
7E1
  8
0
  6
SLD-SOLID
 62
     7
 10
668.9195079053
 20
357.4644574998
 30
0.0
  0
VERTEX
  5
7E2
  8
0
  6
SLD-SOLID
 62
     7
 10
668.7780511821
 20
357.405866134
 30
0.0
  0
VERTEX
  5
7E3
  8
0
  6
SLD-SOLID
 62
     7
 10
668.5449672187
 20
357.3093215106
 30
0.0
  0
VERTEX
  5
7E4
  8
0
  6
SLD-SOLID
 62
     7
 10
668.2242644275
 20
357.1764776586
 30
0.0
  0
VERTEX
  5
7E5
  8
0
  6
SLD-SOLID
 62
     7
 10
667.8214264358
 20
357.0096144556
 30
0.0
  0
VERTEX
  5
7E6
  8
0
  6
SLD-SOLID
 62
     7
 10
667.3433375801
 20
356.8115929244
 30
0.0
  0
VERTEX
  5
7E7
  8
0
  6
SLD-SOLID
 62
     7
 10
666.7981785978
 20
356.5857807277
 30
0.0
  0
VERTEX
  5
7E8
  8
0
  6
SLD-SOLID
 62
     7
 10
666.195292517
 20
356.3360521673
 30
0.0
  0
SEQEND
  5
7E9
  8
0
  6
SLD-SOLID
 62
     7
  0
POLYLINE
  5
282
  8
0
  6
SLD-SOLID
 62
     7
 66
     1
 10
0.0
 20
0.0
 30
0.0
  0
VERTEX
  5
7EA
  8
0
  6
SLD-SOLID
 62
     7
 10
657.8803700651
 20
352.8919020771
 30
0.0
  0
VERTEX
  5
7EB
  8
0
  6
SLD-SOLID
 62
     7
 10
657.9743367875
 20
352.6650617002
 30
0.0
  0
VERTEX
  5
7EC
  8
0
  6
SLD-SOLID
 62
     7
 10
658.0421519721
 20
352.5013426422
 30
0.0
  0
SEQEND
  5
7ED
  8
0
  6
SLD-SOLID
 62
     7
  0
POLYLINE
  5
283
  8
0
  6
SLD-SOLID
 62
     7
 66
     1
 10
0.0
 20
0.0
 30
0.0
  0
VERTEX
  5
7EE
  8
0
  6
SLD-SOLID
 62
     7
 10
660.6520158494
 20
354.0399471401
 30
0.0
  0
VERTEX
  5
7EF
  8
0
  6
SLD-SOLID
 62
     7
 10
660.0491148675
 20
353.7902185796
 30
0.0
  0
VERTEX
  5
7F0
  8
0
  6
SLD-SOLID
 62
     7
 10
659.5039558853
 20
353.5644063829
 30
0.0
  0
VERTEX
  5
7F1
  8
0
  6
SLD-SOLID
 62
     7
 10
659.0258670295
 20
353.3663848518
 30
0.0
  0
VERTEX
  5
7F2
  8
0
  6
SLD-SOLID
 62
     7
 10
658.6230290378
 20
353.1995216487
 30
0.0
  0
VERTEX
  5
7F3
  8
0
  6
SLD-SOLID
 62
     7
 10
658.3023262466
 20
353.0666777967
 30
0.0
  0
VERTEX
  5
7F4
  8
0
  6
SLD-SOLID
 62
     7
 10
658.0692571844
 20
352.9701331733
 30
0.0
  0
VERTEX
  5
7F5
  8
0
  6
SLD-SOLID
 62
     7
 10
657.9278004611
 20
352.9115418075
 30
0.0
  0
VERTEX
  5
7F6
  8
0
  6
SLD-SOLID
 62
     7
 10
657.8803700651
 20
352.8919020771
 30
0.0
  0
SEQEND
  5
7F7
  8
0
  6
SLD-SOLID
 62
     7
  0
POLYLINE
  5
284
  8
0
  6
SLD-SOLID
 62
     7
 66
     1
 10
0.0
 20
0.0
 30
0.0
  0
VERTEX
  5
7F8
  8
0
  6
SLD-SOLID
 62
     7
 10
670.1146853412
 20
354.7131518005
 30
0.0
  0
VERTEX
  5
7F9
  8
0
  6
SLD-SOLID
 62
     7
 10
670.0374526227
 20
354.6811590074
 30
0.0
  0
VERTEX
  5
7FA
  8
0
  6
SLD-SOLID
 62
     7
 10
669.9545425619
 20
354.646826732
 30
0.0
  0
VERTEX
  5
7FB
  8
0
  6
SLD-SOLID
 62
     7
 10
669.8660594667
 20
354.6101698755
 30
0.0
  0
VERTEX
  5
7FC
  8
0
  6
SLD-SOLID
 62
     7
 10
669.772077843
 20
354.5712480424
 30
0.0
  0
VERTEX
  5
7FD
  8
0
  6
SLD-SOLID
 62
     7
 10
669.6727169002
 20
354.5300761341
 30
0.0
  0
VERTEX
  5
7FE
  8
0
  6
SLD-SOLID
 62
     7
 10
669.568051144
 20
354.4867286561
 30
0.0
  0
VERTEX
  5
7FF
  8
0
  6
SLD-SOLID
 62
     7
 10
669.4582146848
 20
354.441235411
 30
0.0
  0
VERTEX
  5
800
  8
0
  6
SLD-SOLID
 62
     7
 10
669.3433118308
 20
354.3936411022
 30
0.0
  0
SEQEND
  5
801
  8
0
  6
SLD-SOLID
 62
     7
  0
LINE
  5
285
  8
0
  6
SLD-SOLID
 62
     7
 10
670.113090917
 20
354.7170261024
 30
0.0
 11
669.7322023357
 21
355.6365618585
 31
0.0
  0
POLYLINE
  5
286
  8
0
  6
SLD-SOLID
 62
     7
 66
     1
 10
0.0
 20
0.0
 30
0.0
  0
VERTEX
  5
802
  8
0
  6
SLD-SOLID
 62
     7
 10
659.7995204175
 20
350.4404673456
 30
0.0
  0
VERTEX
  5
803
  8
0
  6
SLD-SOLID
 62
     7
 10
659.6846175636
 20
350.3928730367
 30
0.0
  0
VERTEX
  5
804
  8
0
  6
SLD-SOLID
 62
     7
 10
659.5747662033
 20
350.3473797916
 30
0.0
  0
VERTEX
  5
805
  8
0
  6
SLD-SOLID
 62
     7
 10
659.4701153482
 20
350.3040323137
 30
0.0
  0
VERTEX
  5
806
  8
0
  6
SLD-SOLID
 62
     7
 10
659.3707395042
 20
350.2628604053
 30
0.0
  0
VERTEX
  5
807
  8
0
  6
SLD-SOLID
 62
     7
 10
659.2767727817
 20
350.2239385723
 30
0.0
  0
VERTEX
  5
808
  8
0
  6
SLD-SOLID
 62
     7
 10
659.1882747854
 20
350.1872817157
 30
0.0
  0
VERTEX
  5
809
  8
0
  6
SLD-SOLID
 62
     7
 10
659.1053796256
 20
350.1529494403
 30
0.0
  0
VERTEX
  5
80A
  8
0
  6
SLD-SOLID
 62
     7
 10
659.028132006
 20
350.1209566472
 30
0.0
  0
SEQEND
  5
80B
  8
0
  6
SLD-SOLID
 62
     7
  0
LINE
  5
287
  8
0
  6
SLD-SOLID
 62
     7
 10
658.6456490005
 20
351.0443518041
 30
0.0
 11
659.0265375818
 21
350.1248309492
 31
0.0
  0
LINE
  5
288
  8
0
  6
SLD-SOLID
 62
     7
 10
662.4275488103
 20
327.5418380378
 30
0.0
 11
656.8172169174
 21
341.0864124177
 31
0.0
  0
ARC
  5
289
  8
0
  6
SLD-SOLID
 62
     7
 10
659.5888502259
 20
342.2344558906
 30
0.0
 40
3.000000000000078
 50
112.5
 51
202.5
  0
LINE
  5
28A
  8
0
  6
SLD-SOLID
 62
     7
 10
658.4408027376
 20
345.006088364
 30
0.0
 11
673.3842981304
 21
351.1958966135
 31
0.0
  0
LINE
  5
28B
  8
0
  6
SLD-SOLID
 62
     7
 10
673.3842981304
 20
349.0311155199
 30
0.0
 11
658.7442201818
 21
342.966998565
 31
0.0
  0
ARC
  5
28C
  8
0
  6
SLD-SOLID
 62
     7
 10
658.9355687435
 20
342.5050539407
 30
0.0
 40
0.4999999999999578
 50
112.5
 51
202.5
  0
LINE
  5
28D
  8
0
  6
SLD-SOLID
 62
     7
 10
658.4736299957
 20
342.3137167572
 30
0.0
 11
664.5166320051
 21
327.724615681
 31
0.0
  0
POLYLINE
  5
28E
  8
0
  6
SLD-SOLID
 62
     7
 66
     1
 10
0.0
 20
0.0
 30
0.0
  0
VERTEX
  5
80C
  8
0
  6
SLD-SOLID
 62
     7
 10
661.0732120717
 20
364.787767279
 30
0.0
  0
VERTEX
  5
80D
  8
0
  6
SLD-SOLID
 62
     7
 10
661.6424364293
 20
363.8003716348
 30
0.0
  0
VERTEX
  5
80E
  8
0
  6
SLD-SOLID
 62
     7
 10
662.5070316041
 20
362.8893444417
 30
0.0
  0
VERTEX
  5
80F
  8
0
  6
SLD-SOLID
 62
     7
 10
663.2261169399
 20
362.3480150579
 30
0.0
  0
VERTEX
  5
810
  8
0
  6
SLD-SOLID
 62
     7
 10
663.6948031629
 20
362.0392033933
 30
0.0
  0
VERTEX
  5
811
  8
0
  6
SLD-SOLID
 62
     7
 10
663.9153552497
 20
361.8388572811
 30
0.0
  0
VERTEX
  5
812
  8
0
  6
SLD-SOLID
 62
     7
 10
663.8482851232
 20
361.6902629016
 30
0.0
  0
VERTEX
  5
813
  8
0
  6
SLD-SOLID
 62
     7
 10
663.5864568199
 20
361.5491042016
 30
0.0
  0
SEQEND
  5
814
  8
0
  6
SLD-SOLID
 62
     7
  0
POLYLINE
  5
28F
  8
0
  6
SLD-SOLID
 62
     7
 66
     1
 10
0.0
 20
0.0
 30
0.0
  0
VERTEX
  5
815
  8
0
  6
SLD-SOLID
 62
     7
 10
654.2626661504
 20
373.9101091503
 30
0.0
  0
VERTEX
  5
816
  8
0
  6
SLD-SOLID
 62
     7
 10
654.2682987893
 20
373.9124486326
 30
0.0
  0
VERTEX
  5
817
  8
0
  6
SLD-SOLID
 62
     7
 10
654.3639791454
 20
373.9520708202
 30
0.0
  0
VERTEX
  5
818
  8
0
  6
SLD-SOLID
 62
     7
 10
654.7873807395
 20
374.1274574874
 30
0.0
  0
VERTEX
  5
819
  8
0
  6
SLD-SOLID
 62
     7
 10
655.4627907718
 20
374.4072118877
 30
0.0
  0
VERTEX
  5
81A
  8
0
  6
SLD-SOLID
 62
     7
 10
656.2873763288
 20
374.7487763046
 30
0.0
  0
VERTEX
  5
81B
  8
0
  6
SLD-SOLID
 62
     7
 10
657.1356249298
 20
375.1001307844
 30
0.0
  0
VERTEX
  5
81C
  8
0
  6
SLD-SOLID
 62
     7
 10
657.5278085912
 20
375.2625683425
 30
0.0
  0
VERTEX
  5
81D
  8
0
  6
SLD-SOLID
 62
     7
 10
657.8783733095
 20
375.4077801584
 30
0.0
  0
VERTEX
  5
81E
  8
0
  6
SLD-SOLID
 62
     7
 10
658.1738335336
 20
375.5301633953
 30
0.0
  0
VERTEX
  5
81F
  8
0
  6
SLD-SOLID
 62
     7
 10
658.4025514568
 20
375.6249049781
 30
0.0
  0
VERTEX
  5
820
  8
0
  6
SLD-SOLID
 62
     7
 10
658.5563910449
 20
375.6886223434
 30
0.0
  0
VERTEX
  5
821
  8
0
  6
SLD-SOLID
 62
     7
 10
658.6283785547
 20
375.7184395669
 30
0.0
  0
VERTEX
  5
822
  8
0
  6
SLD-SOLID
 62
     7
 10
658.6231035436
 20
375.7162639974
 30
0.0
  0
SEQEND
  5
823
  8
0
  6
SLD-SOLID
 62
     7
  0
POLYLINE
  5
290
  8
0
  6
SLD-SOLID
 62
     7
 66
     1
 10
0.0
 20
0.0
 30
0.0
  0
VERTEX
  5
824
  8
0
  6
SLD-SOLID
 62
     7
 10
660.2837634529
 20
370.6487814067
 30
0.0
  0
VERTEX
  5
825
  8
0
  6
SLD-SOLID
 62
     7
 10
660.3428763593
 20
370.4794595121
 30
0.0
  0
VERTEX
  5
826
  8
0
  6
SLD-SOLID
 62
     7
 10
660.3691471065
 20
369.8357144474
 30
0.0
  0
VERTEX
  5
827
  8
0
  6
SLD-SOLID
 62
     7
 10
660.3467953647
 20
368.4869358419
 30
0.0
  0
VERTEX
  5
828
  8
0
  6
SLD-SOLID
 62
     7
 10
660.5729651893
 20
366.3010398029
 30
0.0
  0
VERTEX
  5
829
  8
0
  6
SLD-SOLID
 62
     7
 10
661.0732120717
 20
364.787767279
 30
0.0
  0
SEQEND
  5
82A
  8
0
  6
SLD-SOLID
 62
     7
  0
LINE
  5
291
  8
0
  6
SLD-SOLID
 62
     7
 10
656.3618523324
 20
375.3326336025
 30
0.0
 11
655.2033168519
 21
374.8527417062
 31
0.0
  0
LINE
  5
292
  8
0
  6
SLD-SOLID
 62
     7
 10
658.9055401529
 20
376.2891987441
 30
0.0
 11
657.6455128635
 21
375.1857379554
 31
0.0
  0
LINE
  5
293
  8
0
  6
SLD-SOLID
 62
     7
 10
654.304136082
 20
373.8016883014
 30
0.0
 11
654.4927251781
 21
373.6692616819
 31
0.0
  0
LINE
  5
294
  8
0
  6
SLD-SOLID
 62
     7
 10
663.1866884674
 20
375.6580898641
 30
0.0
 11
662.0762539352
 21
376.2891987441
 31
0.0
  0
LINE
  5
295
  8
0
  6
SLD-SOLID
 62
     7
 10
663.1866884674
 20
375.6580898641
 30
0.0
 11
663.198862716
 21
375.6490597604
 31
0.0
  0
LINE
  5
296
  8
0
  6
SLD-SOLID
 62
     7
 10
663.198862716
 20
375.6490597604
 30
0.0
 11
663.1562155927
 21
375.5987385391
 31
0.0
  0
LINE
  5
297
  8
0
  6
SLD-SOLID
 62
     7
 10
663.1562155927
 20
375.5987385391
 30
0.0
 11
663.0595964635
 21
375.5913624643
 31
0.0
  0
POLYLINE
  5
298
  8
0
  6
SLD-SOLID
 62
     7
 66
     1
 10
0.0
 20
0.0
 30
0.0
  0
VERTEX
  5
82B
  8
0
  6
SLD-SOLID
 62
     7
 10
663.0595964635
 20
375.5913624643
 30
0.0
  0
VERTEX
  5
82C
  8
0
  6
SLD-SOLID
 62
     7
 10
663.0517435516
 20
375.5981424926
 30
0.0
  0
VERTEX
  5
82D
  8
0
  6
SLD-SOLID
 62
     7
 10
663.0483758892
 20
375.6008098005
 30
0.0
  0
SEQEND
  5
82E
  8
0
  6
SLD-SOLID
 62
     7
  0
LINE
  5
299
  8
0
  6
SLD-SOLID
 62
     7
 10
663.0483758892
 20
375.6008098005
 30
0.0
 11
661.8084502662
 21
376.2891987441
 31
0.0
  0
ARC
  5
29A
  8
0
  6
SLD-SOLID
 62
     7
 10
653.0275326505
 20
373.3150534461
 30
0.0
 40
1.343427493016195
 50
24.6603667563
 51
80.1522609908
  0
ARC
  5
29B
  8
0
  6
SLD-SOLID
 62
     7
 10
657.6258513736
 20
368.7773263573
 30
0.0
 40
6.037114206769398
 50
93.8041208586
 51
106.2176732255
  0
POLYLINE
  5
29C
  8
0
  6
SLD-SOLID
 62
     7
 66
     1
 10
0.0
 20
0.0
 30
0.0
  0
VERTEX
  5
82F
  8
0
  6
SLD-SOLID
 62
     7
 10
656.3618523324
 20
375.3326336025
 30
0.0
  0
VERTEX
  5
830
  8
0
  6
SLD-SOLID
 62
     7
 10
656.3169998372
 20
375.3218004583
 30
0.0
  0
VERTEX
  5
831
  8
0
  6
SLD-SOLID
 62
     7
 10
656.288598224
 20
375.3313521026
 30
0.0
  0
VERTEX
  5
832
  8
0
  6
SLD-SOLID
 62
     7
 10
656.2681985343
 20
375.3791401266
 30
0.0
  0
VERTEX
  5
833
  8
0
  6
SLD-SOLID
 62
     7
 10
656.3193393196
 20
375.6284365533
 30
0.0
  0
VERTEX
  5
834
  8
0
  6
SLD-SOLID
 62
     7
 10
656.8702352489
 20
376.3998547672
 30
0.0
  0
SEQEND
  5
835
  8
0
  6
SLD-SOLID
 62
     7
  0
LINE
  5
29D
  8
0
  6
SLD-SOLID
 62
     7
 10
655.9394491161
 20
374.574373114
 30
0.0
 11
655.0575834955
 21
374.2091009496
 31
0.0
  0
POLYLINE
  5
29E
  8
0
  6
SLD-SOLID
 62
     7
 66
     1
 10
0.0
 20
0.0
 30
0.0
  0
VERTEX
  5
836
  8
0
  6
SLD-SOLID
 62
     7
 10
656.7301643337
 20
376.2891987441
 30
0.0
  0
VERTEX
  5
837
  8
0
  6
SLD-SOLID
 62
     7
 10
656.103898331
 20
375.7718155263
 30
0.0
  0
VERTEX
  5
838
  8
0
  6
SLD-SOLID
 62
     7
 10
655.8389854873
 20
375.486875522
 30
0.0
  0
VERTEX
  5
839
  8
0
  6
SLD-SOLID
 62
     7
 10
655.6514692748
 20
375.2780804513
 30
0.0
  0
VERTEX
  5
83A
  8
0
  6
SLD-SOLID
 62
     7
 10
655.5166435684
 20
375.1288155197
 30
0.0
  0
VERTEX
  5
83B
  8
0
  6
SLD-SOLID
 62
     7
 10
655.3709698165
 20
374.9775538324
 30
0.0
  0
VERTEX
  5
83C
  8
0
  6
SLD-SOLID
 62
     7
 10
655.3034228528
 20
374.9169359086
 30
0.0
  0
VERTEX
  5
83D
  8
0
  6
SLD-SOLID
 62
     7
 10
655.2456659521
 20
374.8748550294
 30
0.0
  0
VERTEX
  5
83E
  8
0
  6
SLD-SOLID
 62
     7
 10
655.2033168519
 20
374.8527417062
 30
0.0
  0
SEQEND
  5
83F
  8
0
  6
SLD-SOLID
 62
     7
  0
ARC
  5
29F
  8
0
  6
SLD-SOLID
 62
     7
 10
677.5349128905
 20
363.7569283242
 30
0.0
 40
18.38497025955536
 50
137.0266231173
 51
139.3187393712
  0
LINE
  5
2A0
  8
0
  6
SLD-SOLID
 62
     7
 10
653.2572997058
 20
374.6386865257
 30
0.0
 11
652.9869628395
 21
374.8392561553
 31
0.0
  0
LINE
  5
2A1
  8
0
  6
SLD-SOLID
 62
     7
 10
663.8021660293
 20
376.2401292203
 30
0.0
 11
663.9206153596
 21
376.2891987441
 31
0.0
  0
POLYLINE
  5
2A2
  8
0
  6
SLD-SOLID
 62
     7
 66
     1
 10
0.0
 20
0.0
 30
0.0
  0
VERTEX
  5
840
  8
0
  6
SLD-SOLID
 62
     7
 10
663.8021660293
 20
376.2401292203
 30
0.0
  0
VERTEX
  5
841
  8
0
  6
SLD-SOLID
 62
     7
 10
663.4370875801
 20
375.8716533063
 30
0.0
  0
VERTEX
  5
842
  8
0
  6
SLD-SOLID
 62
     7
 10
663.198862716
 20
375.6490597604
 30
0.0
  0
SEQEND
  5
843
  8
0
  6
SLD-SOLID
 62
     7
  0
LINE
  5
2A3
  8
0
  6
SLD-SOLID
 62
     7
 10
663.1562155927
 20
375.5987385391
 30
0.0
 11
663.5927153076
 21
375.7411787389
 31
0.0
  0
LINE
  5
2A4
  8
0
  6
SLD-SOLID
 62
     7
 10
658.8064772333
 20
376.1508712648
 30
0.0
 11
662.0816481555
 21
375.5274513839
 31
0.0
  0
POLYLINE
  5
2A5
  8
0
  6
SLD-SOLID
 62
     7
 66
     1
 10
0.0
 20
0.0
 30
0.0
  0
VERTEX
  5
844
  8
0
  6
SLD-SOLID
 62
     7
 10
663.0595964635
 20
375.5913624643
 30
0.0
  0
VERTEX
  5
845
  8
0
  6
SLD-SOLID
 62
     7
 10
662.5100118364
 20
375.5655834554
 30
0.0
  0
VERTEX
  5
846
  8
0
  6
SLD-SOLID
 62
     7
 10
662.0816332544
 20
375.5274662851
 30
0.0
  0
SEQEND
  5
847
  8
0
  6
SLD-SOLID
 62
     7
  0
ARC
  5
2A6
  8
0
  6
SLD-SOLID
 62
     7
 10
656.4664922825
 20
375.4179992684
 30
0.0
 40
3.598140879687054
 50
178.5170107809
 51
187.4179190824
  0
POLYLINE
  5
2A7
  8
0
  6
SLD-SOLID
 62
     7
 66
     1
 10
0.0
 20
0.0
 30
0.0
  0
VERTEX
  5
848
  8
0
  6
SLD-SOLID
 62
     7
 10
652.9382360423
 20
375.8620271562
 30
0.0
  0
VERTEX
  5
849
  8
0
  6
SLD-SOLID
 62
     7
 10
652.9382211412
 20
375.8619824527
 30
0.0
  0
VERTEX
  5
84A
  8
0
  6
SLD-SOLID
 62
     7
 10
652.8695565904
 20
375.5111793159
 30
0.0
  0
VERTEX
  5
84B
  8
0
  6
SLD-SOLID
 62
     7
 10
652.8695565904
 20
375.5111197113
 30
0.0
  0
SEQEND
  5
84C
  8
0
  6
SLD-SOLID
 62
     7
  0
POLYLINE
  5
2A8
  8
0
  6
SLD-SOLID
 62
     7
 66
     1
 10
0.0
 20
0.0
 30
0.0
  0
VERTEX
  5
84D
  8
0
  6
SLD-SOLID
 62
     7
 10
653.0853403057
 20
376.1983612655
 30
0.0
  0
VERTEX
  5
84E
  8
0
  6
SLD-SOLID
 62
     7
 10
653.0601722444
 20
376.1624643682
 30
0.0
  0
VERTEX
  5
84F
  8
0
  6
SLD-SOLID
 62
     7
 10
652.9382509435
 20
375.8620867609
 30
0.0
  0
VERTEX
  5
850
  8
0
  6
SLD-SOLID
 62
     7
 10
652.9382360423
 20
375.8620271562
 30
0.0
  0
VERTEX
  5
851
  8
0
  6
SLD-SOLID
 62
     7
 10
652.9382360423
 20
375.8620271562
 30
0.0
  0
SEQEND
  5
852
  8
0
  6
SLD-SOLID
 62
     7
  0
LINE
  5
2A9
  8
0
  6
SLD-SOLID
 62
     7
 10
652.9869628395
 20
374.8392561553
 30
0.0
 11
652.8984648431
 21
374.9534586547
 31
0.0
  0
LINE
  5
2AA
  8
0
  6
SLD-SOLID
 62
     7
 10
454.1842979635
 20
374.9394217609
 30
0.0
 11
454.1842979635
 21
376.2891987441
 31
0.0
  0
POLYLINE
  5
2AB
  8
0
  6
SLD-SOLID
 62
     7
 66
     1
 10
0.0
 20
0.0
 30
0.0
  0
VERTEX
  5
853
  8
0
  6
SLD-SOLID
 62
     7
 10
452.1842976356
 20
374.6894100784
 30
0.0
  0
VERTEX
  5
854
  8
0
  6
SLD-SOLID
 62
     7
 10
453.5571900452
 20
374.8117039083
 30
0.0
  0
VERTEX
  5
855
  8
0
  6
SLD-SOLID
 62
     7
 10
454.1842979635
 20
374.9394217609
 30
0.0
  0
SEQEND
  5
856
  8
0
  6
SLD-SOLID
 62
     7
  0
LINE
  5
2AC
  8
0
  6
SLD-SOLID
 62
     7
 10
450.1842973078
 20
374.9394217609
 30
0.0
 11
452.1842976356
 21
374.6894100784
 31
0.0
  0
LINE
  5
2AD
  8
0
  6
SLD-SOLID
 62
     7
 10
450.1842973078
 20
374.9394217609
 30
0.0
 11
450.1842973078
 21
376.2891987441
 31
0.0
  0
POLYLINE
  5
2AE
  8
0
  6
SLD-SOLID
 62
     7
 66
     1
 10
0.0
 20
0.0
 30
0.0
  0
VERTEX
  5
857
  8
0
  6
SLD-SOLID
 62
     7
 10
448.18429698
 20
374.6894100784
 30
0.0
  0
VERTEX
  5
858
  8
0
  6
SLD-SOLID
 62
     7
 10
449.5571893896
 20
374.8117039083
 30
0.0
  0
VERTEX
  5
859
  8
0
  6
SLD-SOLID
 62
     7
 10
450.1842973078
 20
374.9394217609
 30
0.0
  0
SEQEND
  5
85A
  8
0
  6
SLD-SOLID
 62
     7
  0
LINE
  5
2AF
  8
0
  6
SLD-SOLID
 62
     7
 10
446.1842966522
 20
374.9394217609
 30
0.0
 11
448.18429698
 21
374.6894100784
 31
0.0
  0
LINE
  5
2B0
  8
0
  6
SLD-SOLID
 62
     7
 10
446.1842966522
 20
374.9394217609
 30
0.0
 11
446.1842966522
 21
376.2891987441
 31
0.0
  0
LINE
  5
2B1
  8
0
  6
SLD-SOLID
 62
     7
 10
448.18429698
 20
374.6894100784
 30
0.0
 11
452.1842976356
 21
374.6894100784
 31
0.0
  0
POLYLINE
  5
2B2
  8
0
  6
SLD-SOLID
 62
     7
 66
     1
 10
0.0
 20
0.0
 30
0.0
  0
VERTEX
  5
85B
  8
0
  6
SLD-SOLID
 62
     7
 10
278.1842989171
 20
374.6894100784
 30
0.0
  0
VERTEX
  5
85C
  8
0
  6
SLD-SOLID
 62
     7
 10
279.5571876014
 20
374.8117039083
 30
0.0
  0
VERTEX
  5
85D
  8
0
  6
SLD-SOLID
 62
     7
 10
280.1843029703
 20
374.9394217609
 30
0.0
  0
SEQEND
  5
85E
  8
0
  6
SLD-SOLID
 62
     7
  0
LINE
  5
2B3
  8
0
  6
SLD-SOLID
 62
     7
 10
280.1843029703
 20
374.9394217609
 30
0.0
 11
282.1842921222
 21
374.6894100784
 31
0.0
  0
LINE
  5
2B4
  8
0
  6
SLD-SOLID
 62
     7
 10
278.1842989171
 20
374.6894100784
 30
0.0
 11
282.1842921222
 21
374.6894100784
 31
0.0
  0
LINE
  5
2B5
  8
0
  6
SLD-SOLID
 62
     7
 10
284.1842961753
 20
374.9394217609
 30
0.0
 11
284.1842961753
 21
376.2891987441
 31
0.0
  0
POLYLINE
  5
2B6
  8
0
  6
SLD-SOLID
 62
     7
 66
     1
 10
0.0
 20
0.0
 30
0.0
  0
VERTEX
  5
85F
  8
0
  6
SLD-SOLID
 62
     7
 10
282.1842921222
 20
374.6894100784
 30
0.0
  0
VERTEX
  5
860
  8
0
  6
SLD-SOLID
 62
     7
 10
283.5571957076
 20
374.8117039083
 30
0.0
  0
VERTEX
  5
861
  8
0
  6
SLD-SOLID
 62
     7
 10
284.1842961753
 20
374.9394217609
 30
0.0
  0
SEQEND
  5
862
  8
0
  6
SLD-SOLID
 62
     7
  0
LINE
  5
2B7
  8
0
  6
SLD-SOLID
 62
     7
 10
280.1843029703
 20
374.9394217609
 30
0.0
 11
280.1843029703
 21
376.2891987441
 31
0.0
  0
LINE
  5
2B8
  8
0
  6
SLD-SOLID
 62
     7
 10
276.184294864
 20
374.9394217609
 30
0.0
 11
278.1842989171
 21
374.6894100784
 31
0.0
  0
LINE
  5
2B9
  8
0
  6
SLD-SOLID
 62
     7
 10
276.184294864
 20
374.9394217609
 30
0.0
 11
276.184294864
 21
376.2891987441
 31
0.0
  0
POLYLINE
  5
2BA
  8
0
  6
SLD-SOLID
 62
     7
 66
     1
 10
0.0
 20
0.0
 30
0.0
  0
VERTEX
  5
863
  8
0
  6
SLD-SOLID
 62
     7
 10
108.1843120302
 20
374.6894100784
 30
0.0
  0
VERTEX
  5
864
  8
0
  6
SLD-SOLID
 62
     7
 10
109.5571858133
 20
374.8117039083
 30
0.0
  0
VERTEX
  5
865
  8
0
  6
SLD-SOLID
 62
     7
 10
110.184286281
 20
374.9394217609
 30
0.0
  0
SEQEND
  5
866
  8
0
  6
SLD-SOLID
 62
     7
  0
LINE
  5
2BB
  8
0
  6
SLD-SOLID
 62
     7
 10
110.184286281
 20
374.9394217609
 30
0.0
 11
112.1842903341
 21
374.6894100784
 31
0.0
  0
LINE
  5
2BC
  8
0
  6
SLD-SOLID
 62
     7
 10
108.1843120302
 20
374.6894100784
 30
0.0
 11
112.1842903341
 21
374.6894100784
 31
0.0
  0
LINE
  5
2BD
  8
0
  6
SLD-SOLID
 62
     7
 10
114.1842943872
 20
374.9394217609
 30
0.0
 11
114.1842943872
 21
376.2891987441
 31
0.0
  0
POLYLINE
  5
2BE
  8
0
  6
SLD-SOLID
 62
     7
 66
     1
 10
0.0
 20
0.0
 30
0.0
  0
VERTEX
  5
867
  8
0
  6
SLD-SOLID
 62
     7
 10
112.1842903341
 20
374.6894100784
 30
0.0
  0
VERTEX
  5
868
  8
0
  6
SLD-SOLID
 62
     7
 10
113.5571939195
 20
374.8117039083
 30
0.0
  0
VERTEX
  5
869
  8
0
  6
SLD-SOLID
 62
     7
 10
114.1842943872
 20
374.9394217609
 30
0.0
  0
SEQEND
  5
86A
  8
0
  6
SLD-SOLID
 62
     7
  0
LINE
  5
2BF
  8
0
  6
SLD-SOLID
 62
     7
 10
110.184286281
 20
374.9394217609
 30
0.0
 11
110.184286281
 21
376.2891987441
 31
0.0
  0
LINE
  5
2C0
  8
0
  6
SLD-SOLID
 62
     7
 10
106.184307977
 20
374.9394217609
 30
0.0
 11
108.1843120302
 21
374.6894100784
 31
0.0
  0
LINE
  5
2C1
  8
0
  6
SLD-SOLID
 62
     7
 10
106.184307977
 20
374.9394217609
 30
0.0
 11
106.184307977
 21
376.2891987441
 31
0.0
  0
LINE
  5
2C2
  8
0
  6
SLD-SOLID
 62
     7
 10
454.1842979635
 20
374.9394217609
 30
0.0
 11
454.1842979635
 21
374.6894100784
 31
0.0
  0
LINE
  5
2C3
  8
0
  6
SLD-SOLID
 62
     7
 10
452.1842976356
 20
374.6894100784
 30
0.0
 11
454.1842979635
 21
374.6894100784
 31
0.0
  0
LINE
  5
2C4
  8
0
  6
SLD-SOLID
 62
     7
 10
446.1842966522
 20
374.6894100784
 30
0.0
 11
446.1842966522
 21
374.9394217609
 31
0.0
  0
LINE
  5
2C5
  8
0
  6
SLD-SOLID
 62
     7
 10
446.1842966522
 20
374.6894100784
 30
0.0
 11
448.18429698
 21
374.6894100784
 31
0.0
  0
LINE
  5
2C6
  8
0
  6
SLD-SOLID
 62
     7
 10
284.1842961753
 20
374.9394217609
 30
0.0
 11
284.1842961753
 21
374.6894100784
 31
0.0
  0
LINE
  5
2C7
  8
0
  6
SLD-SOLID
 62
     7
 10
282.1842921222
 20
374.6894100784
 30
0.0
 11
284.1842961753
 21
374.6894100784
 31
0.0
  0
LINE
  5
2C8
  8
0
  6
SLD-SOLID
 62
     7
 10
276.184294864
 20
374.6894100784
 30
0.0
 11
276.184294864
 21
374.9394217609
 31
0.0
  0
LINE
  5
2C9
  8
0
  6
SLD-SOLID
 62
     7
 10
276.184294864
 20
374.6894100784
 30
0.0
 11
278.1842989171
 21
374.6894100784
 31
0.0
  0
LINE
  5
2CA
  8
0
  6
SLD-SOLID
 62
     7
 10
106.184307977
 20
374.6894100784
 30
0.0
 11
106.184307977
 21
374.9394217609
 31
0.0
  0
LINE
  5
2CB
  8
0
  6
SLD-SOLID
 62
     7
 10
106.184307977
 20
374.6894100784
 30
0.0
 11
108.1843120302
 21
374.6894100784
 31
0.0
  0
LINE
  5
2CC
  8
0
  6
SLD-SOLID
 62
     7
 10
114.1842943872
 20
374.9394217609
 30
0.0
 11
114.1842943872
 21
374.6894100784
 31
0.0
  0
LINE
  5
2CD
  8
0
  6
SLD-SOLID
 62
     7
 10
112.1842903341
 20
374.6894100784
 30
0.0
 11
114.1842943872
 21
374.6894100784
 31
0.0
  0
LINE
  5
2CE
  8
0
  6
SLD-SOLID
 62
     7
 10
280.1843029703
 20
372.6894209264
 30
0.0
 11
282.6843005861
 21
372.6894209264
 31
0.0
  0
LINE
  5
2CF
  8
0
  6
SLD-SOLID
 62
     7
 10
277.6842904533
 20
372.6894209264
 30
0.0
 11
280.1843029703
 21
372.6894209264
 31
0.0
  0
LINE
  5
2D0
  8
0
  6
SLD-SOLID
 62
     7
 10
280.1843029703
 20
372.4894175409
 30
0.0
 11
277.8842938388
 21
372.4894175409
 31
0.0
  0
LINE
  5
2D1
  8
0
  6
SLD-SOLID
 62
     7
 10
282.4842972005
 20
372.4894175409
 30
0.0
 11
280.1843029703
 21
372.4894175409
 31
0.0
  0
LINE
  5
2D2
  8
0
  6
SLD-SOLID
 62
     7
 10
620.184299096
 20
372.4894175409
 30
0.0
 11
617.8842974151
 21
372.4894175409
 31
0.0
  0
LINE
  5
2D3
  8
0
  6
SLD-SOLID
 62
     7
 10
622.4843007768
 20
372.4894175409
 30
0.0
 11
620.184299096
 21
372.4894175409
 31
0.0
  0
LINE
  5
2D4
  8
0
  6
SLD-SOLID
 62
     7
 10
620.184299096
 20
372.6894209264
 30
0.0
 11
622.6843041624
 21
372.6894209264
 31
0.0
  0
LINE
  5
2D5
  8
0
  6
SLD-SOLID
 62
     7
 10
617.6842940296
 20
372.6894209264
 30
0.0
 11
620.184299096
 21
372.6894209264
 31
0.0
  0
LINE
  5
2D6
  8
0
  6
SLD-SOLID
 62
     7
 10
450.1842973078
 20
372.6894209264
 30
0.0
 11
452.6842986489
 21
372.6894209264
 31
0.0
  0
LINE
  5
2D7
  8
0
  6
SLD-SOLID
 62
     7
 10
447.6842959667
 20
372.6894209264
 30
0.0
 11
450.1842973078
 21
372.6894209264
 31
0.0
  0
LINE
  5
2D8
  8
0
  6
SLD-SOLID
 62
     7
 10
450.1842973078
 20
372.4894175409
 30
0.0
 11
447.884295627
 21
372.4894175409
 31
0.0
  0
LINE
  5
2D9
  8
0
  6
SLD-SOLID
 62
     7
 10
452.4842989887
 20
372.4894175409
 30
0.0
 11
450.1842973078
 21
372.4894175409
 31
0.0
  0
LINE
  5
2DA
  8
0
  6
SLD-SOLID
 62
     7
 10
110.184286281
 20
372.4894175409
 30
0.0
 11
107.8842920507
 21
372.4894175409
 31
0.0
  0
LINE
  5
2DB
  8
0
  6
SLD-SOLID
 62
     7
 10
112.4843103136
 20
372.4894175409
 30
0.0
 11
110.184286281
 21
372.4894175409
 31
0.0
  0
LINE
  5
2DC
  8
0
  6
SLD-SOLID
 62
     7
 10
110.184286281
 20
372.6894209264
 30
0.0
 11
112.6842838968
 21
372.6894209264
 31
0.0
  0
LINE
  5
2DD
  8
0
  6
SLD-SOLID
 62
     7
 10
107.6842886651
 20
372.6894209264
 30
0.0
 11
110.184286281
 21
372.6894209264
 31
0.0
  0
LINE
  5
2DE
  8
0
  6
SLD-SOLID
 62
     7
 10
653.0560297216
 20
344.9404338478
 30
0.0
 11
654.9037886108
 21
345.7058021902
 31
0.0
  0
LINE
  5
2DF
  8
0
  6
SLD-SOLID
 62
     7
 10
656.8172169174
 20
341.0864124177
 30
0.0
 11
654.9037886108
 21
345.7058021902
 31
0.0
  0
LINE
  5
2E0
  8
0
  6
SLD-SOLID
 62
     7
 10
660.3384805168
 20
327.3590752958
 30
0.0
 11
653.0560297216
 21
344.9404338478
 31
0.0
  0
POLYLINE
  5
2E1
  8
0
  6
SLD-SOLID
 62
     7
 66
     1
 10
0.0
 20
0.0
 30
0.0
  0
VERTEX
  5
86B
  8
0
  6
SLD-SOLID
 62
     7
 10
656.289611503
 20
346.2798247217
 30
0.0
  0
VERTEX
  5
86C
  8
0
  6
SLD-SOLID
 62
     7
 10
656.0192597354
 20
346.1678424953
 30
0.0
  0
VERTEX
  5
86D
  8
0
  6
SLD-SOLID
 62
     7
 10
655.7592791761
 20
346.0601518033
 30
0.0
  0
VERTEX
  5
86E
  8
0
  6
SLD-SOLID
 62
     7
 10
655.5196983064
 20
345.9609100698
 30
0.0
  0
VERTEX
  5
86F
  8
0
  6
SLD-SOLID
 62
     7
 10
655.3096962417
 20
345.8739319919
 30
0.0
  0
VERTEX
  5
870
  8
0
  6
SLD-SOLID
 62
     7
 10
655.1373494113
 20
345.8025405286
 30
0.0
  0
VERTEX
  5
871
  8
0
  6
SLD-SOLID
 62
     7
 10
655.009288832
 20
345.7494923948
 30
0.0
  0
VERTEX
  5
872
  8
0
  6
SLD-SOLID
 62
     7
 10
654.9304169858
 20
345.7168290494
 30
0.0
  0
VERTEX
  5
873
  8
0
  6
SLD-SOLID
 62
     7
 10
654.9037886108
 20
345.7058021902
 30
0.0
  0
SEQEND
  5
874
  8
0
  6
SLD-SOLID
 62
     7
  0
LINE
  5
2E2
  8
0
  6
SLD-SOLID
 62
     7
 10
656.6842985595
 20
363.9525422929
 30
0.0
 11
656.6842985595
 21
346.4433053611
 31
0.0
  0
POLYLINE
  5
2E3
  8
0
  6
SLD-SOLID
 62
     7
 66
     1
 10
0.0
 20
0.0
 30
0.0
  0
VERTEX
  5
875
  8
0
  6
SLD-SOLID
 62
     7
 10
661.674295112
 20
370.4894134878
 30
0.0
  0
VERTEX
  5
876
  8
0
  6
SLD-SOLID
 62
     7
 10
660.7008022512
 20
370.3935394166
 30
0.0
  0
VERTEX
  5
877
  8
0
  6
SLD-SOLID
 62
     7
 10
660.3340548719
 20
370.3060696004
 30
0.0
  0
SEQEND
  5
878
  8
0
  6
SLD-SOLID
 62
     7
  0
LINE
  5
2E4
  8
0
  6
SLD-SOLID
 62
     7
 10
661.6842937911
 20
370.4894134878
 30
0.0
 11
661.674295112
 21
370.4894134878
 31
0.0
  0
ARC
  5
2E5
  8
0
  6
SLD-SOLID
 62
     7
 10
661.6842974375
 20
375.4894172807
 30
0.0
 40
5.0
 50
270.0
 51
0.0
  0
LINE
  5
2E6
  8
0
  6
SLD-SOLID
 62
     7
 10
666.6843039239
 20
376.2891987441
 30
0.0
 11
666.6843039239
 21
375.4894236206
 31
0.0
  0
LINE
  5
2E7
  8
0
  6
SLD-SOLID
 62
     7
 10
656.6842985595
 20
346.4433053611
 30
0.0
 11
656.289611503
 21
346.2798247217
 31
0.0
  0
LINE
  5
2E8
  8
0
  6
SLD-SOLID
 62
     7
 10
671.6842991556
 20
328.5457292674
 30
0.0
 11
671.6842991556
 21
329.9262771486
 31
0.0
  0
LINE
  5
2E9
  8
0
  6
SLD-SOLID
 62
     7
 10
671.6842991556
 20
350.9237865089
 30
0.0
 11
671.6842991556
 21
356.1500409721
 31
0.0
  0
LINE
  5
2EA
  8
0
  6
SLD-SOLID
 62
     7
 10
671.6842991556
 20
358.6096713422
 30
0.0
 11
671.6842991556
 21
359.4164500116
 31
0.0
  0
LINE
  5
2EB
  8
0
  6
SLD-SOLID
 62
     7
 10
671.6842991556
 20
361.3156477092
 30
0.0
 11
671.6842991556
 21
376.2891987441
 31
0.0
  0
LINE
  5
2EC
  8
0
  6
SLD-SOLID
 62
     7
 10
620.184299096
 20
374.9394217609
 30
0.0
 11
620.184299096
 21
376.2891987441
 31
0.0
  0
POLYLINE
  5
2ED
  8
0
  6
SLD-SOLID
 62
     7
 66
     1
 10
0.0
 20
0.0
 30
0.0
  0
VERTEX
  5
879
  8
0
  6
SLD-SOLID
 62
     7
 10
618.1842950428
 20
374.6894100784
 30
0.0
  0
VERTEX
  5
87A
  8
0
  6
SLD-SOLID
 62
     7
 10
619.5571911777
 20
374.8117039083
 30
0.0
  0
VERTEX
  5
87B
  8
0
  6
SLD-SOLID
 62
     7
 10
620.184299096
 20
374.9394217609
 30
0.0
  0
SEQEND
  5
87C
  8
0
  6
SLD-SOLID
 62
     7
  0
LINE
  5
2EE
  8
0
  6
SLD-SOLID
 62
     7
 10
616.1842984403
 20
374.9394217609
 30
0.0
 11
618.1842950428
 21
374.6894100784
 31
0.0
  0
LINE
  5
2EF
  8
0
  6
SLD-SOLID
 62
     7
 10
616.1842984403
 20
374.9394217609
 30
0.0
 11
616.1842984403
 21
376.2891987441
 31
0.0
  0
LINE
  5
2F0
  8
0
  6
SLD-SOLID
 62
     7
 10
624.1842997516
 20
374.9394217609
 30
0.0
 11
624.1842997516
 21
376.2891987441
 31
0.0
  0
POLYLINE
  5
2F1
  8
0
  6
SLD-SOLID
 62
     7
 66
     1
 10
0.0
 20
0.0
 30
0.0
  0
VERTEX
  5
87D
  8
0
  6
SLD-SOLID
 62
     7
 10
622.1842956985
 20
374.6894100784
 30
0.0
  0
VERTEX
  5
87E
  8
0
  6
SLD-SOLID
 62
     7
 10
623.5571843828
 20
374.8117039083
 30
0.0
  0
VERTEX
  5
87F
  8
0
  6
SLD-SOLID
 62
     7
 10
624.1842997516
 20
374.9394217609
 30
0.0
  0
SEQEND
  5
880
  8
0
  6
SLD-SOLID
 62
     7
  0
LINE
  5
2F2
  8
0
  6
SLD-SOLID
 62
     7
 10
620.184299096
 20
374.9394217609
 30
0.0
 11
622.1842956985
 21
374.6894100784
 31
0.0
  0
LINE
  5
2F3
  8
0
  6
SLD-SOLID
 62
     7
 10
618.1842950428
 20
374.6894100784
 30
0.0
 11
622.1842956985
 21
374.6894100784
 31
0.0
  0
LINE
  5
2F4
  8
0
  6
SLD-SOLID
 62
     7
 10
624.1842997516
 20
374.9394217609
 30
0.0
 11
624.1842997516
 21
374.6894100784
 31
0.0
  0
LINE
  5
2F5
  8
0
  6
SLD-SOLID
 62
     7
 10
622.1842956985
 20
374.6894100784
 30
0.0
 11
624.1842997516
 21
374.6894100784
 31
0.0
  0
LINE
  5
2F6
  8
0
  6
SLD-SOLID
 62
     7
 10
616.1842984403
 20
374.6894100784
 30
0.0
 11
616.1842984403
 21
374.9394217609
 31
0.0
  0
LINE
  5
2F7
  8
0
  6
SLD-SOLID
 62
     7
 10
616.1842984403
 20
374.6894100784
 30
0.0
 11
618.1842950428
 21
374.6894100784
 31
0.0
  0
LINE
  5
2F8
  8
0
  6
SLD-SOLID
 62
     7
 10
676.3054025615
 20
151.8894171911
 30
0.0
 11
683.8842970575
 21
151.8894171911
 31
0.0
  0
LINE
  5
2F9
  8
0
  6
SLD-SOLID
 62
     7
 10
673.3842981304
 20
376.2891987441
 30
0.0
 11
673.3842981304
 21
185.1224681465
 31
0.0
  0
LINE
  5
2FA
  8
0
  6
SLD-SOLID
 62
     7
 10
673.3842981304
 20
151.8894171911
 30
0.0
 11
676.3054025615
 21
151.8894171911
 31
0.0
  0
ARC
  5
2FB
  8
0
  6
SLD-SOLID
 62
     7
 10
670.3842974375
 20
291.7494261378
 30
0.0
 40
3.00000000000003
 50
275.0
 51
0.0
  0
ARC
  5
2FC
  8
0
  6
SLD-SOLID
 62
     7
 10
670.3842974375
 20
266.1494261378
 30
0.0
 40
3.000000000000114
 50
275.0
 51
0.0
  0
ARC
  5
2FD
  8
0
  6
SLD-SOLID
 62
     7
 10
670.3842974375
 20
240.7494261378
 30
0.0
 40
3.00000000000003
 50
275.0
 51
0.0
  0
ARC
  5
2FE
  8
0
  6
SLD-SOLID
 62
     7
 10
670.3842974375
 20
215.3494261378
 30
0.0
 40
3.000000000000002
 50
275.0
 51
0.0
  0
ARC
  5
2FF
  8
0
  6
SLD-SOLID
 62
     7
 10
670.3842974375
 20
274.2313755162
 30
0.0
 40
3.0
 50
0.0
 51
85.0
  0
ARC
  5
300
  8
0
  6
SLD-SOLID
 62
     7
 10
670.3842974375
 20
248.6313755162
 30
0.0
 40
3.0
 50
0.0
 51
85.0
  0
ARC
  5
301
  8
0
  6
SLD-SOLID
 62
     7
 10
670.3842974375
 20
223.2313755162
 30
0.0
 40
3.00000000000003
 50
0.0
 51
85.0
  0
ARC
  5
302
  8
0
  6
SLD-SOLID
 62
     7
 10
670.3842974375
 20
197.8313755162
 30
0.0
 40
3.000000000000002
 50
0.0
 51
85.0
  0
LINE
  5
303
  8
0
  6
SLD-SOLID
 62
     7
 10
670.6457627262
 20
288.7608358739
 30
0.0
 11
653.597135588
 21
287.2692743419
 31
0.0
  0
LINE
  5
304
  8
0
  6
SLD-SOLID
 62
     7
 10
670.6457627262
 20
263.1608421086
 30
0.0
 11
653.597135588
 21
261.6692805766
 31
0.0
  0
LINE
  5
305
  8
0
  6
SLD-SOLID
 62
     7
 10
670.6457627262
 20
237.7608442782
 30
0.0
 11
653.597135588
 21
236.2692827462
 31
0.0
  0
LINE
  5
306
  8
0
  6
SLD-SOLID
 62
     7
 10
670.6457627262
 20
212.3608427225
 30
0.0
 11
653.597135588
 21
210.8692811905
 31
0.0
  0
LINE
  5
307
  8
0
  6
SLD-SOLID
 62
     7
 10
670.6457627262
 20
277.2199610351
 30
0.0
 11
653.597135588
 21
278.7115225671
 31
0.0
  0
LINE
  5
308
  8
0
  6
SLD-SOLID
 62
     7
 10
670.6457627262
 20
251.6199598192
 30
0.0
 11
653.597135588
 21
253.1115213512
 31
0.0
  0
LINE
  5
309
  8
0
  6
SLD-SOLID
 62
     7
 10
670.6457627262
 20
226.2199619888
 30
0.0
 11
653.597135588
 21
227.7115235208
 31
0.0
  0
LINE
  5
30A
  8
0
  6
SLD-SOLID
 62
     7
 10
670.6457627262
 20
200.8199604331
 30
0.0
 11
653.597135588
 21
202.3115219651
 31
0.0
  0
LINE
  5
30B
  8
0
  6
SLD-SOLID
 62
     7
 10
652.6842904533
 20
279.707717347
 30
0.0
 11
652.6842904533
 21
286.2730870126
 31
0.0
  0
ARC
  5
30C
  8
0
  6
SLD-SOLID
 62
     7
 10
653.6842974375
 20
279.7077155472
 30
0.0
 40
1.000000000000114
 50
180.0
 51
265.0
  0
LINE
  5
30D
  8
0
  6
SLD-SOLID
 62
     7
 10
652.6842904533
 20
254.1077161311
 30
0.0
 11
652.6842904533
 21
260.6730857967
 31
0.0
  0
ARC
  5
30E
  8
0
  6
SLD-SOLID
 62
     7
 10
653.6842974375
 20
254.1077155472
 30
0.0
 40
1.00000000000001
 50
180.0
 51
265.0
  0
LINE
  5
30F
  8
0
  6
SLD-SOLID
 62
     7
 10
652.6842904533
 20
228.7077183007
 30
0.0
 11
652.6842904533
 21
235.2730879663
 31
0.0
  0
ARC
  5
310
  8
0
  6
SLD-SOLID
 62
     7
 10
653.6842974375
 20
228.7077155472
 30
0.0
 40
1.00000000000001
 50
180.0
 51
265.0
  0
ARC
  5
311
  8
0
  6
SLD-SOLID
 62
     7
 10
653.6842974375
 20
203.3077155472
 30
0.0
 40
1.000000000000114
 50
180.0
 51
265.0
  0
LINE
  5
312
  8
0
  6
SLD-SOLID
 62
     7
 10
652.6842904533
 20
203.307716745
 30
0.0
 11
652.6842904533
 21
209.8730864106
 31
0.0
  0
ARC
  5
313
  8
0
  6
SLD-SOLID
 62
     7
 10
653.6842958824
 20
286.2730745921
 30
0.0
 40
1.000005429188217
 50
95.000234569
 51
179.9992883615
  0
ARC
  5
314
  8
0
  6
SLD-SOLID
 62
     7
 10
653.6843106638
 20
260.6730672822
 30
0.0
 40
1.000020210672115
 50
95.0010106013
 51
179.9989392178
  0
ARC
  5
315
  8
0
  6
SLD-SOLID
 62
     7
 10
653.6843106638
 20
235.2730694518
 30
0.0
 40
1.000020210672086
 50
95.0010106013
 51
179.9989392178
  0
ARC
  5
316
  8
0
  6
SLD-SOLID
 62
     7
 10
653.6843127037
 20
209.8730660268
 30
0.0
 40
1.000022250652445
 50
95.0011176978
 51
179.9988321213
  0
ARC
  5
317
  8
0
  6
SLD-SOLID
 62
     7
 10
670.3842974375
 20
331.2494261378
 30
0.0
 40
3.00000000000003
 50
275.0
 51
0.0
  0
ARC
  5
318
  8
0
  6
SLD-SOLID
 62
     7
 10
670.3842974375
 20
302.9294084237
 30
0.0
 40
3.0
 50
0.0
 51
85.0
  0
LINE
  5
319
  8
0
  6
SLD-SOLID
 62
     7
 10
670.6457627262
 20
328.2608488677
 30
0.0
 11
653.597135588
 21
326.7692873357
 31
0.0
  0
LINE
  5
31A
  8
0
  6
SLD-SOLID
 62
     7
 10
670.6457627262
 20
305.917988169
 30
0.0
 11
653.597135588
 21
307.4095497011
 31
0.0
  0
LINE
  5
31B
  8
0
  6
SLD-SOLID
 62
     7
 10
652.6842904533
 20
318.2894239305
 30
0.0
 11
652.6842904533
 21
325.7730851053
 31
0.0
  0
ARC
  5
31C
  8
0
  6
SLD-SOLID
 62
     7
 10
653.6843220186
 20
325.7730636367
 30
0.0
 40
1.000031565576404
 50
95.0016067229
 51
179.9987699812
  0
ARC
  5
31D
  8
0
  6
SLD-SOLID
 62
     7
 10
653.6842974375
 20
308.4057484547
 30
0.0
 40
1.000000000000067
 50
180.0
 51
265.0
  0
LINE
  5
31E
  8
0
  6
SLD-SOLID
 62
     7
 10
652.6842904533
 20
308.4057519315
 30
0.0
 11
652.6842904533
 21
318.2894239305
 31
0.0
  0
LINE
  5
31F
  8
0
  6
SLD-SOLID
 62
     7
 10
46.9842893327
 20
149.5964882067
 30
0.0
 11
46.9842893327
 21
376.2891987441
 31
0.0
  0
LINE
  5
320
  8
0
  6
SLD-SOLID
 62
     7
 10
46.9842893327
 20
149.5964882067
 30
0.0
 11
44.934306785
 21
149.5964882067
 31
0.0
  0
LINE
  5
321
  8
0
  6
SLD-SOLID
 62
     7
 10
44.934306785
 20
149.5964882067
 30
0.0
 11
31.4343017782
 21
149.5964882067
 31
0.0
  0
POLYLINE
  5
322
  8
0
  6
SLD-SOLID
 62
     7
 66
     1
 10
0.0
 20
0.0
 30
0.0
  0
VERTEX
  5
881
  8
0
  6
SLD-SOLID
 62
     7
 10
29.3842894281
 20
469.2394236206
 30
0.0
  0
VERTEX
  5
882
  8
0
  6
SLD-SOLID
 62
     7
 10
29.5169097627
 20
469.5255855201
 30
0.0
  0
VERTEX
  5
883
  8
0
  6
SLD-SOLID
 62
     7
 10
29.8842829908
 20
469.8017338394
 30
0.0
  0
SEQEND
  5
884
  8
0
  6
SLD-SOLID
 62
     7
  0
POLYLINE
  5
323
  8
0
  6
SLD-SOLID
 62
     7
 66
     1
 10
0.0
 20
0.0
 30
0.0
  0
VERTEX
  5
885
  8
0
  6
SLD-SOLID
 62
     7
 10
31.4343017782
 20
149.5964882067
 30
0.0
  0
VERTEX
  5
886
  8
0
  6
SLD-SOLID
 62
     7
 10
30.7089430536
 20
149.8826659387
 30
0.0
  0
VERTEX
  5
887
  8
0
  6
SLD-SOLID
 62
     7
 10
30.0772232259
 20
150.1689479789
 30
0.0
  0
VERTEX
  5
888
  8
0
  6
SLD-SOLID
 62
     7
 10
29.6212178911
 20
150.4552309504
 30
0.0
  0
VERTEX
  5
889
  8
0
  6
SLD-SOLID
 62
     7
 10
29.3999654497
 20
150.7415139219
 30
0.0
  0
VERTEX
  5
88A
  8
0
  6
SLD-SOLID
 62
     7
 10
29.3842894281
 20
150.8394173449
 30
0.0
  0
SEQEND
  5
88B
  8
0
  6
SLD-SOLID
 62
     7
  0
LINE
  5
324
  8
0
  6
SLD-SOLID
 62
     7
 10
29.3842894281
 20
150.8394173449
 30
0.0
 11
29.3842894281
 21
469.2394236206
 31
0.0
  0
LINE
  5
325
  8
0
  6
SLD-SOLID
 62
     7
 10
31.4343017782
 20
471.2894061683
 30
0.0
 11
31.4343017782
 21
471.2891975521
 31
0.0
  0
ARC
  5
326
  8
0
  6
SLD-SOLID
 62
     7
 10
31.4196678751
 20
469.2440465499
 30
0.0
 40
2.035383697000208
 50
111.1796689081
 51
180.1301349553
  0
ARC
  5
327
  8
0
  6
SLD-SOLID
 62
     7
 10
31.4343007088
 20
150.8394283828
 30
0.0
 40
2.050011280758122
 50
180.0003084975
 51
270.0000298874
  0
ARC
  5
328
  8
0
  6
SLD-SOLID
 62
     7
 10
31.35033178
 20
150.6294143092
 30
0.0
 40
1.043381556539484
 50
220.5288088436
 51
274.616082326
  0
LINE
  5
329
  8
0
  6
SLD-SOLID
 62
     7
 10
31.4343017782
 20
148.789417102
 30
0.0
 11
31.4343017782
 21
149.58941714
 31
0.0
  0
LINE
  5
32A
  8
0
  6
SLD-SOLID
 62
     7
 10
31.4343017782
 20
471.2894061683
 30
0.0
 11
47.3342878068
 21
471.2894061683
 31
0.0
  0
LINE
  5
32B
  8
0
  6
SLD-SOLID
 62
     7
 10
46.3843089784
 20
148.789417102
 30
0.0
 11
46.3843089784
 21
149.58941714
 31
0.0
  0
LINE
  5
32C
  8
0
  6
SLD-SOLID
 62
     7
 10
45.5029947008
 20
148.789417102
 30
0.0
 11
45.5029947008
 21
149.58941714
 31
0.0
  0
LINE
  5
32D
  8
0
  6
SLD-SOLID
 62
     7
 10
46.3843089784
 20
148.789417102
 30
0.0
 11
45.5029947008
 21
148.789417102
 31
0.0
  0
LINE
  5
32E
  8
0
  6
SLD-SOLID
 62
     7
 10
46.3843089784
 20
149.58941714
 30
0.0
 11
45.5029947008
 21
149.58941714
 31
0.0
  0
LINE
  5
32F
  8
0
  6
SLD-SOLID
 62
     7
 10
45.5029947008
 20
148.789417102
 30
0.0
 11
31.4343017782
 21
148.789417102
 31
0.0
  0
LINE
  5
330
  8
0
  6
SLD-SOLID
 62
     7
 10
31.4343017782
 20
149.58941714
 30
0.0
 11
45.5029947008
 21
149.58941714
 31
0.0
  0
LINE
  5
331
  8
0
  6
SLD-SOLID
 62
     7
 10
47.3842961038
 20
148.789417102
 30
0.0
 11
46.3843089784
 21
148.789417102
 31
0.0
  0
LINE
  5
332
  8
0
  6
SLD-SOLID
 62
     7
 10
47.3842961038
 20
149.58941714
 30
0.0
 11
46.3843089784
 21
149.58941714
 31
0.0
  0
LINE
  5
333
  8
0
  6
SLD-SOLID
 62
     7
 10
53.3843082632
 20
148.789417102
 30
0.0
 11
47.3842961038
 21
148.789417102
 31
0.0
  0
LINE
  5
334
  8
0
  6
SLD-SOLID
 62
     7
 10
53.3843082632
 20
149.58941714
 30
0.0
 11
47.3842961038
 21
149.58941714
 31
0.0
  0
LINE
  5
335
  8
0
  6
SLD-SOLID
 62
     7
 10
54.3842953885
 20
148.789417102
 30
0.0
 11
54.3842953885
 21
149.58941714
 31
0.0
  0
LINE
  5
336
  8
0
  6
SLD-SOLID
 62
     7
 10
54.3842953885
 20
148.789417102
 30
0.0
 11
53.3843082632
 21
148.789417102
 31
0.0
  0
LINE
  5
337
  8
0
  6
SLD-SOLID
 62
     7
 10
54.3842953885
 20
149.58941714
 30
0.0
 11
53.3843082632
 21
149.58941714
 31
0.0
  0
LINE
  5
338
  8
0
  6
SLD-SOLID
 62
     7
 10
710.3842986072
 20
146.2894171579
 30
0.0
 11
702.3842972959
 21
146.2894171579
 31
0.0
  0
LINE
  5
339
  8
0
  6
SLD-SOLID
 62
     7
 10
792.1842974866
 20
146.2894171579
 30
0.0
 11
784.1843110765
 21
146.2894171579
 31
0.0
  0
LINE
  5
33A
  8
0
  6
SLD-SOLID
 62
     7
 10
61.955009147
 20
154.7501831535
 30
0.0
 11
61.955009147
 21
149.539417225
 31
0.0
  0
LINE
  5
33B
  8
0
  6
SLD-SOLID
 62
     7
 10
671.8135816301
 20
154.7962341735
 30
0.0
 11
671.8135816301
 21
149.539417225
 31
0.0
  0
LINE
  5
33C
  8
0
  6
SLD-SOLID
 62
     7
 10
671.8135816301
 20
149.539417225
 30
0.0
 11
671.8135816301
 21
146.7894172399
 31
0.0
  0
LINE
  5
33D
  8
0
  6
SLD-SOLID
 62
     7
 10
671.8135816301
 20
146.7894172399
 30
0.0
 11
658.5342926229
 21
146.7894172399
 31
0.0
  0
LINE
  5
33E
  8
0
  6
SLD-SOLID
 62
     7
 10
629.2343032802
 20
146.7894172399
 30
0.0
 11
104.5343023981
 21
146.7894172399
 31
0.0
  0
LINE
  5
33F
  8
0
  6
SLD-SOLID
 62
     7
 10
75.2342981542
 20
146.7894172399
 30
0.0
 11
61.955009147
 21
146.7894172399
 31
0.0
  0
LINE
  5
340
  8
0
  6
SLD-SOLID
 62
     7
 10
61.955009147
 20
146.7894172399
 30
0.0
 11
61.955009147
 21
149.539417225
 31
0.0
  0
LINE
  5
341
  8
0
  6
SLD-SOLID
 62
     7
 10
709.3842965806
 20
147.089927095
 30
0.0
 11
709.3842965806
 21
147.9891921496
 31
0.0
  0
LINE
  5
342
  8
0
  6
SLD-SOLID
 62
     7
 10
779.8842829908
 20
147.9891921496
 30
0.0
 11
779.8842829908
 21
147.089927095
 31
0.0
  0
LINE
  5
343
  8
0
  6
SLD-SOLID
 62
     7
 10
779.8842829908
 20
146.7894172399
 30
0.0
 11
709.3842965806
 21
146.7894172399
 31
0.0
  0
LINE
  5
344
  8
0
  6
SLD-SOLID
 62
     7
 10
671.8843025411
 20
154.8653355728
 30
0.0
 11
671.8843025411
 21
149.539417225
 31
0.0
  0
LINE
  5
345
  8
0
  6
SLD-SOLID
 62
     7
 10
673.3842981304
 20
156.4317570171
 30
0.0
 11
673.3842981304
 21
149.539417225
 31
0.0
  0
LINE
  5
346
  8
0
  6
SLD-SOLID
 62
     7
 10
60.3843075479
 20
156.4207047793
 30
0.0
 11
60.3843075479
 21
149.539417225
 31
0.0
  0
LINE
  5
347
  8
0
  6
SLD-SOLID
 62
     7
 10
61.884288236
 20
154.822313854
 30
0.0
 11
61.884288236
 21
149.539417225
 31
0.0
  0
LINE
  5
348
  8
0
  6
SLD-SOLID
 62
     7
 10
803.3843082632
 20
146.7894172399
 30
0.0
 11
779.8842829908
 21
146.7894172399
 31
0.0
  0
LINE
  5
349
  8
0
  6
SLD-SOLID
 62
     7
 10
779.8842829908
 20
147.089927095
 30
0.0
 11
779.8842829908
 21
146.7894172399
 31
0.0
  0
LINE
  5
34A
  8
0
  6
SLD-SOLID
 62
     7
 10
59.13430874
 20
148.2894174857
 30
0.0
 11
40.3842968191
 21
148.2894174857
 31
0.0
  0
LINE
  5
34B
  8
0
  6
SLD-SOLID
 62
     7
 10
59.13430874
 20
146.7894172399
 30
0.0
 11
40.3842968191
 21
146.7894172399
 31
0.0
  0
LINE
  5
34C
  8
0
  6
SLD-SOLID
 62
     7
 10
808.3843034948
 20
146.7894172399
 30
0.0
 11
808.3843034948
 21
147.9891921496
 31
0.0
  0
LINE
  5
34D
  8
0
  6
SLD-SOLID
 62
     7
 10
808.3843034948
 20
146.7894172399
 30
0.0
 11
803.3843082632
 21
146.7894172399
 31
0.0
  0
LINE
  5
34E
  8
0
  6
SLD-SOLID
 62
     7
 10
35.3843015874
 20
146.7894172399
 30
0.0
 11
35.3843015874
 21
148.2894174857
 31
0.0
  0
LINE
  5
34F
  8
0
  6
SLD-SOLID
 62
     7
 10
40.3842968191
 20
148.2894174857
 30
0.0
 11
35.3843015874
 21
148.2894174857
 31
0.0
  0
LINE
  5
350
  8
0
  6
SLD-SOLID
 62
     7
 10
40.3842968191
 20
146.7894172399
 30
0.0
 11
35.3843015874
 21
146.7894172399
 31
0.0
  0
LINE
  5
351
  8
0
  6
SLD-SOLID
 62
     7
 10
709.3842965806
 20
147.089927095
 30
0.0
 11
709.3842965806
 21
146.7894172399
 31
0.0
  0
LINE
  5
352
  8
0
  6
SLD-SOLID
 62
     7
 10
709.3842965806
 20
146.7894172399
 30
0.0
 11
674.6342969383
 21
146.7894172399
 31
0.0
  0
LINE
  5
353
  8
0
  6
SLD-SOLID
 62
     7
 10
684.9340242589
 20
148.2894174857
 30
0.0
 11
674.6342969383
 21
148.2894174857
 31
0.0
  0
ARC
  5
354
  8
0
  6
SLD-SOLID
 62
     7
 10
674.6342974375
 20
149.5394172807
 30
0.0
 40
1.25
 50
180.0
 51
270.0
  0
ARC
  5
355
  8
0
  6
SLD-SOLID
 62
     7
 10
674.6342974375
 20
149.5394172807
 30
0.0
 40
2.75
 50
180.0
 51
270.0
  0
ARC
  5
356
  8
0
  6
SLD-SOLID
 62
     7
 10
59.1342974375
 20
149.5394172807
 30
0.0
 40
2.750000000000028
 50
270.0
 51
0.0
  0
ARC
  5
357
  8
0
  6
SLD-SOLID
 62
     7
 10
59.1342974375
 20
149.5394172807
 30
0.0
 40
1.249999999999972
 50
270.0
 51
0.0
  0
LINE
  5
358
  8
0
  6
SLD-SOLID
 62
     7
 10
674.6342969383
 20
149.539417225
 30
0.0
 11
674.6342969383
 21
148.2894174857
 31
0.0
  0
LINE
  5
359
  8
0
  6
SLD-SOLID
 62
     7
 10
674.6342969383
 20
149.539417225
 30
0.0
 11
674.6342969383
 21
151.8894171911
 31
0.0
  0
LINE
  5
35A
  8
0
  6
SLD-SOLID
 62
     7
 10
791.7343122209
 20
471.2891975521
 30
0.0
 11
791.7343122209
 21
472.111652243
 31
0.0
  0
LINE
  5
35B
  8
0
  6
SLD-SOLID
 62
     7
 10
52.0342928613
 20
472.111652243
 30
0.0
 11
52.0342928613
 21
471.2891975521
 31
0.0
  0
LINE
  5
35C
  8
0
  6
SLD-SOLID
 62
     7
 10
792.9843110288
 20
472.111652243
 30
0.0
 11
792.9843110288
 21
494.6667650817
 31
0.0
  0
LINE
  5
35D
  8
0
  6
SLD-SOLID
 62
     7
 10
792.9843110288
 20
472.111652243
 30
0.0
 11
791.7343122209
 21
472.111652243
 31
0.0
  0
LINE
  5
35E
  8
0
  6
SLD-SOLID
 62
     7
 10
52.0342928613
 20
472.111652243
 30
0.0
 11
50.7842940534
 21
472.111652243
 31
0.0
  0
LINE
  5
35F
  8
0
  6
SLD-SOLID
 62
     7
 10
50.7842940534
 20
472.111652243
 30
0.0
 11
50.7842940534
 21
494.6667650817
 31
0.0
  0
LINE
  5
360
  8
0
  6
SLD-SOLID
 62
     7
 10
792.9843110288
 20
471.8380371211
 30
0.0
 11
791.7343122209
 21
471.8380371211
 31
0.0
  0
LINE
  5
361
  8
0
  6
SLD-SOLID
 62
     7
 10
792.9843110288
 20
472.111652243
 30
0.0
 11
792.9843110288
 21
471.8380371211
 31
0.0
  0
LINE
  5
362
  8
0
  6
SLD-SOLID
 62
     7
 10
52.0342928613
 20
471.8380371211
 30
0.0
 11
50.7842940534
 21
471.8380371211
 31
0.0
  0
LINE
  5
363
  8
0
  6
SLD-SOLID
 62
     7
 10
50.7842940534
 20
471.8380371211
 30
0.0
 11
50.7842940534
 21
472.111652243
 31
0.0
  0
LINE
  5
364
  8
0
  6
SLD-SOLID
 62
     7
 10
793.7842947687
 20
494.3589666961
 30
0.0
 11
792.9843110288
 21
494.3589666961
 31
0.0
  0
LINE
  5
365
  8
0
  6
SLD-SOLID
 62
     7
 10
793.7842947687
 20
471.8038538574
 30
0.0
 11
792.9843110288
 21
471.8038538574
 31
0.0
  0
LINE
  5
366
  8
0
  6
SLD-SOLID
 62
     7
 10
793.7842947687
 20
494.3589666961
 30
0.0
 11
793.7842947687
 21
471.8038538574
 31
0.0
  0
LINE
  5
367
  8
0
  6
SLD-SOLID
 62
     7
 10
792.9843110288
 20
471.8380371211
 30
0.0
 11
792.9843110288
 21
471.8038538574
 31
0.0
  0
LINE
  5
368
  8
0
  6
SLD-SOLID
 62
     7
 10
793.7842947687
 20
471.8038538574
 30
0.0
 11
793.7842947687
 21
471.2891975521
 31
0.0
  0
LINE
  5
369
  8
0
  6
SLD-SOLID
 62
     7
 10
792.9843110288
 20
471.8038538574
 30
0.0
 11
792.9843110288
 21
471.2891975521
 31
0.0
  0
LINE
  5
36A
  8
0
  6
SLD-SOLID
 62
     7
 10
49.9843103136
 20
471.8038538574
 30
0.0
 11
50.7842940534
 21
471.8038538574
 31
0.0
  0
LINE
  5
36B
  8
0
  6
SLD-SOLID
 62
     7
 10
49.9843103136
 20
494.3589666961
 30
0.0
 11
50.7842940534
 21
494.3589666961
 31
0.0
  0
LINE
  5
36C
  8
0
  6
SLD-SOLID
 62
     7
 10
50.7842940534
 20
471.8380371211
 30
0.0
 11
50.7842940534
 21
471.8038538574
 31
0.0
  0
LINE
  5
36D
  8
0
  6
SLD-SOLID
 62
     7
 10
49.9843103136
 20
494.3589666961
 30
0.0
 11
49.9843103136
 21
471.8038538574
 31
0.0
  0
LINE
  5
36E
  8
0
  6
SLD-SOLID
 62
     7
 10
50.7842940534
 20
471.8038538574
 30
0.0
 11
50.7842940534
 21
471.2891975521
 31
0.0
  0
LINE
  5
36F
  8
0
  6
SLD-SOLID
 62
     7
 10
49.9843103136
 20
471.8038538574
 30
0.0
 11
49.9843103136
 21
471.2891975521
 31
0.0
  0
LINE
  5
370
  8
0
  6
SLD-SOLID
 62
     7
 10
50.7842940534
 20
494.6667650817
 30
0.0
 11
50.7842940534
 21
496.015618193
 31
0.0
  0
LINE
  5
371
  8
0
  6
SLD-SOLID
 62
     7
 10
792.9843110288
 20
494.6667650817
 30
0.0
 11
792.9843110288
 21
496.015618193
 31
0.0
  0
ARC
  5
372
  8
0
  6
SLD-SOLID
 62
     7
 10
51.9960521868
 20
493.9587633698
 30
0.0
 40
2.012652645253715
 50
127.0183074389
 51
168.5306492956
  0
ARC
  5
373
  8
0
  6
SLD-SOLID
 62
     7
 10
791.7698533055
 20
493.9570616674
 30
0.0
 40
2.015637017714376
 50
11.5014979748
 51
52.9495452907
  0
LINE
  5
374
  8
0
  6
SLD-SOLID
 62
     7
 10
54.3842953885
 20
148.789417102
 30
0.0
 11
60.1342958654
 21
148.789417102
 31
0.0
  0
LINE
  5
375
  8
0
  6
SLD-SOLID
 62
     7
 10
61.7800397123
 20
148.789417102
 30
0.0
 11
61.955009147
 21
148.789417102
 31
0.0
  0
LINE
  5
376
  8
0
  6
SLD-SOLID
 62
     7
 10
671.8135816301
 20
148.789417102
 30
0.0
 11
671.9885510648
 21
148.789417102
 31
0.0
  0
LINE
  5
377
  8
0
  6
SLD-SOLID
 62
     7
 10
673.6342949117
 20
148.789417102
 30
0.0
 11
674.6342969383
 21
148.789417102
 31
0.0
  0
LINE
  5
378
  8
0
  6
SLD-SOLID
 62
     7
 10
49.9343020166
 20
150.589417304
 30
0.0
 11
46.9842893327
 21
150.589417304
 31
0.0
  0
POLYLINE
  5
379
  8
0
  6
SLD-SOLID
 62
     7
 66
     1
 10
0.0
 20
0.0
 30
0.0
  0
VERTEX
  5
88C
  8
0
  6
SLD-SOLID
 62
     7
 10
814.3842858518
 20
150.8391919649
 30
0.0
  0
VERTEX
  5
88D
  8
0
  6
SLD-SOLID
 62
     7
 10
814.2516655172
 20
150.5530142328
 30
0.0
  0
VERTEX
  5
88E
  8
0
  6
SLD-SOLID
 62
     7
 10
813.8842922891
 20
150.2768766238
 30
0.0
  0
SEQEND
  5
88F
  8
0
  6
SLD-SOLID
 62
     7
  0
LINE
  5
37A
  8
0
  6
SLD-SOLID
 62
     7
 10
814.3842858518
 20
469.239185202
 30
0.0
 11
814.3842858518
 21
150.8391919649
 31
0.0
  0
ARC
  5
37B
  8
0
  6
SLD-SOLID
 62
     7
 10
813.6792403001
 20
469.0996906059
 30
0.0
 40
0.718712718953408
 50
11.1915399423
 51
73.4229477888
  0
ARC
  5
37C
  8
0
  6
SLD-SOLID
 62
     7
 10
812.4980995636
 20
469.3225513595
 30
0.0
 40
1.888027709032653
 50
357.4692731267
 51
71.9113886115
  0
LINE
  5
37D
  8
0
  6
SLD-SOLID
 62
     7
 10
812.334303304
 20
148.898805595
 30
0.0
 11
812.334303304
 21
149.0470148726
 31
0.0
  0
ARC
  5
37E
  8
0
  6
SLD-SOLID
 62
     7
 10
812.4235470176
 20
150.8225168132
 30
0.0
 40
1.960809740025986
 50
312.7091692126
 51
0.4872616205
  0
LINE
  5
37F
  8
0
  6
SLD-SOLID
 62
     7
 10
811.8677181447
 20
148.7891921876
 30
0.0
 11
811.8343097413
 21
148.7891921876
 31
0.0
  0
ARC
  5
380
  8
0
  6
SLD-SOLID
 62
     7
 10
89.8846537917
 20
207.6686417765
 30
0.0
 40
3.999639694188449
 50
0.0027803824
 51
90.0052776567
  0
ARC
  5
381
  8
0
  6
SLD-SOLID
 62
     7
 10
643.8840116797
 20
207.6685670706
 30
0.0
 40
3.99971439280894
 50
89.996005894
 51
179.9961495104
  0
LINE
  5
382
  8
0
  6
SLD-SOLID
 62
     7
 10
93.8842934812
 20
210.241208422
 30
0.0
 11
93.8842934812
 21
207.6688358663
 31
0.0
  0
LINE
  5
383
  8
0
  6
SLD-SOLID
 62
     7
 10
639.8842972959
 20
210.241208422
 30
0.0
 11
639.8842972959
 21
207.6688358663
 31
0.0
  0
LINE
  5
384
  8
0
  6
SLD-SOLID
 62
     7
 10
639.8842972959
 20
217.6913829623
 30
0.0
 11
639.8842972959
 21
212.1213512598
 31
0.0
  0
LINE
  5
385
  8
0
  6
SLD-SOLID
 62
     7
 10
639.8842972959
 20
210.4900727151
 30
0.0
 11
639.8842972959
 21
210.241208422
 31
0.0
  0
LINE
  5
386
  8
0
  6
SLD-SOLID
 62
     7
 10
668.8842964614
 20
217.6913829623
 30
0.0
 11
668.8842964614
 21
212.2067349134
 31
0.0
  0
ARC
  5
387
  8
0
  6
SLD-SOLID
 62
     7
 10
622.7788057391
 20
201.7612302265
 30
0.0
 40
36.45147201219815
 50
86.688667936
 51
91.4061732938
  0
ARC
  5
388
  8
0
  6
SLD-SOLID
 62
     7
 10
621.1119895855
 20
194.4116358259
 30
0.0
 40
43.79689889731204
 50
88.989611492
 51
92.9155567396
  0
ARC
  5
389
  8
0
  6
SLD-SOLID
 62
     7
 10
644.7788875122
 20
194.5542045027
 30
0.0
 40
36.44111799197372
 50
86.6878550108
 51
91.406701707
  0
ARC
  5
38A
  8
0
  6
SLD-SOLID
 62
     7
 10
643.1120123522
 20
187.1994070382
 30
0.0
 40
43.79174320838852
 50
88.9895224724
 51
92.9159302725
  0
POLYLINE
  5
38B
  8
0
  6
SLD-SOLID
 62
     7
 66
     1
 10
0.0
 20
0.0
 30
0.0
  0
VERTEX
  5
890
  8
0
  6
SLD-SOLID
 62
     7
 10
646.1423677648
 20
210.9700614689
 30
0.0
  0
VERTEX
  5
891
  8
0
  6
SLD-SOLID
 62
     7
 10
646.4823675598
 20
210.9621601282
 30
0.0
  0
VERTEX
  5
892
  8
0
  6
SLD-SOLID
 62
     7
 10
646.8387139285
 20
210.9458806096
 30
0.0
  0
VERTEX
  5
893
  8
0
  6
SLD-SOLID
 62
     7
 10
646.8387139285
 20
210.9285580097
 30
0.0
  0
VERTEX
  5
894
  8
0
  6
SLD-SOLID
 62
     7
 10
646.4823675598
 20
210.9122784911
 30
0.0
  0
VERTEX
  5
895
  8
0
  6
SLD-SOLID
 62
     7
 10
646.2330562318
 20
210.9061839162
 30
0.0
  0
SEQEND
  5
896
  8
0
  6
SLD-SOLID
 62
     7
  0
POLYLINE
  5
38C
  8
0
  6
SLD-SOLID
 62
     7
 66
     1
 10
0.0
 20
0.0
 30
0.0
  0
VERTEX
  5
897
  8
0
  6
SLD-SOLID
 62
     7
 10
641.5330958808
 20
210.9062360702
 30
0.0
  0
VERTEX
  5
898
  8
0
  6
SLD-SOLID
 62
     7
 10
641.2862283433
 20
210.9122784911
 30
0.0
  0
VERTEX
  5
899
  8
0
  6
SLD-SOLID
 62
     7
 10
640.9298670734
 20
210.9285580097
 30
0.0
  0
VERTEX
  5
89A
  8
0
  6
SLD-SOLID
 62
     7
 10
640.9298670734
 20
210.9458806096
 30
0.0
  0
VERTEX
  5
89B
  8
0
  6
SLD-SOLID
 62
     7
 10
641.2862283433
 20
210.9621601282
 30
0.0
  0
VERTEX
  5
89C
  8
0
  6
SLD-SOLID
 62
     7
 10
641.6262281383
 20
210.9700614689
 30
0.0
  0
SEQEND
  5
89D
  8
0
  6
SLD-SOLID
 62
     7
  0
LINE
  5
38D
  8
0
  6
SLD-SOLID
 62
     7
 10
668.8842964614
 20
195.0435401975
 30
0.0
 11
668.8842964614
 21
197.9936571895
 31
0.0
  0
LINE
  5
38E
  8
0
  6
SLD-SOLID
 62
     7
 10
668.8842964614
 20
191.993656206
 30
0.0
 11
668.8842964614
 21
195.0435401975
 31
0.0
  0
ARC
  5
38F
  8
0
  6
SLD-SOLID
 62
     7
 10
613.3843381162
 20
212.2996374772
 30
0.0
 40
1.999961684617417
 50
0.0022046908
 51
203.9451574577
  0
POLYLINE
  5
390
  8
0
  6
SLD-SOLID
 62
     7
 66
     1
 10
0.0
 20
0.0
 30
0.0
  0
VERTEX
  5
89E
  8
0
  6
SLD-SOLID
 62
     7
 10
615.2120870794
 20
211.4879289745
 30
0.0
  0
VERTEX
  5
89F
  8
0
  6
SLD-SOLID
 62
     7
 10
615.2320546354
 20
211.534454125
 30
0.0
  0
VERTEX
  5
8A0
  8
0
  6
SLD-SOLID
 62
     7
 10
615.3842997993
 20
212.299714434
 30
0.0
  0
SEQEND
  5
8A1
  8
0
  6
SLD-SOLID
 62
     7
  0
ARC
  5
391
  8
0
  6
SLD-SOLID
 62
     7
 10
584.3843389506
 20
212.2996374772
 30
0.0
 40
1.999961684617417
 50
0.0022046908
 51
203.9451574577
  0
POLYLINE
  5
392
  8
0
  6
SLD-SOLID
 62
     7
 66
     1
 10
0.0
 20
0.0
 30
0.0
  0
VERTEX
  5
8A2
  8
0
  6
SLD-SOLID
 62
     7
 10
586.2120879138
 20
211.4879289745
 30
0.0
  0
VERTEX
  5
8A3
  8
0
  6
SLD-SOLID
 62
     7
 10
586.2320554698
 20
211.534454125
 30
0.0
  0
VERTEX
  5
8A4
  8
0
  6
SLD-SOLID
 62
     7
 10
586.3843006338
 20
212.299714434
 30
0.0
  0
SEQEND
  5
8A5
  8
0
  6
SLD-SOLID
 62
     7
  0
ARC
  5
393
  8
0
  6
SLD-SOLID
 62
     7
 10
555.3843371378
 20
212.2996407822
 30
0.0
 40
1.999960606505174
 50
0.0021100109
 51
203.945274771
  0
POLYLINE
  5
394
  8
0
  6
SLD-SOLID
 62
     7
 66
     1
 10
0.0
 20
0.0
 30
0.0
  0
VERTEX
  5
8A6
  8
0
  6
SLD-SOLID
 62
     7
 10
557.2120887483
 20
211.4879289745
 30
0.0
  0
VERTEX
  5
8A7
  8
0
  6
SLD-SOLID
 62
     7
 10
557.2320563043
 20
211.534454125
 30
0.0
  0
VERTEX
  5
8A8
  8
0
  6
SLD-SOLID
 62
     7
 10
557.3842977429
 20
212.299714434
 30
0.0
  0
SEQEND
  5
8A9
  8
0
  6
SLD-SOLID
 62
     7
  0
ARC
  5
395
  8
0
  6
SLD-SOLID
 62
     7
 10
526.3843374747
 20
212.2996389345
 30
0.0
 40
1.999961104159419
 50
0.0021629445
 51
203.9452105207
  0
POLYLINE
  5
396
  8
0
  6
SLD-SOLID
 62
     7
 66
     1
 10
0.0
 20
0.0
 30
0.0
  0
VERTEX
  5
8AA
  8
0
  6
SLD-SOLID
 62
     7
 10
528.2120895828
 20
211.4879289745
 30
0.0
  0
VERTEX
  5
8AB
  8
0
  6
SLD-SOLID
 62
     7
 10
528.2320571388
 20
211.534454125
 30
0.0
  0
VERTEX
  5
8AC
  8
0
  6
SLD-SOLID
 62
     7
 10
528.3842985774
 20
212.299714434
 30
0.0
  0
SEQEND
  5
8AD
  8
0
  6
SLD-SOLID
 62
     7
  0
ARC
  5
397
  8
0
  6
SLD-SOLID
 62
     7
 10
497.3843369239
 20
212.2996398286
 30
0.0
 40
1.999960626660623
 50
0.0021373306
 51
203.9452446221
  0
POLYLINE
  5
398
  8
0
  6
SLD-SOLID
 62
     7
 66
     1
 10
0.0
 20
0.0
 30
0.0
  0
VERTEX
  5
8AE
  8
0
  6
SLD-SOLID
 62
     7
 10
499.2120894859
 20
211.4879289745
 30
0.0
  0
VERTEX
  5
8AF
  8
0
  6
SLD-SOLID
 62
     7
 10
499.2320565762
 20
211.534454125
 30
0.0
  0
VERTEX
  5
8B0
  8
0
  6
SLD-SOLID
 62
     7
 10
499.3842975492
 20
212.299714434
 30
0.0
  0
SEQEND
  5
8B1
  8
0
  6
SLD-SOLID
 62
     7
  0
ARC
  5
399
  8
0
  6
SLD-SOLID
 62
     7
 10
468.3843361467
 20
212.2996396939
 30
0.0
 40
1.999960375748064
 50
0.0021411885
 51
203.9452435934
  0
POLYLINE
  5
39A
  8
0
  6
SLD-SOLID
 62
     7
 66
     1
 10
0.0
 20
0.0
 30
0.0
  0
VERTEX
  5
8B2
  8
0
  6
SLD-SOLID
 62
     7
 10
470.2120893891
 20
211.4879289745
 30
0.0
  0
VERTEX
  5
8B3
  8
0
  6
SLD-SOLID
 62
     7
 10
470.2320569451
 20
211.534454125
 30
0.0
  0
VERTEX
  5
8B4
  8
0
  6
SLD-SOLID
 62
     7
 10
470.384296521
 20
212.299714434
 30
0.0
  0
SEQEND
  5
8B5
  8
0
  6
SLD-SOLID
 62
     7
  0
ARC
  5
39B
  8
0
  6
SLD-SOLID
 62
     7
 10
439.3843368332
 20
212.2996403917
 30
0.0
 40
1.999960523702752
 50
0.0021211983
 51
203.9452635836
  0
POLYLINE
  5
39C
  8
0
  6
SLD-SOLID
 62
     7
 66
     1
 10
0.0
 20
0.0
 30
0.0
  0
VERTEX
  5
8B6
  8
0
  6
SLD-SOLID
 62
     7
 10
441.2120883609
 20
211.4879289745
 30
0.0
  0
VERTEX
  5
8B7
  8
0
  6
SLD-SOLID
 62
     7
 10
441.2320559169
 20
211.534454125
 30
0.0
  0
VERTEX
  5
8B8
  8
0
  6
SLD-SOLID
 62
     7
 10
441.3842973555
 20
212.299714434
 30
0.0
  0
SEQEND
  5
8B9
  8
0
  6
SLD-SOLID
 62
     7
  0
ARC
  5
39D
  8
0
  6
SLD-SOLID
 62
     7
 10
410.3843366725
 20
212.2996366962
 30
0.0
 40
1.999961519013992
 50
0.0022270656
 51
203.9451350829
  0
POLYLINE
  5
39E
  8
0
  6
SLD-SOLID
 62
     7
 66
     1
 10
0.0
 20
0.0
 30
0.0
  0
VERTEX
  5
8BA
  8
0
  6
SLD-SOLID
 62
     7
 10
412.2120929206
 20
211.4879289745
 30
0.0
  0
VERTEX
  5
8BB
  8
0
  6
SLD-SOLID
 62
     7
 10
412.232053026
 20
211.534454125
 30
0.0
  0
VERTEX
  5
8BC
  8
0
  6
SLD-SOLID
 62
     7
 10
412.38429819
 20
212.299714434
 30
0.0
  0
SEQEND
  5
8BD
  8
0
  6
SLD-SOLID
 62
     7
  0
ARC
  5
39F
  8
0
  6
SLD-SOLID
 62
     7
 10
381.3843375069
 20
212.2996366962
 30
0.0
 40
1.999961519013992
 50
0.0022270656
 51
203.9451350829
  0
POLYLINE
  5
3A0
  8
0
  6
SLD-SOLID
 62
     7
 66
     1
 10
0.0
 20
0.0
 30
0.0
  0
VERTEX
  5
8BE
  8
0
  6
SLD-SOLID
 62
     7
 10
383.2120863045
 20
211.4879289745
 30
0.0
  0
VERTEX
  5
8BF
  8
0
  6
SLD-SOLID
 62
     7
 10
383.2320538605
 20
211.534454125
 30
0.0
  0
VERTEX
  5
8C0
  8
0
  6
SLD-SOLID
 62
     7
 10
383.3842990244
 20
212.299714434
 30
0.0
  0
SEQEND
  5
8C1
  8
0
  6
SLD-SOLID
 62
     7
  0
ARC
  5
3A1
  8
0
  6
SLD-SOLID
 62
     7
 10
88.9896772819
 20
194.555499742
 30
0.0
 40
36.43982341515825
 50
88.5932308782
 51
93.3122218667
  0
ARC
  5
3A2
  8
0
  6
SLD-SOLID
 62
     7
 10
90.6565433765
 20
187.1968647268
 30
0.0
 40
43.79428476914034
 50
87.0841736637
 51
91.0103925168
  0
POLYLINE
  5
3A3
  8
0
  6
SLD-SOLID
 62
     7
 66
     1
 10
0.0
 20
0.0
 30
0.0
  0
VERTEX
  5
8C2
  8
0
  6
SLD-SOLID
 62
     7
 10
87.6262230123
 20
210.9700614689
 30
0.0
  0
VERTEX
  5
8C3
  8
0
  6
SLD-SOLID
 62
     7
 10
87.2862083162
 20
210.9621601282
 30
0.0
  0
VERTEX
  5
8C4
  8
0
  6
SLD-SOLID
 62
     7
 10
86.9298619474
 20
210.9458806096
 30
0.0
  0
VERTEX
  5
8C5
  8
0
  6
SLD-SOLID
 62
     7
 10
86.9298619474
 20
210.9285580097
 30
0.0
  0
VERTEX
  5
8C6
  8
0
  6
SLD-SOLID
 62
     7
 10
87.2862083162
 20
210.9122784911
 30
0.0
  0
VERTEX
  5
8C7
  8
0
  6
SLD-SOLID
 62
     7
 10
87.5330907548
 20
210.9062360702
 30
0.0
  0
SEQEND
  5
8C8
  8
0
  6
SLD-SOLID
 62
     7
  0
POLYLINE
  5
3A4
  8
0
  6
SLD-SOLID
 62
     7
 66
     1
 10
0.0
 20
0.0
 30
0.0
  0
VERTEX
  5
8C9
  8
0
  6
SLD-SOLID
 62
     7
 10
92.233066007
 20
210.9061839162
 30
0.0
  0
VERTEX
  5
8CA
  8
0
  6
SLD-SOLID
 62
     7
 10
92.4823624338
 20
210.9122784911
 30
0.0
  0
VERTEX
  5
8CB
  8
0
  6
SLD-SOLID
 62
     7
 10
92.8387088025
 20
210.9285580097
 30
0.0
  0
VERTEX
  5
8CC
  8
0
  6
SLD-SOLID
 62
     7
 10
92.8387088025
 20
210.9458806096
 30
0.0
  0
VERTEX
  5
8CD
  8
0
  6
SLD-SOLID
 62
     7
 10
92.4823624338
 20
210.9621601282
 30
0.0
  0
VERTEX
  5
8CE
  8
0
  6
SLD-SOLID
 62
     7
 10
92.14237754
 20
210.9700614689
 30
0.0
  0
SEQEND
  5
8CF
  8
0
  6
SLD-SOLID
 62
     7
  0
LINE
  5
3A5
  8
0
  6
SLD-SOLID
 62
     7
 10
64.8843092168
 20
217.6913829623
 30
0.0
 11
64.8843092168
 21
211.6867886959
 31
0.0
  0
LINE
  5
3A6
  8
0
  6
SLD-SOLID
 62
     7
 10
93.8842934812
 20
217.6913829623
 30
0.0
 11
93.8842934812
 21
212.1213512598
 31
0.0
  0
LINE
  5
3A7
  8
0
  6
SLD-SOLID
 62
     7
 10
93.8842934812
 20
210.4900727151
 30
0.0
 11
93.8842934812
 21
210.241208422
 31
0.0
  0
LINE
  5
3A8
  8
0
  6
SLD-SOLID
 62
     7
 10
64.8843092168
 20
195.0435401975
 30
0.0
 11
64.8843092168
 21
197.9936571895
 31
0.0
  0
LINE
  5
3A9
  8
0
  6
SLD-SOLID
 62
     7
 10
64.8843092168
 20
191.993656206
 30
0.0
 11
64.8843092168
 21
195.0435401975
 31
0.0
  0
ARC
  5
3AA
  8
0
  6
SLD-SOLID
 62
     7
 10
110.9897654229
 20
201.7630388908
 30
0.0
 40
36.44966437395114
 50
88.5937261138
 51
93.3114421177
  0
ARC
  5
3AB
  8
0
  6
SLD-SOLID
 62
     7
 10
112.6566116662
 20
194.4122657939
 30
0.0
 40
43.79626921199056
 50
87.0844150266
 51
91.0104167419
  0
ARC
  5
3AC
  8
0
  6
SLD-SOLID
 62
     7
 10
120.3842609775
 20
212.2996399808
 30
0.0
 40
1.999955099918817
 50
336.0546802935
 51
179.997867024
  0
POLYLINE
  5
3AD
  8
0
  6
SLD-SOLID
 62
     7
 66
     1
 10
0.0
 20
0.0
 30
0.0
  0
VERTEX
  5
8D0
  8
0
  6
SLD-SOLID
 62
     7
 10
118.5565036977
 20
211.4879289745
 30
0.0
  0
VERTEX
  5
8D1
  8
0
  6
SLD-SOLID
 62
     7
 10
118.5365361417
 20
211.534454125
 30
0.0
  0
VERTEX
  5
8D2
  8
0
  6
SLD-SOLID
 62
     7
 10
118.384305879
 20
212.299714434
 30
0.0
  0
SEQEND
  5
8D3
  8
0
  6
SLD-SOLID
 62
     7
  0
ARC
  5
3AE
  8
0
  6
SLD-SOLID
 62
     7
 10
149.384256896
 20
212.2996278296
 30
0.0
 40
1.999966754523701
 50
336.0552094595
 51
179.9975189253
  0
POLYLINE
  5
3AF
  8
0
  6
SLD-SOLID
 62
     7
 66
     1
 10
0.0
 20
0.0
 30
0.0
  0
VERTEX
  5
8D4
  8
0
  6
SLD-SOLID
 62
     7
 10
147.5565177644
 20
211.4879289745
 30
0.0
  0
VERTEX
  5
8D5
  8
0
  6
SLD-SOLID
 62
     7
 10
147.5365502084
 20
211.534454125
 30
0.0
  0
VERTEX
  5
8D6
  8
0
  6
SLD-SOLID
 62
     7
 10
147.3842901433
 20
212.299714434
 30
0.0
  0
SEQEND
  5
8D7
  8
0
  6
SLD-SOLID
 62
     7
  0
ARC
  5
3B0
  8
0
  6
SLD-SOLID
 62
     7
 10
178.3842623388
 20
212.299654269
 30
0.0
 40
1.999958129651332
 50
336.0542709536
 51
179.9982763639
  0
POLYLINE
  5
3B1
  8
0
  6
SLD-SOLID
 62
     7
 66
     1
 10
0.0
 20
0.0
 30
0.0
  0
VERTEX
  5
8D8
  8
0
  6
SLD-SOLID
 62
     7
 10
176.5565020288
 20
211.4879289745
 30
0.0
  0
VERTEX
  5
8D9
  8
0
  6
SLD-SOLID
 62
     7
 10
176.5365344728
 20
211.534454125
 30
0.0
  0
VERTEX
  5
8DA
  8
0
  6
SLD-SOLID
 62
     7
 10
176.38430421
 20
212.299714434
 30
0.0
  0
SEQEND
  5
8DB
  8
0
  6
SLD-SOLID
 62
     7
  0
ARC
  5
3B2
  8
0
  6
SLD-SOLID
 62
     7
 10
207.3842552271
 20
212.2996278296
 30
0.0
 40
1.999966754523701
 50
336.0552094595
 51
179.9975189253
  0
POLYLINE
  5
3B3
  8
0
  6
SLD-SOLID
 62
     7
 66
     1
 10
0.0
 20
0.0
 30
0.0
  0
VERTEX
  5
8DC
  8
0
  6
SLD-SOLID
 62
     7
 10
205.5565160955
 20
211.4879289745
 30
0.0
  0
VERTEX
  5
8DD
  8
0
  6
SLD-SOLID
 62
     7
 10
205.5365485395
 20
211.534454125
 30
0.0
  0
VERTEX
  5
8DE
  8
0
  6
SLD-SOLID
 62
     7
 10
205.3842884744
 20
212.299714434
 30
0.0
  0
SEQEND
  5
8DF
  8
0
  6
SLD-SOLID
 62
     7
  0
ARC
  5
3B4
  8
0
  6
SLD-SOLID
 62
     7
 10
236.3842606699
 20
212.299654269
 30
0.0
 40
1.999958129651332
 50
336.0542709536
 51
179.9982763639
  0
POLYLINE
  5
3B5
  8
0
  6
SLD-SOLID
 62
     7
 66
     1
 10
0.0
 20
0.0
 30
0.0
  0
VERTEX
  5
8E0
  8
0
  6
SLD-SOLID
 62
     7
 10
234.5565003599
 20
211.4879289745
 30
0.0
  0
VERTEX
  5
8E1
  8
0
  6
SLD-SOLID
 62
     7
 10
234.5365328039
 20
211.534454125
 30
0.0
  0
VERTEX
  5
8E2
  8
0
  6
SLD-SOLID
 62
     7
 10
234.3843025411
 20
212.299714434
 30
0.0
  0
SEQEND
  5
8E3
  8
0
  6
SLD-SOLID
 62
     7
  0
ARC
  5
3B6
  8
0
  6
SLD-SOLID
 62
     7
 10
265.3842583203
 20
212.2996471249
 30
0.0
 40
1.99995661476522
 50
336.0544756244
 51
179.9980716931
  0
POLYLINE
  5
3B7
  8
0
  6
SLD-SOLID
 62
     7
 66
     1
 10
0.0
 20
0.0
 30
0.0
  0
VERTEX
  5
8E4
  8
0
  6
SLD-SOLID
 62
     7
 10
263.5564995254
 20
211.4879289745
 30
0.0
  0
VERTEX
  5
8E5
  8
0
  6
SLD-SOLID
 62
     7
 10
263.5365319694
 20
211.534454125
 30
0.0
  0
VERTEX
  5
8E6
  8
0
  6
SLD-SOLID
 62
     7
 10
263.3843017066
 20
212.299714434
 30
0.0
  0
SEQEND
  5
8E7
  8
0
  6
SLD-SOLID
 62
     7
  0
ARC
  5
3B8
  8
0
  6
SLD-SOLID
 62
     7
 10
294.3842614665
 20
212.2996323432
 30
0.0
 40
1.999960596001054
 50
336.0549896273
 51
179.9976482242
  0
POLYLINE
  5
3B9
  8
0
  6
SLD-SOLID
 62
     7
 66
     1
 10
0.0
 20
0.0
 30
0.0
  0
VERTEX
  5
8E8
  8
0
  6
SLD-SOLID
 62
     7
 10
292.5564986909
 20
211.4879289745
 30
0.0
  0
VERTEX
  5
8E9
  8
0
  6
SLD-SOLID
 62
     7
 10
292.5365311349
 20
211.534454125
 30
0.0
  0
VERTEX
  5
8EA
  8
0
  6
SLD-SOLID
 62
     7
 10
292.3843008722
 20
212.299714434
 30
0.0
  0
SEQEND
  5
8EB
  8
0
  6
SLD-SOLID
 62
     7
  0
ARC
  5
3BA
  8
0
  6
SLD-SOLID
 62
     7
 10
323.384260632
 20
212.2996323432
 30
0.0
 40
1.999960596001054
 50
336.0549896273
 51
179.9976482242
  0
POLYLINE
  5
3BB
  8
0
  6
SLD-SOLID
 62
     7
 66
     1
 10
0.0
 20
0.0
 30
0.0
  0
VERTEX
  5
8EC
  8
0
  6
SLD-SOLID
 62
     7
 10
321.5565127576
 20
211.4879289745
 30
0.0
  0
VERTEX
  5
8ED
  8
0
  6
SLD-SOLID
 62
     7
 10
321.5365452016
 20
211.534454125
 30
0.0
  0
VERTEX
  5
8EE
  8
0
  6
SLD-SOLID
 62
     7
 10
321.3843000377
 20
212.299714434
 30
0.0
  0
SEQEND
  5
8EF
  8
0
  6
SLD-SOLID
 62
     7
  0
ARC
  5
3BC
  8
0
  6
SLD-SOLID
 62
     7
 10
352.3842601288
 20
212.2996339052
 30
0.0
 40
1.99996092720337
 50
336.0549448777
 51
179.9976929738
  0
POLYLINE
  5
3BD
  8
0
  6
SLD-SOLID
 62
     7
 66
     1
 10
0.0
 20
0.0
 30
0.0
  0
VERTEX
  5
8F0
  8
0
  6
SLD-SOLID
 62
     7
 10
350.5565119232
 20
211.4879289745
 30
0.0
  0
VERTEX
  5
8F1
  8
0
  6
SLD-SOLID
 62
     7
 10
350.5365443672
 20
211.534454125
 30
0.0
  0
VERTEX
  5
8F2
  8
0
  6
SLD-SOLID
 62
     7
 10
350.3842992032
 20
212.299714434
 30
0.0
  0
SEQEND
  5
8F3
  8
0
  6
SLD-SOLID
 62
     7
  0
ARC
  5
3BE
  8
0
  6
SLD-SOLID
 62
     7
 10
105.9801019392
 20
170.0979290104
 30
0.0
 40
18.87837887977723
 50
329.5430122683
 51
30.5304251516
  0
ARC
  5
3BF
  8
0
  6
SLD-SOLID
 62
     7
 10
73.7915144688
 20
170.098981264
 30
0.0
 40
18.88122424199178
 50
149.2792594312
 51
210.3760879401
  0
POLYLINE
  5
3C0
  8
0
  6
SLD-SOLID
 62
     7
 66
     1
 10
0.0
 20
0.0
 30
0.0
  0
VERTEX
  5
8F4
  8
0
  6
SLD-SOLID
 62
     7
 10
100.6294531072
 20
195.5265985905
 30
0.0
  0
VERTEX
  5
8F5
  8
0
  6
SLD-SOLID
 62
     7
 10
103.9442164148
 20
194.6224110304
 30
0.0
  0
VERTEX
  5
8F6
  8
0
  6
SLD-SOLID
 62
     7
 10
107.1147066797
 20
193.4818239985
 30
0.0
  0
VERTEX
  5
8F7
  8
0
  6
SLD-SOLID
 62
     7
 10
110.1083797658
 20
192.1165460823
 30
0.0
  0
VERTEX
  5
8F8
  8
0
  6
SLD-SOLID
 62
     7
 10
112.8945392812
 20
190.5405769227
 30
0.0
  0
VERTEX
  5
8F9
  8
0
  6
SLD-SOLID
 62
     7
 10
115.4445749963
 20
188.7700991808
 30
0.0
  0
VERTEX
  5
8FA
  8
0
  6
SLD-SOLID
 62
     7
 10
117.7323502744
 20
186.8232736467
 30
0.0
  0
VERTEX
  5
8FB
  8
0
  6
SLD-SOLID
 62
     7
 10
119.7343510831
 20
184.7200790523
 30
0.0
  0
VERTEX
  5
8FC
  8
0
  6
SLD-SOLID
 62
     7
 10
121.4300436223
 20
182.482097867
 30
0.0
  0
VERTEX
  5
8FD
  8
0
  6
SLD-SOLID
 62
     7
 10
122.8020233358
 20
180.1322927801
 30
0.0
  0
VERTEX
  5
8FE
  8
0
  6
SLD-SOLID
 62
     7
 10
123.8362533296
 20
177.6947775958
 30
0.0
  0
VERTEX
  5
8FF
  8
0
  6
SLD-SOLID
 62
     7
 10
124.5220643724
 20
175.1945639132
 30
0.0
  0
VERTEX
  5
900
  8
0
  6
SLD-SOLID
 62
     7
 10
124.8524529184
 20
172.6573078065
 30
0.0
  0
VERTEX
  5
901
  8
0
  6
SLD-SOLID
 62
     7
 10
124.884311601
 20
171.5846365421
 30
0.0
  0
SEQEND
  5
902
  8
0
  6
SLD-SOLID
 62
     7
  0
POLYLINE
  5
3C1
  8
0
  6
SLD-SOLID
 62
     7
 66
     1
 10
0.0
 20
0.0
 30
0.0
  0
VERTEX
  5
903
  8
0
  6
SLD-SOLID
 62
     7
 10
54.8842889512
 20
171.5846365421
 30
0.0
  0
VERTEX
  5
904
  8
0
  6
SLD-SOLID
 62
     7
 10
54.9445492471
 20
173.0602277546
 30
0.0
  0
VERTEX
  5
905
  8
0
  6
SLD-SOLID
 62
     7
 10
55.331502601
 20
175.5933506517
 30
0.0
  0
VERTEX
  5
906
  8
0
  6
SLD-SOLID
 62
     7
 10
56.0730439866
 20
178.0853370307
 30
0.0
  0
VERTEX
  5
907
  8
0
  6
SLD-SOLID
 62
     7
 10
57.1614844049
 20
180.5106183617
 30
0.0
  0
VERTEX
  5
908
  8
0
  6
SLD-SOLID
 62
     7
 10
58.5857373918
 20
182.8443059801
 30
0.0
  0
VERTEX
  5
909
  8
0
  6
SLD-SOLID
 62
     7
 10
60.3311700071
 20
185.0624555825
 30
0.0
  0
VERTEX
  5
90A
  8
0
  6
SLD-SOLID
 62
     7
 10
62.3798114503
 20
187.1423037826
 30
0.0
  0
VERTEX
  5
90B
  8
0
  6
SLD-SOLID
 62
     7
 10
64.7107106889
 20
189.0625083922
 30
0.0
  0
VERTEX
  5
90C
  8
0
  6
SLD-SOLID
 62
     7
 10
67.299936458
 20
190.803366351
 30
0.0
  0
VERTEX
  5
90D
  8
0
  6
SLD-SOLID
 62
     7
 10
70.1209050859
 20
192.347014892
 30
0.0
  0
VERTEX
  5
90E
  8
0
  6
SLD-SOLID
 62
     7
 10
73.1446487153
 20
193.6776140808
 30
0.0
  0
VERTEX
  5
90F
  8
0
  6
SLD-SOLID
 62
     7
 10
76.3402027334
 20
194.7815107285
 30
0.0
  0
VERTEX
  5
910
  8
0
  6
SLD-SOLID
 62
     7
 10
79.6746951784
 20
195.6473725019
 30
0.0
  0
VERTEX
  5
911
  8
0
  6
SLD-SOLID
 62
     7
 10
83.1139725889
 20
196.2663220345
 30
0.0
  0
VERTEX
  5
912
  8
0
  6
SLD-SOLID
 62
     7
 10
86.6227192129
 20
196.6320002554
 30
0.0
  0
VERTEX
  5
913
  8
0
  6
SLD-SOLID
 62
     7
 10
90.1649338449
 20
196.7406595229
 30
0.0
  0
VERTEX
  5
914
  8
0
  6
SLD-SOLID
 62
     7
 10
93.704287454
 20
196.5911859749
 30
0.0
  0
VERTEX
  5
915
  8
0
  6
SLD-SOLID
 62
     7
 10
97.2044212068
 20
196.1851069807
 30
0.0
  0
VERTEX
  5
916
  8
0
  6
SLD-SOLID
 62
     7
 10
100.6294531072
 20
195.5265985905
 30
0.0
  0
SEQEND
  5
917
  8
0
  6
SLD-SOLID
 62
     7
  0
POLYLINE
  5
3C2
  8
0
  6
SLD-SOLID
 62
     7
 66
     1
 10
0.0
 20
0.0
 30
0.0
  0
VERTEX
  5
918
  8
0
  6
SLD-SOLID
 62
     7
 10
94.4893700326
 20
174.892962548
 30
0.0
  0
VERTEX
  5
919
  8
0
  6
SLD-SOLID
 62
     7
 10
96.6145438398
 20
174.2674453287
 30
0.0
  0
VERTEX
  5
91A
  8
0
  6
SLD-SOLID
 62
     7
 10
98.5820037568
 20
173.4160861103
 30
0.0
  0
VERTEX
  5
91B
  8
0
  6
SLD-SOLID
 62
     7
 10
100.3455859865
 20
172.3588356851
 30
0.0
  0
VERTEX
  5
91C
  8
0
  6
SLD-SOLID
 62
     7
 10
101.8639547075
 20
171.120480272
 30
0.0
  0
VERTEX
  5
91D
  8
0
  6
SLD-SOLID
 62
     7
 10
103.1015259469
 20
169.7300417452
 30
0.0
  0
VERTEX
  5
91E
  8
0
  6
SLD-SOLID
 62
     7
 10
104.0293020452
 20
168.220111738
 30
0.0
  0
VERTEX
  5
91F
  8
0
  6
SLD-SOLID
 62
     7
 10
104.6255273069
 20
166.6260833024
 30
0.0
  0
VERTEX
  5
920
  8
0
  6
SLD-SOLID
 62
     7
 10
104.8762542451
 20
164.9853173746
 30
0.0
  0
VERTEX
  5
921
  8
0
  6
SLD-SOLID
 62
     7
 10
104.8843008722
 20
164.6321216701
 30
0.0
  0
SEQEND
  5
922
  8
0
  6
SLD-SOLID
 62
     7
  0
POLYLINE
  5
3C3
  8
0
  6
SLD-SOLID
 62
     7
 66
     1
 10
0.0
 20
0.0
 30
0.0
  0
VERTEX
  5
923
  8
0
  6
SLD-SOLID
 62
     7
 10
74.8842996801
 20
164.6321216701
 30
0.0
  0
VERTEX
  5
924
  8
0
  6
SLD-SOLID
 62
     7
 10
74.8987240041
 20
165.1048349319
 30
0.0
  0
VERTEX
  5
925
  8
0
  6
SLD-SOLID
 62
     7
 10
75.1747531141
 20
166.7435007273
 30
0.0
  0
VERTEX
  5
926
  8
0
  6
SLD-SOLID
 62
     7
 10
75.7955354894
 20
168.3326769723
 30
0.0
  0
VERTEX
  5
927
  8
0
  6
SLD-SOLID
 62
     7
 10
76.7465573991
 20
169.835116352
 30
0.0
  0
VERTEX
  5
928
  8
0
  6
SLD-SOLID
 62
     7
 10
78.0055267061
 20
171.2156018345
 30
0.0
  0
VERTEX
  5
929
  8
0
  6
SLD-SOLID
 62
     7
 10
79.5429093088
 20
172.4417755483
 30
0.0
  0
VERTEX
  5
92A
  8
0
  6
SLD-SOLID
 62
     7
 10
81.3227040018
 20
173.4848978101
 30
0.0
  0
VERTEX
  5
92B
  8
0
  6
SLD-SOLID
 62
     7
 10
83.3031577314
 20
174.3205176769
 30
0.0
  0
VERTEX
  5
92C
  8
0
  6
SLD-SOLID
 62
     7
 10
85.4378682817
 20
174.9290494351
 30
0.0
  0
VERTEX
  5
92D
  8
0
  6
SLD-SOLID
 62
     7
 10
87.6768273557
 20
175.2962326734
 30
0.0
  0
VERTEX
  5
92E
  8
0
  6
SLD-SOLID
 62
     7
 10
89.9674934591
 20
175.4134563832
 30
0.0
  0
VERTEX
  5
92F
  8
0
  6
SLD-SOLID
 62
     7
 10
92.2562224115
 20
175.2779750256
 30
0.0
  0
VERTEX
  5
930
  8
0
  6
SLD-SOLID
 62
     7
 10
94.4893700326
 20
174.892962548
 30
0.0
  0
SEQEND
  5
931
  8
0
  6
SLD-SOLID
 62
     7
  0
ARC
  5
3C4
  8
0
  6
SLD-SOLID
 62
     7
 10
660.1082928887
 20
170.0825794074
 30
0.0
 40
18.75935128539314
 50
329.5588330631
 51
16.3084708802
  0
ARC
  5
3C5
  8
0
  6
SLD-SOLID
 62
     7
 10
627.7228943196
 20
170.0936085742
 30
0.0
 40
18.82227461435624
 50
149.7691041892
 51
211.108771678
  0
ARC
  5
3C6
  8
0
  6
SLD-SOLID
 62
     7
 10
660.5396155618
 20
171.5734019513
 30
0.0
 40
18.34468970412481
 50
0.0350888833
 51
16.6753437714
  0
POLYLINE
  5
3C7
  8
0
  6
SLD-SOLID
 62
     7
 66
     1
 10
0.0
 20
0.0
 30
0.0
  0
VERTEX
  5
932
  8
0
  6
SLD-SOLID
 62
     7
 10
608.8842940772
 20
171.5846365421
 30
0.0
  0
VERTEX
  5
933
  8
0
  6
SLD-SOLID
 62
     7
 10
609.0377536858
 20
173.9378186046
 30
0.0
  0
VERTEX
  5
934
  8
0
  6
SLD-SOLID
 62
     7
 10
609.5477608288
 20
176.4596613227
 30
0.0
  0
VERTEX
  5
935
  8
0
  6
SLD-SOLID
 62
     7
 10
610.4100984777
 20
178.93147898
 30
0.0
  0
VERTEX
  5
936
  8
0
  6
SLD-SOLID
 62
     7
 10
611.6159376944
 20
181.3279079376
 30
0.0
  0
VERTEX
  5
937
  8
0
  6
SLD-SOLID
 62
     7
 10
613.1528807128
 20
183.6243575542
 30
0.0
  0
VERTEX
  5
938
  8
0
  6
SLD-SOLID
 62
     7
 10
615.0051770056
 20
185.7972635059
 30
0.0
  0
VERTEX
  5
939
  8
0
  6
SLD-SOLID
 62
     7
 10
617.1538126911
 20
187.8243299304
 30
0.0
  0
VERTEX
  5
93A
  8
0
  6
SLD-SOLID
 62
     7
 10
619.5767415012
 20
189.6847548066
 30
0.0
  0
VERTEX
  5
93B
  8
0
  6
SLD-SOLID
 62
     7
 10
622.2491008485
 20
191.3594478844
 30
0.0
  0
VERTEX
  5
93C
  8
0
  6
SLD-SOLID
 62
     7
 10
625.1434576953
 20
192.8312243997
 30
0.0
  0
VERTEX
  5
93D
  8
0
  6
SLD-SOLID
 62
     7
 10
628.2301289285
 20
194.0849820255
 30
0.0
  0
VERTEX
  5
93E
  8
0
  6
SLD-SOLID
 62
     7
 10
631.4774197782
 20
195.1078536092
 30
0.0
  0
VERTEX
  5
93F
  8
0
  6
SLD-SOLID
 62
     7
 10
634.8520261491
 20
195.8893487333
 30
0.0
  0
VERTEX
  5
940
  8
0
  6
SLD-SOLID
 62
     7
 10
638.3193326438
 20
196.4214431225
 30
0.0
  0
VERTEX
  5
941
  8
0
  6
SLD-SOLID
 62
     7
 10
641.8437254871
 20
196.6986755012
 30
0.0
  0
VERTEX
  5
942
  8
0
  6
SLD-SOLID
 62
     7
 10
645.389069363
 20
196.7182071982
 30
0.0
  0
VERTEX
  5
943
  8
0
  6
SLD-SOLID
 62
     7
 10
648.9189607347
 20
196.4798333226
 30
0.0
  0
VERTEX
  5
944
  8
0
  6
SLD-SOLID
 62
     7
 10
652.3971897806
 20
195.9860013901
 30
0.0
  0
VERTEX
  5
945
  8
0
  6
SLD-SOLID
 62
     7
 10
655.7880831207
 20
195.2417777954
 30
0.0
  0
VERTEX
  5
946
  8
0
  6
SLD-SOLID
 62
     7
 10
659.0568018402
 20
194.254803109
 30
0.0
  0
VERTEX
  5
947
  8
0
  6
SLD-SOLID
 62
     7
 10
662.1698481286
 20
193.0351989447
 30
0.0
  0
VERTEX
  5
948
  8
0
  6
SLD-SOLID
 62
     7
 10
665.0952589954
 20
191.5954822777
 30
0.0
  0
VERTEX
  5
949
  8
0
  6
SLD-SOLID
 62
     7
 10
667.8030086006
 20
189.9504276095
 30
0.0
  0
VERTEX
  5
94A
  8
0
  6
SLD-SOLID
 62
     7
 10
670.2653211797
 20
188.1169179557
 30
0.0
  0
VERTEX
  5
94B
  8
0
  6
SLD-SOLID
 62
     7
 10
672.4569392646
 20
186.1137604444
 30
0.0
  0
VERTEX
  5
94C
  8
0
  6
SLD-SOLID
 62
     7
 10
674.3553472007
 20
183.9615168153
 30
0.0
  0
VERTEX
  5
94D
  8
0
  6
SLD-SOLID
 62
     7
 10
675.9410989726
 20
181.6822705893
 30
0.0
  0
VERTEX
  5
94E
  8
0
  6
SLD-SOLID
 62
     7
 10
677.1978927101
 20
179.2994072764
 30
0.0
  0
VERTEX
  5
94F
  8
0
  6
SLD-SOLID
 62
     7
 10
678.1128389085
 20
176.8373796819
 30
0.0
  0
SEQEND
  5
950
  8
0
  6
SLD-SOLID
 62
     7
  0
POLYLINE
  5
3C8
  8
0
  6
SLD-SOLID
 62
     7
 66
     1
 10
0.0
 20
0.0
 30
0.0
  0
VERTEX
  5
951
  8
0
  6
SLD-SOLID
 62
     7
 10
658.5536790336
 20
166.8832978337
 30
0.0
  0
VERTEX
  5
952
  8
0
  6
SLD-SOLID
 62
     7
 10
658.8598531927
 20
165.247402723
 30
0.0
  0
VERTEX
  5
953
  8
0
  6
SLD-SOLID
 62
     7
 10
658.884291097
 20
164.6321216701
 30
0.0
  0
SEQEND
  5
954
  8
0
  6
SLD-SOLID
 62
     7
  0
POLYLINE
  5
3C9
  8
0
  6
SLD-SOLID
 62
     7
 66
     1
 10
0.0
 20
0.0
 30
0.0
  0
VERTEX
  5
955
  8
0
  6
SLD-SOLID
 62
     7
 10
628.8843048061
 20
164.6321216701
 30
0.0
  0
VERTEX
  5
956
  8
0
  6
SLD-SOLID
 62
     7
 10
628.8871509279
 20
164.8426173358
 30
0.0
  0
VERTEX
  5
957
  8
0
  6
SLD-SOLID
 62
     7
 10
629.1076136077
 20
166.4856249569
 30
0.0
  0
VERTEX
  5
958
  8
0
  6
SLD-SOLID
 62
     7
 10
629.6744388784
 20
168.0851873113
 30
0.0
  0
VERTEX
  5
959
  8
0
  6
SLD-SOLID
 62
     7
 10
630.5743200029
 20
169.6038140087
 30
0.0
  0
VERTEX
  5
95A
  8
0
  6
SLD-SOLID
 62
     7
 10
631.7861867393
 20
171.0059071063
 30
0.0
  0
VERTEX
  5
95B
  8
0
  6
SLD-SOLID
 62
     7
 10
633.2816076721
 20
172.258604887
 30
0.0
  0
VERTEX
  5
95C
  8
0
  6
SLD-SOLID
 62
     7
 10
635.0255501712
 20
173.3325446127
 30
0.0
  0
VERTEX
  5
95D
  8
0
  6
SLD-SOLID
 62
     7
 10
636.9771403516
 20
174.202554497
 30
0.0
  0
VERTEX
  5
95E
  8
0
  6
SLD-SOLID
 62
     7
 10
639.0906316484
 20
174.848240438
 30
0.0
  0
VERTEX
  5
95F
  8
0
  6
SLD-SOLID
 62
     7
 10
641.3164777006
 20
175.2544684438
 30
0.0
  0
VERTEX
  5
960
  8
0
  6
SLD-SOLID
 62
     7
 10
643.6025095428
 20
175.4117185353
 30
0.0
  0
VERTEX
  5
961
  8
0
  6
SLD-SOLID
 62
     7
 10
645.8951425994
 20
175.3163045375
 30
0.0
  0
VERTEX
  5
962
  8
0
  6
SLD-SOLID
 62
     7
 10
648.1406432832
 20
174.9704616247
 30
0.0
  0
VERTEX
  5
963
  8
0
  6
SLD-SOLID
 62
     7
 10
650.286395594
 20
174.3822978912
 30
0.0
  0
VERTEX
  5
964
  8
0
  6
SLD-SOLID
 62
     7
 10
652.2820634092
 20
173.5655969112
 30
0.0
  0
VERTEX
  5
965
  8
0
  6
SLD-SOLID
 62
     7
 10
654.0809166873
 20
172.5395029514
 30
0.0
  0
VERTEX
  5
966
  8
0
  6
SLD-SOLID
 62
     7
 10
655.6407553399
 20
171.328066486
 30
0.0
  0
VERTEX
  5
967
  8
0
  6
SLD-SOLID
 62
     7
 10
656.9250417198
 20
169.9596844716
 30
0.0
  0
VERTEX
  5
968
  8
0
  6
SLD-SOLID
 62
     7
 10
657.90366058
 20
168.4664270012
 30
0.0
  0
VERTEX
  5
969
  8
0
  6
SLD-SOLID
 62
     7
 10
658.5536790336
 20
166.8832978337
 30
0.0
  0
SEQEND
  5
96A
  8
0
  6
SLD-SOLID
 62
     7
  0
LINE
  5
3CA
  8
0
  6
SLD-SOLID
 62
     7
 10
64.6843058313
 20
151.1554965852
 30
0.0
 11
64.6843058313
 21
152.4602764855
 31
0.0
  0
LINE
  5
3CB
  8
0
  6
SLD-SOLID
 62
     7
 10
124.3786257947
 20
165.8367566867
 30
0.0
 11
609.3899724329
 21
165.8367566867
 31
0.0
  0
LINE
  5
3CC
  8
0
  6
SLD-SOLID
 62
     7
 10
669.084299847
 20
151.1554965852
 30
0.0
 11
669.084299847
 21
152.4518449894
 31
0.0
  0
LINE
  5
3CD
  8
0
  6
SLD-SOLID
 62
     7
 10
667.8343010391
 20
151.1554965852
 30
0.0
 11
669.084299847
 21
151.1554965852
 31
0.0
  0
LINE
  5
3CE
  8
0
  6
SLD-SOLID
 62
     7
 10
64.6843058313
 20
151.1554965852
 30
0.0
 11
65.9343046392
 21
151.1554965852
 31
0.0
  0
LINE
  5
3CF
  8
0
  6
SLD-SOLID
 62
     7
 10
124.4471115316
 20
166.133851382
 30
0.0
 11
609.3214792455
 21
166.133851382
 31
0.0
  0
LINE
  5
3D0
  8
0
  6
SLD-SOLID
 62
     7
 10
63.8842922891
 20
188.4258749066
 30
0.0
 11
63.8842922891
 21
190.3894158183
 31
0.0
  0
LINE
  5
3D1
  8
0
  6
SLD-SOLID
 62
     7
 10
63.8842922891
 20
190.3894158183
 30
0.0
 11
64.6843058313
 21
190.3894158183
 31
0.0
  0
LINE
  5
3D2
  8
0
  6
SLD-SOLID
 62
     7
 10
64.6843058313
 20
189.0428239582
 30
0.0
 11
64.6843058313
 21
190.3894158183
 31
0.0
  0
LINE
  5
3D3
  8
0
  6
SLD-SOLID
 62
     7
 10
669.884298488
 20
190.3894158183
 30
0.0
 11
669.084299847
 21
190.3894158183
 31
0.0
  0
LINE
  5
3D4
  8
0
  6
SLD-SOLID
 62
     7
 10
669.884298488
 20
190.3894158183
 30
0.0
 11
669.884298488
 21
188.4258749066
 31
0.0
  0
LINE
  5
3D5
  8
0
  6
SLD-SOLID
 62
     7
 10
669.084299847
 20
190.3894158183
 30
0.0
 11
669.084299847
 21
189.0428239582
 31
0.0
  0
LINE
  5
3D6
  8
0
  6
SLD-SOLID
 62
     7
 10
63.8842922891
 20
151.4897277682
 30
0.0
 11
64.6843058313
 21
151.4897277682
 31
0.0
  0
LINE
  5
3D7
  8
0
  6
SLD-SOLID
 62
     7
 10
63.8842922891
 20
151.4897277682
 30
0.0
 11
63.8842922891
 21
153.0649623471
 31
0.0
  0
LINE
  5
3D8
  8
0
  6
SLD-SOLID
 62
     7
 10
669.884298488
 20
151.4897277682
 30
0.0
 11
669.084299847
 21
151.4897277682
 31
0.0
  0
LINE
  5
3D9
  8
0
  6
SLD-SOLID
 62
     7
 10
669.884298488
 20
153.0947132139
 30
0.0
 11
669.884298488
 21
151.4897277682
 31
0.0
  0
LINE
  5
3DA
  8
0
  6
SLD-SOLID
 62
     7
 10
667.8343010391
 20
151.1554965852
 30
0.0
 11
667.8343010391
 21
149.8668008587
 31
0.0
  0
LINE
  5
3DB
  8
0
  6
SLD-SOLID
 62
     7
 10
65.9343046392
 20
149.8668008587
 30
0.0
 11
68.6735552991
 21
149.8668008587
 31
0.0
  0
LINE
  5
3DC
  8
0
  6
SLD-SOLID
 62
     7
 10
111.0594612802
 20
149.8668008587
 30
0.0
 11
622.6719510997
 21
149.8668008587
 31
0.0
  0
LINE
  5
3DD
  8
0
  6
SLD-SOLID
 62
     7
 10
665.0596899236
 20
149.8668008587
 30
0.0
 11
667.8343010391
 21
149.8668008587
 31
0.0
  0
LINE
  5
3DE
  8
0
  6
SLD-SOLID
 62
     7
 10
65.9343046392
 20
149.8668008587
 30
0.0
 11
65.9343046392
 21
151.1554965852
 31
0.0
  0
ARC
  5
3DF
  8
0
  6
SLD-SOLID
 62
     7
 10
65.9342974375
 20
151.9168007872
 30
0.0
 40
2.049999999999983
 50
192.0244042046
 51
270.0
  0
ARC
  5
3E0
  8
0
  6
SLD-SOLID
 62
     7
 10
65.9342974375
 20
151.9168007872
 30
0.0
 40
1.249999999999976
 50
217.5203558383
 51
270.0
  0
ARC
  5
3E1
  8
0
  6
SLD-SOLID
 62
     7
 10
667.8342974375
 20
151.9168007872
 30
0.0
 40
2.050000000000011
 50
270.0
 51
347.9755957955
  0
ARC
  5
3E2
  8
0
  6
SLD-SOLID
 62
     7
 10
667.8342974375
 20
151.9168007872
 30
0.0
 40
1.249999999999972
 50
270.0
 51
322.4796441617
  0
LINE
  5
3E3
  8
0
  6
SLD-SOLID
 62
     7
 10
124.8563570226
 20
172.5894181161
 30
0.0
 11
608.9122263039
 21
172.5894181161
 31
0.0
  0
LINE
  5
3E4
  8
0
  6
SLD-SOLID
 62
     7
 10
669.0772217954
 20
189.048095244
 30
0.0
 11
669.0772217954
 21
190.3894158183
 31
0.0
  0
LINE
  5
3E5
  8
0
  6
SLD-SOLID
 62
     7
 10
64.6913689817
 20
190.3894158183
 30
0.0
 11
66.6352254594
 21
190.3894158183
 31
0.0
  0
LINE
  5
3E6
  8
0
  6
SLD-SOLID
 62
     7
 10
667.1333802188
 20
190.3894158183
 30
0.0
 11
669.0772217954
 21
190.3894158183
 31
0.0
  0
LINE
  5
3E7
  8
0
  6
SLD-SOLID
 62
     7
 10
64.6913689817
 20
189.048095244
 30
0.0
 11
64.6913689817
 21
190.3894158183
 31
0.0
  0
ARC
  5
3E8
  8
0
  6
SLD-SOLID
 62
     7
 10
643.8666970065
 20
142.5835724254
 30
0.0
 40
17.67079431160282
 50
65.056674005
 51
110.6462519635
  0
POLYLINE
  5
3E9
  8
0
  6
SLD-SOLID
 62
     7
 66
     1
 10
0.0
 20
0.0
 30
0.0
  0
VERTEX
  5
96B
  8
0
  6
SLD-SOLID
 62
     7
 10
632.6775891031
 20
156.0688069309
 30
0.0
  0
VERTEX
  5
96C
  8
0
  6
SLD-SOLID
 62
     7
 10
632.4483496393
 20
156.2599751503
 30
0.0
  0
VERTEX
  5
96D
  8
0
  6
SLD-SOLID
 62
     7
 10
631.1131012882
 20
157.5957973125
 30
0.0
  0
VERTEX
  5
96E
  8
0
  6
SLD-SOLID
 62
     7
 10
630.0772023643
 20
159.0624666876
 30
0.0
  0
VERTEX
  5
96F
  8
0
  6
SLD-SOLID
 62
     7
 10
629.3649268592
 20
160.6256054817
 30
0.0
  0
VERTEX
  5
970
  8
0
  6
SLD-SOLID
 62
     7
 10
628.9929789747
 20
162.2485747664
 30
0.0
  0
VERTEX
  5
971
  8
0
  6
SLD-SOLID
 62
     7
 10
628.9700609888
 20
163.8933342053
 30
0.0
  0
VERTEX
  5
972
  8
0
  6
SLD-SOLID
 62
     7
 10
629.2967242444
 20
165.5213317005
 30
0.0
  0
VERTEX
  5
973
  8
0
  6
SLD-SOLID
 62
     7
 10
629.9653095449
 20
167.0944072409
 30
0.0
  0
VERTEX
  5
974
  8
0
  6
SLD-SOLID
 62
     7
 10
630.9601408685
 20
168.5756916283
 30
0.0
  0
VERTEX
  5
975
  8
0
  6
SLD-SOLID
 62
     7
 10
632.2579127992
 20
169.9304632945
 30
0.0
  0
VERTEX
  5
976
  8
0
  6
SLD-SOLID
 62
     7
 10
633.8281971658
 20
171.1269678651
 30
0.0
  0
VERTEX
  5
977
  8
0
  6
SLD-SOLID
 62
     7
 10
635.634173199
 20
172.1371585606
 30
0.0
  0
VERTEX
  5
978
  8
0
  6
SLD-SOLID
 62
     7
 10
637.6335365022
 20
172.9373602299
 30
0.0
  0
VERTEX
  5
979
  8
0
  6
SLD-SOLID
 62
     7
 10
639.7794080223
 20
173.5088160364
 30
0.0
  0
VERTEX
  5
97A
  8
0
  6
SLD-SOLID
 62
     7
 10
642.0214963401
 20
173.8381316988
 30
0.0
  0
VERTEX
  5
97B
  8
0
  6
SLD-SOLID
 62
     7
 10
644.3072450603
 20
173.9175865529
 30
0.0
  0
VERTEX
  5
97C
  8
0
  6
SLD-SOLID
 62
     7
 10
646.5830845083
 20
173.7453198163
 30
0.0
  0
VERTEX
  5
97D
  8
0
  6
SLD-SOLID
 62
     7
 10
648.795668527
 20
173.325367841
 30
0.0
  0
VERTEX
  5
97E
  8
0
  6
SLD-SOLID
 62
     7
 10
650.8931261743
 20
172.6675765692
 30
0.0
  0
VERTEX
  5
97F
  8
0
  6
SLD-SOLID
 62
     7
 10
652.8263134206
 20
171.7873612522
 30
0.0
  0
VERTEX
  5
980
  8
0
  6
SLD-SOLID
 62
     7
 10
654.5499009336
 20
170.7053553416
 30
0.0
  0
VERTEX
  5
981
  8
0
  6
SLD-SOLID
 62
     7
 10
656.0234916652
 20
169.4469196825
 30
0.0
  0
VERTEX
  5
982
  8
0
  6
SLD-SOLID
 62
     7
 10
657.212559625
 20
168.0415501921
 30
0.0
  0
VERTEX
  5
983
  8
0
  6
SLD-SOLID
 62
     7
 10
658.0892098392
 20
166.5221877499
 30
0.0
  0
VERTEX
  5
984
  8
0
  6
SLD-SOLID
 62
     7
 10
658.6329234088
 20
164.9244461311
 30
0.0
  0
VERTEX
  5
985
  8
0
  6
SLD-SOLID
 62
     7
 10
658.8309300388
 20
163.2857738166
 30
0.0
  0
VERTEX
  5
986
  8
0
  6
SLD-SOLID
 62
     7
 10
658.6786103691
 20
161.6445794804
 30
0.0
  0
VERTEX
  5
987
  8
0
  6
SLD-SOLID
 62
     7
 10
658.1795257772
 20
160.0393327987
 30
0.0
  0
VERTEX
  5
988
  8
0
  6
SLD-SOLID
 62
     7
 10
657.3453587736
 20
158.5076582721
 30
0.0
  0
VERTEX
  5
989
  8
0
  6
SLD-SOLID
 62
     7
 10
656.195689484
 20
157.0854575709
 30
0.0
  0
VERTEX
  5
98A
  8
0
  6
SLD-SOLID
 62
     7
 10
655.058745786
 20
156.042623437
 30
0.0
  0
SEQEND
  5
98B
  8
0
  6
SLD-SOLID
 62
     7
  0
POLYLINE
  5
3EA
  8
0
  6
SLD-SOLID
 62
     7
 66
     1
 10
0.0
 20
0.0
 30
0.0
  0
VERTEX
  5
98C
  8
0
  6
SLD-SOLID
 62
     7
 10
631.8436456169
 20
156.8118653829
 30
0.0
  0
VERTEX
  5
98D
  8
0
  6
SLD-SOLID
 62
     7
 10
631.0681444848
 20
157.6395603931
 30
0.0
  0
VERTEX
  5
98E
  8
0
  6
SLD-SOLID
 62
     7
 10
630.0285947765
 20
159.111392322
 30
0.0
  0
VERTEX
  5
98F
  8
0
  6
SLD-SOLID
 62
     7
 10
629.3138158763
 20
160.68003337
 30
0.0
  0
VERTEX
  5
990
  8
0
  6
SLD-SOLID
 62
     7
 10
628.9405566896
 20
162.3087153873
 30
0.0
  0
VERTEX
  5
991
  8
0
  6
SLD-SOLID
 62
     7
 10
628.9175641979
 20
163.959264393
 30
0.0
  0
VERTEX
  5
992
  8
0
  6
SLD-SOLID
 62
     7
 10
629.245374843
 20
165.592992316
 30
0.0
  0
VERTEX
  5
993
  8
0
  6
SLD-SOLID
 62
     7
 10
629.9163145269
 20
167.1716055004
 30
0.0
  0
VERTEX
  5
994
  8
0
  6
SLD-SOLID
 62
     7
 10
630.9146476234
 20
168.6581034316
 30
0.0
  0
VERTEX
  5
995
  8
0
  6
SLD-SOLID
 62
     7
 10
632.2169942106
 20
170.0176434694
 30
0.0
  0
VERTEX
  5
996
  8
0
  6
SLD-SOLID
 62
     7
 10
633.7927920068
 20
171.218360412
 30
0.0
  0
VERTEX
  5
997
  8
0
  6
SLD-SOLID
 62
     7
 10
635.6051308359
 20
172.2321068971
 30
0.0
  0
VERTEX
  5
998
  8
0
  6
SLD-SOLID
 62
     7
 10
637.6115274871
 20
173.0351267485
 30
0.0
  0
VERTEX
  5
999
  8
0
  6
SLD-SOLID
 62
     7
 10
639.7649538959
 20
173.6085923491
 30
0.0
  0
VERTEX
  5
99A
  8
0
  6
SLD-SOLID
 62
     7
 10
642.0149398292
 20
173.9390665768
 30
0.0
  0
VERTEX
  5
99B
  8
0
  6
SLD-SOLID
 62
     7
 10
644.3087351764
 20
174.0188008277
 30
0.0
  0
VERTEX
  5
99C
  8
0
  6
SLD-SOLID
 62
     7
 10
646.5925914491
 20
173.8459287314
 30
0.0
  0
VERTEX
  5
99D
  8
0
  6
SLD-SOLID
 62
     7
 10
648.812953874
 20
173.4244996785
 30
0.0
  0
VERTEX
  5
99E
  8
0
  6
SLD-SOLID
 62
     7
 10
650.9178024972
 20
172.7643912761
 30
0.0
  0
VERTEX
  5
99F
  8
0
  6
SLD-SOLID
 62
     7
 10
652.8577846731
 20
171.8810783802
 30
0.0
  0
VERTEX
  5
9A0
  8
0
  6
SLD-SOLID
 62
     7
 10
654.5874369586
 20
170.7952642916
 30
0.0
  0
VERTEX
  5
9A1
  8
0
  6
SLD-SOLID
 62
     7
 10
656.0662132944
 20
169.532398331
 30
0.0
  0
VERTEX
  5
9A2
  8
0
  6
SLD-SOLID
 62
     7
 10
657.2594684804
 20
168.1220816551
 30
0.0
  0
VERTEX
  5
9A3
  8
0
  6
SLD-SOLID
 62
     7
 10
658.1392181362
 20
166.5973715587
 30
0.0
  0
VERTEX
  5
9A4
  8
0
  6
SLD-SOLID
 62
     7
 10
658.6848390544
 20
164.9940056829
 30
0.0
  0
VERTEX
  5
9A5
  8
0
  6
SLD-SOLID
 62
     7
 10
658.883546039
 20
163.3495647563
 30
0.0
  0
VERTEX
  5
9A6
  8
0
  6
SLD-SOLID
 62
     7
 10
658.7306899274
 20
161.7025943576
 30
0.0
  0
VERTEX
  5
9A7
  8
0
  6
SLD-SOLID
 62
     7
 10
658.2298469985
 20
160.0916968761
 30
0.0
  0
VERTEX
  5
9A8
  8
0
  6
SLD-SOLID
 62
     7
 10
657.3927444662
 20
158.5546309231
 30
0.0
  0
VERTEX
  5
9A9
  8
0
  6
SLD-SOLID
 62
     7
 10
656.2390220607
 20
157.1274241303
 30
0.0
  0
VERTEX
  5
9AA
  8
0
  6
SLD-SOLID
 62
     7
 10
655.9249502862
 20
156.8118653829
 30
0.0
  0
SEQEND
  5
9AB
  8
0
  6
SLD-SOLID
 62
     7
  0
POLYLINE
  5
3EB
  8
0
  6
SLD-SOLID
 62
     7
 66
     1
 10
0.0
 20
0.0
 30
0.0
  0
VERTEX
  5
9AC
  8
0
  6
SLD-SOLID
 62
     7
 10
628.8843048061
 20
164.6321216701
 30
0.0
  0
VERTEX
  5
9AD
  8
0
  6
SLD-SOLID
 62
     7
 10
628.9175641979
 20
165.3497671811
 30
0.0
  0
VERTEX
  5
9AE
  8
0
  6
SLD-SOLID
 62
     7
 10
629.245374843
 20
166.9834951042
 30
0.0
  0
VERTEX
  5
9AF
  8
0
  6
SLD-SOLID
 62
     7
 10
629.9163145269
 20
168.5621082886
 30
0.0
  0
VERTEX
  5
9B0
  8
0
  6
SLD-SOLID
 62
     7
 10
630.9146476234
 20
170.0486062197
 30
0.0
  0
VERTEX
  5
9B1
  8
0
  6
SLD-SOLID
 62
     7
 10
632.2169942106
 20
171.4081471889
 30
0.0
  0
VERTEX
  5
9B2
  8
0
  6
SLD-SOLID
 62
     7
 10
633.7927920068
 20
172.6088622688
 30
0.0
  0
VERTEX
  5
9B3
  8
0
  6
SLD-SOLID
 62
     7
 10
635.6051308359
 20
173.6226106165
 30
0.0
  0
VERTEX
  5
9B4
  8
0
  6
SLD-SOLID
 62
     7
 10
637.6115274871
 20
174.4256286053
 30
0.0
  0
VERTEX
  5
9B5
  8
0
  6
SLD-SOLID
 62
     7
 10
639.7649538959
 20
174.9990960686
 30
0.0
  0
VERTEX
  5
9B6
  8
0
  6
SLD-SOLID
 62
     7
 10
642.0149398292
 20
175.3295702963
 30
0.0
  0
VERTEX
  5
9B7
  8
0
  6
SLD-SOLID
 62
     7
 10
644.3087351764
 20
175.4093045472
 30
0.0
  0
VERTEX
  5
9B8
  8
0
  6
SLD-SOLID
 62
     7
 10
646.5925914491
 20
175.2364305882
 30
0.0
  0
VERTEX
  5
9B9
  8
0
  6
SLD-SOLID
 62
     7
 10
648.812953874
 20
174.8150015353
 30
0.0
  0
VERTEX
  5
9BA
  8
0
  6
SLD-SOLID
 62
     7
 10
650.9178024972
 20
174.1548949955
 30
0.0
  0
VERTEX
  5
9BB
  8
0
  6
SLD-SOLID
 62
     7
 10
652.8577846731
 20
173.2715820996
 30
0.0
  0
VERTEX
  5
9BC
  8
0
  6
SLD-SOLID
 62
     7
 10
654.5874369586
 20
172.1857661484
 30
0.0
  0
VERTEX
  5
9BD
  8
0
  6
SLD-SOLID
 62
     7
 10
656.0662132944
 20
170.9229001878
 30
0.0
  0
VERTEX
  5
9BE
  8
0
  6
SLD-SOLID
 62
     7
 10
657.2594684804
 20
169.5125844432
 30
0.0
  0
VERTEX
  5
9BF
  8
0
  6
SLD-SOLID
 62
     7
 10
658.1392181362
 20
167.9878743468
 30
0.0
  0
VERTEX
  5
9C0
  8
0
  6
SLD-SOLID
 62
     7
 10
658.6848390544
 20
166.384508471
 30
0.0
  0
VERTEX
  5
9C1
  8
0
  6
SLD-SOLID
 62
     7
 10
658.883546039
 20
164.7400675444
 30
0.0
  0
VERTEX
  5
9C2
  8
0
  6
SLD-SOLID
 62
     7
 10
658.884291097
 20
164.6321216701
 30
0.0
  0
SEQEND
  5
9C3
  8
0
  6
SLD-SOLID
 62
     7
  0
ARC
  5
3EC
  8
0
  6
SLD-SOLID
 62
     7
 10
89.8620623383
 20
142.1564365985
 30
0.0
 40
18.08516839425534
 50
90.4177345801
 51
102.298693523
  0
POLYLINE
  5
3ED
  8
0
  6
SLD-SOLID
 62
     7
 66
     1
 10
0.0
 20
0.0
 30
0.0
  0
VERTEX
  5
9C4
  8
0
  6
SLD-SOLID
 62
     7
 10
77.8858703817
 20
156.7710057004
 30
0.0
  0
VERTEX
  5
9C5
  8
0
  6
SLD-SOLID
 62
     7
 10
77.8419119562
 20
156.8137484007
 30
0.0
  0
VERTEX
  5
9C6
  8
0
  6
SLD-SOLID
 62
     7
 10
76.6314012254
 20
158.2096168874
 30
0.0
  0
VERTEX
  5
9C7
  8
0
  6
SLD-SOLID
 62
     7
 10
75.7314902986
 20
159.7219450502
 30
0.0
  0
VERTEX
  5
9C8
  8
0
  6
SLD-SOLID
 62
     7
 10
75.1633388246
 20
161.3152847728
 30
0.0
  0
VERTEX
  5
9C9
  8
0
  6
SLD-SOLID
 62
     7
 10
74.9402088369
 20
162.95229002
 30
0.0
  0
VERTEX
  5
9CA
  8
0
  6
SLD-SOLID
 62
     7
 10
75.0673753465
 20
164.5945903017
 30
0.0
  0
VERTEX
  5
9CB
  8
0
  6
SLD-SOLID
 62
     7
 10
75.5418283189
 20
166.2036921932
 30
0.0
  0
VERTEX
  5
9CC
  8
0
  6
SLD-SOLID
 62
     7
 10
76.3524514879
 20
167.7418785273
 30
0.0
  0
VERTEX
  5
9CD
  8
0
  6
SLD-SOLID
 62
     7
 10
77.480260774
 20
169.1730968757
 30
0.0
  0
VERTEX
  5
9CE
  8
0
  6
SLD-SOLID
 62
     7
 10
78.8988215173
 20
170.4638000681
 30
0.0
  0
VERTEX
  5
9CF
  8
0
  6
SLD-SOLID
 62
     7
 10
80.5748445238
 20
171.5837350218
 30
0.0
  0
VERTEX
  5
9D0
  8
0
  6
SLD-SOLID
 62
     7
 10
82.4690801347
 20
172.5066514789
 30
0.0
  0
VERTEX
  5
9D1
  8
0
  6
SLD-SOLID
 62
     7
 10
84.5371228898
 20
173.2109157471
 30
0.0
  0
VERTEX
  5
9D2
  8
0
  6
SLD-SOLID
 62
     7
 10
86.7305142129
 20
173.680022928
 30
0.0
  0
VERTEX
  5
9D3
  8
0
  6
SLD-SOLID
 62
     7
 10
88.9978152955
 20
173.902977827
 30
0.0
  0
VERTEX
  5
9D4
  8
0
  6
SLD-SOLID
 62
     7
 10
91.2858885969
 20
173.8745519994
 30
0.0
  0
VERTEX
  5
9D5
  8
0
  6
SLD-SOLID
 62
     7
 10
93.5411197389
 20
173.5954122721
 30
0.0
  0
VERTEX
  5
9D6
  8
0
  6
SLD-SOLID
 62
     7
 10
95.7106394018
 20
173.0721021174
 30
0.0
  0
VERTEX
  5
9D7
  8
0
  6
SLD-SOLID
 62
     7
 10
97.7436048234
 20
172.3168889163
 30
0.0
  0
VERTEX
  5
9D8
  8
0
  6
SLD-SOLID
 62
     7
 10
99.5923322881
 20
171.3474715231
 30
0.0
  0
VERTEX
  5
9D9
  8
0
  6
SLD-SOLID
 62
     7
 10
101.2135190214
 20
170.1865732773
 30
0.0
  0
VERTEX
  5
9DA
  8
0
  6
SLD-SOLID
 62
     7
 10
102.5691670621
 20
168.8614055617
 30
0.0
  0
VERTEX
  5
9DB
  8
0
  6
SLD-SOLID
 62
     7
 10
103.6274773324
 20
167.4030279844
 30
0.0
  0
VERTEX
  5
9DC
  8
0
  6
SLD-SOLID
 62
     7
 10
104.3636543001
 20
165.845623809
 30
0.0
  0
VERTEX
  5
9DD
  8
0
  6
SLD-SOLID
 62
     7
 10
104.7604722227
 20
164.2256980865
 30
0.0
  0
VERTEX
  5
9DE
  8
0
  6
SLD-SOLID
 62
     7
 10
104.8086029733
 20
162.5812203726
 30
0.0
  0
VERTEX
  5
9DF
  8
0
  6
SLD-SOLID
 62
     7
 10
104.5068842615
 20
160.9507353148
 30
0.0
  0
VERTEX
  5
9E0
  8
0
  6
SLD-SOLID
 62
     7
 10
103.8624686445
 20
159.3724602005
 30
0.0
  0
VERTEX
  5
9E1
  8
0
  6
SLD-SOLID
 62
     7
 10
102.8904062951
 20
157.8833885594
 30
0.0
  0
VERTEX
  5
9E2
  8
0
  6
SLD-SOLID
 62
     7
 10
101.6134661878
 20
156.5184228691
 30
0.0
  0
VERTEX
  5
9E3
  8
0
  6
SLD-SOLID
 62
     7
 10
101.0859352792
 20
156.0646878076
 30
0.0
  0
SEQEND
  5
9E4
  8
0
  6
SLD-SOLID
 62
     7
  0
POLYLINE
  5
3EE
  8
0
  6
SLD-SOLID
 62
     7
 66
     1
 10
0.0
 20
0.0
 30
0.0
  0
VERTEX
  5
9E5
  8
0
  6
SLD-SOLID
 62
     7
 10
77.8436404909
 20
156.8118653829
 30
0.0
  0
VERTEX
  5
9E6
  8
0
  6
SLD-SOLID
 62
     7
 10
77.7995330537
 20
156.8547586082
 30
0.0
  0
VERTEX
  5
9E7
  8
0
  6
SLD-SOLID
 62
     7
 10
76.5847307886
 20
158.2555404036
 30
0.0
  0
VERTEX
  5
9E8
  8
0
  6
SLD-SOLID
 62
     7
 10
75.6816906179
 20
159.7731920062
 30
0.0
  0
VERTEX
  5
9E9
  8
0
  6
SLD-SOLID
 62
     7
 10
75.111512586
 20
161.3721401534
 30
0.0
  0
VERTEX
  5
9EA
  8
0
  6
SLD-SOLID
 62
     7
 10
74.8876077379
 20
163.0149074933
 30
0.0
  0
VERTEX
  5
9EB
  8
0
  6
SLD-SOLID
 62
     7
 10
75.0152212823
 20
164.6629884942
 30
0.0
  0
VERTEX
  5
9EC
  8
0
  6
SLD-SOLID
 62
     7
 10
75.4913431848
 20
166.2777546896
 30
0.0
  0
VERTEX
  5
9ED
  8
0
  6
SLD-SOLID
 62
     7
 10
76.3048273767
 20
167.8213557331
 30
0.0
  0
VERTEX
  5
9EE
  8
0
  6
SLD-SOLID
 62
     7
 10
77.4366003717
 20
169.2576116054
 30
0.0
  0
VERTEX
  5
9EF
  8
0
  6
SLD-SOLID
 62
     7
 10
78.8601381029
 20
170.5528577892
 30
0.0
  0
VERTEX
  5
9F0
  8
0
  6
SLD-SOLID
 62
     7
 10
80.5420917715
 20
171.6767350315
 30
0.0
  0
VERTEX
  5
9F1
  8
0
  6
SLD-SOLID
 62
     7
 10
82.4429733003
 20
172.6028999417
 30
0.0
  0
VERTEX
  5
9F2
  8
0
  6
SLD-SOLID
 62
     7
 10
84.5183176244
 20
173.3096433906
 30
0.0
  0
VERTEX
  5
9F3
  8
0
  6
SLD-SOLID
 62
     7
 10
86.719427749
 20
173.7804027377
 30
0.0
  0
VERTEX
  5
9F4
  8
0
  6
SLD-SOLID
 62
     7
 10
88.9946860517
 20
174.0041418104
 30
0.0
  0
VERTEX
  5
9F5
  8
0
  6
SLD-SOLID
 62
     7
 10
91.2908357824
 20
173.9756153999
 30
0.0
  0
VERTEX
  5
9F6
  8
0
  6
SLD-SOLID
 62
     7
 10
93.5539943422
 20
173.6954940586
 30
0.0
  0
VERTEX
  5
9F7
  8
0
  6
SLD-SOLID
 62
     7
 10
95.7311433996
 20
173.1703417479
 30
0.0
  0
VERTEX
  5
9F8
  8
0
  6
SLD-SOLID
 62
     7
 10
97.7712613786
 20
172.4124686895
 30
0.0
  0
VERTEX
  5
9F9
  8
0
  6
SLD-SOLID
 62
     7
 10
99.6264857496
 20
171.4396389304
 30
0.0
  0
VERTEX
  5
9FA
  8
0
  6
SLD-SOLID
 62
     7
 10
101.2533945287
 20
170.2746559037
 30
0.0
  0
VERTEX
  5
9FB
  8
0
  6
SLD-SOLID
 62
     7
 10
102.6138109411
 20
168.9448231934
 30
0.0
  0
VERTEX
  5
9FC
  8
0
  6
SLD-SOLID
 62
     7
 10
103.6758465017
 20
167.481312166
 30
0.0
  0
VERTEX
  5
9FD
  8
0
  6
SLD-SOLID
 62
     7
 10
104.4146162713
 20
165.9184262259
 30
0.0
  0
VERTEX
  5
9FE
  8
0
  6
SLD-SOLID
 62
     7
 10
104.8128349031
 20
164.2927989467
 30
0.0
  0
VERTEX
  5
9FF
  8
0
  6
SLD-SOLID
 62
     7
 10
104.8611146654
 20
162.6425321317
 30
0.0
  0
VERTEX
  5
A00
  8
0
  6
SLD-SOLID
 62
     7
 10
104.5583826745
 20
161.0063077985
 30
0.0
  0
VERTEX
  5
A01
  8
0
  6
SLD-SOLID
 62
     7
 10
103.9116722787
 20
159.4224768794
 30
0.0
  0
VERTEX
  5
A02
  8
0
  6
SLD-SOLID
 62
     7
 10
102.9361826623
 20
157.9281637548
 30
0.0
  0
VERTEX
  5
A03
  8
0
  6
SLD-SOLID
 62
     7
 10
101.9249600614
 20
156.8118653829
 30
0.0
  0
SEQEND
  5
A04
  8
0
  6
SLD-SOLID
 62
     7
  0
POLYLINE
  5
3EF
  8
0
  6
SLD-SOLID
 62
     7
 66
     1
 10
0.0
 20
0.0
 30
0.0
  0
VERTEX
  5
A05
  8
0
  6
SLD-SOLID
 62
     7
 10
74.8842996801
 20
164.6321216701
 30
0.0
  0
VERTEX
  5
A06
  8
0
  6
SLD-SOLID
 62
     7
 10
75.0152212823
 20
166.0534912823
 30
0.0
  0
VERTEX
  5
A07
  8
0
  6
SLD-SOLID
 62
     7
 10
75.4913431848
 20
167.6682574777
 30
0.0
  0
VERTEX
  5
A08
  8
0
  6
SLD-SOLID
 62
     7
 10
76.3048273767
 20
169.2118585213
 30
0.0
  0
VERTEX
  5
A09
  8
0
  6
SLD-SOLID
 62
     7
 10
77.4366003717
 20
170.6481143935
 30
0.0
  0
VERTEX
  5
A0A
  8
0
  6
SLD-SOLID
 62
     7
 10
78.8601381029
 20
171.9433596461
 30
0.0
  0
VERTEX
  5
A0B
  8
0
  6
SLD-SOLID
 62
     7
 10
80.5420917715
 20
173.0672368883
 30
0.0
  0
VERTEX
  5
A0C
  8
0
  6
SLD-SOLID
 62
     7
 10
82.4429733003
 20
173.9934017985
 30
0.0
  0
VERTEX
  5
A0D
  8
0
  6
SLD-SOLID
 62
     7
 10
84.5183176244
 20
174.7001471101
 30
0.0
  0
VERTEX
  5
A0E
  8
0
  6
SLD-SOLID
 62
     7
 10
86.719427749
 20
175.1709064572
 30
0.0
  0
VERTEX
  5
A0F
  8
0
  6
SLD-SOLID
 62
     7
 10
88.9946860517
 20
175.3946436672
 30
0.0
  0
VERTEX
  5
A10
  8
0
  6
SLD-SOLID
 62
     7
 10
91.2908357824
 20
175.3661172567
 30
0.0
  0
VERTEX
  5
A11
  8
0
  6
SLD-SOLID
 62
     7
 10
93.5539943422
 20
175.0859959154
 30
0.0
  0
VERTEX
  5
A12
  8
0
  6
SLD-SOLID
 62
     7
 10
95.7311433996
 20
174.5608454673
 30
0.0
  0
VERTEX
  5
A13
  8
0
  6
SLD-SOLID
 62
     7
 10
97.7712613786
 20
173.802972409
 30
0.0
  0
VERTEX
  5
A14
  8
0
  6
SLD-SOLID
 62
     7
 10
99.6264857496
 20
172.8301426499
 30
0.0
  0
VERTEX
  5
A15
  8
0
  6
SLD-SOLID
 62
     7
 10
101.2533945287
 20
171.6651586919
 30
0.0
  0
VERTEX
  5
A16
  8
0
  6
SLD-SOLID
 62
     7
 10
102.6138109411
 20
170.3353259815
 30
0.0
  0
VERTEX
  5
A17
  8
0
  6
SLD-SOLID
 62
     7
 10
103.6758465017
 20
168.8718149541
 30
0.0
  0
VERTEX
  5
A18
  8
0
  6
SLD-SOLID
 62
     7
 10
104.4146162713
 20
167.3089290141
 30
0.0
  0
VERTEX
  5
A19
  8
0
  6
SLD-SOLID
 62
     7
 10
104.8128349031
 20
165.6833017348
 30
0.0
  0
VERTEX
  5
A1A
  8
0
  6
SLD-SOLID
 62
     7
 10
104.8843008722
 20
164.6321216701
 30
0.0
  0
SEQEND
  5
A1B
  8
0
  6
SLD-SOLID
 62
     7
  0
POLYLINE
  5
3F0
  8
0
  6
SLD-SOLID
 62
     7
 66
     1
 10
0.0
 20
0.0
 30
0.0
  0
VERTEX
  5
A1C
  8
0
  6
SLD-SOLID
 62
     7
 10
302.4799418891
 20
231.4357930897
 30
0.0
  0
VERTEX
  5
A1D
  8
0
  6
SLD-SOLID
 62
     7
 10
303.3660543407
 20
231.5065736054
 30
0.0
  0
VERTEX
  5
A1E
  8
0
  6
SLD-SOLID
 62
     7
 10
303.960029527
 20
231.628375697
 30
0.0
  0
SEQEND
  5
A1F
  8
0
  6
SLD-SOLID
 62
     7
  0
POLYLINE
  5
3F1
  8
0
  6
SLD-SOLID
 62
     7
 66
     1
 10
0.0
 20
0.0
 30
0.0
  0
VERTEX
  5
A20
  8
0
  6
SLD-SOLID
 62
     7
 10
301.181573912
 20
229.4366905569
 30
0.0
  0
VERTEX
  5
A21
  8
0
  6
SLD-SOLID
 62
     7
 10
298.2795578683
 20
229.428480017
 30
0.0
  0
VERTEX
  5
A22
  8
0
  6
SLD-SOLID
 62
     7
 10
296.9018412078
 20
229.4182727216
 30
0.0
  0
VERTEX
  5
A23
  8
0
  6
SLD-SOLID
 62
     7
 10
296.8843025411
 20
229.4181162594
 30
0.0
  0
SEQEND
  5
A24
  8
0
  6
SLD-SOLID
 62
     7
  0
ARC
  5
3F2
  8
0
  6
SLD-SOLID
 62
     7
 10
296.8843025411
 20
181.4059521351
 30
0.0
 40
48.22259195206333
 50
84.8874055452
 51
95.1125944548
  0
ARC
  5
3F3
  8
0
  6
SLD-SOLID
 62
     7
 10
432.7180221016
 20
-237.3648193511
 30
0.0
 40
466.8015282888337
 50
89.4886197933
 51
90.0160788256
  0
ARC
  5
3F4
  8
0
  6
SLD-SOLID
 62
     7
 10
436.8842975492
 20
181.4059167432
 30
0.0
 40
48.22262736915447
 50
84.8874070882
 51
95.1125929118
  0
ARC
  5
3F5
  8
0
  6
SLD-SOLID
 62
     7
 10
286.8622301963
 20
241.5252484627
 30
0.0
 40
10.10871227633192
 50
217.8879078155
 51
272.96853888
  0
ARC
  5
3F6
  8
0
  6
SLD-SOLID
 62
     7
 10
286.6544362386
 20
275.2668051088
 30
0.0
 40
44.0187145722549
 50
264.6982013925
 51
275.0269591862
  0
POLYLINE
  5
3F7
  8
0
  6
SLD-SOLID
 62
     7
 66
     1
 10
0.0
 20
0.0
 30
0.0
  0
VERTEX
  5
A25
  8
0
  6
SLD-SOLID
 62
     7
 10
287.4253285373
 20
231.4223000883
 30
0.0
  0
VERTEX
  5
A26
  8
0
  6
SLD-SOLID
 62
     7
 10
290.3357190336
 20
231.435219395
 30
0.0
  0
VERTEX
  5
A27
  8
0
  6
SLD-SOLID
 62
     7
 10
290.5155462469
 20
231.4354578136
 30
0.0
  0
SEQEND
  5
A28
  8
0
  6
SLD-SOLID
 62
     7
  0
LINE
  5
3F8
  8
0
  6
SLD-SOLID
 62
     7
 10
431.3147184695
 20
229.4366905569
 30
0.0
 11
432.5870243157
 21
229.4366905569
 31
0.0
  0
LINE
  5
3F9
  8
0
  6
SLD-SOLID
 62
     7
 10
301.181573912
 20
229.4366905569
 30
0.0
 11
302.4538797582
 21
229.4366905569
 31
0.0
  0
POLYLINE
  5
3FA
  8
0
  6
SLD-SOLID
 62
     7
 66
     1
 10
0.0
 20
0.0
 30
0.0
  0
VERTEX
  5
A29
  8
0
  6
SLD-SOLID
 62
     7
 10
443.2530482555
 20
231.4354578136
 30
0.0
  0
VERTEX
  5
A2A
  8
0
  6
SLD-SOLID
 62
     7
 10
443.4327450837
 20
231.435219395
 30
0.0
  0
VERTEX
  5
A2B
  8
0
  6
SLD-SOLID
 62
     7
 10
446.3432585145
 20
231.4223000883
 30
0.0
  0
SEQEND
  5
A2C
  8
0
  6
SLD-SOLID
 62
     7
  0
ARC
  5
3FB
  8
0
  6
SLD-SOLID
 62
     7
 10
159.0476156598
 20
230.1922164606
 30
0.0
 40
0.7556831565378169
 50
175.7338577908
 51
268.8311077363
  0
ARC
  5
3FC
  8
0
  6
SLD-SOLID
 62
     7
 10
313.2209757887
 20
230.1922285335
 30
0.0
 40
0.7556954978346851
 50
271.1698799541
 51
4.2651545188
  0
ARC
  5
3FD
  8
0
  6
SLD-SOLID
 62
     7
 10
420.5476215612
 20
230.1922346522
 30
0.0
 40
0.755701597404777
 50
175.7353451714
 51
268.8301960544
  0
ARC
  5
3FE
  8
0
  6
SLD-SOLID
 62
     7
 10
574.7209741101
 20
230.1922309272
 30
0.0
 40
0.7556979448331312
 50
271.1700757847
 51
4.2649586882
  0
LINE
  5
3FF
  8
0
  6
SLD-SOLID
 62
     7
 10
144.3772358144
 20
230.1070639966
 30
0.0
 11
158.288870498
 21
230.4374227403
 31
0.0
  0
LINE
  5
400
  8
0
  6
SLD-SOLID
 62
     7
 10
158.288870498
 20
230.4374227403
 30
0.0
 11
158.2940262998
 21
230.2484313129
 31
0.0
  0
LINE
  5
401
  8
0
  6
SLD-SOLID
 62
     7
 10
405.8772218669
 20
230.1070639966
 30
0.0
 11
419.7888640011
 21
230.4374227403
 31
0.0
  0
LINE
  5
402
  8
0
  6
SLD-SOLID
 62
     7
 10
419.7888640011
 20
230.4374227403
 30
0.0
 11
419.7940123523
 21
230.2484313129
 31
0.0
  0
LINE
  5
403
  8
0
  6
SLD-SOLID
 62
     7
 10
313.9745784248
 20
230.2484313129
 30
0.0
 11
313.9797342266
 21
230.4374227403
 31
0.0
  0
LINE
  5
404
  8
0
  6
SLD-SOLID
 62
     7
 10
313.9797342266
 20
230.4374227403
 30
0.0
 11
327.8913689102
 21
230.1070639966
 31
0.0
  0
LINE
  5
405
  8
0
  6
SLD-SOLID
 62
     7
 10
575.4745793785
 20
230.2484313129
 30
0.0
 11
575.4797351802
 21
230.4374227403
 31
0.0
  0
LINE
  5
406
  8
0
  6
SLD-SOLID
 62
     7
 10
575.4797351802
 20
230.4374227403
 30
0.0
 11
589.3913698638
 21
230.1070639966
 31
0.0
  0
LINE
  5
407
  8
0
  6
SLD-SOLID
 62
     7
 10
419.7888640011
 20
230.4374227403
 30
0.0
 11
575.4797351802
 21
230.4374227403
 31
0.0
  0
LINE
  5
408
  8
0
  6
SLD-SOLID
 62
     7
 10
566.0899323667
 20
229.4366905569
 30
0.0
 11
574.7364056552
 21
229.4366905569
 31
0.0
  0
POLYLINE
  5
409
  8
0
  6
SLD-SOLID
 62
     7
 66
     1
 10
0.0
 20
0.0
 30
0.0
  0
VERTEX
  5
A2D
  8
0
  6
SLD-SOLID
 62
     7
 10
562.7338481391
 20
229.4366905569
 30
0.0
  0
VERTEX
  5
A2E
  8
0
  6
SLD-SOLID
 62
     7
 10
563.8497811998
 20
229.5033658026
 30
0.0
  0
VERTEX
  5
A2F
  8
0
  6
SLD-SOLID
 62
     7
 10
566.0899323667
 20
229.4366905569
 30
0.0
  0
SEQEND
  5
A30
  8
0
  6
SLD-SOLID
 62
     7
  0
LINE
  5
40A
  8
0
  6
SLD-SOLID
 62
     7
 10
557.6162976468
 20
229.4366905569
 30
0.0
 11
562.7338481391
 21
229.4366905569
 31
0.0
  0
LINE
  5
40B
  8
0
  6
SLD-SOLID
 62
     7
 10
555.9687991882
 20
229.4366905569
 30
0.0
 11
557.6162976468
 21
229.4366905569
 31
0.0
  0
LINE
  5
40C
  8
0
  6
SLD-SOLID
 62
     7
 10
541.1815722729
 20
229.4366905569
 30
0.0
 11
555.9687991882
 21
229.4366905569
 31
0.0
  0
LINE
  5
40D
  8
0
  6
SLD-SOLID
 62
     7
 10
536.8842971767
 20
229.4366905569
 30
0.0
 11
541.1815722729
 21
229.4366905569
 31
0.0
  0
LINE
  5
40E
  8
0
  6
SLD-SOLID
 62
     7
 10
532.5870220805
 20
229.4366905569
 30
0.0
 11
536.8842971767
 21
229.4366905569
 31
0.0
  0
LINE
  5
40F
  8
0
  6
SLD-SOLID
 62
     7
 10
521.1815708573
 20
229.4366905569
 30
0.0
 11
532.5870220805
 21
229.4366905569
 31
0.0
  0
LINE
  5
410
  8
0
  6
SLD-SOLID
 62
     7
 10
516.8842976237
 20
229.4366905569
 30
0.0
 11
521.1815708573
 21
229.4366905569
 31
0.0
  0
LINE
  5
411
  8
0
  6
SLD-SOLID
 62
     7
 10
512.5870243902
 20
229.4366905569
 30
0.0
 11
516.8842976237
 21
229.4366905569
 31
0.0
  0
LINE
  5
412
  8
0
  6
SLD-SOLID
 62
     7
 10
501.1815713043
 20
229.4366905569
 30
0.0
 11
512.5870243902
 21
229.4366905569
 31
0.0
  0
LINE
  5
413
  8
0
  6
SLD-SOLID
 62
     7
 10
496.8842974377
 20
229.4366905569
 30
0.0
 11
501.1815713043
 21
229.4366905569
 31
0.0
  0
LINE
  5
414
  8
0
  6
SLD-SOLID
 62
     7
 10
492.5870239059
 20
229.4366905569
 30
0.0
 11
496.8842974377
 21
229.4366905569
 31
0.0
  0
LINE
  5
415
  8
0
  6
SLD-SOLID
 62
     7
 10
481.1815717513
 20
229.4366905569
 30
0.0
 11
492.5870239059
 21
229.4366905569
 31
0.0
  0
LINE
  5
416
  8
0
  6
SLD-SOLID
 62
     7
 10
476.8842966551
 20
229.4366905569
 30
0.0
 11
481.1815717513
 21
229.4366905569
 31
0.0
  0
LINE
  5
417
  8
0
  6
SLD-SOLID
 62
     7
 10
472.5870234216
 20
229.4366905569
 30
0.0
 11
476.8842966551
 21
229.4366905569
 31
0.0
  0
LINE
  5
418
  8
0
  6
SLD-SOLID
 62
     7
 10
461.1815703357
 20
229.4366905569
 30
0.0
 11
472.5870234216
 21
229.4366905569
 31
0.0
  0
LINE
  5
419
  8
0
  6
SLD-SOLID
 62
     7
 10
456.8842989648
 20
229.4366905569
 30
0.0
 11
461.1815703357
 21
229.4366905569
 31
0.0
  0
LINE
  5
41A
  8
0
  6
SLD-SOLID
 62
     7
 10
452.5870238686
 20
229.4366905569
 30
0.0
 11
456.8842989648
 21
229.4366905569
 31
0.0
  0
LINE
  5
41B
  8
0
  6
SLD-SOLID
 62
     7
 10
441.1815707827
 20
229.4366905569
 30
0.0
 11
452.5870238686
 21
229.4366905569
 31
0.0
  0
LINE
  5
41C
  8
0
  6
SLD-SOLID
 62
     7
 10
420.5321935261
 20
229.4366905569
 30
0.0
 11
431.3147184695
 21
229.4366905569
 31
0.0
  0
LINE
  5
41D
  8
0
  6
SLD-SOLID
 62
     7
 10
281.1815780843
 20
229.4366905569
 30
0.0
 11
292.5870311702
 21
229.4366905569
 31
0.0
  0
LINE
  5
41E
  8
0
  6
SLD-SOLID
 62
     7
 10
276.8842918123
 20
229.4366905569
 30
0.0
 11
281.1815780843
 21
229.4366905569
 31
0.0
  0
LINE
  5
41F
  8
0
  6
SLD-SOLID
 62
     7
 10
272.5870204414
 20
229.4366905569
 30
0.0
 11
276.8842918123
 21
229.4366905569
 31
0.0
  0
LINE
  5
420
  8
0
  6
SLD-SOLID
 62
     7
 10
261.1815673555
 20
229.4366905569
 30
0.0
 11
272.5870204414
 21
229.4366905569
 31
0.0
  0
LINE
  5
421
  8
0
  6
SLD-SOLID
 62
     7
 10
256.8842959846
 20
229.4366905569
 30
0.0
 11
261.1815673555
 21
229.4366905569
 31
0.0
  0
LINE
  5
422
  8
0
  6
SLD-SOLID
 62
     7
 10
252.5870246137
 20
229.4366905569
 30
0.0
 11
256.8842959846
 21
229.4366905569
 31
0.0
  0
LINE
  5
423
  8
0
  6
SLD-SOLID
 62
     7
 10
241.1815566266
 20
229.4366905569
 30
0.0
 11
252.5870246137
 21
229.4366905569
 31
0.0
  0
LINE
  5
424
  8
0
  6
SLD-SOLID
 62
     7
 10
236.8843001569
 20
229.4366905569
 30
0.0
 11
241.1815566266
 21
229.4366905569
 31
0.0
  0
LINE
  5
425
  8
0
  6
SLD-SOLID
 62
     7
 10
232.5870138849
 20
229.4366905569
 30
0.0
 11
236.8843001569
 21
229.4366905569
 31
0.0
  0
LINE
  5
426
  8
0
  6
SLD-SOLID
 62
     7
 10
221.1815757001
 20
229.4366905569
 30
0.0
 11
232.5870138849
 21
229.4366905569
 31
0.0
  0
LINE
  5
427
  8
0
  6
SLD-SOLID
 62
     7
 10
216.8842894281
 20
229.4366905569
 30
0.0
 11
221.1815757001
 21
229.4366905569
 31
0.0
  0
LINE
  5
428
  8
0
  6
SLD-SOLID
 62
     7
 10
212.5870329584
 20
229.4366905569
 30
0.0
 11
216.8842894281
 21
229.4366905569
 31
0.0
  0
LINE
  5
429
  8
0
  6
SLD-SOLID
 62
     7
 10
201.1815649713
 20
229.4366905569
 30
0.0
 11
212.5870329584
 21
229.4366905569
 31
0.0
  0
LINE
  5
42A
  8
0
  6
SLD-SOLID
 62
     7
 10
196.8843085016
 20
229.4366905569
 30
0.0
 11
201.1815649713
 21
229.4366905569
 31
0.0
  0
LINE
  5
42B
  8
0
  6
SLD-SOLID
 62
     7
 10
192.5870222295
 20
229.4366905569
 30
0.0
 11
196.8843085016
 21
229.4366905569
 31
0.0
  0
LINE
  5
42C
  8
0
  6
SLD-SOLID
 62
     7
 10
177.7997953142
 20
229.4366905569
 30
0.0
 11
192.5870222295
 21
229.4366905569
 31
0.0
  0
LINE
  5
42D
  8
0
  6
SLD-SOLID
 62
     7
 10
176.1522931302
 20
229.4366905569
 30
0.0
 11
177.7997953142
 21
229.4366905569
 31
0.0
  0
LINE
  5
42E
  8
0
  6
SLD-SOLID
 62
     7
 10
171.0347575391
 20
229.4366905569
 30
0.0
 11
176.1522931302
 21
229.4366905569
 31
0.0
  0
POLYLINE
  5
42F
  8
0
  6
SLD-SOLID
 62
     7
 66
     1
 10
0.0
 20
0.0
 30
0.0
  0
VERTEX
  5
A31
  8
0
  6
SLD-SOLID
 62
     7
 10
167.6786584104
 20
229.4366905569
 30
0.0
  0
VERTEX
  5
A32
  8
0
  6
SLD-SOLID
 62
     7
 10
168.7946063722
 20
229.4866839527
 30
0.0
  0
VERTEX
  5
A33
  8
0
  6
SLD-SOLID
 62
     7
 10
171.0347575391
 20
229.4366905569
 30
0.0
  0
SEQEND
  5
A34
  8
0
  6
SLD-SOLID
 62
     7
  0
LINE
  5
430
  8
0
  6
SLD-SOLID
 62
     7
 10
159.032200023
 20
229.4366905569
 30
0.0
 11
167.6786584104
 21
229.4366905569
 31
0.0
  0
LINE
  5
431
  8
0
  6
SLD-SOLID
 62
     7
 10
158.288870498
 20
230.4374227403
 30
0.0
 11
313.9797342266
 21
230.4374227403
 31
0.0
  0
LINE
  5
432
  8
0
  6
SLD-SOLID
 62
     7
 10
302.4538797582
 20
229.4366905569
 30
0.0
 11
313.2364047016
 21
229.4366905569
 31
0.0
  0
ARC
  5
433
  8
0
  6
SLD-SOLID
 62
     7
 10
446.917379082
 20
241.5011592735
 30
0.0
 40
10.08523307999508
 50
266.9619021886
 51
322.1816701054
  0
POLYLINE
  5
434
  8
0
  6
SLD-SOLID
 62
     7
 66
     1
 10
0.0
 20
0.0
 30
0.0
  0
VERTEX
  5
A35
  8
0
  6
SLD-SOLID
 62
     7
 10
451.1815724219
 20
231.4364114879
 30
0.0
  0
VERTEX
  5
A36
  8
0
  6
SLD-SOLID
 62
     7
 10
446.9936047936
 20
231.2164554475
 30
0.0
  0
VERTEX
  5
A37
  8
0
  6
SLD-SOLID
 62
     7
 10
443.257045492
 20
231.4174050568
 30
0.0
  0
SEQEND
  5
A38
  8
0
  6
SLD-SOLID
 62
     7
  0
ARC
  5
435
  8
0
  6
SLD-SOLID
 62
     7
 10
301.8977968545
 20
220.7154687142
 30
0.0
 40
8.73893235043243
 50
41.7927631134
 51
86.3516430661
  0
ARC
  5
436
  8
0
  6
SLD-SOLID
 62
     7
 10
320.3918210622
 20
217.090500339
 30
0.0
 40
2.945011568914561
 50
222.0998082159
 51
246.0723633699
  0
LINE
  5
437
  8
0
  6
SLD-SOLID
 62
     7
 10
318.2066870178
 20
215.1160935043
 30
0.0
 11
308.4131968463
 21
226.5394279836
 31
0.0
  0
ARC
  5
438
  8
0
  6
SLD-SOLID
 62
     7
 10
431.8707825968
 20
220.7155073349
 30
0.0
 40
8.738892613183335
 50
93.6482501904
 51
138.2073436301
  0
LINE
  5
439
  8
0
  6
SLD-SOLID
 62
     7
 10
425.3554013813
 20
226.5394279836
 30
0.0
 11
415.5619037593
 21
215.1160935043
 31
0.0
  0
ARC
  5
43A
  8
0
  6
SLD-SOLID
 62
     7
 10
413.3767544542
 20
217.0905090068
 30
0.0
 40
2.945028703113091
 50
293.9279721128
 51
317.9002657108
  0
LINE
  5
43B
  8
0
  6
SLD-SOLID
 62
     7
 10
158.288870498
 20
230.4374227403
 30
0.0
 11
158.2940262998
 21
230.6260863422
 31
0.0
  0
ARC
  5
43C
  8
0
  6
SLD-SOLID
 62
     7
 10
159.046891606
 20
230.6816421371
 30
0.0
 40
0.754912323121093
 50
91.1151213418
 51
184.2203481182
  0
LINE
  5
43D
  8
0
  6
SLD-SOLID
 62
     7
 10
159.032200023
 20
231.4364114879
 30
0.0
 11
169.2515057767
 21
231.4364114879
 31
0.0
  0
LINE
  5
43E
  8
0
  6
SLD-SOLID
 62
     7
 10
170.2564996923
 20
231.4364114879
 30
0.0
 11
169.2515057767
 21
231.4364114879
 31
0.0
  0
LINE
  5
43F
  8
0
  6
SLD-SOLID
 62
     7
 10
170.2564996923
 20
231.4364114879
 30
0.0
 11
184.1717404569
 21
231.4364114879
 31
0.0
  0
ARC
  5
440
  8
0
  6
SLD-SOLID
 62
     7
 10
184.734259292
 20
274.0281540343
 30
0.0
 40
42.59545704151039
 50
269.2433255967
 51
270.7566744033
  0
LINE
  5
441
  8
0
  6
SLD-SOLID
 62
     7
 10
185.296778127
 20
231.4364114879
 30
0.0
 11
186.1832482065
 21
231.4364114879
 31
0.0
  0
LINE
  5
442
  8
0
  6
SLD-SOLID
 62
     7
 10
186.1832482065
 20
231.4364114879
 30
0.0
 11
186.884288236
 21
231.4364114879
 31
0.0
  0
LINE
  5
443
  8
0
  6
SLD-SOLID
 62
     7
 10
186.884288236
 20
231.4364114879
 30
0.0
 11
187.5853580678
 21
231.4364114879
 31
0.0
  0
LINE
  5
444
  8
0
  6
SLD-SOLID
 62
     7
 10
187.5853580678
 20
231.4364114879
 30
0.0
 11
202.5870126928
 21
231.4364114879
 31
0.0
  0
LINE
  5
445
  8
0
  6
SLD-SOLID
 62
     7
 10
202.5870126928
 20
231.4364114879
 30
0.0
 11
206.8842989648
 21
231.4364114879
 31
0.0
  0
LINE
  5
446
  8
0
  6
SLD-SOLID
 62
     7
 10
206.8842989648
 20
231.4364114879
 30
0.0
 11
211.1815852369
 21
231.4364114879
 31
0.0
  0
LINE
  5
447
  8
0
  6
SLD-SOLID
 62
     7
 10
211.1815852369
 20
231.4364114879
 30
0.0
 11
222.5870234216
 21
231.4364114879
 31
0.0
  0
LINE
  5
448
  8
0
  6
SLD-SOLID
 62
     7
 10
222.5870234216
 20
231.4364114879
 30
0.0
 11
226.8843096937
 21
231.4364114879
 31
0.0
  0
LINE
  5
449
  8
0
  6
SLD-SOLID
 62
     7
 10
226.8843096937
 20
231.4364114879
 30
0.0
 11
231.1815661634
 21
231.4364114879
 31
0.0
  0
LINE
  5
44A
  8
0
  6
SLD-SOLID
 62
     7
 10
231.1815661634
 20
231.4364114879
 30
0.0
 11
242.5870341504
 21
231.4364114879
 31
0.0
  0
LINE
  5
44B
  8
0
  6
SLD-SOLID
 62
     7
 10
242.5870341504
 20
231.4364114879
 30
0.0
 11
246.8842906202
 21
231.4364114879
 31
0.0
  0
LINE
  5
44C
  8
0
  6
SLD-SOLID
 62
     7
 10
246.8842906202
 20
231.4364114879
 30
0.0
 11
251.1815768922
 21
231.4364114879
 31
0.0
  0
LINE
  5
44D
  8
0
  6
SLD-SOLID
 62
     7
 10
251.1815768922
 20
231.4364114879
 30
0.0
 11
262.5870299781
 21
231.4364114879
 31
0.0
  0
LINE
  5
44E
  8
0
  6
SLD-SOLID
 62
     7
 10
262.5870299781
 20
231.4364114879
 30
0.0
 11
266.884301349
 21
231.4364114879
 31
0.0
  0
LINE
  5
44F
  8
0
  6
SLD-SOLID
 62
     7
 10
266.884301349
 20
231.4364114879
 30
0.0
 11
271.1815727199
 21
231.4364114879
 31
0.0
  0
LINE
  5
450
  8
0
  6
SLD-SOLID
 62
     7
 10
271.1815727199
 20
231.4364114879
 30
0.0
 11
282.5870258058
 21
231.4364114879
 31
0.0
  0
LINE
  5
451
  8
0
  6
SLD-SOLID
 62
     7
 10
291.1815685476
 20
231.4364114879
 30
0.0
 11
290.5115527357
 21
231.4174050568
 31
0.0
  0
LINE
  5
452
  8
0
  6
SLD-SOLID
 62
     7
 10
303.0170691455
 20
231.4364114879
 30
0.0
 11
302.01207523
 21
231.4364114879
 31
0.0
  0
LINE
  5
453
  8
0
  6
SLD-SOLID
 62
     7
 10
303.0170691455
 20
231.4364114879
 30
0.0
 11
313.2364047016
 21
231.4364114879
 31
0.0
  0
ARC
  5
454
  8
0
  6
SLD-SOLID
 62
     7
 10
313.2216998583
 20
230.6816300575
 30
0.0
 40
0.7549246586080255
 50
355.7806402531
 51
88.883890287
  0
LINE
  5
455
  8
0
  6
SLD-SOLID
 62
     7
 10
313.9745784248
 20
230.6260863422
 30
0.0
 11
313.9797342266
 21
230.4374227403
 31
0.0
  0
LINE
  5
456
  8
0
  6
SLD-SOLID
 62
     7
 10
291.1815685476
 20
231.4364114879
 30
0.0
 11
302.01207523
 21
231.4364114879
 31
0.0
  0
POLYLINE
  5
457
  8
0
  6
SLD-SOLID
 62
     7
 66
     1
 10
0.0
 20
0.0
 30
0.0
  0
VERTEX
  5
A39
  8
0
  6
SLD-SOLID
 62
     7
 10
171.0347575391
 20
229.4366905569
 30
0.0
  0
VERTEX
  5
A3A
  8
0
  6
SLD-SOLID
 62
     7
 10
170.121226951
 20
229.4341424583
 30
0.0
  0
VERTEX
  5
A3B
  8
0
  6
SLD-SOLID
 62
     7
 10
169.5668143476
 20
229.4305959819
 30
0.0
  0
VERTEX
  5
A3C
  8
0
  6
SLD-SOLID
 62
     7
 10
169.5539397443
 20
229.4304991244
 30
0.0
  0
SEQEND
  5
A3D
  8
0
  6
SLD-SOLID
 62
     7
  0
ARC
  5
458
  8
0
  6
SLD-SOLID
 62
     7
 10
562.5902345216
 20
18.0059538833
 30
0.0
 40
211.430785448101
 50
89.559795898
 51
89.9610820402
  0
LINE
  5
459
  8
0
  6
SLD-SOLID
 62
     7
 10
431.7574319685
 20
231.4364114879
 30
0.0
 11
430.7515216316
 21
231.4364114879
 31
0.0
  0
LINE
  5
45A
  8
0
  6
SLD-SOLID
 62
     7
 10
443.257045492
 20
231.4174050568
 30
0.0
 11
442.5870222295
 21
231.4364114879
 31
0.0
  0
LINE
  5
45B
  8
0
  6
SLD-SOLID
 62
     7
 10
451.1815724219
 20
231.4364114879
 30
0.0
 11
462.5870255078
 21
231.4364114879
 31
0.0
  0
LINE
  5
45C
  8
0
  6
SLD-SOLID
 62
     7
 10
462.5870255078
 20
231.4364114879
 30
0.0
 11
466.8842968787
 21
231.4364114879
 31
0.0
  0
LINE
  5
45D
  8
0
  6
SLD-SOLID
 62
     7
 10
466.8842968787
 20
231.4364114879
 30
0.0
 11
471.1815719748
 21
231.4364114879
 31
0.0
  0
LINE
  5
45E
  8
0
  6
SLD-SOLID
 62
     7
 10
471.1815719748
 20
231.4364114879
 30
0.0
 11
482.5870241294
 21
231.4364114879
 31
0.0
  0
LINE
  5
45F
  8
0
  6
SLD-SOLID
 62
     7
 10
482.5870241294
 20
231.4364114879
 30
0.0
 11
486.884297363
 21
231.4364114879
 31
0.0
  0
LINE
  5
460
  8
0
  6
SLD-SOLID
 62
     7
 10
486.884297363
 20
231.4364114879
 30
0.0
 11
491.1815710621
 21
231.4364114879
 31
0.0
  0
LINE
  5
461
  8
0
  6
SLD-SOLID
 62
     7
 10
491.1815710621
 20
231.4364114879
 30
0.0
 11
502.5870236824
 21
231.4364114879
 31
0.0
  0
LINE
  5
462
  8
0
  6
SLD-SOLID
 62
     7
 10
502.5870236824
 20
231.4364114879
 30
0.0
 11
506.8842978472
 21
231.4364114879
 31
0.0
  0
LINE
  5
463
  8
0
  6
SLD-SOLID
 62
     7
 10
506.8842978472
 20
231.4364114879
 30
0.0
 11
511.1815710808
 21
231.4364114879
 31
0.0
  0
LINE
  5
464
  8
0
  6
SLD-SOLID
 62
     7
 10
511.1815710808
 20
231.4364114879
 30
0.0
 11
522.5870241667
 21
231.4364114879
 31
0.0
  0
LINE
  5
465
  8
0
  6
SLD-SOLID
 62
     7
 10
522.5870241667
 20
231.4364114879
 30
0.0
 11
526.8842974002
 21
231.4364114879
 31
0.0
  0
LINE
  5
466
  8
0
  6
SLD-SOLID
 62
     7
 10
526.8842974002
 20
231.4364114879
 30
0.0
 11
531.1815706337
 21
231.4364114879
 31
0.0
  0
LINE
  5
467
  8
0
  6
SLD-SOLID
 62
     7
 10
531.1815706337
 20
231.4364114879
 30
0.0
 11
546.1832438851
 21
231.4364114879
 31
0.0
  0
LINE
  5
468
  8
0
  6
SLD-SOLID
 62
     7
 10
546.1832438851
 20
231.4364114879
 30
0.0
 11
546.8842988158
 21
231.4364114879
 31
0.0
  0
LINE
  5
469
  8
0
  6
SLD-SOLID
 62
     7
 10
546.8842988158
 20
231.4364114879
 30
0.0
 11
547.5853500212
 21
231.4364114879
 31
0.0
  0
LINE
  5
46A
  8
0
  6
SLD-SOLID
 62
     7
 10
547.5853500212
 20
231.4364114879
 30
0.0
 11
548.4718051995
 21
231.4364114879
 31
0.0
  0
ARC
  5
46B
  8
0
  6
SLD-SOLID
 62
     7
 10
549.0343333478
 20
278.6068350137
 30
0.0
 40
47.17377760489256
 50
269.3167548948
 51
270.6832451052
  0
LINE
  5
46C
  8
0
  6
SLD-SOLID
 62
     7
 10
549.5968614961
 20
231.4364114879
 30
0.0
 11
563.5120836342
 21
231.4364114879
 31
0.0
  0
LINE
  5
46D
  8
0
  6
SLD-SOLID
 62
     7
 10
564.5170775498
 20
231.4364114879
 30
0.0
 11
563.5120836342
 21
231.4364114879
 31
0.0
  0
LINE
  5
46E
  8
0
  6
SLD-SOLID
 62
     7
 10
564.5170775498
 20
231.4364114879
 30
0.0
 11
574.7364056552
 21
231.4364114879
 31
0.0
  0
ARC
  5
46F
  8
0
  6
SLD-SOLID
 62
     7
 10
574.7216981824
 20
230.681627662
 30
0.0
 40
0.7549271048364656
 50
355.7808362492
 51
88.8836942908
  0
LINE
  5
470
  8
0
  6
SLD-SOLID
 62
     7
 10
575.4745793785
 20
230.6260863422
 30
0.0
 11
575.4797351802
 21
230.4374227403
 31
0.0
  0
LINE
  5
471
  8
0
  6
SLD-SOLID
 62
     7
 10
419.7888640011
 20
230.4374227403
 30
0.0
 11
419.7940123523
 21
230.6260863422
 31
0.0
  0
ARC
  5
472
  8
0
  6
SLD-SOLID
 62
     7
 10
420.5468974952
 20
230.6816239314
 30
0.0
 40
0.7549307664594114
 50
91.1160343208
 51
184.2188593461
  0
LINE
  5
473
  8
0
  6
SLD-SOLID
 62
     7
 10
420.5321935261
 20
231.4364114879
 30
0.0
 11
430.7515216316
 21
231.4364114879
 31
0.0
  0
LINE
  5
474
  8
0
  6
SLD-SOLID
 62
     7
 10
431.7574319685
 20
231.4364114879
 30
0.0
 11
442.5870222295
 21
231.4364114879
 31
0.0
  0
LINE
  5
475
  8
0
  6
SLD-SOLID
 62
     7
 10
176.884416982
 20
229.4360721587
 30
0.0
 11
176.1522931302
 21
229.4366905569
 31
0.0
  0
LINE
  5
476
  8
0
  6
SLD-SOLID
 62
     7
 10
167.853896066
 20
229.176434326
 30
0.0
 11
176.8842977727
 21
229.3675044654
 31
0.0
  0
LINE
  5
477
  8
0
  6
SLD-SOLID
 62
     7
 10
556.8842967297
 20
229.3675044654
 30
0.0
 11
565.9268838609
 21
229.1761735557
 31
0.0
  0
LINE
  5
478
  8
0
  6
SLD-SOLID
 62
     7
 10
557.6162976468
 20
229.4366905569
 30
0.0
 11
556.8841700698
 21
229.4360721587
 31
0.0
  0
POLYLINE
  5
479
  8
0
  6
SLD-SOLID
 62
     7
 66
     1
 10
0.0
 20
0.0
 30
0.0
  0
VERTEX
  5
A3E
  8
0
  6
SLD-SOLID
 62
     7
 10
547.7230702783
 20
231.4703414319
 30
0.0
  0
VERTEX
  5
A3F
  8
0
  6
SLD-SOLID
 62
     7
 10
547.9225558484
 20
231.482135701
 30
0.0
  0
VERTEX
  5
A40
  8
0
  6
SLD-SOLID
 62
     7
 10
548.4193978156
 20
231.4652005313
 30
0.0
  0
SEQEND
  5
A41
  8
0
  6
SLD-SOLID
 62
     7
  0
LINE
  5
47A
  8
0
  6
SLD-SOLID
 62
     7
 10
548.4096971596
 20
231.4427593826
 30
0.0
 11
547.731459632
 21
231.4474308966
 31
0.0
  0
LINE
  5
47B
  8
0
  6
SLD-SOLID
 62
     7
 10
548.4718051995
 20
231.4364114879
 30
0.0
 11
548.4096971596
 21
231.4427593826
 31
0.0
  0
LINE
  5
47C
  8
0
  6
SLD-SOLID
 62
     7
 10
186.0371274198
 20
231.4474308966
 30
0.0
 11
185.3588861669
 21
231.4427593826
 31
0.0
  0
POLYLINE
  5
47D
  8
0
  6
SLD-SOLID
 62
     7
 66
     1
 10
0.0
 20
0.0
 30
0.0
  0
VERTEX
  5
A42
  8
0
  6
SLD-SOLID
 62
     7
 10
185.3492004121
 20
231.4652005313
 30
0.0
  0
VERTEX
  5
A43
  8
0
  6
SLD-SOLID
 62
     7
 10
185.5477434839
 20
231.4806455849
 30
0.0
  0
VERTEX
  5
A44
  8
0
  6
SLD-SOLID
 62
     7
 10
186.0455316747
 20
231.4703414319
 30
0.0
  0
SEQEND
  5
A45
  8
0
  6
SLD-SOLID
 62
     7
  0
LINE
  5
47E
  8
0
  6
SLD-SOLID
 62
     7
 10
185.3588861669
 20
231.4427593826
 30
0.0
 11
185.296778127
 21
231.4364114879
 31
0.0
  0
ARC
  5
47F
  8
0
  6
SLD-SOLID
 62
     7
 10
556.3367990286
 20
219.0068950334
 30
0.0
 40
10.3750653750169
 50
60.1165444198
 51
86.9750662887
  0
ARC
  5
480
  8
0
  6
SLD-SOLID
 62
     7
 10
177.4315027765
 20
219.0079001785
 30
0.0
 40
10.37404618735682
 50
93.0236123493
 51
119.8848020329
  0
LINE
  5
481
  8
0
  6
SLD-SOLID
 62
     7
 10
563.5120836342
 20
231.4364114879
 30
0.0
 11
563.9802185143
 21
231.4357930897
 31
0.0
  0
LINE
  5
482
  8
0
  6
SLD-SOLID
 62
     7
 10
302.01207523
 20
231.4364114879
 30
0.0
 11
302.4802250112
 21
231.4357930897
 31
0.0
  0
POLYLINE
  5
483
  8
0
  6
SLD-SOLID
 62
     7
 66
     1
 10
0.0
 20
0.0
 30
0.0
  0
VERTEX
  5
A46
  8
0
  6
SLD-SOLID
 62
     7
 10
290.5155462469
 20
231.4354578136
 30
0.0
  0
VERTEX
  5
A47
  8
0
  6
SLD-SOLID
 62
     7
 10
290.962983414
 20
231.4360613106
 30
0.0
  0
VERTEX
  5
A48
  8
0
  6
SLD-SOLID
 62
     7
 10
291.1620480264
 20
231.4363816856
 30
0.0
  0
VERTEX
  5
A49
  8
0
  6
SLD-SOLID
 62
     7
 10
291.1815685476
 20
231.4364114879
 30
0.0
  0
SEQEND
  5
A4A
  8
0
  6
SLD-SOLID
 62
     7
  0
POLYLINE
  5
484
  8
0
  6
SLD-SOLID
 62
     7
 66
     1
 10
0.0
 20
0.0
 30
0.0
  0
VERTEX
  5
A4B
  8
0
  6
SLD-SOLID
 62
     7
 10
442.5870222295
 20
231.4364114879
 30
0.0
  0
VERTEX
  5
A4C
  8
0
  6
SLD-SOLID
 62
     7
 10
442.6065427507
 20
231.4363816856
 30
0.0
  0
VERTEX
  5
A4D
  8
0
  6
SLD-SOLID
 62
     7
 10
443.0535924877
 20
231.4357036828
 30
0.0
  0
VERTEX
  5
A4E
  8
0
  6
SLD-SOLID
 62
     7
 10
443.2530482555
 20
231.4354578136
 30
0.0
  0
SEQEND
  5
A4F
  8
0
  6
SLD-SOLID
 62
     7
  0
ARC
  5
485
  8
0
  6
SLD-SOLID
 62
     7
 10
184.7807917921
 20
236.9389279495
 30
0.0
 40
5.503160928756119
 50
269.823642639
 51
275.9285203316
  0
POLYLINE
  5
486
  8
0
  6
SLD-SOLID
 62
     7
 66
     1
 10
0.0
 20
0.0
 30
0.0
  0
VERTEX
  5
A50
  8
0
  6
SLD-SOLID
 62
     7
 10
186.1901921476
 20
231.4594412325
 30
0.0
  0
VERTEX
  5
A51
  8
0
  6
SLD-SOLID
 62
     7
 10
186.3890928472
 20
231.4478779314
 30
0.0
  0
VERTEX
  5
A52
  8
0
  6
SLD-SOLID
 62
     7
 10
186.8638438428
 20
231.4364114879
 30
0.0
  0
SEQEND
  5
A53
  8
0
  6
SLD-SOLID
 62
     7
  0
POLYLINE
  5
487
  8
0
  6
SLD-SOLID
 62
     7
 66
     1
 10
0.0
 20
0.0
 30
0.0
  0
VERTEX
  5
A54
  8
0
  6
SLD-SOLID
 62
     7
 10
546.9047543848
 20
231.4364114879
 30
0.0
  0
VERTEX
  5
A55
  8
0
  6
SLD-SOLID
 62
     7
 10
547.3794979299
 20
231.4478779314
 30
0.0
  0
VERTEX
  5
A56
  8
0
  6
SLD-SOLID
 62
     7
 10
547.5784098054
 20
231.4594412325
 30
0.0
  0
SEQEND
  5
A57
  8
0
  6
SLD-SOLID
 62
     7
  0
ARC
  5
488
  8
0
  6
SLD-SOLID
 62
     7
 10
548.9877936486
 20
236.9386755748
 30
0.0
 40
5.502908583165916
 50
264.0713406842
 51
270.1764597984
  0
POLYLINE
  5
489
  8
0
  6
SLD-SOLID
 62
     7
 66
     1
 10
0.0
 20
0.0
 30
0.0
  0
VERTEX
  5
A58
  8
0
  6
SLD-SOLID
 62
     7
 10
187.5784141267
 20
231.4594412325
 30
0.0
  0
VERTEX
  5
A59
  8
0
  6
SLD-SOLID
 62
     7
 10
187.5816327775
 20
231.4538980006
 30
0.0
  0
VERTEX
  5
A5A
  8
0
  6
SLD-SOLID
 62
     7
 10
187.5853580678
 20
231.4364114879
 30
0.0
  0
SEQEND
  5
A5B
  8
0
  6
SLD-SOLID
 62
     7
  0
LINE
  5
48A
  8
0
  6
SLD-SOLID
 62
     7
 10
186.884288236
 20
231.4364114879
 30
0.0
 11
187.5784141267
 21
231.4594412325
 31
0.0
  0
ARC
  5
48B
  8
0
  6
SLD-SOLID
 62
     7
 10
546.8681697494
 20
241.4219696846
 30
0.0
 40
9.985571222785905
 50
266.106841605
 51
270.0925463168
  0
ARC
  5
48C
  8
0
  6
SLD-SOLID
 62
     7
 10
186.9519771257
 20
241.492529007
 30
0.0
 40
10.05262520971442
 50
273.5727450274
 51
322.0996359074
  0
ARC
  5
48D
  8
0
  6
SLD-SOLID
 62
     7
 10
546.8244002553
 20
241.5072538666
 30
0.0
 40
10.06780830842104
 50
217.9393059666
 51
266.3883130985
  0
ARC
  5
48E
  8
0
  6
SLD-SOLID
 62
     7
 10
206.7879342868
 20
241.4245879249
 30
0.0
 40
9.988327032021374
 50
217.6938824219
 51
251.2586198866
  0
ARC
  5
48F
  8
0
  6
SLD-SOLID
 62
     7
 10
526.9806915442
 20
241.4244981999
 30
0.0
 40
9.988235589320679
 50
288.7414360094
 51
322.3063627005
  0
ARC
  5
490
  8
0
  6
SLD-SOLID
 62
     7
 10
526.7768805893
 20
241.3497230091
 30
0.0
 40
9.913893467651526
 50
251.1800304976
 51
270.6208106193
  0
ARC
  5
491
  8
0
  6
SLD-SOLID
 62
     7
 10
466.9917126344
 20
241.3497295971
 30
0.0
 40
9.913900043828752
 50
269.3791958911
 51
288.819962992
  0
ARC
  5
492
  8
0
  6
SLD-SOLID
 62
     7
 10
486.9917136462
 20
241.3497263039
 30
0.0
 40
9.913896756529024
 50
269.3791926367
 51
288.8199662464
  0
ARC
  5
493
  8
0
  6
SLD-SOLID
 62
     7
 10
506.9917176597
 20
241.3496986435
 30
0.0
 40
9.913869135978567
 50
269.3791705093
 51
288.8199934155
  0
ARC
  5
494
  8
0
  6
SLD-SOLID
 62
     7
 10
466.7768800677
 20
241.3497230091
 30
0.0
 40
9.913893467651546
 50
251.1800304976
 51
270.6208106193
  0
ARC
  5
495
  8
0
  6
SLD-SOLID
 62
     7
 10
486.7768788225
 20
241.3497122112
 30
0.0
 40
9.913882689077045
 50
251.1800198268
 51
270.62082129
  0
ARC
  5
496
  8
0
  6
SLD-SOLID
 62
     7
 10
506.7768806993
 20
241.3497209049
 30
0.0
 40
9.913891367251669
 50
251.1800284182
 51
270.6208126986
  0
ARC
  5
497
  8
0
  6
SLD-SOLID
 62
     7
 10
526.9917202141
 20
241.349674278
 30
0.0
 40
9.913844804401522
 50
269.3791516378
 51
288.8200173287
  0
ARC
  5
498
  8
0
  6
SLD-SOLID
 62
     7
 10
206.9917262357
 20
241.349590194
 30
0.0
 40
9.913760773649916
 50
269.3791206154
 51
288.820098768
  0
ARC
  5
499
  8
0
  6
SLD-SOLID
 62
     7
 10
206.776871694
 20
241.349590194
 30
0.0
 40
9.913760773649916
 50
251.179901232
 51
270.6208793846
  0
ARC
  5
49A
  8
0
  6
SLD-SOLID
 62
     7
 10
246.9916891094
 20
241.3498599039
 30
0.0
 40
9.914030155941289
 50
269.3793038326
 51
288.8198348839
  0
ARC
  5
49B
  8
0
  6
SLD-SOLID
 62
     7
 10
226.7769399209
 20
241.3501292097
 30
0.0
 40
9.91429913482548
 50
251.1804285882
 51
270.6205133615
  0
ARC
  5
49C
  8
0
  6
SLD-SOLID
 62
     7
 10
246.7768633493
 20
241.349590194
 30
0.0
 40
9.913760773649916
 50
251.179901232
 51
270.6208793846
  0
ARC
  5
49D
  8
0
  6
SLD-SOLID
 62
     7
 10
266.7769028598
 20
241.3498599039
 30
0.0
 40
9.914030155941314
 50
251.1801651161
 51
270.6206961674
  0
ARC
  5
49E
  8
0
  6
SLD-SOLID
 62
     7
 10
226.9917369645
 20
241.349590194
 30
0.0
 40
9.913760773649916
 50
269.3791206154
 51
288.820098768
  0
ARC
  5
49F
  8
0
  6
SLD-SOLID
 62
     7
 10
266.9917286198
 20
241.349590194
 30
0.0
 40
9.913760773649916
 50
269.3791206154
 51
288.820098768
  0
LINE
  5
4A0
  8
0
  6
SLD-SOLID
 62
     7
 10
186.0455316747
 20
231.4703414319
 30
0.0
 11
186.1901921476
 21
231.4594412325
 31
0.0
  0
ARC
  5
4A1
  8
0
  6
SLD-SOLID
 62
     7
 10
506.9806812412
 20
241.4245123657
 30
0.0
 40
9.988252757260831
 50
288.7414733557
 51
322.306336105
  0
ARC
  5
4A2
  8
0
  6
SLD-SOLID
 62
     7
 10
206.9808276643
 20
241.4242878962
 30
0.0
 40
9.987990211805403
 50
288.741042084
 51
322.3067996288
  0
ARC
  5
4A3
  8
0
  6
SLD-SOLID
 62
     7
 10
226.7880384081
 20
241.4246902031
 30
0.0
 40
9.98846346976281
 50
217.6940191007
 51
251.2581391866
  0
ARC
  5
4A4
  8
0
  6
SLD-SOLID
 62
     7
 10
226.9807130896
 20
241.4244634101
 30
0.0
 40
9.988196679237168
 50
288.7413992797
 51
322.3064424331
  0
ARC
  5
4A5
  8
0
  6
SLD-SOLID
 62
     7
 10
466.7878960321
 20
241.4244826352
 30
0.0
 40
9.988219294877103
 50
217.6935966918
 51
251.2585615955
  0
ARC
  5
4A6
  8
0
  6
SLD-SOLID
 62
     7
 10
246.7877619207
 20
241.4242878962
 30
0.0
 40
9.987990211805394
 50
217.6932003712
 51
251.258957916
  0
ARC
  5
4A7
  8
0
  6
SLD-SOLID
 62
     7
 10
266.9806853864
 20
241.4245256669
 30
0.0
 40
9.988261854912865
 50
288.7413896956
 51
322.3062800061
  0
LINE
  5
4A8
  8
0
  6
SLD-SOLID
 62
     7
 10
547.5784098054
 20
231.4594412325
 30
0.0
 11
547.7230702783
 21
231.4703414319
 31
0.0
  0
ARC
  5
4A9
  8
0
  6
SLD-SOLID
 62
     7
 10
506.7879122896
 20
241.4245106396
 30
0.0
 40
9.9882507267163
 50
217.6936603822
 51
251.2585301571
  0
ARC
  5
4AA
  8
0
  6
SLD-SOLID
 62
     7
 10
526.7879119954
 20
241.4245086573
 30
0.0
 40
9.98824889863329
 50
217.6936541151
 51
251.2585256736
  0
ARC
  5
4AB
  8
0
  6
SLD-SOLID
 62
     7
 10
486.9806813339
 20
241.4245120384
 30
0.0
 40
9.988252561159225
 50
288.7414758837
 51
322.3063376085
  0
ARC
  5
4AC
  8
0
  6
SLD-SOLID
 62
     7
 10
246.9806906161
 20
241.4244890448
 30
0.0
 40
9.988226834845683
 50
288.7414514486
 51
322.3063902642
  0
ARC
  5
4AD
  8
0
  6
SLD-SOLID
 62
     7
 10
486.7879130376
 20
241.4245123657
 30
0.0
 40
9.988252757260787
 50
217.693663895
 51
251.2585266443
  0
ARC
  5
4AE
  8
0
  6
SLD-SOLID
 62
     7
 10
266.7879013531
 20
241.4244890448
 30
0.0
 40
9.988226834845683
 50
217.6936097358
 51
251.2585485514
  0
ARC
  5
4AF
  8
0
  6
SLD-SOLID
 62
     7
 10
466.9806850537
 20
241.4245091697
 30
0.0
 40
9.988248493727962
 50
288.7414583338
 51
322.3063403762
  0
POLYLINE
  5
4B0
  8
0
  6
SLD-SOLID
 62
     7
 66
     1
 10
0.0
 20
0.0
 30
0.0
  0
VERTEX
  5
A5C
  8
0
  6
SLD-SOLID
 62
     7
 10
548.7049971963
 20
231.6084155916
 30
0.0
  0
VERTEX
  5
A5D
  8
0
  6
SLD-SOLID
 62
     7
 10
549.5947343553
 20
231.7335182904
 30
0.0
  0
VERTEX
  5
A5E
  8
0
  6
SLD-SOLID
 62
     7
 10
551.5060429717
 20
232.4158350109
 30
0.0
  0
SEQEND
  5
A5F
  8
0
  6
SLD-SOLID
 62
     7
  0
POLYLINE
  5
4B1
  8
0
  6
SLD-SOLID
 62
     7
 66
     1
 10
0.0
 20
0.0
 30
0.0
  0
VERTEX
  5
A60
  8
0
  6
SLD-SOLID
 62
     7
 10
182.2625440801
 20
232.4158350109
 30
0.0
  0
VERTEX
  5
A61
  8
0
  6
SLD-SOLID
 62
     7
 10
184.1599685396
 20
231.7368859528
 30
0.0
  0
VERTEX
  5
A62
  8
0
  6
SLD-SOLID
 62
     7
 10
185.0636941636
 20
231.6091382979
 30
0.0
  0
SEQEND
  5
A63
  8
0
  6
SLD-SOLID
 62
     7
  0
POLYLINE
  5
4B2
  8
0
  6
SLD-SOLID
 62
     7
 66
     1
 10
0.0
 20
0.0
 30
0.0
  0
VERTEX
  5
A64
  8
0
  6
SLD-SOLID
 62
     7
 10
443.6280918563
 20
231.397452402
 30
0.0
  0
VERTEX
  5
A65
  8
0
  6
SLD-SOLID
 62
     7
 10
442.2574271704
 20
231.380912113
 30
0.0
  0
VERTEX
  5
A66
  8
0
  6
SLD-SOLID
 62
     7
 10
441.7997864331
 20
231.3742736457
 30
0.0
  0
SEQEND
  5
A67
  8
0
  6
SLD-SOLID
 62
     7
  0
LINE
  5
4B3
  8
0
  6
SLD-SOLID
 62
     7
 10
287.385736152
 20
231.4301008461
 30
0.0
 11
287.3940659011
 21
231.4299518345
 31
0.0
  0
LINE
  5
4B4
  8
0
  6
SLD-SOLID
 62
     7
 10
446.3745286013
 20
231.4299518345
 30
0.0
 11
446.3828620757
 21
231.4301008461
 31
0.0
  0
ARC
  5
4B5
  8
0
  6
SLD-SOLID
 62
     7
 10
437.3827735598
 20
219.1628532626
 30
0.0
 40
10.25611493405828
 50
92.7914070783
 51
119.5197867215
  0
ARC
  5
4B6
  8
0
  6
SLD-SOLID
 62
     7
 10
446.7881785768
 20
243.1281268704
 30
0.0
 40
11.70504567829615
 50
257.1634760712
 51
268.0155935324
  0
ARC
  5
4B7
  8
0
  6
SLD-SOLID
 62
     7
 10
286.988922256
 20
243.0627539275
 30
0.0
 40
11.63941918568277
 50
271.9537201694
 51
282.8672102271
  0
ARC
  5
4B8
  8
0
  6
SLD-SOLID
 62
     7
 10
546.8842988158
 20
226.8189989113
 30
0.0
 40
2.500191528956409
 50
216.8757369735
 51
323.1242630265
  0
ARC
  5
4B9
  8
0
  6
SLD-SOLID
 62
     7
 10
186.884288236
 20
226.8190081442
 30
0.0
 40
2.500200049451743
 50
216.8758549995
 51
323.1241450005
  0
LINE
  5
4BA
  8
0
  6
SLD-SOLID
 62
     7
 10
289.5809305156
 20
231.7156145452
 30
0.0
 11
291.5060413326
 21
232.4041375993
 31
0.0
  0
LINE
  5
4BB
  8
0
  6
SLD-SOLID
 62
     7
 10
442.2625531698
 20
232.4041375993
 30
0.0
 11
444.1876677121
 21
231.7156145452
 31
0.0
  0
ARC
  5
4BC
  8
0
  6
SLD-SOLID
 62
     7
 10
536.8842971767
 20
233.8169658626
 30
0.0
 40
2.500200585857433
 50
36.8760136502
 51
143.1239863498
  0
ARC
  5
4BD
  8
0
  6
SLD-SOLID
 62
     7
 10
196.8842936004
 20
233.8169935615
 30
0.0
 40
2.500175024216821
 50
36.875659567
 51
143.124340433
  0
ARC
  5
4BE
  8
0
  6
SLD-SOLID
 62
     7
 10
476.8842975865
 20
233.8169681709
 30
0.0
 40
2.500198455720106
 50
36.8759841436
 51
143.1240158564
  0
ARC
  5
4BF
  8
0
  6
SLD-SOLID
 62
     7
 10
516.8842976237
 20
233.8169658626
 30
0.0
 40
2.500200585857433
 50
36.8760136502
 51
143.1239863498
  0
ARC
  5
4C0
  8
0
  6
SLD-SOLID
 62
     7
 10
496.8842974305
 20
233.8169664071
 30
0.0
 40
2.500200026315906
 50
36.8760076714
 51
143.1239923286
  0
ARC
  5
4C1
  8
0
  6
SLD-SOLID
 62
     7
 10
456.8842989648
 20
233.8169658626
 30
0.0
 40
2.500200585857479
 50
36.8760136502
 51
143.1239863498
  0
ARC
  5
4C2
  8
0
  6
SLD-SOLID
 62
     7
 10
216.8842894281
 20
233.8169566297
 30
0.0
 40
2.500209106418621
 50
36.876131676
 51
143.123868324
  0
ARC
  5
4C3
  8
0
  6
SLD-SOLID
 62
     7
 10
276.8842992628
 20
233.8169750956
 30
0.0
 40
2.500192065296519
 50
36.8758956232
 51
143.1241043768
  0
ARC
  5
4C4
  8
0
  6
SLD-SOLID
 62
     7
 10
256.8842959846
 20
233.8169566297
 30
0.0
 40
2.500209106418621
 50
36.876131676
 51
143.123868324
  0
ARC
  5
4C5
  8
0
  6
SLD-SOLID
 62
     7
 10
236.8843001569
 20
233.8169566297
 30
0.0
 40
2.500209106418621
 50
36.876131676
 51
143.123868324
  0
ARC
  5
4C6
  8
0
  6
SLD-SOLID
 62
     7
 10
547.3383460426
 20
241.0949921692
 30
0.0
 40
9.627952361373913
 50
295.6501342468
 51
321.605625
  0
ARC
  5
4C7
  8
0
  6
SLD-SOLID
 62
     7
 10
186.4302979707
 20
241.0950322124
 30
0.0
 40
9.628013115677772
 50
218.3943925427
 51
244.3496633349
  0
ARC
  5
4C8
  8
0
  6
SLD-SOLID
 62
     7
 10
446.4481877911
 20
241.0926845154
 30
0.0
 40
9.6441891673281
 50
218.3444553758
 51
244.2779478851
  0
ARC
  5
4C9
  8
0
  6
SLD-SOLID
 62
     7
 10
287.3204999759
 20
241.0925680555
 30
0.0
 40
9.644043770093242
 50
295.721853216
 51
321.6557435231
  0
ARC
  5
4CA
  8
0
  6
SLD-SOLID
 62
     7
 10
566.9954449071
 20
241.3526497262
 30
0.0
 40
10.22455665413712
 50
218.2933933036
 51
242.425959591
  0
ARC
  5
4CB
  8
0
  6
SLD-SOLID
 62
     7
 10
166.7731500055
 20
241.3526188737
 30
0.0
 40
10.22453428947592
 50
297.5741739141
 51
321.7067280275
  0
LINE
  5
4CC
  8
0
  6
SLD-SOLID
 62
     7
 10
562.2625542129
 20
232.2894657134
 30
0.0
 11
564.0418944205
 21
231.6793898223
 31
0.0
  0
LINE
  5
4CD
  8
0
  6
SLD-SOLID
 62
     7
 10
169.4733244623
 20
231.5925160526
 30
0.0
 11
171.5060514654
 21
232.2894657134
 31
0.0
  0
ARC
  5
4CE
  8
0
  6
SLD-SOLID
 62
     7
 10
306.9845458177
 20
241.3369383231
 30
0.0
 40
10.21025097982291
 50
218.244192882
 51
242.452999045
  0
ARC
  5
4CF
  8
0
  6
SLD-SOLID
 62
     7
 10
426.7840449594
 20
241.3369383231
 30
0.0
 40
10.21025097982291
 50
297.547000955
 51
321.755807118
  0
LINE
  5
4D0
  8
0
  6
SLD-SOLID
 62
     7
 10
302.2625488485
 20
232.2842056035
 30
0.0
 11
303.4811956132
 21
231.7473167656
 31
0.0
  0
LINE
  5
4D1
  8
0
  6
SLD-SOLID
 62
     7
 10
430.2873951639
 20
231.7473167656
 30
0.0
 11
431.5060419286
 21
232.2842056035
 31
0.0
  0
ARC
  5
4D2
  8
0
  6
SLD-SOLID
 62
     7
 10
320.4358590782
 20
217.2848652724
 30
0.0
 40
3.140770456016041
 50
246.7761381627
 51
270.3291392592
  0
LINE
  5
4D3
  8
0
  6
SLD-SOLID
 62
     7
 10
325.8560342039
 20
214.0154453097
 30
0.0
 11
325.8797717536
 21
214.0153000234
 31
0.0
  0
LINE
  5
4D4
  8
0
  6
SLD-SOLID
 62
     7
 10
407.9125640238
 20
214.0154453097
 30
0.0
 11
407.888826474
 21
214.0153000234
 31
0.0
  0
ARC
  5
4D5
  8
0
  6
SLD-SOLID
 62
     7
 10
413.3327263067
 20
217.284928695
 30
0.0
 40
3.140833803866756
 50
269.6711016647
 51
293.2236209134
  0
LINE
  5
4D6
  8
0
  6
SLD-SOLID
 62
     7
 10
581.9301572884
 20
214.1442919253
 30
0.0
 11
581.9538948382
 21
214.144146639
 31
0.0
  0
LINE
  5
4D7
  8
0
  6
SLD-SOLID
 62
     7
 10
151.8384260381
 20
214.1442919253
 30
0.0
 11
151.8147033895
 21
214.144146639
 31
0.0
  0
LINE
  5
4D8
  8
0
  6
SLD-SOLID
 62
     7
 10
148.004089042
 20
246.139580953
 30
0.0
 11
148.027841493
 21
246.139722514
 31
0.0
  0
LINE
  5
4D9
  8
0
  6
SLD-SOLID
 62
     7
 10
324.2407632316
 20
246.139722514
 30
0.0
 11
324.2645007814
 21
246.139580953
 31
0.0
  0
LINE
  5
4DA
  8
0
  6
SLD-SOLID
 62
     7
 10
409.5040899957
 20
246.139580953
 30
0.0
 11
409.5278275455
 21
246.139722514
 31
0.0
  0
LINE
  5
4DB
  8
0
  6
SLD-SOLID
 62
     7
 10
585.7407641853
 20
246.139722514
 30
0.0
 11
585.7645091856
 21
246.139580953
 31
0.0
  0
LINE
  5
4DC
  8
0
  6
SLD-SOLID
 62
     7
 10
148.027841493
 20
246.139722514
 30
0.0
 11
151.8147033895
 21
246.139722514
 31
0.0
  0
LINE
  5
4DD
  8
0
  6
SLD-SOLID
 62
     7
 10
320.4539013351
 20
246.139722514
 30
0.0
 11
324.2407632316
 21
246.139722514
 31
0.0
  0
LINE
  5
4DE
  8
0
  6
SLD-SOLID
 62
     7
 10
409.5278275455
 20
246.139722514
 30
0.0
 11
413.3146968926
 21
246.139722514
 31
0.0
  0
LINE
  5
4DF
  8
0
  6
SLD-SOLID
 62
     7
 10
581.9538948382
 20
246.139722514
 30
0.0
 11
585.7407641853
 21
246.139722514
 31
0.0
  0
POLYLINE
  5
4E0
  8
0
  6
SLD-SOLID
 62
     7
 66
     1
 10
0.0
 20
0.0
 30
0.0
  0
VERTEX
  5
A68
  8
0
  6
SLD-SOLID
 62
     7
 10
119.2260128702
 20
213.9299349962
 30
0.0
  0
VERTEX
  5
A69
  8
0
  6
SLD-SOLID
 62
     7
 10
119.2084593023
 20
213.9298753916
 30
0.0
  0
VERTEX
  5
A6A
  8
0
  6
SLD-SOLID
 62
     7
 10
117.8843123163
 20
213.9277072726
 30
0.0
  0
SEQEND
  5
A6B
  8
0
  6
SLD-SOLID
 62
     7
  0
ARC
  5
4E1
  8
0
  6
SLD-SOLID
 62
     7
 10
140.7893047858
 20
476.5642908107
 30
0.0
 40
262.5206817550139
 50
269.8891643706
 51
271.1027119085
  0
ARC
  5
4E2
  8
0
  6
SLD-SOLID
 62
     7
 10
143.9981144771
 20
338.2011356294
 30
0.0
 40
124.208845498504
 50
269.8889100465
 51
271.1028726517
  0
LINE
  5
4E3
  8
0
  6
SLD-SOLID
 62
     7
 10
131.7653400148
 20
213.9925235985
 30
0.0
 11
143.7572879041
 21
213.9925235985
 31
0.0
  0
ARC
  5
4E4
  8
0
  6
SLD-SOLID
 62
     7
 10
131.0655490784
 20
116.6190233599
 30
0.0
 40
97.3760147884659
 50
89.5882413917
 51
91.7575520934
  0
ARC
  5
4E5
  8
0
  6
SLD-SOLID
 62
     7
 10
124.5914824256
 20
390.3352098616
 30
0.0
 40
176.4590855424751
 50
269.9901947285
 51
270.4088039498
  0
LINE
  5
4E6
  8
0
  6
SLD-SOLID
 62
     7
 10
106.7683142866
 20
213.8761269031
 30
0.0
 11
108.8843089784
 21
213.8761269031
 31
0.0
  0
LINE
  5
4E7
  8
0
  6
SLD-SOLID
 62
     7
 10
114.8842913354
 20
213.8761269031
 30
0.0
 11
119.1537422384
 21
213.8761269031
 31
0.0
  0
LINE
  5
4E8
  8
0
  6
SLD-SOLID
 62
     7
 10
121.6148478235
 20
213.8761269031
 30
0.0
 11
124.5612842287
 21
213.8761269031
 31
0.0
  0
ARC
  5
4E9
  8
0
  6
SLD-SOLID
 62
     7
 10
106.2877339956
 20
86.7263354797
 30
0.0
 40
127.1506996301431
 50
89.7834436772
 51
91.3938107132
  0
ARC
  5
4EA
  8
0
  6
SLD-SOLID
 62
     7
 10
627.4938706169
 20
89.2667526881
 30
0.0
 40
124.6103518659253
 50
88.5654208531
 51
90.2269617857
  0
LINE
  5
4EB
  8
0
  6
SLD-SOLID
 62
     7
 10
609.2072990979
 20
213.8761269031
 30
0.0
 11
612.1537504042
 21
213.8761269031
 31
0.0
  0
LINE
  5
4EC
  8
0
  6
SLD-SOLID
 62
     7
 10
614.6148410881
 20
213.8761269031
 30
0.0
 11
618.8842994417
 21
213.8761269031
 31
0.0
  0
LINE
  5
4ED
  8
0
  6
SLD-SOLID
 62
     7
 10
624.8842966998
 20
213.8761269031
 30
0.0
 11
627.0002615894
 21
213.8761269031
 31
0.0
  0
ARC
  5
4EE
  8
0
  6
SLD-SOLID
 62
     7
 10
609.0781620996
 20
360.9537501616
 30
0.0
 40
147.0776799508541
 50
269.1859070124
 51
270.0503067898
  0
ARC
  5
4EF
  8
0
  6
SLD-SOLID
 62
     7
 10
602.4732726246
 20
85.2441417872
 30
0.0
 40
128.7492397903623
 50
88.762774444
 51
90.2091721531
  0
LINE
  5
4F0
  8
0
  6
SLD-SOLID
 62
     7
 10
590.011302873
 20
213.9925235985
 30
0.0
 11
602.0032433117
 21
213.9925235985
 31
0.0
  0
ARC
  5
4F1
  8
0
  6
SLD-SOLID
 62
     7
 10
589.7704823422
 20
338.2002696425
 30
0.0
 40
124.2079795015587
 50
268.8971237453
 51
270.1110879408
  0
ARC
  5
4F2
  8
0
  6
SLD-SOLID
 62
     7
 10
592.9792939222
 20
476.5642676836
 30
0.0
 40
262.5206586414262
 50
268.8972878895
 51
270.1108371604
  0
ARC
  5
4F3
  8
0
  6
SLD-SOLID
 62
     7
 10
402.2893006186
 20
476.5639430497
 30
0.0
 40
262.5203340136612
 50
269.8891620893
 51
271.1027128608
  0
ARC
  5
4F4
  8
0
  6
SLD-SOLID
 62
     7
 10
405.4981050909
 20
338.2015482367
 30
0.0
 40
124.2092580849775
 50
269.8889151851
 51
271.1028703209
  0
LINE
  5
4F5
  8
0
  6
SLD-SOLID
 62
     7
 10
328.5113019193
 20
213.9925235985
 30
0.0
 11
351.3195854867
 21
213.9925235985
 31
0.0
  0
LINE
  5
4F6
  8
0
  6
SLD-SOLID
 62
     7
 10
353.4490061248
 20
213.9925235985
 30
0.0
 11
380.3195846523
 21
213.9925235985
 31
0.0
  0
LINE
  5
4F7
  8
0
  6
SLD-SOLID
 62
     7
 10
382.4490127409
 20
213.9925235985
 30
0.0
 11
405.2572888578
 21
213.9925235985
 31
0.0
  0
ARC
  5
4F8
  8
0
  6
SLD-SOLID
 62
     7
 10
328.2704813885
 20
338.2002696425
 30
0.0
 40
124.2079795015587
 50
268.8971237453
 51
270.1110879408
  0
ARC
  5
4F9
  8
0
  6
SLD-SOLID
 62
     7
 10
331.4792920349
 20
476.5633776974
 30
0.0
 40
262.5197686587748
 50
268.8972859809
 51
270.1108377399
  0
LINE
  5
4FA
  8
0
  6
SLD-SOLID
 62
     7
 10
587.3560277069
 20
214.0154453097
 30
0.0
 11
587.3797727073
 21
214.0153000234
 31
0.0
  0
LINE
  5
4FB
  8
0
  6
SLD-SOLID
 62
     7
 10
146.4125556196
 20
214.0154453097
 30
0.0
 11
146.3888329709
 21
214.0153000234
 31
0.0
  0
ARC
  5
4FC
  8
0
  6
SLD-SOLID
 62
     7
 10
176.8843198941
 20
233.6150523586
 30
0.0
 40
2.500165177500072
 50
36.8756344912
 51
95.8803011966
  0
ARC
  5
4FD
  8
0
  6
SLD-SOLID
 62
     7
 10
556.8842589863
 20
233.6150800299
 30
0.0
 40
2.500133095780695
 50
94.5555853293
 51
143.124606721
  0
ARC
  5
4FE
  8
0
  6
SLD-SOLID
 62
     7
 10
296.8842235479
 20
233.6093426774
 30
0.0
 40
2.500063083504262
 50
95.6612849721
 51
143.1253125505
  0
ARC
  5
4FF
  8
0
  6
SLD-SOLID
 62
     7
 10
436.8843319309
 20
233.6092975349
 30
0.0
 40
2.500121388987069
 50
36.8749783826
 51
96.1023744909
  0
ARC
  5
500
  8
0
  6
SLD-SOLID
 62
     7
 10
140.6565475351
 20
423.3600500203
 30
0.0
 40
193.2887998005139
 50
269.8888181303
 51
271.1029759764
  0
ARC
  5
501
  8
0
  6
SLD-SOLID
 62
     7
 10
331.6120492925
 20
423.359137628
 30
0.0
 40
193.2878874252924
 50
268.8970211579
 51
270.1111847354
  0
ARC
  5
502
  8
0
  6
SLD-SOLID
 62
     7
 10
402.1565482352
 20
423.3583576844
 30
0.0
 40
193.2871074962306
 50
269.8888128149
 51
271.1029812919
  0
ARC
  5
503
  8
0
  6
SLD-SOLID
 62
     7
 10
593.1120502462
 20
423.359137628
 30
0.0
 40
193.2878874252924
 50
268.8970211579
 51
270.1111847354
  0
ARC
  5
504
  8
0
  6
SLD-SOLID
 62
     7
 10
140.7898351312
 20
508.4782869356
 30
0.0
 40
262.4391031843624
 50
269.8890141323
 51
271.1029389196
  0
ARC
  5
505
  8
0
  6
SLD-SOLID
 62
     7
 10
402.2898309634
 20
508.4779391851
 30
0.0
 40
262.4387554535081
 50
269.8890118501
 51
271.1029398726
  0
ARC
  5
506
  8
0
  6
SLD-SOLID
 62
     7
 10
331.4787616867
 20
508.4773735685
 30
0.0
 40
262.4381898342553
 50
268.8970589679
 51
270.1109879802
  0
ARC
  5
507
  8
0
  6
SLD-SOLID
 62
     7
 10
592.9787635745
 20
508.4782634533
 30
0.0
 40
262.4390797156425
 50
268.8970608774
 51
270.1109873999
  0
LINE
  5
508
  8
0
  6
SLD-SOLID
 62
     7
 10
123.6731452192
 20
214.9916352807
 30
0.0
 11
122.8843075479
 21
230.05500679
 31
0.0
  0
ARC
  5
509
  8
0
  6
SLD-SOLID
 62
     7
 10
123.6332544375
 20
215.0522808519
 30
0.0
 40
15.02140829009367
 50
89.0476487113
 51
92.85787416
  0
LINE
  5
50A
  8
0
  6
SLD-SOLID
 62
     7
 10
610.8842981304
 20
230.05500679
 30
0.0
 11
610.0954381073
 21
214.9916352807
 31
0.0
  0
ARC
  5
50B
  8
0
  6
SLD-SOLID
 62
     7
 10
610.1353324502
 20
215.0513749638
 30
0.0
 40
15.02231398838262
 50
87.1422265274
 51
90.9522790294
  0
LINE
  5
50C
  8
0
  6
SLD-SOLID
 62
     7
 10
123.8829237665
 20
230.0716141342
 30
0.0
 11
140.2814728464
 21
230.0716141342
 31
0.0
  0
LINE
  5
50D
  8
0
  6
SLD-SOLID
 62
     7
 10
331.9871318782
 20
230.0716141342
 30
0.0
 11
401.7814588989
 21
230.0716141342
 31
0.0
  0
LINE
  5
50E
  8
0
  6
SLD-SOLID
 62
     7
 10
593.4871328319
 20
230.0716141342
 30
0.0
 11
609.8856670106
 21
230.0716141342
 31
0.0
  0
LINE
  5
50F
  8
0
  6
SLD-SOLID
 62
     7
 10
122.8843075479
 20
230.05500679
 30
0.0
 11
123.6731452192
 21
245.0921410798
 31
0.0
  0
LINE
  5
510
  8
0
  6
SLD-SOLID
 62
     7
 10
610.0954381073
 20
245.0921410798
 30
0.0
 11
610.8842981304
 21
230.05500679
 31
0.0
  0
LINE
  5
511
  8
0
  6
SLD-SOLID
 62
     7
 10
122.8843075479
 20
230.0383547424
 30
0.0
 11
122.8843075479
 21
230.05500679
 31
0.0
  0
LINE
  5
512
  8
0
  6
SLD-SOLID
 62
     7
 10
610.8842981304
 20
230.05500679
 30
0.0
 11
610.8842981304
 21
230.0383547424
 31
0.0
  0
LINE
  5
513
  8
0
  6
SLD-SOLID
 62
     7
 10
124.6717912401
 20
246.0396761177
 30
0.0
 11
140.2814728464
 21
246.0396761177
 31
0.0
  0
ARC
  5
514
  8
0
  6
SLD-SOLID
 62
     7
 10
124.6717360616
 20
245.039709763
 30
0.0
 40
0.9999663562437323
 50
89.9968384025
 51
176.9944275233
  0
LINE
  5
515
  8
0
  6
SLD-SOLID
 62
     7
 10
331.9871318782
 20
246.0396761177
 30
0.0
 11
401.7814588989
 21
246.0396761177
 31
0.0
  0
ARC
  5
516
  8
0
  6
SLD-SOLID
 62
     7
 10
609.0968763868
 20
245.0397404546
 30
0.0
 40
0.9999356655112553
 50
3.0039037761
 51
90.0039765387
  0
LINE
  5
517
  8
0
  6
SLD-SOLID
 62
     7
 10
593.4871328319
 20
246.0396761177
 30
0.0
 11
609.0968069876
 21
246.0396761177
 31
0.0
  0
ARC
  5
518
  8
0
  6
SLD-SOLID
 62
     7
 10
119.1337683791
 20
305.2027551694
 30
0.0
 40
75.25791410613247
 50
269.0487133601
 51
272.856564892
  0
ARC
  5
519
  8
0
  6
SLD-SOLID
 62
     7
 10
614.6348234769
 20
305.2018119412
 30
0.0
 40
75.2569713611381
 50
267.1434098306
 51
270.9513147558
  0
ARC
  5
51A
  8
0
  6
SLD-SOLID
 62
     7
 10
118.7302649197
 20
455.9099463081
 30
0.0
 40
209.9883671564954
 50
269.7691793807
 51
271.4521514935
  0
ARC
  5
51B
  8
0
  6
SLD-SOLID
 62
     7
 10
615.0748266618
 20
463.0406669037
 30
0.0
 40
217.1188927234945
 50
268.6154896823
 51
270.2136136535
  0
LINE
  5
51C
  8
0
  6
SLD-SOLID
 62
     7
 10
98.673169061
 20
214.8752385853
 30
0.0
 11
97.8843015874
 21
229.9386138199
 31
0.0
  0
ARC
  5
51D
  8
0
  6
SLD-SOLID
 62
     7
 10
98.6330010597
 20
214.9440308397
 30
0.0
 40
15.01326312470194
 50
89.0461876229
 51
92.858480528
  0
LINE
  5
51E
  8
0
  6
SLD-SOLID
 62
     7
 10
635.8843040908
 20
229.9386138199
 30
0.0
 11
635.0954366172
 21
214.8752385853
 31
0.0
  0
ARC
  5
51F
  8
0
  6
SLD-SOLID
 62
     7
 10
635.1355940565
 20
214.9436197836
 30
0.0
 40
15.01367419602876
 50
87.1415574439
 51
90.9538028207
  0
LINE
  5
520
  8
0
  6
SLD-SOLID
 62
     7
 10
98.882917806
 20
229.9552137135
 30
0.0
 11
108.8843089784
 21
229.9552137135
 31
0.0
  0
LINE
  5
521
  8
0
  6
SLD-SOLID
 62
     7
 10
114.8842913354
 20
229.9552137135
 30
0.0
 11
117.8843123163
 21
229.9552137135
 31
0.0
  0
LINE
  5
522
  8
0
  6
SLD-SOLID
 62
     7
 10
615.8843008126
 20
229.9552137135
 30
0.0
 11
618.8842994417
 21
229.9552137135
 31
0.0
  0
LINE
  5
523
  8
0
  6
SLD-SOLID
 62
     7
 10
624.8842966998
 20
229.9552137135
 30
0.0
 11
634.8856729711
 21
229.9552137135
 31
0.0
  0
LINE
  5
524
  8
0
  6
SLD-SOLID
 62
     7
 10
97.8843015874
 20
229.9386138199
 30
0.0
 11
98.673169061
 21
244.9757481097
 31
0.0
  0
LINE
  5
525
  8
0
  6
SLD-SOLID
 62
     7
 10
635.0954366172
 20
244.9757481097
 30
0.0
 11
635.8843040908
 21
229.9386138199
 31
0.0
  0
LINE
  5
526
  8
0
  6
SLD-SOLID
 62
     7
 10
97.8843015874
 20
226.0144079207
 30
0.0
 11
98.6131471837
 21
212.1213512598
 31
0.0
  0
LINE
  5
527
  8
0
  6
SLD-SOLID
 62
     7
 10
97.8843015874
 20
226.0144079207
 30
0.0
 11
97.8843015874
 21
229.9386138199
 31
0.0
  0
LINE
  5
528
  8
0
  6
SLD-SOLID
 62
     7
 10
635.8843040908
 20
229.9386138199
 30
0.0
 11
635.8843040908
 21
226.0144079207
 31
0.0
  0
LINE
  5
529
  8
0
  6
SLD-SOLID
 62
     7
 10
635.1554584945
 20
212.1213512598
 30
0.0
 11
635.8843040908
 21
226.0144079207
 31
0.0
  0
LINE
  5
52A
  8
0
  6
SLD-SOLID
 62
     7
 10
99.6717852796
 20
245.9232831477
 30
0.0
 11
117.8843123163
 21
245.9232831477
 31
0.0
  0
ARC
  5
52B
  8
0
  6
SLD-SOLID
 62
     7
 10
99.6717214373
 20
244.9233573316
 30
0.0
 40
0.9999258180952305
 50
89.996341832
 51
176.9966316261
  0
ARC
  5
52C
  8
0
  6
SLD-SOLID
 62
     7
 10
634.0968780119
 20
244.9233507677
 30
0.0
 40
0.9999323826088069
 50
3.0037252667
 51
90.0041550481
  0
LINE
  5
52D
  8
0
  6
SLD-SOLID
 62
     7
 10
615.8843008126
 20
245.9232831477
 30
0.0
 11
634.0968054975
 21
245.9232831477
 31
0.0
  0
ARC
  5
52E
  8
0
  6
SLD-SOLID
 62
     7
 10
99.6711423105
 20
211.029190121
 30
0.0
 40
0.9991932892984594
 50
212.653192264
 51
232.0565376941
  0
ARC
  5
52F
  8
0
  6
SLD-SOLID
 62
     7
 10
634.0965498489
 20
211.0300598014
 30
0.0
 40
1.000431695219702
 50
307.9534225335
 51
327.3331006269
  0
LINE
  5
530
  8
0
  6
SLD-SOLID
 62
     7
 10
103.8261694158
 20
212.1213512598
 30
0.0
 11
103.9519650186
 21
214.5230906187
 31
0.0
  0
LINE
  5
531
  8
0
  6
SLD-SOLID
 62
     7
 10
629.8515689815
 20
213.8562450288
 30
0.0
 11
629.9424213613
 21
212.1213512598
 31
0.0
  0
LINE
  5
532
  8
0
  6
SLD-SOLID
 62
     7
 10
155.9866708959
 20
241.9604981421
 30
0.0
 11
316.2819338287
 21
241.9604981421
 31
0.0
  0
LINE
  5
533
  8
0
  6
SLD-SOLID
 62
     7
 10
417.4866569484
 20
241.9604981421
 30
0.0
 11
577.7819347824
 21
241.9604981421
 31
0.0
  0
LINE
  5
534
  8
0
  6
SLD-SOLID
 62
     7
 10
627.0843041385
 20
211.1007409273
 30
0.0
 11
106.6843015397
 21
211.1007409273
 31
0.0
  0
LINE
  5
535
  8
0
  6
SLD-SOLID
 62
     7
 10
627.0843041385
 20
211.1007409273
 30
0.0
 11
627.0843041385
 21
193.6539324103
 31
0.0
  0
LINE
  5
536
  8
0
  6
SLD-SOLID
 62
     7
 10
106.6843015397
 20
211.1007409273
 30
0.0
 11
106.6843015397
 21
193.6539324103
 31
0.0
  0
LINE
  5
537
  8
0
  6
SLD-SOLID
 62
     7
 10
627.0843041385
 20
211.4879289745
 30
0.0
 11
106.6843015397
 21
211.4879289745
 31
0.0
  0
LINE
  5
538
  8
0
  6
SLD-SOLID
 62
     7
 10
627.0843041385
 20
211.1007409273
 30
0.0
 11
627.0843041385
 21
211.4879289745
 31
0.0
  0
LINE
  5
539
  8
0
  6
SLD-SOLID
 62
     7
 10
106.6843015397
 20
211.1007409273
 30
0.0
 11
106.6843015397
 21
211.4879289745
 31
0.0
  0
LINE
  5
53A
  8
0
  6
SLD-SOLID
 62
     7
 10
105.8842879976
 20
211.4877389847
 30
0.0
 11
106.6843015397
 21
211.4877389847
 31
0.0
  0
LINE
  5
53B
  8
0
  6
SLD-SOLID
 62
     7
 10
105.8842879976
 20
193.9589554547
 30
0.0
 11
105.8842879976
 21
211.4877389847
 31
0.0
  0
LINE
  5
53C
  8
0
  6
SLD-SOLID
 62
     7
 10
627.8843027795
 20
211.4877389847
 30
0.0
 11
627.0843041385
 21
211.4877389847
 31
0.0
  0
LINE
  5
53D
  8
0
  6
SLD-SOLID
 62
     7
 10
627.8843027795
 20
193.9589554547
 30
0.0
 11
627.8843027795
 21
211.4877389847
 31
0.0
  0
ARC
  5
53E
  8
0
  6
SLD-SOLID
 62
     7
 10
104.6343913634
 20
209.2401760832
 30
0.0
 40
1.249896636098004
 50
0.0031715776
 51
90.0046836858
  0
ARC
  5
53F
  8
0
  6
SLD-SOLID
 62
     7
 10
104.6343966553
 20
210.0715693129
 30
0.0
 40
1.249891343951355
 50
0.0029289755
 51
90.004926288
  0
ARC
  5
540
  8
0
  6
SLD-SOLID
 62
     7
 10
104.6344003557
 20
210.0713962492
 30
0.0
 40
2.049955013617282
 50
43.7025080333
 51
90.0031070645
  0
ARC
  5
541
  8
0
  6
SLD-SOLID
 62
     7
 10
629.1342006098
 20
210.0715628241
 30
0.0
 40
1.249897832226524
 50
89.9953711466
 51
179.99677359
  0
ARC
  5
542
  8
0
  6
SLD-SOLID
 62
     7
 10
629.1342059018
 20
209.2401695942
 30
0.0
 40
1.249903124606432
 50
89.9956137556
 51
179.9965309809
  0
ARC
  5
543
  8
0
  6
SLD-SOLID
 62
     7
 10
629.1343536582
 20
210.0710144176
 30
0.0
 40
2.050336842817983
 50
90.0014550964
 51
136.2929298058
  0
LINE
  5
544
  8
0
  6
SLD-SOLID
 62
     7
 10
85.1343018258
 20
212.1213512598
 30
0.0
 11
104.6342891897
 21
212.1213512598
 31
0.0
  0
LINE
  5
545
  8
0
  6
SLD-SOLID
 62
     7
 10
85.1343018258
 20
211.3214606522
 30
0.0
 11
88.2507604803
 21
211.3214606522
 31
0.0
  0
LINE
  5
546
  8
0
  6
SLD-SOLID
 62
     7
 10
91.517840072
 20
211.3214606522
 30
0.0
 11
104.6342891897
 21
211.3214606522
 31
0.0
  0
LINE
  5
547
  8
0
  6
SLD-SOLID
 62
     7
 10
83.0842894758
 20
213.3711787044
 30
0.0
 11
83.0842894758
 21
213.0535865305
 31
0.0
  0
ARC
  5
548
  8
0
  6
SLD-SOLID
 62
     7
 10
85.1341442656
 20
213.3713154405
 30
0.0
 40
2.049854794373096
 50
180.0038219319
 51
270.0044039893
  0
ARC
  5
549
  8
0
  6
SLD-SOLID
 62
     7
 10
85.1341442656
 20
213.0537232667
 30
0.0
 40
2.049854794373096
 50
180.0038219319
 51
270.0044039893
  0
ARC
  5
54A
  8
0
  6
SLD-SOLID
 62
     7
 10
85.1342242939
 20
213.3712725369
 30
0.0
 40
1.249921279483963
 50
180.0043012371
 51
270.0035540264
  0
LINE
  5
54B
  8
0
  6
SLD-SOLID
 62
     7
 10
85.1343018258
 20
211.0038684784
 30
0.0
 11
87.6736981119
 21
211.0038684784
 31
0.0
  0
LINE
  5
54C
  8
0
  6
SLD-SOLID
 62
     7
 10
104.6342891897
 20
210.4900727151
 30
0.0
 11
92.72125785
 21
210.4900727151
 31
0.0
  0
LINE
  5
54D
  8
0
  6
SLD-SOLID
 62
     7
 10
87.0473128999
 20
210.4900727151
 30
0.0
 11
85.1343018258
 21
210.4900727151
 31
0.0
  0
LINE
  5
54E
  8
0
  6
SLD-SOLID
 62
     7
 10
85.1343018258
 20
210.8076611637
 30
0.0
 11
87.4030930246
 21
210.8076611637
 31
0.0
  0
POLYLINE
  5
54F
  8
0
  6
SLD-SOLID
 62
     7
 66
     1
 10
0.0
 20
0.0
 30
0.0
  0
VERTEX
  5
A6C
  8
0
  6
SLD-SOLID
 62
     7
 10
92.1029490674
 20
210.9966712175
 30
0.0
  0
VERTEX
  5
A6D
  8
0
  6
SLD-SOLID
 62
     7
 10
92.8342980588
 20
210.9907256542
 30
0.0
  0
VERTEX
  5
A6E
  8
0
  6
SLD-SOLID
 62
     7
 10
94.0562230791
 20
210.9751353143
 30
0.0
  0
VERTEX
  5
A6F
  8
0
  6
SLD-SOLID
 62
     7
 10
94.9938339437
 20
210.954817581
 30
0.0
  0
VERTEX
  5
A70
  8
0
  6
SLD-SOLID
 62
     7
 10
95.5832642759
 20
210.9311582623
 30
0.0
  0
VERTEX
  5
A71
  8
0
  6
SLD-SOLID
 62
     7
 10
95.7843107427
 20
210.9057666837
 30
0.0
  0
VERTEX
  5
A72
  8
0
  6
SLD-SOLID
 62
     7
 10
95.5832642759
 20
210.880375105
 30
0.0
  0
VERTEX
  5
A73
  8
0
  6
SLD-SOLID
 62
     7
 10
94.9938339437
 20
210.8567157863
 30
0.0
  0
VERTEX
  5
A74
  8
0
  6
SLD-SOLID
 62
     7
 10
94.0562230791
 20
210.8363943277
 30
0.0
  0
VERTEX
  5
A75
  8
0
  6
SLD-SOLID
 62
     7
 10
92.8342980588
 20
210.8208039878
 30
0.0
  0
VERTEX
  5
A76
  8
0
  6
SLD-SOLID
 62
     7
 10
92.3517984594
 20
210.8166540144
 30
0.0
  0
SEQEND
  5
A77
  8
0
  6
SLD-SOLID
 62
     7
  0
ARC
  5
550
  8
0
  6
SLD-SOLID
 62
     7
 10
648.6344380348
 20
213.3713239195
 30
0.0
 40
2.049863271673844
 50
269.9962494646
 51
359.9959410882
  0
ARC
  5
551
  8
0
  6
SLD-SOLID
 62
     7
 10
648.6343751844
 20
213.3712787376
 30
0.0
 40
1.24992747986994
 50
269.9967301904
 51
359.9954145461
  0
LINE
  5
552
  8
0
  6
SLD-SOLID
 62
     7
 10
650.6843013013
 20
213.0535865305
 30
0.0
 11
650.6843013013
 21
213.3711787044
 31
0.0
  0
ARC
  5
553
  8
0
  6
SLD-SOLID
 62
     7
 10
648.6344380348
 20
213.0537317457
 30
0.0
 40
2.049863271673844
 50
269.9962494646
 51
359.9959410882
  0
POLYLINE
  5
554
  8
0
  6
SLD-SOLID
 62
     7
 66
     1
 10
0.0
 20
0.0
 30
0.0
  0
VERTEX
  5
A78
  8
0
  6
SLD-SOLID
 62
     7
 10
641.6656417097
 20
210.9966712175
 30
0.0
  0
VERTEX
  5
A79
  8
0
  6
SLD-SOLID
 62
     7
 10
640.9342927183
 20
210.9907256542
 30
0.0
  0
VERTEX
  5
A7A
  8
0
  6
SLD-SOLID
 62
     7
 10
639.712367698
 20
210.9751353143
 30
0.0
  0
VERTEX
  5
A7B
  8
0
  6
SLD-SOLID
 62
     7
 10
638.7747419322
 20
210.954817581
 30
0.0
  0
VERTEX
  5
A7C
  8
0
  6
SLD-SOLID
 62
     7
 10
638.1853414024
 20
210.9311582623
 30
0.0
  0
VERTEX
  5
A7D
  8
0
  6
SLD-SOLID
 62
     7
 10
637.9842949356
 20
210.9057666837
 30
0.0
  0
VERTEX
  5
A7E
  8
0
  6
SLD-SOLID
 62
     7
 10
638.1853414024
 20
210.880375105
 30
0.0
  0
VERTEX
  5
A7F
  8
0
  6
SLD-SOLID
 62
     7
 10
638.7747419322
 20
210.8567157863
 30
0.0
  0
VERTEX
  5
A80
  8
0
  6
SLD-SOLID
 62
     7
 10
639.712367698
 20
210.8363943277
 30
0.0
  0
VERTEX
  5
A81
  8
0
  6
SLD-SOLID
 62
     7
 10
640.9342927183
 20
210.8208039878
 30
0.0
  0
VERTEX
  5
A82
  8
0
  6
SLD-SOLID
 62
     7
 10
641.4168072189
 20
210.8166540144
 30
0.0
  0
SEQEND
  5
A83
  8
0
  6
SLD-SOLID
 62
     7
  0
LINE
  5
555
  8
0
  6
SLD-SOLID
 62
     7
 10
648.6343038524
 20
210.8076611637
 30
0.0
 11
646.3655126537
 21
210.8076611637
 31
0.0
  0
LINE
  5
556
  8
0
  6
SLD-SOLID
 62
     7
 10
629.1343015874
 20
210.4900727151
 30
0.0
 11
641.0473180259
 21
210.4900727151
 31
0.0
  0
LINE
  5
557
  8
0
  6
SLD-SOLID
 62
     7
 10
646.7212778772
 20
210.4900727151
 30
0.0
 11
648.6343038524
 21
210.4900727151
 31
0.0
  0
LINE
  5
558
  8
0
  6
SLD-SOLID
 62
     7
 10
648.6343038524
 20
211.3214606522
 30
0.0
 11
645.5178302968
 21
211.3214606522
 31
0.0
  0
LINE
  5
559
  8
0
  6
SLD-SOLID
 62
     7
 10
642.2507656063
 20
211.3214606522
 30
0.0
 11
629.1343015874
 21
211.3214606522
 31
0.0
  0
LINE
  5
55A
  8
0
  6
SLD-SOLID
 62
     7
 10
648.6343038524
 20
211.0038684784
 30
0.0
 11
646.0948926652
 21
211.0038684784
 31
0.0
  0
LINE
  5
55B
  8
0
  6
SLD-SOLID
 62
     7
 10
648.6343038524
 20
212.1213512598
 30
0.0
 11
629.1343015874
 21
212.1213512598
 31
0.0
  0
LINE
  5
55C
  8
0
  6
SLD-SOLID
 62
     7
 10
83.0842894758
 20
213.3711787044
 30
0.0
 11
83.0842894758
 21
224.0696946262
 31
0.0
  0
LINE
  5
55D
  8
0
  6
SLD-SOLID
 62
     7
 10
83.8843030179
 20
213.3711787044
 30
0.0
 11
83.8843030179
 21
224.0696946262
 31
0.0
  0
LINE
  5
55E
  8
0
  6
SLD-SOLID
 62
     7
 10
649.8843026603
 20
213.3711787044
 30
0.0
 11
649.8843026603
 21
224.0696946262
 31
0.0
  0
LINE
  5
55F
  8
0
  6
SLD-SOLID
 62
     7
 10
650.6843013013
 20
213.3711787044
 30
0.0
 11
650.6843013013
 21
224.0696946262
 31
0.0
  0
ARC
  5
560
  8
0
  6
SLD-SOLID
 62
     7
 10
81.8344423665
 20
224.0695557531
 30
0.0
 40
2.04986065617337
 50
0.003881651
 51
90.0042401371
  0
ARC
  5
561
  8
0
  6
SLD-SOLID
 62
     7
 10
81.8344002532
 20
223.2382449144
 30
0.0
 40
1.249889224075938
 50
0.0028317955
 51
90.005023468
  0
ARC
  5
562
  8
0
  6
SLD-SOLID
 62
     7
 10
81.8344002532
 20
224.0696328515
 30
0.0
 40
1.249889224075938
 50
0.0028317955
 51
90.005023468
  0
ARC
  5
563
  8
0
  6
SLD-SOLID
 62
     7
 10
651.9341970119
 20
224.0696263625
 30
0.0
 40
1.249895712462152
 50
89.9952739732
 51
179.9968707634
  0
ARC
  5
564
  8
0
  6
SLD-SOLID
 62
     7
 10
651.9341970119
 20
223.2382384255
 30
0.0
 40
1.249895712462152
 50
89.9952739732
 51
179.9968707634
  0
ARC
  5
565
  8
0
  6
SLD-SOLID
 62
     7
 10
651.9341633101
 20
224.0695557537
 30
0.0
 40
2.049860654449029
 50
89.9961763179
 51
179.9961183679
  0
LINE
  5
566
  8
0
  6
SLD-SOLID
 62
     7
 10
65.8842963422
 20
226.0362753747
 30
0.0
 11
65.8842963422
 21
225.2363884924
 31
0.0
  0
ARC
  5
567
  8
0
  6
SLD-SOLID
 62
     7
 10
69.6348245443
 20
150.872534473
 30
0.0
 40
75.25725485381801
 50
89.0486966756
 51
92.8565815765
  0
ARC
  5
568
  8
0
  6
SLD-SOLID
 62
     7
 10
69.6345657857
 20
150.0814666355
 30
0.0
 40
75.24843387225614
 50
89.0483880975
 51
92.8567194469
  0
ARC
  5
569
  8
0
  6
SLD-SOLID
 62
     7
 10
69.6348245443
 20
299.7350160642
 30
0.0
 40
75.25725485381801
 50
267.1434184235
 51
270.9513033244
  0
LINE
  5
56A
  8
0
  6
SLD-SOLID
 62
     7
 10
65.8842963422
 20
224.5712751625
 30
0.0
 11
65.8842963422
 21
225.2363884924
 31
0.0
  0
LINE
  5
56B
  8
0
  6
SLD-SOLID
 62
     7
 10
70.8842915739
 20
225.3195220707
 30
0.0
 11
81.8342906679
 21
225.3195220707
 31
0.0
  0
LINE
  5
56C
  8
0
  6
SLD-SOLID
 62
     7
 10
81.8342906679
 20
224.4881341337
 30
0.0
 11
70.8842915739
 21
224.4881341337
 31
0.0
  0
LINE
  5
56D
  8
0
  6
SLD-SOLID
 62
     7
 10
70.8842915739
 20
226.1194164036
 30
0.0
 11
81.8342906679
 21
226.1194164036
 31
0.0
  0
ARC
  5
56E
  8
0
  6
SLD-SOLID
 62
     7
 10
664.1340293328
 20
150.0817277453
 30
0.0
 40
75.24817287049663
 50
87.1432739459
 51
90.9516185096
  0
LINE
  5
56F
  8
0
  6
SLD-SOLID
 62
     7
 10
667.8842944349
 20
224.5712751625
 30
0.0
 11
667.8842944349
 21
225.2363884924
 31
0.0
  0
ARC
  5
570
  8
0
  6
SLD-SOLID
 62
     7
 10
664.133770577
 20
299.7347548058
 30
0.0
 40
75.25699370348862
 50
269.0486900663
 51
272.8565881858
  0
LINE
  5
571
  8
0
  6
SLD-SOLID
 62
     7
 10
651.9343001092
 20
224.4881341337
 30
0.0
 11
662.8842992032
 21
224.4881341337
 31
0.0
  0
LINE
  5
572
  8
0
  6
SLD-SOLID
 62
     7
 10
662.8842992032
 20
225.3195220707
 30
0.0
 11
651.9343001092
 21
225.3195220707
 31
0.0
  0
ARC
  5
573
  8
0
  6
SLD-SOLID
 62
     7
 10
664.133770577
 20
150.8727957315
 30
0.0
 40
75.25699370348863
 50
87.1434118142
 51
90.9513099337
  0
LINE
  5
574
  8
0
  6
SLD-SOLID
 62
     7
 10
667.8842944349
 20
226.0362753747
 30
0.0
 11
667.8842944349
 21
225.2363884924
 31
0.0
  0
LINE
  5
575
  8
0
  6
SLD-SOLID
 62
     7
 10
662.8842992032
 20
226.1194164036
 30
0.0
 11
651.9343001092
 21
226.1194164036
 31
0.0
  0
LINE
  5
576
  8
0
  6
SLD-SOLID
 62
     7
 10
619.6422768081
 20
189.7301064907
 30
0.0
 11
114.1263288701
 21
189.7301064907
 31
0.0
  0
ARC
  5
577
  8
0
  6
SLD-SOLID
 62
     7
 10
85.1341442656
 20
212.857515952
 30
0.0
 40
2.049854794373096
 50
180.0038219319
 51
270.0044039893
  0
LINE
  5
578
  8
0
  6
SLD-SOLID
 62
     7
 10
83.0842894758
 20
213.0535865305
 30
0.0
 11
83.0842894758
 21
212.8573792158
 31
0.0
  0
ARC
  5
579
  8
0
  6
SLD-SOLID
 62
     7
 10
85.134136854
 20
212.539920091
 30
0.0
 40
2.049847382539465
 50
180.0037188859
 51
270.0046111684
  0
LINE
  5
57A
  8
0
  6
SLD-SOLID
 62
     7
 10
83.0842894758
 20
212.8573792158
 30
0.0
 11
83.0842894758
 21
212.539787042
 31
0.0
  0
ARC
  5
57B
  8
0
  6
SLD-SOLID
 62
     7
 10
648.6344380348
 20
212.8575244309
 30
0.0
 40
2.049863271673844
 50
269.9962494646
 51
359.9959410882
  0
LINE
  5
57C
  8
0
  6
SLD-SOLID
 62
     7
 10
650.6843013013
 20
213.0535865305
 30
0.0
 11
650.6843013013
 21
212.8573792158
 31
0.0
  0
ARC
  5
57D
  8
0
  6
SLD-SOLID
 62
     7
 10
648.6344454466
 20
212.5399285699
 30
0.0
 40
2.049855859639078
 50
269.9960422836
 51
359.9960441361
  0
LINE
  5
57E
  8
0
  6
SLD-SOLID
 62
     7
 10
650.6843013013
 20
212.539787042
 30
0.0
 11
650.6843013013
 21
212.8573792158
 31
0.0
  0
ENDSEC
  0
EOF
