  0
SECTION
  2
HEADER
  9
$ACADVER
  1
AC1009
  9
$DWGCODEPAGE
  3
ansi_1252
  9
$INSBASE
 10
0.0
 20
0.0
 30
0.0
  9
$EXTMIN
 10
0.0
 20
0.0
 30
0.0
  9
$EXTMAX
 10
841.0
 20
594.0
 30
0.0
  9
$LIMMIN
 10
0.0
 20
0.0
  9
$LIMMAX
 10
841.0
 20
594.0
  9
$ORTHOMODE
 70
     0
  9
$REGENMODE
 70
     1
  9
$FILLMODE
 70
     1
  9
$QTEXTMODE
 70
     0
  9
$MIRRTEXT
 70
     1
  9
$DRAGMODE
 70
     2
  9
$LTSCALE
 40
1.0
  9
$OSMODE
 70
    37
  9
$ATTMODE
 70
     1
  9
$TEXTSIZE
 40
3.5
  9
$TRACEWID
 40
1.0
  9
$TEXTSTYLE
  7
STANDARD
  9
$CLAYER
  8
0
  9
$CELTYPE
  6
BYLAYER
  9
$CECOLOR
 62
   256
  9
$DIMSCALE
 40
1.0
  9
$DIMASZ
 40
3.302
  9
$DIMEXO
 40
1.0
  9
$DIMDLI
 40
3.75
  9
$DIMRND
 40
0.0
  9
$DIMDLE
 40
0.0
  9
$DIMEXE
 40
1.0
  9
$DIMTP
 40
0.0
  9
$DIMTM
 40
0.0
  9
$DIMTXT
 40
3.5
  9
$DIMCEN
 40
2.5
  9
$DIMTSZ
 40
0.0
  9
$DIMTOL
 70
     0
  9
$DIMLIM
 70
     0
  9
$DIMTIH
 70
     1
  9
$DIMTOH
 70
     1
  9
$DIMSE1
 70
     0
  9
$DIMSE2
 70
     0
  9
$DIMTAD
 70
     1
  9
$DIMZIN
 70
     0
  9
$DIMBLK
  1

  9
$DIMASO
 70
     1
  9
$DIMSHO
 70
     1
  9
$DIMPOST
  1

  9
$DIMAPOST
  1

  9
$DIMALT
 70
     0
  9
$DIMALTD
 70
     3
  9
$DIMALTF
 40
0.0393700787
  9
$DIMLFAC
 40
1.0
  9
$DIMTOFL
 70
     1
  9
$DIMTVP
 40
0.0
  9
$DIMTIX
 70
     0
  9
$DIMSOXD
 70
     0
  9
$DIMSAH
 70
     0
  9
$DIMBLK1
  1

  9
$DIMBLK2
  1

  9
$DIMSTYLE
  2
ISO-25
  9
$DIMCLRD
 70
     0
  9
$DIMCLRE
 70
     0
  9
$DIMCLRT
 70
     0
  9
$DIMTFAC
 40
1.0
  9
$DIMGAP
 40
1.524
  9
$LUNITS
 70
     2
  9
$LUPREC
 70
     1
  9
$SKETCHINC
 40
1.0
  9
$FILLETRAD
 40
10.0
  9
$AUNITS
 70
     0
  9
$AUPREC
 70
     1
  9
$MENU
  1
.
  9
$ELEVATION
 40
0.0
  9
$PELEVATION
 40
0.0
  9
$THICKNESS
 40
0.0
  9
$LIMCHECK
 70
     0
  9
$CHAMFERA
 40
10.0
  9
$CHAMFERB
 40
10.0
  9
$SKPOLY
 70
     0
  9
$TDCREATE
 40
2455862.554903599
  9
$TDUPDATE
 40
2455862.554903611
  9
$TDINDWG
 40
0.0000000116
  9
$TDUSRTIMER
 40
0.0000000116
  9
$USRTIMER
 70
     1
  9
$ANGBASE
 50
0.0
  9
$ANGDIR
 70
     0
  9
$PDMODE
 70
     0
  9
$PDSIZE
 40
-1.0
  9
$PLINEWID
 40
0.0
  9
$COORDS
 70
     1
  9
$SPLFRAME
 70
     0
  9
$SPLINETYPE
 70
     6
  9
$SPLINESEGS
 70
     8
  9
$ATTDIA
 70
     0
  9
$ATTREQ
 70
     1
  9
$HANDLING
 70
     1
  9
$HANDSEED
  5
537
  9
$SURFTAB1
 70
     6
  9
$SURFTAB2
 70
     6
  9
$SURFTYPE
 70
     6
  9
$SURFU
 70
     6
  9
$SURFV
 70
     6
  9
$UCSNAME
  2

  9
$UCSORG
 10
0.0
 20
0.0
 30
0.0
  9
$UCSXDIR
 10
1.0
 20
0.0
 30
0.0
  9
$UCSYDIR
 10
0.0
 20
1.0
 30
0.0
  9
$PUCSNAME
  2

  9
$PUCSORG
 10
0.0
 20
0.0
 30
0.0
  9
$PUCSXDIR
 10
1.0
 20
0.0
 30
0.0
  9
$PUCSYDIR
 10
0.0
 20
1.0
 30
0.0
  9
$USERI1
 70
     0
  9
$USERI2
 70
     0
  9
$USERI3
 70
     0
  9
$USERI4
 70
     0
  9
$USERI5
 70
     0
  9
$USERR1
 40
0.0
  9
$USERR2
 40
0.0
  9
$USERR3
 40
0.0
  9
$USERR4
 40
0.0
  9
$USERR5
 40
0.0
  9
$WORLDVIEW
 70
     1
  9
$SHADEDGE
 70
     3
  9
$SHADEDIF
 70
    70
  9
$TILEMODE
 70
     1
  9
$MAXACTVP
 70
    64
  9
$PLIMCHECK
 70
     0
  9
$PEXTMIN
 10
1.0000000000E+20
 20
1.0000000000E+20
 30
1.0000000000E+20
  9
$PEXTMAX
 10
-1.0000000000E+20
 20
-1.0000000000E+20
 30
-1.0000000000E+20
  9
$PLIMMIN
 10
0.0
 20
0.0
  9
$PLIMMAX
 10
420.0
 20
297.0
  9
$UNITMODE
 70
     0
  9
$VISRETAIN
 70
     1
  9
$PLINEGEN
 70
     0
  9
$PSLTSCALE
 70
     1
  0
ENDSEC
  0
SECTION
  2
TABLES
  0
TABLE
  2
VPORT
 70
     1
  0
VPORT
  2
*ACTIVE
 70
     0
 10
0.0
 20
0.0
 11
1.0
 21
1.0
 12
420.5
 22
297.0
 13
0.0
 23
0.0
 14
10.0
 24
10.0
 15
10.0
 25
10.0
 16
0.0
 26
0.0
 36
1.0
 17
0.0
 27
0.0
 37
0.0
 40
594.0
 41
1.4158249158
 42
50.0
 43
0.0
 44
0.0
 50
0.0
 51
0.0
 71
     0
 72
  2000
 73
     1
 74
     3
 75
     0
 76
     0
 77
     0
 78
     0
  0
ENDTAB
  0
TABLE
  2
LTYPE
 70
     8
  0
LTYPE
  2
CONTINUOUS
 70
     0
  3
Solid line
 72
    65
 73
     0
 40
0.0
  0
LTYPE
  2
SLD-SOLID
 70
     0
  3
SolidWorks Line Style
 72
    65
 73
     0
 40
0.0
  0
LTYPE
  2
SLD-DASHED
 70
     0
  3
SolidWorks Line Style
 72
    65
 73
     2
 40
1.905
 49
1.27
 49
-0.635
  0
LTYPE
  2
SLD-PHANTOM
 70
     0
  3
SolidWorks Line Style
 72
    65
 73
     6
 40
12.7
 49
6.35
 49
-1.27
 49
1.27
 49
-1.27
 49
1.27
 49
-1.27
  0
LTYPE
  2
SLD-CHAIN
 70
     0
  3
SolidWorks Line Style
 72
    65
 73
     4
 40
10.16
 49
6.35
 49
-1.27
 49
1.27
 49
-1.27
  0
LTYPE
  2
SLD-CENTER
 70
     0
  3
SolidWorks Line Style
 72
    65
 73
     4
 40
19.05
 49
15.24
 49
-1.27
 49
1.27
 49
-1.27
  0
LTYPE
  2
SLD-STITCH
 70
     0
  3
SolidWorks Line Style
 72
    65
 73
     2
 40
0.635
 49
0.0
 49
-0.635
  0
LTYPE
  2
SLD-THIN-THICK-CHAIN
 70
     0
  3
SolidWorks Line Style
 72
    65
 73
     4
 40
10.16
 49
6.35
 49
-1.27
 49
1.27
 49
-1.27
  0
ENDTAB
  0
TABLE
  2
LAYER
 70
     1
  0
LAYER
  2
0
 70
     0
 62
     7
  6
CONTINUOUS
  0
ENDTAB
  0
TABLE
  2
STYLE
 70
     1
  0
STYLE
  2
STANDARD
 70
     0
 40
0.0
 41
1.0
 50
0.0
 71
     0
 42
2.5
  3
txt
  4

  0
ENDTAB
  0
TABLE
  2
VIEW
 70
     0
  0
ENDTAB
  0
TABLE
  2
UCS
 70
     0
  0
ENDTAB
  0
TABLE
  2
APPID
 70
     1
  0
APPID
  2
ACAD
 70
     0
  0
ENDTAB
  0
TABLE
  2
DIMSTYLE
 70
     1
  0
DIMSTYLE
  2
ISO-25
 70
     0
  3

  4

  5

  6

  7

 40
1.0
 41
2.5
 42
0.625
 43
3.75
 44
1.25
 45
0.0
 46
0.0
 47
0.0
 48
0.0
140
2.5
141
2.5
142
0.0
143
0.0393700787
144
1.0
145
0.0
146
1.0
147
0.625
 71
     0
 72
     0
 73
     0
 74
     0
 75
     0
 76
     0
 77
     1
 78
     8
170
     0
171
     3
172
     1
173
     0
174
     0
175
     0
176
     0
177
     0
178
     0
  0
ENDTAB
  0
ENDSEC
  0
SECTION
  2
BLOCKS
  0
BLOCK
  8
0
  2
$MODEL_SPACE
 70
     0
 10
0.0
 20
0.0
 30
0.0
  3
$MODEL_SPACE
  1

  0
ENDBLK
  5
21
  8
0
  0
BLOCK
 67
     1
  8
0
  2
$PAPER_SPACE
 70
     0
 10
0.0
 20
0.0
 30
0.0
  3
$PAPER_SPACE
  1

  0
ENDBLK
  5
1D
 67
     1
  8
0
  0
ENDSEC
  0
SECTION
  2
ENTITIES
  0
LINE
  5
46
  8
0
  6
SLD-SOLID
 62
     7
 10
480.9939688848
 20
321.9179337541
 30
0.0
 11
488.9939552949
 21
321.9179337541
 31
0.0
  0
LINE
  5
47
  8
0
  6
SLD-SOLID
 62
     7
 10
488.9939552949
 20
329.9179350654
 30
0.0
 11
480.9939688848
 21
329.9179350654
 31
0.0
  0
LINE
  5
48
  8
0
  6
SLD-SOLID
 62
     7
 10
490.993959348
 20
293.4179356019
 30
0.0
 11
500.9939796136
 21
297.4179362575
 31
0.0
  0
LINE
  5
49
  8
0
  6
SLD-SOLID
 62
     7
 10
493.3153218435
 20
357.4893897096
 30
0.0
 11
490.993959348
 21
358.4179257671
 31
0.0
  0
LINE
  5
4A
  8
0
  6
SLD-SOLID
 62
     7
 10
500.9939796136
 20
354.417932562
 30
0.0
 11
497.9575401948
 21
355.6324964086
 31
0.0
  0
LINE
  5
4B
  8
0
  6
SLD-SOLID
 62
     7
 10
500.9939796136
 20
297.4179362575
 30
0.0
 11
520.4043215917
 21
306.152594618
 31
0.0
  0
LINE
  5
4C
  8
0
  6
SLD-SOLID
 62
     7
 10
501.4499253438
 20
354.2127435724
 30
0.0
 11
500.9939796136
 21
354.417932562
 31
0.0
  0
ARC
  5
4D
  8
0
  6
SLD-SOLID
 62
     7
 10
519.9939661452
 20
307.0645186114
 30
0.0
 40
1.000000000000214
 50
294.227745318
 51
360.0
  0
LINE
  5
4E
  8
0
  6
SLD-SOLID
 62
     7
 10
488.9939552949
 20
318.806124262
 30
0.0
 11
490.993959348
 21
318.7712108413
 31
0.0
  0
LINE
  5
4F
  8
0
  6
SLD-SOLID
 62
     7
 10
497.9638880895
 20
355.6407367508
 30
0.0
 11
493.3164245294
 21
357.4997162143
 31
0.0
  0
LINE
  5
50
  8
0
  6
SLD-SOLID
 62
     7
 10
261.0939661817
 20
179.4181581284
 30
0.0
 11
261.0939661817
 21
179.9181582103
 31
0.0
  0
LINE
  5
51
  8
0
  6
SLD-SOLID
 62
     7
 10
253.093966733
 20
179.9181582103
 30
0.0
 11
253.093966733
 21
179.4181581284
 31
0.0
  0
LINE
  5
52
  8
0
  6
SLD-SOLID
 62
     7
 10
305.5939650939
 20
179.4181581284
 30
0.0
 11
305.5939650939
 21
179.9181582103
 31
0.0
  0
LINE
  5
53
  8
0
  6
SLD-SOLID
 62
     7
 10
297.5939637826
 20
179.9181582103
 30
0.0
 11
297.5939637826
 21
179.4181581284
 31
0.0
  0
POLYLINE
  5
54
  8
0
  6
SLD-SOLID
 62
     7
 66
     1
 10
0.0
 20
0.0
 30
0.0
  0
VERTEX
  5
2F5
  8
0
  6
SLD-SOLID
 62
     7
 10
110.3950119422
 20
338.4742116253
 30
0.0
  0
VERTEX
  5
2F6
  8
0
  6
SLD-SOLID
 62
     7
 10
110.3953770207
 20
338.4823178569
 30
0.0
  0
VERTEX
  5
2F7
  8
0
  6
SLD-SOLID
 62
     7
 10
110.414130132
 20
338.5118370573
 30
0.0
  0
VERTEX
  5
2F8
  8
0
  6
SLD-SOLID
 62
     7
 10
110.4576638745
 20
338.5460501234
 30
0.0
  0
VERTEX
  5
2F9
  8
0
  6
SLD-SOLID
 62
     7
 10
110.5199358271
 20
338.5736768762
 30
0.0
  0
VERTEX
  5
2FA
  8
0
  6
SLD-SOLID
 62
     7
 10
110.6037995623
 20
338.5906791011
 30
0.0
  0
VERTEX
  5
2FB
  8
0
  6
SLD-SOLID
 62
     7
 10
110.6439656423
 20
338.5906791011
 30
0.0
  0
SEQEND
  5
2FC
  8
0
  6
SLD-SOLID
 62
     7
  0
LINE
  5
55
  8
0
  6
SLD-SOLID
 62
     7
 10
110.6439656423
 20
338.5925715486
 30
0.0
 11
115.7439625667
 21
338.5925715486
 31
0.0
  0
ARC
  5
56
  8
0
  6
SLD-SOLID
 62
     7
 10
115.7439661451
 20
338.8425675873
 30
0.0
 40
0.2500000000000284
 50
270.0
 51
0.0
  0
ARC
  5
57
  8
0
  6
SLD-SOLID
 62
     7
 10
115.7439661451
 20
343.6687345594
 30
0.0
 40
0.2500000000000284
 50
0.0
 51
90.0
  0
LINE
  5
58
  8
0
  6
SLD-SOLID
 62
     7
 10
115.7439625667
 20
343.9187382976
 30
0.0
 11
110.6439656423
 21
343.9187382976
 31
0.0
  0
ARC
  5
59
  8
0
  6
SLD-SOLID
 62
     7
 10
109.4439661451
 20
343.3681582513
 30
0.0
 40
0.2500000000000568
 50
90.0
 51
180.0
  0
LINE
  5
5A
  8
0
  6
SLD-SOLID
 62
     7
 10
109.7071892427
 20
343.618152074
 30
0.0
 11
109.4439676808
 21
343.618152074
 31
0.0
  0
ARC
  5
5B
  8
0
  6
SLD-SOLID
 62
     7
 10
115.7439661451
 20
326.1675819432
 30
0.0
 40
0.2500000000000568
 50
270.0
 51
0.0
  0
LINE
  5
5C
  8
0
  6
SLD-SOLID
 62
     7
 10
111.2154847787
 20
325.9175842325
 30
0.0
 11
115.7439625667
 21
325.9175842325
 31
0.0
  0
POLYLINE
  5
5D
  8
0
  6
SLD-SOLID
 62
     7
 66
     1
 10
0.0
 20
0.0
 30
0.0
  0
VERTEX
  5
2FD
  8
0
  6
SLD-SOLID
 62
     7
 10
110.3915772246
 20
330.5802171747
 30
0.0
  0
VERTEX
  5
2FE
  8
0
  6
SLD-SOLID
 62
     7
 10
110.3908247159
 20
330.5581634561
 30
0.0
  0
VERTEX
  5
2FF
  8
0
  6
SLD-SOLID
 62
     7
 10
110.3545031355
 20
330.500838689
 30
0.0
  0
VERTEX
  5
300
  8
0
  6
SLD-SOLID
 62
     7
 10
110.3021106528
 20
330.4631387512
 30
0.0
  0
VERTEX
  5
301
  8
0
  6
SLD-SOLID
 62
     7
 10
110.235576968
 20
330.4373001377
 30
0.0
  0
VERTEX
  5
302
  8
0
  6
SLD-SOLID
 62
     7
 10
110.1534343169
 20
330.4257070343
 30
0.0
  0
VERTEX
  5
303
  8
0
  6
SLD-SOLID
 62
     7
 10
110.1442701028
 20
330.4261838714
 30
0.0
  0
SEQEND
  5
304
  8
0
  6
SLD-SOLID
 62
     7
  0
LINE
  5
5E
  8
0
  6
SLD-SOLID
 62
     7
 10
110.143964629
 20
330.4255431215
 30
0.0
 11
105.043960254
 21
330.4255431215
 31
0.0
  0
ARC
  5
5F
  8
0
  6
SLD-SOLID
 62
     7
 10
105.0439661451
 20
330.1755403559
 30
0.0
 40
0.2500000000000568
 50
90.0
 51
180.0
  0
ARC
  5
60
  8
0
  6
SLD-SOLID
 62
     7
 10
105.0439661451
 20
325.7377191413
 30
0.0
 40
0.25
 50
180.0
 51
270.0
  0
LINE
  5
61
  8
0
  6
SLD-SOLID
 62
     7
 10
105.043960254
 20
325.4877155344
 30
0.0
 11
110.143964629
 21
325.4877155344
 31
0.0
  0
ARC
  5
62
  8
0
  6
SLD-SOLID
 62
     7
 10
111.3439661451
 20
326.4681582513
 30
0.0
 40
0.2499999999999735
 50
301.0756875733
 51
0.0
  0
LINE
  5
63
  8
0
  6
SLD-SOLID
 62
     7
 10
110.143964629
 20
344.3485920946
 30
0.0
 11
105.043960254
 21
344.3485920946
 31
0.0
  0
ARC
  5
64
  8
0
  6
SLD-SOLID
 62
     7
 10
105.0439661451
 20
344.0985973614
 30
0.0
 40
0.25
 50
90.0
 51
180.0
  0
LINE
  5
65
  8
0
  6
SLD-SOLID
 62
     7
 10
122.0476082371
 20
329.5780544798
 30
0.0
 11
122.2439682887
 21
329.9181585828
 31
0.0
  0
LINE
  5
66
  8
0
  6
SLD-SOLID
 62
     7
 10
117.0439696716
 20
329.9181585828
 30
0.0
 11
117.2403222726
 21
329.5780544798
 31
0.0
  0
LINE
  5
67
  8
0
  6
SLD-SOLID
 62
     7
 10
122.2439682887
 20
339.9181639473
 30
0.0
 11
122.0476082371
 21
340.2582531492
 31
0.0
  0
LINE
  5
68
  8
0
  6
SLD-SOLID
 62
     7
 10
117.2403222726
 20
340.2582531492
 30
0.0
 11
117.0439696716
 21
339.9181639473
 31
0.0
  0
LINE
  5
69
  8
0
  6
SLD-SOLID
 62
     7
 10
116.7939654396
 20
339.9181639473
 30
0.0
 11
116.7057580159
 21
340.0709306518
 31
0.0
  0
LINE
  5
6A
  8
0
  6
SLD-SOLID
 62
     7
 10
116.7057580159
 20
329.7653769771
 30
0.0
 11
116.7939654396
 21
329.9181585828
 31
0.0
  0
LINE
  5
6B
  8
0
  6
SLD-SOLID
 62
     7
 10
111.5939668225
 20
329.9181585828
 30
0.0
 11
111.6821742461
 21
329.7653769771
 31
0.0
  0
LINE
  5
6C
  8
0
  6
SLD-SOLID
 62
     7
 10
122.2439682887
 20
328.8181548635
 30
0.0
 11
122.7939626978
 21
328.8181548635
 31
0.0
  0
LINE
  5
6D
  8
0
  6
SLD-SOLID
 62
     7
 10
122.7939626978
 20
341.0181527654
 30
0.0
 11
122.2439682887
 21
341.0181527654
 31
0.0
  0
LINE
  5
6E
  8
0
  6
SLD-SOLID
 62
     7
 10
123.1939694689
 20
337.9181598941
 30
0.0
 11
122.7939626978
 21
337.9181598941
 31
0.0
  0
LINE
  5
6F
  8
0
  6
SLD-SOLID
 62
     7
 10
117.0439696716
 20
337.9181598941
 30
0.0
 11
116.7939654396
 21
337.9181598941
 31
0.0
  0
LINE
  5
70
  8
0
  6
SLD-SOLID
 62
     7
 10
116.7939654396
 20
331.918162636
 30
0.0
 11
117.0439696716
 21
331.918162636
 31
0.0
  0
LINE
  5
71
  8
0
  6
SLD-SOLID
 62
     7
 10
122.7939626978
 20
331.918162636
 30
0.0
 11
123.1939694689
 21
331.918162636
 31
0.0
  0
LINE
  5
72
  8
0
  6
SLD-SOLID
 62
     7
 10
189.5939647065
 20
181.4181584562
 30
0.0
 11
189.5939647065
 21
181.9181580725
 31
0.0
  0
LINE
  5
73
  8
0
  6
SLD-SOLID
 62
     7
 10
181.5939671205
 20
181.9181580725
 30
0.0
 11
181.5939671205
 21
181.4181584562
 31
0.0
  0
LINE
  5
74
  8
0
  6
SLD-SOLID
 62
     7
 10
354.5939675377
 20
181.4181584562
 30
0.0
 11
354.5939675377
 21
181.9181580725
 31
0.0
  0
LINE
  5
75
  8
0
  6
SLD-SOLID
 62
     7
 10
346.5939662264
 20
181.9181580725
 30
0.0
 11
346.5939662264
 21
181.4181584562
 31
0.0
  0
ARC
  5
76
  8
0
  6
SLD-SOLID
 62
     7
 10
500.9253517865
 20
230.7989575286
 30
0.0
 40
6.000000000000081
 50
45.9527461219
 51
90.9527461219
  0
ARC
  5
77
  8
0
  6
SLD-SOLID
 62
     7
 10
500.9253517865
 20
230.7989575286
 30
0.0
 40
14.00000000000009
 50
45.9527461219
 51
90.9527461219
  0
LINE
  5
78
  8
0
  6
SLD-SOLID
 62
     7
 10
500.692558925
 20
244.7970224241
 30
0.0
 11
479.8375791715
 21
244.4502016226
 31
0.0
  0
LINE
  5
79
  8
0
  6
SLD-SOLID
 62
     7
 10
460.7402211831
 20
244.1326094488
 30
0.0
 11
448.9418542789
 21
243.9364021341
 31
0.0
  0
LINE
  5
7A
  8
0
  6
SLD-SOLID
 62
     7
 10
429.8444962905
 20
243.6188136856
 30
0.0
 11
424.9939597057
 21
243.5381462494
 31
0.0
  0
LINE
  5
7B
  8
0
  6
SLD-SOLID
 62
     7
 10
424.9939597057
 20
235.5370422522
 30
0.0
 11
500.8255964921
 21
236.7981275241
 31
0.0
  0
LINE
  5
7C
  8
0
  6
SLD-SOLID
 62
     7
 10
545.0575179265
 20
207.5884429435
 30
0.0
 11
510.6588727639
 21
240.8616890828
 31
0.0
  0
LINE
  5
7D
  8
0
  6
SLD-SOLID
 62
     7
 10
505.0968653367
 20
235.1115582208
 30
0.0
 11
539.4955104993
 21
201.8383102188
 31
0.0
  0
LINE
  5
7E
  8
0
  6
SLD-SOLID
 62
     7
 10
451.5083706783
 20
264.0133103053
 30
0.0
 11
451.5953636573
 21
258.7825780431
 31
0.0
  0
LINE
  5
7F
  8
0
  6
SLD-SOLID
 62
     7
 10
451.693785827
 20
252.86374741
 30
0.0
 11
451.8409347938
 21
244.016078643
 31
0.0
  0
LINE
  5
80
  8
0
  6
SLD-SOLID
 62
     7
 10
457.8400975869
 20
244.1158419172
 30
0.0
 11
457.6929635213
 21
252.9635181347
 31
0.0
  0
LINE
  5
81
  8
0
  6
SLD-SOLID
 62
     7
 10
457.5945264505
 20
258.8823413173
 30
0.0
 11
457.5075483726
 21
264.11308103
 31
0.0
  0
ARC
  5
82
  8
0
  6
SLD-SOLID
 62
     7
 10
520.1752620156
 20
178.7882984022
 30
0.0
 40
0.9999999999999932
 50
225.9527461219
 51
307.421980512
  0
ARC
  5
83
  8
0
  6
SLD-SOLID
 62
     7
 10
567.4523571746
 20
227.6644303413
 30
0.0
 40
0.999999999999955
 50
324.4835117319
 51
45.9527461219
  0
LINE
  5
84
  8
0
  6
SLD-SOLID
 62
     7
 10
517.9427093671
 20
179.556544281
 30
0.0
 11
519.4800025628
 21
178.0695313285
 31
0.0
  0
LINE
  5
85
  8
0
  6
SLD-SOLID
 62
     7
 10
568.1476122545
 20
228.3831959287
 30
0.0
 11
566.6102892564
 21
229.8702088813
 31
0.0
  0
LINE
  5
86
  8
0
  6
SLD-SOLID
 62
     7
 10
520.7829302953
 20
177.9941165517
 30
0.0
 11
534.792465608
 21
188.7137150264
 31
0.0
  0
LINE
  5
87
  8
0
  6
SLD-SOLID
 62
     7
 10
558.018458526
 20
212.7252923022
 30
0.0
 11
568.2663149045
 21
227.0834942977
 31
0.0
  0
ARC
  5
88
  8
0
  6
SLD-SOLID
 62
     7
 10
536.0078141263
 20
187.1253519104
 30
0.0
 40
2.000000000000069
 50
45.9527461219
 51
127.421980512
  0
ARC
  5
89
  8
0
  6
SLD-SOLID
 62
     7
 10
559.6463617058
 20
211.56341788
 30
0.0
 40
1.999999999999969
 50
144.4835117319
 51
225.9527461219
  0
LINE
  5
8A
  8
0
  6
SLD-SOLID
 62
     7
 10
537.3983210729
 20
188.5628851963
 30
0.0
 11
539.035392444
 21
186.9793630833
 31
0.0
  0
LINE
  5
8B
  8
0
  6
SLD-SOLID
 62
     7
 10
559.8929351972
 20
208.5423631291
 30
0.0
 11
558.2558638261
 21
210.1258853147
 31
0.0
  0
LINE
  5
8C
  8
0
  6
SLD-SOLID
 62
     7
 10
539.035392444
 20
186.9793630833
 30
0.0
 11
540.4729372667
 21
185.5888602952
 31
0.0
  0
LINE
  5
8D
  8
0
  6
SLD-SOLID
 62
     7
 10
561.3304800199
 20
207.1518594096
 30
0.0
 11
559.8929351972
 21
208.5423631291
 31
0.0
  0
LINE
  5
8E
  8
0
  6
SLD-SOLID
 62
     7
 10
540.4729372667
 20
185.5888602952
 30
0.0
 11
540.5750698255
 21
185.5632649897
 31
0.0
  0
LINE
  5
8F
  8
0
  6
SLD-SOLID
 62
     7
 10
561.3594478772
 20
207.050628371
 30
0.0
 11
561.3304800199
 21
207.1518594096
 31
0.0
  0
ARC
  5
90
  8
0
  6
SLD-SOLID
 62
     7
 10
542.6500845504
 20
173.7440300881
 30
0.0
 40
12.00000000000002
 50
2.5440674255
 51
99.9575178841
  0
ARC
  5
91
  8
0
  6
SLD-SOLID
 62
     7
 10
573.2411461238
 20
205.3697625192
 30
0.0
 40
12.00000000000002
 50
171.9479743598
 51
269.3614248184
  0
ARC
  5
92
  8
0
  6
SLD-SOLID
 62
     7
 10
559.6333289675
 20
174.4986220764
 30
0.0
 40
4.999999999999941
 50
182.5440674255
 51
225.9527461219
  0
ARC
  5
93
  8
0
  6
SLD-SOLID
 62
     7
 10
573.0516809758
 20
188.3708183474
 30
0.0
 40
5.000000000000089
 50
45.9527461219
 51
89.3614248184
  0
LINE
  5
94
  8
0
  6
SLD-SOLID
 62
     7
 10
556.1570650743
 20
170.9047885309
 30
0.0
 11
614.7492355512
 21
114.2295350949
 31
0.0
  0
LINE
  5
95
  8
0
  6
SLD-SOLID
 62
     7
 10
635.1201063798
 20
135.2893983642
 30
0.0
 11
576.5279359029
 21
191.9646515674
 31
0.0
  0
ARC
  5
96
  8
0
  6
SLD-SOLID
 62
     7
 10
618.2254907554
 20
117.8233677444
 30
0.0
 40
5.00000000000003
 50
225.9527461219
 51
315.9527461219
  0
ARC
  5
97
  8
0
  6
SLD-SOLID
 62
     7
 10
631.6438427637
 20
131.6955640153
 30
0.0
 40
5.000000000000109
 50
315.9527461219
 51
45.9527461219
  0
LINE
  5
98
  8
0
  6
SLD-SOLID
 62
     7
 10
426.4136380361
 20
264.5899703423
 30
0.0
 11
426.4137125419
 21
264.5899181883
 31
0.0
  0
LINE
  5
99
  8
0
  6
SLD-SOLID
 62
     7
 10
427.4439639257
 20
487.9179423372
 30
0.0
 11
427.0439720557
 21
487.9179423372
 31
0.0
  0
LINE
  5
9A
  8
0
  6
SLD-SOLID
 62
     7
 10
427.4439639257
 20
488.317919306
 30
0.0
 11
427.4439639257
 21
487.9179423372
 31
0.0
  0
LINE
  5
9B
  8
0
  6
SLD-SOLID
 62
     7
 10
425.8939600394
 20
488.317919306
 30
0.0
 11
427.4439639257
 21
488.317919306
 31
0.0
  0
LINE
  5
9C
  8
0
  6
SLD-SOLID
 62
     7
 10
425.8939600394
 20
502.3679261724
 30
0.0
 11
425.8939600394
 21
488.317919306
 31
0.0
  0
ARC
  5
9D
  8
0
  6
SLD-SOLID
 62
     7
 10
427.0439661452
 20
502.3679330014
 30
0.0
 40
1.149999999999977
 50
90.0
 51
180.0
  0
LINE
  5
9E
  8
0
  6
SLD-SOLID
 62
     7
 10
455.1939642833
 20
503.5179381887
 30
0.0
 11
427.0439720557
 21
503.5179381887
 31
0.0
  0
ARC
  5
9F
  8
0
  6
SLD-SOLID
 62
     7
 10
455.1939661452
 20
478.6179330014
 30
0.0
 40
24.90000000000001
 50
1.1505949934
 51
90.0
  0
LINE
  5
A0
  8
0
  6
SLD-SOLID
 62
     7
 10
478.5939729617
 20
479.1179423849
 30
0.0
 11
480.0889468597
 21
479.1179423849
 31
0.0
  0
LINE
  5
A1
  8
0
  6
SLD-SOLID
 62
     7
 10
478.5939729617
 20
478.6179190199
 30
0.0
 11
478.5939729617
 21
479.1179423849
 31
0.0
  0
LINE
  5
A2
  8
0
  6
SLD-SOLID
 62
     7
 10
478.9439714359
 20
478.6179190199
 30
0.0
 11
478.5939729617
 21
478.6179190199
 31
0.0
  0
LINE
  5
A3
  8
0
  6
SLD-SOLID
 62
     7
 10
427.0671135591
 20
411.4679371635
 30
0.0
 11
427.0439720557
 21
411.4679371635
 31
0.0
  0
ARC
  5
A4
  8
0
  6
SLD-SOLID
 62
     7
 10
470.7409014149
 20
411.5552650535
 30
0.0
 40
8.20353484352868
 50
344.898064699
 51
359.3900660962
  0
LINE
  5
A5
  8
0
  6
SLD-SOLID
 62
     7
 10
427.0671135591
 20
409.4179397146
 30
0.0
 11
478.6611175941
 21
409.4179397146
 31
0.0
  0
LINE
  5
A6
  8
0
  6
SLD-SOLID
 62
     7
 10
427.0671135591
 20
409.4179397146
 30
0.0
 11
427.0671135591
 21
411.4679371635
 31
0.0
  0
LINE
  5
A7
  8
0
  6
SLD-SOLID
 62
     7
 10
424.9939597057
 20
487.9179423372
 30
0.0
 11
427.0439720557
 21
487.9179423372
 31
0.0
  0
LINE
  5
A8
  8
0
  6
SLD-SOLID
 62
     7
 10
427.0439720557
 20
411.4679371635
 30
0.0
 11
424.9939597057
 21
411.4679371635
 31
0.0
  0
LINE
  5
A9
  8
0
  6
SLD-SOLID
 62
     7
 10
478.9439714359
 20
478.6179190199
 30
0.0
 11
480.5687791513
 21
478.6179190199
 31
0.0
  0
LINE
  5
AA
  8
0
  6
SLD-SOLID
 62
     7
 10
480.9939688848
 20
478.6179190199
 30
0.0
 11
480.9939688848
 21
411.4679371635
 31
0.0
  0
LINE
  5
AB
  8
0
  6
SLD-SOLID
 62
     7
 10
480.9939688848
 20
411.4679371635
 30
0.0
 11
478.9439714359
 21
411.4679371635
 31
0.0
  0
ARC
  5
AC
  8
0
  6
SLD-SOLID
 62
     7
 10
427.0439661452
 20
502.3679330014
 30
0.0
 40
2.050000000000011
 50
90.0
 51
180.0
  0
ARC
  5
AD
  8
0
  6
SLD-SOLID
 62
     7
 10
427.0439661452
 20
502.3679330014
 30
0.0
 40
1.25
 50
90.0
 51
180.0
  0
LINE
  5
AE
  8
0
  6
SLD-SOLID
 62
     7
 10
425.7939732478
 20
490.417939953
 30
0.0
 11
425.7939732478
 21
502.3679261724
 31
0.0
  0
LINE
  5
AF
  8
0
  6
SLD-SOLID
 62
     7
 10
424.9939597057
 20
490.417939953
 30
0.0
 11
424.9939597057
 21
502.3679261724
 31
0.0
  0
LINE
  5
B0
  8
0
  6
SLD-SOLID
 62
     7
 10
455.1939642833
 20
503.6179249803
 30
0.0
 11
427.0439720557
 21
503.6179249803
 31
0.0
  0
LINE
  5
B1
  8
0
  6
SLD-SOLID
 62
     7
 10
455.1939642833
 20
504.4179385225
 30
0.0
 11
427.0439720557
 21
504.4179385225
 31
0.0
  0
LINE
  5
B2
  8
0
  6
SLD-SOLID
 62
     7
 10
424.9939597057
 20
488.4179358999
 30
0.0
 11
425.7939732478
 21
488.4179358999
 31
0.0
  0
LINE
  5
B3
  8
0
  6
SLD-SOLID
 62
     7
 10
424.9939597057
 20
488.8566856901
 30
0.0
 11
424.9939597057
 21
490.417939953
 31
0.0
  0
LINE
  5
B4
  8
0
  6
SLD-SOLID
 62
     7
 10
425.7939732478
 20
488.4179358999
 30
0.0
 11
425.7939732478
 21
490.417939953
 31
0.0
  0
LINE
  5
B5
  8
0
  6
SLD-SOLID
 62
     7
 10
480.5687791513
 20
478.6179190199
 30
0.0
 11
480.9939688848
 21
478.6179190199
 31
0.0
  0
ARC
  5
B6
  8
0
  6
SLD-SOLID
 62
     7
 10
455.1939661452
 20
478.6179330014
 30
0.0
 40
25.0
 50
0.0
 51
90.0
  0
ARC
  5
B7
  8
0
  6
SLD-SOLID
 62
     7
 10
455.1939661452
 20
478.6179330014
 30
0.0
 40
25.80000000000001
 50
0.0
 51
90.0
  0
LINE
  5
B8
  8
0
  6
SLD-SOLID
 62
     7
 10
425.7939732478
 20
410.2179383556
 30
0.0
 11
424.9939597057
 21
410.2179383556
 31
0.0
  0
LINE
  5
B9
  8
0
  6
SLD-SOLID
 62
     7
 10
425.7939732478
 20
410.2179383556
 30
0.0
 11
425.7939732478
 21
411.4679371635
 31
0.0
  0
LINE
  5
BA
  8
0
  6
SLD-SOLID
 62
     7
 10
478.9439714359
 20
410.2179383556
 30
0.0
 11
478.9439714359
 21
409.4179397146
 31
0.0
  0
LINE
  5
BB
  8
0
  6
SLD-SOLID
 62
     7
 10
478.9439714359
 20
409.4179397146
 30
0.0
 11
478.6611175941
 21
409.4179397146
 31
0.0
  0
ARC
  5
BC
  8
0
  6
SLD-SOLID
 62
     7
 10
478.9439661452
 20
411.4679330014
 30
0.0
 40
2.050000000000011
 50
270.0
 51
0.0
  0
ARC
  5
BD
  8
0
  6
SLD-SOLID
 62
     7
 10
478.9439661452
 20
411.4679330014
 30
0.0
 40
1.250000000000114
 50
270.0
 51
0.0
  0
LINE
  5
BE
  8
0
  6
SLD-SOLID
 62
     7
 10
425.8939600394
 20
409.4179397146
 30
0.0
 11
425.8939600394
 21
410.2179383556
 31
0.0
  0
LINE
  5
BF
  8
0
  6
SLD-SOLID
 62
     7
 10
427.0671135591
 20
410.2179383556
 30
0.0
 11
425.8939600394
 21
410.2179383556
 31
0.0
  0
LINE
  5
C0
  8
0
  6
SLD-SOLID
 62
     7
 10
427.0671135591
 20
409.4179397146
 30
0.0
 11
425.8939600394
 21
409.4179397146
 31
0.0
  0
LINE
  5
C1
  8
0
  6
SLD-SOLID
 62
     7
 10
425.7939732478
 20
409.4179397146
 30
0.0
 11
425.7939732478
 21
410.2179383556
 31
0.0
  0
LINE
  5
C2
  8
0
  6
SLD-SOLID
 62
     7
 10
425.8939600394
 20
409.4179397146
 30
0.0
 11
425.7939732478
 21
409.4179397146
 31
0.0
  0
LINE
  5
C3
  8
0
  6
SLD-SOLID
 62
     7
 10
425.8939600394
 20
410.2179383556
 30
0.0
 11
425.7939732478
 21
410.2179383556
 31
0.0
  0
LINE
  5
C4
  8
0
  6
SLD-SOLID
 62
     7
 10
488.9939552949
 20
327.1679257671
 30
0.0
 11
488.9939552949
 21
329.9179350654
 31
0.0
  0
LINE
  5
C5
  8
0
  6
SLD-SOLID
 62
     7
 10
490.993959348
 20
327.617925934
 30
0.0
 11
488.9939552949
 21
327.617925934
 31
0.0
  0
LINE
  5
C6
  8
0
  6
SLD-SOLID
 62
     7
 10
490.993959348
 20
293.4179356019
 30
0.0
 11
490.993959348
 21
358.4179257671
 31
0.0
  0
LINE
  5
C7
  8
0
  6
SLD-SOLID
 62
     7
 10
500.9939796136
 20
349.6177171985
 30
0.0
 11
500.9939796136
 21
354.417932562
 31
0.0
  0
LINE
  5
C8
  8
0
  6
SLD-SOLID
 62
     7
 10
500.9939796136
 20
297.4179362575
 30
0.0
 11
500.9939796136
 21
302.218151621
 31
0.0
  0
POLYLINE
  5
C9
  8
0
  6
SLD-SOLID
 62
     7
 66
     1
 10
0.0
 20
0.0
 30
0.0
  0
VERTEX
  5
305
  8
0
  6
SLD-SOLID
 62
     7
 10
493.3152920411
 20
357.4893897096
 30
0.0
  0
VERTEX
  5
306
  8
0
  6
SLD-SOLID
 62
     7
 10
493.3152324365
 20
357.4894344131
 30
0.0
  0
VERTEX
  5
307
  8
0
  6
SLD-SOLID
 62
     7
 10
493.4872514413
 20
357.4060773174
 30
0.0
  0
VERTEX
  5
308
  8
0
  6
SLD-SOLID
 62
     7
 10
493.9783043073
 20
357.1742599527
 30
0.0
  0
VERTEX
  5
309
  8
0
  6
SLD-SOLID
 62
     7
 10
494.7188026117
 20
356.8419938604
 30
0.0
  0
VERTEX
  5
30A
  8
0
  6
SLD-SOLID
 62
     7
 10
495.6013089822
 20
356.4731007139
 30
0.0
  0
VERTEX
  5
30B
  8
0
  6
SLD-SOLID
 62
     7
 10
496.4940673516
 20
356.1298971693
 30
0.0
  0
VERTEX
  5
30C
  8
0
  6
SLD-SOLID
 62
     7
 10
497.2593611882
 20
355.859664611
 30
0.0
  0
VERTEX
  5
30D
  8
0
  6
SLD-SOLID
 62
     7
 10
497.7749115632
 20
355.6901788036
 30
0.0
  0
VERTEX
  5
30E
  8
0
  6
SLD-SOLID
 62
     7
 10
497.9575401948
 20
355.6324964086
 30
0.0
  0
SEQEND
  5
30F
  8
0
  6
SLD-SOLID
 62
     7
  0
LINE
  5
CA
  8
0
  6
SLD-SOLID
 62
     7
 10
500.9939796136
 20
347.7833395521
 30
0.0
 11
500.9939796136
 21
304.052536718
 31
0.0
  0
ARC
  5
CB
  8
0
  6
SLD-SOLID
 62
     7
 10
500.2556588874
 20
303.1755251793
 30
0.0
 40
1.195300324661855
 50
308.947423656
 51
1.2595462141
  0
ARC
  5
CC
  8
0
  6
SLD-SOLID
 62
     7
 10
501.0277934836
 20
302.2192013746
 30
0.0
 40
0.0338301608470935
 50
127.8551246205
 51
181.7781796454
  0
ARC
  5
CD
  8
0
  6
SLD-SOLID
 62
     7
 10
500.2556450607
 20
348.6603370183
 30
0.0
 40
1.195314166208303
 50
358.7404286411
 51
51.0522604246
  0
ARC
  5
CE
  8
0
  6
SLD-SOLID
 62
     7
 10
501.0280714801
 20
349.6167981616
 30
0.0
 40
0.0341042517978292
 50
178.4558138312
 51
231.9108819029
  0
ARC
  5
CF
  8
0
  6
SLD-SOLID
 62
     7
 10
509.9636384452
 20
372.6061009093
 30
0.0
 40
20.26817468088154
 50
245.1620491524
 51
245.8231403873
  0
LINE
  5
D0
  8
0
  6
SLD-SOLID
 62
     7
 10
501.6627139257
 20
354.115737013
 30
0.0
 11
519.0564519571
 21
346.2345128576
 31
0.0
  0
LINE
  5
D1
  8
0
  6
SLD-SOLID
 62
     7
 10
519.0564519571
 20
346.2345128576
 30
0.0
 11
520.4043215917
 21
345.6262623588
 31
0.0
  0
LINE
  5
D2
  8
0
  6
SLD-SOLID
 62
     7
 10
520.9939605401
 20
341.4856021921
 30
0.0
 11
520.9939605401
 21
310.3502666275
 31
0.0
  0
LINE
  5
D3
  8
0
  6
SLD-SOLID
 62
     7
 10
520.9939605401
 20
310.3502666275
 30
0.0
 11
520.9939605401
 21
307.0645158807
 31
0.0
  0
LINE
  5
D4
  8
0
  6
SLD-SOLID
 62
     7
 10
520.9939605401
 20
344.7115843813
 30
0.0
 11
520.9939605401
 21
341.4856021921
 31
0.0
  0
ARC
  5
D5
  8
0
  6
SLD-SOLID
 62
     7
 10
519.9907074224
 20
344.7122379804
 30
0.0
 40
1.003253330619424
 50
359.9626729631
 51
65.6523044047
  0
LINE
  5
D6
  8
0
  6
SLD-SOLID
 62
     7
 10
488.9939552949
 20
327.1679257671
 30
0.0
 11
488.9939552949
 21
326.7739390651
 31
0.0
  0
LINE
  5
D7
  8
0
  6
SLD-SOLID
 62
     7
 10
488.9939552949
 20
327.1679257671
 30
0.0
 11
490.993959348
 21
327.1679257671
 31
0.0
  0
LINE
  5
D8
  8
0
  6
SLD-SOLID
 62
     7
 10
488.9939552949
 20
326.7739390651
 30
0.0
 11
488.9939552949
 21
325.1679366151
 31
0.0
  0
LINE
  5
D9
  8
0
  6
SLD-SOLID
 62
     7
 10
488.9939552949
 20
325.1679366151
 30
0.0
 11
488.9939552949
 21
324.6679281513
 31
0.0
  0
LINE
  5
DA
  8
0
  6
SLD-SOLID
 62
     7
 10
490.993959348
 20
324.6330296318
 30
0.0
 11
488.9939552949
 21
324.6679281513
 31
0.0
  0
LINE
  5
DB
  8
0
  6
SLD-SOLID
 62
     7
 10
490.993959348
 20
321.6568952123
 30
0.0
 11
488.9939552949
 21
321.6605907003
 31
0.0
  0
LINE
  5
DC
  8
0
  6
SLD-SOLID
 62
     7
 10
488.9939552949
 20
324.6679281513
 30
0.0
 11
488.9939552949
 21
321.6605907003
 31
0.0
  0
LINE
  5
DD
  8
0
  6
SLD-SOLID
 62
     7
 10
488.9939552949
 20
320.5407088319
 30
0.0
 11
488.9939552949
 21
319.946033291
 31
0.0
  0
LINE
  5
DE
  8
0
  6
SLD-SOLID
 62
     7
 10
488.9939552949
 20
321.6605907003
 30
0.0
 11
488.9939552949
 21
320.5407088319
 31
0.0
  0
LINE
  5
DF
  8
0
  6
SLD-SOLID
 62
     7
 10
488.9939552949
 20
319.946033291
 30
0.0
 11
488.9939552949
 21
318.8918655435
 31
0.0
  0
LINE
  5
E0
  8
0
  6
SLD-SOLID
 62
     7
 10
488.9939552949
 20
318.8918655435
 30
0.0
 11
488.9939552949
 21
318.806124262
 31
0.0
  0
POLYLINE
  5
E1
  8
0
  6
SLD-SOLID
 62
     7
 66
     1
 10
0.0
 20
0.0
 30
0.0
  0
VERTEX
  5
310
  8
0
  6
SLD-SOLID
 62
     7
 10
493.319166343
 20
357.4985986272
 30
0.0
  0
VERTEX
  5
311
  8
0
  6
SLD-SOLID
 62
     7
 10
493.3189279245
 20
357.4987178365
 30
0.0
  0
VERTEX
  5
312
  8
0
  6
SLD-SOLID
 62
     7
 10
493.4911555455
 20
357.4152564327
 30
0.0
  0
VERTEX
  5
313
  8
0
  6
SLD-SOLID
 62
     7
 10
493.9826852487
 20
357.1832304517
 30
0.0
  0
VERTEX
  5
314
  8
0
  6
SLD-SOLID
 62
     7
 10
494.7237199949
 20
356.8507259409
 30
0.0
  0
VERTEX
  5
315
  8
0
  6
SLD-SOLID
 62
     7
 10
495.6067628072
 20
356.4816539804
 30
0.0
  0
VERTEX
  5
316
  8
0
  6
SLD-SOLID
 62
     7
 10
496.4997893975
 20
356.1384057323
 30
0.0
  0
VERTEX
  5
317
  8
0
  6
SLD-SOLID
 62
     7
 10
497.2648746179
 20
355.8683221857
 30
0.0
  0
VERTEX
  5
318
  8
0
  6
SLD-SOLID
 62
     7
 10
497.779977958
 20
355.6990300933
 30
0.0
  0
VERTEX
  5
319
  8
0
  6
SLD-SOLID
 62
     7
 10
497.9612654851
 20
355.6417947332
 30
0.0
  0
SEQEND
  5
31A
  8
0
  6
SLD-SOLID
 62
     7
  0
LINE
  5
E2
  8
0
  6
SLD-SOLID
 62
     7
 10
425.3939664767
 20
408.6179261724
 30
0.0
 11
424.9939597057
 21
408.6179261724
 31
0.0
  0
LINE
  5
E3
  8
0
  6
SLD-SOLID
 62
     7
 10
425.3939664767
 20
408.6179261724
 30
0.0
 11
425.3939664767
 21
406.9679354946
 31
0.0
  0
LINE
  5
E4
  8
0
  6
SLD-SOLID
 62
     7
 10
425.3939664767
 20
406.9679354946
 30
0.0
 11
425.7939732478
 21
406.9679354946
 31
0.0
  0
LINE
  5
E5
  8
0
  6
SLD-SOLID
 62
     7
 10
425.7939732478
 20
406.9679354946
 30
0.0
 11
425.7939732478
 21
407.3679273645
 31
0.0
  0
ARC
  5
E6
  8
0
  6
SLD-SOLID
 62
     7
 10
470.7408236573
 20
183.2552690886
 30
0.0
 40
8.203612685096696
 50
344.8981345148
 51
359.3900139024
  0
LINE
  5
E7
  8
0
  6
SLD-SOLID
 62
     7
 10
415.7939678834
 20
181.1179331201
 30
0.0
 11
478.6611175941
 21
181.1179331201
 31
0.0
  0
LINE
  5
E8
  8
0
  6
SLD-SOLID
 62
     7
 10
415.7939678834
 20
181.1179331201
 30
0.0
 11
415.7939678834
 21
181.9179331581
 31
0.0
  0
LINE
  5
E9
  8
0
  6
SLD-SOLID
 62
     7
 10
425.7939732478
 20
407.3679273645
 30
0.0
 11
425.7939732478
 21
409.4179397146
 31
0.0
  0
ARC
  5
EA
  8
0
  6
SLD-SOLID
 62
     7
 10
470.7404950447
 20
407.2805589408
 30
0.0
 40
8.203941622239505
 50
0.610186761
 51
15.1015696632
  0
LINE
  5
EB
  8
0
  6
SLD-SOLID
 62
     7
 10
480.9939688848
 20
407.3679273645
 30
0.0
 11
480.9939688848
 21
244.4694315712
 31
0.0
  0
LINE
  5
EC
  8
0
  6
SLD-SOLID
 62
     7
 10
480.9939688848
 20
228.6292550782
 30
0.0
 11
480.9939688848
 21
228.6085946182
 31
0.0
  0
LINE
  5
ED
  8
0
  6
SLD-SOLID
 62
     7
 10
480.9939688848
 20
226.9556572358
 30
0.0
 11
480.9939688848
 21
183.1679328973
 31
0.0
  0
LINE
  5
EE
  8
0
  6
SLD-SOLID
 62
     7
 10
480.9939688848
 20
183.1679328973
 30
0.0
 11
478.9439714359
 21
183.1679328973
 31
0.0
  0
LINE
  5
EF
  8
0
  6
SLD-SOLID
 62
     7
 10
478.9439714359
 20
407.3679273645
 30
0.0
 11
480.9939688848
 21
407.3679273645
 31
0.0
  0
LINE
  5
F0
  8
0
  6
SLD-SOLID
 62
     7
 10
478.9439714359
 20
408.6179261724
 30
0.0
 11
478.9439714359
 21
409.4179397146
 31
0.0
  0
ARC
  5
F1
  8
0
  6
SLD-SOLID
 62
     7
 10
478.9439661452
 20
407.3679330014
 30
0.0
 40
1.25
 50
0.0
 51
90.0
  0
ARC
  5
F2
  8
0
  6
SLD-SOLID
 62
     7
 10
478.9439661452
 20
407.3679330014
 30
0.0
 40
2.050000000000011
 50
0.0
 51
90.0
  0
LINE
  5
F3
  8
0
  6
SLD-SOLID
 62
     7
 10
478.9439714359
 20
181.1179331201
 30
0.0
 11
478.6611175941
 21
181.1179331201
 31
0.0
  0
LINE
  5
F4
  8
0
  6
SLD-SOLID
 62
     7
 10
478.9439714359
 20
181.9179331581
 30
0.0
 11
478.9439714359
 21
181.1179331201
 31
0.0
  0
ARC
  5
F5
  8
0
  6
SLD-SOLID
 62
     7
 10
478.9439661452
 20
183.1679330014
 30
0.0
 40
1.250000000000568
 50
270.0
 51
360.0
  0
ARC
  5
F6
  8
0
  6
SLD-SOLID
 62
     7
 10
478.9439661452
 20
183.1679330014
 30
0.0
 40
2.050000000000011
 50
270.0
 51
0.0
  0
LINE
  5
F7
  8
0
  6
SLD-SOLID
 62
     7
 10
425.7939732478
 20
408.5472201625
 30
0.0
 11
425.3939664767
 21
408.5472201625
 31
0.0
  0
LINE
  5
F8
  8
0
  6
SLD-SOLID
 62
     7
 10
480.9939688848
 20
251.1179348151
 30
0.0
 11
482.5939661668
 21
251.1179348151
 31
0.0
  0
LINE
  5
F9
  8
0
  6
SLD-SOLID
 62
     7
 10
482.5939661668
 20
249.1235559503
 30
0.0
 11
482.5939661668
 21
251.1179348151
 31
0.0
  0
LINE
  5
FA
  8
0
  6
SLD-SOLID
 62
     7
 10
482.5939661668
 20
193.1119164149
 30
0.0
 11
482.5939661668
 21
229.8485425929
 31
0.0
  0
LINE
  5
FB
  8
0
  6
SLD-SOLID
 62
     7
 10
482.5939661668
 20
231.5014762501
 30
0.0
 11
482.5939661668
 21
231.5221404354
 31
0.0
  0
LINE
  5
FC
  8
0
  6
SLD-SOLID
 62
     7
 10
482.5939661668
 20
244.4960413198
 30
0.0
 11
482.5939661668
 21
249.1235559503
 31
0.0
  0
LINE
  5
FD
  8
0
  6
SLD-SOLID
 62
     7
 10
480.9939688848
 20
191.1179328966
 30
0.0
 11
482.5939661668
 21
191.1179328966
 31
0.0
  0
LINE
  5
FE
  8
0
  6
SLD-SOLID
 62
     7
 10
482.5939661668
 20
191.1179328966
 30
0.0
 11
482.5939661668
 21
193.1119164149
 31
0.0
  0
LINE
  5
FF
  8
0
  6
SLD-SOLID
 62
     7
 10
483.9939600633
 20
248.580218635
 30
0.0
 11
483.9939600633
 21
244.5193243841
 31
0.0
  0
LINE
  5
100
  8
0
  6
SLD-SOLID
 62
     7
 10
483.9939600633
 20
234.0534118632
 30
0.0
 11
483.9939600633
 21
234.0327514032
 31
0.0
  0
LINE
  5
101
  8
0
  6
SLD-SOLID
 62
     7
 10
483.9939600633
 20
232.3798177461
 30
0.0
 11
483.9939600633
 21
193.655648611
 31
0.0
  0
ARC
  5
102
  8
0
  6
SLD-SOLID
 62
     7
 10
480.9939054434
 20
248.5801930228
 30
0.0
 40
3.000054620045527
 50
0.0004891489
 51
57.7683340828
  0
LINE
  5
103
  8
0
  6
SLD-SOLID
 62
     7
 10
482.5939661668
 20
251.1179348151
 30
0.0
 11
482.5939661668
 21
249.1235559503
 31
0.0
  0
ARC
  5
104
  8
0
  6
SLD-SOLID
 62
     7
 10
480.9939510219
 20
193.6556495444
 30
0.0
 40
3.000009041379892
 50
302.2311857008
 51
359.9999821741
  0
LINE
  5
105
  8
0
  6
SLD-SOLID
 62
     7
 10
482.5939661668
 20
193.1119164149
 30
0.0
 11
482.5939661668
 21
191.1179328966
 31
0.0
  0
LINE
  5
106
  8
0
  6
SLD-SOLID
 62
     7
 10
146.6646767066
 20
472.2181683103
 30
0.0
 11
146.6646767066
 21
469.1234653513
 31
0.0
  0
LINE
  5
107
  8
0
  6
SLD-SOLID
 62
     7
 10
147.0758742498
 20
472.2181683103
 30
0.0
 11
146.6646767066
 21
472.2181683103
 31
0.0
  0
LINE
  5
108
  8
0
  6
SLD-SOLID
 62
     7
 10
147.0758742498
 20
472.2181683103
 30
0.0
 11
147.0758742498
 21
466.7465811292
 31
0.0
  0
LINE
  5
109
  8
0
  6
SLD-SOLID
 62
     7
 10
147.7939686583
 20
472.2181683103
 30
0.0
 11
147.0758742498
 21
472.2181683103
 31
0.0
  0
POLYLINE
  5
10A
  8
0
  6
SLD-SOLID
 62
     7
 66
     1
 10
0.0
 20
0.0
 30
0.0
  0
VERTEX
  5
31B
  8
0
  6
SLD-SOLID
 62
     7
 10
277.9646753178
 20
455.6181555311
 30
0.0
  0
VERTEX
  5
31C
  8
0
  6
SLD-SOLID
 62
     7
 10
278.1169167565
 20
456.3835387746
 30
0.0
  0
VERTEX
  5
31D
  8
0
  6
SLD-SOLID
 62
     7
 10
278.2939649032
 20
456.7175930063
 30
0.0
  0
SEQEND
  5
31E
  8
0
  6
SLD-SOLID
 62
     7
  0
POLYLINE
  5
10B
  8
0
  6
SLD-SOLID
 62
     7
 66
     1
 10
0.0
 20
0.0
 30
0.0
  0
VERTEX
  5
31F
  8
0
  6
SLD-SOLID
 62
     7
 10
278.2939649032
 20
454.5187478582
 30
0.0
  0
VERTEX
  5
320
  8
0
  6
SLD-SOLID
 62
     7
 10
278.1169167565
 20
454.8528020898
 30
0.0
  0
VERTEX
  5
321
  8
0
  6
SLD-SOLID
 62
     7
 10
277.9646753178
 20
455.6181555311
 30
0.0
  0
SEQEND
  5
322
  8
0
  6
SLD-SOLID
 62
     7
  0
LINE
  5
10C
  8
0
  6
SLD-SOLID
 62
     7
 10
162.293968241
 20
472.2181683103
 30
0.0
 11
156.2939635323
 21
472.2181683103
 31
0.0
  0
LINE
  5
10D
  8
0
  6
SLD-SOLID
 62
     7
 10
146.2939656184
 20
466.9181530992
 30
0.0
 11
146.9883820818
 21
466.9181530992
 31
0.0
  0
LINE
  5
10E
  8
0
  6
SLD-SOLID
 62
     7
 10
146.2939656184
 20
466.9181530992
 30
0.0
 11
146.2939656184
 21
463.9181619207
 31
0.0
  0
LINE
  5
10F
  8
0
  6
SLD-SOLID
 62
     7
 10
147.0939642595
 20
466.7465811292
 30
0.0
 11
147.0939642595
 21
463.9181619207
 31
0.0
  0
LINE
  5
110
  8
0
  6
SLD-SOLID
 62
     7
 10
146.2939656184
 20
463.9181619207
 30
0.0
 11
146.2939656184
 21
449.8200839082
 31
0.0
  0
LINE
  5
111
  8
0
  6
SLD-SOLID
 62
     7
 10
147.0939642595
 20
463.9181619207
 30
0.0
 11
147.0939642595
 21
450.4920368711
 31
0.0
  0
LINE
  5
112
  8
0
  6
SLD-SOLID
 62
     7
 10
145.0439668105
 20
469.9181442777
 30
0.0
 11
141.7939639495
 21
469.9181442777
 31
0.0
  0
LINE
  5
113
  8
0
  6
SLD-SOLID
 62
     7
 10
145.0439668105
 20
469.1181605379
 30
0.0
 11
141.7939639495
 21
469.1181605379
 31
0.0
  0
ARC
  5
114
  8
0
  6
SLD-SOLID
 62
     7
 10
145.0439661451
 20
467.8681582511
 30
0.0
 40
2.049999999999945
 50
30.3287647094
 51
90.0
  0
ARC
  5
115
  8
0
  6
SLD-SOLID
 62
     7
 10
145.0439661451
 20
467.8681582511
 30
0.0
 40
1.249999999999972
 50
0.0
 51
90.0
  0
LINE
  5
116
  8
0
  6
SLD-SOLID
 62
     7
 10
146.2939656184
 20
467.86816173
 30
0.0
 11
146.2939656184
 21
466.9181530992
 31
0.0
  0
POLYLINE
  5
117
  8
0
  6
SLD-SOLID
 62
     7
 66
     1
 10
0.0
 20
0.0
 30
0.0
  0
VERTEX
  5
323
  8
0
  6
SLD-SOLID
 62
     7
 10
126.0439655588
 20
502.368164591
 30
0.0
  0
VERTEX
  5
324
  8
0
  6
SLD-SOLID
 62
     7
 10
125.7577887581
 20
503.0935233156
 30
0.0
  0
VERTEX
  5
325
  8
0
  6
SLD-SOLID
 62
     7
 10
125.4715076493
 20
503.7252431432
 30
0.0
  0
VERTEX
  5
326
  8
0
  6
SLD-SOLID
 62
     7
 10
125.1852265404
 20
504.1812484781
 30
0.0
  0
VERTEX
  5
327
  8
0
  6
SLD-SOLID
 62
     7
 10
124.898937981
 20
504.4025009195
 30
0.0
  0
VERTEX
  5
328
  8
0
  6
SLD-SOLID
 62
     7
 10
124.8010373519
 20
504.4181471388
 30
0.0
  0
SEQEND
  5
329
  8
0
  6
SLD-SOLID
 62
     7
  0
ARC
  5
118
  8
0
  6
SLD-SOLID
 62
     7
 10
124.0060817206
 20
501.5847562189
 30
0.0
 40
2.18327717332058
 50
21.0278824104
 51
68.647106463
  0
LINE
  5
119
  8
0
  6
SLD-SOLID
 62
     7
 10
124.8010373519
 20
504.4181471388
 30
0.0
 11
124.8010373519
 21
503.6181633989
 31
0.0
  0
POLYLINE
  5
11A
  8
0
  6
SLD-SOLID
 62
     7
 66
     1
 10
0.0
 20
0.0
 30
0.0
  0
VERTEX
  5
32A
  8
0
  6
SLD-SOLID
 62
     7
 10
424.1868979142
 20
504.4181471388
 30
0.0
  0
VERTEX
  5
32B
  8
0
  6
SLD-SOLID
 62
     7
 10
423.9007211135
 20
504.2855268041
 30
0.0
  0
VERTEX
  5
32C
  8
0
  6
SLD-SOLID
 62
     7
 10
423.6144400047
 20
503.904653124
 30
0.0
  0
VERTEX
  5
32D
  8
0
  6
SLD-SOLID
 62
     7
 10
423.3281588958
 20
503.324848942
 30
0.0
  0
VERTEX
  5
32E
  8
0
  6
SLD-SOLID
 62
     7
 10
423.0418628858
 20
502.6211565057
 30
0.0
  0
VERTEX
  5
32F
  8
0
  6
SLD-SOLID
 62
     7
 10
422.9439622567
 20
502.368164591
 30
0.0
  0
SEQEND
  5
330
  8
0
  6
SLD-SOLID
 62
     7
  0
LINE
  5
11B
  8
0
  6
SLD-SOLID
 62
     7
 10
424.1868979142
 20
504.4181471388
 30
0.0
 11
424.1868979142
 21
503.6181633989
 31
0.0
  0
ARC
  5
11C
  8
0
  6
SLD-SOLID
 62
     7
 10
425.0202256028
 20
501.5465888371
 30
0.0
 40
2.232903088318801
 50
111.9133338073
 51
158.4113338734
  0
LINE
  5
11D
  8
0
  6
SLD-SOLID
 62
     7
 10
424.1868979142
 20
504.4181471388
 30
0.0
 11
124.8010373519
 21
504.4181471388
 31
0.0
  0
POLYLINE
  5
11E
  8
0
  6
SLD-SOLID
 62
     7
 66
     1
 10
0.0
 20
0.0
 30
0.0
  0
VERTEX
  5
331
  8
0
  6
SLD-SOLID
 62
     7
 10
422.9439622567
 20
502.368164591
 30
0.0
  0
VERTEX
  5
332
  8
0
  6
SLD-SOLID
 62
     7
 10
423.6693209813
 20
502.6543264906
 30
0.0
  0
VERTEX
  5
333
  8
0
  6
SLD-SOLID
 62
     7
 10
424.301040809
 20
502.9406075994
 30
0.0
  0
VERTEX
  5
334
  8
0
  6
SLD-SOLID
 62
     7
 10
424.7570461438
 20
503.2268887083
 30
0.0
  0
VERTEX
  5
335
  8
0
  6
SLD-SOLID
 62
     7
 10
424.9782985852
 20
503.5131698171
 30
0.0
  0
VERTEX
  5
336
  8
0
  6
SLD-SOLID
 62
     7
 10
424.9939597057
 20
503.6111002485
 30
0.0
  0
SEQEND
  5
337
  8
0
  6
SLD-SOLID
 62
     7
  0
ARC
  5
11F
  8
0
  6
SLD-SOLID
 62
     7
 10
422.1606456098
 20
504.4059514176
 30
0.0
 40
2.183153709656346
 50
291.0265490089
 51
338.6487833104
  0
LINE
  5
120
  8
0
  6
SLD-SOLID
 62
     7
 10
424.9939597057
 20
503.6111002485
 30
0.0
 11
424.1939610646
 21
503.6111002485
 31
0.0
  0
POLYLINE
  5
121
  8
0
  6
SLD-SOLID
 62
     7
 66
     1
 10
0.0
 20
0.0
 30
0.0
  0
VERTEX
  5
338
  8
0
  6
SLD-SOLID
 62
     7
 10
424.9939597057
 20
182.7252291771
 30
0.0
  0
VERTEX
  5
339
  8
0
  6
SLD-SOLID
 62
     7
 10
424.8613542722
 20
183.0114069092
 30
0.0
  0
VERTEX
  5
33A
  8
0
  6
SLD-SOLID
 62
     7
 10
424.4804656909
 20
183.2976889494
 30
0.0
  0
VERTEX
  5
33B
  8
0
  6
SLD-SOLID
 62
     7
 10
423.9006466077
 20
183.5839719209
 30
0.0
  0
VERTEX
  5
33C
  8
0
  6
SLD-SOLID
 62
     7
 10
423.1969541715
 20
183.8702548924
 30
0.0
  0
VERTEX
  5
33D
  8
0
  6
SLD-SOLID
 62
     7
 10
422.9439622567
 20
183.9681583154
 30
0.0
  0
SEQEND
  5
33E
  8
0
  6
SLD-SOLID
 62
     7
  0
LINE
  5
122
  8
0
  6
SLD-SOLID
 62
     7
 10
424.9939597057
 20
182.7252291771
 30
0.0
 11
424.1939610646
 21
182.7252291771
 31
0.0
  0
ARC
  5
123
  8
0
  6
SLD-SOLID
 62
     7
 10
422.1224799339
 20
181.8919845609
 30
0.0
 40
2.232785405135365
 50
21.9122508686
 51
68.4127173272
  0
LINE
  5
124
  8
0
  6
SLD-SOLID
 62
     7
 10
424.9939597057
 20
503.6111002485
 30
0.0
 11
424.9939597057
 21
502.3679261724
 31
0.0
  0
LINE
  5
125
  8
0
  6
SLD-SOLID
 62
     7
 10
424.9939597057
 20
488.8566856901
 30
0.0
 11
424.9939597057
 21
182.7252291771
 31
0.0
  0
POLYLINE
  5
126
  8
0
  6
SLD-SOLID
 62
     7
 66
     1
 10
0.0
 20
0.0
 30
0.0
  0
VERTEX
  5
33F
  8
0
  6
SLD-SOLID
 62
     7
 10
422.9439622567
 20
183.9681583154
 30
0.0
  0
VERTEX
  5
340
  8
0
  6
SLD-SOLID
 62
     7
 10
423.2301390575
 20
183.2427967968
 30
0.0
  0
VERTEX
  5
341
  8
0
  6
SLD-SOLID
 62
     7
 10
423.5164201663
 20
182.6110820914
 30
0.0
  0
VERTEX
  5
342
  8
0
  6
SLD-SOLID
 62
     7
 10
423.8027012752
 20
182.1550786192
 30
0.0
  0
VERTEX
  5
343
  8
0
  6
SLD-SOLID
 62
     7
 10
424.0889972852
 20
181.9338289718
 30
0.0
  0
VERTEX
  5
344
  8
0
  6
SLD-SOLID
 62
     7
 10
424.1868979142
 20
181.9181580725
 30
0.0
  0
SEQEND
  5
345
  8
0
  6
SLD-SOLID
 62
     7
  0
ARC
  5
127
  8
0
  6
SLD-SOLID
 62
     7
 10
424.9818926802
 20
184.7516154753
 30
0.0
 40
2.183338162618317
 50
201.0286387906
 51
248.6466294967
  0
LINE
  5
128
  8
0
  6
SLD-SOLID
 62
     7
 10
424.1868979142
 20
181.9181580725
 30
0.0
 11
424.1868979142
 21
182.7181581105
 31
0.0
  0
POLYLINE
  5
129
  8
0
  6
SLD-SOLID
 62
     7
 66
     1
 10
0.0
 20
0.0
 30
0.0
  0
VERTEX
  5
346
  8
0
  6
SLD-SOLID
 62
     7
 10
124.8010373519
 20
181.9181580725
 30
0.0
  0
VERTEX
  5
347
  8
0
  6
SLD-SOLID
 62
     7
 10
125.0872141526
 20
182.0507770101
 30
0.0
  0
VERTEX
  5
348
  8
0
  6
SLD-SOLID
 62
     7
 10
125.3734952615
 20
182.4316539499
 30
0.0
  0
VERTEX
  5
349
  8
0
  6
SLD-SOLID
 62
     7
 10
125.6597763704
 20
183.0114753614
 30
0.0
  0
VERTEX
  5
34A
  8
0
  6
SLD-SOLID
 62
     7
 10
125.9460649298
 20
183.715165935
 30
0.0
  0
VERTEX
  5
34B
  8
0
  6
SLD-SOLID
 62
     7
 10
126.0439655588
 20
183.9681583154
 30
0.0
  0
SEQEND
  5
34C
  8
0
  6
SLD-SOLID
 62
     7
  0
LINE
  5
12A
  8
0
  6
SLD-SOLID
 62
     7
 10
124.8010373519
 20
181.9181580725
 30
0.0
 11
124.8010373519
 21
182.7181581105
 31
0.0
  0
ARC
  5
12B
  8
0
  6
SLD-SOLID
 62
     7
 10
123.9677597024
 20
184.7896696227
 30
0.0
 40
2.232825919438715
 50
291.9127463486
 51
338.41232881
  0
LINE
  5
12C
  8
0
  6
SLD-SOLID
 62
     7
 10
424.1868979142
 20
181.9181580725
 30
0.0
 11
124.8010373519
 21
181.9181580725
 31
0.0
  0
POLYLINE
  5
12D
  8
0
  6
SLD-SOLID
 62
     7
 66
     1
 10
0.0
 20
0.0
 30
0.0
  0
VERTEX
  5
34D
  8
0
  6
SLD-SOLID
 62
     7
 10
126.0439655588
 20
183.9681583154
 30
0.0
  0
VERTEX
  5
34E
  8
0
  6
SLD-SOLID
 62
     7
 10
125.3186068342
 20
183.6819805833
 30
0.0
  0
VERTEX
  5
34F
  8
0
  6
SLD-SOLID
 62
     7
 10
124.6868870066
 20
183.3956985431
 30
0.0
  0
VERTEX
  5
350
  8
0
  6
SLD-SOLID
 62
     7
 10
124.2308891223
 20
183.1094160373
 30
0.0
  0
VERTEX
  5
351
  8
0
  6
SLD-SOLID
 62
     7
 10
124.0096366809
 20
182.8231326001
 30
0.0
  0
VERTEX
  5
352
  8
0
  6
SLD-SOLID
 62
     7
 10
123.9939681099
 20
182.7252291771
 30
0.0
  0
SEQEND
  5
353
  8
0
  6
SLD-SOLID
 62
     7
  0
ARC
  5
12E
  8
0
  6
SLD-SOLID
 62
     7
 10
126.8273970807
 20
181.9302517915
 30
0.0
 40
2.18330665495644
 50
111.0282358445
 51
158.6467959597
  0
LINE
  5
12F
  8
0
  6
SLD-SOLID
 62
     7
 10
123.9939681099
 20
182.7252291771
 30
0.0
 11
124.7939667509
 21
182.7252291771
 31
0.0
  0
POLYLINE
  5
130
  8
0
  6
SLD-SOLID
 62
     7
 66
     1
 10
0.0
 20
0.0
 30
0.0
  0
VERTEX
  5
354
  8
0
  6
SLD-SOLID
 62
     7
 10
123.9939681099
 20
503.6111002485
 30
0.0
  0
VERTEX
  5
355
  8
0
  6
SLD-SOLID
 62
     7
 10
124.1265884445
 20
503.3249085466
 30
0.0
  0
VERTEX
  5
356
  8
0
  6
SLD-SOLID
 62
     7
 10
124.5074621247
 20
503.0386274377
 30
0.0
  0
VERTEX
  5
357
  8
0
  6
SLD-SOLID
 62
     7
 10
125.0872812079
 20
502.7523463289
 30
0.0
  0
VERTEX
  5
358
  8
0
  6
SLD-SOLID
 62
     7
 10
125.7909736441
 20
502.46606522
 30
0.0
  0
VERTEX
  5
359
  8
0
  6
SLD-SOLID
 62
     7
 10
126.0439655588
 20
502.368164591
 30
0.0
  0
SEQEND
  5
35A
  8
0
  6
SLD-SOLID
 62
     7
  0
LINE
  5
131
  8
0
  6
SLD-SOLID
 62
     7
 10
123.9939681099
 20
503.6111002485
 30
0.0
 11
124.7939667509
 21
503.6111002485
 31
0.0
  0
ARC
  5
132
  8
0
  6
SLD-SOLID
 62
     7
 10
126.865457582
 20
504.4443437306
 30
0.0
 40
2.232793981486707
 50
201.9121309737
 51
248.412536707
  0
LINE
  5
133
  8
0
  6
SLD-SOLID
 62
     7
 10
123.9939681099
 20
503.6111002485
 30
0.0
 11
123.9939681099
 21
182.7252291771
 31
0.0
  0
ARC
  5
134
  8
0
  6
SLD-SOLID
 62
     7
 10
159.2939661451
 20
496.4181582512
 30
0.0
 40
5.000000000000017
 50
306.8698976458
 51
233.1301023542
  0
ARC
  5
135
  8
0
  6
SLD-SOLID
 62
     7
 10
217.2939661451
 20
452.4181582512
 30
0.0
 40
3.000000000000028
 50
180.0
 51
0.0
  0
LINE
  5
136
  8
0
  6
SLD-SOLID
 62
     7
 10
220.2939665721
 20
496.4181607286
 30
0.0
 11
220.2939665721
 21
452.418160967
 31
0.0
  0
ARC
  5
137
  8
0
  6
SLD-SOLID
 62
     7
 10
202.7939661451
 20
496.4181582512
 30
0.0
 40
3.000000000000028
 50
0.0
 51
180.0
  0
ARC
  5
138
  8
0
  6
SLD-SOLID
 62
     7
 10
144.7939661451
 20
496.4181582512
 30
0.0
 40
3.000000000000028
 50
0.0
 51
180.0
  0
LINE
  5
139
  8
0
  6
SLD-SOLID
 62
     7
 10
141.7939639495
 20
452.418160967
 30
0.0
 11
141.7939639495
 21
496.4181607286
 31
0.0
  0
LINE
  5
13A
  8
0
  6
SLD-SOLID
 62
     7
 10
170.7939668403
 20
452.418160967
 30
0.0
 11
170.7939668403
 21
496.4181607286
 31
0.0
  0
ARC
  5
13B
  8
0
  6
SLD-SOLID
 62
     7
 10
173.7939661451
 20
496.4181582512
 30
0.0
 40
2.999999999999972
 50
0.0
 51
180.0
  0
LINE
  5
13C
  8
0
  6
SLD-SOLID
 62
     7
 10
191.2939674066
 20
496.4181607286
 30
0.0
 11
191.2939674066
 21
452.418160967
 31
0.0
  0
ARC
  5
13D
  8
0
  6
SLD-SOLID
 62
     7
 10
188.2939661451
 20
452.4181582512
 30
0.0
 40
3.0
 50
180.0
 51
0.0
  0
LINE
  5
13E
  8
0
  6
SLD-SOLID
 62
     7
 10
176.7939678238
 20
496.4181607286
 30
0.0
 11
176.7939678238
 21
452.418160967
 31
0.0
  0
ARC
  5
13F
  8
0
  6
SLD-SOLID
 62
     7
 10
173.7939661451
 20
452.4181582512
 30
0.0
 40
2.999999999999972
 50
180.0
 51
0.0
  0
LINE
  5
140
  8
0
  6
SLD-SOLID
 62
     7
 10
205.7939669893
 20
496.4181607286
 30
0.0
 11
205.7939669893
 21
452.418160967
 31
0.0
  0
ARC
  5
141
  8
0
  6
SLD-SOLID
 62
     7
 10
202.7939661451
 20
452.4181582512
 30
0.0
 40
3.0
 50
180.0
 51
0.0
  0
LINE
  5
142
  8
0
  6
SLD-SOLID
 62
     7
 10
199.7939660059
 20
452.418160967
 30
0.0
 11
199.7939660059
 21
496.4181607286
 31
0.0
  0
LINE
  5
143
  8
0
  6
SLD-SOLID
 62
     7
 10
301.2939668105
 20
452.418160967
 30
0.0
 11
301.2939668105
 21
496.4181607286
 31
0.0
  0
ARC
  5
144
  8
0
  6
SLD-SOLID
 62
     7
 10
304.2939661451
 20
496.4181582512
 30
0.0
 40
3.0
 50
0.0
 51
180.0
  0
LINE
  5
145
  8
0
  6
SLD-SOLID
 62
     7
 10
321.7939636515
 20
496.4181607286
 30
0.0
 11
321.7939636515
 21
452.418160967
 31
0.0
  0
LINE
  5
146
  8
0
  6
SLD-SOLID
 62
     7
 10
214.2939655886
 20
452.418160967
 30
0.0
 11
214.2939655886
 21
496.4181607286
 31
0.0
  0
ARC
  5
147
  8
0
  6
SLD-SOLID
 62
     7
 10
217.2939661451
 20
496.4181582512
 30
0.0
 40
3.000000000000028
 50
0.0
 51
180.0
  0
ARC
  5
148
  8
0
  6
SLD-SOLID
 62
     7
 10
318.7939661451
 20
496.4181582512
 30
0.0
 40
3.0
 50
0.0
 51
180.0
  0
LINE
  5
149
  8
0
  6
SLD-SOLID
 62
     7
 10
336.2939632343
 20
496.4181607286
 30
0.0
 11
336.2939632343
 21
452.418160967
 31
0.0
  0
ARC
  5
14A
  8
0
  6
SLD-SOLID
 62
     7
 10
333.2939661451
 20
452.4181582512
 30
0.0
 40
3.000000000000057
 50
180.0
 51
0.0
  0
LINE
  5
14B
  8
0
  6
SLD-SOLID
 62
     7
 10
185.2939664231
 20
452.418160967
 30
0.0
 11
185.2939664231
 21
496.4181607286
 31
0.0
  0
ARC
  5
14C
  8
0
  6
SLD-SOLID
 62
     7
 10
188.2939661451
 20
496.4181582512
 30
0.0
 40
3.000000000000028
 50
0.0
 51
180.0
  0
LINE
  5
14D
  8
0
  6
SLD-SOLID
 62
     7
 10
350.793962817
 20
496.4181607286
 30
0.0
 11
350.793962817
 21
452.418160967
 31
0.0
  0
ARC
  5
14E
  8
0
  6
SLD-SOLID
 62
     7
 10
347.7939661451
 20
452.4181582512
 30
0.0
 40
3.0
 50
180.0
 51
0.0
  0
LINE
  5
14F
  8
0
  6
SLD-SOLID
 62
     7
 10
344.7939655588
 20
452.418160967
 30
0.0
 11
344.7939655588
 21
496.4181607286
 31
0.0
  0
ARC
  5
150
  8
0
  6
SLD-SOLID
 62
     7
 10
347.7939661451
 20
496.4181582512
 30
0.0
 40
3.0
 50
0.0
 51
180.0
  0
LINE
  5
151
  8
0
  6
SLD-SOLID
 62
     7
 10
365.2939623998
 20
496.4181607286
 30
0.0
 11
365.2939623998
 21
452.418160967
 31
0.0
  0
ARC
  5
152
  8
0
  6
SLD-SOLID
 62
     7
 10
362.2939661451
 20
452.4181582512
 30
0.0
 40
3.0
 50
180.0
 51
0.0
  0
LINE
  5
153
  8
0
  6
SLD-SOLID
 62
     7
 10
359.2939651416
 20
452.418160967
 30
0.0
 11
359.2939651416
 21
496.4181607286
 31
0.0
  0
ARC
  5
154
  8
0
  6
SLD-SOLID
 62
     7
 10
362.2939661451
 20
496.4181582512
 30
0.0
 40
3.000000000000057
 50
0.0
 51
180.0
  0
LINE
  5
155
  8
0
  6
SLD-SOLID
 62
     7
 10
379.7939694331
 20
496.4181607286
 30
0.0
 11
379.7939694331
 21
452.418160967
 31
0.0
  0
ARC
  5
156
  8
0
  6
SLD-SOLID
 62
     7
 10
376.7939661451
 20
452.4181582512
 30
0.0
 40
3.0
 50
180.0
 51
0.0
  0
LINE
  5
157
  8
0
  6
SLD-SOLID
 62
     7
 10
373.793972175
 20
452.418160967
 30
0.0
 11
373.793972175
 21
496.4181607286
 31
0.0
  0
ARC
  5
158
  8
0
  6
SLD-SOLID
 62
     7
 10
376.7939661451
 20
496.4181582512
 30
0.0
 40
3.0
 50
0.0
 51
180.0
  0
LINE
  5
159
  8
0
  6
SLD-SOLID
 62
     7
 10
388.2939643071
 20
452.418160967
 30
0.0
 11
388.2939643071
 21
492.4181526224
 31
0.0
  0
ARC
  5
15A
  8
0
  6
SLD-SOLID
 62
     7
 10
391.2939661451
 20
496.4181582512
 30
0.0
 40
5.0
 50
306.8698976458
 51
233.1301023542
  0
LINE
  5
15B
  8
0
  6
SLD-SOLID
 62
     7
 10
394.2939615653
 20
492.4181526224
 30
0.0
 11
394.2939615653
 21
452.418160967
 31
0.0
  0
ARC
  5
15C
  8
0
  6
SLD-SOLID
 62
     7
 10
391.2939661451
 20
452.4181582512
 30
0.0
 40
3.0
 50
180.0
 51
0.0
  0
LINE
  5
15D
  8
0
  6
SLD-SOLID
 62
     7
 10
162.293968241
 20
492.4181526224
 30
0.0
 11
162.293968241
 21
452.418160967
 31
0.0
  0
ARC
  5
15E
  8
0
  6
SLD-SOLID
 62
     7
 10
159.2939661451
 20
452.4181582512
 30
0.0
 40
3.000000000000028
 50
180.0
 51
0.0
  0
LINE
  5
15F
  8
0
  6
SLD-SOLID
 62
     7
 10
156.2939635323
 20
452.418160967
 30
0.0
 11
156.2939635323
 21
492.4181526224
 31
0.0
  0
LINE
  5
160
  8
0
  6
SLD-SOLID
 62
     7
 10
234.7939661549
 20
496.4181607286
 30
0.0
 11
234.7939661549
 21
452.418160967
 31
0.0
  0
ARC
  5
161
  8
0
  6
SLD-SOLID
 62
     7
 10
231.7939661451
 20
452.4181582512
 30
0.0
 40
3.0
 50
180.0
 51
0.0
  0
LINE
  5
162
  8
0
  6
SLD-SOLID
 62
     7
 10
228.7939661027
 20
452.418160967
 30
0.0
 11
228.7939661027
 21
496.4181607286
 31
0.0
  0
ARC
  5
163
  8
0
  6
SLD-SOLID
 62
     7
 10
231.7939661451
 20
496.4181582512
 30
0.0
 40
3.000000000000028
 50
0.0
 51
180.0
  0
LINE
  5
164
  8
0
  6
SLD-SOLID
 62
     7
 10
249.2939657377
 20
496.4181607286
 30
0.0
 11
249.2939657377
 21
452.418160967
 31
0.0
  0
ARC
  5
165
  8
0
  6
SLD-SOLID
 62
     7
 10
246.2939661451
 20
452.4181582512
 30
0.0
 40
3.000000000000028
 50
180.0
 51
0.0
  0
LINE
  5
166
  8
0
  6
SLD-SOLID
 62
     7
 10
243.2939656855
 20
452.418160967
 30
0.0
 11
243.2939656855
 21
496.4181607286
 31
0.0
  0
ARC
  5
167
  8
0
  6
SLD-SOLID
 62
     7
 10
246.2939661451
 20
496.4181582512
 30
0.0
 40
3.000000000000057
 50
0.0
 51
180.0
  0
LINE
  5
168
  8
0
  6
SLD-SOLID
 62
     7
 10
263.7939653204
 20
496.4181607286
 30
0.0
 11
263.7939653204
 21
452.418160967
 31
0.0
  0
ARC
  5
169
  8
0
  6
SLD-SOLID
 62
     7
 10
260.7939661451
 20
452.4181582512
 30
0.0
 40
3.0
 50
180.0
 51
0.0
  0
LINE
  5
16A
  8
0
  6
SLD-SOLID
 62
     7
 10
257.7939661996
 20
452.418160967
 30
0.0
 11
257.7939661996
 21
496.4181607286
 31
0.0
  0
ARC
  5
16B
  8
0
  6
SLD-SOLID
 62
     7
 10
260.7939661451
 20
496.4181582512
 30
0.0
 40
3.000000000000057
 50
0.0
 51
180.0
  0
LINE
  5
16C
  8
0
  6
SLD-SOLID
 62
     7
 10
278.2939649032
 20
496.4181607286
 30
0.0
 11
278.2939649032
 21
452.418160967
 31
0.0
  0
ARC
  5
16D
  8
0
  6
SLD-SOLID
 62
     7
 10
275.2939661451
 20
452.4181582512
 30
0.0
 40
3.0
 50
180.0
 51
0.0
  0
LINE
  5
16E
  8
0
  6
SLD-SOLID
 62
     7
 10
272.293967645
 20
452.418160967
 30
0.0
 11
272.293967645
 21
496.4181607286
 31
0.0
  0
ARC
  5
16F
  8
0
  6
SLD-SOLID
 62
     7
 10
275.2939661451
 20
496.4181582512
 30
0.0
 40
3.0
 50
0.0
 51
180.0
  0
LINE
  5
170
  8
0
  6
SLD-SOLID
 62
     7
 10
292.793964486
 20
496.4181607286
 30
0.0
 11
292.793964486
 21
452.418160967
 31
0.0
  0
ARC
  5
171
  8
0
  6
SLD-SOLID
 62
     7
 10
289.7939661451
 20
452.4181582512
 30
0.0
 40
3.0
 50
180.0
 51
0.0
  0
LINE
  5
172
  8
0
  6
SLD-SOLID
 62
     7
 10
286.7939672278
 20
452.418160967
 30
0.0
 11
286.7939672278
 21
496.4181607286
 31
0.0
  0
ARC
  5
173
  8
0
  6
SLD-SOLID
 62
     7
 10
289.7939661451
 20
496.4181582512
 30
0.0
 40
3.000000000000057
 50
0.0
 51
180.0
  0
LINE
  5
174
  8
0
  6
SLD-SOLID
 62
     7
 10
307.2939640687
 20
496.4181607286
 30
0.0
 11
307.2939640687
 21
452.418160967
 31
0.0
  0
ARC
  5
175
  8
0
  6
SLD-SOLID
 62
     7
 10
304.2939661451
 20
452.4181582512
 30
0.0
 40
3.0
 50
180.0
 51
0.0
  0
ARC
  5
176
  8
0
  6
SLD-SOLID
 62
     7
 10
318.7939661451
 20
452.4181582512
 30
0.0
 40
3.000000000000057
 50
180.0
 51
0.0
  0
LINE
  5
177
  8
0
  6
SLD-SOLID
 62
     7
 10
315.7939663933
 20
452.418160967
 30
0.0
 11
315.7939663933
 21
496.4181607286
 31
0.0
  0
LINE
  5
178
  8
0
  6
SLD-SOLID
 62
     7
 10
330.2939659761
 20
452.418160967
 30
0.0
 11
330.2939659761
 21
496.4181607286
 31
0.0
  0
ARC
  5
179
  8
0
  6
SLD-SOLID
 62
     7
 10
333.2939661451
 20
496.4181582512
 30
0.0
 40
3.0
 50
0.0
 51
180.0
  0
LINE
  5
17A
  8
0
  6
SLD-SOLID
 62
     7
 10
147.7939686583
 20
496.4181607286
 30
0.0
 11
147.7939686583
 21
452.418160967
 31
0.0
  0
ARC
  5
17B
  8
0
  6
SLD-SOLID
 62
     7
 10
144.7939661451
 20
452.4181582512
 30
0.0
 40
3.0
 50
180.0
 51
0.0
  0
LINE
  5
17C
  8
0
  6
SLD-SOLID
 62
     7
 10
162.4439633296
 20
493.2181661646
 30
0.0
 11
156.1439684437
 21
493.2181661646
 31
0.0
  0
LINE
  5
17D
  8
0
  6
SLD-SOLID
 62
     7
 10
162.4439633296
 20
499.6181552927
 30
0.0
 11
163.2116040991
 21
499.524725012
 31
0.0
  0
LINE
  5
17E
  8
0
  6
SLD-SOLID
 62
     7
 10
163.2120436834
 20
493.3117156545
 30
0.0
 11
162.4439633296
 21
493.2181661646
 31
0.0
  0
LINE
  5
17F
  8
0
  6
SLD-SOLID
 62
     7
 10
156.1439684437
 20
499.6181552927
 30
0.0
 11
162.4439633296
 21
499.6181552927
 31
0.0
  0
LINE
  5
180
  8
0
  6
SLD-SOLID
 62
     7
 10
156.1439684437
 20
493.2181661646
 30
0.0
 11
155.37588809
 21
493.3117156545
 31
0.0
  0
LINE
  5
181
  8
0
  6
SLD-SOLID
 62
     7
 10
155.3763276742
 20
499.524725012
 30
0.0
 11
156.1439684437
 21
499.6181552927
 31
0.0
  0
LINE
  5
182
  8
0
  6
SLD-SOLID
 62
     7
 10
394.4439715551
 20
493.2181661646
 30
0.0
 11
388.1439692186
 21
493.2181661646
 31
0.0
  0
LINE
  5
183
  8
0
  6
SLD-SOLID
 62
     7
 10
394.4439715551
 20
499.6181552927
 30
0.0
 11
395.211604874
 21
499.524725012
 31
0.0
  0
LINE
  5
184
  8
0
  6
SLD-SOLID
 62
     7
 10
395.2120519088
 20
493.3117156545
 30
0.0
 11
394.4439715551
 21
493.2181661646
 31
0.0
  0
LINE
  5
185
  8
0
  6
SLD-SOLID
 62
     7
 10
388.1439692186
 20
499.6181552927
 30
0.0
 11
394.4439715551
 21
499.6181552927
 31
0.0
  0
LINE
  5
186
  8
0
  6
SLD-SOLID
 62
     7
 10
388.1439692186
 20
493.2181661646
 30
0.0
 11
387.3758888648
 21
493.3117156545
 31
0.0
  0
LINE
  5
187
  8
0
  6
SLD-SOLID
 62
     7
 10
387.3763358997
 20
499.524725012
 30
0.0
 11
388.1439692186
 21
499.6181552927
 31
0.0
  0
LINE
  5
188
  8
0
  6
SLD-SOLID
 62
     7
 10
141.7939639495
 20
488.6181479017
 30
0.0
 11
147.7939686583
 21
488.6181479017
 31
0.0
  0
LINE
  5
189
  8
0
  6
SLD-SOLID
 62
     7
 10
156.2939635323
 20
488.6181479017
 30
0.0
 11
162.293968241
 21
488.6181479017
 31
0.0
  0
LINE
  5
18A
  8
0
  6
SLD-SOLID
 62
     7
 10
170.7939668403
 20
488.6181479017
 30
0.0
 11
176.7939678238
 21
488.6181479017
 31
0.0
  0
LINE
  5
18B
  8
0
  6
SLD-SOLID
 62
     7
 10
185.2939664231
 20
488.6181479017
 30
0.0
 11
191.2939674066
 21
488.6181479017
 31
0.0
  0
LINE
  5
18C
  8
0
  6
SLD-SOLID
 62
     7
 10
199.7939660059
 20
488.6181479017
 30
0.0
 11
205.7939669893
 21
488.6181479017
 31
0.0
  0
LINE
  5
18D
  8
0
  6
SLD-SOLID
 62
     7
 10
214.2939655886
 20
488.6181479017
 30
0.0
 11
220.2939665721
 21
488.6181479017
 31
0.0
  0
LINE
  5
18E
  8
0
  6
SLD-SOLID
 62
     7
 10
228.7939661027
 20
488.6181479017
 30
0.0
 11
234.7939661549
 21
488.6181479017
 31
0.0
  0
LINE
  5
18F
  8
0
  6
SLD-SOLID
 62
     7
 10
243.2939656855
 20
488.6181479017
 30
0.0
 11
249.2939657377
 21
488.6181479017
 31
0.0
  0
LINE
  5
190
  8
0
  6
SLD-SOLID
 62
     7
 10
257.7939661996
 20
488.6181479017
 30
0.0
 11
263.7939653204
 21
488.6181479017
 31
0.0
  0
LINE
  5
191
  8
0
  6
SLD-SOLID
 62
     7
 10
272.293967645
 20
488.6181479017
 30
0.0
 11
278.2939649032
 21
488.6181479017
 31
0.0
  0
LINE
  5
192
  8
0
  6
SLD-SOLID
 62
     7
 10
286.7939672278
 20
488.6181479017
 30
0.0
 11
292.793964486
 21
488.6181479017
 31
0.0
  0
LINE
  5
193
  8
0
  6
SLD-SOLID
 62
     7
 10
301.2939668105
 20
488.6181479017
 30
0.0
 11
307.2939640687
 21
488.6181479017
 31
0.0
  0
LINE
  5
194
  8
0
  6
SLD-SOLID
 62
     7
 10
315.7939663933
 20
488.6181479017
 30
0.0
 11
321.7939636515
 21
488.6181479017
 31
0.0
  0
LINE
  5
195
  8
0
  6
SLD-SOLID
 62
     7
 10
330.2939659761
 20
488.6181479017
 30
0.0
 11
336.2939632343
 21
488.6181479017
 31
0.0
  0
LINE
  5
196
  8
0
  6
SLD-SOLID
 62
     7
 10
344.7939655588
 20
488.6181479017
 30
0.0
 11
350.793962817
 21
488.6181479017
 31
0.0
  0
LINE
  5
197
  8
0
  6
SLD-SOLID
 62
     7
 10
359.2939651416
 20
488.6181479017
 30
0.0
 11
365.2939623998
 21
488.6181479017
 31
0.0
  0
LINE
  5
198
  8
0
  6
SLD-SOLID
 62
     7
 10
373.793972175
 20
488.6181479017
 30
0.0
 11
379.7939694331
 21
488.6181479017
 31
0.0
  0
LINE
  5
199
  8
0
  6
SLD-SOLID
 62
     7
 10
388.2939643071
 20
488.6181479017
 30
0.0
 11
394.2939615653
 21
488.6181479017
 31
0.0
  0
LINE
  5
19A
  8
0
  6
SLD-SOLID
 62
     7
 10
261.0939661817
 20
179.4181581284
 30
0.0
 11
253.093966733
 21
179.4181581284
 31
0.0
  0
LINE
  5
19B
  8
0
  6
SLD-SOLID
 62
     7
 10
305.5939650939
 20
179.4181581284
 30
0.0
 11
297.5939637826
 21
179.4181581284
 31
0.0
  0
LINE
  5
19C
  8
0
  6
SLD-SOLID
 62
     7
 10
125.6646788524
 20
179.9181582103
 30
0.0
 11
125.6646788524
 21
181.4181584562
 31
0.0
  0
LINE
  5
19D
  8
0
  6
SLD-SOLID
 62
     7
 10
130.664674084
 20
181.4181584562
 30
0.0
 11
125.6646788524
 21
181.4181584562
 31
0.0
  0
LINE
  5
19E
  8
0
  6
SLD-SOLID
 62
     7
 10
130.664674084
 20
179.9181582103
 30
0.0
 11
125.6646788524
 21
179.9181582103
 31
0.0
  0
LINE
  5
19F
  8
0
  6
SLD-SOLID
 62
     7
 10
187.5939643787
 20
181.4181584562
 30
0.0
 11
130.664674084
 21
181.4181584562
 31
0.0
  0
LINE
  5
1A0
  8
0
  6
SLD-SOLID
 62
     7
 10
187.5939643787
 20
179.9181582103
 30
0.0
 11
130.664674084
 21
179.9181582103
 31
0.0
  0
LINE
  5
1A1
  8
0
  6
SLD-SOLID
 62
     7
 10
192.5939670609
 20
179.9181582103
 30
0.0
 11
192.5939670609
 21
181.4181584562
 31
0.0
  0
LINE
  5
1A2
  8
0
  6
SLD-SOLID
 62
     7
 10
192.5939670609
 20
181.4181584562
 30
0.0
 11
187.5939643787
 21
181.4181584562
 31
0.0
  0
LINE
  5
1A3
  8
0
  6
SLD-SOLID
 62
     7
 10
192.5939670609
 20
179.9181582103
 30
0.0
 11
187.5939643787
 21
179.9181582103
 31
0.0
  0
LINE
  5
1A4
  8
0
  6
SLD-SOLID
 62
     7
 10
337.5939628885
 20
179.9181582103
 30
0.0
 11
337.5939628885
 21
181.4181584562
 31
0.0
  0
LINE
  5
1A5
  8
0
  6
SLD-SOLID
 62
     7
 10
342.5939655708
 20
181.4181584562
 30
0.0
 11
337.5939628885
 21
181.4181584562
 31
0.0
  0
LINE
  5
1A6
  8
0
  6
SLD-SOLID
 62
     7
 10
342.5939655708
 20
179.9181582103
 30
0.0
 11
337.5939628885
 21
179.9181582103
 31
0.0
  0
LINE
  5
1A7
  8
0
  6
SLD-SOLID
 62
     7
 10
406.5232551501
 20
181.4181584562
 30
0.0
 11
342.5939655708
 21
181.4181584562
 31
0.0
  0
LINE
  5
1A8
  8
0
  6
SLD-SOLID
 62
     7
 10
406.5232551501
 20
179.9181582103
 30
0.0
 11
342.5939655708
 21
179.9181582103
 31
0.0
  0
LINE
  5
1A9
  8
0
  6
SLD-SOLID
 62
     7
 10
411.5232503818
 20
179.9181582103
 30
0.0
 11
411.5232503818
 21
181.4181584562
 31
0.0
  0
LINE
  5
1AA
  8
0
  6
SLD-SOLID
 62
     7
 10
411.5232503818
 20
181.4181584562
 30
0.0
 11
406.5232551501
 21
181.4181584562
 31
0.0
  0
LINE
  5
1AB
  8
0
  6
SLD-SOLID
 62
     7
 10
411.5232503818
 20
179.9181582103
 30
0.0
 11
406.5232551501
 21
179.9181582103
 31
0.0
  0
LINE
  5
1AC
  8
0
  6
SLD-SOLID
 62
     7
 10
197.5939660178
 20
181.4181584562
 30
0.0
 11
192.5939670609
 21
181.4181584562
 31
0.0
  0
LINE
  5
1AD
  8
0
  6
SLD-SOLID
 62
     7
 10
197.5939660178
 20
179.9181582103
 30
0.0
 11
192.5939670609
 21
179.9181582103
 31
0.0
  0
LINE
  5
1AE
  8
0
  6
SLD-SOLID
 62
     7
 10
337.5939628885
 20
181.4181584562
 30
0.0
 11
332.5939676569
 21
181.4181584562
 31
0.0
  0
LINE
  5
1AF
  8
0
  6
SLD-SOLID
 62
     7
 10
337.5939628885
 20
179.9181582103
 30
0.0
 11
332.5939676569
 21
179.9181582103
 31
0.0
  0
LINE
  5
1B0
  8
0
  6
SLD-SOLID
 62
     7
 10
332.5939676569
 20
181.4181584562
 30
0.0
 11
197.5939660178
 21
181.4181584562
 31
0.0
  0
LINE
  5
1B1
  8
0
  6
SLD-SOLID
 62
     7
 10
332.5939676569
 20
179.9181582103
 30
0.0
 11
197.5939660178
 21
179.9181582103
 31
0.0
  0
LINE
  5
1B2
  8
0
  6
SLD-SOLID
 62
     7
 10
125.6646788524
 20
181.9179331581
 30
0.0
 11
125.6646788524
 21
181.4181584562
 31
0.0
  0
LINE
  5
1B3
  8
0
  6
SLD-SOLID
 62
     7
 10
411.5232503818
 20
181.4181584562
 30
0.0
 11
411.5232503818
 21
181.9179331581
 31
0.0
  0
LINE
  5
1B4
  8
0
  6
SLD-SOLID
 62
     7
 10
125.6646788524
 20
183.7215529452
 30
0.0
 11
125.6646788524
 21
183.4017484146
 31
0.0
  0
LINE
  5
1B5
  8
0
  6
SLD-SOLID
 62
     7
 10
124.0939698027
 20
182.7252291771
 30
0.0
 11
124.0939698027
 21
182.6681581954
 31
0.0
  0
LINE
  5
1B6
  8
0
  6
SLD-SOLID
 62
     7
 10
125.5939653919
 20
183.6755786719
 30
0.0
 11
125.5939653919
 21
183.308425236
 31
0.0
  0
ARC
  5
1B7
  8
0
  6
SLD-SOLID
 62
     7
 10
126.8439661451
 20
182.6681582512
 30
0.0
 40
2.750000000000031
 50
180.0
 51
244.6065107706
  0
ARC
  5
1B8
  8
0
  6
SLD-SOLID
 62
     7
 10
410.3439661451
 20
182.6681582512
 30
0.0
 40
2.750000000000137
 50
295.3934892294
 51
344.1685018531
  0
LINE
  5
1B9
  8
0
  6
SLD-SOLID
 62
     7
 10
394.2939615653
 20
472.4263971368
 30
0.0
 11
394.1090381549
 21
472.4447255651
 31
0.0
  0
LINE
  5
1BA
  8
0
  6
SLD-SOLID
 62
     7
 10
394.2939615653
 20
461.6236513178
 30
0.0
 11
388.2939643071
 21
462.2187738935
 31
0.0
  0
LINE
  5
1BB
  8
0
  6
SLD-SOLID
 62
     7
 10
379.7939694331
 20
463.0618815939
 30
0.0
 11
373.793972175
 21
463.6570041696
 31
0.0
  0
LINE
  5
1BC
  8
0
  6
SLD-SOLID
 62
     7
 10
365.2939623998
 20
464.50011187
 30
0.0
 11
359.2939651416
 21
465.0952344457
 31
0.0
  0
LINE
  5
1BD
  8
0
  6
SLD-SOLID
 62
     7
 10
350.793962817
 20
465.9383123438
 30
0.0
 11
344.7939655588
 21
466.5334647218
 31
0.0
  0
LINE
  5
1BE
  8
0
  6
SLD-SOLID
 62
     7
 10
336.2939632343
 20
467.3765426199
 30
0.0
 11
330.2939659761
 21
467.9716651956
 31
0.0
  0
LINE
  5
1BF
  8
0
  6
SLD-SOLID
 62
     7
 10
321.7939636515
 20
468.814772896
 30
0.0
 11
315.7939663933
 21
469.4098954717
 31
0.0
  0
LINE
  5
1C0
  8
0
  6
SLD-SOLID
 62
     7
 10
307.2939640687
 20
470.2530031721
 30
0.0
 11
301.2939668105
 21
470.8481257478
 31
0.0
  0
LINE
  5
1C1
  8
0
  6
SLD-SOLID
 62
     7
 10
292.793964486
 20
471.6912334482
 30
0.0
 11
286.7939672278
 21
472.2863560239
 31
0.0
  0
LINE
  5
1C2
  8
0
  6
SLD-SOLID
 62
     7
 10
286.7939672278
 20
485.1491575758
 30
0.0
 11
292.793964486
 21
484.554035
 31
0.0
  0
LINE
  5
1C3
  8
0
  6
SLD-SOLID
 62
     7
 10
301.2939668105
 20
483.7109272997
 30
0.0
 11
307.2939640687
 21
483.1158047239
 31
0.0
  0
LINE
  5
1C4
  8
0
  6
SLD-SOLID
 62
     7
 10
315.7939663933
 20
482.2727268259
 30
0.0
 11
321.7939636515
 21
481.6775744478
 31
0.0
  0
LINE
  5
1C5
  8
0
  6
SLD-SOLID
 62
     7
 10
330.2939659761
 20
480.8344965498
 30
0.0
 11
336.2939632343
 21
480.239373974
 31
0.0
  0
LINE
  5
1C6
  8
0
  6
SLD-SOLID
 62
     7
 10
344.7939655588
 20
479.3962662737
 30
0.0
 11
350.793962817
 21
478.8011436979
 31
0.0
  0
LINE
  5
1C7
  8
0
  6
SLD-SOLID
 62
     7
 10
359.2939651416
 20
477.9580359975
 30
0.0
 11
365.2939623998
 21
477.3629134218
 31
0.0
  0
LINE
  5
1C8
  8
0
  6
SLD-SOLID
 62
     7
 10
373.793972175
 20
476.5198057214
 30
0.0
 11
379.7939694331
 21
475.9246831457
 31
0.0
  0
LINE
  5
1C9
  8
0
  6
SLD-SOLID
 62
     7
 10
388.2939643071
 20
475.0815754453
 30
0.0
 11
394.2939615653
 21
474.4864528696
 31
0.0
  0
POLYLINE
  5
1CA
  8
0
  6
SLD-SOLID
 62
     7
 66
     1
 10
0.0
 20
0.0
 30
0.0
  0
VERTEX
  5
35B
  8
0
  6
SLD-SOLID
 62
     7
 10
394.2939615653
 20
474.3091290514
 30
0.0
  0
VERTEX
  5
35C
  8
0
  6
SLD-SOLID
 62
     7
 10
394.2772871659
 20
474.1409247438
 30
0.0
  0
VERTEX
  5
35D
  8
0
  6
SLD-SOLID
 62
     7
 10
394.2521191047
 20
473.8872175733
 30
0.0
  0
VERTEX
  5
35E
  8
0
  6
SLD-SOLID
 62
     7
 10
394.221452515
 20
473.5781078855
 30
0.0
  0
VERTEX
  5
35F
  8
0
  6
SLD-SOLID
 62
     7
 10
394.1864794896
 20
473.2253974001
 30
0.0
  0
VERTEX
  5
360
  8
0
  6
SLD-SOLID
 62
     7
 10
394.1485113309
 20
472.8427355806
 30
0.0
  0
VERTEX
  5
361
  8
0
  6
SLD-SOLID
 62
     7
 10
394.1090381549
 20
472.4447255651
 30
0.0
  0
SEQEND
  5
362
  8
0
  6
SLD-SOLID
 62
     7
  0
LINE
  5
1CB
  8
0
  6
SLD-SOLID
 62
     7
 10
162.293968241
 20
470.6957762758
 30
0.0
 11
156.2939635323
 21
470.0296049635
 31
0.0
  0
ARC
  5
1CC
  8
0
  6
SLD-SOLID
 62
     7
 10
274.0727132892
 20
477.320973837
 30
0.0
 40
4.999999999999986
 50
276.3354741025
 51
327.5917294693
  0
LINE
  5
1CD
  8
0
  6
SLD-SOLID
 62
     7
 10
274.6244608269
 20
472.3515039007
 30
0.0
 11
272.293967645
 21
472.0927601377
 31
0.0
  0
LINE
  5
1CE
  8
0
  6
SLD-SOLID
 62
     7
 10
263.7939653204
 20
471.1490099947
 30
0.0
 11
257.7939661996
 21
470.4828684847
 31
0.0
  0
LINE
  5
1CF
  8
0
  6
SLD-SOLID
 62
     7
 10
249.2939657377
 20
469.5391183416
 30
0.0
 11
243.2939656855
 21
468.8729470293
 31
0.0
  0
LINE
  5
1D0
  8
0
  6
SLD-SOLID
 62
     7
 10
234.7939661549
 20
467.9292266885
 30
0.0
 11
228.7939661027
 21
467.2630553762
 31
0.0
  0
LINE
  5
1D1
  8
0
  6
SLD-SOLID
 62
     7
 10
220.2939665721
 20
466.3193052332
 30
0.0
 11
214.2939655886
 21
465.6531637231
 31
0.0
  0
LINE
  5
1D2
  8
0
  6
SLD-SOLID
 62
     7
 10
205.7939669893
 20
464.7094135801
 30
0.0
 11
199.7939660059
 21
464.0432422678
 31
0.0
  0
LINE
  5
1D3
  8
0
  6
SLD-SOLID
 62
     7
 10
191.2939674066
 20
463.099521927
 30
0.0
 11
185.2939664231
 21
462.4333506147
 31
0.0
  0
LINE
  5
1D4
  8
0
  6
SLD-SOLID
 62
     7
 10
176.7939678238
 20
461.4896004717
 30
0.0
 11
170.7939668403
 21
460.8234291593
 31
0.0
  0
LINE
  5
1D5
  8
0
  6
SLD-SOLID
 62
     7
 10
162.293968241
 20
459.8797088186
 30
0.0
 11
156.2939635323
 21
459.2135375063
 31
0.0
  0
LINE
  5
1D6
  8
0
  6
SLD-SOLID
 62
     7
 10
170.7939668403
 20
473.7020855466
 30
0.0
 11
176.7939678238
 21
474.368256859
 31
0.0
  0
LINE
  5
1D7
  8
0
  6
SLD-SOLID
 62
     7
 10
185.2939664231
 20
475.312007002
 30
0.0
 11
191.2939674066
 21
475.9781783144
 31
0.0
  0
LINE
  5
1D8
  8
0
  6
SLD-SOLID
 62
     7
 10
199.7939660059
 20
476.9218986551
 30
0.0
 11
205.7939669893
 21
477.5880699674
 31
0.0
  0
LINE
  5
1D9
  8
0
  6
SLD-SOLID
 62
     7
 10
214.2939655886
 20
478.5317903082
 30
0.0
 11
220.2939665721
 21
479.1979616205
 31
0.0
  0
LINE
  5
1DA
  8
0
  6
SLD-SOLID
 62
     7
 10
228.7939661027
 20
480.1417117635
 30
0.0
 11
234.7939661549
 21
480.8078830759
 31
0.0
  0
LINE
  5
1DB
  8
0
  6
SLD-SOLID
 62
     7
 10
243.2939656855
 20
481.7516034166
 30
0.0
 11
249.2939657377
 21
482.4177747289
 31
0.0
  0
LINE
  5
1DC
  8
0
  6
SLD-SOLID
 62
     7
 10
257.7939661996
 20
483.3614950697
 30
0.0
 11
263.7939653204
 21
484.027666382
 31
0.0
  0
LINE
  5
1DD
  8
0
  6
SLD-SOLID
 62
     7
 10
272.293967645
 20
484.971416525
 30
0.0
 11
278.2939649032
 21
485.6375878374
 31
0.0
  0
LINE
  5
1DE
  8
0
  6
SLD-SOLID
 62
     7
 10
394.2939615653
 20
473.6809855024
 30
0.0
 11
394.2324197696
 21
473.6886446993
 31
0.0
  0
ARC
  5
1DF
  8
0
  6
SLD-SOLID
 62
     7
 10
294.543332149
 20
485.6366570757
 30
0.0
 40
2.050000000000058
 50
183.8454300304
 51
211.4221550551
  0
LINE
  5
1E0
  8
0
  6
SLD-SOLID
 62
     7
 10
292.4933670865
 20
485.6246536295
 30
0.0
 11
292.4891500579
 21
486.3449757616
 31
0.0
  0
LINE
  5
1E1
  8
0
  6
SLD-SOLID
 62
     7
 10
292.4979491935
 20
485.4991858522
 30
0.0
 11
292.4933670865
 21
485.6246536295
 31
0.0
  0
CIRCLE
  5
1E2
  8
0
  6
SLD-SOLID
 62
     7
 10
391.2939661451
 20
496.4179330014
 30
0.0
 40
2.549999999999955
  0
ARC
  5
1E3
  8
0
  6
SLD-SOLID
 62
     7
 10
391.2939661451
 20
496.4179330014
 30
0.0
 40
3.499999999999971
 50
180.0
 51
246.1044918139
  0
ARC
  5
1E4
  8
0
  6
SLD-SOLID
 62
     7
 10
391.2939661451
 20
496.4179330014
 30
0.0
 40
3.500000000000043
 50
293.8955081861
 51
66.1044918138
  0
ARC
  5
1E5
  8
0
  6
SLD-SOLID
 62
     7
 10
391.2939661451
 20
496.4179330014
 30
0.0
 40
3.499999999999997
 50
113.8955081862
 51
180.0
  0
CIRCLE
  5
1E6
  8
0
  6
SLD-SOLID
 62
     7
 10
391.2939661451
 20
496.4179330014
 30
0.0
 40
2.124999999999943
  0
CIRCLE
  5
1E7
  8
0
  6
SLD-SOLID
 62
     7
 10
391.2939661451
 20
496.4179330014
 30
0.0
 40
1.649999999999977
  0
CIRCLE
  5
1E8
  8
0
  6
SLD-SOLID
 62
     7
 10
159.2939661451
 20
496.4179330014
 30
0.0
 40
2.550000000000011
  0
ARC
  5
1E9
  8
0
  6
SLD-SOLID
 62
     7
 10
159.2939661451
 20
496.4179330014
 30
0.0
 40
3.5
 50
180.0
 51
246.1044918139
  0
ARC
  5
1EA
  8
0
  6
SLD-SOLID
 62
     7
 10
159.2939661451
 20
496.4179330014
 30
0.0
 40
3.50000000000002
 50
293.8955081861
 51
66.1044918138
  0
ARC
  5
1EB
  8
0
  6
SLD-SOLID
 62
     7
 10
159.2939661451
 20
496.4179330014
 30
0.0
 40
3.500000000000032
 50
113.8955081862
 51
180.0
  0
CIRCLE
  5
1EC
  8
0
  6
SLD-SOLID
 62
     7
 10
159.2939661451
 20
496.4179330014
 30
0.0
 40
2.125
  0
CIRCLE
  5
1ED
  8
0
  6
SLD-SOLID
 62
     7
 10
159.2939661451
 20
496.4179330014
 30
0.0
 40
1.650000000000006
  0
LINE
  5
1EE
  8
0
  6
SLD-SOLID
 62
     7
 10
314.319019656
 20
527.0943766157
 30
0.0
 11
314.3276995824
 21
527.0451431791
 31
0.0
  0
LINE
  5
1EF
  8
0
  6
SLD-SOLID
 62
     7
 10
314.3276995824
 20
527.0451431791
 30
0.0
 11
315.399666767
 21
527.4877076666
 31
0.0
  0
LINE
  5
1F0
  8
0
  6
SLD-SOLID
 62
     7
 10
315.399666767
 20
527.4877076666
 30
0.0
 11
323.6090517448
 21
504.9325948278
 31
0.0
  0
LINE
  5
1F1
  8
0
  6
SLD-SOLID
 62
     7
 10
323.6090517448
 20
504.9325948278
 30
0.0
 11
322.9807740854
 21
504.4181471388
 31
0.0
  0
LINE
  5
1F2
  8
0
  6
SLD-SOLID
 62
     7
 10
240.4330610142
 20
504.4181471388
 30
0.0
 11
240.4330610142
 21
514.2690663854
 31
0.0
  0
LINE
  5
1F3
  8
0
  6
SLD-SOLID
 62
     7
 10
240.4330610142
 20
514.2690663854
 30
0.0
 11
241.5917436437
 21
514.2198329488
 31
0.0
  0
LINE
  5
1F4
  8
0
  6
SLD-SOLID
 62
     7
 10
241.5917436437
 20
514.2198329488
 30
0.0
 11
241.5830618547
 21
514.2690663854
 31
0.0
  0
LINE
  5
1F5
  8
0
  6
SLD-SOLID
 62
     7
 10
122.8401339458
 20
490.2992373029
 30
0.0
 11
122.8401339458
 21
502.3679261724
 31
0.0
  0
ARC
  5
1F6
  8
0
  6
SLD-SOLID
 62
     7
 10
123.8330613954
 20
490.4179330014
 30
0.0
 40
1.000000000000003
 50
186.8176762516
 51
270.0
  0
LINE
  5
1F7
  8
0
  6
SLD-SOLID
 62
     7
 10
123.8330579208
 20
489.4179230253
 30
0.0
 11
123.9939681099
 21
489.4179230253
 31
0.0
  0
POLYLINE
  5
1F8
  8
0
  6
SLD-SOLID
 62
     7
 66
     1
 10
0.0
 20
0.0
 30
0.0
  0
VERTEX
  5
363
  8
0
  6
SLD-SOLID
 62
     7
 10
314.0368736194
 20
528.694493107
 30
0.0
  0
VERTEX
  5
364
  8
0
  6
SLD-SOLID
 62
     7
 10
314.0634945439
 20
528.5435443441
 30
0.0
  0
VERTEX
  5
365
  8
0
  6
SLD-SOLID
 62
     7
 10
314.0934458779
 20
528.3736413042
 30
0.0
  0
VERTEX
  5
366
  8
0
  6
SLD-SOLID
 62
     7
 10
314.1263550924
 20
528.1870489637
 30
0.0
  0
VERTEX
  5
367
  8
0
  6
SLD-SOLID
 62
     7
 10
314.1617751525
 20
527.9861515085
 30
0.0
  0
VERTEX
  5
368
  8
0
  6
SLD-SOLID
 62
     7
 10
314.1992515729
 20
527.7736013452
 30
0.0
  0
VERTEX
  5
369
  8
0
  6
SLD-SOLID
 62
     7
 10
314.2382926152
 20
527.5521998922
 30
0.0
  0
VERTEX
  5
36A
  8
0
  6
SLD-SOLID
 62
     7
 10
314.27839164
 20
527.3247783701
 30
0.0
  0
VERTEX
  5
36B
  8
0
  6
SLD-SOLID
 62
     7
 10
314.319019656
 20
527.0943766157
 30
0.0
  0
SEQEND
  5
36C
  8
0
  6
SLD-SOLID
 62
     7
  0
LINE
  5
1F9
  8
0
  6
SLD-SOLID
 62
     7
 10
241.227082427
 20
516.2879055063
 30
0.0
 11
313.9630383657
 21
529.1132157365
 31
0.0
  0
POLYLINE
  5
1FA
  8
0
  6
SLD-SOLID
 62
     7
 66
     1
 10
0.0
 20
0.0
 30
0.0
  0
VERTEX
  5
36D
  8
0
  6
SLD-SOLID
 62
     7
 10
241.5830618547
 20
514.2690663854
 30
0.0
  0
VERTEX
  5
36E
  8
0
  6
SLD-SOLID
 62
     7
 10
241.5424329074
 20
514.4994681398
 30
0.0
  0
VERTEX
  5
36F
  8
0
  6
SLD-SOLID
 62
     7
 10
241.5023357452
 20
514.7268896619
 30
0.0
  0
VERTEX
  5
370
  8
0
  6
SLD-SOLID
 62
     7
 10
241.4632937716
 20
514.948291115
 30
0.0
  0
VERTEX
  5
371
  8
0
  6
SLD-SOLID
 62
     7
 10
241.4258164198
 20
515.1608412782
 30
0.0
  0
VERTEX
  5
372
  8
0
  6
SLD-SOLID
 62
     7
 10
241.390394497
 20
515.3617387334
 30
0.0
  0
VERTEX
  5
373
  8
0
  6
SLD-SOLID
 62
     7
 10
241.3574899392
 20
515.5483310739
 30
0.0
  0
VERTEX
  5
374
  8
0
  6
SLD-SOLID
 62
     7
 10
241.3275330172
 20
515.7182341138
 30
0.0
  0
VERTEX
  5
375
  8
0
  6
SLD-SOLID
 62
     7
 10
241.3009167494
 20
515.8691828767
 30
0.0
  0
SEQEND
  5
376
  8
0
  6
SLD-SOLID
 62
     7
  0
POLYLINE
  5
1FB
  8
0
  6
SLD-SOLID
 62
     7
 66
     1
 10
0.0
 20
0.0
 30
0.0
  0
VERTEX
  5
377
  8
0
  6
SLD-SOLID
 62
     7
 10
122.8401339458
 20
502.3679261724
 30
0.0
  0
VERTEX
  5
378
  8
0
  6
SLD-SOLID
 62
     7
 10
123.1263107465
 20
503.093284897
 30
0.0
  0
VERTEX
  5
379
  8
0
  6
SLD-SOLID
 62
     7
 10
123.4125918554
 20
503.7250047247
 30
0.0
  0
VERTEX
  5
37A
  8
0
  6
SLD-SOLID
 62
     7
 10
123.6988729642
 20
504.1810100595
 30
0.0
  0
VERTEX
  5
37B
  8
0
  6
SLD-SOLID
 62
     7
 10
123.9851615236
 20
504.4022625009
 30
0.0
  0
VERTEX
  5
37C
  8
0
  6
SLD-SOLID
 62
     7
 10
124.0830621527
 20
504.4179385225
 30
0.0
  0
SEQEND
  5
37D
  8
0
  6
SLD-SOLID
 62
     7
  0
LINE
  5
1FC
  8
0
  6
SLD-SOLID
 62
     7
 10
124.0830621527
 20
504.4179385225
 30
0.0
 11
124.8010373519
 21
504.4179385225
 31
0.0
  0
POLYLINE
  5
1FD
  8
0
  6
SLD-SOLID
 62
     7
 66
     1
 10
0.0
 20
0.0
 30
0.0
  0
VERTEX
  5
37E
  8
0
  6
SLD-SOLID
 62
     7
 10
424.5492941545
 20
503.6108618299
 30
0.0
  0
VERTEX
  5
37F
  8
0
  6
SLD-SOLID
 62
     7
 10
424.4804656909
 20
503.7250047247
 30
0.0
  0
VERTEX
  5
380
  8
0
  6
SLD-SOLID
 62
     7
 10
424.1868979142
 20
503.9558833162
 30
0.0
  0
SEQEND
  5
381
  8
0
  6
SLD-SOLID
 62
     7
  0
ARC
  5
1FE
  8
0
  6
SLD-SOLID
 62
     7
 10
124.0830634667
 20
502.3679397595
 30
0.0
 40
2.049998762957978
 50
90.000036725
 51
180.000379749
  0
ARC
  5
1FF
  8
0
  6
SLD-SOLID
 62
     7
 10
123.8730623546
 20
502.4518990109
 30
0.0
 40
1.043383619804605
 50
130.5291813853
 51
184.6162296576
  0
LINE
  5
200
  8
0
  6
SLD-SOLID
 62
     7
 10
122.0330647038
 20
502.3679261724
 30
0.0
 11
122.8330633448
 21
502.3679261724
 31
0.0
  0
LINE
  5
201
  8
0
  6
SLD-SOLID
 62
     7
 10
323.7030184673
 20
504.9667780916
 30
0.0
 11
315.4936334894
 21
527.5218909303
 31
0.0
  0
LINE
  5
202
  8
0
  6
SLD-SOLID
 62
     7
 10
323.7030184673
 20
504.9667780916
 30
0.0
 11
324.4547745989
 21
505.2403932134
 31
0.0
  0
LINE
  5
203
  8
0
  6
SLD-SOLID
 62
     7
 10
324.4547745989
 20
505.2403932134
 30
0.0
 11
316.2453896211
 21
527.7955060522
 31
0.0
  0
ARC
  5
204
  8
0
  6
SLD-SOLID
 62
     7
 10
241.5830613954
 20
514.2690584624
 30
0.0
 40
1.250000000000029
 50
100.0
 51
180.0
  0
LINE
  5
205
  8
0
  6
SLD-SOLID
 62
     7
 10
241.227082427
 20
516.2879055063
 30
0.0
 11
241.3009167494
 21
515.8691828767
 31
0.0
  0
ARC
  5
206
  8
0
  6
SLD-SOLID
 62
     7
 10
241.5830613954
 20
514.2690584624
 30
0.0
 40
2.050000000000068
 50
100.0
 51
180.0
  0
LINE
  5
207
  8
0
  6
SLD-SOLID
 62
     7
 10
240.3330611841
 20
514.2690663854
 30
0.0
 11
240.3330611841
 21
505.6679373304
 31
0.0
  0
LINE
  5
208
  8
0
  6
SLD-SOLID
 62
     7
 10
239.5330616118
 20
514.2690663854
 30
0.0
 11
239.5330616118
 21
505.6679373304
 31
0.0
  0
LINE
  5
209
  8
0
  6
SLD-SOLID
 62
     7
 10
239.5330616118
 20
505.6679373304
 30
0.0
 11
240.3330611841
 21
505.6679373304
 31
0.0
  0
LINE
  5
20A
  8
0
  6
SLD-SOLID
 62
     7
 10
314.0368736194
 20
528.694493107
 30
0.0
 11
313.9630383657
 21
529.1132157365
 31
0.0
  0
ARC
  5
20B
  8
0
  6
SLD-SOLID
 62
     7
 10
314.3190195284
 20
527.094370349
 30
0.0
 40
1.250000000000126
 50
20.0
 51
100.0
  0
ARC
  5
20C
  8
0
  6
SLD-SOLID
 62
     7
 10
314.3190195284
 20
527.094370349
 30
0.0
 40
2.050000000000017
 50
20.0
 51
100.0
  0
LINE
  5
20D
  8
0
  6
SLD-SOLID
 62
     7
 10
427.0671135591
 20
410.8179336111
 30
0.0
 11
426.2439734147
 21
410.8179336111
 31
0.0
  0
LINE
  5
20E
  8
0
  6
SLD-SOLID
 62
     7
 10
122.8330633448
 20
502.3679261724
 30
0.0
 11
122.8330633448
 21
461.2120812456
 31
0.0
  0
LINE
  5
20F
  8
0
  6
SLD-SOLID
 62
     7
 10
122.0330647038
 20
461.2120812456
 30
0.0
 11
122.8330633448
 21
461.2120812456
 31
0.0
  0
LINE
  5
210
  8
0
  6
SLD-SOLID
 62
     7
 10
122.0330647038
 20
502.3679261724
 30
0.0
 11
122.0330647038
 21
461.2120812456
 31
0.0
  0
POLYLINE
  5
211
  8
0
  6
SLD-SOLID
 62
     7
 66
     1
 10
0.0
 20
0.0
 30
0.0
  0
VERTEX
  5
382
  8
0
  6
SLD-SOLID
 62
     7
 10
425.7939732478
 20
410.8679270069
 30
0.0
  0
VERTEX
  5
383
  8
0
  6
SLD-SOLID
 62
     7
 10
425.8440262483
 20
410.8573173801
 30
0.0
  0
VERTEX
  5
384
  8
0
  6
SLD-SOLID
 62
     7
 10
426.2439734147
 20
410.8179336111
 30
0.0
  0
SEQEND
  5
385
  8
0
  6
SLD-SOLID
 62
     7
  0
LINE
  5
212
  8
0
  6
SLD-SOLID
 62
     7
 10
122.0330647038
 20
458.4179347078
 30
0.0
 11
122.8330633448
 21
458.4179347078
 31
0.0
  0
LINE
  5
213
  8
0
  6
SLD-SOLID
 62
     7
 10
122.8330633448
 20
458.4179347078
 30
0.0
 11
122.8330633448
 21
461.2120812456
 31
0.0
  0
LINE
  5
214
  8
0
  6
SLD-SOLID
 62
     7
 10
122.0330647038
 20
458.4179347078
 30
0.0
 11
122.0330647038
 21
461.2120812456
 31
0.0
  0
ARC
  5
215
  8
0
  6
SLD-SOLID
 62
     7
 10
238.2830613954
 20
505.6679330014
 30
0.0
 40
1.25
 50
270.0
 51
0.0
  0
ARC
  5
216
  8
0
  6
SLD-SOLID
 62
     7
 10
238.2830613954
 20
505.6679330014
 30
0.0
 40
2.050000000000039
 50
322.4281306803
 51
0.0
  0
ARC
  5
217
  8
0
  6
SLD-SOLID
 62
     7
 10
325.6293915985
 20
505.6679330014
 30
0.0
 40
1.249999999999943
 50
200.0
 51
270.0
  0
ARC
  5
218
  8
0
  6
SLD-SOLID
 62
     7
 10
325.6293915985
 20
505.6679330014
 30
0.0
 40
2.050000000000039
 50
200.0
 51
217.5718693197
  0
LINE
  5
219
  8
0
  6
SLD-SOLID
 62
     7
 10
272.293967645
 20
486.2341111223
 30
0.0
 11
278.2939649032
 21
486.2692182581
 31
0.0
  0
LINE
  5
21A
  8
0
  6
SLD-SOLID
 62
     7
 10
263.7939653204
 20
484.8325973074
 30
0.0
 11
257.7939661996
 21
484.166425995
 31
0.0
  0
LINE
  5
21B
  8
0
  6
SLD-SOLID
 62
     7
 10
286.7939672278
 20
486.3116269628
 30
0.0
 11
292.0391573415
 21
486.3423233549
 31
0.0
  0
POLYLINE
  5
21C
  8
0
  6
SLD-SOLID
 62
     7
 66
     1
 10
0.0
 20
0.0
 30
0.0
  0
VERTEX
  5
386
  8
0
  6
SLD-SOLID
 62
     7
 10
292.793964486
 20
486.3467639009
 30
0.0
  0
VERTEX
  5
387
  8
0
  6
SLD-SOLID
 62
     7
 10
292.4390858815
 20
486.3446777383
 30
0.0
  0
VERTEX
  5
388
  8
0
  6
SLD-SOLID
 62
     7
 10
292.0391573415
 20
486.3423233549
 30
0.0
  0
SEQEND
  5
389
  8
0
  6
SLD-SOLID
 62
     7
  0
LINE
  5
21D
  8
0
  6
SLD-SOLID
 62
     7
 10
307.0322326229
 20
483.9457099954
 30
0.0
 11
301.2939668105
 21
484.5148747484
 31
0.0
  0
LINE
  5
21E
  8
0
  6
SLD-SOLID
 62
     7
 10
307.2939640687
 20
483.9197521726
 30
0.0
 11
307.0322326229
 21
483.9457099954
 31
0.0
  0
LINE
  5
21F
  8
0
  6
SLD-SOLID
 62
     7
 10
123.1939694689
 20
469.9181442777
 30
0.0
 11
123.1939694689
 21
454.9181585828
 31
0.0
  0
LINE
  5
220
  8
0
  6
SLD-SOLID
 62
     7
 10
123.1939694689
 20
345.9181612054
 30
0.0
 11
123.9939681099
 21
345.9181612054
 31
0.0
  0
LINE
  5
221
  8
0
  6
SLD-SOLID
 62
     7
 10
123.1939694689
 20
345.9181612054
 30
0.0
 11
123.1939694689
 21
343.9181571523
 31
0.0
  0
LINE
  5
222
  8
0
  6
SLD-SOLID
 62
     7
 10
123.1939694689
 20
323.9181613247
 30
0.0
 11
123.9939681099
 21
323.9181613247
 31
0.0
  0
LINE
  5
223
  8
0
  6
SLD-SOLID
 62
     7
 10
123.1939694689
 20
325.9181653778
 30
0.0
 11
123.1939694689
 21
323.9181613247
 31
0.0
  0
LINE
  5
224
  8
0
  6
SLD-SOLID
 62
     7
 10
123.1939694689
 20
471.9181483308
 30
0.0
 11
123.9939681099
 21
471.9181483308
 31
0.0
  0
LINE
  5
225
  8
0
  6
SLD-SOLID
 62
     7
 10
123.1939694689
 20
471.9181483308
 30
0.0
 11
123.1939694689
 21
469.9181442777
 31
0.0
  0
LINE
  5
226
  8
0
  6
SLD-SOLID
 62
     7
 10
123.1939694689
 20
452.9181545297
 30
0.0
 11
123.9939681099
 21
452.9181545297
 31
0.0
  0
LINE
  5
227
  8
0
  6
SLD-SOLID
 62
     7
 10
123.1939694689
 20
454.9181585828
 30
0.0
 11
123.1939694689
 21
452.9181545297
 31
0.0
  0
LINE
  5
228
  8
0
  6
SLD-SOLID
 62
     7
 10
123.1939694689
 20
343.9181571523
 30
0.0
 11
123.1939694689
 21
325.9181653778
 31
0.0
  0
LINE
  5
229
  8
0
  6
SLD-SOLID
 62
     7
 10
123.1939694689
 20
213.9181581954
 30
0.0
 11
123.9939681099
 21
213.9181581954
 31
0.0
  0
LINE
  5
22A
  8
0
  6
SLD-SOLID
 62
     7
 10
123.1939694689
 20
213.9181581954
 30
0.0
 11
123.1939694689
 21
211.9181578676
 31
0.0
  0
LINE
  5
22B
  8
0
  6
SLD-SOLID
 62
     7
 10
123.1939694689
 20
199.9181586946
 30
0.0
 11
123.9939681099
 21
199.9181586946
 31
0.0
  0
LINE
  5
22C
  8
0
  6
SLD-SOLID
 62
     7
 10
123.1939694689
 20
201.9181580911
 30
0.0
 11
123.1939694689
 21
199.9181586946
 31
0.0
  0
LINE
  5
22D
  8
0
  6
SLD-SOLID
 62
     7
 10
123.1939694689
 20
211.9181578676
 30
0.0
 11
123.1939694689
 21
201.9181580911
 31
0.0
  0
LINE
  5
22E
  8
0
  6
SLD-SOLID
 62
     7
 10
123.1939694689
 20
347.9181652586
 30
0.0
 11
123.1939694689
 21
345.9181612054
 31
0.0
  0
LINE
  5
22F
  8
0
  6
SLD-SOLID
 62
     7
 10
123.1939694689
 20
215.9181585232
 30
0.0
 11
123.1939694689
 21
213.9181581954
 31
0.0
  0
LINE
  5
230
  8
0
  6
SLD-SOLID
 62
     7
 10
123.1939694689
 20
323.9181613247
 30
0.0
 11
123.1939694689
 21
321.9181572715
 31
0.0
  0
LINE
  5
231
  8
0
  6
SLD-SOLID
 62
     7
 10
123.1939694689
 20
199.9181586946
 30
0.0
 11
123.1939694689
 21
197.9181583668
 31
0.0
  0
LINE
  5
232
  8
0
  6
SLD-SOLID
 62
     7
 10
123.1939694689
 20
452.9181545297
 30
0.0
 11
123.1939694689
 21
450.9181504766
 31
0.0
  0
LINE
  5
233
  8
0
  6
SLD-SOLID
 62
     7
 10
123.1939694689
 20
321.9181572715
 30
0.0
 11
123.1939694689
 21
215.9181585232
 31
0.0
  0
LINE
  5
234
  8
0
  6
SLD-SOLID
 62
     7
 10
123.1939694689
 20
181.9181580725
 30
0.0
 11
123.9939681099
 21
181.9181580725
 31
0.0
  0
LINE
  5
235
  8
0
  6
SLD-SOLID
 62
     7
 10
123.9939681099
 20
182.7250042627
 30
0.0
 11
123.9939681099
 21
181.9181580725
 31
0.0
  0
LINE
  5
236
  8
0
  6
SLD-SOLID
 62
     7
 10
123.1939694689
 20
183.9181584003
 30
0.0
 11
123.1939694689
 21
181.9181580725
 31
0.0
  0
LINE
  5
237
  8
0
  6
SLD-SOLID
 62
     7
 10
123.1939694689
 20
197.9181583668
 30
0.0
 11
123.1939694689
 21
183.9181584003
 31
0.0
  0
LINE
  5
238
  8
0
  6
SLD-SOLID
 62
     7
 10
123.1939694689
 20
450.9181504766
 30
0.0
 11
123.1939694689
 21
347.9181652586
 31
0.0
  0
POLYLINE
  5
239
  8
0
  6
SLD-SOLID
 62
     7
 66
     1
 10
0.0
 20
0.0
 30
0.0
  0
VERTEX
  5
38A
  8
0
  6
SLD-SOLID
 62
     7
 10
109.1939634488
 20
338.2514690677
 30
0.0
  0
VERTEX
  5
38B
  8
0
  6
SLD-SOLID
 62
     7
 10
109.19397835
 20
338.2508283178
 30
0.0
  0
VERTEX
  5
38C
  8
0
  6
SLD-SOLID
 62
     7
 10
109.213111441
 20
338.2283126632
 30
0.0
  0
VERTEX
  5
38D
  8
0
  6
SLD-SOLID
 62
     7
 10
109.2541790412
 20
338.2119511882
 30
0.0
  0
VERTEX
  5
38E
  8
0
  6
SLD-SOLID
 62
     7
 10
109.3077114628
 20
338.200372986
 30
0.0
  0
VERTEX
  5
38F
  8
0
  6
SLD-SOLID
 62
     7
 10
109.3716299937
 20
338.19298201
 30
0.0
  0
VERTEX
  5
390
  8
0
  6
SLD-SOLID
 62
     7
 10
109.4439676808
 20
338.1903147022
 30
0.0
  0
SEQEND
  5
391
  8
0
  6
SLD-SOLID
 62
     7
  0
LINE
  5
23A
  8
0
  6
SLD-SOLID
 62
     7
 10
109.1939634488
 20
330.4255431215
 30
0.0
 11
109.1939634488
 21
338.2514690677
 31
0.0
  0
POLYLINE
  5
23B
  8
0
  6
SLD-SOLID
 62
     7
 66
     1
 10
0.0
 20
0.0
 30
0.0
  0
VERTEX
  5
392
  8
0
  6
SLD-SOLID
 62
     7
 10
110.143964629
 20
338.1903147022
 30
0.0
  0
VERTEX
  5
393
  8
0
  6
SLD-SOLID
 62
     7
 10
110.216302316
 20
338.19298201
 30
0.0
  0
VERTEX
  5
394
  8
0
  6
SLD-SOLID
 62
     7
 10
110.280220847
 20
338.200372986
 30
0.0
  0
VERTEX
  5
395
  8
0
  6
SLD-SOLID
 62
     7
 10
110.3337532685
 20
338.2119511882
 30
0.0
  0
VERTEX
  5
396
  8
0
  6
SLD-SOLID
 62
     7
 10
110.3748208688
 20
338.2283126632
 30
0.0
  0
VERTEX
  5
397
  8
0
  6
SLD-SOLID
 62
     7
 10
110.3939539598
 20
338.2508283178
 30
0.0
  0
VERTEX
  5
398
  8
0
  6
SLD-SOLID
 62
     7
 10
110.3939688609
 20
338.2514690677
 30
0.0
  0
SEQEND
  5
399
  8
0
  6
SLD-SOLID
 62
     7
  0
LINE
  5
23C
  8
0
  6
SLD-SOLID
 62
     7
 10
110.3939688609
 20
338.2514690677
 30
0.0
 11
110.3939688609
 21
330.748302273
 31
0.0
  0
LINE
  5
23D
  8
0
  6
SLD-SOLID
 62
     7
 10
110.143964629
 20
338.1903147022
 30
0.0
 11
109.4439676808
 21
338.1903147022
 31
0.0
  0
ARC
  5
23E
  8
0
  6
SLD-SOLID
 62
     7
 10
110.4711376979
 20
342.6108362914
 30
0.0
 40
1.289392236632774
 50
82.2969868303
 51
172.1061570472
  0
POLYLINE
  5
23F
  8
0
  6
SLD-SOLID
 62
     7
 66
     1
 10
0.0
 20
0.0
 30
0.0
  0
VERTEX
  5
39A
  8
0
  6
SLD-SOLID
 62
     7
 10
109.1939634488
 20
338.4739583055
 30
0.0
  0
VERTEX
  5
39B
  8
0
  6
SLD-SOLID
 62
     7
 10
109.2831096457
 20
338.8159101526
 30
0.0
  0
VERTEX
  5
39C
  8
0
  6
SLD-SOLID
 62
     7
 10
109.5457575129
 20
339.1213094513
 30
0.0
  0
VERTEX
  5
39D
  8
0
  6
SLD-SOLID
 62
     7
 10
109.9401167439
 20
339.3412207882
 30
0.0
  0
VERTEX
  5
39E
  8
0
  6
SLD-SOLID
 62
     7
 10
110.4013672875
 20
339.4522195379
 30
0.0
  0
VERTEX
  5
39F
  8
0
  6
SLD-SOLID
 62
     7
 10
110.6439656423
 20
339.4662415306
 30
0.0
  0
SEQEND
  5
3A0
  8
0
  6
SLD-SOLID
 62
     7
  0
LINE
  5
240
  8
0
  6
SLD-SOLID
 62
     7
 10
109.1939634488
 20
338.4739583055
 30
0.0
 11
109.1939634488
 21
342.7879189769
 31
0.0
  0
LINE
  5
241
  8
0
  6
SLD-SOLID
 62
     7
 10
115.9939667986
 20
343.6687415163
 30
0.0
 11
115.9939667986
 21
339.3547659437
 31
0.0
  0
LINE
  5
242
  8
0
  6
SLD-SOLID
 62
     7
 10
115.9939667986
 20
339.3547659437
 30
0.0
 11
115.9939667986
 21
338.84256833
 31
0.0
  0
LINE
  5
243
  8
0
  6
SLD-SOLID
 62
     7
 10
109.1939634488
 20
338.2514690677
 30
0.0
 11
109.1939634488
 21
338.4739583055
 31
0.0
  0
LINE
  5
244
  8
0
  6
SLD-SOLID
 62
     7
 10
110.3939688609
 20
338.4739583055
 30
0.0
 11
110.3939688609
 21
338.2514690677
 31
0.0
  0
LINE
  5
245
  8
0
  6
SLD-SOLID
 62
     7
 10
110.6439656423
 20
343.9187382976
 30
0.0
 11
110.6439656423
 21
343.8885932485
 31
0.0
  0
LINE
  5
246
  8
0
  6
SLD-SOLID
 62
     7
 10
109.1939634488
 20
342.7879189769
 30
0.0
 11
109.1939634488
 21
343.3681552927
 31
0.0
  0
LINE
  5
247
  8
0
  6
SLD-SOLID
 62
     7
 10
115.9939667986
 20
326.6797786276
 30
0.0
 11
115.9939667986
 21
326.1675810138
 31
0.0
  0
LINE
  5
248
  8
0
  6
SLD-SOLID
 62
     7
 10
115.9939667986
 20
329.4168388168
 30
0.0
 11
115.9939667986
 21
326.6797786276
 31
0.0
  0
ARC
  5
249
  8
0
  6
SLD-SOLID
 62
     7
 10
111.4135014899
 20
330.3960550082
 30
0.0
 40
0.4652093144379718
 50
67.1746840778
 51
98.5967196485
  0
LINE
  5
24A
  8
0
  6
SLD-SOLID
 62
     7
 10
111.5939668225
 20
338.5925715486
 30
0.0
 11
111.5939668225
 21
330.8248346368
 31
0.0
  0
ARC
  5
24B
  8
0
  6
SLD-SOLID
 62
     7
 10
110.5744311514
 20
330.3960627781
 30
0.0
 40
0.4652009728426039
 50
81.4036741644
 51
112.8253418146
  0
LINE
  5
24C
  8
0
  6
SLD-SOLID
 62
     7
 10
110.3939688609
 20
330.8248346368
 30
0.0
 11
110.3939688609
 21
338.2514690677
 31
0.0
  0
LINE
  5
24D
  8
0
  6
SLD-SOLID
 62
     7
 10
110.6439656423
 20
330.8560376684
 30
0.0
 11
111.3439625905
 21
330.8560376684
 31
0.0
  0
ARC
  5
24E
  8
0
  6
SLD-SOLID
 62
     7
 10
110.2739337928
 20
326.8262351259
 30
0.0
 40
1.325564888643314
 50
264.3732155989
 51
354.7637082671
  0
ARC
  5
24F
  8
0
  6
SLD-SOLID
 62
     7
 10
110.2657741889
 20
330.8245335127
 30
0.0
 40
1.350435847064178
 50
264.8248764565
 51
349.5864852901
  0
LINE
  5
250
  8
0
  6
SLD-SOLID
 62
     7
 10
111.5939668225
 20
330.5804406921
 30
0.0
 11
111.5939668225
 21
326.7052596132
 31
0.0
  0
LINE
  5
251
  8
0
  6
SLD-SOLID
 62
     7
 10
104.7939634727
 20
325.7377123157
 30
0.0
 11
104.7939634727
 21
329.6129082958
 31
0.0
  0
LINE
  5
252
  8
0
  6
SLD-SOLID
 62
     7
 10
104.7939634727
 20
329.6129082958
 30
0.0
 11
104.7939634727
 21
330.1755463401
 31
0.0
  0
LINE
  5
253
  8
0
  6
SLD-SOLID
 62
     7
 10
110.3939688609
 20
330.5804406921
 30
0.0
 11
110.3939688609
 21
330.8248346368
 31
0.0
  0
LINE
  5
254
  8
0
  6
SLD-SOLID
 62
     7
 10
111.5939668225
 20
330.8248346368
 30
0.0
 11
111.5939668225
 21
330.5804406921
 31
0.0
  0
LINE
  5
255
  8
0
  6
SLD-SOLID
 62
     7
 10
110.143964629
 20
325.4877155344
 30
0.0
 11
110.143964629
 21
325.5070572416
 31
0.0
  0
LINE
  5
256
  8
0
  6
SLD-SOLID
 62
     7
 10
111.5939668225
 20
326.7052596132
 30
0.0
 11
111.5939668225
 21
326.4681523363
 31
0.0
  0
ARC
  5
257
  8
0
  6
SLD-SOLID
 62
     7
 10
110.210657021
 20
342.8996840628
 30
0.0
 40
1.431136036900701
 50
45.4027426884
 51
92.6710088323
  0
LINE
  5
258
  8
0
  6
SLD-SOLID
 62
     7
 10
104.7939634727
 20
343.5359572689
 30
0.0
 11
104.7939634727
 21
344.0985953132
 31
0.0
  0
LINE
  5
259
  8
0
  6
SLD-SOLID
 62
     7
 10
104.7939634727
 20
340.2348583261
 30
0.0
 11
104.7939634727
 21
343.5359572689
 31
0.0
  0
LINE
  5
25A
  8
0
  6
SLD-SOLID
 62
     7
 10
121.7973804877
 20
333.0143218557
 30
0.0
 11
122.2439682887
 21
331.1301147262
 31
0.0
  0
POLYLINE
  5
25B
  8
0
  6
SLD-SOLID
 62
     7
 66
     1
 10
0.0
 20
0.0
 30
0.0
  0
VERTEX
  5
3A1
  8
0
  6
SLD-SOLID
 62
     7
 10
122.2439682887
 20
331.1301147262
 30
0.0
  0
VERTEX
  5
3A2
  8
0
  6
SLD-SOLID
 62
     7
 10
122.2415393995
 20
330.9961830894
 30
0.0
  0
VERTEX
  5
3A3
  8
0
  6
SLD-SOLID
 62
     7
 10
121.7973804877
 20
329.2459075967
 30
0.0
  0
SEQEND
  5
3A4
  8
0
  6
SLD-SOLID
 62
     7
  0
LINE
  5
25C
  8
0
  6
SLD-SOLID
 62
     7
 10
121.7973804877
 20
329.2459075967
 30
0.0
 11
117.490550022
 21
329.2459075967
 31
0.0
  0
POLYLINE
  5
25D
  8
0
  6
SLD-SOLID
 62
     7
 66
     1
 10
0.0
 20
0.0
 30
0.0
  0
VERTEX
  5
3A5
  8
0
  6
SLD-SOLID
 62
     7
 10
117.0439696716
 20
331.1301147262
 30
0.0
  0
VERTEX
  5
3A6
  8
0
  6
SLD-SOLID
 62
     7
 10
117.0463985608
 20
330.9961830894
 30
0.0
  0
VERTEX
  5
3A7
  8
0
  6
SLD-SOLID
 62
     7
 10
117.490550022
 20
329.2459075967
 30
0.0
  0
SEQEND
  5
3A8
  8
0
  6
SLD-SOLID
 62
     7
  0
LINE
  5
25E
  8
0
  6
SLD-SOLID
 62
     7
 10
117.490550022
 20
333.0143218557
 30
0.0
 11
117.0439696716
 21
331.1301147262
 31
0.0
  0
LINE
  5
25F
  8
0
  6
SLD-SOLID
 62
     7
 10
121.7973804877
 20
333.0143218557
 30
0.0
 11
117.490550022
 21
333.0143218557
 31
0.0
  0
POLYLINE
  5
260
  8
0
  6
SLD-SOLID
 62
     7
 66
     1
 10
0.0
 20
0.0
 30
0.0
  0
VERTEX
  5
3A9
  8
0
  6
SLD-SOLID
 62
     7
 10
121.7973804877
 20
333.0143218557
 30
0.0
  0
VERTEX
  5
3AA
  8
0
  6
SLD-SOLID
 62
     7
 10
121.9867369936
 20
333.7310081045
 30
0.0
  0
VERTEX
  5
3AB
  8
0
  6
SLD-SOLID
 62
     7
 10
122.2439682887
 20
335.8504449646
 30
0.0
  0
SEQEND
  5
3AC
  8
0
  6
SLD-SOLID
 62
     7
  0
POLYLINE
  5
261
  8
0
  6
SLD-SOLID
 62
     7
 66
     1
 10
0.0
 20
0.0
 30
0.0
  0
VERTEX
  5
3AD
  8
0
  6
SLD-SOLID
 62
     7
 10
117.490550022
 20
333.0143218557
 30
0.0
  0
VERTEX
  5
3AE
  8
0
  6
SLD-SOLID
 62
     7
 10
117.3011935161
 20
333.7310081045
 30
0.0
  0
VERTEX
  5
3AF
  8
0
  6
SLD-SOLID
 62
     7
 10
117.0439696716
 20
335.8504449646
 30
0.0
  0
SEQEND
  5
3B0
  8
0
  6
SLD-SOLID
 62
     7
  0
LINE
  5
262
  8
0
  6
SLD-SOLID
 62
     7
 10
117.0439696716
 20
331.1301147262
 30
0.0
 11
117.0439696716
 21
335.8504449646
 31
0.0
  0
POLYLINE
  5
263
  8
0
  6
SLD-SOLID
 62
     7
 66
     1
 10
0.0
 20
0.0
 30
0.0
  0
VERTEX
  5
3B1
  8
0
  6
SLD-SOLID
 62
     7
 10
117.0439696716
 20
335.8504449646
 30
0.0
  0
VERTEX
  5
3B2
  8
0
  6
SLD-SOLID
 62
     7
 10
117.0793822811
 20
336.6222804109
 30
0.0
  0
VERTEX
  5
3B3
  8
0
  6
SLD-SOLID
 62
     7
 10
117.490550022
 20
338.6865829746
 30
0.0
  0
SEQEND
  5
3B4
  8
0
  6
SLD-SOLID
 62
     7
  0
LINE
  5
264
  8
0
  6
SLD-SOLID
 62
     7
 10
121.7973804877
 20
338.6865829746
 30
0.0
 11
117.490550022
 21
338.6865829746
 31
0.0
  0
POLYLINE
  5
265
  8
0
  6
SLD-SOLID
 62
     7
 66
     1
 10
0.0
 20
0.0
 30
0.0
  0
VERTEX
  5
3B5
  8
0
  6
SLD-SOLID
 62
     7
 10
122.2439682887
 20
335.8504449646
 30
0.0
  0
VERTEX
  5
3B6
  8
0
  6
SLD-SOLID
 62
     7
 10
122.2085482286
 20
336.6222804109
 30
0.0
  0
VERTEX
  5
3B7
  8
0
  6
SLD-SOLID
 62
     7
 10
121.7973804877
 20
338.6865829746
 30
0.0
  0
SEQEND
  5
3B8
  8
0
  6
SLD-SOLID
 62
     7
  0
POLYLINE
  5
266
  8
0
  6
SLD-SOLID
 62
     7
 66
     1
 10
0.0
 20
0.0
 30
0.0
  0
VERTEX
  5
3B9
  8
0
  6
SLD-SOLID
 62
     7
 10
117.0439696716
 20
339.638498954
 30
0.0
  0
VERTEX
  5
3BA
  8
0
  6
SLD-SOLID
 62
     7
 10
117.0463985608
 20
339.570832781
 30
0.0
  0
VERTEX
  5
3BB
  8
0
  6
SLD-SOLID
 62
     7
 10
117.490550022
 20
338.6865829746
 30
0.0
  0
SEQEND
  5
3BC
  8
0
  6
SLD-SOLID
 62
     7
  0
LINE
  5
267
  8
0
  6
SLD-SOLID
 62
     7
 10
117.0439696716
 20
335.8504449646
 30
0.0
 11
117.0439696716
 21
339.638498954
 31
0.0
  0
POLYLINE
  5
268
  8
0
  6
SLD-SOLID
 62
     7
 66
     1
 10
0.0
 20
0.0
 30
0.0
  0
VERTEX
  5
3BD
  8
0
  6
SLD-SOLID
 62
     7
 10
122.2439682887
 20
339.638498954
 30
0.0
  0
VERTEX
  5
3BE
  8
0
  6
SLD-SOLID
 62
     7
 10
122.2415393995
 20
339.570832781
 30
0.0
  0
VERTEX
  5
3BF
  8
0
  6
SLD-SOLID
 62
     7
 10
121.7973804877
 20
338.6865829746
 30
0.0
  0
SEQEND
  5
3C0
  8
0
  6
SLD-SOLID
 62
     7
  0
LINE
  5
269
  8
0
  6
SLD-SOLID
 62
     7
 10
121.7973804877
 20
340.5904149334
 30
0.0
 11
121.9733259485
 21
340.2153676073
 31
0.0
  0
LINE
  5
26A
  8
0
  6
SLD-SOLID
 62
     7
 10
117.490550022
 20
340.5904149334
 30
0.0
 11
117.0439696716
 21
339.638498954
 31
0.0
  0
LINE
  5
26B
  8
0
  6
SLD-SOLID
 62
     7
 10
121.7973804877
 20
340.5904149334
 30
0.0
 11
117.490550022
 21
340.5904149334
 31
0.0
  0
LINE
  5
26C
  8
0
  6
SLD-SOLID
 62
     7
 10
121.7973804877
 20
329.2459075967
 30
0.0
 11
121.9733259485
 21
329.6209400217
 31
0.0
  0
LINE
  5
26D
  8
0
  6
SLD-SOLID
 62
     7
 10
117.490550022
 20
329.2459075967
 30
0.0
 11
117.3146045612
 21
329.6209400217
 31
0.0
  0
LINE
  5
26E
  8
0
  6
SLD-SOLID
 62
     7
 10
117.0439696716
 20
329.9181585828
 30
0.0
 11
117.0439696716
 21
331.1301147262
 31
0.0
  0
LINE
  5
26F
  8
0
  6
SLD-SOLID
 62
     7
 10
117.0439696716
 20
339.638498954
 30
0.0
 11
117.0439696716
 21
339.9181639473
 31
0.0
  0
LINE
  5
270
  8
0
  6
SLD-SOLID
 62
     7
 10
116.3473850892
 20
340.4194837133
 30
0.0
 11
116.7939654396
 21
338.2855927269
 31
0.0
  0
POLYLINE
  5
271
  8
0
  6
SLD-SOLID
 62
     7
 66
     1
 10
0.0
 20
0.0
 30
0.0
  0
VERTEX
  5
3C1
  8
0
  6
SLD-SOLID
 62
     7
 10
116.7939654396
 20
338.2855927269
 30
0.0
  0
VERTEX
  5
3C2
  8
0
  6
SLD-SOLID
 62
     7
 10
116.7915365504
 20
338.1338989059
 30
0.0
  0
VERTEX
  5
3C3
  8
0
  6
SLD-SOLID
 62
     7
 10
116.3473850892
 20
336.1517017404
 30
0.0
  0
SEQEND
  5
3C4
  8
0
  6
SLD-SOLID
 62
     7
  0
LINE
  5
272
  8
0
  6
SLD-SOLID
 62
     7
 10
116.3473850892
 20
336.1517017404
 30
0.0
 11
112.0405471729
 21
336.1517017404
 31
0.0
  0
POLYLINE
  5
273
  8
0
  6
SLD-SOLID
 62
     7
 66
     1
 10
0.0
 20
0.0
 30
0.0
  0
VERTEX
  5
3C5
  8
0
  6
SLD-SOLID
 62
     7
 10
111.5939668225
 20
338.2855927269
 30
0.0
  0
VERTEX
  5
3C6
  8
0
  6
SLD-SOLID
 62
     7
 10
111.5963957117
 20
338.1338989059
 30
0.0
  0
VERTEX
  5
3C7
  8
0
  6
SLD-SOLID
 62
     7
 10
112.0405471729
 20
336.1517017404
 30
0.0
  0
SEQEND
  5
3C8
  8
0
  6
SLD-SOLID
 62
     7
  0
LINE
  5
274
  8
0
  6
SLD-SOLID
 62
     7
 10
111.6582131789
 20
338.5925715486
 30
0.0
 11
111.5939668225
 21
338.2855927269
 31
0.0
  0
LINE
  5
275
  8
0
  6
SLD-SOLID
 62
     7
 10
116.3473850892
 20
340.4194837133
 30
0.0
 11
115.9939667986
 21
340.4194837133
 31
0.0
  0
POLYLINE
  5
276
  8
0
  6
SLD-SOLID
 62
     7
 66
     1
 10
0.0
 20
0.0
 30
0.0
  0
VERTEX
  5
3C9
  8
0
  6
SLD-SOLID
 62
     7
 10
116.7939654396
 20
333.4010516922
 30
0.0
  0
VERTEX
  5
3CA
  8
0
  6
SLD-SOLID
 62
     7
 10
116.75855283
 20
334.1496115247
 30
0.0
  0
VERTEX
  5
3CB
  8
0
  6
SLD-SOLID
 62
     7
 10
116.3473850892
 20
336.1517017404
 30
0.0
  0
SEQEND
  5
3CC
  8
0
  6
SLD-SOLID
 62
     7
  0
LINE
  5
277
  8
0
  6
SLD-SOLID
 62
     7
 10
116.7939654396
 20
333.4010516922
 30
0.0
 11
116.7939654396
 21
338.2855927269
 31
0.0
  0
POLYLINE
  5
278
  8
0
  6
SLD-SOLID
 62
     7
 66
     1
 10
0.0
 20
0.0
 30
0.0
  0
VERTEX
  5
3CD
  8
0
  6
SLD-SOLID
 62
     7
 10
111.5939668225
 20
333.4010516922
 30
0.0
  0
VERTEX
  5
3CE
  8
0
  6
SLD-SOLID
 62
     7
 10
111.629379432
 20
334.1496115247
 30
0.0
  0
VERTEX
  5
3CF
  8
0
  6
SLD-SOLID
 62
     7
 10
112.0405471729
 20
336.1517017404
 30
0.0
  0
SEQEND
  5
3D0
  8
0
  6
SLD-SOLID
 62
     7
  0
POLYLINE
  5
279
  8
0
  6
SLD-SOLID
 62
     7
 66
     1
 10
0.0
 20
0.0
 30
0.0
  0
VERTEX
  5
3D1
  8
0
  6
SLD-SOLID
 62
     7
 10
116.3473850892
 20
330.6503867427
 30
0.0
  0
VERTEX
  5
3D2
  8
0
  6
SLD-SOLID
 62
     7
 10
116.5367341445
 20
331.3454663078
 30
0.0
  0
VERTEX
  5
3D3
  8
0
  6
SLD-SOLID
 62
     7
 10
116.7939654396
 20
333.4010516922
 30
0.0
  0
SEQEND
  5
3D4
  8
0
  6
SLD-SOLID
 62
     7
  0
LINE
  5
27A
  8
0
  6
SLD-SOLID
 62
     7
 10
116.3473850892
 20
330.6503867427
 30
0.0
 11
112.0405471729
 21
330.6503867427
 31
0.0
  0
POLYLINE
  5
27B
  8
0
  6
SLD-SOLID
 62
     7
 66
     1
 10
0.0
 20
0.0
 30
0.0
  0
VERTEX
  5
3D5
  8
0
  6
SLD-SOLID
 62
     7
 10
112.0405471729
 20
330.6503867427
 30
0.0
  0
VERTEX
  5
3D6
  8
0
  6
SLD-SOLID
 62
     7
 10
111.8511981176
 20
331.3454663078
 30
0.0
  0
VERTEX
  5
3D7
  8
0
  6
SLD-SOLID
 62
     7
 10
111.5939668225
 20
333.4010516922
 30
0.0
  0
SEQEND
  5
3D8
  8
0
  6
SLD-SOLID
 62
     7
  0
LINE
  5
27C
  8
0
  6
SLD-SOLID
 62
     7
 10
112.0405471729
 20
330.6503867427
 30
0.0
 11
111.5939668225
 21
330.0336127798
 31
0.0
  0
LINE
  5
27D
  8
0
  6
SLD-SOLID
 62
     7
 10
116.3473850892
 20
330.6503867427
 30
0.0
 11
116.7939654396
 21
330.0336127798
 31
0.0
  0
LINE
  5
27E
  8
0
  6
SLD-SOLID
 62
     7
 10
116.7939654396
 20
333.4010516922
 30
0.0
 11
116.7939654396
 21
330.0336127798
 31
0.0
  0
LINE
  5
27F
  8
0
  6
SLD-SOLID
 62
     7
 10
116.6448495196
 20
340.0357639114
 30
0.0
 11
116.3473850892
 21
340.4194837133
 31
0.0
  0
LINE
  5
280
  8
0
  6
SLD-SOLID
 62
     7
 10
116.7939654396
 20
339.9181639473
 30
0.0
 11
116.7939654396
 21
338.2855927269
 31
0.0
  0
POLYLINE
  5
281
  8
0
  6
SLD-SOLID
 62
     7
 66
     1
 10
0.0
 20
0.0
 30
0.0
  0
VERTEX
  5
3D9
  8
0
  6
SLD-SOLID
 62
     7
 10
116.7939654396
 20
330.0336127798
 30
0.0
  0
VERTEX
  5
3DA
  8
0
  6
SLD-SOLID
 62
     7
 10
116.7915365504
 20
329.9897735635
 30
0.0
  0
VERTEX
  5
3DB
  8
0
  6
SLD-SOLID
 62
     7
 10
116.3473850892
 20
329.4168388168
 30
0.0
  0
SEQEND
  5
3DC
  8
0
  6
SLD-SOLID
 62
     7
  0
LINE
  5
282
  8
0
  6
SLD-SOLID
 62
     7
 10
116.3473850892
 20
329.4168388168
 30
0.0
 11
112.0405471729
 21
329.4168388168
 31
0.0
  0
LINE
  5
283
  8
0
  6
SLD-SOLID
 62
     7
 10
111.7430827425
 20
329.8005437175
 30
0.0
 11
112.0405471729
 21
329.4168388168
 31
0.0
  0
LINE
  5
284
  8
0
  6
SLD-SOLID
 62
     7
 10
116.7939654396
 20
330.0336127798
 30
0.0
 11
116.7939654396
 21
329.9181585828
 31
0.0
  0
LINE
  5
285
  8
0
  6
SLD-SOLID
 62
     7
 10
108.7473830984
 20
339.5257418672
 30
0.0
 11
109.1939634488
 21
336.8673896114
 31
0.0
  0
POLYLINE
  5
286
  8
0
  6
SLD-SOLID
 62
     7
 66
     1
 10
0.0
 20
0.0
 30
0.0
  0
VERTEX
  5
3DD
  8
0
  6
SLD-SOLID
 62
     7
 10
109.1939634488
 20
336.8673896114
 30
0.0
  0
VERTEX
  5
3DE
  8
0
  6
SLD-SOLID
 62
     7
 10
109.1915345596
 20
336.6784130851
 30
0.0
  0
VERTEX
  5
3DF
  8
0
  6
SLD-SOLID
 62
     7
 10
108.7473830984
 20
334.2090373556
 30
0.0
  0
SEQEND
  5
3E0
  8
0
  6
SLD-SOLID
 62
     7
  0
LINE
  5
287
  8
0
  6
SLD-SOLID
 62
     7
 10
108.7473830984
 20
334.2090373556
 30
0.0
 11
104.4405526326
 21
334.2090373556
 31
0.0
  0
POLYLINE
  5
288
  8
0
  6
SLD-SOLID
 62
     7
 66
     1
 10
0.0
 20
0.0
 30
0.0
  0
VERTEX
  5
3E1
  8
0
  6
SLD-SOLID
 62
     7
 10
103.9939648317
 20
336.8673896114
 30
0.0
  0
VERTEX
  5
3E2
  8
0
  6
SLD-SOLID
 62
     7
 10
103.9963937209
 20
336.6784130851
 30
0.0
  0
VERTEX
  5
3E3
  8
0
  6
SLD-SOLID
 62
     7
 10
104.4405526326
 20
334.2090373556
 30
0.0
  0
SEQEND
  5
3E4
  8
0
  6
SLD-SOLID
 62
     7
  0
LINE
  5
289
  8
0
  6
SLD-SOLID
 62
     7
 10
104.4405526326
 20
339.5257418672
 30
0.0
 11
103.9939648317
 21
336.8673896114
 31
0.0
  0
LINE
  5
28A
  8
0
  6
SLD-SOLID
 62
     7
 10
108.7473830984
 20
339.5257418672
 30
0.0
 11
104.4405526326
 21
339.5257418672
 31
0.0
  0
POLYLINE
  5
28B
  8
0
  6
SLD-SOLID
 62
     7
 66
     1
 10
0.0
 20
0.0
 30
0.0
  0
VERTEX
  5
3E5
  8
0
  6
SLD-SOLID
 62
     7
 10
109.1939634488
 20
331.9052433292
 30
0.0
  0
VERTEX
  5
3E6
  8
0
  6
SLD-SOLID
 62
     7
 10
109.1585508393
 20
332.5321947853
 30
0.0
  0
VERTEX
  5
3E7
  8
0
  6
SLD-SOLID
 62
     7
 10
108.7473830984
 20
334.2090373556
 30
0.0
  0
SEQEND
  5
3E8
  8
0
  6
SLD-SOLID
 62
     7
  0
POLYLINE
  5
28C
  8
0
  6
SLD-SOLID
 62
     7
 66
     1
 10
0.0
 20
0.0
 30
0.0
  0
VERTEX
  5
3E9
  8
0
  6
SLD-SOLID
 62
     7
 10
103.9939648317
 20
331.9052433292
 30
0.0
  0
VERTEX
  5
3EA
  8
0
  6
SLD-SOLID
 62
     7
 10
104.0293848918
 20
332.5321947853
 30
0.0
  0
VERTEX
  5
3EB
  8
0
  6
SLD-SOLID
 62
     7
 10
104.4405526326
 20
334.2090373556
 30
0.0
  0
SEQEND
  5
3EC
  8
0
  6
SLD-SOLID
 62
     7
  0
LINE
  5
28D
  8
0
  6
SLD-SOLID
 62
     7
 10
103.9939648317
 20
331.9052433292
 30
0.0
 11
103.9939648317
 21
336.8673896114
 31
0.0
  0
LINE
  5
28E
  8
0
  6
SLD-SOLID
 62
     7
 10
108.9728823708
 20
330.4255431215
 30
0.0
 11
109.1939634488
 21
331.9052433292
 31
0.0
  0
LINE
  5
28F
  8
0
  6
SLD-SOLID
 62
     7
 10
104.7939634727
 20
329.6014493028
 30
0.0
 11
104.4405526326
 21
329.6014493028
 31
0.0
  0
POLYLINE
  5
290
  8
0
  6
SLD-SOLID
 62
     7
 66
     1
 10
0.0
 20
0.0
 30
0.0
  0
VERTEX
  5
3ED
  8
0
  6
SLD-SOLID
 62
     7
 10
104.4405526326
 20
329.6014493028
 30
0.0
  0
VERTEX
  5
3EE
  8
0
  6
SLD-SOLID
 62
     7
 10
104.2511886762
 20
330.1836078684
 30
0.0
  0
VERTEX
  5
3EF
  8
0
  6
SLD-SOLID
 62
     7
 10
103.9939648317
 20
331.9052433292
 30
0.0
  0
SEQEND
  5
3F0
  8
0
  6
SLD-SOLID
 62
     7
  0
POLYLINE
  5
291
  8
0
  6
SLD-SOLID
 62
     7
 66
     1
 10
0.0
 20
0.0
 30
0.0
  0
VERTEX
  5
3F1
  8
0
  6
SLD-SOLID
 62
     7
 10
109.1939634488
 20
339.8803000967
 30
0.0
  0
VERTEX
  5
3F2
  8
0
  6
SLD-SOLID
 62
     7
 10
109.1915345596
 20
339.8551022331
 30
0.0
  0
VERTEX
  5
3F3
  8
0
  6
SLD-SOLID
 62
     7
 10
108.7473830984
 20
339.5257418672
 30
0.0
  0
SEQEND
  5
3F4
  8
0
  6
SLD-SOLID
 62
     7
  0
POLYLINE
  5
292
  8
0
  6
SLD-SOLID
 62
     7
 66
     1
 10
0.0
 20
0.0
 30
0.0
  0
VERTEX
  5
3F5
  8
0
  6
SLD-SOLID
 62
     7
 10
103.9939648317
 20
339.8803000967
 30
0.0
  0
VERTEX
  5
3F6
  8
0
  6
SLD-SOLID
 62
     7
 10
103.9963937209
 20
339.8551022331
 30
0.0
  0
VERTEX
  5
3F7
  8
0
  6
SLD-SOLID
 62
     7
 10
104.4405526326
 20
339.5257418672
 30
0.0
  0
SEQEND
  5
3F8
  8
0
  6
SLD-SOLID
 62
     7
  0
LINE
  5
293
  8
0
  6
SLD-SOLID
 62
     7
 10
103.9939648317
 20
336.8673896114
 30
0.0
 11
103.9939648317
 21
339.8803000967
 31
0.0
  0
LINE
  5
294
  8
0
  6
SLD-SOLID
 62
     7
 10
104.4405526326
 20
329.6014493028
 30
0.0
 11
103.9939648317
 21
329.9560224334
 31
0.0
  0
LINE
  5
295
  8
0
  6
SLD-SOLID
 62
     7
 10
103.9939648317
 20
331.9052433292
 30
0.0
 11
103.9939648317
 21
329.9183075945
 31
0.0
  0
LINE
  5
296
  8
0
  6
SLD-SOLID
 62
     7
 10
108.7473830984
 20
340.2348583261
 30
0.0
 11
109.1939634488
 21
339.8803000967
 31
0.0
  0
LINE
  5
297
  8
0
  6
SLD-SOLID
 62
     7
 10
104.4405526326
 20
340.2348583261
 30
0.0
 11
103.9939648317
 21
339.8803000967
 31
0.0
  0
LINE
  5
298
  8
0
  6
SLD-SOLID
 62
     7
 10
108.7473830984
 20
340.2348583261
 30
0.0
 11
104.4405526326
 21
340.2348583261
 31
0.0
  0
LINE
  5
299
  8
0
  6
SLD-SOLID
 62
     7
 10
122.2439682887
 20
341.0181527654
 30
0.0
 11
122.2439682887
 21
328.8181548635
 31
0.0
  0
LINE
  5
29A
  8
0
  6
SLD-SOLID
 62
     7
 10
122.7939626978
 20
341.0181527654
 30
0.0
 11
122.7939626978
 21
328.8181548635
 31
0.0
  0
LINE
  5
29B
  8
0
  6
SLD-SOLID
 62
     7
 10
394.2939615653
 20
488.6179392854
 30
0.0
 11
388.2939643071
 21
488.6179392854
 31
0.0
  0
LINE
  5
29C
  8
0
  6
SLD-SOLID
 62
     7
 10
379.7939694331
 20
488.6179392854
 30
0.0
 11
373.793972175
 21
488.6179392854
 31
0.0
  0
LINE
  5
29D
  8
0
  6
SLD-SOLID
 62
     7
 10
365.2939623998
 20
488.6179392854
 30
0.0
 11
359.2939651416
 21
488.6179392854
 31
0.0
  0
LINE
  5
29E
  8
0
  6
SLD-SOLID
 62
     7
 10
350.793962817
 20
488.6179392854
 30
0.0
 11
344.7939655588
 21
488.6179392854
 31
0.0
  0
LINE
  5
29F
  8
0
  6
SLD-SOLID
 62
     7
 10
336.2939632343
 20
488.6179392854
 30
0.0
 11
330.2939659761
 21
488.6179392854
 31
0.0
  0
LINE
  5
2A0
  8
0
  6
SLD-SOLID
 62
     7
 10
321.7939636515
 20
488.6179392854
 30
0.0
 11
315.7939663933
 21
488.6179392854
 31
0.0
  0
LINE
  5
2A1
  8
0
  6
SLD-SOLID
 62
     7
 10
307.2939640687
 20
488.6179392854
 30
0.0
 11
301.2939668105
 21
488.6179392854
 31
0.0
  0
LINE
  5
2A2
  8
0
  6
SLD-SOLID
 62
     7
 10
263.7939653204
 20
488.6179392854
 30
0.0
 11
257.7939661996
 21
488.6179392854
 31
0.0
  0
LINE
  5
2A3
  8
0
  6
SLD-SOLID
 62
     7
 10
249.2939657377
 20
488.6179392854
 30
0.0
 11
243.2939656855
 21
488.6179392854
 31
0.0
  0
LINE
  5
2A4
  8
0
  6
SLD-SOLID
 62
     7
 10
234.7939661549
 20
488.6179392854
 30
0.0
 11
228.7939661027
 21
488.6179392854
 31
0.0
  0
LINE
  5
2A5
  8
0
  6
SLD-SOLID
 62
     7
 10
220.2939665721
 20
488.6179392854
 30
0.0
 11
214.2939655886
 21
488.6179392854
 31
0.0
  0
LINE
  5
2A6
  8
0
  6
SLD-SOLID
 62
     7
 10
205.7939669893
 20
488.6179392854
 30
0.0
 11
199.7939660059
 21
488.6179392854
 31
0.0
  0
LINE
  5
2A7
  8
0
  6
SLD-SOLID
 62
     7
 10
191.2939674066
 20
488.6179392854
 30
0.0
 11
185.2939664231
 21
488.6179392854
 31
0.0
  0
LINE
  5
2A8
  8
0
  6
SLD-SOLID
 62
     7
 10
176.7939678238
 20
488.6179392854
 30
0.0
 11
170.7939668403
 21
488.6179392854
 31
0.0
  0
LINE
  5
2A9
  8
0
  6
SLD-SOLID
 62
     7
 10
162.293968241
 20
488.6179392854
 30
0.0
 11
156.2939635323
 21
488.6179392854
 31
0.0
  0
LINE
  5
2AA
  8
0
  6
SLD-SOLID
 62
     7
 10
147.7939686583
 20
488.6179392854
 30
0.0
 11
141.7939639495
 21
488.6179392854
 31
0.0
  0
LINE
  5
2AB
  8
0
  6
SLD-SOLID
 62
     7
 10
124.0939698027
 20
182.7250042627
 30
0.0
 11
123.9939681099
 21
182.7250042627
 31
0.0
  0
LINE
  5
2AC
  8
0
  6
SLD-SOLID
 62
     7
 10
415.6939661906
 20
181.9179331581
 30
0.0
 11
415.7939678834
 21
181.9179331581
 31
0.0
  0
LINE
  5
2AD
  8
0
  6
SLD-SOLID
 62
     7
 10
412.9896587537
 20
181.9179331581
 30
0.0
 11
415.6939661906
 21
181.9179331581
 31
0.0
  0
LINE
  5
2AE
  8
0
  6
SLD-SOLID
 62
     7
 10
424.5492941545
 20
503.6108618299
 30
0.0
 11
424.9939597057
 21
503.6108618299
 31
0.0
  0
POLYLINE
  5
2AF
  8
0
  6
SLD-SOLID
 62
     7
 66
     1
 10
0.0
 20
0.0
 30
0.0
  0
VERTEX
  5
3F9
  8
0
  6
SLD-SOLID
 62
     7
 10
457.5075483726
 20
264.11308103
 30
0.0
  0
VERTEX
  5
3FA
  8
0
  6
SLD-SOLID
 62
     7
 10
457.3266482757
 20
264.1100709955
 30
0.0
  0
VERTEX
  5
3FB
  8
0
  6
SLD-SOLID
 62
     7
 10
456.8057781862
 20
264.1014059703
 30
0.0
  0
VERTEX
  5
3FC
  8
0
  6
SLD-SOLID
 62
     7
 10
456.0077464984
 20
264.0881364862
 30
0.0
  0
VERTEX
  5
3FD
  8
0
  6
SLD-SOLID
 62
     7
 10
455.0288296149
 20
264.0718569676
 30
0.0
  0
VERTEX
  5
3FE
  8
0
  6
SLD-SOLID
 62
     7
 10
453.9870894359
 20
264.0545343677
 30
0.0
  0
VERTEX
  5
3FF
  8
0
  6
SLD-SOLID
 62
     7
 10
453.0081725524
 20
264.0382548491
 30
0.0
  0
VERTEX
  5
400
  8
0
  6
SLD-SOLID
 62
     7
 10
452.2101408647
 20
264.0249853651
 30
0.0
  0
VERTEX
  5
401
  8
0
  6
SLD-SOLID
 62
     7
 10
451.6892707751
 20
264.0163203398
 30
0.0
  0
VERTEX
  5
402
  8
0
  6
SLD-SOLID
 62
     7
 10
451.5083706783
 20
264.0133103053
 30
0.0
  0
SEQEND
  5
403
  8
0
  6
SLD-SOLID
 62
     7
  0
POLYLINE
  5
2B0
  8
0
  6
SLD-SOLID
 62
     7
 66
     1
 10
0.0
 20
0.0
 30
0.0
  0
VERTEX
  5
404
  8
0
  6
SLD-SOLID
 62
     7
 10
457.8400975869
 20
244.1158419172
 30
0.0
  0
VERTEX
  5
405
  8
0
  6
SLD-SOLID
 62
     7
 10
457.65919749
 20
244.1128356079
 30
0.0
  0
VERTEX
  5
406
  8
0
  6
SLD-SOLID
 62
     7
 10
457.1383274005
 20
244.104174308
 30
0.0
  0
VERTEX
  5
407
  8
0
  6
SLD-SOLID
 62
     7
 10
456.3403106139
 20
244.0909010986
 30
0.0
  0
VERTEX
  5
408
  8
0
  6
SLD-SOLID
 62
     7
 10
455.3613937305
 20
244.07462158
 30
0.0
  0
VERTEX
  5
409
  8
0
  6
SLD-SOLID
 62
     7
 10
454.3196386502
 20
244.0572989802
 30
0.0
  0
VERTEX
  5
40A
  8
0
  6
SLD-SOLID
 62
     7
 10
453.3407217668
 20
244.0410194615
 30
0.0
  0
VERTEX
  5
40B
  8
0
  6
SLD-SOLID
 62
     7
 10
452.5427049802
 20
244.0277462522
 30
0.0
  0
VERTEX
  5
40C
  8
0
  6
SLD-SOLID
 62
     7
 10
452.0218199895
 20
244.0190849523
 30
0.0
  0
VERTEX
  5
40D
  8
0
  6
SLD-SOLID
 62
     7
 10
451.8409347938
 20
244.016078643
 30
0.0
  0
SEQEND
  5
40E
  8
0
  6
SLD-SOLID
 62
     7
  0
POLYLINE
  5
2B1
  8
0
  6
SLD-SOLID
 62
     7
 66
     1
 10
0.0
 20
0.0
 30
0.0
  0
VERTEX
  5
40F
  8
0
  6
SLD-SOLID
 62
     7
 10
517.9427093671
 20
179.556544281
 30
0.0
  0
VERTEX
  5
410
  8
0
  6
SLD-SOLID
 62
     7
 10
517.9434842275
 20
179.557352669
 30
0.0
  0
VERTEX
  5
411
  8
0
  6
SLD-SOLID
 62
     7
 10
518.0880850957
 20
179.7068280796
 30
0.0
  0
VERTEX
  5
412
  8
0
  6
SLD-SOLID
 62
     7
 10
518.4808499025
 20
180.1129042799
 30
0.0
  0
VERTEX
  5
413
  8
0
  6
SLD-SOLID
 62
     7
 10
519.1178149389
 20
180.7714140671
 30
0.0
  0
VERTEX
  5
414
  8
0
  6
SLD-SOLID
 62
     7
 10
519.992423694
 20
181.6756016272
 30
0.0
  0
VERTEX
  5
415
  8
0
  6
SLD-SOLID
 62
     7
 10
521.0957056688
 20
182.816187262
 30
0.0
  0
VERTEX
  5
416
  8
0
  6
SLD-SOLID
 62
     7
 10
522.4163061784
 20
184.1814679722
 30
0.0
  0
VERTEX
  5
417
  8
0
  6
SLD-SOLID
 62
     7
 10
523.9407247709
 20
185.7574338722
 30
0.0
  0
VERTEX
  5
418
  8
0
  6
SLD-SOLID
 62
     7
 10
525.6532854245
 20
187.5279133604
 30
0.0
  0
VERTEX
  5
419
  8
0
  6
SLD-SOLID
 62
     7
 10
527.5364047693
 20
189.4747390109
 30
0.0
  0
VERTEX
  5
41A
  8
0
  6
SLD-SOLID
 62
     7
 10
529.5708007024
 20
191.5779336053
 30
0.0
  0
VERTEX
  5
41B
  8
0
  6
SLD-SOLID
 62
     7
 10
531.7355519937
 20
193.8159157219
 30
0.0
  0
VERTEX
  5
41C
  8
0
  6
SLD-SOLID
 62
     7
 10
534.0084857152
 20
196.1657203431
 30
0.0
  0
VERTEX
  5
41D
  8
0
  6
SLD-SOLID
 62
     7
 10
536.3662666486
 20
198.6032355274
 30
0.0
  0
VERTEX
  5
41E
  8
0
  6
SLD-SOLID
 62
     7
 10
538.7846655057
 20
201.10344921
 30
0.0
  0
VERTEX
  5
41F
  8
0
  6
SLD-SOLID
 62
     7
 10
541.2389165567
 20
203.6407053168
 30
0.0
  0
VERTEX
  5
420
  8
0
  6
SLD-SOLID
 62
     7
 10
543.7038070367
 20
206.188968725
 30
0.0
  0
VERTEX
  5
421
  8
0
  6
SLD-SOLID
 62
     7
 10
546.1540645765
 20
208.7220916222
 30
0.0
  0
VERTEX
  5
422
  8
0
  6
SLD-SOLID
 62
     7
 10
548.5645360158
 20
211.2140780012
 30
0.0
  0
VERTEX
  5
423
  8
0
  6
SLD-SOLID
 62
     7
 10
550.9104556249
 20
213.6393593321
 30
0.0
  0
VERTEX
  5
424
  8
0
  6
SLD-SOLID
 62
     7
 10
553.1678027318
 20
215.9730469505
 30
0.0
  0
VERTEX
  5
425
  8
0
  6
SLD-SOLID
 62
     7
 10
555.3133911298
 20
218.1911965529
 30
0.0
  0
VERTEX
  5
426
  8
0
  6
SLD-SOLID
 62
     7
 10
557.3251969026
 20
220.271044753
 30
0.0
  0
VERTEX
  5
427
  8
0
  6
SLD-SOLID
 62
     7
 10
559.1825670408
 20
222.1912493626
 30
0.0
  0
VERTEX
  5
428
  8
0
  6
SLD-SOLID
 62
     7
 10
560.8664578603
 20
223.9321073214
 30
0.0
  0
VERTEX
  5
429
  8
0
  6
SLD-SOLID
 62
     7
 10
562.3596138166
 20
225.4757558624
 30
0.0
  0
VERTEX
  5
42A
  8
0
  6
SLD-SOLID
 62
     7
 10
563.6466867135
 20
226.8063550512
 30
0.0
  0
VERTEX
  5
42B
  8
0
  6
SLD-SOLID
 62
     7
 10
564.7144741224
 20
227.9102516989
 30
0.0
  0
VERTEX
  5
42C
  8
0
  6
SLD-SOLID
 62
     7
 10
565.5520087884
 20
228.7761134724
 30
0.0
  0
VERTEX
  5
42D
  8
0
  6
SLD-SOLID
 62
     7
 10
566.1507076429
 20
229.3950630049
 30
0.0
  0
VERTEX
  5
42E
  8
0
  6
SLD-SOLID
 62
     7
 10
566.504401605
 20
229.7607412259
 30
0.0
  0
VERTEX
  5
42F
  8
0
  6
SLD-SOLID
 62
     7
 10
566.6102892564
 20
229.8702088813
 30
0.0
  0
SEQEND
  5
430
  8
0
  6
SLD-SOLID
 62
     7
  0
POLYLINE
  5
2B2
  8
0
  6
SLD-SOLID
 62
     7
 66
     1
 10
0.0
 20
0.0
 30
0.0
  0
VERTEX
  5
431
  8
0
  6
SLD-SOLID
 62
     7
 10
539.035392444
 20
186.9793630833
 30
0.0
  0
VERTEX
  5
432
  8
0
  6
SLD-SOLID
 62
     7
 10
539.0705889867
 20
187.015741358
 30
0.0
  0
VERTEX
  5
433
  8
0
  6
SLD-SOLID
 62
     7
 10
539.3230444597
 20
187.2767535899
 30
0.0
  0
VERTEX
  5
434
  8
0
  6
SLD-SOLID
 62
     7
 10
539.8132330583
 20
187.7835045382
 30
0.0
  0
VERTEX
  5
435
  8
0
  6
SLD-SOLID
 62
     7
 10
540.5296212838
 20
188.524116202
 30
0.0
  0
VERTEX
  5
436
  8
0
  6
SLD-SOLID
 62
     7
 10
541.4554006265
 20
189.4812293979
 30
0.0
  0
VERTEX
  5
437
  8
0
  6
SLD-SOLID
 62
     7
 10
542.5689346002
 20
190.632410224
 30
0.0
  0
VERTEX
  5
438
  8
0
  6
SLD-SOLID
 62
     7
 10
543.8440567659
 20
191.950675908
 30
0.0
  0
VERTEX
  5
439
  8
0
  6
SLD-SOLID
 62
     7
 10
545.2509349988
 20
193.405127495
 30
0.0
  0
VERTEX
  5
43A
  8
0
  6
SLD-SOLID
 62
     7
 10
546.7565483258
 20
194.9616739223
 30
0.0
  0
VERTEX
  5
43B
  8
0
  6
SLD-SOLID
 62
     7
 10
548.3256405996
 20
196.5838301624
 30
0.0
  0
VERTEX
  5
43C
  8
0
  6
SLD-SOLID
 62
     7
 10
549.9214059518
 20
198.2335759024
 30
0.0
  0
VERTEX
  5
43D
  8
0
  6
SLD-SOLID
 62
     7
 10
551.5064722703
 20
199.8722416977
 30
0.0
  0
VERTEX
  5
43E
  8
0
  6
SLD-SOLID
 62
     7
 10
553.0436462568
 20
201.4614179427
 30
0.0
  0
VERTEX
  5
43F
  8
0
  6
SLD-SOLID
 62
     7
 10
554.4969267057
 20
202.9638573224
 30
0.0
  0
VERTEX
  5
440
  8
0
  6
SLD-SOLID
 62
     7
 10
555.8322495626
 20
204.3443428049
 30
0.0
  0
VERTEX
  5
441
  8
0
  6
SLD-SOLID
 62
     7
 10
557.018322389
 20
205.5705165187
 30
0.0
  0
VERTEX
  5
442
  8
0
  6
SLD-SOLID
 62
     7
 10
558.0273098157
 20
206.6136387805
 30
0.0
  0
VERTEX
  5
443
  8
0
  6
SLD-SOLID
 62
     7
 10
558.8356084035
 20
207.4492586474
 30
0.0
  0
VERTEX
  5
444
  8
0
  6
SLD-SOLID
 62
     7
 10
559.424234073
 20
208.0577904055
 30
0.0
  0
VERTEX
  5
445
  8
0
  6
SLD-SOLID
 62
     7
 10
559.7793883489
 20
208.4249736438
 30
0.0
  0
VERTEX
  5
446
  8
0
  6
SLD-SOLID
 62
     7
 10
559.8929351972
 20
208.5423631291
 30
0.0
  0
SEQEND
  5
447
  8
0
  6
SLD-SOLID
 62
     7
  0
LINE
  5
2B3
  8
0
  6
SLD-SOLID
 62
     7
 10
454.4925964282
 20
184.6184687386
 30
0.0
 11
460.3646821187
 21
199.2997288401
 31
0.0
  0
LINE
  5
2B4
  8
0
  6
SLD-SOLID
 62
     7
 10
453.4248388217
 20
185.0555416825
 30
0.0
 11
454.4925964282
 21
184.6184687386
 31
0.0
  0
LINE
  5
2B5
  8
0
  6
SLD-SOLID
 62
     7
 10
453.4248388217
 20
185.0455418392
 30
0.0
 11
453.4248388217
 21
185.0555416825
 31
0.0
  0
LINE
  5
2B6
  8
0
  6
SLD-SOLID
 62
     7
 10
460.3646821187
 20
199.2997288401
 30
0.0
 11
424.9939597057
 21
217.0723447273
 31
0.0
  0
LINE
  5
2B7
  8
0
  6
SLD-SOLID
 62
     7
 10
453.4248388217
 20
182.9955418291
 30
0.0
 11
424.9939597057
 21
182.9955418291
 31
0.0
  0
LINE
  5
2B8
  8
0
  6
SLD-SOLID
 62
     7
 10
453.4248388217
 20
185.0455418392
 30
0.0
 11
453.4248388217
 21
182.9955418291
 31
0.0
  0
LINE
  5
2B9
  8
0
  6
SLD-SOLID
 62
     7
 10
454.5854455636
 20
184.5813320181
 30
0.0
 11
455.3282386468
 21
184.2842375557
 31
0.0
  0
LINE
  5
2BA
  8
0
  6
SLD-SOLID
 62
     7
 10
454.5854455636
 20
184.5813320181
 30
0.0
 11
460.4575312541
 21
199.2625923524
 31
0.0
  0
LINE
  5
2BB
  8
0
  6
SLD-SOLID
 62
     7
 10
460.4575312541
 20
199.2625923524
 30
0.0
 11
461.2003243373
 21
198.9654976572
 31
0.0
  0
LINE
  5
2BC
  8
0
  6
SLD-SOLID
 62
     7
 10
455.3282386468
 20
184.2842375557
 30
0.0
 11
461.2003243373
 21
198.9654976572
 31
0.0
  0
ARC
  5
2BD
  8
0
  6
SLD-SOLID
 62
     7
 10
453.4248399508
 20
185.0455417577
 30
0.0
 40
1.250000000000017
 50
270.0
 51
338.2
  0
ARC
  5
2BE
  8
0
  6
SLD-SOLID
 62
     7
 10
453.4248399508
 20
185.0455417577
 30
0.0
 40
2.05000000000002
 50
270.0
 51
338.2
  0
POLYLINE
  5
2BF
  8
0
  6
SLD-SOLID
 62
     7
 66
     1
 10
0.0
 20
0.0
 30
0.0
  0
VERTEX
  5
448
  8
0
  6
SLD-SOLID
 62
     7
 10
540.4729372667
 20
185.5888602952
 30
0.0
  0
VERTEX
  5
449
  8
0
  6
SLD-SOLID
 62
     7
 10
540.4744869874
 20
185.5904705519
 30
0.0
  0
VERTEX
  5
44A
  8
0
  6
SLD-SOLID
 62
     7
 10
540.6242138551
 20
185.7452484476
 30
0.0
  0
VERTEX
  5
44B
  8
0
  6
SLD-SOLID
 62
     7
 10
541.0148030923
 20
186.1490701488
 30
0.0
  0
VERTEX
  5
44C
  8
0
  6
SLD-SOLID
 62
     7
 10
541.6371649907
 20
186.7924701585
 30
0.0
  0
VERTEX
  5
44D
  8
0
  6
SLD-SOLID
 62
     7
 10
542.4766666101
 20
187.6603678031
 30
0.0
  0
VERTEX
  5
44E
  8
0
  6
SLD-SOLID
 62
     7
 10
543.5136384176
 20
188.7324202619
 30
0.0
  0
VERTEX
  5
44F
  8
0
  6
SLD-SOLID
 62
     7
 10
544.7237915204
 20
189.9834995786
 30
0.0
  0
VERTEX
  5
450
  8
0
  6
SLD-SOLID
 62
     7
 10
546.0787541078
 20
191.384281374
 30
0.0
  0
VERTEX
  5
451
  8
0
  6
SLD-SOLID
 62
     7
 10
547.546756904
 20
192.9019329766
 30
0.0
  0
VERTEX
  5
452
  8
0
  6
SLD-SOLID
 62
     7
 10
549.0933782266
 20
194.5008811238
 30
0.0
  0
VERTEX
  5
453
  8
0
  6
SLD-SOLID
 62
     7
 10
550.682408254
 20
196.1436484637
 30
0.0
  0
VERTEX
  5
454
  8
0
  6
SLD-SOLID
 62
     7
 10
552.2765642808
 20
197.7917294646
 30
0.0
  0
VERTEX
  5
455
  8
0
  6
SLD-SOLID
 62
     7
 10
553.8385039972
 20
199.40649566
 30
0.0
  0
VERTEX
  5
456
  8
0
  6
SLD-SOLID
 62
     7
 10
555.3316003488
 20
200.9500967036
 30
0.0
  0
VERTEX
  5
457
  8
0
  6
SLD-SOLID
 62
     7
 10
556.7208654092
 20
202.3863525758
 30
0.0
  0
VERTEX
  5
458
  8
0
  6
SLD-SOLID
 62
     7
 10
557.9737550424
 20
203.6815987597
 30
0.0
  0
VERTEX
  5
459
  8
0
  6
SLD-SOLID
 62
     7
 10
559.0608543561
 20
204.8054760019
 30
0.0
  0
VERTEX
  5
45A
  8
0
  6
SLD-SOLID
 62
     7
 10
559.9567121671
 20
205.7316409121
 30
0.0
  0
VERTEX
  5
45B
  8
0
  6
SLD-SOLID
 62
     7
 10
560.6403476403
 20
206.4383843611
 30
0.0
  0
VERTEX
  5
45C
  8
0
  6
SLD-SOLID
 62
     7
 10
561.0956973241
 20
206.9091437081
 30
0.0
  0
VERTEX
  5
45D
  8
0
  6
SLD-SOLID
 62
     7
 10
561.3121217893
 20
207.1328827808
 30
0.0
  0
VERTEX
  5
45E
  8
0
  6
SLD-SOLID
 62
     7
 10
561.3304800199
 20
207.1518594096
 30
0.0
  0
SEQEND
  5
45F
  8
0
  6
SLD-SOLID
 62
     7
  0
POLYLINE
  5
2C0
  8
0
  6
SLD-SOLID
 62
     7
 66
     1
 10
0.0
 20
0.0
 30
0.0
  0
VERTEX
  5
460
  8
0
  6
SLD-SOLID
 62
     7
 10
539.035392444
 20
186.9793630833
 30
0.0
  0
VERTEX
  5
461
  8
0
  6
SLD-SOLID
 62
     7
 10
539.0369421647
 20
186.9809732237
 30
0.0
  0
VERTEX
  5
462
  8
0
  6
SLD-SOLID
 62
     7
 10
539.1866690324
 20
187.1357513521
 30
0.0
  0
VERTEX
  5
463
  8
0
  6
SLD-SOLID
 62
     7
 10
539.5772880719
 20
187.5395729369
 30
0.0
  0
VERTEX
  5
464
  8
0
  6
SLD-SOLID
 62
     7
 10
540.199620168
 20
188.1829729612
 30
0.0
  0
VERTEX
  5
465
  8
0
  6
SLD-SOLID
 62
     7
 10
541.0391217874
 20
189.0508705913
 30
0.0
  0
VERTEX
  5
466
  8
0
  6
SLD-SOLID
 62
     7
 10
542.0761233972
 20
190.1229231082
 30
0.0
  0
VERTEX
  5
467
  8
0
  6
SLD-SOLID
 62
     7
 10
543.2862765001
 20
191.3740023668
 30
0.0
  0
VERTEX
  5
468
  8
0
  6
SLD-SOLID
 62
     7
 10
544.6412092851
 20
192.7747841621
 30
0.0
  0
VERTEX
  5
469
  8
0
  6
SLD-SOLID
 62
     7
 10
546.1092120813
 20
194.2924357648
 30
0.0
  0
VERTEX
  5
46A
  8
0
  6
SLD-SOLID
 62
     7
 10
547.6558632062
 20
195.8913839119
 30
0.0
  0
VERTEX
  5
46B
  8
0
  6
SLD-SOLID
 62
     7
 10
549.2448634313
 20
197.5341517175
 30
0.0
  0
VERTEX
  5
46C
  8
0
  6
SLD-SOLID
 62
     7
 10
550.8390492604
 20
199.1822322528
 30
0.0
  0
VERTEX
  5
46D
  8
0
  6
SLD-SOLID
 62
     7
 10
552.4009591745
 20
200.7969984482
 30
0.0
  0
VERTEX
  5
46E
  8
0
  6
SLD-SOLID
 62
     7
 10
553.8940853284
 20
202.3405994917
 30
0.0
  0
VERTEX
  5
46F
  8
0
  6
SLD-SOLID
 62
     7
 10
555.2833503888
 20
203.7768553639
 30
0.0
  0
VERTEX
  5
470
  8
0
  6
SLD-SOLID
 62
     7
 10
556.5362102197
 20
205.0721006165
 30
0.0
  0
VERTEX
  5
471
  8
0
  6
SLD-SOLID
 62
     7
 10
557.6233095334
 20
206.1959778587
 30
0.0
  0
VERTEX
  5
472
  8
0
  6
SLD-SOLID
 62
     7
 10
558.5191971467
 20
207.1221427689
 30
0.0
  0
VERTEX
  5
473
  8
0
  6
SLD-SOLID
 62
     7
 10
559.2028028177
 20
207.8288880805
 30
0.0
  0
VERTEX
  5
474
  8
0
  6
SLD-SOLID
 62
     7
 10
559.6581525014
 20
208.2996474276
 30
0.0
  0
VERTEX
  5
475
  8
0
  6
SLD-SOLID
 62
     7
 10
559.8745769666
 20
208.5233846376
 30
0.0
  0
VERTEX
  5
476
  8
0
  6
SLD-SOLID
 62
     7
 10
559.8929351972
 20
208.5423631291
 30
0.0
  0
SEQEND
  5
477
  8
0
  6
SLD-SOLID
 62
     7
  0
POLYLINE
  5
2C1
  8
0
  6
SLD-SOLID
 62
     7
 66
     1
 10
0.0
 20
0.0
 30
0.0
  0
VERTEX
  5
478
  8
0
  6
SLD-SOLID
 62
     7
 10
540.5750698255
 20
185.5632649897
 30
0.0
  0
VERTEX
  5
479
  8
0
  6
SLD-SOLID
 62
     7
 10
540.5766195462
 20
185.5648694257
 30
0.0
  0
VERTEX
  5
47A
  8
0
  6
SLD-SOLID
 62
     7
 10
540.7258099721
 20
185.7191045931
 30
0.0
  0
VERTEX
  5
47B
  8
0
  6
SLD-SOLID
 62
     7
 10
541.1150581048
 20
186.1215097527
 30
0.0
  0
VERTEX
  5
47C
  8
0
  6
SLD-SOLID
 62
     7
 10
541.7352146314
 20
186.762652935
 30
0.0
  0
VERTEX
  5
47D
  8
0
  6
SLD-SOLID
 62
     7
 10
542.5717658208
 20
187.6275062607
 30
0.0
  0
VERTEX
  5
47E
  8
0
  6
SLD-SOLID
 62
     7
 10
543.6051315473
 20
188.6957983882
 30
0.0
  0
VERTEX
  5
47F
  8
0
  6
SLD-SOLID
 62
     7
 10
544.8110229181
 20
189.9424893711
 30
0.0
  0
VERTEX
  5
480
  8
0
  6
SLD-SOLID
 62
     7
 10
546.1612171338
 20
191.3383578579
 30
0.0
  0
VERTEX
  5
481
  8
0
  6
SLD-SOLID
 62
     7
 10
547.6240641282
 20
192.8506860206
 30
0.0
  0
VERTEX
  5
482
  8
0
  6
SLD-SOLID
 62
     7
 10
549.1652912305
 20
194.4440257433
 30
0.0
  0
VERTEX
  5
483
  8
0
  6
SLD-SOLID
 62
     7
 10
550.7487482236
 20
196.0810309904
 30
0.0
  0
VERTEX
  5
484
  8
0
  6
SLD-SOLID
 62
     7
 10
552.3373014138
 20
197.7233312721
 30
0.0
  0
VERTEX
  5
485
  8
0
  6
SLD-SOLID
 62
     7
 10
553.8937575029
 20
199.3324331636
 30
0.0
  0
VERTEX
  5
486
  8
0
  6
SLD-SOLID
 62
     7
 10
555.3816384481
 20
200.8706194977
 30
0.0
  0
VERTEX
  5
487
  8
0
  6
SLD-SOLID
 62
     7
 10
556.7660159276
 20
202.3018378461
 30
0.0
  0
VERTEX
  5
488
  8
0
  6
SLD-SOLID
 62
     7
 10
558.0144948171
 20
203.5925410385
 30
0.0
  0
VERTEX
  5
489
  8
0
  6
SLD-SOLID
 62
     7
 10
559.0977794336
 20
204.7124759922
 30
0.0
  0
VERTEX
  5
48A
  8
0
  6
SLD-SOLID
 62
     7
 10
559.9905080007
 20
205.6353924493
 30
0.0
  0
VERTEX
  5
48B
  8
0
  6
SLD-SOLID
 62
     7
 10
560.6717294858
 20
206.3396567176
 30
0.0
  0
VERTEX
  5
48C
  8
0
  6
SLD-SOLID
 62
     7
 10
561.1254996465
 20
206.8087638984
 30
0.0
  0
VERTEX
  5
48D
  8
0
  6
SLD-SOLID
 62
     7
 10
561.3411492513
 20
207.0317187975
 30
0.0
  0
VERTEX
  5
48E
  8
0
  6
SLD-SOLID
 62
     7
 10
561.3594478772
 20
207.050628371
 30
0.0
  0
SEQEND
  5
48F
  8
0
  6
SLD-SOLID
 62
     7
  0
POLYLINE
  5
2C2
  8
0
  6
SLD-SOLID
 62
     7
 66
     1
 10
0.0
 20
0.0
 30
0.0
  0
VERTEX
  5
490
  8
0
  6
SLD-SOLID
 62
     7
 10
621.8193298982
 20
114.3471127073
 30
0.0
  0
VERTEX
  5
491
  8
0
  6
SLD-SOLID
 62
     7
 10
621.8237704442
 20
114.3517171661
 30
0.0
  0
VERTEX
  5
492
  8
0
  6
SLD-SOLID
 62
     7
 10
622.0002895997
 20
114.5341967861
 30
0.0
  0
VERTEX
  5
493
  8
0
  6
SLD-SOLID
 62
     7
 10
622.4276847051
 20
114.9760460178
 30
0.0
  0
VERTEX
  5
494
  8
0
  6
SLD-SOLID
 62
     7
 10
623.0895048784
 20
115.6602700869
 30
0.0
  0
VERTEX
  5
495
  8
0
  6
SLD-SOLID
 62
     7
 10
623.9603883432
 20
116.5605758945
 30
0.0
  0
VERTEX
  5
496
  8
0
  6
SLD-SOLID
 62
     7
 10
625.0067776845
 20
117.6423778454
 30
0.0
  0
VERTEX
  5
497
  8
0
  6
SLD-SOLID
 62
     7
 10
626.1885291742
 20
118.8640942494
 30
0.0
  0
VERTEX
  5
498
  8
0
  6
SLD-SOLID
 62
     7
 10
627.4601942704
 20
120.1787715475
 30
0.0
  0
VERTEX
  5
499
  8
0
  6
SLD-SOLID
 62
     7
 10
628.772926967
 20
121.5358948032
 30
0.0
  0
VERTEX
  5
49A
  8
0
  6
SLD-SOLID
 62
     7
 10
630.0762421296
 20
122.8833099524
 30
0.0
  0
VERTEX
  5
49B
  8
0
  6
SLD-SOLID
 62
     7
 10
631.3201016591
 20
124.1692280094
 30
0.0
  0
VERTEX
  5
49C
  8
0
  6
SLD-SOLID
 62
     7
 10
632.456672828
 20
125.3442441742
 30
0.0
  0
VERTEX
  5
49D
  8
0
  6
SLD-SOLID
 62
     7
 10
633.442295234
 20
126.3631930272
 30
0.0
  0
VERTEX
  5
49E
  8
0
  6
SLD-SOLID
 62
     7
 10
634.2390603231
 20
127.1869217674
 30
0.0
  0
VERTEX
  5
49F
  8
0
  6
SLD-SOLID
 62
     7
 10
634.8163909124
 20
127.7837728778
 30
0.0
  0
VERTEX
  5
4A0
  8
0
  6
SLD-SOLID
 62
     7
 10
635.1520842717
 20
128.1308134715
 30
0.0
  0
VERTEX
  5
4A1
  8
0
  6
SLD-SOLID
 62
     7
 10
635.2376765416
 20
128.2193077425
 30
0.0
  0
SEQEND
  5
4A2
  8
0
  6
SLD-SOLID
 62
     7
  0
LINE
  5
2C3
  8
0
  6
SLD-SOLID
 62
     7
 10
424.9939597057
 20
263.5409136931
 30
0.0
 11
426.512358229
 21
263.5661637107
 31
0.0
  0
LINE
  5
2C4
  8
0
  6
SLD-SOLID
 62
     7
 10
426.512358229
 20
263.5661637107
 30
0.0
 11
426.5055931018
 21
263.3771722833
 31
0.0
  0
LINE
  5
2C5
  8
0
  6
SLD-SOLID
 62
     7
 10
426.512358229
 20
263.5661637107
 30
0.0
 11
426.4993197129
 21
263.7548273126
 31
0.0
  0
LINE
  5
2C6
  8
0
  6
SLD-SOLID
 62
     7
 10
424.9939597057
 20
265.7769744913
 30
0.0
 11
426.4433211492
 21
264.5651524583
 31
0.0
  0
POLYLINE
  5
2C7
  8
0
  6
SLD-SOLID
 62
     7
 66
     1
 10
0.0
 20
0.0
 30
0.0
  0
VERTEX
  5
4A3
  8
0
  6
SLD-SOLID
 62
     7
 10
426.4433211492
 20
264.5651524583
 30
0.0
  0
VERTEX
  5
4A4
  8
0
  6
SLD-SOLID
 62
     7
 10
426.4450496839
 20
264.5400961558
 30
0.0
  0
VERTEX
  5
4A5
  8
0
  6
SLD-SOLID
 62
     7
 10
426.4501905845
 20
264.465836219
 30
0.0
  0
VERTEX
  5
4A6
  8
0
  6
SLD-SOLID
 62
     7
 10
426.4585352348
 20
264.3450623075
 30
0.0
  0
VERTEX
  5
4A7
  8
0
  6
SLD-SOLID
 62
     7
 10
426.4697856115
 20
264.1821553628
 30
0.0
  0
VERTEX
  5
4A8
  8
0
  6
SLD-SOLID
 62
     7
 10
426.4835542844
 20
263.9830013434
 30
0.0
  0
VERTEX
  5
4A9
  8
0
  6
SLD-SOLID
 62
     7
 10
426.4993197129
 20
263.7548273126
 30
0.0
  0
SEQEND
  5
4AA
  8
0
  6
SLD-SOLID
 62
     7
  0
LINE
  5
2C8
  8
0
  6
SLD-SOLID
 62
     7
 10
426.476580541
 20
262.5654315273
 30
0.0
 11
424.9939597057
 21
261.2396007101
 31
0.0
  0
POLYLINE
  5
2C9
  8
0
  6
SLD-SOLID
 62
     7
 66
     1
 10
0.0
 20
0.0
 30
0.0
  0
VERTEX
  5
4AB
  8
0
  6
SLD-SOLID
 62
     7
 10
426.5055931018
 20
263.3771722833
 30
0.0
  0
VERTEX
  5
4AC
  8
0
  6
SLD-SOLID
 62
     7
 10
426.4974272655
 20
263.1485959212
 30
0.0
  0
VERTEX
  5
4AD
  8
0
  6
SLD-SOLID
 62
     7
 10
426.4902896093
 20
262.9490991751
 30
0.0
  0
VERTEX
  5
4AE
  8
0
  6
SLD-SOLID
 62
     7
 10
426.4844632552
 20
262.7859016577
 30
0.0
  0
VERTEX
  5
4AF
  8
0
  6
SLD-SOLID
 62
     7
 10
426.4801419185
 20
262.66491913
 30
0.0
  0
VERTEX
  5
4B0
  8
0
  6
SLD-SOLID
 62
     7
 10
426.4774746106
 20
262.5905325333
 30
0.0
  0
VERTEX
  5
4B1
  8
0
  6
SLD-SOLID
 62
     7
 10
426.476580541
 20
262.5654315273
 30
0.0
  0
SEQEND
  5
4B2
  8
0
  6
SLD-SOLID
 62
     7
  0
LINE
  5
2CA
  8
0
  6
SLD-SOLID
 62
     7
 10
434.5977133916
 20
258.4999030153
 30
0.0
 11
474.5921767162
 21
259.1650163452
 31
0.0
  0
LINE
  5
2CB
  8
0
  6
SLD-SOLID
 62
     7
 10
434.6110201286
 20
257.700016133
 30
0.0
 11
474.6054834531
 21
258.3651294629
 31
0.0
  0
LINE
  5
2CC
  8
0
  6
SLD-SOLID
 62
     7
 10
479.5914864944
 20
259.2481573741
 30
0.0
 11
479.6047932313
 21
258.4482630412
 31
0.0
  0
POLYLINE
  5
2CD
  8
0
  6
SLD-SOLID
 62
     7
 66
     1
 10
0.0
 20
0.0
 30
0.0
  0
VERTEX
  5
4B3
  8
0
  6
SLD-SOLID
 62
     7
 10
474.6054834531
 20
258.3651294629
 30
0.0
  0
VERTEX
  5
4B4
  8
0
  6
SLD-SOLID
 62
     7
 10
475.5807942556
 20
258.3813493768
 30
0.0
  0
VERTEX
  5
4B5
  8
0
  6
SLD-SOLID
 62
     7
 10
476.5186435388
 20
258.396943442
 30
0.0
  0
VERTEX
  5
4B6
  8
0
  6
SLD-SOLID
 62
     7
 10
477.3829555915
 20
258.411315612
 30
0.0
  0
VERTEX
  5
4B7
  8
0
  6
SLD-SOLID
 62
     7
 10
478.1405306266
 20
258.4239145438
 30
0.0
  0
VERTEX
  5
4B8
  8
0
  6
SLD-SOLID
 62
     7
 10
478.7622517751
 20
258.4342559497
 30
0.0
  0
VERTEX
  5
4B9
  8
0
  6
SLD-SOLID
 62
     7
 10
479.2242473767
 20
258.4419374982
 30
0.0
  0
VERTEX
  5
4BA
  8
0
  6
SLD-SOLID
 62
     7
 10
479.5087254451
 20
258.4466686169
 30
0.0
  0
VERTEX
  5
4BB
  8
0
  6
SLD-SOLID
 62
     7
 10
479.6047932313
 20
258.4482630412
 30
0.0
  0
SEQEND
  5
4BC
  8
0
  6
SLD-SOLID
 62
     7
  0
POLYLINE
  5
2CE
  8
0
  6
SLD-SOLID
 62
     7
 66
     1
 10
0.0
 20
0.0
 30
0.0
  0
VERTEX
  5
4BD
  8
0
  6
SLD-SOLID
 62
     7
 10
474.5921767162
 20
259.1650163452
 30
0.0
  0
VERTEX
  5
4BE
  8
0
  6
SLD-SOLID
 62
     7
 10
475.5675024198
 20
259.1812362591
 30
0.0
  0
VERTEX
  5
4BF
  8
0
  6
SLD-SOLID
 62
     7
 10
476.5053368018
 20
259.1968303243
 30
0.0
  0
VERTEX
  5
4C0
  8
0
  6
SLD-SOLID
 62
     7
 10
477.3696488546
 20
259.2112099449
 30
0.0
  0
VERTEX
  5
4C1
  8
0
  6
SLD-SOLID
 62
     7
 10
478.1272238897
 20
259.2238014261
 30
0.0
  0
VERTEX
  5
4C2
  8
0
  6
SLD-SOLID
 62
     7
 10
478.7489599393
 20
259.234142832
 30
0.0
  0
VERTEX
  5
4C3
  8
0
  6
SLD-SOLID
 62
     7
 10
479.2109406398
 20
259.2418243806
 30
0.0
  0
VERTEX
  5
4C4
  8
0
  6
SLD-SOLID
 62
     7
 10
479.4954336093
 20
259.2465554992
 30
0.0
  0
VERTEX
  5
4C5
  8
0
  6
SLD-SOLID
 62
     7
 10
479.5914864944
 20
259.2481573741
 30
0.0
  0
SEQEND
  5
4C6
  8
0
  6
SLD-SOLID
 62
     7
  0
LINE
  5
2CF
  8
0
  6
SLD-SOLID
 62
     7
 10
429.5984036134
 20
258.416769437
 30
0.0
 11
429.6117103503
 21
257.6168751041
 31
0.0
  0
POLYLINE
  5
2D0
  8
0
  6
SLD-SOLID
 62
     7
 66
     1
 10
0.0
 20
0.0
 30
0.0
  0
VERTEX
  5
4C7
  8
0
  6
SLD-SOLID
 62
     7
 10
429.6117103503
 20
257.6168751041
 30
0.0
  0
VERTEX
  5
4C8
  8
0
  6
SLD-SOLID
 62
     7
 10
429.7077632354
 20
257.6184769789
 30
0.0
  0
VERTEX
  5
4C9
  8
0
  6
SLD-SOLID
 62
     7
 10
429.9922562049
 20
257.6232080976
 30
0.0
  0
VERTEX
  5
4CA
  8
0
  6
SLD-SOLID
 62
     7
 10
430.4542369054
 20
257.6308896462
 30
0.0
  0
VERTEX
  5
4CB
  8
0
  6
SLD-SOLID
 62
     7
 10
431.0759729551
 20
257.6412310521
 30
0.0
  0
VERTEX
  5
4CC
  8
0
  6
SLD-SOLID
 62
     7
 10
431.8335479902
 20
257.6538225333
 30
0.0
  0
VERTEX
  5
4CD
  8
0
  6
SLD-SOLID
 62
     7
 10
432.6978600429
 20
257.6682021538
 30
0.0
  0
VERTEX
  5
4CE
  8
0
  6
SLD-SOLID
 62
     7
 10
433.6356944249
 20
257.683796219
 30
0.0
  0
VERTEX
  5
4CF
  8
0
  6
SLD-SOLID
 62
     7
 10
434.6110201286
 20
257.700016133
 30
0.0
  0
SEQEND
  5
4D0
  8
0
  6
SLD-SOLID
 62
     7
  0
POLYLINE
  5
2D1
  8
0
  6
SLD-SOLID
 62
     7
 66
     1
 10
0.0
 20
0.0
 30
0.0
  0
VERTEX
  5
4D1
  8
0
  6
SLD-SOLID
 62
     7
 10
429.5984036134
 20
258.416769437
 30
0.0
  0
VERTEX
  5
4D2
  8
0
  6
SLD-SOLID
 62
     7
 10
429.6944564985
 20
258.4183638612
 30
0.0
  0
VERTEX
  5
4D3
  8
0
  6
SLD-SOLID
 62
     7
 10
429.978949468
 20
258.4230949799
 30
0.0
  0
VERTEX
  5
4D4
  8
0
  6
SLD-SOLID
 62
     7
 10
430.4409450696
 20
258.4307765285
 30
0.0
  0
VERTEX
  5
4D5
  8
0
  6
SLD-SOLID
 62
     7
 10
431.0626662181
 20
258.4411179344
 30
0.0
  0
VERTEX
  5
4D6
  8
0
  6
SLD-SOLID
 62
     7
 10
431.8202412532
 20
258.4537168662
 30
0.0
  0
VERTEX
  5
4D7
  8
0
  6
SLD-SOLID
 62
     7
 10
432.6845533059
 20
258.4680890361
 30
0.0
  0
VERTEX
  5
4D8
  8
0
  6
SLD-SOLID
 62
     7
 10
433.6224025892
 20
258.4836831013
 30
0.0
  0
VERTEX
  5
4D9
  8
0
  6
SLD-SOLID
 62
     7
 10
434.5977133916
 20
258.4999030153
 30
0.0
  0
SEQEND
  5
4DA
  8
0
  6
SLD-SOLID
 62
     7
  0
POLYLINE
  5
2D2
  8
0
  6
SLD-SOLID
 62
     7
 66
     1
 10
0.0
 20
0.0
 30
0.0
  0
VERTEX
  5
4DB
  8
0
  6
SLD-SOLID
 62
     7
 10
429.6117103503
 20
257.6168751041
 30
0.0
  0
VERTEX
  5
4DC
  8
0
  6
SLD-SOLID
 62
     7
 10
429.6120977805
 20
257.5928618828
 30
0.0
  0
VERTEX
  5
4DD
  8
0
  6
SLD-SOLID
 62
     7
 10
429.6132898734
 20
257.5217386405
 30
0.0
  0
VERTEX
  5
4DE
  8
0
  6
SLD-SOLID
 62
     7
 10
429.6152121232
 20
257.4062397401
 30
0.0
  0
VERTEX
  5
4DF
  8
0
  6
SLD-SOLID
 62
     7
 10
429.6177900241
 20
257.2508131782
 30
0.0
  0
VERTEX
  5
4E0
  8
0
  6
SLD-SOLID
 62
     7
 10
429.6209490703
 20
257.0614194194
 30
0.0
  0
VERTEX
  5
4E1
  8
0
  6
SLD-SOLID
 62
     7
 10
429.6245402501
 20
256.845337681
 30
0.0
  0
VERTEX
  5
4E2
  8
0
  6
SLD-SOLID
 62
     7
 10
429.6284294532
 20
256.6108753602
 30
0.0
  0
VERTEX
  5
4E3
  8
0
  6
SLD-SOLID
 62
     7
 10
429.6324974702
 20
256.3670476596
 30
0.0
  0
SEQEND
  5
4E4
  8
0
  6
SLD-SOLID
 62
     7
  0
POLYLINE
  5
2D3
  8
0
  6
SLD-SOLID
 62
     7
 66
     1
 10
0.0
 20
0.0
 30
0.0
  0
VERTEX
  5
4E5
  8
0
  6
SLD-SOLID
 62
     7
 10
479.6255803512
 20
257.1984355966
 30
0.0
  0
VERTEX
  5
4E6
  8
0
  6
SLD-SOLID
 62
     7
 10
479.6215272353
 20
257.4422707478
 30
0.0
  0
VERTEX
  5
4E7
  8
0
  6
SLD-SOLID
 62
     7
 10
479.6176231311
 20
257.676725618
 30
0.0
  0
VERTEX
  5
4E8
  8
0
  6
SLD-SOLID
 62
     7
 10
479.6140319513
 20
257.8928073565
 30
0.0
  0
VERTEX
  5
4E9
  8
0
  6
SLD-SOLID
 62
     7
 10
479.6108878062
 20
258.0822011153
 30
0.0
  0
VERTEX
  5
4EA
  8
0
  6
SLD-SOLID
 62
     7
 10
479.6082950042
 20
258.2376351277
 30
0.0
  0
VERTEX
  5
4EB
  8
0
  6
SLD-SOLID
 62
     7
 10
479.6063727544
 20
258.3531265775
 30
0.0
  0
VERTEX
  5
4EC
  8
0
  6
SLD-SOLID
 62
     7
 10
479.6051955627
 20
258.4242498199
 30
0.0
  0
VERTEX
  5
4ED
  8
0
  6
SLD-SOLID
 62
     7
 10
479.6047932313
 20
258.4482630412
 30
0.0
  0
SEQEND
  5
4EE
  8
0
  6
SLD-SOLID
 62
     7
  0
LINE
  5
2D4
  8
0
  6
SLD-SOLID
 62
     7
 10
429.6324974702
 20
256.3670476596
 30
0.0
 11
429.8104024337
 21
245.6685280124
 31
0.0
  0
LINE
  5
2D5
  8
0
  6
SLD-SOLID
 62
     7
 10
460.7061422275
 20
246.182327501
 30
0.0
 11
460.6770402597
 21
247.9320851783
 31
0.0
  0
ARC
  5
2D6
  8
0
  6
SLD-SOLID
 62
     7
 10
454.777852648
 20
247.8339816968
 30
0.0
 40
5.900000000000076
 50
0.9527506954
 51
180.9527461219
  0
LINE
  5
2D7
  8
0
  6
SLD-SOLID
 62
     7
 10
448.8786733554
 20
247.7358778636
 30
0.0
 11
448.9077604221
 21
245.9861201862
 31
0.0
  0
LINE
  5
2D8
  8
0
  6
SLD-SOLID
 62
     7
 10
479.8035002158
 20
246.4999196748
 30
0.0
 11
479.6255803512
 21
257.1984355966
 31
0.0
  0
LINE
  5
2D9
  8
0
  6
SLD-SOLID
 62
     7
 10
448.9418542789
 20
243.9364021341
 30
0.0
 11
429.8444962905
 21
243.6188136856
 31
0.0
  0
POLYLINE
  5
2DA
  8
0
  6
SLD-SOLID
 62
     7
 66
     1
 10
0.0
 20
0.0
 30
0.0
  0
VERTEX
  5
4EF
  8
0
  6
SLD-SOLID
 62
     7
 10
429.8444962905
 20
243.6188136856
 30
0.0
  0
VERTEX
  5
4F0
  8
0
  6
SLD-SOLID
 62
     7
 10
429.8438406394
 20
243.6581974546
 30
0.0
  0
VERTEX
  5
4F1
  8
0
  6
SLD-SOLID
 62
     7
 10
429.8419034885
 20
243.7748362939
 30
0.0
  0
VERTEX
  5
4F2
  8
0
  6
SLD-SOLID
 62
     7
 10
429.8387444423
 20
243.9642524044
 30
0.0
  0
VERTEX
  5
4F3
  8
0
  6
SLD-SOLID
 62
     7
 10
429.8345125125
 20
244.2191591183
 30
0.0
  0
VERTEX
  5
4F4
  8
0
  6
SLD-SOLID
 62
     7
 10
429.8293418096
 20
244.5297663728
 30
0.0
  0
VERTEX
  5
4F5
  8
0
  6
SLD-SOLID
 62
     7
 10
429.8234558509
 20
244.8841346125
 30
0.0
  0
VERTEX
  5
4F6
  8
0
  6
SLD-SOLID
 62
     7
 10
429.8170632528
 20
245.2686479012
 30
0.0
  0
VERTEX
  5
4F7
  8
0
  6
SLD-SOLID
 62
     7
 10
429.8104024337
 20
245.6685280124
 30
0.0
  0
SEQEND
  5
4F8
  8
0
  6
SLD-SOLID
 62
     7
  0
POLYLINE
  5
2DB
  8
0
  6
SLD-SOLID
 62
     7
 66
     1
 10
0.0
 20
0.0
 30
0.0
  0
VERTEX
  5
4F9
  8
0
  6
SLD-SOLID
 62
     7
 10
448.9077604221
 20
245.9861201862
 30
0.0
  0
VERTEX
  5
4FA
  8
0
  6
SLD-SOLID
 62
     7
 10
448.9144212411
 20
245.586240075
 30
0.0
  0
VERTEX
  5
4FB
  8
0
  6
SLD-SOLID
 62
     7
 10
448.9208138393
 20
245.2017267863
 30
0.0
  0
VERTEX
  5
4FC
  8
0
  6
SLD-SOLID
 62
     7
 10
448.9266997979
 20
244.8473585467
 30
0.0
  0
VERTEX
  5
4FD
  8
0
  6
SLD-SOLID
 62
     7
 10
448.9318705009
 20
244.5367512921
 30
0.0
  0
VERTEX
  5
4FE
  8
0
  6
SLD-SOLID
 62
     7
 10
448.9361024307
 20
244.2818408529
 30
0.0
  0
VERTEX
  5
4FF
  8
0
  6
SLD-SOLID
 62
     7
 10
448.9392614768
 20
244.0924284677
 30
0.0
  0
VERTEX
  5
500
  8
0
  6
SLD-SOLID
 62
     7
 10
448.9411986278
 20
243.9757896284
 30
0.0
  0
VERTEX
  5
501
  8
0
  6
SLD-SOLID
 62
     7
 10
448.9418542789
 20
243.9364021341
 30
0.0
  0
SEQEND
  5
502
  8
0
  6
SLD-SOLID
 62
     7
  0
POLYLINE
  5
2DC
  8
0
  6
SLD-SOLID
 62
     7
 66
     1
 10
0.0
 20
0.0
 30
0.0
  0
VERTEX
  5
503
  8
0
  6
SLD-SOLID
 62
     7
 10
479.8035002158
 20
246.4999196748
 30
0.0
  0
VERTEX
  5
504
  8
0
  6
SLD-SOLID
 62
     7
 10
479.8101461337
 20
246.1000395636
 30
0.0
  0
VERTEX
  5
505
  8
0
  6
SLD-SOLID
 62
     7
 10
479.8165387319
 20
245.7155262748
 30
0.0
  0
VERTEX
  5
506
  8
0
  6
SLD-SOLID
 62
     7
 10
479.8224395917
 20
245.3611580352
 30
0.0
  0
VERTEX
  5
507
  8
0
  6
SLD-SOLID
 62
     7
 10
479.8275953935
 20
245.0505507807
 30
0.0
  0
VERTEX
  5
508
  8
0
  6
SLD-SOLID
 62
     7
 10
479.8318422244
 20
244.7956403414
 30
0.0
  0
VERTEX
  5
509
  8
0
  6
SLD-SOLID
 62
     7
 10
479.8349863694
 20
244.6062279562
 30
0.0
  0
VERTEX
  5
50A
  8
0
  6
SLD-SOLID
 62
     7
 10
479.8369235204
 20
244.4895853917
 30
0.0
  0
VERTEX
  5
50B
  8
0
  6
SLD-SOLID
 62
     7
 10
479.8375791715
 20
244.4502016226
 30
0.0
  0
SEQEND
  5
50C
  8
0
  6
SLD-SOLID
 62
     7
  0
LINE
  5
2DD
  8
0
  6
SLD-SOLID
 62
     7
 10
479.8375791715
 20
244.4502016226
 30
0.0
 11
460.7402211831
 21
244.1326094488
 31
0.0
  0
POLYLINE
  5
2DE
  8
0
  6
SLD-SOLID
 62
     7
 66
     1
 10
0.0
 20
0.0
 30
0.0
  0
VERTEX
  5
50D
  8
0
  6
SLD-SOLID
 62
     7
 10
460.7402211831
 20
244.1326094488
 30
0.0
  0
VERTEX
  5
50E
  8
0
  6
SLD-SOLID
 62
     7
 10
460.739565532
 20
244.1719969432
 30
0.0
  0
VERTEX
  5
50F
  8
0
  6
SLD-SOLID
 62
     7
 10
460.7376283811
 20
244.2886357824
 30
0.0
  0
VERTEX
  5
510
  8
0
  6
SLD-SOLID
 62
     7
 10
460.7344842361
 20
244.4780518929
 30
0.0
  0
VERTEX
  5
511
  8
0
  6
SLD-SOLID
 62
     7
 10
460.7302374051
 20
244.7329586069
 30
0.0
  0
VERTEX
  5
512
  8
0
  6
SLD-SOLID
 62
     7
 10
460.7250667022
 20
245.0435658614
 30
0.0
  0
VERTEX
  5
513
  8
0
  6
SLD-SOLID
 62
     7
 10
460.7191807435
 20
245.397934101
 30
0.0
  0
VERTEX
  5
514
  8
0
  6
SLD-SOLID
 62
     7
 10
460.7127881454
 20
245.7824473898
 30
0.0
  0
VERTEX
  5
515
  8
0
  6
SLD-SOLID
 62
     7
 10
460.7061422275
 20
246.182327501
 30
0.0
  0
SEQEND
  5
516
  8
0
  6
SLD-SOLID
 62
     7
  0
POLYLINE
  5
2DF
  8
0
  6
SLD-SOLID
 62
     7
 66
     1
 10
0.0
 20
0.0
 30
0.0
  0
VERTEX
  5
517
  8
0
  6
SLD-SOLID
 62
     7
 10
460.7269144462
 20
244.9325000564
 30
0.0
  0
VERTEX
  5
518
  8
0
  6
SLD-SOLID
 62
     7
 10
460.5259126828
 20
244.929158471
 30
0.0
  0
VERTEX
  5
519
  8
0
  6
SLD-SOLID
 62
     7
 10
459.9365866588
 20
244.9193572322
 30
0.0
  0
VERTEX
  5
51A
  8
0
  6
SLD-SOLID
 62
     7
 10
458.9990950034
 20
244.9037668924
 30
0.0
  0
VERTEX
  5
51B
  8
0
  6
SLD-SOLID
 62
     7
 10
457.8273272918
 20
244.8842798988
 30
0.0
  0
SEQEND
  5
51C
  8
0
  6
SLD-SOLID
 62
     7
  0
POLYLINE
  5
2E0
  8
0
  6
SLD-SOLID
 62
     7
 66
     1
 10
0.0
 20
0.0
 30
0.0
  0
VERTEX
  5
51D
  8
0
  6
SLD-SOLID
 62
     7
 10
451.8281495975
 20
244.7845128993
 30
0.0
  0
VERTEX
  5
51E
  8
0
  6
SLD-SOLID
 62
     7
 10
450.6563818858
 20
244.7650259058
 30
0.0
  0
VERTEX
  5
51F
  8
0
  6
SLD-SOLID
 62
     7
 10
449.7188902305
 20
244.7494355659
 30
0.0
  0
VERTEX
  5
520
  8
0
  6
SLD-SOLID
 62
     7
 10
449.1295642064
 20
244.7396343271
 30
0.0
  0
VERTEX
  5
521
  8
0
  6
SLD-SOLID
 62
     7
 10
448.9285475419
 20
244.7362927417
 30
0.0
  0
SEQEND
  5
522
  8
0
  6
SLD-SOLID
 62
     7
  0
LINE
  5
2E1
  8
0
  6
SLD-SOLID
 62
     7
 10
477.9380387471
 20
225.6660213391
 30
0.0
 11
479.0231264041
 21
225.0658733467
 31
0.0
  0
LINE
  5
2E2
  8
0
  6
SLD-SOLID
 62
     7
 10
431.326118748
 20
224.2726696352
 30
0.0
 11
432.3906577037
 21
224.908561788
 31
0.0
  0
LINE
  5
2E3
  8
0
  6
SLD-SOLID
 62
     7
 10
479.0231264041
 20
225.0658733467
 30
0.0
 11
485.369843881
 21
236.5410973946
 31
0.0
  0
LINE
  5
2E4
  8
0
  6
SLD-SOLID
 62
     7
 10
489.8361987279
 20
244.6164799551
 30
0.0
 11
480.3375131295
 21
244.4585164706
 31
0.0
  0
LINE
  5
2E5
  8
0
  6
SLD-SOLID
 62
     7
 10
424.9939597057
 20
234.8732066969
 30
0.0
 11
431.326118748
 21
224.2726696352
 31
0.0
  0
LINE
  5
2E6
  8
0
  6
SLD-SOLID
 62
     7
 10
429.3445623325
 20
243.6104988376
 30
0.0
 11
424.9939597057
 21
243.5381462494
 31
0.0
  0
POLYLINE
  5
2E7
  8
0
  6
SLD-SOLID
 62
     7
 66
     1
 10
0.0
 20
0.0
 30
0.0
  0
VERTEX
  5
523
  8
0
  6
SLD-SOLID
 62
     7
 10
432.4247366594
 20
222.8588474611
 30
0.0
  0
VERTEX
  5
524
  8
0
  6
SLD-SOLID
 62
     7
 10
432.4240810083
 20
222.8982312302
 30
0.0
  0
VERTEX
  5
525
  8
0
  6
SLD-SOLID
 62
     7
 10
432.4221438573
 20
223.0148700694
 30
0.0
  0
VERTEX
  5
526
  8
0
  6
SLD-SOLID
 62
     7
 10
432.4189997123
 20
223.2042861799
 30
0.0
  0
VERTEX
  5
527
  8
0
  6
SLD-SOLID
 62
     7
 10
432.4147528814
 20
223.4591928939
 30
0.0
  0
VERTEX
  5
528
  8
0
  6
SLD-SOLID
 62
     7
 10
432.4095821784
 20
223.7698001484
 30
0.0
  0
VERTEX
  5
529
  8
0
  6
SLD-SOLID
 62
     7
 10
432.4036962198
 20
224.124168388
 30
0.0
  0
VERTEX
  5
52A
  8
0
  6
SLD-SOLID
 62
     7
 10
432.3973036216
 20
224.5086816768
 30
0.0
  0
VERTEX
  5
52B
  8
0
  6
SLD-SOLID
 62
     7
 10
432.3906577037
 20
224.908561788
 30
0.0
  0
SEQEND
  5
52C
  8
0
  6
SLD-SOLID
 62
     7
  0
POLYLINE
  5
2E8
  8
0
  6
SLD-SOLID
 62
     7
 66
     1
 10
0.0
 20
0.0
 30
0.0
  0
VERTEX
  5
52D
  8
0
  6
SLD-SOLID
 62
     7
 10
477.9380387471
 20
225.6660213391
 30
0.0
  0
VERTEX
  5
52E
  8
0
  6
SLD-SOLID
 62
     7
 10
477.944684665
 20
225.2661412279
 30
0.0
  0
VERTEX
  5
52F
  8
0
  6
SLD-SOLID
 62
     7
 10
477.9510772632
 20
224.8816279391
 30
0.0
  0
VERTEX
  5
530
  8
0
  6
SLD-SOLID
 62
     7
 10
477.956978123
 20
224.5272596995
 30
0.0
  0
VERTEX
  5
531
  8
0
  6
SLD-SOLID
 62
     7
 10
477.9621339248
 20
224.216652445
 30
0.0
  0
VERTEX
  5
532
  8
0
  6
SLD-SOLID
 62
     7
 10
477.9663807557
 20
223.9617420057
 30
0.0
  0
VERTEX
  5
533
  8
0
  6
SLD-SOLID
 62
     7
 10
477.9695249007
 20
223.7723296205
 30
0.0
  0
VERTEX
  5
534
  8
0
  6
SLD-SOLID
 62
     7
 10
477.9714620517
 20
223.655687056
 30
0.0
  0
VERTEX
  5
535
  8
0
  6
SLD-SOLID
 62
     7
 10
477.9721177028
 20
223.6163032869
 30
0.0
  0
SEQEND
  5
536
  8
0
  6
SLD-SOLID
 62
     7
  0
LINE
  5
2E9
  8
0
  6
SLD-SOLID
 62
     7
 10
477.9721177028
 20
223.6163032869
 30
0.0
 11
432.4247366594
 21
222.8588474611
 31
0.0
  0
LINE
  5
2EA
  8
0
  6
SLD-SOLID
 62
     7
 10
486.3040870832
 20
236.5566355805
 30
0.0
 11
479.7319448398
 21
224.6738461475
 31
0.0
  0
LINE
  5
2EB
  8
0
  6
SLD-SOLID
 62
     7
 10
479.0318733857
 20
225.0610341946
 30
0.0
 11
479.7319448398
 21
224.6738461475
 31
0.0
  0
LINE
  5
2EC
  8
0
  6
SLD-SOLID
 62
     7
 10
485.3813773797
 20
236.5412911097
 30
0.0
 11
479.0318733857
 21
225.0610341946
 31
0.0
  0
LINE
  5
2ED
  8
0
  6
SLD-SOLID
 62
     7
 10
430.6307262586
 20
223.8572885911
 30
0.0
 11
431.3175356792
 21
224.2675399105
 31
0.0
  0
LINE
  5
2EE
  8
0
  6
SLD-SOLID
 62
     7
 10
430.6307262586
 20
223.8572885911
 30
0.0
 11
424.9939597057
 21
233.2936985115
 31
0.0
  0
LINE
  5
2EF
  8
0
  6
SLD-SOLID
 62
     7
 10
431.3175356792
 20
224.2675399105
 30
0.0
 11
424.9939597057
 21
234.8537085275
 31
0.0
  0
ARC
  5
2F0
  8
0
  6
SLD-SOLID
 62
     7
 10
477.9380350734
 20
225.6660196081
 30
0.0
 40
1.25
 50
270.9527461218
 51
331.0538442833
  0
ARC
  5
2F1
  8
0
  6
SLD-SOLID
 62
     7
 10
477.9380350734
 20
225.6660196081
 30
0.0
 40
2.05000000000001
 50
270.9527461218
 51
331.0538442833
  0
ARC
  5
2F2
  8
0
  6
SLD-SOLID
 62
     7
 10
432.3906509263
 20
224.9085625296
 30
0.0
 40
1.249999999999984
 50
210.8516479606
 51
270.9527461219
  0
ARC
  5
2F3
  8
0
  6
SLD-SOLID
 62
     7
 10
432.3906509263
 20
224.9085625296
 30
0.0
 40
2.049999999999988
 50
210.8516479606
 51
270.9527461219
  0
LINE
  5
2F4
  8
0
  6
SLD-SOLID
 62
     7
 10
394.1933638261
 20
473.2948070089
 30
0.0
 11
394.2939615653
 21
473.2803230802
 31
0.0
  0
ENDSEC
  0
EOF
