  0
SECTION
  2
HEADER
  9
$ACADVER
  1
AC1009
  9
$DWGCODEPAGE
  3
ansi_1252
  9
$INSBASE
 10
0.0
 20
0.0
 30
0.0
  9
$EXTMIN
 10
0.0
 20
0.0
 30
0.0
  9
$EXTMAX
 10
841.0
 20
594.0
 30
0.0
  9
$LIMMIN
 10
0.0
 20
0.0
  9
$LIMMAX
 10
841.0
 20
594.0
  9
$ORTHOMODE
 70
     0
  9
$REGENMODE
 70
     1
  9
$FILLMODE
 70
     1
  9
$QTEXTMODE
 70
     0
  9
$MIRRTEXT
 70
     1
  9
$DRAGMODE
 70
     2
  9
$LTSCALE
 40
1.0
  9
$OSMODE
 70
    37
  9
$ATTMODE
 70
     1
  9
$TEXTSIZE
 40
3.5
  9
$TRACEWID
 40
1.0
  9
$TEXTSTYLE
  7
STANDARD
  9
$CLAYER
  8
0
  9
$CELTYPE
  6
BYLAYER
  9
$CECOLOR
 62
   256
  9
$DIMSCALE
 40
1.0
  9
$DIMASZ
 40
3.302
  9
$DIMEXO
 40
1.0
  9
$DIMDLI
 40
3.75
  9
$DIMRND
 40
0.0
  9
$DIMDLE
 40
0.0
  9
$DIMEXE
 40
1.0
  9
$DIMTP
 40
0.0
  9
$DIMTM
 40
0.0
  9
$DIMTXT
 40
3.5
  9
$DIMCEN
 40
2.5
  9
$DIMTSZ
 40
0.0
  9
$DIMTOL
 70
     0
  9
$DIMLIM
 70
     0
  9
$DIMTIH
 70
     1
  9
$DIMTOH
 70
     1
  9
$DIMSE1
 70
     0
  9
$DIMSE2
 70
     0
  9
$DIMTAD
 70
     1
  9
$DIMZIN
 70
     0
  9
$DIMBLK
  1

  9
$DIMASO
 70
     1
  9
$DIMSHO
 70
     1
  9
$DIMPOST
  1

  9
$DIMAPOST
  1

  9
$DIMALT
 70
     0
  9
$DIMALTD
 70
     3
  9
$DIMALTF
 40
0.0393700787
  9
$DIMLFAC
 40
1.0
  9
$DIMTOFL
 70
     1
  9
$DIMTVP
 40
0.0
  9
$DIMTIX
 70
     0
  9
$DIMSOXD
 70
     0
  9
$DIMSAH
 70
     0
  9
$DIMBLK1
  1

  9
$DIMBLK2
  1

  9
$DIMSTYLE
  2
ISO-25
  9
$DIMCLRD
 70
     0
  9
$DIMCLRE
 70
     0
  9
$DIMCLRT
 70
     0
  9
$DIMTFAC
 40
1.0
  9
$DIMGAP
 40
1.524
  9
$LUNITS
 70
     2
  9
$LUPREC
 70
     1
  9
$SKETCHINC
 40
1.0
  9
$FILLETRAD
 40
10.0
  9
$AUNITS
 70
     0
  9
$AUPREC
 70
     1
  9
$MENU
  1
.
  9
$ELEVATION
 40
0.0
  9
$PELEVATION
 40
0.0
  9
$THICKNESS
 40
0.0
  9
$LIMCHECK
 70
     0
  9
$CHAMFERA
 40
10.0
  9
$CHAMFERB
 40
10.0
  9
$SKPOLY
 70
     0
  9
$TDCREATE
 40
2455862.557353947
  9
$TDUPDATE
 40
2455862.557353958
  9
$TDINDWG
 40
0.0000000116
  9
$TDUSRTIMER
 40
0.0000000116
  9
$USRTIMER
 70
     1
  9
$ANGBASE
 50
0.0
  9
$ANGDIR
 70
     0
  9
$PDMODE
 70
     0
  9
$PDSIZE
 40
-1.0
  9
$PLINEWID
 40
0.0
  9
$COORDS
 70
     1
  9
$SPLFRAME
 70
     0
  9
$SPLINETYPE
 70
     6
  9
$SPLINESEGS
 70
     8
  9
$ATTDIA
 70
     0
  9
$ATTREQ
 70
     1
  9
$HANDLING
 70
     1
  9
$HANDSEED
  5
877
  9
$SURFTAB1
 70
     6
  9
$SURFTAB2
 70
     6
  9
$SURFTYPE
 70
     6
  9
$SURFU
 70
     6
  9
$SURFV
 70
     6
  9
$UCSNAME
  2

  9
$UCSORG
 10
0.0
 20
0.0
 30
0.0
  9
$UCSXDIR
 10
1.0
 20
0.0
 30
0.0
  9
$UCSYDIR
 10
0.0
 20
1.0
 30
0.0
  9
$PUCSNAME
  2

  9
$PUCSORG
 10
0.0
 20
0.0
 30
0.0
  9
$PUCSXDIR
 10
1.0
 20
0.0
 30
0.0
  9
$PUCSYDIR
 10
0.0
 20
1.0
 30
0.0
  9
$USERI1
 70
     0
  9
$USERI2
 70
     0
  9
$USERI3
 70
     0
  9
$USERI4
 70
     0
  9
$USERI5
 70
     0
  9
$USERR1
 40
0.0
  9
$USERR2
 40
0.0
  9
$USERR3
 40
0.0
  9
$USERR4
 40
0.0
  9
$USERR5
 40
0.0
  9
$WORLDVIEW
 70
     1
  9
$SHADEDGE
 70
     3
  9
$SHADEDIF
 70
    70
  9
$TILEMODE
 70
     1
  9
$MAXACTVP
 70
    64
  9
$PLIMCHECK
 70
     0
  9
$PEXTMIN
 10
1.0000000000E+20
 20
1.0000000000E+20
 30
1.0000000000E+20
  9
$PEXTMAX
 10
-1.0000000000E+20
 20
-1.0000000000E+20
 30
-1.0000000000E+20
  9
$PLIMMIN
 10
0.0
 20
0.0
  9
$PLIMMAX
 10
420.0
 20
297.0
  9
$UNITMODE
 70
     0
  9
$VISRETAIN
 70
     1
  9
$PLINEGEN
 70
     0
  9
$PSLTSCALE
 70
     1
  0
ENDSEC
  0
SECTION
  2
TABLES
  0
TABLE
  2
VPORT
 70
     1
  0
VPORT
  2
*ACTIVE
 70
     0
 10
0.0
 20
0.0
 11
1.0
 21
1.0
 12
420.5
 22
297.0
 13
0.0
 23
0.0
 14
10.0
 24
10.0
 15
10.0
 25
10.0
 16
0.0
 26
0.0
 36
1.0
 17
0.0
 27
0.0
 37
0.0
 40
594.0
 41
1.4158249158
 42
50.0
 43
0.0
 44
0.0
 50
0.0
 51
0.0
 71
     0
 72
  2000
 73
     1
 74
     3
 75
     0
 76
     0
 77
     0
 78
     0
  0
ENDTAB
  0
TABLE
  2
LTYPE
 70
     8
  0
LTYPE
  2
CONTINUOUS
 70
     0
  3
Solid line
 72
    65
 73
     0
 40
0.0
  0
LTYPE
  2
SLD-SOLID
 70
     0
  3
SolidWorks Line Style
 72
    65
 73
     0
 40
0.0
  0
LTYPE
  2
SLD-DASHED
 70
     0
  3
SolidWorks Line Style
 72
    65
 73
     2
 40
1.905
 49
1.27
 49
-0.635
  0
LTYPE
  2
SLD-PHANTOM
 70
     0
  3
SolidWorks Line Style
 72
    65
 73
     6
 40
12.7
 49
6.35
 49
-1.27
 49
1.27
 49
-1.27
 49
1.27
 49
-1.27
  0
LTYPE
  2
SLD-CHAIN
 70
     0
  3
SolidWorks Line Style
 72
    65
 73
     4
 40
10.16
 49
6.35
 49
-1.27
 49
1.27
 49
-1.27
  0
LTYPE
  2
SLD-CENTER
 70
     0
  3
SolidWorks Line Style
 72
    65
 73
     4
 40
19.05
 49
15.24
 49
-1.27
 49
1.27
 49
-1.27
  0
LTYPE
  2
SLD-STITCH
 70
     0
  3
SolidWorks Line Style
 72
    65
 73
     2
 40
0.635
 49
0.0
 49
-0.635
  0
LTYPE
  2
SLD-THIN-THICK-CHAIN
 70
     0
  3
SolidWorks Line Style
 72
    65
 73
     4
 40
10.16
 49
6.35
 49
-1.27
 49
1.27
 49
-1.27
  0
ENDTAB
  0
TABLE
  2
LAYER
 70
     1
  0
LAYER
  2
0
 70
     0
 62
     7
  6
CONTINUOUS
  0
ENDTAB
  0
TABLE
  2
STYLE
 70
     1
  0
STYLE
  2
STANDARD
 70
     0
 40
0.0
 41
1.0
 50
0.0
 71
     0
 42
2.5
  3
txt
  4

  0
ENDTAB
  0
TABLE
  2
VIEW
 70
     0
  0
ENDTAB
  0
TABLE
  2
UCS
 70
     0
  0
ENDTAB
  0
TABLE
  2
APPID
 70
     1
  0
APPID
  2
ACAD
 70
     0
  0
ENDTAB
  0
TABLE
  2
DIMSTYLE
 70
     1
  0
DIMSTYLE
  2
ISO-25
 70
     0
  3

  4

  5

  6

  7

 40
1.0
 41
2.5
 42
0.625
 43
3.75
 44
1.25
 45
0.0
 46
0.0
 47
0.0
 48
0.0
140
2.5
141
2.5
142
0.0
143
0.0393700787
144
1.0
145
0.0
146
1.0
147
0.625
 71
     0
 72
     0
 73
     0
 74
     0
 75
     0
 76
     0
 77
     1
 78
     8
170
     0
171
     3
172
     1
173
     0
174
     0
175
     0
176
     0
177
     0
178
     0
  0
ENDTAB
  0
ENDSEC
  0
SECTION
  2
BLOCKS
  0
BLOCK
  8
0
  2
$MODEL_SPACE
 70
     0
 10
0.0
 20
0.0
 30
0.0
  3
$MODEL_SPACE
  1

  0
ENDBLK
  5
21
  8
0
  0
BLOCK
 67
     1
  8
0
  2
$PAPER_SPACE
 70
     0
 10
0.0
 20
0.0
 30
0.0
  3
$PAPER_SPACE
  1

  0
ENDBLK
  5
1D
 67
     1
  8
0
  0
ENDSEC
  0
SECTION
  2
ENTITIES
  0
LINE
  5
46
  8
0
  6
SLD-SOLID
 62
     7
 10
751.1434840673
 20
177.1030020653
 30
0.0
 11
751.1434840673
 21
169.1030156552
 31
0.0
  0
LINE
  5
47
  8
0
  6
SLD-SOLID
 62
     7
 10
759.1434853786
 20
169.1030156552
 30
0.0
 11
759.1434853786
 21
177.1030020653
 31
0.0
  0
LINE
  5
48
  8
0
  6
SLD-SOLID
 62
     7
 10
746.1434739345
 20
363.6820022701
 30
0.0
 11
746.3158952706
 21
350.957673484
 31
0.0
  0
LINE
  5
49
  8
0
  6
SLD-SOLID
 62
     7
 10
720.2887820714
 20
352.5030058562
 30
0.0
 11
712.1434795373
 21
352.5030058562
 31
0.0
  0
LINE
  5
4A
  8
0
  6
SLD-SOLID
 62
     7
 10
722.0372694247
 20
352.5030058562
 30
0.0
 11
720.2887820714
 21
352.5030058562
 31
0.0
  0
LINE
  5
4B
  8
0
  6
SLD-SOLID
 62
     7
 10
722.1434849017
 20
352.5030058562
 30
0.0
 11
722.0372694247
 21
352.5030058562
 31
0.0
  0
LINE
  5
4C
  8
0
  6
SLD-SOLID
 62
     7
 10
685.8967679256
 20
351.8030014573
 30
0.0
 11
685.6434779876
 21
351.8030014573
 31
0.0
  0
LINE
  5
4D
  8
0
  6
SLD-SOLID
 62
     7
 10
686.4978062623
 20
352.3801532327
 30
0.0
 11
685.6434779876
 21
351.8283706843
 31
0.0
  0
LINE
  5
4E
  8
0
  6
SLD-SOLID
 62
     7
 10
688.1434756034
 20
352.6530083953
 30
0.0
 11
687.4041246884
 21
352.6530083953
 31
0.0
  0
LINE
  5
4F
  8
0
  6
SLD-SOLID
 62
     7
 10
695.7267957442
 20
353.5030078827
 30
0.0
 11
695.1434748881
 21
353.5030078827
 31
0.0
  0
LINE
  5
50
  8
0
  6
SLD-SOLID
 62
     7
 10
720.8250897639
 20
352.2530016242
 30
0.0
 11
712.1434795373
 21
352.2530016242
 31
0.0
  0
POLYLINE
  5
51
  8
0
  6
SLD-SOLID
 62
     7
 66
     1
 10
0.0
 20
0.0
 30
0.0
  0
VERTEX
  5
593
  8
0
  6
SLD-SOLID
 62
     7
 10
721.2428736203
 20
352.2720155059
 30
0.0
  0
VERTEX
  5
594
  8
0
  6
SLD-SOLID
 62
     7
 10
720.9898817056
 20
352.2553932606
 30
0.0
  0
VERTEX
  5
595
  8
0
  6
SLD-SOLID
 62
     7
 10
720.8250897639
 20
352.2530016242
 30
0.0
  0
SEQEND
  5
596
  8
0
  6
SLD-SOLID
 62
     7
  0
LINE
  5
52
  8
0
  6
SLD-SOLID
 62
     7
 10
722.1434849017
 20
352.3737084805
 30
0.0
 11
721.2428736203
 21
352.2720155059
 31
0.0
  0
ARC
  5
53
  8
0
  6
SLD-SOLID
 62
     7
 10
755.0267281391
 20
63.9976102863
 30
0.0
 40
288.8344747616845
 50
86.4038382518
 51
88.3896741213
  0
ARC
  5
54
  8
0
  6
SLD-SOLID
 62
     7
 10
740.0122133554
 20
140.1128972617
 30
0.0
 40
213.2007284771188
 50
90.2334663649
 51
92.9221399059
  0
LINE
  5
55
  8
0
  6
SLD-SOLID
 62
     7
 10
737.9434841388
 20
408.0030047088
 30
0.0
 11
737.9434841388
 21
404.0030040531
 31
0.0
  0
LINE
  5
56
  8
0
  6
SLD-SOLID
 62
     7
 10
736.2417715304
 20
409.5030040233
 30
0.0
 11
737.9434841388
 21
408.0030047088
 31
0.0
  0
LINE
  5
57
  8
0
  6
SLD-SOLID
 62
     7
 10
739.1434746497
 20
397.3911241381
 30
0.0
 11
738.5511683934
 21
396.7530042617
 31
0.0
  0
LINE
  5
58
  8
0
  6
SLD-SOLID
 62
     7
 10
738.5511683934
 20
394.5030052899
 30
0.0
 11
739.1434746497
 21
393.8648854135
 31
0.0
  0
LINE
  5
59
  8
0
  6
SLD-SOLID
 62
     7
 10
722.6434784644
 20
167.1030116021
 30
0.0
 11
726.3920294755
 21
157.7316117226
 31
0.0
  0
LINE
  5
5A
  8
0
  6
SLD-SOLID
 62
     7
 10
783.894910168
 20
157.7316117226
 30
0.0
 11
787.6434760802
 21
167.1030116021
 31
0.0
  0
ARC
  5
5B
  8
0
  6
SLD-SOLID
 62
     7
 10
772.9240166992
 20
153.4929599407
 30
0.0
 40
3.661737388106531
 50
120.9306352388
 51
172.0947823339
  0
ARC
  5
5C
  8
0
  6
SLD-SOLID
 62
     7
 10
737.2856092143
 20
153.4733895753
 30
0.0
 40
3.718020441783895
 50
8.1157458432
 51
55.7501156833
  0
POLYLINE
  5
5D
  8
0
  6
SLD-SOLID
 62
     7
 66
     1
 10
0.0
 20
0.0
 30
0.0
  0
VERTEX
  5
597
  8
0
  6
SLD-SOLID
 62
     7
 10
766.770674538
 20
137.9698407589
 30
0.0
  0
VERTEX
  5
598
  8
0
  6
SLD-SOLID
 62
     7
 10
767.9805594199
 20
146.2492239415
 30
0.0
  0
VERTEX
  5
599
  8
0
  6
SLD-SOLID
 62
     7
 10
769.3051236384
 20
153.996695274
 30
0.0
  0
SEQEND
  5
59A
  8
0
  6
SLD-SOLID
 62
     7
  0
LINE
  5
5E
  8
0
  6
SLD-SOLID
 62
     7
 10
743.2520675176
 20
139.7208762108
 30
0.0
 11
743.4860604518
 21
137.976129049
 31
0.0
  0
ARC
  5
5F
  8
0
  6
SLD-SOLID
 62
     7
 10
486.8821989618
 20
106.3765321455
 30
0.0
 40
258.529214566614
 50
7.4104858871
 51
10.6141259263
  0
ARC
  5
60
  8
0
  6
SLD-SOLID
 62
     7
 10
782.9664470751
 20
158.1030048049
 30
0.0
 40
1.000000000000044
 50
270.0
 51
338.1985905137
  0
ARC
  5
61
  8
0
  6
SLD-SOLID
 62
     7
 10
727.3205129979
 20
158.1030048049
 30
0.0
 40
0.9999999999999432
 50
201.8014094863
 51
270.0
  0
ARC
  5
62
  8
0
  6
SLD-SOLID
 62
     7
 10
765.7782832969
 20
138.1030048049
 30
0.0
 40
1.000000000000134
 50
270.0
 51
352.3401380017
  0
ARC
  5
63
  8
0
  6
SLD-SOLID
 62
     7
 10
744.5086767761
 20
138.1030048049
 30
0.0
 40
1.0
 50
187.6598619983
 51
270.0
  0
LINE
  5
64
  8
0
  6
SLD-SOLID
 62
     7
 10
685.8212637418
 20
357.6204892932
 30
0.0
 11
685.6434779876
 21
357.6204892932
 31
0.0
  0
LINE
  5
65
  8
0
  6
SLD-SOLID
 62
     7
 10
700.1449006312
 20
357.6451134621
 30
0.0
 11
699.8317974322
 21
357.645523244
 31
0.0
  0
LINE
  5
66
  8
0
  6
SLD-SOLID
 62
     7
 10
697.5683110469
 20
355.0530043184
 30
0.0
 11
695.3073727601
 21
355.0559696494
 31
0.0
  0
LINE
  5
67
  8
0
  6
SLD-SOLID
 62
     7
 10
718.4153484815
 20
395.3530047773
 30
0.0
 11
712.1434795373
 21
395.3530047773
 31
0.0
  0
LINE
  5
68
  8
0
  6
SLD-SOLID
 62
     7
 10
705.1434802526
 20
395.3530047773
 30
0.0
 11
695.1434748881
 21
395.3530047773
 31
0.0
  0
LINE
  5
69
  8
0
  6
SLD-SOLID
 62
     7
 10
688.1434756034
 20
395.3530047773
 30
0.0
 11
685.6434779876
 21
395.3530047773
 31
0.0
  0
LINE
  5
6A
  8
0
  6
SLD-SOLID
 62
     7
 10
685.6434779876
 20
361.6530042826
 30
0.0
 11
688.1434756034
 21
361.6530042826
 31
0.0
  0
LINE
  5
6B
  8
0
  6
SLD-SOLID
 62
     7
 10
695.1434748881
 20
361.6530042826
 30
0.0
 11
705.1434802526
 21
361.6530042826
 31
0.0
  0
LINE
  5
6C
  8
0
  6
SLD-SOLID
 62
     7
 10
712.1434795373
 20
361.6530042826
 30
0.0
 11
718.4434818738
 21
361.6530042826
 31
0.0
  0
LINE
  5
6D
  8
0
  6
SLD-SOLID
 62
     7
 10
713.4434866422
 20
404.1558620273
 30
0.0
 11
713.4434866422
 21
403.353004226
 31
0.0
  0
LINE
  5
6E
  8
0
  6
SLD-SOLID
 62
     7
 10
683.6718010419
 20
377.8885160326
 30
0.0
 11
683.667554211
 21
377.8991182088
 31
0.0
  0
LINE
  5
6F
  8
0
  6
SLD-SOLID
 62
     7
 10
117.1434658282
 20
390.5545142232
 30
0.0
 11
127.1434860938
 21
390.5545142232
 31
0.0
  0
LINE
  5
70
  8
0
  6
SLD-SOLID
 62
     7
 10
134.1434853786
 20
390.5545142232
 30
0.0
 11
144.1434758418
 21
390.5545142232
 31
0.0
  0
LINE
  5
71
  8
0
  6
SLD-SOLID
 62
     7
 10
151.1434751266
 20
390.5545142232
 30
0.0
 11
161.1434655898
 21
390.5545142232
 31
0.0
  0
LINE
  5
72
  8
0
  6
SLD-SOLID
 62
     7
 10
168.1434946769
 20
390.5545142232
 30
0.0
 11
178.1434851401
 21
390.5545142232
 31
0.0
  0
LINE
  5
73
  8
0
  6
SLD-SOLID
 62
     7
 10
185.1434844249
 20
390.5545142232
 30
0.0
 11
195.1434748881
 21
390.5545142232
 31
0.0
  0
LINE
  5
74
  8
0
  6
SLD-SOLID
 62
     7
 10
202.1434741729
 20
390.5545142232
 30
0.0
 11
212.1434944385
 21
390.5545142232
 31
0.0
  0
LINE
  5
75
  8
0
  6
SLD-SOLID
 62
     7
 10
219.1434937232
 20
390.5545142232
 30
0.0
 11
229.1434841865
 21
390.5545142232
 31
0.0
  0
LINE
  5
76
  8
0
  6
SLD-SOLID
 62
     7
 10
236.1434834712
 20
390.5545142232
 30
0.0
 11
246.1434739345
 21
390.5545142232
 31
0.0
  0
LINE
  5
77
  8
0
  6
SLD-SOLID
 62
     7
 10
253.1434732192
 20
390.5545142232
 30
0.0
 11
263.1434785836
 21
390.5545142232
 31
0.0
  0
LINE
  5
78
  8
0
  6
SLD-SOLID
 62
     7
 10
270.1434778684
 20
390.5545142232
 30
0.0
 11
280.1434832328
 21
390.5545142232
 31
0.0
  0
LINE
  5
79
  8
0
  6
SLD-SOLID
 62
     7
 10
287.1434825175
 20
390.5545142232
 30
0.0
 11
297.1434729808
 21
390.5545142232
 31
0.0
  0
LINE
  5
7A
  8
0
  6
SLD-SOLID
 62
     7
 10
304.1434871667
 20
390.5545142232
 30
0.0
 11
314.14347763
 21
390.5545142232
 31
0.0
  0
LINE
  5
7B
  8
0
  6
SLD-SOLID
 62
     7
 10
321.1434769147
 20
390.5545142232
 30
0.0
 11
331.1434822791
 21
390.5545142232
 31
0.0
  0
LINE
  5
7C
  8
0
  6
SLD-SOLID
 62
     7
 10
338.1434815639
 20
390.5545142232
 30
0.0
 11
348.1434869283
 21
390.5545142232
 31
0.0
  0
LINE
  5
7D
  8
0
  6
SLD-SOLID
 62
     7
 10
355.143486213
 20
390.5545142232
 30
0.0
 11
365.1434766763
 21
390.5545142232
 31
0.0
  0
LINE
  5
7E
  8
0
  6
SLD-SOLID
 62
     7
 10
372.143475961
 20
390.5545142232
 30
0.0
 11
382.1434813254
 21
390.5545142232
 31
0.0
  0
LINE
  5
7F
  8
0
  6
SLD-SOLID
 62
     7
 10
389.1434806102
 20
390.5545142232
 30
0.0
 11
399.143478524
 21
390.5545142232
 31
0.0
  0
LINE
  5
80
  8
0
  6
SLD-SOLID
 62
     7
 10
406.1434778088
 20
390.5545142232
 30
0.0
 11
416.1434831732
 21
390.5545142232
 31
0.0
  0
LINE
  5
81
  8
0
  6
SLD-SOLID
 62
     7
 10
423.1434824579
 20
390.5545142232
 30
0.0
 11
433.1434803718
 21
390.5545142232
 31
0.0
  0
LINE
  5
82
  8
0
  6
SLD-SOLID
 62
     7
 10
440.1434796565
 20
390.5545142232
 30
0.0
 11
450.1434812956
 21
390.5545142232
 31
0.0
  0
LINE
  5
83
  8
0
  6
SLD-SOLID
 62
     7
 10
457.1434805804
 20
390.5545142232
 30
0.0
 11
467.1434784942
 21
390.5545142232
 31
0.0
  0
LINE
  5
84
  8
0
  6
SLD-SOLID
 62
     7
 10
474.1434796416
 20
390.5545142232
 30
0.0
 11
484.1434794181
 21
390.5545142232
 31
0.0
  0
LINE
  5
85
  8
0
  6
SLD-SOLID
 62
     7
 10
491.1434796342
 20
390.5545142232
 30
0.0
 11
501.1434799927
 21
390.5545142232
 31
0.0
  0
LINE
  5
86
  8
0
  6
SLD-SOLID
 62
     7
 10
508.1434800924
 20
390.5545142232
 30
0.0
 11
518.1434803345
 21
390.5545142232
 31
0.0
  0
LINE
  5
87
  8
0
  6
SLD-SOLID
 62
     7
 10
525.1434805506
 20
390.5545142232
 30
0.0
 11
535.1434784644
 21
390.5545142232
 31
0.0
  0
LINE
  5
88
  8
0
  6
SLD-SOLID
 62
     7
 10
542.1434814745
 20
390.5545142232
 30
0.0
 11
552.1434793883
 21
390.5545142232
 31
0.0
  0
LINE
  5
89
  8
0
  6
SLD-SOLID
 62
     7
 10
559.143478673
 20
390.5545142232
 30
0.0
 11
569.1434803122
 21
390.5545142232
 31
0.0
  0
LINE
  5
8A
  8
0
  6
SLD-SOLID
 62
     7
 10
576.1434795969
 20
390.5545142232
 30
0.0
 11
586.1434775107
 21
390.5545142232
 31
0.0
  0
LINE
  5
8B
  8
0
  6
SLD-SOLID
 62
     7
 10
593.1434767955
 20
390.5545142232
 30
0.0
 11
603.1434821599
 21
390.5545142232
 31
0.0
  0
LINE
  5
8C
  8
0
  6
SLD-SOLID
 62
     7
 10
610.1434814447
 20
390.5545142232
 30
0.0
 11
620.1434793585
 21
390.5545142232
 31
0.0
  0
LINE
  5
8D
  8
0
  6
SLD-SOLID
 62
     7
 10
800.5434709304
 20
502.3030084311
 30
0.0
 11
800.0434773677
 21
502.3030084311
 31
0.0
  0
LINE
  5
8E
  8
0
  6
SLD-SOLID
 62
     7
 10
800.0434773677
 20
495.3030016958
 30
0.0
 11
800.5434709304
 21
495.3030016958
 31
0.0
  0
LINE
  5
8F
  8
0
  6
SLD-SOLID
 62
     7
 10
800.5434709304
 20
270.3030002057
 30
0.0
 11
800.0434773677
 21
270.3030002057
 31
0.0
  0
LINE
  5
90
  8
0
  6
SLD-SOLID
 62
     7
 10
800.0434773677
 20
263.3030009209
 30
0.0
 11
800.5434709304
 21
263.3030009209
 31
0.0
  0
LINE
  5
91
  8
0
  6
SLD-SOLID
 62
     7
 10
55.7434695476
 20
263.3030009209
 30
0.0
 11
56.2434929126
 21
263.3030009209
 31
0.0
  0
LINE
  5
92
  8
0
  6
SLD-SOLID
 62
     7
 10
56.2434929126
 20
270.3030002057
 30
0.0
 11
55.7434695476
 21
270.3030002057
 31
0.0
  0
LINE
  5
93
  8
0
  6
SLD-SOLID
 62
     7
 10
55.7434695476
 20
495.3030016958
 30
0.0
 11
56.2434929126
 21
495.3030016958
 31
0.0
  0
LINE
  5
94
  8
0
  6
SLD-SOLID
 62
     7
 10
56.2434929126
 20
502.3030084311
 30
0.0
 11
55.7434695476
 21
502.3030084311
 31
0.0
  0
ARC
  5
95
  8
0
  6
SLD-SOLID
 62
     7
 10
760.5934800365
 20
548.6530048049
 30
0.0
 40
0.2500000000000651
 50
0.0
 51
29.4734267881
  0
LINE
  5
96
  8
0
  6
SLD-SOLID
 62
     7
 10
760.8434694522
 20
547.9530063211
 30
0.0
 11
760.8434694522
 21
548.6530032693
 31
0.0
  0
POLYLINE
  5
97
  8
0
  6
SLD-SOLID
 62
     7
 66
     1
 10
0.0
 20
0.0
 30
0.0
  0
VERTEX
  5
59B
  8
0
  6
SLD-SOLID
 62
     7
 10
748.1892096513
 20
547.4530947148
 30
0.0
  0
VERTEX
  5
59C
  8
0
  6
SLD-SOLID
 62
     7
 10
748.1883751863
 20
547.4817794501
 30
0.0
  0
VERTEX
  5
59D
  8
0
  6
SLD-SOLID
 62
     7
 10
748.202218365
 20
547.5609493195
 30
0.0
  0
VERTEX
  5
59E
  8
0
  6
SLD-SOLID
 62
     7
 10
748.2289510482
 20
547.6263132631
 30
0.0
  0
VERTEX
  5
59F
  8
0
  6
SLD-SOLID
 62
     7
 10
748.262031626
 20
547.6719033657
 30
0.0
  0
VERTEX
  5
5A0
  8
0
  6
SLD-SOLID
 62
     7
 10
748.2947098725
 20
547.6967659532
 30
0.0
  0
VERTEX
  5
5A1
  8
0
  6
SLD-SOLID
 62
     7
 10
748.3185219281
 20
547.7025029003
 30
0.0
  0
SEQEND
  5
5A2
  8
0
  6
SLD-SOLID
 62
     7
  0
ARC
  5
98
  8
0
  6
SLD-SOLID
 62
     7
 10
747.9373302869
 20
542.3530048049
 30
0.0
 40
0.25
 50
270.0
 51
0.0
  0
LINE
  5
99
  8
0
  6
SLD-SOLID
 62
     7
 10
748.187332105
 20
542.3530083834
 30
0.0
 11
748.187332105
 21
547.4530053078
 31
0.0
  0
ARC
  5
9A
  8
0
  6
SLD-SOLID
 62
     7
 10
743.2373598876
 20
542.3530048049
 30
0.0
 40
0.2500000000001137
 50
180.0
 51
270.0
  0
LINE
  5
9B
  8
0
  6
SLD-SOLID
 62
     7
 10
742.9873632901
 20
547.4530053078
 30
0.0
 11
742.9873632901
 21
542.3530083834
 31
0.0
  0
ARC
  5
9C
  8
0
  6
SLD-SOLID
 62
     7
 10
743.6934800365
 20
548.6530048049
 30
0.0
 40
0.2500000000001137
 50
90.0
 51
180.0
  0
LINE
  5
9D
  8
0
  6
SLD-SOLID
 62
     7
 10
761.2995939963
 20
542.3530083834
 30
0.0
 11
761.2995939963
 21
547.4530053078
 31
0.0
  0
ARC
  5
9E
  8
0
  6
SLD-SOLID
 62
     7
 10
761.0496001855
 20
542.3530048049
 30
0.0
 40
0.2500000000001137
 50
270.0
 51
0.0
  0
ARC
  5
9F
  8
0
  6
SLD-SOLID
 62
     7
 10
754.9836312357
 20
547.9098717292
 30
0.0
 40
0.2724305231306048
 50
310.8286621325
 51
9.0863150072
  0
LINE
  5
A0
  8
0
  6
SLD-SOLID
 62
     7
 10
755.2544313186
 20
553.0530106961
 30
0.0
 11
755.2544313186
 21
547.9530063211
 31
0.0
  0
ARC
  5
A1
  8
0
  6
SLD-SOLID
 62
     7
 10
755.5044318602
 20
553.0530048049
 30
0.0
 40
0.25
 50
90.0
 51
180.0
  0
ARC
  5
A2
  8
0
  6
SLD-SOLID
 62
     7
 10
760.5611260324
 20
553.0530048049
 30
0.0
 40
0.2500000000001137
 50
0.0
 51
90.0
  0
LINE
  5
A3
  8
0
  6
SLD-SOLID
 62
     7
 10
760.8111339324
 20
547.9530063211
 30
0.0
 11
760.8111339324
 21
553.0530106961
 31
0.0
  0
ARC
  5
A4
  8
0
  6
SLD-SOLID
 62
     7
 10
760.5934800365
 20
547.4530048049
 30
0.0
 40
0.2500000000001137
 50
0.0
 51
52.7089330724
  0
ARC
  5
A5
  8
0
  6
SLD-SOLID
 62
     7
 10
760.5934800365
 20
546.7530048049
 30
0.0
 40
0.25
 50
270.0
 51
0.0
  0
LINE
  5
A6
  8
0
  6
SLD-SOLID
 62
     7
 10
760.8434694522
 20
546.7530083596
 30
0.0
 11
760.8434694522
 21
547.4530053078
 31
0.0
  0
LINE
  5
A7
  8
0
  6
SLD-SOLID
 62
     7
 10
743.4758382552
 20
553.0530106961
 30
0.0
 11
743.4758382552
 21
548.776012355
 31
0.0
  0
ARC
  5
A8
  8
0
  6
SLD-SOLID
 62
     7
 10
743.7258340407
 20
553.0530048049
 30
0.0
 40
0.25
 50
90.0
 51
180.0
  0
LINE
  5
A9
  8
0
  6
SLD-SOLID
 62
     7
 10
747.143475961
 20
541.0530012785
 30
0.0
 11
747.0542329066
 21
541.0014730631
 31
0.0
  0
LINE
  5
AA
  8
0
  6
SLD-SOLID
 62
     7
 10
746.896101784
 20
541.4458331405
 30
0.0
 11
747.143475961
 21
541.3030055105
 31
0.0
  0
LINE
  5
AB
  8
0
  6
SLD-SOLID
 62
     7
 10
757.3908704036
 20
546.3601764976
 30
0.0
 11
757.1434813254
 21
546.5030041276
 31
0.0
  0
LINE
  5
AC
  8
0
  6
SLD-SOLID
 62
     7
 10
757.1434813254
 20
541.3030055105
 30
0.0
 11
757.3908704036
 21
541.4458331405
 31
0.0
  0
LINE
  5
AD
  8
0
  6
SLD-SOLID
 62
     7
 10
757.6051789039
 20
553.836454147
 30
0.0
 11
757.1434813254
 21
554.1030061184
 31
0.0
  0
LINE
  5
AE
  8
0
  6
SLD-SOLID
 62
     7
 10
747.143475961
 20
554.1030061184
 30
0.0
 11
746.6817932838
 21
553.836454147
 31
0.0
  0
LINE
  5
AF
  8
0
  6
SLD-SOLID
 62
     7
 10
746.6817932838
 20
549.1695594727
 30
0.0
 11
747.143475961
 21
548.9030075013
 31
0.0
  0
LINE
  5
B0
  8
0
  6
SLD-SOLID
 62
     7
 10
755.1434772723
 20
541.0530012785
 30
0.0
 11
755.1434772723
 21
541.3030055105
 31
0.0
  0
LINE
  5
B1
  8
0
  6
SLD-SOLID
 62
     7
 10
749.1434800141
 20
541.3030055105
 30
0.0
 11
749.1434800141
 21
541.0530012785
 31
0.0
  0
LINE
  5
B2
  8
0
  6
SLD-SOLID
 62
     7
 10
654.1434812062
 20
150.2191018998
 30
0.0
 11
654.1434812062
 21
157.3378932415
 31
0.0
  0
LINE
  5
B3
  8
0
  6
SLD-SOLID
 62
     7
 10
646.1434798949
 20
157.3378932415
 30
0.0
 11
646.1434798949
 21
150.2191018998
 31
0.0
  0
LINE
  5
B4
  8
0
  6
SLD-SOLID
 62
     7
 10
92.1434896701
 20
157.3378932415
 30
0.0
 11
92.1434896701
 21
150.2191018998
 31
0.0
  0
LINE
  5
B5
  8
0
  6
SLD-SOLID
 62
     7
 10
100.1434760802
 20
150.2191018998
 30
0.0
 11
100.1434760802
 21
157.3378932415
 31
0.0
  0
LINE
  5
B6
  8
0
  6
SLD-SOLID
 62
     7
 10
646.1434798949
 20
177.1030020653
 30
0.0
 11
646.1434798949
 21
157.3378932415
 31
0.0
  0
LINE
  5
B7
  8
0
  6
SLD-SOLID
 62
     7
 10
654.1434812062
 20
157.3378932415
 30
0.0
 11
654.1434812062
 21
177.1030020653
 31
0.0
  0
LINE
  5
B8
  8
0
  6
SLD-SOLID
 62
     7
 10
100.1434760802
 20
157.3378932415
 30
0.0
 11
100.1434760802
 21
177.1030020653
 31
0.0
  0
LINE
  5
B9
  8
0
  6
SLD-SOLID
 62
     7
 10
92.1434896701
 20
177.1030020653
 30
0.0
 11
92.1434896701
 21
157.3378932415
 31
0.0
  0
LINE
  5
BA
  8
0
  6
SLD-SOLID
 62
     7
 10
654.1434812062
 20
114.3871736466
 30
0.0
 11
654.1434812062
 21
150.2191018998
 31
0.0
  0
LINE
  5
BB
  8
0
  6
SLD-SOLID
 62
     7
 10
646.1434798949
 20
150.2191018998
 30
0.0
 11
646.1434798949
 21
114.3871736466
 31
0.0
  0
LINE
  5
BC
  8
0
  6
SLD-SOLID
 62
     7
 10
100.1434760802
 20
114.3871736466
 30
0.0
 11
100.1434760802
 21
150.2191018998
 31
0.0
  0
LINE
  5
BD
  8
0
  6
SLD-SOLID
 62
     7
 10
92.1434896701
 20
150.2191018998
 30
0.0
 11
92.1434896701
 21
114.3871736466
 31
0.0
  0
LINE
  5
BE
  8
0
  6
SLD-SOLID
 62
     7
 10
61.1434715503
 20
115.8204567372
 30
0.0
 11
61.1434715503
 21
114.2831635415
 31
0.0
  0
LINE
  5
BF
  8
0
  6
SLD-SOLID
 62
     7
 10
131.1434942
 20
114.2831635415
 30
0.0
 11
131.1434942
 21
115.8204567372
 31
0.0
  0
POLYLINE
  5
C0
  8
0
  6
SLD-SOLID
 62
     7
 66
     1
 10
0.0
 20
0.0
 30
0.0
  0
VERTEX
  5
5A3
  8
0
  6
SLD-SOLID
 62
     7
 10
63.6181371921
 20
105.2346718251
 30
0.0
  0
VERTEX
  5
5A4
  8
0
  6
SLD-SOLID
 62
     7
 10
64.0577512496
 20
104.4200551449
 30
0.0
  0
VERTEX
  5
5A5
  8
0
  6
SLD-SOLID
 62
     7
 10
65.5291217082
 20
102.3199748932
 30
0.0
  0
VERTEX
  5
5A6
  8
0
  6
SLD-SOLID
 62
     7
 10
67.2785180324
 20
100.3271233975
 30
0.0
  0
VERTEX
  5
5A7
  8
0
  6
SLD-SOLID
 62
     7
 10
69.2905026191
 20
98.4600377022
 30
0.0
  0
VERTEX
  5
5A8
  8
0
  6
SLD-SOLID
 62
     7
 10
71.5466874354
 20
96.736241573
 30
0.0
  0
VERTEX
  5
5A9
  8
0
  6
SLD-SOLID
 62
     7
 10
74.0261810535
 20
95.1716792523
 30
0.0
  0
VERTEX
  5
5AA
  8
0
  6
SLD-SOLID
 62
     7
 10
76.7059760802
 20
93.7806856572
 30
0.0
  0
VERTEX
  5
5AB
  8
0
  6
SLD-SOLID
 62
     7
 10
79.5613067859
 20
92.5757479607
 30
0.0
  0
VERTEX
  5
5AC
  8
0
  6
SLD-SOLID
 62
     7
 10
82.565887522
 20
91.567505592
 30
0.0
  0
VERTEX
  5
5AD
  8
0
  6
SLD-SOLID
 62
     7
 10
85.6924193614
 20
90.7647204338
 30
0.0
  0
VERTEX
  5
5AE
  8
0
  6
SLD-SOLID
 62
     7
 10
88.912709307
 20
90.1742172181
 30
0.0
  0
VERTEX
  5
5AF
  8
0
  6
SLD-SOLID
 62
     7
 10
92.1977895015
 20
89.8010921418
 30
0.0
  0
VERTEX
  5
5B0
  8
0
  6
SLD-SOLID
 62
     7
 10
95.5183046573
 20
89.6485340535
 30
0.0
  0
VERTEX
  5
5B1
  8
0
  6
SLD-SOLID
 62
     7
 10
98.8444822543
 20
89.717824453
 30
0.0
  0
VERTEX
  5
5B2
  8
0
  6
SLD-SOLID
 62
     7
 10
102.1466391795
 20
90.0083970963
 30
0.0
  0
VERTEX
  5
5B3
  8
0
  6
SLD-SOLID
 62
     7
 10
105.3951817268
 20
90.5178677975
 30
0.0
  0
VERTEX
  5
5B4
  8
0
  6
SLD-SOLID
 62
     7
 10
106.8004506343
 20
90.8104073941
 30
0.0
  0
SEQEND
  5
5B5
  8
0
  6
SLD-SOLID
 62
     7
  0
POLYLINE
  5
C1
  8
0
  6
SLD-SOLID
 62
     7
 66
     1
 10
0.0
 20
0.0
 30
0.0
  0
VERTEX
  5
5B6
  8
0
  6
SLD-SOLID
 62
     7
 10
106.8004506343
 20
90.8104073941
 30
0.0
  0
VERTEX
  5
5B7
  8
0
  6
SLD-SOLID
 62
     7
 10
108.4620493167
 20
91.2156295716
 30
0.0
  0
VERTEX
  5
5B8
  8
0
  6
SLD-SOLID
 62
     7
 10
111.5200358146
 20
92.1414089142
 30
0.0
  0
VERTEX
  5
5B9
  8
0
  6
SLD-SOLID
 62
     7
 10
114.4413190597
 20
93.268353933
 30
0.0
  0
VERTEX
  5
5BA
  8
0
  6
SLD-SOLID
 62
     7
 10
117.1986001247
 20
94.5868682801
 30
0.0
  0
VERTEX
  5
5BB
  8
0
  6
SLD-SOLID
 62
     7
 10
119.7667556518
 20
96.0857760846
 30
0.0
  0
VERTEX
  5
5BC
  8
0
  6
SLD-SOLID
 62
     7
 10
122.1219437831
 20
97.7522325455
 30
0.0
  0
VERTEX
  5
5BD
  8
0
  6
SLD-SOLID
 62
     7
 10
124.2420213931
 20
99.5716047226
 30
0.0
  0
VERTEX
  5
5BE
  8
0
  6
SLD-SOLID
 62
     7
 10
126.1066632979
 20
101.5276205479
 30
0.0
  0
VERTEX
  5
5BF
  8
0
  6
SLD-SOLID
 62
     7
 10
127.6978688949
 20
103.6020708023
 30
0.0
  0
VERTEX
  5
5C0
  8
0
  6
SLD-SOLID
 62
     7
 10
129.0001707786
 20
105.7751369416
 30
0.0
  0
VERTEX
  5
5C1
  8
0
  6
SLD-SOLID
 62
     7
 10
129.0128367656
 20
105.8035981594
 30
0.0
  0
SEQEND
  5
5C2
  8
0
  6
SLD-SOLID
 62
     7
  0
LINE
  5
C2
  8
0
  6
SLD-SOLID
 62
     7
 10
615.1434766763
 20
115.8204567372
 30
0.0
 11
615.1434766763
 21
114.2831635415
 31
0.0
  0
LINE
  5
C3
  8
0
  6
SLD-SOLID
 62
     7
 10
685.1434844249
 20
114.2831635415
 30
0.0
 11
685.1434844249
 21
115.8204567372
 31
0.0
  0
POLYLINE
  5
C4
  8
0
  6
SLD-SOLID
 62
     7
 66
     1
 10
0.0
 20
0.0
 30
0.0
  0
VERTEX
  5
5C3
  8
0
  6
SLD-SOLID
 62
     7
 10
617.5004231446
 20
105.4524671971
 30
0.0
  0
VERTEX
  5
5C4
  8
0
  6
SLD-SOLID
 62
     7
 10
618.0385413282
 20
104.4511985718
 30
0.0
  0
VERTEX
  5
5C5
  8
0
  6
SLD-SOLID
 62
     7
 10
619.5057841652
 20
102.349717611
 30
0.0
  0
VERTEX
  5
5C6
  8
0
  6
SLD-SOLID
 62
     7
 10
621.2512540334
 20
100.3551673829
 30
0.0
  0
VERTEX
  5
5C7
  8
0
  6
SLD-SOLID
 62
     7
 10
623.2595356815
 20
98.4861445366
 30
0.0
  0
VERTEX
  5
5C8
  8
0
  6
SLD-SOLID
 62
     7
 10
625.5123230332
 20
96.7601132332
 30
0.0
  0
VERTEX
  5
5C9
  8
0
  6
SLD-SOLID
 62
     7
 10
627.9887395614
 20
95.1931667267
 30
0.0
  0
VERTEX
  5
5CA
  8
0
  6
SLD-SOLID
 62
     7
 10
630.6658076757
 20
93.7995803296
 30
0.0
  0
VERTEX
  5
5CB
  8
0
  6
SLD-SOLID
 62
     7
 10
633.5187839978
 20
92.5918412148
 30
0.0
  0
VERTEX
  5
5CC
  8
0
  6
SLD-SOLID
 62
     7
 10
636.5213828796
 20
91.5806782185
 30
0.0
  0
VERTEX
  5
5CD
  8
0
  6
SLD-SOLID
 62
     7
 10
639.646350097
 20
90.7748532235
 30
0.0
  0
VERTEX
  5
5CE
  8
0
  6
SLD-SOLID
 62
     7
 10
642.8654628509
 20
90.1812505661
 30
0.0
  0
VERTEX
  5
5CF
  8
0
  6
SLD-SOLID
 62
     7
 10
646.1498426908
 20
89.8049366414
 30
0.0
  0
VERTEX
  5
5D0
  8
0
  6
SLD-SOLID
 62
     7
 10
649.470030021
 20
89.6491599022
 30
0.0
  0
VERTEX
  5
5D1
  8
0
  6
SLD-SOLID
 62
     7
 10
652.7963566297
 20
89.715231651
 30
0.0
  0
VERTEX
  5
5D2
  8
0
  6
SLD-SOLID
 62
     7
 10
656.099079799
 20
90.0026154457
 30
0.0
  0
VERTEX
  5
5D3
  8
0
  6
SLD-SOLID
 62
     7
 10
659.3486058229
 20
90.5089271008
 30
0.0
  0
VERTEX
  5
5D4
  8
0
  6
SLD-SOLID
 62
     7
 10
662.5158923381
 20
91.2298750817
 30
0.0
  0
VERTEX
  5
5D5
  8
0
  6
SLD-SOLID
 62
     7
 10
665.572582435
 20
92.1594691216
 30
0.0
  0
VERTEX
  5
5D6
  8
0
  6
SLD-SOLID
 62
     7
 10
668.4912132733
 20
93.2899010121
 30
0.0
  0
VERTEX
  5
5D7
  8
0
  6
SLD-SOLID
 62
     7
 10
671.2453799956
 20
94.6116638123
 30
0.0
  0
VERTEX
  5
5D8
  8
0
  6
SLD-SOLID
 62
     7
 10
673.8100039476
 20
96.1136114537
 30
0.0
  0
VERTEX
  5
5D9
  8
0
  6
SLD-SOLID
 62
     7
 10
676.1612432712
 20
97.7828991352
 30
0.0
  0
VERTEX
  5
5DA
  8
0
  6
SLD-SOLID
 62
     7
 10
678.2769995444
 20
99.6048045098
 30
0.0
  0
VERTEX
  5
5DB
  8
0
  6
SLD-SOLID
 62
     7
 10
680.1370071881
 20
101.5630555092
 30
0.0
  0
VERTEX
  5
5DC
  8
0
  6
SLD-SOLID
 62
     7
 10
681.7232655995
 20
103.6394429146
 30
0.0
  0
VERTEX
  5
5DD
  8
0
  6
SLD-SOLID
 62
     7
 10
683.0203818791
 20
105.8140289723
 30
0.0
  0
VERTEX
  5
5DE
  8
0
  6
SLD-SOLID
 62
     7
 10
684.0161072724
 20
108.0654752194
 30
0.0
  0
VERTEX
  5
5DF
  8
0
  6
SLD-SOLID
 62
     7
 10
684.3500124925
 20
109.0538692414
 30
0.0
  0
SEQEND
  5
5E0
  8
0
  6
SLD-SOLID
 62
     7
  0
LINE
  5
C5
  8
0
  6
SLD-SOLID
 62
     7
 10
635.4934858792
 20
91.7544555603
 30
0.0
 11
635.4934858792
 21
33.1623148858
 31
0.0
  0
LINE
  5
C6
  8
0
  6
SLD-SOLID
 62
     7
 10
664.7934752219
 20
33.1623148858
 30
0.0
 11
664.7934752219
 21
91.7544555603
 31
0.0
  0
POLYLINE
  5
C7
  8
0
  6
SLD-SOLID
 62
     7
 66
     1
 10
0.0
 20
0.0
 30
0.0
  0
VERTEX
  5
5E1
  8
0
  6
SLD-SOLID
 62
     7
 10
635.5188774579
 20
33.1521522938
 30
0.0
  0
VERTEX
  5
5E2
  8
0
  6
SLD-SOLID
 62
     7
 10
635.4998933786
 20
32.8103494584
 30
0.0
  0
VERTEX
  5
5E3
  8
0
  6
SLD-SOLID
 62
     7
 10
635.7198941224
 20
31.079519981
 30
0.0
  0
VERTEX
  5
5E4
  8
0
  6
SLD-SOLID
 62
     7
 10
636.2373816484
 20
29.4251334607
 30
0.0
  0
VERTEX
  5
5E5
  8
0
  6
SLD-SOLID
 62
     7
 10
637.0329546445
 20
27.8705847203
 30
0.0
  0
VERTEX
  5
5E6
  8
0
  6
SLD-SOLID
 62
     7
 10
638.0922185891
 20
26.4335167347
 30
0.0
  0
VERTEX
  5
5E7
  8
0
  6
SLD-SOLID
 62
     7
 10
639.4035356753
 20
25.1322579323
 30
0.0
  0
VERTEX
  5
5E8
  8
0
  6
SLD-SOLID
 62
     7
 10
640.9523027652
 20
23.9894282757
 30
0.0
  0
VERTEX
  5
5E9
  8
0
  6
SLD-SOLID
 62
     7
 10
642.7139180415
 20
23.0315518319
 30
0.0
  0
VERTEX
  5
5EA
  8
0
  6
SLD-SOLID
 62
     7
 10
644.6506368631
 20
22.2846758305
 30
0.0
  0
VERTEX
  5
5EB
  8
0
  6
SLD-SOLID
 62
     7
 10
646.7154758685
 20
21.7690360485
 30
0.0
  0
VERTEX
  5
5EC
  8
0
  6
SLD-SOLID
 62
     7
 10
648.8576519006
 20
21.4970004498
 30
0.0
  0
VERTEX
  5
5ED
  8
0
  6
SLD-SOLID
 62
     7
 10
651.0322230571
 20
21.4740526616
 30
0.0
  0
VERTEX
  5
5EE
  8
0
  6
SLD-SOLID
 62
     7
 10
653.1966912263
 20
21.7029642998
 30
0.0
  0
VERTEX
  5
5EF
  8
0
  6
SLD-SOLID
 62
     7
 10
655.3082602733
 20
22.1847486435
 30
0.0
  0
VERTEX
  5
5F0
  8
0
  6
SLD-SOLID
 62
     7
 10
657.3249089234
 20
22.9196739136
 30
0.0
  0
VERTEX
  5
5F1
  8
0
  6
SLD-SOLID
 62
     7
 10
659.2015015596
 20
23.9058625637
 30
0.0
  0
VERTEX
  5
5F2
  8
0
  6
SLD-SOLID
 62
     7
 10
660.8838426583
 20
25.1326155602
 30
0.0
  0
VERTEX
  5
5F3
  8
0
  6
SLD-SOLID
 62
     7
 10
662.3143690341
 20
26.5740048825
 30
0.0
  0
VERTEX
  5
5F4
  8
0
  6
SLD-SOLID
 62
     7
 10
663.3382427209
 20
28.0087184845
 30
0.0
  0
VERTEX
  5
5F5
  8
0
  6
SLD-SOLID
 62
     7
 10
664.1640948766
 20
29.7170472084
 30
0.0
  0
VERTEX
  5
5F6
  8
0
  6
SLD-SOLID
 62
     7
 10
664.6475481504
 20
31.4875435769
 30
0.0
  0
VERTEX
  5
5F7
  8
0
  6
SLD-SOLID
 62
     7
 10
664.7862630599
 20
33.181567186
 30
0.0
  0
SEQEND
  5
5F8
  8
0
  6
SLD-SOLID
 62
     7
  0
LINE
  5
C8
  8
0
  6
SLD-SOLID
 62
     7
 10
81.4934807532
 20
91.7544555603
 30
0.0
 11
81.4934807532
 21
33.1623148858
 31
0.0
  0
LINE
  5
C9
  8
0
  6
SLD-SOLID
 62
     7
 10
110.7934849971
 20
33.1623148858
 30
0.0
 11
110.7934849971
 21
91.7544555603
 31
0.0
  0
POLYLINE
  5
CA
  8
0
  6
SLD-SOLID
 62
     7
 66
     1
 10
0.0
 20
0.0
 30
0.0
  0
VERTEX
  5
5F9
  8
0
  6
SLD-SOLID
 62
     7
 10
81.5336840861
 20
33.1597816883
 30
0.0
  0
VERTEX
  5
5FA
  8
0
  6
SLD-SOLID
 62
     7
 10
81.5369921439
 20
32.245953077
 30
0.0
  0
VERTEX
  5
5FB
  8
0
  6
SLD-SOLID
 62
     7
 10
81.8554895633
 20
30.5356872021
 30
0.0
  0
VERTEX
  5
5FC
  8
0
  6
SLD-SOLID
 62
     7
 10
82.4646192306
 20
28.9114904343
 30
0.0
  0
VERTEX
  5
5FD
  8
0
  6
SLD-SOLID
 62
     7
 10
83.3466785663
 20
27.393002504
 30
0.0
  0
VERTEX
  5
5FE
  8
0
  6
SLD-SOLID
 62
     7
 10
84.4885843509
 20
25.9975981652
 30
0.0
  0
VERTEX
  5
5FF
  8
0
  6
SLD-SOLID
 62
     7
 10
85.8785050624
 20
24.7447681366
 30
0.0
  0
VERTEX
  5
600
  8
0
  6
SLD-SOLID
 62
     7
 10
87.4993043655
 20
23.6586522995
 30
0.0
  0
VERTEX
  5
601
  8
0
  6
SLD-SOLID
 62
     7
 10
89.3221634143
 20
22.766251558
 30
0.0
  0
VERTEX
  5
602
  8
0
  6
SLD-SOLID
 62
     7
 10
91.3055973762
 20
22.0922124325
 30
0.0
  0
VERTEX
  5
603
  8
0
  6
SLD-SOLID
 62
     7
 10
93.4005516284
 20
21.6542971074
 30
0.0
  0
VERTEX
  5
604
  8
0
  6
SLD-SOLID
 62
     7
 10
95.5579417461
 20
21.4622211396
 30
0.0
  0
VERTEX
  5
605
  8
0
  6
SLD-SOLID
 62
     7
 10
97.7338093036
 20
21.5203356682
 30
0.0
  0
VERTEX
  5
606
  8
0
  6
SLD-SOLID
 62
     7
 10
99.8858052009
 20
21.8307566582
 30
0.0
  0
VERTEX
  5
607
  8
0
  6
SLD-SOLID
 62
     7
 10
101.9714313262
 20
22.3942589699
 30
0.0
  0
VERTEX
  5
608
  8
0
  6
SLD-SOLID
 62
     7
 10
103.9480703586
 20
23.2106339871
 30
0.0
  0
VERTEX
  5
609
  8
0
  6
SLD-SOLID
 62
     7
 10
105.7682770007
 20
24.2762458264
 30
0.0
  0
VERTEX
  5
60A
  8
0
  6
SLD-SOLID
 62
     7
 10
107.3756354564
 20
25.5760145127
 30
0.0
  0
VERTEX
  5
60B
  8
0
  6
SLD-SOLID
 62
     7
 10
108.7132828944
 20
27.0779025494
 30
0.0
  0
VERTEX
  5
60C
  8
0
  6
SLD-SOLID
 62
     7
 10
109.6426981204
 20
28.5514783799
 30
0.0
  0
VERTEX
  5
60D
  8
0
  6
SLD-SOLID
 62
     7
 10
110.3577452415
 20
30.2847218453
 30
0.0
  0
VERTEX
  5
60E
  8
0
  6
SLD-SOLID
 62
     7
 10
110.7307213061
 20
32.0621323525
 30
0.0
  0
VERTEX
  5
60F
  8
0
  6
SLD-SOLID
 62
     7
 10
110.7559042686
 20
33.1848156392
 30
0.0
  0
SEQEND
  5
610
  8
0
  6
SLD-SOLID
 62
     7
  0
LINE
  5
CB
  8
0
  6
SLD-SOLID
 62
     7
 10
819.3434911483
 20
231.0529988943
 30
0.0
 11
819.3434911483
 21
202.9030066668
 31
0.0
  0
LINE
  5
CC
  8
0
  6
SLD-SOLID
 62
     7
 10
36.943479132
 20
202.9030066668
 30
0.0
 11
36.943479132
 21
231.0529988943
 31
0.0
  0
LINE
  5
CD
  8
0
  6
SLD-SOLID
 62
     7
 10
819.3434911483
 20
233.1030112444
 30
0.0
 11
818.5934859031
 21
233.1030112444
 31
0.0
  0
LINE
  5
CE
  8
0
  6
SLD-SOLID
 62
     7
 10
803.8434820884
 20
233.1030112444
 30
0.0
 11
52.4434881919
 21
233.1030112444
 31
0.0
  0
LINE
  5
CF
  8
0
  6
SLD-SOLID
 62
     7
 10
37.6934843772
 20
233.1030112444
 30
0.0
 11
36.943479132
 21
233.1030112444
 31
0.0
  0
LINE
  5
D0
  8
0
  6
SLD-SOLID
 62
     7
 10
819.3434911483
 20
233.1030112444
 30
0.0
 11
819.3434911483
 21
231.0529988943
 31
0.0
  0
LINE
  5
D1
  8
0
  6
SLD-SOLID
 62
     7
 10
36.943479132
 20
231.0529988943
 30
0.0
 11
36.943479132
 21
233.1030112444
 31
0.0
  0
LINE
  5
D2
  8
0
  6
SLD-SOLID
 62
     7
 10
818.0934923404
 20
177.1030020653
 30
0.0
 11
38.1934779399
 21
177.1030020653
 31
0.0
  0
LINE
  5
D3
  8
0
  6
SLD-SOLID
 62
     7
 10
36.943479132
 20
177.1030020653
 30
0.0
 11
38.1934779399
 21
177.1030020653
 31
0.0
  0
LINE
  5
D4
  8
0
  6
SLD-SOLID
 62
     7
 10
819.3434911483
 20
177.1030020653
 30
0.0
 11
818.0934923404
 21
177.1030020653
 31
0.0
  0
LINE
  5
D5
  8
0
  6
SLD-SOLID
 62
     7
 10
819.3434911483
 20
202.9030066668
 30
0.0
 11
819.3434911483
 21
177.1030020653
 31
0.0
  0
LINE
  5
D6
  8
0
  6
SLD-SOLID
 62
     7
 10
36.943479132
 20
177.1030020653
 30
0.0
 11
36.943479132
 21
202.9030066668
 31
0.0
  0
LINE
  5
D7
  8
0
  6
SLD-SOLID
 62
     7
 10
820.1434748881
 20
231.0529988943
 30
0.0
 11
820.1434748881
 21
202.9030066668
 31
0.0
  0
LINE
  5
D8
  8
0
  6
SLD-SOLID
 62
     7
 10
820.1434748881
 20
232.2030109106
 30
0.0
 11
819.3434911483
 21
232.2030109106
 31
0.0
  0
LINE
  5
D9
  8
0
  6
SLD-SOLID
 62
     7
 10
820.1434748881
 20
232.2030109106
 30
0.0
 11
820.1434748881
 21
231.0529988943
 31
0.0
  0
LINE
  5
DA
  8
0
  6
SLD-SOLID
 62
     7
 10
820.1434748881
 20
178.0080240904
 30
0.0
 11
819.3434911483
 21
178.0080240904
 31
0.0
  0
LINE
  5
DB
  8
0
  6
SLD-SOLID
 62
     7
 10
820.1434748881
 20
202.9030066668
 30
0.0
 11
820.1434748881
 21
178.0080240904
 31
0.0
  0
LINE
  5
DC
  8
0
  6
SLD-SOLID
 62
     7
 10
36.1434655898
 20
232.2030109106
 30
0.0
 11
36.943479132
 21
232.2030109106
 31
0.0
  0
LINE
  5
DD
  8
0
  6
SLD-SOLID
 62
     7
 10
36.1434655898
 20
231.0529988943
 30
0.0
 11
36.1434655898
 21
232.2030109106
 31
0.0
  0
LINE
  5
DE
  8
0
  6
SLD-SOLID
 62
     7
 10
36.1434655898
 20
202.9030066668
 30
0.0
 11
36.1434655898
 21
231.0529988943
 31
0.0
  0
LINE
  5
DF
  8
0
  6
SLD-SOLID
 62
     7
 10
36.1434655898
 20
178.0080240904
 30
0.0
 11
36.943479132
 21
178.0080240904
 31
0.0
  0
LINE
  5
E0
  8
0
  6
SLD-SOLID
 62
     7
 10
36.1434655898
 20
178.0080240904
 30
0.0
 11
36.1434655898
 21
202.9030066668
 31
0.0
  0
POLYLINE
  5
E1
  8
0
  6
SLD-SOLID
 62
     7
 66
     1
 10
0.0
 20
0.0
 30
0.0
  0
VERTEX
  5
611
  8
0
  6
SLD-SOLID
 62
     7
 10
819.7905259841
 20
232.2030109106
 30
0.0
  0
VERTEX
  5
612
  8
0
  6
SLD-SOLID
 62
     7
 10
819.543047499
 20
232.5025689541
 30
0.0
  0
VERTEX
  5
613
  8
0
  6
SLD-SOLID
 62
     7
 10
819.3434911483
 20
232.6778066098
 30
0.0
  0
SEQEND
  5
614
  8
0
  6
SLD-SOLID
 62
     7
  0
POLYLINE
  5
E2
  8
0
  6
SLD-SOLID
 62
     7
 66
     1
 10
0.0
 20
0.0
 30
0.0
  0
VERTEX
  5
615
  8
0
  6
SLD-SOLID
 62
     7
 10
36.943479132
 20
232.6778066098
 30
0.0
  0
VERTEX
  5
616
  8
0
  6
SLD-SOLID
 62
     7
 10
36.7439227813
 20
232.5025689541
 30
0.0
  0
VERTEX
  5
617
  8
0
  6
SLD-SOLID
 62
     7
 10
36.4964144939
 20
232.2030109106
 30
0.0
  0
SEQEND
  5
618
  8
0
  6
SLD-SOLID
 62
     7
  0
ARC
  5
E3
  8
0
  6
SLD-SOLID
 62
     7
 10
38.1934800365
 20
179.1530048049
 30
0.0
 40
2.04999999999997
 50
213.9539595147
 51
232.4281306803
  0
ARC
  5
E4
  8
0
  6
SLD-SOLID
 62
     7
 10
818.0934800365
 20
179.1530048049
 30
0.0
 40
2.049999999999988
 50
307.5718693197
 51
326.0460404852
  0
LINE
  5
E5
  8
0
  6
SLD-SOLID
 62
     7
 10
783.4434943908
 20
391.0030056476
 30
0.0
 11
780.1434832328
 21
391.0030056476
 31
0.0
  0
LINE
  5
E6
  8
0
  6
SLD-SOLID
 62
     7
 10
773.1434839481
 20
391.0030056476
 30
0.0
 11
763.1434934848
 21
391.0030056476
 31
0.0
  0
LINE
  5
E7
  8
0
  6
SLD-SOLID
 62
     7
 10
739.1434746497
 20
391.0030056476
 30
0.0
 11
733.793480944
 21
391.0030056476
 31
0.0
  0
LINE
  5
E8
  8
0
  6
SLD-SOLID
 62
     7
 10
783.4434943908
 20
391.0030056476
 30
0.0
 11
783.4434943908
 21
389.0030053197
 31
0.0
  0
LINE
  5
E9
  8
0
  6
SLD-SOLID
 62
     7
 10
783.4434943908
 20
389.0030053197
 30
0.0
 11
783.4434943908
 21
368.0030037402
 31
0.0
  0
LINE
  5
EA
  8
0
  6
SLD-SOLID
 62
     7
 10
783.4434943908
 20
366.0030034124
 30
0.0
 11
780.1434832328
 21
366.0030034124
 31
0.0
  0
LINE
  5
EB
  8
0
  6
SLD-SOLID
 62
     7
 10
773.1434839481
 20
366.0030034124
 30
0.0
 11
763.1434934848
 21
366.0030034124
 31
0.0
  0
LINE
  5
EC
  8
0
  6
SLD-SOLID
 62
     7
 10
739.1434746497
 20
366.0030034124
 30
0.0
 11
733.793480944
 21
366.0030034124
 31
0.0
  0
LINE
  5
ED
  8
0
  6
SLD-SOLID
 62
     7
 10
783.4434943908
 20
368.0030037402
 30
0.0
 11
783.4434943908
 21
366.0030034124
 31
0.0
  0
LINE
  5
EE
  8
0
  6
SLD-SOLID
 62
     7
 10
785.4434686416
 20
389.0030053197
 30
0.0
 11
785.4434686416
 21
368.0030037402
 31
0.0
  0
LINE
  5
EF
  8
0
  6
SLD-SOLID
 62
     7
 10
785.4434686416
 20
366.0030034124
 30
0.0
 11
783.4434943908
 21
366.0030034124
 31
0.0
  0
LINE
  5
F0
  8
0
  6
SLD-SOLID
 62
     7
 10
785.4434686416
 20
368.0030037402
 30
0.0
 11
785.4434686416
 21
366.0030034124
 31
0.0
  0
LINE
  5
F1
  8
0
  6
SLD-SOLID
 62
     7
 10
785.4434686416
 20
391.0030056476
 30
0.0
 11
783.4434943908
 21
391.0030056476
 31
0.0
  0
LINE
  5
F2
  8
0
  6
SLD-SOLID
 62
     7
 10
785.4434686416
 20
391.0030056476
 30
0.0
 11
785.4434686416
 21
389.0030053197
 31
0.0
  0
LINE
  5
F3
  8
0
  6
SLD-SOLID
 62
     7
 10
712.1434795373
 20
359.0030041276
 30
0.0
 11
712.4434846156
 21
359.0030041276
 31
0.0
  0
LINE
  5
F4
  8
0
  6
SLD-SOLID
 62
     7
 10
712.4434846156
 20
353.0030068695
 30
0.0
 11
712.1434795373
 21
353.0030068695
 31
0.0
  0
ARC
  5
F5
  8
0
  6
SLD-SOLID
 62
     7
 10
712.4434800365
 20
356.0030048049
 30
0.0
 40
3.0
 50
270.0
 51
90.0
  0
ARC
  5
F6
  8
0
  6
SLD-SOLID
 62
     7
 10
791.4434800365
 20
401.0030048049
 30
0.0
 40
3.000000000000117
 50
115.6792886195
 51
244.3207113806
  0
LINE
  5
F7
  8
0
  6
SLD-SOLID
 62
     7
 10
700.4434751981
 20
359.5030051409
 30
0.0
 11
700.4434751981
 21
361.6530042826
 31
0.0
  0
LINE
  5
F8
  8
0
  6
SLD-SOLID
 62
     7
 10
700.4434751981
 20
395.3530047773
 30
0.0
 11
700.4434751981
 21
407.5030055581
 31
0.0
  0
ARC
  5
F9
  8
0
  6
SLD-SOLID
 62
     7
 10
702.4434800365
 20
407.5030048049
 30
0.0
 40
2.0
 50
90.0
 51
180.0
  0
ARC
  5
FA
  8
0
  6
SLD-SOLID
 62
     7
 10
783.4434800365
 20
393.0030048049
 30
0.0
 40
2.0
 50
270.0
 51
0.0
  0
ARC
  5
FB
  8
0
  6
SLD-SOLID
 62
     7
 10
787.4434800365
 20
407.5030048049
 30
0.0
 40
2.0
 50
90.0
 51
180.0
  0
LINE
  5
FC
  8
0
  6
SLD-SOLID
 62
     7
 10
787.4434726947
 20
409.5030040233
 30
0.0
 11
790.1434736961
 21
409.5030040233
 31
0.0
  0
LINE
  5
FD
  8
0
  6
SLD-SOLID
 62
     7
 10
785.4434686416
 20
350.957673484
 30
0.0
 11
785.4434686416
 21
364.0030030846
 31
0.0
  0
ARC
  5
FE
  8
0
  6
SLD-SOLID
 62
     7
 10
783.4434800365
 20
364.0030048049
 30
0.0
 40
2.0
 50
0.0
 51
90.0
  0
LINE
  5
FF
  8
0
  6
SLD-SOLID
 62
     7
 10
718.4434818738
 20
361.6530042826
 30
0.0
 11
718.4434818738
 21
352.5030058562
 31
0.0
  0
LINE
  5
100
  8
0
  6
SLD-SOLID
 62
     7
 10
712.4434846156
 20
404.0030040531
 30
0.0
 11
713.4434866422
 21
403.8314320831
 31
0.0
  0
LINE
  5
101
  8
0
  6
SLD-SOLID
 62
     7
 10
712.1434795373
 20
404.0030040531
 30
0.0
 11
712.4434846156
 21
404.0030040531
 31
0.0
  0
ARC
  5
102
  8
0
  6
SLD-SOLID
 62
     7
 10
706.4434800365
 20
401.0030048049
 30
0.0
 40
2.999999999999973
 50
115.6792886194
 51
244.3207113806
  0
ARC
  5
103
  8
0
  6
SLD-SOLID
 62
     7
 10
791.4434800365
 20
356.0030048049
 30
0.0
 40
3.000000000000014
 50
115.6792886195
 51
244.3207113805
  0
LINE
  5
104
  8
0
  6
SLD-SOLID
 62
     7
 10
702.4434792512
 20
409.5030040233
 30
0.0
 11
705.1434802526
 21
409.5030040233
 31
0.0
  0
LINE
  5
105
  8
0
  6
SLD-SOLID
 62
     7
 10
785.4434686416
 20
393.0030059754
 30
0.0
 11
785.4434686416
 21
407.5030055581
 31
0.0
  0
ARC
  5
106
  8
0
  6
SLD-SOLID
 62
     7
 10
770.4434800365
 20
378.5030048049
 30
0.0
 40
4.12135533464417
 50
76.0614208953
 51
103.9385791047
  0
ARC
  5
107
  8
0
  6
SLD-SOLID
 62
     7
 10
770.4434800365
 20
378.5030048049
 30
0.0
 40
4.121355334644182
 50
136.0614208953
 51
163.9385791047
  0
ARC
  5
108
  8
0
  6
SLD-SOLID
 62
     7
 10
770.4434800365
 20
378.5030048049
 30
0.0
 40
4.121355334644213
 50
196.0614208953
 51
223.9385791047
  0
ARC
  5
109
  8
0
  6
SLD-SOLID
 62
     7
 10
770.4434800365
 20
378.5030048049
 30
0.0
 40
4.12135533464417
 50
256.0614208953
 51
283.9385791047
  0
LINE
  5
10A
  8
0
  6
SLD-SOLID
 62
     7
 10
773.1434839481
 20
382.0088025867
 30
0.0
 11
772.9614513629
 21
382.1417432963
 31
0.0
  0
ARC
  5
10B
  8
0
  6
SLD-SOLID
 62
     7
 10
770.4434800365
 20
378.5030048049
 30
0.0
 40
4.424999999999976
 50
64.6828783444
 51
115.3171216556
  0
ARC
  5
10C
  8
0
  6
SLD-SOLID
 62
     7
 10
770.4434800365
 20
378.5030048049
 30
0.0
 40
4.425000000000016
 50
124.6828783443
 51
175.3171216557
  0
ARC
  5
10D
  8
0
  6
SLD-SOLID
 62
     7
 10
770.4434800365
 20
378.5030048049
 30
0.0
 40
4.424999999999923
 50
184.6828783443
 51
235.3171216557
  0
ARC
  5
10E
  8
0
  6
SLD-SOLID
 62
     7
 10
770.4434800365
 20
378.5030048049
 30
0.0
 40
4.425000000000027
 50
244.6828783444
 51
295.3171216557
  0
LINE
  5
10F
  8
0
  6
SLD-SOLID
 62
     7
 10
772.9614513629
 20
374.8642657637
 30
0.0
 11
773.1434839481
 21
374.9972064732
 31
0.0
  0
LINE
  5
110
  8
0
  6
SLD-SOLID
 62
     7
 10
773.1434839481
 20
383.5030053495
 30
0.0
 11
767.5567405933
 21
383.5030053495
 31
0.0
  0
LINE
  5
111
  8
0
  6
SLD-SOLID
 62
     7
 10
767.5567405933
 20
383.5030053495
 30
0.0
 11
764.6699684375
 21
378.5030063926
 31
0.0
  0
LINE
  5
112
  8
0
  6
SLD-SOLID
 62
     7
 10
764.6699684375
 20
378.5030063926
 30
0.0
 11
767.5567405933
 21
373.5030037104
 31
0.0
  0
LINE
  5
113
  8
0
  6
SLD-SOLID
 62
     7
 10
767.5567405933
 20
373.5030037104
 30
0.0
 11
773.1434839481
 21
373.5030037104
 31
0.0
  0
LINE
  5
114
  8
0
  6
SLD-SOLID
 62
     7
 10
768.1340711825
 20
374.503005737
 30
0.0
 11
769.6934777015
 21
374.503005737
 31
0.0
  0
LINE
  5
115
  8
0
  6
SLD-SOLID
 62
     7
 10
765.8246892207
 20
378.5030063926
 30
0.0
 11
768.1340711825
 21
374.503005737
 31
0.0
  0
LINE
  5
116
  8
0
  6
SLD-SOLID
 62
     7
 10
769.6934777015
 20
382.503003323
 30
0.0
 11
769.6934777015
 21
374.503005737
 31
0.0
  0
LINE
  5
117
  8
0
  6
SLD-SOLID
 62
     7
 10
769.6934777015
 20
382.503003323
 30
0.0
 11
768.1340711825
 21
382.503003323
 31
0.0
  0
LINE
  5
118
  8
0
  6
SLD-SOLID
 62
     7
 10
768.1340711825
 20
382.503003323
 30
0.0
 11
765.8246892207
 21
378.5030063926
 31
0.0
  0
LINE
  5
119
  8
0
  6
SLD-SOLID
 62
     7
 10
773.1434839481
 20
381.826468253
 30
0.0
 11
772.7528947108
 21
382.503003323
 31
0.0
  0
LINE
  5
11A
  8
0
  6
SLD-SOLID
 62
     7
 10
772.7528947108
 20
374.503005737
 30
0.0
 11
773.1434839481
 21
375.1795408069
 31
0.0
  0
LINE
  5
11B
  8
0
  6
SLD-SOLID
 62
     7
 10
771.1934881919
 20
374.503005737
 30
0.0
 11
772.7528947108
 21
374.503005737
 31
0.0
  0
LINE
  5
11C
  8
0
  6
SLD-SOLID
 62
     7
 10
771.1934881919
 20
374.503005737
 30
0.0
 11
771.1934881919
 21
382.503003323
 31
0.0
  0
LINE
  5
11D
  8
0
  6
SLD-SOLID
 62
     7
 10
772.7528947108
 20
382.503003323
 30
0.0
 11
771.1934881919
 21
382.503003323
 31
0.0
  0
LINE
  5
11E
  8
0
  6
SLD-SOLID
 62
     7
 10
771.1934881919
 20
374.503005737
 30
0.0
 11
769.6934777015
 21
374.503005737
 31
0.0
  0
LINE
  5
11F
  8
0
  6
SLD-SOLID
 62
     7
 10
771.1934881919
 20
382.503003323
 30
0.0
 11
769.6934777015
 21
382.503003323
 31
0.0
  0
LINE
  5
120
  8
0
  6
SLD-SOLID
 62
     7
 10
751.3438152783
 20
169.1030156552
 30
0.0
 11
758.9431541675
 21
169.1030156552
 31
0.0
  0
LINE
  5
121
  8
0
  6
SLD-SOLID
 62
     7
 10
758.2028942817
 20
167.1030116021
 30
0.0
 11
758.2028942817
 21
169.1030156552
 31
0.0
  0
LINE
  5
122
  8
0
  6
SLD-SOLID
 62
     7
 10
752.0840751641
 20
167.1030116021
 30
0.0
 11
752.0840751641
 21
169.1030156552
 31
0.0
  0
ARC
  5
123
  8
0
  6
SLD-SOLID
 62
     7
 10
685.8261281881
 20
350.636490946
 30
0.0
 40
1.168647399985767
 50
15.9520453267
 51
86.5346027282
  0
POLYLINE
  5
124
  8
0
  6
SLD-SOLID
 62
     7
 66
     1
 10
0.0
 20
0.0
 30
0.0
  0
VERTEX
  5
619
  8
0
  6
SLD-SOLID
 62
     7
 10
687.4041246884
 20
352.6530083953
 30
0.0
  0
VERTEX
  5
61A
  8
0
  6
SLD-SOLID
 62
     7
 10
688.1154912227
 20
352.4893489419
 30
0.0
  0
VERTEX
  5
61B
  8
0
  6
SLD-SOLID
 62
     7
 10
688.1434756034
 20
352.4756249725
 30
0.0
  0
SEQEND
  5
61C
  8
0
  6
SLD-SOLID
 62
     7
  0
POLYLINE
  5
125
  8
0
  6
SLD-SOLID
 62
     7
 66
     1
 10
0.0
 20
0.0
 30
0.0
  0
VERTEX
  5
61D
  8
0
  6
SLD-SOLID
 62
     7
 10
686.4978062623
 20
352.3801532327
 30
0.0
  0
VERTEX
  5
61E
  8
0
  6
SLD-SOLID
 62
     7
 10
686.6927581542
 20
352.4893489419
 30
0.0
  0
VERTEX
  5
61F
  8
0
  6
SLD-SOLID
 62
     7
 10
687.4041246884
 20
352.6530083953
 30
0.0
  0
SEQEND
  5
620
  8
0
  6
SLD-SOLID
 62
     7
  0
POLYLINE
  5
126
  8
0
  6
SLD-SOLID
 62
     7
 66
     1
 10
0.0
 20
0.0
 30
0.0
  0
VERTEX
  5
621
  8
0
  6
SLD-SOLID
 62
     7
 10
736.2417715304
 20
409.5030040233
 30
0.0
  0
VERTEX
  5
622
  8
0
  6
SLD-SOLID
 62
     7
 10
737.7130823844
 20
408.4577564835
 30
0.0
  0
VERTEX
  5
623
  8
0
  6
SLD-SOLID
 62
     7
 10
739.1434746497
 20
408.0531676053
 30
0.0
  0
SEQEND
  5
624
  8
0
  6
SLD-SOLID
 62
     7
  0
LINE
  5
127
  8
0
  6
SLD-SOLID
 62
     7
 10
736.2417715304
 20
409.5030040233
 30
0.0
 11
736.2417715304
 21
409.9072240977
 31
0.0
  0
LINE
  5
128
  8
0
  6
SLD-SOLID
 62
     7
 10
737.9434841388
 20
408.0030047088
 30
0.0
 11
739.1434746497
 21
408.0030047088
 31
0.0
  0
LINE
  5
129
  8
0
  6
SLD-SOLID
 62
     7
 10
737.9434841388
 20
404.0030040531
 30
0.0
 11
739.1434746497
 21
404.0030040531
 31
0.0
  0
LINE
  5
12A
  8
0
  6
SLD-SOLID
 62
     7
 10
738.5511683934
 20
394.5030052899
 30
0.0
 11
739.1434746497
 21
393.9681243836
 31
0.0
  0
LINE
  5
12B
  8
0
  6
SLD-SOLID
 62
     7
 10
738.5511683934
 20
394.5030052899
 30
0.0
 11
738.5511683934
 21
396.7530042617
 31
0.0
  0
LINE
  5
12C
  8
0
  6
SLD-SOLID
 62
     7
 10
739.1434746497
 20
397.2305324613
 30
0.0
 11
738.5511683934
 21
396.7530042617
 31
0.0
  0
LINE
  5
12D
  8
0
  6
SLD-SOLID
 62
     7
 10
739.3140631431
 20
157.1029913365
 30
0.0
 11
770.9728914016
 21
157.1029913365
 31
0.0
  0
ARC
  5
12E
  8
0
  6
SLD-SOLID
 62
     7
 10
755.1435037953
 20
162.369987067
 30
0.0
 40
2.468277759107044
 50
12.5042956605
 51
167.4503496123
  0
LINE
  5
12F
  8
0
  6
SLD-SOLID
 62
     7
 10
772.4830346816
 20
164.4276869236
 30
0.0
 11
771.2673085445
 21
163.6800658642
 31
0.0
  0
LINE
  5
130
  8
0
  6
SLD-SOLID
 62
     7
 10
770.4667287582
 20
164.9535190998
 30
0.0
 11
770.1824444049
 21
163.4375047623
 31
0.0
  0
LINE
  5
131
  8
0
  6
SLD-SOLID
 62
     7
 10
770.1824444049
 20
163.4375047623
 30
0.0
 11
768.6543601268
 21
163.4172391831
 31
0.0
  0
LINE
  5
132
  8
0
  6
SLD-SOLID
 62
     7
 10
769.6714537852
 20
162.6926255165
 30
0.0
 11
767.6889734977
 21
160.1151120602
 31
0.0
  0
LINE
  5
133
  8
0
  6
SLD-SOLID
 62
     7
 10
770.3012066596
 20
161.6461467682
 30
0.0
 11
771.0048990958
 21
160.5405700146
 31
0.0
  0
LINE
  5
134
  8
0
  6
SLD-SOLID
 62
     7
 10
755.1434772723
 20
167.1030116021
 30
0.0
 11
787.6434760802
 21
167.1030116021
 31
0.0
  0
LINE
  5
135
  8
0
  6
SLD-SOLID
 62
     7
 10
722.6434784644
 20
167.1030116021
 30
0.0
 11
755.1434772723
 21
167.1030116021
 31
0.0
  0
POLYLINE
  5
136
  8
0
  6
SLD-SOLID
 62
     7
 66
     1
 10
0.0
 20
0.0
 30
0.0
  0
VERTEX
  5
625
  8
0
  6
SLD-SOLID
 62
     7
 10
755.1434772723
 20
160.135705465
 30
0.0
  0
VERTEX
  5
626
  8
0
  6
SLD-SOLID
 62
     7
 10
756.1004894488
 20
160.3177678524
 30
0.0
  0
VERTEX
  5
627
  8
0
  6
SLD-SOLID
 62
     7
 10
756.9111722224
 20
160.8337950646
 30
0.0
  0
VERTEX
  5
628
  8
0
  6
SLD-SOLID
 62
     7
 10
757.4521439784
 20
161.599446529
 30
0.0
  0
VERTEX
  5
629
  8
0
  6
SLD-SOLID
 62
     7
 10
757.6418357604
 20
162.4926817357
 30
0.0
  0
VERTEX
  5
62A
  8
0
  6
SLD-SOLID
 62
     7
 10
757.4516671413
 20
163.3755457341
 30
0.0
  0
VERTEX
  5
62B
  8
0
  6
SLD-SOLID
 62
     7
 10
756.9102185481
 20
164.1160440384
 30
0.0
  0
VERTEX
  5
62C
  8
0
  6
SLD-SOLID
 62
     7
 10
756.0992675536
 20
164.6067690789
 30
0.0
  0
VERTEX
  5
62D
  8
0
  6
SLD-SOLID
 62
     7
 10
755.1421361678
 20
164.7780430256
 30
0.0
  0
VERTEX
  5
62E
  8
0
  6
SLD-SOLID
 62
     7
 10
754.1852432006
 20
164.6058154046
 30
0.0
  0
VERTEX
  5
62F
  8
0
  6
SLD-SOLID
 62
     7
 10
753.3748882526
 20
164.1142857014
 30
0.0
  0
VERTEX
  5
630
  8
0
  6
SLD-SOLID
 62
     7
 10
752.8343337291
 20
163.3732509552
 30
0.0
  0
VERTEX
  5
631
  8
0
  6
SLD-SOLID
 62
     7
 10
752.6452230924
 20
162.4902081429
 30
0.0
  0
VERTEX
  5
632
  8
0
  6
SLD-SOLID
 62
     7
 10
752.835987758
 20
161.5971815525
 30
0.0
  0
VERTEX
  5
633
  8
0
  6
SLD-SOLID
 62
     7
 10
753.3776300662
 20
160.8320963322
 30
0.0
  0
VERTEX
  5
634
  8
0
  6
SLD-SOLID
 62
     7
 10
754.1895049327
 20
160.3169929921
 30
0.0
  0
VERTEX
  5
635
  8
0
  6
SLD-SOLID
 62
     7
 10
755.1434772723
 20
160.135705465
 30
0.0
  0
SEQEND
  5
636
  8
0
  6
SLD-SOLID
 62
     7
  0
POLYLINE
  5
137
  8
0
  6
SLD-SOLID
 62
     7
 66
     1
 10
0.0
 20
0.0
 30
0.0
  0
VERTEX
  5
637
  8
0
  6
SLD-SOLID
 62
     7
 10
771.0038262122
 20
157.0899379193
 30
0.0
  0
VERTEX
  5
638
  8
0
  6
SLD-SOLID
 62
     7
 10
770.9996240848
 20
157.0959877907
 30
0.0
  0
VERTEX
  5
639
  8
0
  6
SLD-SOLID
 62
     7
 10
770.9913390391
 20
157.1005773484
 30
0.0
  0
VERTEX
  5
63A
  8
0
  6
SLD-SOLID
 62
     7
 10
770.9728914016
 20
157.1029913365
 30
0.0
  0
SEQEND
  5
63B
  8
0
  6
SLD-SOLID
 62
     7
  0
LINE
  5
138
  8
0
  6
SLD-SOLID
 62
     7
 10
756.6434877627
 20
137.6926493584
 30
0.0
 11
756.6434877627
 21
139.040518993
 31
0.0
  0
LINE
  5
139
  8
0
  6
SLD-SOLID
 62
     7
 10
755.4085987323
 20
156.4342570244
 30
0.0
 11
756.6434877627
 21
139.040518993
 31
0.0
  0
ARC
  5
13A
  8
0
  6
SLD-SOLID
 62
     7
 10
755.171167086
 20
156.4085278291
 30
0.0
 40
0.2388216451098122
 50
6.1847031887
 51
92.890608763
  0
LINE
  5
13B
  8
0
  6
SLD-SOLID
 62
     7
 10
755.1591234916
 20
156.6470456063
 30
0.0
 11
755.1278310531
 21
156.6470456063
 31
0.0
  0
ARC
  5
13C
  8
0
  6
SLD-SOLID
 62
     7
 10
755.1198614453
 20
156.4037514507
 30
0.0
 40
0.2434246511146554
 50
88.123828048
 51
172.8008600003
  0
LINE
  5
13D
  8
0
  6
SLD-SOLID
 62
     7
 10
754.8783558124
 20
156.4342570244
 30
0.0
 11
753.6434667819
 21
139.040518993
 31
0.0
  0
LINE
  5
13E
  8
0
  6
SLD-SOLID
 62
     7
 10
753.6434667819
 20
139.040518993
 30
0.0
 11
753.6434667819
 21
137.6926493584
 31
0.0
  0
POLYLINE
  5
13F
  8
0
  6
SLD-SOLID
 62
     7
 66
     1
 10
0.0
 20
0.0
 30
0.0
  0
VERTEX
  5
63C
  8
0
  6
SLD-SOLID
 62
     7
 10
739.3140631431
 20
157.1029913365
 30
0.0
  0
VERTEX
  5
63D
  8
0
  6
SLD-SOLID
 62
     7
 10
739.3005179875
 20
157.1018290459
 30
0.0
  0
VERTEX
  5
63E
  8
0
  6
SLD-SOLID
 62
     7
 10
739.2884778493
 20
157.096941465
 30
0.0
  0
VERTEX
  5
63F
  8
0
  6
SLD-SOLID
 62
     7
 10
739.2839776986
 20
157.0917558609
 30
0.0
  0
VERTEX
  5
640
  8
0
  6
SLD-SOLID
 62
     7
 10
739.2831283324
 20
157.0899379193
 30
0.0
  0
SEQEND
  5
641
  8
0
  6
SLD-SOLID
 62
     7
  0
ARC
  5
140
  8
0
  6
SLD-SOLID
 62
     7
 10
755.1686646978
 20
156.5131404133
 30
0.0
 40
0.2415608710736917
 50
6.6533496246
 51
92.2636658478
  0
ARC
  5
141
  8
0
  6
SLD-SOLID
 62
     7
 10
755.1183184948
 20
156.5131069199
 30
0.0
 40
0.2415932086155825
 50
87.7434367
 51
173.3395478277
  0
POLYLINE
  5
142
  8
0
  6
SLD-SOLID
 62
     7
 66
     1
 10
0.0
 20
0.0
 30
0.0
  0
VERTEX
  5
642
  8
0
  6
SLD-SOLID
 62
     7
 10
754.6108799689
 20
139.1776692807
 30
0.0
  0
VERTEX
  5
643
  8
0
  6
SLD-SOLID
 62
     7
 10
754.5501726382
 20
139.2092895447
 30
0.0
  0
VERTEX
  5
644
  8
0
  6
SLD-SOLID
 62
     7
 10
754.3304401153
 20
139.2477047383
 30
0.0
  0
VERTEX
  5
645
  8
0
  6
SLD-SOLID
 62
     7
 10
754.030807566
 20
139.2420720993
 30
0.0
  0
VERTEX
  5
646
  8
0
  6
SLD-SOLID
 62
     7
 10
753.8005250209
 20
139.2025840222
 30
0.0
  0
VERTEX
  5
647
  8
0
  6
SLD-SOLID
 62
     7
 10
753.6695140117
 20
139.1673576771
 30
0.0
  0
VERTEX
  5
648
  8
0
  6
SLD-SOLID
 62
     7
 10
753.6450165027
 20
139.1807389199
 30
0.0
  0
VERTEX
  5
649
  8
0
  6
SLD-SOLID
 62
     7
 10
753.6434667819
 20
139.1987395226
 30
0.0
  0
SEQEND
  5
64A
  8
0
  6
SLD-SOLID
 62
     7
  0
POLYLINE
  5
143
  8
0
  6
SLD-SOLID
 62
     7
 66
     1
 10
0.0
 20
0.0
 30
0.0
  0
VERTEX
  5
64B
  8
0
  6
SLD-SOLID
 62
     7
 10
756.6434877627
 20
139.1987395226
 30
0.0
  0
VERTEX
  5
64C
  8
0
  6
SLD-SOLID
 62
     7
 10
756.6369312518
 20
139.1708445488
 30
0.0
  0
VERTEX
  5
64D
  8
0
  6
SLD-SOLID
 62
     7
 10
756.5846877807
 20
139.1751956879
 30
0.0
  0
VERTEX
  5
64E
  8
0
  6
SLD-SOLID
 62
     7
 10
756.424977135
 20
139.2165017067
 30
0.0
  0
VERTEX
  5
64F
  8
0
  6
SLD-SOLID
 62
     7
 10
756.1791377776
 20
139.2482709824
 30
0.0
  0
VERTEX
  5
650
  8
0
  6
SLD-SOLID
 62
     7
 10
755.8682697528
 20
139.2386448323
 30
0.0
  0
VERTEX
  5
651
  8
0
  6
SLD-SOLID
 62
     7
 10
755.7492988818
 20
139.2134320675
 30
0.0
  0
VERTEX
  5
652
  8
0
  6
SLD-SOLID
 62
     7
 10
755.6886809581
 20
139.1871166169
 30
0.0
  0
VERTEX
  5
653
  8
0
  6
SLD-SOLID
 62
     7
 10
755.6760745757
 20
139.1776692807
 30
0.0
  0
SEQEND
  5
654
  8
0
  6
SLD-SOLID
 62
     7
  0
LINE
  5
144
  8
0
  6
SLD-SOLID
 62
     7
 10
769.6758347266
 20
162.6889002263
 30
0.0
 11
767.6928776019
 21
160.1114165722
 31
0.0
  0
LINE
  5
145
  8
0
  6
SLD-SOLID
 62
     7
 10
768.6584132426
 20
163.4135436951
 30
0.0
 11
769.6758347266
 21
162.6889002263
 31
0.0
  0
LINE
  5
146
  8
0
  6
SLD-SOLID
 62
     7
 10
770.1869445556
 20
163.433779472
 30
0.0
 11
768.6584132426
 21
163.4135436951
 31
0.0
  0
LINE
  5
147
  8
0
  6
SLD-SOLID
 62
     7
 10
770.4712289088
 20
164.9498236119
 30
0.0
 11
770.1869445556
 21
163.433779472
 31
0.0
  0
LINE
  5
148
  8
0
  6
SLD-SOLID
 62
     7
 10
771.2721067184
 20
163.6763703762
 30
0.0
 11
770.4712289088
 21
164.9498236119
 31
0.0
  0
LINE
  5
149
  8
0
  6
SLD-SOLID
 62
     7
 10
772.4881606811
 20
164.4239616333
 30
0.0
 11
771.2721067184
 21
163.6763703762
 31
0.0
  0
LINE
  5
14A
  8
0
  6
SLD-SOLID
 62
     7
 10
771.7078166717
 20
162.9660320221
 30
0.0
 11
772.4881606811
 21
164.4239616333
 31
0.0
  0
LINE
  5
14B
  8
0
  6
SLD-SOLID
 62
     7
 10
772.3916309589
 20
162.1470940052
 30
0.0
 11
771.7078166717
 21
162.9660320221
 31
0.0
  0
LINE
  5
14C
  8
0
  6
SLD-SOLID
 62
     7
 10
771.0976439231
 20
162.09595322
 30
0.0
 11
772.3916309589
 21
162.1470940052
 31
0.0
  0
LINE
  5
14D
  8
0
  6
SLD-SOLID
 62
     7
 10
771.009816479
 20
160.5368447243
 30
0.0
 11
771.0976439231
 21
162.09595322
 31
0.0
  0
LINE
  5
14E
  8
0
  6
SLD-SOLID
 62
     7
 10
770.3058558219
 20
161.6424214779
 30
0.0
 11
771.009816479
 21
160.5368447243
 31
0.0
  0
LINE
  5
14F
  8
0
  6
SLD-SOLID
 62
     7
 10
767.6928776019
 20
160.1114165722
 30
0.0
 11
770.3058558219
 21
161.6424214779
 31
0.0
  0
LINE
  5
150
  8
0
  6
SLD-SOLID
 62
     7
 10
768.6543601268
 20
163.4172391831
 30
0.0
 11
768.6584132426
 21
163.4135436951
 31
0.0
  0
LINE
  5
151
  8
0
  6
SLD-SOLID
 62
     7
 10
770.1824444049
 20
163.4375047623
 30
0.0
 11
770.1869445556
 21
163.433779472
 31
0.0
  0
LINE
  5
152
  8
0
  6
SLD-SOLID
 62
     7
 10
767.6889734977
 20
160.1151120602
 30
0.0
 11
767.6928776019
 21
160.1114165722
 31
0.0
  0
POLYLINE
  5
153
  8
0
  6
SLD-SOLID
 62
     7
 66
     1
 10
0.0
 20
0.0
 30
0.0
  0
VERTEX
  5
655
  8
0
  6
SLD-SOLID
 62
     7
 10
755.643470835
 20
139.1486418187
 30
0.0
  0
VERTEX
  5
656
  8
0
  6
SLD-SOLID
 62
     7
 10
755.6479411834
 20
139.1526055275
 30
0.0
  0
VERTEX
  5
657
  8
0
  6
SLD-SOLID
 62
     7
 10
755.6760745757
 20
139.1776692807
 30
0.0
  0
SEQEND
  5
658
  8
0
  6
SLD-SOLID
 62
     7
  0
POLYLINE
  5
154
  8
0
  6
SLD-SOLID
 62
     7
 66
     1
 10
0.0
 20
0.0
 30
0.0
  0
VERTEX
  5
659
  8
0
  6
SLD-SOLID
 62
     7
 10
754.6108799689
 20
139.1776692807
 30
0.0
  0
VERTEX
  5
65A
  8
0
  6
SLD-SOLID
 62
     7
 10
754.6390133613
 20
139.1526055275
 30
0.0
  0
VERTEX
  5
65B
  8
0
  6
SLD-SOLID
 62
     7
 10
754.6434837096
 20
139.1486418187
 30
0.0
  0
SEQEND
  5
65C
  8
0
  6
SLD-SOLID
 62
     7
  0
LINE
  5
155
  8
0
  6
SLD-SOLID
 62
     7
 10
770.4667287582
 20
164.9535190998
 30
0.0
 11
770.4712289088
 21
164.9498236119
 31
0.0
  0
LINE
  5
156
  8
0
  6
SLD-SOLID
 62
     7
 10
772.4830346816
 20
164.4276869236
 30
0.0
 11
772.4881606811
 21
164.4239616333
 31
0.0
  0
LINE
  5
157
  8
0
  6
SLD-SOLID
 62
     7
 10
771.0048990958
 20
160.5405700146
 30
0.0
 11
771.009816479
 21
160.5368447243
 31
0.0
  0
POLYLINE
  5
158
  8
0
  6
SLD-SOLID
 62
     7
 66
     1
 10
0.0
 20
0.0
 30
0.0
  0
VERTEX
  5
65D
  8
0
  6
SLD-SOLID
 62
     7
 10
770.9773021453
 20
156.6463005482
 30
0.0
  0
VERTEX
  5
65E
  8
0
  6
SLD-SOLID
 62
     7
 10
770.9882693999
 20
156.6457343041
 30
0.0
  0
VERTEX
  5
65F
  8
0
  6
SLD-SOLID
 62
     7
 10
771.0076707118
 20
156.6473734318
 30
0.0
  0
VERTEX
  5
660
  8
0
  6
SLD-SOLID
 62
     7
 10
771.0723715537
 20
156.7125809132
 30
0.0
  0
VERTEX
  5
661
  8
0
  6
SLD-SOLID
 62
     7
 10
771.0710304492
 20
156.8658542572
 30
0.0
  0
VERTEX
  5
662
  8
0
  6
SLD-SOLID
 62
     7
 10
771.0038262122
 20
157.0899379193
 30
0.0
  0
SEQEND
  5
663
  8
0
  6
SLD-SOLID
 62
     7
  0
POLYLINE
  5
159
  8
0
  6
SLD-SOLID
 62
     7
 66
     1
 10
0.0
 20
0.0
 30
0.0
  0
VERTEX
  5
664
  8
0
  6
SLD-SOLID
 62
     7
 10
739.3096374982
 20
156.6463005482
 30
0.0
  0
VERTEX
  5
665
  8
0
  6
SLD-SOLID
 62
     7
 10
739.2986702436
 20
156.6457343041
 30
0.0
  0
VERTEX
  5
666
  8
0
  6
SLD-SOLID
 62
     7
 10
739.2792838328
 20
156.6473734318
 30
0.0
  0
VERTEX
  5
667
  8
0
  6
SLD-SOLID
 62
     7
 10
739.2145829909
 20
156.7125809132
 30
0.0
  0
VERTEX
  5
668
  8
0
  6
SLD-SOLID
 62
     7
 10
739.2159240955
 20
156.8658542572
 30
0.0
  0
VERTEX
  5
669
  8
0
  6
SLD-SOLID
 62
     7
 10
739.2831283324
 20
157.0899379193
 30
0.0
  0
SEQEND
  5
66A
  8
0
  6
SLD-SOLID
 62
     7
  0
POLYLINE
  5
15A
  8
0
  6
SLD-SOLID
 62
     7
 66
     1
 10
0.0
 20
0.0
 30
0.0
  0
VERTEX
  5
66B
  8
0
  6
SLD-SOLID
 62
     7
 10
739.3096374982
 20
156.6463005482
 30
0.0
  0
VERTEX
  5
66C
  8
0
  6
SLD-SOLID
 62
     7
 10
738.6510061734
 20
156.975556606
 30
0.0
  0
VERTEX
  5
66D
  8
0
  6
SLD-SOLID
 62
     7
 10
737.9381942266
 20
157.1029913365
 30
0.0
  0
SEQEND
  5
66E
  8
0
  6
SLD-SOLID
 62
     7
  0
POLYLINE
  5
15B
  8
0
  6
SLD-SOLID
 62
     7
 66
     1
 10
0.0
 20
0.0
 30
0.0
  0
VERTEX
  5
66F
  8
0
  6
SLD-SOLID
 62
     7
 10
772.3487752193
 20
157.1029913365
 30
0.0
  0
VERTEX
  5
670
  8
0
  6
SLD-SOLID
 62
     7
 10
771.6359632724
 20
156.975556606
 30
0.0
  0
VERTEX
  5
671
  8
0
  6
SLD-SOLID
 62
     7
 10
770.9773021453
 20
156.6463005482
 30
0.0
  0
SEQEND
  5
672
  8
0
  6
SLD-SOLID
 62
     7
  0
LINE
  5
15C
  8
0
  6
SLD-SOLID
 62
     7
 10
743.5176062101
 20
137.9697215496
 30
0.0
 11
743.5165482276
 21
137.9797947346
 31
0.0
  0
LINE
  5
15D
  8
0
  6
SLD-SOLID
 62
     7
 10
782.9664486163
 20
157.1029913365
 30
0.0
 11
772.3487752193
 21
157.1029913365
 31
0.0
  0
LINE
  5
15E
  8
0
  6
SLD-SOLID
 62
     7
 10
737.9381942266
 20
157.1029913365
 30
0.0
 11
727.3205059283
 21
157.1029913365
 31
0.0
  0
ARC
  5
15F
  8
0
  6
SLD-SOLID
 62
     7
 10
754.6434800365
 20
137.6030048049
 30
0.0
 40
1.0
 50
90.0
 51
180.0
  0
ARC
  5
160
  8
0
  6
SLD-SOLID
 62
     7
 10
755.6434800365
 20
137.6030048049
 30
0.0
 40
1.0
 50
0.0
 51
90.0
  0
LINE
  5
161
  8
0
  6
SLD-SOLID
 62
     7
 10
765.7782870048
 20
137.10301041
 30
0.0
 11
756.6434877627
 21
137.10301041
 31
0.0
  0
LINE
  5
162
  8
0
  6
SLD-SOLID
 62
     7
 10
756.6434877627
 20
137.10301041
 30
0.0
 11
756.6434877627
 21
137.6926493584
 31
0.0
  0
LINE
  5
163
  8
0
  6
SLD-SOLID
 62
     7
 10
753.6434667819
 20
137.10301041
 30
0.0
 11
744.5086824411
 21
137.10301041
 31
0.0
  0
LINE
  5
164
  8
0
  6
SLD-SOLID
 62
     7
 10
753.6434667819
 20
137.6926493584
 30
0.0
 11
753.6434667819
 21
137.10301041
 31
0.0
  0
LINE
  5
165
  8
0
  6
SLD-SOLID
 62
     7
 10
755.643470835
 20
138.6029910981
 30
0.0
 11
754.6434837096
 21
138.6029910981
 31
0.0
  0
LINE
  5
166
  8
0
  6
SLD-SOLID
 62
     7
 10
758.4821420425
 20
167.1030116021
 30
0.0
 11
758.4821420425
 21
169.1030156552
 31
0.0
  0
LINE
  5
167
  8
0
  6
SLD-SOLID
 62
     7
 10
751.8048125022
 20
169.1030156552
 30
0.0
 11
751.8048125022
 21
167.1030116021
 31
0.0
  0
LINE
  5
168
  8
0
  6
SLD-SOLID
 62
     7
 10
748.2293235772
 20
169.1030156552
 30
0.0
 11
747.7406846994
 21
169.1030156552
 31
0.0
  0
POLYLINE
  5
169
  8
0
  6
SLD-SOLID
 62
     7
 66
     1
 10
0.0
 20
0.0
 30
0.0
  0
VERTEX
  5
673
  8
0
  6
SLD-SOLID
 62
     7
 10
748.2293235772
 20
169.1030156552
 30
0.0
  0
VERTEX
  5
674
  8
0
  6
SLD-SOLID
 62
     7
 10
748.226715874
 20
169.102628225
 30
0.0
  0
VERTEX
  5
675
  8
0
  6
SLD-SOLID
 62
     7
 10
748.2234376186
 20
169.1010188996
 30
0.0
  0
VERTEX
  5
676
  8
0
  6
SLD-SOLID
 62
     7
 10
748.2192801946
 20
169.0972340046
 30
0.0
  0
VERTEX
  5
677
  8
0
  6
SLD-SOLID
 62
     7
 10
748.2142436021
 20
169.0899920403
 30
0.0
  0
VERTEX
  5
678
  8
0
  6
SLD-SOLID
 62
     7
 10
748.207210254
 20
169.0750014721
 30
0.0
  0
VERTEX
  5
679
  8
0
  6
SLD-SOLID
 62
     7
 10
748.1901931279
 20
169.0153968274
 30
0.0
  0
VERTEX
  5
67A
  8
0
  6
SLD-SOLID
 62
     7
 10
748.1687354558
 20
168.8934755265
 30
0.0
  0
VERTEX
  5
67B
  8
0
  6
SLD-SOLID
 62
     7
 10
748.0336266273
 20
167.1030116021
 30
0.0
  0
SEQEND
  5
67C
  8
0
  6
SLD-SOLID
 62
     7
  0
LINE
  5
16A
  8
0
  6
SLD-SOLID
 62
     7
 10
762.5462847465
 20
169.1030156552
 30
0.0
 11
762.0576458686
 21
169.1030156552
 31
0.0
  0
POLYLINE
  5
16B
  8
0
  6
SLD-SOLID
 62
     7
 66
     1
 10
0.0
 20
0.0
 30
0.0
  0
VERTEX
  5
67D
  8
0
  6
SLD-SOLID
 62
     7
 10
762.2533279174
 20
167.1030116021
 30
0.0
  0
VERTEX
  5
67E
  8
0
  6
SLD-SOLID
 62
     7
 10
762.11823399
 20
168.8933861195
 30
0.0
  0
VERTEX
  5
67F
  8
0
  6
SLD-SOLID
 62
     7
 10
762.0967763179
 20
169.0153372227
 30
0.0
  0
VERTEX
  5
680
  8
0
  6
SLD-SOLID
 62
     7
 10
762.0797889941
 20
169.0749418675
 30
0.0
  0
VERTEX
  5
681
  8
0
  6
SLD-SOLID
 62
     7
 10
762.0726960414
 20
169.0900218426
 30
0.0
  0
VERTEX
  5
682
  8
0
  6
SLD-SOLID
 62
     7
 10
762.0677488559
 20
169.0971445977
 30
0.0
  0
VERTEX
  5
683
  8
0
  6
SLD-SOLID
 62
     7
 10
762.0634871238
 20
169.1010487019
 30
0.0
  0
VERTEX
  5
684
  8
0
  6
SLD-SOLID
 62
     7
 10
762.0602386706
 20
169.102628225
 30
0.0
  0
VERTEX
  5
685
  8
0
  6
SLD-SOLID
 62
     7
 10
762.0576458686
 20
169.1030156552
 30
0.0
  0
SEQEND
  5
686
  8
0
  6
SLD-SOLID
 62
     7
  0
LINE
  5
16C
  8
0
  6
SLD-SOLID
 62
     7
 10
762.0576458686
 20
169.1030156552
 30
0.0
 11
758.9431541675
 21
169.1030156552
 31
0.0
  0
LINE
  5
16D
  8
0
  6
SLD-SOLID
 62
     7
 10
751.3438152783
 20
169.1030156552
 30
0.0
 11
748.2293235772
 21
169.1030156552
 31
0.0
  0
LINE
  5
16E
  8
0
  6
SLD-SOLID
 62
     7
 10
747.5335734599
 20
167.1030116021
 30
0.0
 11
747.5684868806
 21
169.1030156552
 31
0.0
  0
LINE
  5
16F
  8
0
  6
SLD-SOLID
 62
     7
 10
747.7406846994
 20
169.1030156552
 30
0.0
 11
747.5684868806
 21
169.1030156552
 31
0.0
  0
LINE
  5
170
  8
0
  6
SLD-SOLID
 62
     7
 10
762.7533810847
 20
167.1030116021
 30
0.0
 11
762.7184825652
 21
169.1030156552
 31
0.0
  0
LINE
  5
171
  8
0
  6
SLD-SOLID
 62
     7
 10
762.7184825652
 20
169.1030156552
 30
0.0
 11
762.5462847465
 21
169.1030156552
 31
0.0
  0
LINE
  5
172
  8
0
  6
SLD-SOLID
 62
     7
 10
753.6434667819
 20
137.10301041
 30
0.0
 11
756.6434877627
 21
137.10301041
 31
0.0
  0
LINE
  5
173
  8
0
  6
SLD-SOLID
 62
     7
 10
807.1434932464
 20
233.9100730359
 30
0.0
 11
807.1434932464
 21
233.9030098854
 31
0.0
  0
LINE
  5
174
  8
0
  6
SLD-SOLID
 62
     7
 10
735.1434814447
 20
175.5030047833
 30
0.0
 11
737.1458100789
 21
175.5030047833
 31
0.0
  0
LINE
  5
175
  8
0
  6
SLD-SOLID
 62
     7
 10
735.1434814447
 20
177.1030020653
 30
0.0
 11
735.1434814447
 21
175.5030047833
 31
0.0
  0
LINE
  5
176
  8
0
  6
SLD-SOLID
 62
     7
 10
775.1434880012
 20
177.1030020653
 30
0.0
 11
775.1434880012
 21
175.5030047833
 31
0.0
  0
LINE
  5
177
  8
0
  6
SLD-SOLID
 62
     7
 10
773.1451230758
 20
175.5030047833
 30
0.0
 11
775.1434880012
 21
175.5030047833
 31
0.0
  0
LINE
  5
178
  8
0
  6
SLD-SOLID
 62
     7
 10
737.1458100789
 20
175.5030047833
 30
0.0
 11
751.1434840673
 21
175.5030047833
 31
0.0
  0
LINE
  5
179
  8
0
  6
SLD-SOLID
 62
     7
 10
759.1434853786
 20
175.5030047833
 30
0.0
 11
773.1451230758
 21
175.5030047833
 31
0.0
  0
LINE
  5
17A
  8
0
  6
SLD-SOLID
 62
     7
 10
772.6057606452
 20
174.1030108868
 30
0.0
 11
759.1434853786
 21
174.1030108868
 31
0.0
  0
LINE
  5
17B
  8
0
  6
SLD-SOLID
 62
     7
 10
751.1434840673
 20
174.1030108868
 30
0.0
 11
737.6811938995
 21
174.1030108868
 31
0.0
  0
ARC
  5
17C
  8
0
  6
SLD-SOLID
 62
     7
 10
737.6811980121
 20
177.1030197826
 30
0.0
 40
3.000008895778597
 50
212.2311841666
 51
269.999921454
  0
LINE
  5
17D
  8
0
  6
SLD-SOLID
 62
     7
 10
737.1458100789
 20
175.5030047833
 30
0.0
 11
735.1434814447
 21
175.5030047833
 31
0.0
  0
ARC
  5
17E
  8
0
  6
SLD-SOLID
 62
     7
 10
772.6057237161
 20
177.1031062789
 30
0.0
 40
3.000095392301225
 50
270.0007052722
 51
327.7679045174
  0
LINE
  5
17F
  8
0
  6
SLD-SOLID
 62
     7
 10
775.1434880012
 20
175.5030047833
 30
0.0
 11
773.1451230758
 21
175.5030047833
 31
0.0
  0
POLYLINE
  5
180
  8
0
  6
SLD-SOLID
 62
     7
 66
     1
 10
0.0
 20
0.0
 30
0.0
  0
VERTEX
  5
687
  8
0
  6
SLD-SOLID
 62
     7
 10
685.6434779876
 20
357.6184776365
 30
0.0
  0
VERTEX
  5
688
  8
0
  6
SLD-SOLID
 62
     7
 10
686.8491160386
 20
357.4661803185
 30
0.0
  0
VERTEX
  5
689
  8
0
  6
SLD-SOLID
 62
     7
 10
688.1434756034
 20
357.0139673292
 30
0.0
  0
SEQEND
  5
68A
  8
0
  6
SLD-SOLID
 62
     7
  0
LINE
  5
181
  8
0
  6
SLD-SOLID
 62
     7
 10
688.1434756034
 20
355.771292442
 30
0.0
 11
685.6434779876
 21
357.3335897862
 31
0.0
  0
POLYLINE
  5
182
  8
0
  6
SLD-SOLID
 62
     7
 66
     1
 10
0.0
 20
0.0
 30
0.0
  0
VERTEX
  5
68B
  8
0
  6
SLD-SOLID
 62
     7
 10
685.998498153
 20
352.0576623022
 30
0.0
  0
VERTEX
  5
68C
  8
0
  6
SLD-SOLID
 62
     7
 10
685.7482033485
 20
352.6883166968
 30
0.0
  0
VERTEX
  5
68D
  8
0
  6
SLD-SOLID
 62
     7
 10
685.6434779876
 20
352.8944072067
 30
0.0
  0
SEQEND
  5
68E
  8
0
  6
SLD-SOLID
 62
     7
  0
ARC
  5
183
  8
0
  6
SLD-SOLID
 62
     7
 10
682.2145350702
 20
350.6340990659
 30
0.0
 40
4.765013495020883
 50
22.4262753807
 51
43.9778555198
  0
POLYLINE
  5
184
  8
0
  6
SLD-SOLID
 62
     7
 66
     1
 10
0.0
 20
0.0
 30
0.0
  0
VERTEX
  5
68F
  8
0
  6
SLD-SOLID
 62
     7
 10
685.6434779876
 20
355.5446159779
 30
0.0
  0
VERTEX
  5
690
  8
0
  6
SLD-SOLID
 62
     7
 10
686.731381964
 20
354.8845019876
 30
0.0
  0
VERTEX
  5
691
  8
0
  6
SLD-SOLID
 62
     7
 10
688.2365482562
 20
354.0179473101
 30
0.0
  0
SEQEND
  5
692
  8
0
  6
SLD-SOLID
 62
     7
  0
ARC
  5
185
  8
0
  6
SLD-SOLID
 62
     7
 10
682.1805127445
 20
350.7023852123
 30
0.0
 40
5.941149177231995
 50
19.1670941289
 51
54.3467774259
  0
ARC
  5
186
  8
0
  6
SLD-SOLID
 62
     7
 10
699.7519340143
 20
351.6850531377
 30
0.0
 40
5.921075208289079
 50
24.4159283604
 51
103.9615419547
  0
LINE
  5
187
  8
0
  6
SLD-SOLID
 62
     7
 10
705.0124245399
 20
350.957673484
 30
0.0
 11
705.0124245399
 21
353.9671045481
 31
0.0
  0
LINE
  5
188
  8
0
  6
SLD-SOLID
 62
     7
 10
705.0124245399
 20
353.9671045481
 30
0.0
 11
699.8247938865
 21
357.4312072932
 31
0.0
  0
ARC
  5
189
  8
0
  6
SLD-SOLID
 62
     7
 10
695.0406999343
 20
350.8736079652
 30
0.0
 40
4.179892646604987
 50
1.152403806
 51
88.5910727631
  0
ARC
  5
18A
  8
0
  6
SLD-SOLID
 62
     7
 10
694.8044354557
 20
350.8389943543
 30
0.0
 40
3.731343767296886
 50
1.8226571089
 51
84.7867687577
  0
ARC
  5
18B
  8
0
  6
SLD-SOLID
 62
     7
 10
697.2810589689
 20
350.8647514124
 30
0.0
 40
4.198091966690872
 50
1.2683088886
 51
86.0765029189
  0
ARC
  5
18C
  8
0
  6
SLD-SOLID
 62
     7
 10
694.8762622743
 20
350.7817981605
 30
0.0
 40
2.832013085070786
 50
3.5605069758
 51
84.5858429745
  0
LINE
  5
18D
  8
0
  6
SLD-SOLID
 62
     7
 10
695.2503907197
 20
353.5830569207
 30
0.0
 11
695.1434748881
 21
353.5664346754
 31
0.0
  0
LINE
  5
18E
  8
0
  6
SLD-SOLID
 62
     7
 10
702.7519779914
 20
351.0833573281
 30
0.0
 11
702.7519779914
 21
350.957673484
 31
0.0
  0
POLYLINE
  5
18F
  8
0
  6
SLD-SOLID
 62
     7
 66
     1
 10
0.0
 20
0.0
 30
0.0
  0
VERTEX
  5
693
  8
0
  6
SLD-SOLID
 62
     7
 10
702.9590296262
 20
353.9217901169
 30
0.0
  0
VERTEX
  5
694
  8
0
  6
SLD-SOLID
 62
     7
 10
702.7865784877
 20
351.9611102282
 30
0.0
  0
VERTEX
  5
695
  8
0
  6
SLD-SOLID
 62
     7
 10
702.7519779914
 20
351.0833573281
 30
0.0
  0
SEQEND
  5
696
  8
0
  6
SLD-SOLID
 62
     7
  0
LINE
  5
190
  8
0
  6
SLD-SOLID
 62
     7
 10
702.9590296262
 20
353.9671045481
 30
0.0
 11
702.9590296262
 21
353.9217901169
 31
0.0
  0
LINE
  5
191
  8
0
  6
SLD-SOLID
 62
     7
 10
705.0124245399
 20
353.9671045481
 30
0.0
 11
702.9590296262
 21
353.9671045481
 31
0.0
  0
LINE
  5
192
  8
0
  6
SLD-SOLID
 62
     7
 10
702.9250996822
 20
353.9897617637
 30
0.0
 11
702.9590296262
 21
353.9671045481
 31
0.0
  0
POLYLINE
  5
193
  8
0
  6
SLD-SOLID
 62
     7
 66
     1
 10
0.0
 20
0.0
 30
0.0
  0
VERTEX
  5
697
  8
0
  6
SLD-SOLID
 62
     7
 10
700.5927103274
 20
355.4089856087
 30
0.0
  0
VERTEX
  5
698
  8
0
  6
SLD-SOLID
 62
     7
 10
701.3962107413
 20
354.9009156166
 30
0.0
  0
VERTEX
  5
699
  8
0
  6
SLD-SOLID
 62
     7
 10
702.9250996822
 20
353.9897617637
 30
0.0
  0
SEQEND
  5
69A
  8
0
  6
SLD-SOLID
 62
     7
  0
LINE
  5
194
  8
0
  6
SLD-SOLID
 62
     7
 10
699.723615002
 20
355.9893336831
 30
0.0
 11
700.5927103274
 21
355.4089856087
 31
0.0
  0
LINE
  5
195
  8
0
  6
SLD-SOLID
 62
     7
 10
697.8053289168
 20
357.4085500776
 30
0.0
 11
699.723615002
 21
355.9893336831
 31
0.0
  0
LINE
  5
196
  8
0
  6
SLD-SOLID
 62
     7
 10
697.7713989728
 20
357.4312072932
 30
0.0
 11
697.8053289168
 21
357.4085500776
 31
0.0
  0
LINE
  5
197
  8
0
  6
SLD-SOLID
 62
     7
 10
699.8247938865
 20
357.4312072932
 30
0.0
 11
697.7713989728
 21
357.4312072932
 31
0.0
  0
ARC
  5
198
  8
0
  6
SLD-SOLID
 62
     7
 10
696.2425575746
 20
350.6115300519
 30
0.0
 40
7.487911492370031
 50
26.2367042312
 51
26.8180089503
  0
ARC
  5
199
  8
0
  6
SLD-SOLID
 62
     7
 10
696.4953953254
 20
350.6619415046
 30
0.0
 40
6.270758961443707
 50
3.8533708348
 51
49.2015462298
  0
LINE
  5
19A
  8
0
  6
SLD-SOLID
 62
     7
 10
695.1434748881
 20
355.8146473705
 30
0.0
 11
695.4050796741
 21
355.9893336831
 31
0.0
  0
ARC
  5
19B
  8
0
  6
SLD-SOLID
 62
     7
 10
697.564347338
 20
351.9449155074
 30
0.0
 40
4.584730659985465
 50
61.9027618073
 51
118.0972381927
  0
POLYLINE
  5
19C
  8
0
  6
SLD-SOLID
 62
     7
 66
     1
 10
0.0
 20
0.0
 30
0.0
  0
VERTEX
  5
69B
  8
0
  6
SLD-SOLID
 62
     7
 10
695.4050796741
 20
355.9893336831
 30
0.0
  0
VERTEX
  5
69C
  8
0
  6
SLD-SOLID
 62
     7
 10
696.1932616943
 20
356.4879339873
 30
0.0
  0
VERTEX
  5
69D
  8
0
  6
SLD-SOLID
 62
     7
 10
697.7374690288
 20
357.4085500776
 30
0.0
  0
SEQEND
  5
69E
  8
0
  6
SLD-SOLID
 62
     7
  0
ARC
  5
19D
  8
0
  6
SLD-SOLID
 62
     7
 10
697.7713989728
 20
352.1799918723
 30
0.0
 40
5.228668295775678
 50
89.628192854
 51
90.371807146
  0
LINE
  5
19E
  8
0
  6
SLD-SOLID
 62
     7
 10
697.7374690288
 20
357.4085500776
 30
0.0
 11
697.7713989728
 21
357.4312072932
 31
0.0
  0
ARC
  5
19F
  8
0
  6
SLD-SOLID
 62
     7
 10
699.8094819323
 20
351.8059887151
 30
0.0
 40
5.826553714424885
 50
23.7283378336
 51
105.1060221308
  0
LINE
  5
1A0
  8
0
  6
SLD-SOLID
 62
     7
 10
695.1434748881
 20
359.5030051409
 30
0.0
 11
705.1434802526
 21
359.5030051409
 31
0.0
  0
POLYLINE
  5
1A1
  8
0
  6
SLD-SOLID
 62
     7
 66
     1
 10
0.0
 20
0.0
 30
0.0
  0
VERTEX
  5
69F
  8
0
  6
SLD-SOLID
 62
     7
 10
688.1434756034
 20
357.0239958106
 30
0.0
  0
VERTEX
  5
6A0
  8
0
  6
SLD-SOLID
 62
     7
 10
686.8603664153
 20
357.4729677974
 30
0.0
  0
VERTEX
  5
6A1
  8
0
  6
SLD-SOLID
 62
     7
 10
685.6434779876
 20
357.6276567518
 30
0.0
  0
SEQEND
  5
6A2
  8
0
  6
SLD-SOLID
 62
     7
  0
LINE
  5
1A2
  8
0
  6
SLD-SOLID
 62
     7
 10
685.6434779876
 20
359.5030051409
 30
0.0
 11
688.1434756034
 21
359.5030051409
 31
0.0
  0
POLYLINE
  5
1A3
  8
0
  6
SLD-SOLID
 62
     7
 66
     1
 10
0.0
 20
0.0
 30
0.0
  0
VERTEX
  5
6A3
  8
0
  6
SLD-SOLID
 62
     7
 10
718.4434818738
 20
361.6530042826
 30
0.0
  0
VERTEX
  5
6A4
  8
0
  6
SLD-SOLID
 62
     7
 10
720.8968537562
 20
361.8325707256
 30
0.0
  0
VERTEX
  5
6A5
  8
0
  6
SLD-SOLID
 62
     7
 10
722.1434849017
 20
362.0642539798
 30
0.0
  0
SEQEND
  5
6A6
  8
0
  6
SLD-SOLID
 62
     7
  0
ARC
  5
1A4
  8
0
  6
SLD-SOLID
 62
     7
 10
718.4434800365
 20
378.5030048049
 30
0.0
 40
16.85000000000007
 50
309.4210848931
 51
50.5789151069
  0
ARC
  5
1A5
  8
0
  6
SLD-SOLID
 62
     7
 10
718.4434800365
 20
378.5030048049
 30
0.0
 40
16.85000000000008
 50
77.315366044
 51
90.0
  0
LINE
  5
1A6
  8
0
  6
SLD-SOLID
 62
     7
 10
600.2614187711
 20
361.4530083476
 30
0.0
 11
599.4255455845
 21
361.4530083476
 31
0.0
  0
LINE
  5
1A7
  8
0
  6
SLD-SOLID
 62
     7
 10
345.2614235395
 20
361.4530083476
 30
0.0
 11
344.4255429023
 21
361.4530083476
 31
0.0
  0
LINE
  5
1A8
  8
0
  6
SLD-SOLID
 62
     7
 10
140.2614253276
 20
361.4530083476
 30
0.0
 11
139.4255297893
 21
361.4530083476
 31
0.0
  0
LINE
  5
1A9
  8
0
  6
SLD-SOLID
 62
     7
 10
600.5544799083
 20
394.7530039339
 30
0.0
 11
599.1324769967
 21
394.7530039339
 31
0.0
  0
LINE
  5
1AA
  8
0
  6
SLD-SOLID
 62
     7
 10
395.5544816964
 20
394.7530039339
 30
0.0
 11
394.1324787849
 21
394.7530039339
 31
0.0
  0
LINE
  5
1AB
  8
0
  6
SLD-SOLID
 62
     7
 10
140.5544715636
 20
394.7530039339
 30
0.0
 11
139.1324835532
 21
394.7530039339
 31
0.0
  0
LINE
  5
1AC
  8
0
  6
SLD-SOLID
 62
     7
 10
601.6382711642
 20
395.5530044376
 30
0.0
 11
598.0486857408
 21
395.5530044376
 31
0.0
  0
LINE
  5
1AD
  8
0
  6
SLD-SOLID
 62
     7
 10
396.6382729524
 20
395.5530044376
 30
0.0
 11
393.0486875289
 21
395.5530044376
 31
0.0
  0
LINE
  5
1AE
  8
0
  6
SLD-SOLID
 62
     7
 10
141.6382628196
 20
395.5530044376
 30
0.0
 11
138.0486922973
 21
395.5530044376
 31
0.0
  0
LINE
  5
1AF
  8
0
  6
SLD-SOLID
 62
     7
 10
735.2934765332
 20
371.5030033826
 30
0.0
 11
735.2934765332
 21
366.297647798
 31
0.0
  0
LINE
  5
1B0
  8
0
  6
SLD-SOLID
 62
     7
 10
737.2934805863
 20
371.5030033826
 30
0.0
 11
735.2934765332
 21
371.5030033826
 31
0.0
  0
LINE
  5
1B1
  8
0
  6
SLD-SOLID
 62
     7
 10
737.2934805863
 20
371.5030033826
 30
0.0
 11
737.2934805863
 21
366.297647798
 31
0.0
  0
LINE
  5
1B2
  8
0
  6
SLD-SOLID
 62
     7
 10
735.2934765332
 20
366.297647798
 30
0.0
 11
737.2934805863
 21
366.297647798
 31
0.0
  0
LINE
  5
1B3
  8
0
  6
SLD-SOLID
 62
     7
 10
737.2934805863
 20
385.5030056774
 30
0.0
 11
735.2934765332
 21
385.5030056774
 31
0.0
  0
LINE
  5
1B4
  8
0
  6
SLD-SOLID
 62
     7
 10
737.2934805863
 20
385.5030056774
 30
0.0
 11
737.2934805863
 21
371.5030033826
 31
0.0
  0
LINE
  5
1B5
  8
0
  6
SLD-SOLID
 62
     7
 10
735.2934765332
 20
385.5030056774
 30
0.0
 11
735.2934765332
 21
371.5030033826
 31
0.0
  0
LINE
  5
1B6
  8
0
  6
SLD-SOLID
 62
     7
 10
735.2934765332
 20
390.708361262
 30
0.0
 11
737.2934805863
 21
390.708361262
 31
0.0
  0
LINE
  5
1B7
  8
0
  6
SLD-SOLID
 62
     7
 10
737.2934805863
 20
390.708361262
 30
0.0
 11
737.2934805863
 21
385.5030056774
 31
0.0
  0
LINE
  5
1B8
  8
0
  6
SLD-SOLID
 62
     7
 10
735.2934765332
 20
390.708361262
 30
0.0
 11
735.2934765332
 21
385.5030056774
 31
0.0
  0
ARC
  5
1B9
  8
0
  6
SLD-SOLID
 62
     7
 10
733.6702342793
 20
388.4021055532
 30
0.0
 40
22.39944120854433
 50
270.3152556036
 51
279.308841403
  0
ARC
  5
1BA
  8
0
  6
SLD-SOLID
 62
     7
 10
733.6703340056
 20
368.6050881288
 30
0.0
 40
22.39825605585544
 50
80.6909201696
 51
89.6849828237
  0
ARC
  5
1BB
  8
0
  6
SLD-SOLID
 62
     7
 10
733.7115946968
 20
386.6206718458
 30
0.0
 40
4.383098779144441
 50
68.8442204339
 51
88.9295223391
  0
ARC
  5
1BC
  8
0
  6
SLD-SOLID
 62
     7
 10
733.7115505213
 20
370.3855621061
 30
0.0
 40
4.383324457268716
 50
271.0710000734
 51
291.1552571537
  0
LINE
  5
1BD
  8
0
  6
SLD-SOLID
 62
     7
 10
729.7427045816
 20
366.0030034124
 30
0.0
 11
733.793480944
 21
366.0030034124
 31
0.0
  0
LINE
  5
1BE
  8
0
  6
SLD-SOLID
 62
     7
 10
733.793480944
 20
391.0030056476
 30
0.0
 11
729.7427045816
 21
391.0030056476
 31
0.0
  0
ARC
  5
1BF
  8
0
  6
SLD-SOLID
 62
     7
 10
718.4359304939
 20
394.0782007651
 30
0.0
 40
9.274806535013084
 50
66.4377829315
 51
89.9533508063
  0
LINE
  5
1C0
  8
0
  6
SLD-SOLID
 62
     7
 10
718.4434818738
 20
403.353004226
 30
0.0
 11
722.1434849017
 21
403.353004226
 31
0.0
  0
ARC
  5
1C1
  8
0
  6
SLD-SOLID
 62
     7
 10
718.437458802
 20
404.6204954668
 30
0.0
 40
9.267492646699106
 50
270.0372373234
 51
293.5716289388
  0
LINE
  5
1C2
  8
0
  6
SLD-SOLID
 62
     7
 10
718.4434818738
 20
395.3530047773
 30
0.0
 11
722.1434849017
 21
395.3530047773
 31
0.0
  0
POLYLINE
  5
1C3
  8
0
  6
SLD-SOLID
 62
     7
 66
     1
 10
0.0
 20
0.0
 30
0.0
  0
VERTEX
  5
6A7
  8
0
  6
SLD-SOLID
 62
     7
 10
718.4434818738
 20
403.353004226
 30
0.0
  0
VERTEX
  5
6A8
  8
0
  6
SLD-SOLID
 62
     7
 10
715.265421819
 20
402.7783111422
 30
0.0
  0
VERTEX
  5
6A9
  8
0
  6
SLD-SOLID
 62
     7
 10
713.536007952
 20
402.0380493938
 30
0.0
  0
SEQEND
  5
6AA
  8
0
  6
SLD-SOLID
 62
     7
  0
POLYLINE
  5
1C4
  8
0
  6
SLD-SOLID
 62
     7
 66
     1
 10
0.0
 20
0.0
 30
0.0
  0
VERTEX
  5
6AB
  8
0
  6
SLD-SOLID
 62
     7
 10
713.536007952
 20
396.6679596095
 30
0.0
  0
VERTEX
  5
6AC
  8
0
  6
SLD-SOLID
 62
     7
 10
715.265421819
 20
395.9276978611
 30
0.0
  0
VERTEX
  5
6AD
  8
0
  6
SLD-SOLID
 62
     7
 10
718.4434818738
 20
395.3530047773
 30
0.0
  0
SEQEND
  5
6AE
  8
0
  6
SLD-SOLID
 62
     7
  0
LINE
  5
1C5
  8
0
  6
SLD-SOLID
 62
     7
 10
713.536007952
 20
402.0380493938
 30
0.0
 11
713.536007952
 21
396.6679596095
 31
0.0
  0
POLYLINE
  5
1C6
  8
0
  6
SLD-SOLID
 62
     7
 66
     1
 10
0.0
 20
0.0
 30
0.0
  0
VERTEX
  5
6AF
  8
0
  6
SLD-SOLID
 62
     7
 10
712.1434795373
 20
395.6646159976
 30
0.0
  0
VERTEX
  5
6B0
  8
0
  6
SLD-SOLID
 62
     7
 10
712.3577135318
 20
395.7275193869
 30
0.0
  0
VERTEX
  5
6B1
  8
0
  6
SLD-SOLID
 62
     7
 10
713.536007952
 20
396.6679596095
 30
0.0
  0
SEQEND
  5
6B2
  8
0
  6
SLD-SOLID
 62
     7
  0
POLYLINE
  5
1C7
  8
0
  6
SLD-SOLID
 62
     7
 66
     1
 10
0.0
 20
0.0
 30
0.0
  0
VERTEX
  5
6B3
  8
0
  6
SLD-SOLID
 62
     7
 10
713.536007952
 20
402.0380493938
 30
0.0
  0
VERTEX
  5
6B4
  8
0
  6
SLD-SOLID
 62
     7
 10
712.5131475442
 20
402.8841820299
 30
0.0
  0
VERTEX
  5
6B5
  8
0
  6
SLD-SOLID
 62
     7
 10
712.1434795373
 20
403.0311987488
 30
0.0
  0
SEQEND
  5
6B6
  8
0
  6
SLD-SOLID
 62
     7
  0
LINE
  5
1C8
  8
0
  6
SLD-SOLID
 62
     7
 10
712.1434795373
 20
403.353004226
 30
0.0
 11
718.4434818738
 21
403.353004226
 31
0.0
  0
LINE
  5
1C9
  8
0
  6
SLD-SOLID
 62
     7
 10
713.536007952
 20
404.1558620273
 30
0.0
 11
722.1434849017
 21
404.1558620273
 31
0.0
  0
LINE
  5
1CA
  8
0
  6
SLD-SOLID
 62
     7
 10
713.536007952
 20
404.1558620273
 30
0.0
 11
713.536007952
 21
409.8409083425
 31
0.0
  0
LINE
  5
1CB
  8
0
  6
SLD-SOLID
 62
     7
 10
712.1434795373
 20
404.1558620273
 30
0.0
 11
713.536007952
 21
404.1558620273
 31
0.0
  0
LINE
  5
1CC
  8
0
  6
SLD-SOLID
 62
     7
 10
699.4434731715
 20
408.8199645965
 30
0.0
 11
695.1434748881
 21
409.1961649
 31
0.0
  0
LINE
  5
1CD
  8
0
  6
SLD-SOLID
 62
     7
 10
688.1434756034
 20
409.8085858612
 30
0.0
 11
687.1820079797
 21
409.8927029162
 31
0.0
  0
LINE
  5
1CE
  8
0
  6
SLD-SOLID
 62
     7
 10
699.4434731715
 20
408.8199645965
 30
0.0
 11
699.4434731715
 21
405.4446243434
 31
0.0
  0
LINE
  5
1CF
  8
0
  6
SLD-SOLID
 62
     7
 10
699.4434731715
 20
405.4446243434
 30
0.0
 11
695.1434748881
 21
405.0684221773
 31
0.0
  0
LINE
  5
1D0
  8
0
  6
SLD-SOLID
 62
     7
 10
688.1434756034
 20
404.4560030787
 30
0.0
 11
685.6434779876
 21
404.2372801094
 31
0.0
  0
LINE
  5
1D1
  8
0
  6
SLD-SOLID
 62
     7
 10
699.4434731715
 20
397.4446248948
 30
0.0
 11
695.1434748881
 21
397.0684227287
 31
0.0
  0
LINE
  5
1D2
  8
0
  6
SLD-SOLID
 62
     7
 10
688.1434756034
 20
396.4560017674
 30
0.0
 11
685.6434779876
 21
396.2372806608
 31
0.0
  0
LINE
  5
1D3
  8
0
  6
SLD-SOLID
 62
     7
 10
699.4434731715
 20
405.4446243434
 30
0.0
 11
699.4434731715
 21
397.4446248948
 31
0.0
  0
LINE
  5
1D4
  8
0
  6
SLD-SOLID
 62
     7
 10
699.4434731715
 20
396.1568292915
 30
0.0
 11
695.1434748881
 21
395.3326423406
 31
0.0
  0
LINE
  5
1D5
  8
0
  6
SLD-SOLID
 62
     7
 10
699.4434731715
 20
397.4446248948
 30
0.0
 11
699.4434731715
 21
396.1568292915
 31
0.0
  0
LINE
  5
1D6
  8
0
  6
SLD-SOLID
 62
     7
 10
699.4434731715
 20
396.1587943821
 30
0.0
 11
699.4434731715
 21
395.3530047773
 31
0.0
  0
LINE
  5
1D7
  8
0
  6
SLD-SOLID
 62
     7
 10
699.4434731715
 20
361.6530042826
 30
0.0
 11
699.4434731715
 21
359.5030051409
 31
0.0
  0
LINE
  5
1D8
  8
0
  6
SLD-SOLID
 62
     7
 10
55.643482756
 20
533.2959335982
 30
0.0
 11
55.643482756
 21
233.9100730359
 31
0.0
  0
LINE
  5
1D9
  8
0
  6
SLD-SOLID
 62
     7
 10
53.5934704059
 20
533.2959335982
 30
0.0
 11
55.643482756
 21
533.2959335982
 31
0.0
  0
LINE
  5
1DA
  8
0
  6
SLD-SOLID
 62
     7
 10
55.643482756
 20
233.9100730359
 30
0.0
 11
53.5934704059
 21
233.9100730359
 31
0.0
  0
LINE
  5
1DB
  8
0
  6
SLD-SOLID
 62
     7
 10
37.6934843772
 20
533.2959335982
 30
0.0
 11
53.5934704059
 21
533.2959335982
 31
0.0
  0
LINE
  5
1DC
  8
0
  6
SLD-SOLID
 62
     7
 10
37.6934843772
 20
233.9100730359
 30
0.0
 11
53.5934704059
 21
233.9100730359
 31
0.0
  0
POLYLINE
  5
1DD
  8
0
  6
SLD-SOLID
 62
     7
 66
     1
 10
0.0
 20
0.0
 30
0.0
  0
VERTEX
  5
6B7
  8
0
  6
SLD-SOLID
 62
     7
 10
35.6434720271
 20
532.0530053913
 30
0.0
  0
VERTEX
  5
6B8
  8
0
  6
SLD-SOLID
 62
     7
 10
35.7760923617
 20
532.339182192
 30
0.0
  0
VERTEX
  5
6B9
  8
0
  6
SLD-SOLID
 62
     7
 10
36.1569660419
 20
532.6254633008
 30
0.0
  0
VERTEX
  5
6BA
  8
0
  6
SLD-SOLID
 62
     7
 10
36.7368000262
 20
532.9117444097
 30
0.0
  0
VERTEX
  5
6BB
  8
0
  6
SLD-SOLID
 62
     7
 10
37.4404924625
 20
533.1980329691
 30
0.0
  0
VERTEX
  5
6BC
  8
0
  6
SLD-SOLID
 62
     7
 10
37.6934843772
 20
533.2959335982
 30
0.0
  0
SEQEND
  5
6BD
  8
0
  6
SLD-SOLID
 62
     7
  0
POLYLINE
  5
1DE
  8
0
  6
SLD-SOLID
 62
     7
 66
     1
 10
0.0
 20
0.0
 30
0.0
  0
VERTEX
  5
6BE
  8
0
  6
SLD-SOLID
 62
     7
 10
37.6934843772
 20
233.9100730359
 30
0.0
  0
VERTEX
  5
6BF
  8
0
  6
SLD-SOLID
 62
     7
 10
36.9681256526
 20
234.1962498366
 30
0.0
  0
VERTEX
  5
6C0
  8
0
  6
SLD-SOLID
 62
     7
 10
36.336405825
 20
234.4825309454
 30
0.0
  0
VERTEX
  5
6C1
  8
0
  6
SLD-SOLID
 62
     7
 10
35.8804004901
 20
234.7688120543
 30
0.0
  0
VERTEX
  5
6C2
  8
0
  6
SLD-SOLID
 62
     7
 10
35.6591480487
 20
235.0551080643
 30
0.0
  0
VERTEX
  5
6C3
  8
0
  6
SLD-SOLID
 62
     7
 10
35.6434720271
 20
235.1530086934
 30
0.0
  0
SEQEND
  5
6C4
  8
0
  6
SLD-SOLID
 62
     7
  0
LINE
  5
1DF
  8
0
  6
SLD-SOLID
 62
     7
 10
35.6434720271
 20
235.1530086934
 30
0.0
 11
35.6434720271
 21
532.0530053913
 31
0.0
  0
ARC
  5
1E0
  8
0
  6
SLD-SOLID
 62
     7
 10
37.6096394023
 20
234.9433326594
 30
0.0
 40
1.043696054295047
 50
220.5384401901
 51
274.6078026541
  0
LINE
  5
1E1
  8
0
  6
SLD-SOLID
 62
     7
 10
37.6934843772
 20
233.1030112444
 30
0.0
 11
37.6934843772
 21
233.9030098854
 31
0.0
  0
ARC
  5
1E2
  8
0
  6
SLD-SOLID
 62
     7
 10
37.693449502
 20
235.1529887191
 30
0.0
 40
2.049977474993047
 50
179.999441731
 51
270.0009747429
  0
ARC
  5
1E3
  8
0
  6
SLD-SOLID
 62
     7
 10
37.6934987725
 20
532.0529760946
 30
0.0
 40
2.050026745587691
 50
90.0004023312
 51
179.9991811949
  0
LINE
  5
1E4
  8
0
  6
SLD-SOLID
 62
     7
 10
37.6934843772
 20
534.1030028402
 30
0.0
 11
37.6934843772
 21
533.3030041992
 31
0.0
  0
POLYLINE
  5
1E5
  8
0
  6
SLD-SOLID
 62
     7
 66
     1
 10
0.0
 20
0.0
 30
0.0
  0
VERTEX
  5
6C5
  8
0
  6
SLD-SOLID
 62
     7
 10
37.6934843772
 20
533.3030041992
 30
0.0
  0
VERTEX
  5
6C6
  8
0
  6
SLD-SOLID
 62
     7
 10
37.2072594874
 20
533.2045671283
 30
0.0
  0
VERTEX
  5
6C7
  8
0
  6
SLD-SOLID
 62
     7
 10
36.8403928989
 20
532.9538923441
 30
0.0
  0
SEQEND
  5
6C8
  8
0
  6
SLD-SOLID
 62
     7
  0
LINE
  5
1E6
  8
0
  6
SLD-SOLID
 62
     7
 10
55.643482756
 20
534.1030028402
 30
0.0
 11
55.643482756
 21
533.3030041992
 31
0.0
  0
LINE
  5
1E7
  8
0
  6
SLD-SOLID
 62
     7
 10
54.7621982806
 20
533.3030041992
 30
0.0
 11
55.643482756
 21
533.3030041992
 31
0.0
  0
LINE
  5
1E8
  8
0
  6
SLD-SOLID
 62
     7
 10
54.7621982806
 20
534.1030028402
 30
0.0
 11
54.7621982806
 21
533.3030041992
 31
0.0
  0
LINE
  5
1E9
  8
0
  6
SLD-SOLID
 62
     7
 10
54.7621982806
 20
534.1030028402
 30
0.0
 11
55.643482756
 21
534.1030028402
 31
0.0
  0
LINE
  5
1EA
  8
0
  6
SLD-SOLID
 62
     7
 10
37.6934843772
 20
233.9030098854
 30
0.0
 11
52.4434881919
 21
233.9030098854
 31
0.0
  0
LINE
  5
1EB
  8
0
  6
SLD-SOLID
 62
     7
 10
52.4434881919
 20
233.1030112444
 30
0.0
 11
52.4434881919
 21
233.9030098854
 31
0.0
  0
LINE
  5
1EC
  8
0
  6
SLD-SOLID
 62
     7
 10
52.4434881919
 20
233.1030112444
 30
0.0
 11
37.6934843772
 21
233.1030112444
 31
0.0
  0
LINE
  5
1ED
  8
0
  6
SLD-SOLID
 62
     7
 10
37.6934843772
 20
534.1030028402
 30
0.0
 11
54.7621982806
 21
534.1030028402
 31
0.0
  0
LINE
  5
1EE
  8
0
  6
SLD-SOLID
 62
     7
 10
37.6934843772
 20
533.3030041992
 30
0.0
 11
54.7621982806
 21
533.3030041992
 31
0.0
  0
LINE
  5
1EF
  8
0
  6
SLD-SOLID
 62
     7
 10
56.2434929126
 20
533.2959335982
 30
0.0
 11
55.643482756
 21
533.2959335982
 31
0.0
  0
LINE
  5
1F0
  8
0
  6
SLD-SOLID
 62
     7
 10
55.643482756
 20
233.9100730359
 30
0.0
 11
56.2434929126
 21
233.9100730359
 31
0.0
  0
LINE
  5
1F1
  8
0
  6
SLD-SOLID
 62
     7
 10
51.193489384
 20
233.9030098854
 30
0.0
 11
51.3262587302
 21
233.9100730359
 31
0.0
  0
POLYLINE
  5
1F2
  8
0
  6
SLD-SOLID
 62
     7
 66
     1
 10
0.0
 20
0.0
 30
0.0
  0
VERTEX
  5
6C9
  8
0
  6
SLD-SOLID
 62
     7
 10
52.4434881919
 20
233.5282009779
 30
0.0
  0
VERTEX
  5
6CA
  8
0
  6
SLD-SOLID
 62
     7
 10
52.6430445426
 20
233.7034386336
 30
0.0
  0
VERTEX
  5
6CB
  8
0
  6
SLD-SOLID
 62
     7
 10
52.8237062209
 20
233.9100730359
 30
0.0
  0
SEQEND
  5
6CC
  8
0
  6
SLD-SOLID
 62
     7
  0
POLYLINE
  5
1F3
  8
0
  6
SLD-SOLID
 62
     7
 66
     1
 10
0.0
 20
0.0
 30
0.0
  0
VERTEX
  5
6CD
  8
0
  6
SLD-SOLID
 62
     7
 10
712.1434795373
 20
403.4780044793
 30
0.0
  0
VERTEX
  5
6CE
  8
0
  6
SLD-SOLID
 62
     7
 10
712.6434731
 20
403.5280053257
 30
0.0
  0
VERTEX
  5
6CF
  8
0
  6
SLD-SOLID
 62
     7
 10
713.4434866422
 20
403.3979219138
 30
0.0
  0
SEQEND
  5
6D0
  8
0
  6
SLD-SOLID
 62
     7
  0
ARC
  5
1F4
  8
0
  6
SLD-SOLID
 62
     7
 10
794.4434800365
 20
401.0030048049
 30
0.0
 40
4.850000000000205
 50
152.4488101064
 51
207.5511898936
  0
ARC
  5
1F5
  8
0
  6
SLD-SOLID
 62
     7
 10
712.6434800365
 20
356.5030048049
 30
0.0
 40
3.250000000000025
 50
261.1501169016
 51
306.2450339247
  0
LINE
  5
1F6
  8
0
  6
SLD-SOLID
 62
     7
 10
712.5396269076
 20
353.0045491396
 30
0.0
 11
712.1434795373
 21
353.0389037668
 31
0.0
  0
ARC
  5
1F7
  8
0
  6
SLD-SOLID
 62
     7
 10
712.6434800365
 20
356.5030048049
 30
0.0
 40
2.525000000000002
 50
258.578813725
 51
37.3339112553
  0
LINE
  5
1F8
  8
0
  6
SLD-SOLID
 62
     7
 10
712.1434795373
 20
358.9780074297
 30
0.0
 11
712.289048981
 21
359.0030041276
 31
0.0
  0
ARC
  5
1F9
  8
0
  6
SLD-SOLID
 62
     7
 10
712.6434800365
 20
356.5030048049
 30
0.0
 40
2.099999999999992
 50
256.225853002
 51
103.774146998
  0
ARC
  5
1FA
  8
0
  6
SLD-SOLID
 62
     7
 10
794.4434800365
 20
356.5030048049
 30
0.0
 40
4.850000000000113
 50
152.4488101064
 51
207.5511898936
  0
LINE
  5
1FB
  8
0
  6
SLD-SOLID
 62
     7
 10
746.1434739345
 20
354.0030014454
 30
0.0
 11
746.2746339553
 21
354.0030014454
 31
0.0
  0
LINE
  5
1FC
  8
0
  6
SLD-SOLID
 62
     7
 10
767.0434849971
 20
354.0030014454
 30
0.0
 11
767.0434849971
 21
352.5740396916
 31
0.0
  0
LINE
  5
1FD
  8
0
  6
SLD-SOLID
 62
     7
 10
763.1434934848
 20
354.0030014454
 30
0.0
 11
767.0434849971
 21
354.0030014454
 31
0.0
  0
LINE
  5
1FE
  8
0
  6
SLD-SOLID
 62
     7
 10
746.2339835876
 20
357.0030075251
 30
0.0
 11
746.1434739345
 21
357.0030075251
 31
0.0
  0
LINE
  5
1FF
  8
0
  6
SLD-SOLID
 62
     7
 10
767.0434849971
 20
366.0030034124
 30
0.0
 11
767.0434849971
 21
357.0030075251
 31
0.0
  0
LINE
  5
200
  8
0
  6
SLD-SOLID
 62
     7
 10
767.0434849971
 20
357.0030075251
 30
0.0
 11
763.1434934848
 21
357.0030075251
 31
0.0
  0
LINE
  5
201
  8
0
  6
SLD-SOLID
 62
     7
 10
767.0434849971
 20
393.0030059754
 30
0.0
 11
767.0434849971
 21
391.0030056476
 31
0.0
  0
LINE
  5
202
  8
0
  6
SLD-SOLID
 62
     7
 10
763.1434934848
 20
393.0030059754
 30
0.0
 11
767.0434849971
 21
393.0030059754
 31
0.0
  0
LINE
  5
203
  8
0
  6
SLD-SOLID
 62
     7
 10
767.0434849971
 20
406.003004381
 30
0.0
 11
767.0434849971
 21
396.0030046045
 31
0.0
  0
LINE
  5
204
  8
0
  6
SLD-SOLID
 62
     7
 10
763.1434934848
 20
406.003004381
 30
0.0
 11
767.0434849971
 21
406.003004381
 31
0.0
  0
LINE
  5
205
  8
0
  6
SLD-SOLID
 62
     7
 10
767.0434849971
 20
396.0030046045
 30
0.0
 11
763.1434934848
 21
396.0030046045
 31
0.0
  0
LINE
  5
206
  8
0
  6
SLD-SOLID
 62
     7
 10
773.1434839481
 20
409.0030048727
 30
0.0
 11
770.0434761756
 21
409.0030048727
 31
0.0
  0
LINE
  5
207
  8
0
  6
SLD-SOLID
 62
     7
 10
770.0434761756
 20
409.0030048727
 30
0.0
 11
770.0434761756
 21
409.9072240977
 31
0.0
  0
LINE
  5
208
  8
0
  6
SLD-SOLID
 62
     7
 10
767.0434849971
 20
409.0030048727
 30
0.0
 11
763.1434934848
 21
409.0030048727
 31
0.0
  0
LINE
  5
209
  8
0
  6
SLD-SOLID
 62
     7
 10
767.0434849971
 20
409.9072240977
 30
0.0
 11
767.0434849971
 21
409.0030048727
 31
0.0
  0
LINE
  5
20A
  8
0
  6
SLD-SOLID
 62
     7
 10
736.8090140336
 20
409.0030048727
 30
0.0
 11
731.0434865468
 21
409.0030048727
 31
0.0
  0
LINE
  5
20B
  8
0
  6
SLD-SOLID
 62
     7
 10
731.0434865468
 20
409.0030048727
 30
0.0
 11
731.0434865468
 21
409.9072240977
 31
0.0
  0
LINE
  5
20C
  8
0
  6
SLD-SOLID
 62
     7
 10
773.1434839481
 20
396.0030046045
 30
0.0
 11
770.0434761756
 21
396.0030046045
 31
0.0
  0
LINE
  5
20D
  8
0
  6
SLD-SOLID
 62
     7
 10
770.0434761756
 20
406.003004381
 30
0.0
 11
773.1434839481
 21
406.003004381
 31
0.0
  0
LINE
  5
20E
  8
0
  6
SLD-SOLID
 62
     7
 10
770.0434761756
 20
396.0030046045
 30
0.0
 11
770.0434761756
 21
406.003004381
 31
0.0
  0
LINE
  5
20F
  8
0
  6
SLD-SOLID
 62
     7
 10
731.0434865468
 20
406.003004381
 30
0.0
 11
737.9434841388
 21
406.003004381
 31
0.0
  0
LINE
  5
210
  8
0
  6
SLD-SOLID
 62
     7
 10
731.0434865468
 20
396.0030046045
 30
0.0
 11
731.0434865468
 21
406.003004381
 31
0.0
  0
LINE
  5
211
  8
0
  6
SLD-SOLID
 62
     7
 10
738.5511683934
 20
396.0030046045
 30
0.0
 11
731.0434865468
 21
396.0030046045
 31
0.0
  0
LINE
  5
212
  8
0
  6
SLD-SOLID
 62
     7
 10
770.0434761756
 20
393.0030059754
 30
0.0
 11
773.1434839481
 21
393.0030059754
 31
0.0
  0
LINE
  5
213
  8
0
  6
SLD-SOLID
 62
     7
 10
770.0434761756
 20
391.0030056476
 30
0.0
 11
770.0434761756
 21
393.0030059754
 31
0.0
  0
LINE
  5
214
  8
0
  6
SLD-SOLID
 62
     7
 10
731.0434865468
 20
393.0030059754
 30
0.0
 11
739.1434746497
 21
393.0030059754
 31
0.0
  0
LINE
  5
215
  8
0
  6
SLD-SOLID
 62
     7
 10
731.0434865468
 20
391.0030056476
 30
0.0
 11
731.0434865468
 21
393.0030059754
 31
0.0
  0
LINE
  5
216
  8
0
  6
SLD-SOLID
 62
     7
 10
773.1434839481
 20
357.0030075251
 30
0.0
 11
770.0434761756
 21
357.0030075251
 31
0.0
  0
LINE
  5
217
  8
0
  6
SLD-SOLID
 62
     7
 10
770.0434761756
 20
357.0030075251
 30
0.0
 11
770.0434761756
 21
366.0030034124
 31
0.0
  0
LINE
  5
218
  8
0
  6
SLD-SOLID
 62
     7
 10
731.0434865468
 20
357.0030075251
 30
0.0
 11
731.0434865468
 21
366.0030034124
 31
0.0
  0
LINE
  5
219
  8
0
  6
SLD-SOLID
 62
     7
 10
739.1434746497
 20
357.0030075251
 30
0.0
 11
731.0434865468
 21
357.0030075251
 31
0.0
  0
LINE
  5
21A
  8
0
  6
SLD-SOLID
 62
     7
 10
770.0434761756
 20
354.0030014454
 30
0.0
 11
773.1434839481
 21
354.0030014454
 31
0.0
  0
LINE
  5
21B
  8
0
  6
SLD-SOLID
 62
     7
 10
770.0434761756
 20
352.4424400865
 30
0.0
 11
770.0434761756
 21
354.0030014454
 31
0.0
  0
LINE
  5
21C
  8
0
  6
SLD-SOLID
 62
     7
 10
731.0434865468
 20
354.0030014454
 30
0.0
 11
739.1434746497
 21
354.0030014454
 31
0.0
  0
LINE
  5
21D
  8
0
  6
SLD-SOLID
 62
     7
 10
731.0434865468
 20
353.1242501675
 30
0.0
 11
731.0434865468
 21
354.0030014454
 31
0.0
  0
LINE
  5
21E
  8
0
  6
SLD-SOLID
 62
     7
 10
619.8434817308
 20
365.6321433126
 30
0.0
 11
620.1434793585
 21
365.6320911585
 31
0.0
  0
POLYLINE
  5
21F
  8
0
  6
SLD-SOLID
 62
     7
 66
     1
 10
0.0
 20
0.0
 30
0.0
  0
VERTEX
  5
6D1
  8
0
  6
SLD-SOLID
 62
     7
 10
117.1434658282
 20
365.6275090515
 30
0.0
  0
VERTEX
  5
6D2
  8
0
  6
SLD-SOLID
 62
     7
 10
117.9590957873
 20
365.6299863695
 30
0.0
  0
VERTEX
  5
6D3
  8
0
  6
SLD-SOLID
 62
     7
 10
118.8834148162
 20
365.6315994202
 30
0.0
  0
VERTEX
  5
6D4
  8
0
  6
SLD-SOLID
 62
     7
 10
119.8434668296
 20
365.6321433126
 30
0.0
  0
SEQEND
  5
6D5
  8
0
  6
SLD-SOLID
 62
     7
  0
LINE
  5
220
  8
0
  6
SLD-SOLID
 62
     7
 10
119.8434668296
 20
365.6321433126
 30
0.0
 11
127.1434860938
 21
365.6321433126
 31
0.0
  0
LINE
  5
221
  8
0
  6
SLD-SOLID
 62
     7
 10
134.1434853786
 20
365.6321433126
 30
0.0
 11
144.1434758418
 21
365.6321433126
 31
0.0
  0
LINE
  5
222
  8
0
  6
SLD-SOLID
 62
     7
 10
151.1434751266
 20
365.6321433126
 30
0.0
 11
161.1434655898
 21
365.6321433126
 31
0.0
  0
LINE
  5
223
  8
0
  6
SLD-SOLID
 62
     7
 10
168.1434946769
 20
365.6321433126
 30
0.0
 11
178.1434851401
 21
365.6321433126
 31
0.0
  0
LINE
  5
224
  8
0
  6
SLD-SOLID
 62
     7
 10
185.1434844249
 20
365.6321433126
 30
0.0
 11
195.1434748881
 21
365.6321433126
 31
0.0
  0
LINE
  5
225
  8
0
  6
SLD-SOLID
 62
     7
 10
202.1434741729
 20
365.6321433126
 30
0.0
 11
212.1434944385
 21
365.6321433126
 31
0.0
  0
LINE
  5
226
  8
0
  6
SLD-SOLID
 62
     7
 10
219.1434937232
 20
365.6321433126
 30
0.0
 11
229.1434841865
 21
365.6321433126
 31
0.0
  0
LINE
  5
227
  8
0
  6
SLD-SOLID
 62
     7
 10
236.1434834712
 20
365.6321433126
 30
0.0
 11
246.1434739345
 21
365.6321433126
 31
0.0
  0
LINE
  5
228
  8
0
  6
SLD-SOLID
 62
     7
 10
253.1434732192
 20
365.6321433126
 30
0.0
 11
263.1434785836
 21
365.6321433126
 31
0.0
  0
LINE
  5
229
  8
0
  6
SLD-SOLID
 62
     7
 10
270.1434778684
 20
365.6321433126
 30
0.0
 11
280.1434832328
 21
365.6321433126
 31
0.0
  0
LINE
  5
22A
  8
0
  6
SLD-SOLID
 62
     7
 10
287.1434825175
 20
365.6321433126
 30
0.0
 11
297.1434729808
 21
365.6321433126
 31
0.0
  0
LINE
  5
22B
  8
0
  6
SLD-SOLID
 62
     7
 10
304.1434871667
 20
365.6321433126
 30
0.0
 11
314.14347763
 21
365.6321433126
 31
0.0
  0
LINE
  5
22C
  8
0
  6
SLD-SOLID
 62
     7
 10
321.1434769147
 20
365.6321433126
 30
0.0
 11
331.1434822791
 21
365.6321433126
 31
0.0
  0
LINE
  5
22D
  8
0
  6
SLD-SOLID
 62
     7
 10
338.1434815639
 20
365.6321433126
 30
0.0
 11
348.1434869283
 21
365.6321433126
 31
0.0
  0
LINE
  5
22E
  8
0
  6
SLD-SOLID
 62
     7
 10
355.143486213
 20
365.6321433126
 30
0.0
 11
365.1434766763
 21
365.6321433126
 31
0.0
  0
LINE
  5
22F
  8
0
  6
SLD-SOLID
 62
     7
 10
372.143475961
 20
365.6321433126
 30
0.0
 11
382.1434813254
 21
365.6321433126
 31
0.0
  0
LINE
  5
230
  8
0
  6
SLD-SOLID
 62
     7
 10
389.1434806102
 20
365.6321433126
 30
0.0
 11
399.143478524
 21
365.6321433126
 31
0.0
  0
LINE
  5
231
  8
0
  6
SLD-SOLID
 62
     7
 10
406.1434778088
 20
365.6321433126
 30
0.0
 11
416.1434831732
 21
365.6321433126
 31
0.0
  0
LINE
  5
232
  8
0
  6
SLD-SOLID
 62
     7
 10
423.1434824579
 20
365.6321433126
 30
0.0
 11
433.1434803718
 21
365.6321433126
 31
0.0
  0
LINE
  5
233
  8
0
  6
SLD-SOLID
 62
     7
 10
440.1434796565
 20
365.6321433126
 30
0.0
 11
450.1434812956
 21
365.6321433126
 31
0.0
  0
LINE
  5
234
  8
0
  6
SLD-SOLID
 62
     7
 10
457.1434805804
 20
365.6321433126
 30
0.0
 11
467.1434784942
 21
365.6321433126
 31
0.0
  0
LINE
  5
235
  8
0
  6
SLD-SOLID
 62
     7
 10
474.1434796416
 20
365.6321433126
 30
0.0
 11
484.1434794181
 21
365.6321433126
 31
0.0
  0
LINE
  5
236
  8
0
  6
SLD-SOLID
 62
     7
 10
491.1434796342
 20
365.6321433126
 30
0.0
 11
501.1434799927
 21
365.6321433126
 31
0.0
  0
LINE
  5
237
  8
0
  6
SLD-SOLID
 62
     7
 10
508.1434800924
 20
365.6321433126
 30
0.0
 11
518.1434803345
 21
365.6321433126
 31
0.0
  0
LINE
  5
238
  8
0
  6
SLD-SOLID
 62
     7
 10
525.1434805506
 20
365.6321433126
 30
0.0
 11
535.1434784644
 21
365.6321433126
 31
0.0
  0
LINE
  5
239
  8
0
  6
SLD-SOLID
 62
     7
 10
542.1434814745
 20
365.6321433126
 30
0.0
 11
552.1434793883
 21
365.6321433126
 31
0.0
  0
LINE
  5
23A
  8
0
  6
SLD-SOLID
 62
     7
 10
559.143478673
 20
365.6321433126
 30
0.0
 11
569.1434803122
 21
365.6321433126
 31
0.0
  0
LINE
  5
23B
  8
0
  6
SLD-SOLID
 62
     7
 10
576.1434795969
 20
365.6321433126
 30
0.0
 11
586.1434775107
 21
365.6321433126
 31
0.0
  0
LINE
  5
23C
  8
0
  6
SLD-SOLID
 62
     7
 10
593.1434767955
 20
365.6321433126
 30
0.0
 11
603.1434821599
 21
365.6321433126
 31
0.0
  0
LINE
  5
23D
  8
0
  6
SLD-SOLID
 62
     7
 10
610.1434814447
 20
365.6321433126
 30
0.0
 11
619.8434817308
 21
365.6321433126
 31
0.0
  0
LINE
  5
23E
  8
0
  6
SLD-SOLID
 62
     7
 10
620.1434793585
 20
390.583038771
 30
0.0
 11
619.8434817308
 21
390.5830909251
 31
0.0
  0
LINE
  5
23F
  8
0
  6
SLD-SOLID
 62
     7
 10
619.8434817308
 20
391.3830783903
 30
0.0
 11
620.1434793585
 21
391.3830262362
 31
0.0
  0
POLYLINE
  5
240
  8
0
  6
SLD-SOLID
 62
     7
 66
     1
 10
0.0
 20
0.0
 30
0.0
  0
VERTEX
  5
6D6
  8
0
  6
SLD-SOLID
 62
     7
 10
119.8434668296
 20
390.5830909251
 30
0.0
  0
VERTEX
  5
6D7
  8
0
  6
SLD-SOLID
 62
     7
 10
118.8834148162
 20
390.5825470327
 30
0.0
  0
VERTEX
  5
6D8
  8
0
  6
SLD-SOLID
 62
     7
 10
117.9590957873
 20
390.580933982
 30
0.0
  0
VERTEX
  5
6D9
  8
0
  6
SLD-SOLID
 62
     7
 10
117.1434658282
 20
390.578456664
 30
0.0
  0
SEQEND
  5
6DA
  8
0
  6
SLD-SOLID
 62
     7
  0
LINE
  5
241
  8
0
  6
SLD-SOLID
 62
     7
 10
619.8434817308
 20
390.5830909251
 30
0.0
 11
610.1434814447
 21
390.5830909251
 31
0.0
  0
LINE
  5
242
  8
0
  6
SLD-SOLID
 62
     7
 10
603.1434821599
 20
390.5830909251
 30
0.0
 11
593.1434767955
 21
390.5830909251
 31
0.0
  0
LINE
  5
243
  8
0
  6
SLD-SOLID
 62
     7
 10
586.1434775107
 20
390.5830909251
 30
0.0
 11
576.1434795969
 21
390.5830909251
 31
0.0
  0
LINE
  5
244
  8
0
  6
SLD-SOLID
 62
     7
 10
569.1434803122
 20
390.5830909251
 30
0.0
 11
559.143478673
 21
390.5830909251
 31
0.0
  0
LINE
  5
245
  8
0
  6
SLD-SOLID
 62
     7
 10
552.1434793883
 20
390.5830909251
 30
0.0
 11
542.1434814745
 21
390.5830909251
 31
0.0
  0
LINE
  5
246
  8
0
  6
SLD-SOLID
 62
     7
 10
535.1434784644
 20
390.5830909251
 30
0.0
 11
525.1434805506
 21
390.5830909251
 31
0.0
  0
LINE
  5
247
  8
0
  6
SLD-SOLID
 62
     7
 10
518.1434803345
 20
390.5830909251
 30
0.0
 11
508.1434800924
 21
390.5830909251
 31
0.0
  0
LINE
  5
248
  8
0
  6
SLD-SOLID
 62
     7
 10
501.1434799927
 20
390.5830909251
 30
0.0
 11
491.1434796342
 21
390.5830909251
 31
0.0
  0
LINE
  5
249
  8
0
  6
SLD-SOLID
 62
     7
 10
484.1434794181
 20
390.5830909251
 30
0.0
 11
474.1434796416
 21
390.5830909251
 31
0.0
  0
LINE
  5
24A
  8
0
  6
SLD-SOLID
 62
     7
 10
467.1434784942
 20
390.5830909251
 30
0.0
 11
457.1434805804
 21
390.5830909251
 31
0.0
  0
LINE
  5
24B
  8
0
  6
SLD-SOLID
 62
     7
 10
450.1434812956
 20
390.5830909251
 30
0.0
 11
440.1434796565
 21
390.5830909251
 31
0.0
  0
LINE
  5
24C
  8
0
  6
SLD-SOLID
 62
     7
 10
433.1434803718
 20
390.5830909251
 30
0.0
 11
423.1434824579
 21
390.5830909251
 31
0.0
  0
LINE
  5
24D
  8
0
  6
SLD-SOLID
 62
     7
 10
416.1434831732
 20
390.5830909251
 30
0.0
 11
406.1434778088
 21
390.5830909251
 31
0.0
  0
LINE
  5
24E
  8
0
  6
SLD-SOLID
 62
     7
 10
399.143478524
 20
390.5830909251
 30
0.0
 11
389.1434806102
 21
390.5830909251
 31
0.0
  0
LINE
  5
24F
  8
0
  6
SLD-SOLID
 62
     7
 10
382.1434813254
 20
390.5830909251
 30
0.0
 11
372.143475961
 21
390.5830909251
 31
0.0
  0
LINE
  5
250
  8
0
  6
SLD-SOLID
 62
     7
 10
365.1434766763
 20
390.5830909251
 30
0.0
 11
355.143486213
 21
390.5830909251
 31
0.0
  0
LINE
  5
251
  8
0
  6
SLD-SOLID
 62
     7
 10
348.1434869283
 20
390.5830909251
 30
0.0
 11
338.1434815639
 21
390.5830909251
 31
0.0
  0
LINE
  5
252
  8
0
  6
SLD-SOLID
 62
     7
 10
331.1434822791
 20
390.5830909251
 30
0.0
 11
321.1434769147
 21
390.5830909251
 31
0.0
  0
LINE
  5
253
  8
0
  6
SLD-SOLID
 62
     7
 10
314.14347763
 20
390.5830909251
 30
0.0
 11
304.1434871667
 21
390.5830909251
 31
0.0
  0
LINE
  5
254
  8
0
  6
SLD-SOLID
 62
     7
 10
297.1434729808
 20
390.5830909251
 30
0.0
 11
287.1434825175
 21
390.5830909251
 31
0.0
  0
LINE
  5
255
  8
0
  6
SLD-SOLID
 62
     7
 10
280.1434832328
 20
390.5830909251
 30
0.0
 11
270.1434778684
 21
390.5830909251
 31
0.0
  0
LINE
  5
256
  8
0
  6
SLD-SOLID
 62
     7
 10
263.1434785836
 20
390.5830909251
 30
0.0
 11
253.1434732192
 21
390.5830909251
 31
0.0
  0
LINE
  5
257
  8
0
  6
SLD-SOLID
 62
     7
 10
246.1434739345
 20
390.5830909251
 30
0.0
 11
236.1434834712
 21
390.5830909251
 31
0.0
  0
LINE
  5
258
  8
0
  6
SLD-SOLID
 62
     7
 10
229.1434841865
 20
390.5830909251
 30
0.0
 11
219.1434937232
 21
390.5830909251
 31
0.0
  0
LINE
  5
259
  8
0
  6
SLD-SOLID
 62
     7
 10
212.1434944385
 20
390.5830909251
 30
0.0
 11
202.1434741729
 21
390.5830909251
 31
0.0
  0
LINE
  5
25A
  8
0
  6
SLD-SOLID
 62
     7
 10
195.1434748881
 20
390.5830909251
 30
0.0
 11
185.1434844249
 21
390.5830909251
 31
0.0
  0
LINE
  5
25B
  8
0
  6
SLD-SOLID
 62
     7
 10
178.1434851401
 20
390.5830909251
 30
0.0
 11
168.1434946769
 21
390.5830909251
 31
0.0
  0
LINE
  5
25C
  8
0
  6
SLD-SOLID
 62
     7
 10
161.1434655898
 20
390.5830909251
 30
0.0
 11
151.1434751266
 21
390.5830909251
 31
0.0
  0
LINE
  5
25D
  8
0
  6
SLD-SOLID
 62
     7
 10
144.1434758418
 20
390.5830909251
 30
0.0
 11
134.1434853786
 21
390.5830909251
 31
0.0
  0
LINE
  5
25E
  8
0
  6
SLD-SOLID
 62
     7
 10
127.1434860938
 20
390.5830909251
 30
0.0
 11
119.8434668296
 21
390.5830909251
 31
0.0
  0
LINE
  5
25F
  8
0
  6
SLD-SOLID
 62
     7
 10
619.8434817308
 20
391.3830783903
 30
0.0
 11
610.1434814447
 21
391.3830783903
 31
0.0
  0
LINE
  5
260
  8
0
  6
SLD-SOLID
 62
     7
 10
603.1434821599
 20
391.3830783903
 30
0.0
 11
593.1434767955
 21
391.3830783903
 31
0.0
  0
LINE
  5
261
  8
0
  6
SLD-SOLID
 62
     7
 10
586.1434775107
 20
391.3830783903
 30
0.0
 11
576.1434795969
 21
391.3830783903
 31
0.0
  0
LINE
  5
262
  8
0
  6
SLD-SOLID
 62
     7
 10
569.1434803122
 20
391.3830783903
 30
0.0
 11
559.143478673
 21
391.3830783903
 31
0.0
  0
LINE
  5
263
  8
0
  6
SLD-SOLID
 62
     7
 10
552.1434793883
 20
391.3830783903
 30
0.0
 11
542.1434814745
 21
391.3830783903
 31
0.0
  0
LINE
  5
264
  8
0
  6
SLD-SOLID
 62
     7
 10
535.1434784644
 20
391.3830783903
 30
0.0
 11
525.1434805506
 21
391.3830783903
 31
0.0
  0
LINE
  5
265
  8
0
  6
SLD-SOLID
 62
     7
 10
518.1434803345
 20
391.3830783903
 30
0.0
 11
508.1434800924
 21
391.3830783903
 31
0.0
  0
LINE
  5
266
  8
0
  6
SLD-SOLID
 62
     7
 10
501.1434799927
 20
391.3830783903
 30
0.0
 11
491.1434796342
 21
391.3830783903
 31
0.0
  0
LINE
  5
267
  8
0
  6
SLD-SOLID
 62
     7
 10
484.1434794181
 20
391.3830783903
 30
0.0
 11
474.1434796416
 21
391.3830783903
 31
0.0
  0
LINE
  5
268
  8
0
  6
SLD-SOLID
 62
     7
 10
467.1434784942
 20
391.3830783903
 30
0.0
 11
457.1434805804
 21
391.3830783903
 31
0.0
  0
LINE
  5
269
  8
0
  6
SLD-SOLID
 62
     7
 10
450.1434812956
 20
391.3830783903
 30
0.0
 11
440.1434796565
 21
391.3830783903
 31
0.0
  0
LINE
  5
26A
  8
0
  6
SLD-SOLID
 62
     7
 10
433.1434803718
 20
391.3830783903
 30
0.0
 11
423.1434824579
 21
391.3830783903
 31
0.0
  0
LINE
  5
26B
  8
0
  6
SLD-SOLID
 62
     7
 10
416.1434831732
 20
391.3830783903
 30
0.0
 11
406.1434778088
 21
391.3830783903
 31
0.0
  0
LINE
  5
26C
  8
0
  6
SLD-SOLID
 62
     7
 10
399.143478524
 20
391.3830783903
 30
0.0
 11
389.1434806102
 21
391.3830783903
 31
0.0
  0
LINE
  5
26D
  8
0
  6
SLD-SOLID
 62
     7
 10
382.1434813254
 20
391.3830783903
 30
0.0
 11
372.143475961
 21
391.3830783903
 31
0.0
  0
LINE
  5
26E
  8
0
  6
SLD-SOLID
 62
     7
 10
365.1434766763
 20
391.3830783903
 30
0.0
 11
355.143486213
 21
391.3830783903
 31
0.0
  0
LINE
  5
26F
  8
0
  6
SLD-SOLID
 62
     7
 10
348.1434869283
 20
391.3830783903
 30
0.0
 11
338.1434815639
 21
391.3830783903
 31
0.0
  0
LINE
  5
270
  8
0
  6
SLD-SOLID
 62
     7
 10
331.1434822791
 20
391.3830783903
 30
0.0
 11
321.1434769147
 21
391.3830783903
 31
0.0
  0
LINE
  5
271
  8
0
  6
SLD-SOLID
 62
     7
 10
314.14347763
 20
391.3830783903
 30
0.0
 11
304.1434871667
 21
391.3830783903
 31
0.0
  0
LINE
  5
272
  8
0
  6
SLD-SOLID
 62
     7
 10
297.1434729808
 20
391.3830783903
 30
0.0
 11
287.1434825175
 21
391.3830783903
 31
0.0
  0
LINE
  5
273
  8
0
  6
SLD-SOLID
 62
     7
 10
280.1434832328
 20
391.3830783903
 30
0.0
 11
270.1434778684
 21
391.3830783903
 31
0.0
  0
LINE
  5
274
  8
0
  6
SLD-SOLID
 62
     7
 10
263.1434785836
 20
391.3830783903
 30
0.0
 11
253.1434732192
 21
391.3830783903
 31
0.0
  0
LINE
  5
275
  8
0
  6
SLD-SOLID
 62
     7
 10
246.1434739345
 20
391.3830783903
 30
0.0
 11
236.1434834712
 21
391.3830783903
 31
0.0
  0
LINE
  5
276
  8
0
  6
SLD-SOLID
 62
     7
 10
229.1434841865
 20
391.3830783903
 30
0.0
 11
219.1434937232
 21
391.3830783903
 31
0.0
  0
LINE
  5
277
  8
0
  6
SLD-SOLID
 62
     7
 10
212.1434944385
 20
391.3830783903
 30
0.0
 11
202.1434741729
 21
391.3830783903
 31
0.0
  0
LINE
  5
278
  8
0
  6
SLD-SOLID
 62
     7
 10
195.1434748881
 20
391.3830783903
 30
0.0
 11
185.1434844249
 21
391.3830783903
 31
0.0
  0
LINE
  5
279
  8
0
  6
SLD-SOLID
 62
     7
 10
178.1434851401
 20
391.3830783903
 30
0.0
 11
168.1434946769
 21
391.3830783903
 31
0.0
  0
LINE
  5
27A
  8
0
  6
SLD-SOLID
 62
     7
 10
161.1434655898
 20
391.3830783903
 30
0.0
 11
151.1434751266
 21
391.3830783903
 31
0.0
  0
LINE
  5
27B
  8
0
  6
SLD-SOLID
 62
     7
 10
144.1434758418
 20
391.3830783903
 30
0.0
 11
134.1434853786
 21
391.3830783903
 31
0.0
  0
LINE
  5
27C
  8
0
  6
SLD-SOLID
 62
     7
 10
127.1434860938
 20
391.3830783903
 30
0.0
 11
119.8434668296
 21
391.3830783903
 31
0.0
  0
POLYLINE
  5
27D
  8
0
  6
SLD-SOLID
 62
     7
 66
     1
 10
0.0
 20
0.0
 30
0.0
  0
VERTEX
  5
6DB
  8
0
  6
SLD-SOLID
 62
     7
 10
117.1434658282
 20
391.3784404038
 30
0.0
  0
VERTEX
  5
6DC
  8
0
  6
SLD-SOLID
 62
     7
 10
117.9590957873
 20
391.3809177219
 30
0.0
  0
VERTEX
  5
6DD
  8
0
  6
SLD-SOLID
 62
     7
 10
118.8834148162
 20
391.3825307726
 30
0.0
  0
VERTEX
  5
6DE
  8
0
  6
SLD-SOLID
 62
     7
 10
119.8434668296
 20
391.3830783903
 30
0.0
  0
SEQEND
  5
6DF
  8
0
  6
SLD-SOLID
 62
     7
  0
LINE
  5
27E
  8
0
  6
SLD-SOLID
 62
     7
 10
683.5934805387
 20
377.9013422071
 30
0.0
 11
683.6712944024
 21
377.8893952011
 31
0.0
  0
ARC
  5
27F
  8
0
  6
SLD-SOLID
 62
     7
 10
684.8125371604
 20
378.2875499646
 30
0.0
 40
1.208702712997006
 50
199.2327681385
 51
271.7757048985
  0
ARC
  5
280
  8
0
  6
SLD-SOLID
 62
     7
 10
684.896688191
 20
379.0421412183
 30
0.0
 40
1.963268966299592
 50
268.637071373
 51
292.1735363898
  0
LINE
  5
281
  8
0
  6
SLD-SOLID
 62
     7
 10
685.6376516336
 20
377.2240658044
 30
0.0
 11
685.6434779876
 21
377.2239279686
 31
0.0
  0
LINE
  5
282
  8
0
  6
SLD-SOLID
 62
     7
 10
685.6434779876
 20
377.2239279686
 30
0.0
 11
685.6434779876
 21
350.957673484
 31
0.0
  0
ARC
  5
283
  8
0
  6
SLD-SOLID
 62
     7
 10
344.8418242525
 20
360.5046603441
 30
0.0
 40
2.801686100411204
 50
0.2733663475
 51
155.4464818022
  0
ARC
  5
284
  8
0
  6
SLD-SOLID
 62
     7
 10
344.8472110753
 20
358.5365924262
 30
0.0
 40
2.796281239973553
 50
258.1285890495
 51
359.819662569
  0
LINE
  5
285
  8
0
  6
SLD-SOLID
 62
     7
 10
347.6434784644
 20
358.527791196
 30
0.0
 11
347.6434784644
 21
360.518027538
 31
0.0
  0
ARC
  5
286
  8
0
  6
SLD-SOLID
 62
     7
 10
139.8418088969
 20
360.5046499192
 30
0.0
 40
2.801688392681557
 50
0.2735793206
 51
155.4462688291
  0
ARC
  5
287
  8
0
  6
SLD-SOLID
 62
     7
 10
139.8472231476
 20
358.5365675813
 30
0.0
 40
2.796255976700301
 50
258.1285769045
 51
359.820170018
  0
LINE
  5
288
  8
0
  6
SLD-SOLID
 62
     7
 10
142.6434653514
 20
358.527791196
 30
0.0
 11
142.6434653514
 21
360.518027538
 31
0.0
  0
ARC
  5
289
  8
0
  6
SLD-SOLID
 62
     7
 10
599.8418227739
 20
360.5046574997
 30
0.0
 40
2.801690274709325
 50
0.2734241104
 51
155.4464568497
  0
ARC
  5
28A
  8
0
  6
SLD-SOLID
 62
     7
 10
599.8472079603
 20
358.5365995918
 30
0.0
 40
2.796287059732045
 50
258.1287354974
 51
359.819516121
  0
LINE
  5
28B
  8
0
  6
SLD-SOLID
 62
     7
 10
602.6434811466
 20
358.527791196
 30
0.0
 11
602.6434811466
 21
360.518027538
 31
0.0
  0
LINE
  5
28C
  8
0
  6
SLD-SOLID
 62
     7
 10
683.5934805387
 20
378.3299033283
 30
0.0
 11
683.6641716474
 21
378.3299033283
 31
0.0
  0
LINE
  5
28D
  8
0
  6
SLD-SOLID
 62
     7
 10
683.6641716474
 20
378.3299033283
 30
0.0
 11
683.6522209161
 21
377.9013422071
 31
0.0
  0
LINE
  5
28E
  8
0
  6
SLD-SOLID
 62
     7
 10
683.6522209161
 20
377.9013422071
 30
0.0
 11
683.5934805387
 21
377.9013422071
 31
0.0
  0
LINE
  5
28F
  8
0
  6
SLD-SOLID
 62
     7
 10
683.6641716474
 20
378.2416213988
 30
0.0
 11
683.6522209161
 21
377.9803071855
 31
0.0
  0
LINE
  5
290
  8
0
  6
SLD-SOLID
 62
     7
 10
683.6641716474
 20
378.3299033283
 30
0.0
 11
683.6641716474
 21
378.2416213988
 31
0.0
  0
LINE
  5
291
  8
0
  6
SLD-SOLID
 62
     7
 10
683.6712944024
 20
377.8893952011
 30
0.0
 11
683.6532043927
 21
377.9364158152
 31
0.0
  0
LINE
  5
292
  8
0
  6
SLD-SOLID
 62
     7
 10
683.6885946506
 20
378.3444207846
 30
0.0
 11
683.5934805387
 21
378.3299033283
 31
0.0
  0
LINE
  5
293
  8
0
  6
SLD-SOLID
 62
     7
 10
683.6885946506
 20
378.3444207846
 30
0.0
 11
683.6641716474
 21
378.2863993882
 31
0.0
  0
ARC
  5
294
  8
0
  6
SLD-SOLID
 62
     7
 10
684.8935071018
 20
377.2883541485
 30
0.0
 40
1.78776650198297
 50
65.4024082679
 51
91.3947718663
  0
ARC
  5
295
  8
0
  6
SLD-SOLID
 62
     7
 10
684.8494988292
 20
377.7883993487
 30
0.0
 40
1.287191707471333
 50
89.9780855214
 51
154.4075036716
  0
LINE
  5
296
  8
0
  6
SLD-SOLID
 62
     7
 10
685.6434779876
 20
378.9122109054
 30
0.0
 11
685.6434779876
 21
409.9072240977
 31
0.0
  0
LINE
  5
297
  8
0
  6
SLD-SOLID
 62
     7
 10
685.6434779876
 20
378.9122109054
 30
0.0
 11
685.6376516336
 21
378.9138872861
 31
0.0
  0
ARC
  5
298
  8
0
  6
SLD-SOLID
 62
     7
 10
599.845238703
 20
395.6378849688
 30
0.0
 40
2.801802324026971
 50
180.3312695929
 51
340.9425328655
  0
ARC
  5
299
  8
0
  6
SLD-SOLID
 62
     7
 10
599.8400387102
 20
397.5979334854
 30
0.0
 40
2.79657930019945
 50
71.8656112737
 51
179.7636239563
  0
LINE
  5
29A
  8
0
  6
SLD-SOLID
 62
     7
 10
597.043483209
 20
397.6094708531
 30
0.0
 11
597.043483209
 21
395.6216857522
 31
0.0
  0
ARC
  5
29B
  8
0
  6
SLD-SOLID
 62
     7
 10
394.8452371099
 20
395.6378876921
 30
0.0
 40
2.801806409097186
 50
180.331324801
 51
340.9425028042
  0
ARC
  5
29C
  8
0
  6
SLD-SOLID
 62
     7
 10
394.8400417993
 20
397.5979238084
 30
0.0
 40
2.796588091632762
 50
71.865698312
 51
179.7634264373
  0
LINE
  5
29D
  8
0
  6
SLD-SOLID
 62
     7
 10
392.0434775465
 20
397.6094708531
 30
0.0
 11
392.0434775465
 21
395.6216857522
 31
0.0
  0
ARC
  5
29E
  8
0
  6
SLD-SOLID
 62
     7
 10
139.8452378078
 20
395.6378836891
 30
0.0
 40
2.801794865033222
 50
180.3312443048
 51
340.9425078597
  0
ARC
  5
29F
  8
0
  6
SLD-SOLID
 62
     7
 10
139.8400277689
 20
397.597952832
 30
0.0
 40
2.796561722784245
 50
71.8654373467
 51
179.7640188457
  0
LINE
  5
2A0
  8
0
  6
SLD-SOLID
 62
     7
 10
137.0434897655
 20
397.6094708531
 30
0.0
 11
137.0434897655
 21
395.6216857522
 31
0.0
  0
LINE
  5
2A1
  8
0
  6
SLD-SOLID
 62
     7
 10
684.849991154
 20
377.0794276832
 30
0.0
 11
684.4727682584
 21
377.1274280487
 31
0.0
  0
ARC
  5
2A2
  8
0
  6
SLD-SOLID
 62
     7
 10
684.3880898415
 20
378.3387588243
 30
0.0
 40
1.197278073078312
 50
268.6383388181
 51
292.1722232857
  0
LINE
  5
2A3
  8
0
  6
SLD-SOLID
 62
     7
 10
685.6376516336
 20
377.2240658044
 30
0.0
 11
684.8399328702
 21
377.230015093
 31
0.0
  0
LINE
  5
2A4
  8
0
  6
SLD-SOLID
 62
     7
 10
685.6376516336
 20
378.9138872861
 30
0.0
 11
684.8399328702
 21
378.9072376429
 31
0.0
  0
LINE
  5
2A5
  8
0
  6
SLD-SOLID
 62
     7
 10
684.8434793466
 20
378.9122109054
 30
0.0
 11
684.8399328702
 21
378.9072376429
 31
0.0
  0
ARC
  5
2A6
  8
0
  6
SLD-SOLID
 62
     7
 10
599.8456220482
 20
358.6162314806
 30
0.0
 40
2.797875155626032
 50
247.6451332063
 51
359.8058850008
  0
ARC
  5
2A7
  8
0
  6
SLD-SOLID
 62
     7
 10
344.8456239973
 20
358.6162245431
 30
0.0
 40
2.797870500929241
 50
247.644991459
 51
359.8060267481
  0
ARC
  5
2A8
  8
0
  6
SLD-SOLID
 62
     7
 10
139.8456277767
 20
358.616205389
 30
0.0
 40
2.797853543798809
 50
247.6448045569
 51
359.8064178203
  0
LINE
  5
2A9
  8
0
  6
SLD-SOLID
 62
     7
 10
684.8434793466
 20
378.9122109054
 30
0.0
 11
685.6434779876
 21
378.9122109054
 31
0.0
  0
ARC
  5
2AA
  8
0
  6
SLD-SOLID
 62
     7
 10
599.8437614274
 20
397.5063555508
 30
0.0
 40
2.800317524841617
 50
56.5688445421
 51
179.6964247557
  0
ARC
  5
2AB
  8
0
  6
SLD-SOLID
 62
     7
 10
394.8437642899
 20
397.5063445567
 30
0.0
 40
2.800326108010017
 50
56.5689868174
 51
179.6962007395
  0
ARC
  5
2AC
  8
0
  6
SLD-SOLID
 62
     7
 10
139.8437558533
 20
397.5063732882
 30
0.0
 40
2.800305300560471
 50
56.5685646878
 51
179.696786351
  0
LINE
  5
2AD
  8
0
  6
SLD-SOLID
 62
     7
 10
800.5434709304
 20
502.3030084311
 30
0.0
 11
800.5434709304
 21
495.3030016958
 31
0.0
  0
LINE
  5
2AE
  8
0
  6
SLD-SOLID
 62
     7
 10
800.5434709304
 20
270.3030002057
 30
0.0
 11
800.5434709304
 21
263.3030009209
 31
0.0
  0
LINE
  5
2AF
  8
0
  6
SLD-SOLID
 62
     7
 10
55.7434695476
 20
263.3030009209
 30
0.0
 11
55.7434695476
 21
270.3030002057
 31
0.0
  0
LINE
  5
2B0
  8
0
  6
SLD-SOLID
 62
     7
 10
55.7434695476
 20
495.3030016958
 30
0.0
 11
55.7434695476
 21
502.3030084311
 31
0.0
  0
LINE
  5
2B1
  8
0
  6
SLD-SOLID
 62
     7
 10
58.2934754603
 20
344.1339325844
 30
0.0
 11
57.0434766524
 21
344.1339325844
 31
0.0
  0
LINE
  5
2B2
  8
0
  6
SLD-SOLID
 62
     7
 10
799.2434936278
 20
344.1339325844
 30
0.0
 11
797.9934948199
 21
344.1339325844
 31
0.0
  0
LINE
  5
2B3
  8
0
  6
SLD-SOLID
 62
     7
 10
799.2434936278
 20
341.851581329
 30
0.0
 11
799.2434936278
 21
344.1339325844
 31
0.0
  0
LINE
  5
2B4
  8
0
  6
SLD-SOLID
 62
     7
 10
57.0434766524
 20
341.851581329
 30
0.0
 11
57.0434766524
 21
344.1339325844
 31
0.0
  0
ARC
  5
2B5
  8
0
  6
SLD-SOLID
 62
     7
 10
798.045066933
 20
407.1249736878
 30
0.0
 40
9.745051299532498
 50
82.9359985456
 51
90.3032183331
  0
ARC
  5
2B6
  8
0
  6
SLD-SOLID
 62
     7
 10
799.3279588218
 20
415.7603490441
 30
0.0
 40
1.039143657301916
 50
46.4833316167
 51
94.6623429768
  0
LINE
  5
2B7
  8
0
  6
SLD-SOLID
 62
     7
 10
800.0434773677
 20
343.7779512941
 30
0.0
 11
800.0434773677
 21
416.5139090954
 31
0.0
  0
ARC
  5
2B8
  8
0
  6
SLD-SOLID
 62
     7
 10
799.327960299
 20
343.0243988499
 30
0.0
 40
1.03913712358987
 50
46.4831018681
 51
94.6624540789
  0
LINE
  5
2B9
  8
0
  6
SLD-SOLID
 62
     7
 10
76.1434870475
 20
410.0461420356
 30
0.0
 11
66.1434667819
 21
410.0461420356
 31
0.0
  0
LINE
  5
2BA
  8
0
  6
SLD-SOLID
 62
     7
 10
66.1434667819
 20
410.0461420356
 30
0.0
 11
66.1434667819
 21
350.957673484
 31
0.0
  0
LINE
  5
2BB
  8
0
  6
SLD-SOLID
 62
     7
 10
66.1434667819
 20
350.957673484
 30
0.0
 11
76.1434870475
 21
350.957673484
 31
0.0
  0
LINE
  5
2BC
  8
0
  6
SLD-SOLID
 62
     7
 10
76.1434870475
 20
350.957673484
 30
0.0
 11
76.1434870475
 21
410.0461420356
 31
0.0
  0
LINE
  5
2BD
  8
0
  6
SLD-SOLID
 62
     7
 10
93.1434767955
 20
410.0461420356
 30
0.0
 11
83.1434863322
 21
410.0461420356
 31
0.0
  0
LINE
  5
2BE
  8
0
  6
SLD-SOLID
 62
     7
 10
83.1434863322
 20
410.0461420356
 30
0.0
 11
83.1434863322
 21
350.957673484
 31
0.0
  0
LINE
  5
2BF
  8
0
  6
SLD-SOLID
 62
     7
 10
83.1434863322
 20
350.957673484
 30
0.0
 11
93.1434767955
 21
350.957673484
 31
0.0
  0
LINE
  5
2C0
  8
0
  6
SLD-SOLID
 62
     7
 10
93.1434767955
 20
350.957673484
 30
0.0
 11
93.1434767955
 21
410.0461420356
 31
0.0
  0
LINE
  5
2C1
  8
0
  6
SLD-SOLID
 62
     7
 10
110.1434665435
 20
410.0461420356
 30
0.0
 11
100.1434760802
 21
410.0461420356
 31
0.0
  0
LINE
  5
2C2
  8
0
  6
SLD-SOLID
 62
     7
 10
100.1434760802
 20
410.0461420356
 30
0.0
 11
100.1434760802
 21
350.957673484
 31
0.0
  0
LINE
  5
2C3
  8
0
  6
SLD-SOLID
 62
     7
 10
100.1434760802
 20
350.957673484
 30
0.0
 11
110.1434665435
 21
350.957673484
 31
0.0
  0
LINE
  5
2C4
  8
0
  6
SLD-SOLID
 62
     7
 10
110.1434665435
 20
350.957673484
 30
0.0
 11
110.1434665435
 21
410.0461420356
 31
0.0
  0
LINE
  5
2C5
  8
0
  6
SLD-SOLID
 62
     7
 10
127.1434860938
 20
410.0461420356
 30
0.0
 11
117.1434658282
 21
410.0461420356
 31
0.0
  0
LINE
  5
2C6
  8
0
  6
SLD-SOLID
 62
     7
 10
117.1434658282
 20
410.0461420356
 30
0.0
 11
117.1434658282
 21
350.957673484
 31
0.0
  0
LINE
  5
2C7
  8
0
  6
SLD-SOLID
 62
     7
 10
117.1434658282
 20
350.957673484
 30
0.0
 11
127.1434860938
 21
350.957673484
 31
0.0
  0
LINE
  5
2C8
  8
0
  6
SLD-SOLID
 62
     7
 10
127.1434860938
 20
350.957673484
 30
0.0
 11
127.1434860938
 21
410.0461420356
 31
0.0
  0
LINE
  5
2C9
  8
0
  6
SLD-SOLID
 62
     7
 10
144.1434758418
 20
410.0461420356
 30
0.0
 11
134.1434853786
 21
410.0461420356
 31
0.0
  0
LINE
  5
2CA
  8
0
  6
SLD-SOLID
 62
     7
 10
134.1434853786
 20
410.0461420356
 30
0.0
 11
134.1434853786
 21
350.957673484
 31
0.0
  0
LINE
  5
2CB
  8
0
  6
SLD-SOLID
 62
     7
 10
134.1434853786
 20
350.957673484
 30
0.0
 11
144.1434758418
 21
350.957673484
 31
0.0
  0
LINE
  5
2CC
  8
0
  6
SLD-SOLID
 62
     7
 10
144.1434758418
 20
350.957673484
 30
0.0
 11
144.1434758418
 21
410.0461420356
 31
0.0
  0
LINE
  5
2CD
  8
0
  6
SLD-SOLID
 62
     7
 10
161.1434655898
 20
410.0461420356
 30
0.0
 11
151.1434751266
 21
410.0461420356
 31
0.0
  0
LINE
  5
2CE
  8
0
  6
SLD-SOLID
 62
     7
 10
151.1434751266
 20
410.0461420356
 30
0.0
 11
151.1434751266
 21
350.957673484
 31
0.0
  0
LINE
  5
2CF
  8
0
  6
SLD-SOLID
 62
     7
 10
151.1434751266
 20
350.957673484
 30
0.0
 11
161.1434655898
 21
350.957673484
 31
0.0
  0
LINE
  5
2D0
  8
0
  6
SLD-SOLID
 62
     7
 10
161.1434655898
 20
350.957673484
 30
0.0
 11
161.1434655898
 21
410.0461420356
 31
0.0
  0
LINE
  5
2D1
  8
0
  6
SLD-SOLID
 62
     7
 10
178.1434851401
 20
410.0461420356
 30
0.0
 11
168.1434946769
 21
410.0461420356
 31
0.0
  0
LINE
  5
2D2
  8
0
  6
SLD-SOLID
 62
     7
 10
168.1434946769
 20
410.0461420356
 30
0.0
 11
168.1434946769
 21
350.957673484
 31
0.0
  0
LINE
  5
2D3
  8
0
  6
SLD-SOLID
 62
     7
 10
168.1434946769
 20
350.957673484
 30
0.0
 11
178.1434851401
 21
350.957673484
 31
0.0
  0
LINE
  5
2D4
  8
0
  6
SLD-SOLID
 62
     7
 10
178.1434851401
 20
350.957673484
 30
0.0
 11
178.1434851401
 21
410.0461420356
 31
0.0
  0
LINE
  5
2D5
  8
0
  6
SLD-SOLID
 62
     7
 10
195.1434748881
 20
410.0461420356
 30
0.0
 11
185.1434844249
 21
410.0461420356
 31
0.0
  0
LINE
  5
2D6
  8
0
  6
SLD-SOLID
 62
     7
 10
185.1434844249
 20
410.0461420356
 30
0.0
 11
185.1434844249
 21
350.957673484
 31
0.0
  0
LINE
  5
2D7
  8
0
  6
SLD-SOLID
 62
     7
 10
185.1434844249
 20
350.957673484
 30
0.0
 11
195.1434748881
 21
350.957673484
 31
0.0
  0
LINE
  5
2D8
  8
0
  6
SLD-SOLID
 62
     7
 10
195.1434748881
 20
350.957673484
 30
0.0
 11
195.1434748881
 21
410.0461420356
 31
0.0
  0
LINE
  5
2D9
  8
0
  6
SLD-SOLID
 62
     7
 10
212.1434944385
 20
410.0461420356
 30
0.0
 11
202.1434741729
 21
410.0461420356
 31
0.0
  0
LINE
  5
2DA
  8
0
  6
SLD-SOLID
 62
     7
 10
202.1434741729
 20
410.0461420356
 30
0.0
 11
202.1434741729
 21
350.957673484
 31
0.0
  0
LINE
  5
2DB
  8
0
  6
SLD-SOLID
 62
     7
 10
202.1434741729
 20
350.957673484
 30
0.0
 11
212.1434944385
 21
350.957673484
 31
0.0
  0
LINE
  5
2DC
  8
0
  6
SLD-SOLID
 62
     7
 10
212.1434944385
 20
350.957673484
 30
0.0
 11
212.1434944385
 21
410.0461420356
 31
0.0
  0
LINE
  5
2DD
  8
0
  6
SLD-SOLID
 62
     7
 10
229.1434841865
 20
410.0461420356
 30
0.0
 11
219.1434937232
 21
410.0461420356
 31
0.0
  0
LINE
  5
2DE
  8
0
  6
SLD-SOLID
 62
     7
 10
219.1434937232
 20
410.0461420356
 30
0.0
 11
219.1434937232
 21
350.957673484
 31
0.0
  0
LINE
  5
2DF
  8
0
  6
SLD-SOLID
 62
     7
 10
219.1434937232
 20
350.957673484
 30
0.0
 11
229.1434841865
 21
350.957673484
 31
0.0
  0
LINE
  5
2E0
  8
0
  6
SLD-SOLID
 62
     7
 10
229.1434841865
 20
350.957673484
 30
0.0
 11
229.1434841865
 21
410.0461420356
 31
0.0
  0
LINE
  5
2E1
  8
0
  6
SLD-SOLID
 62
     7
 10
246.1434739345
 20
410.0461420356
 30
0.0
 11
236.1434834712
 21
410.0461420356
 31
0.0
  0
LINE
  5
2E2
  8
0
  6
SLD-SOLID
 62
     7
 10
236.1434834712
 20
410.0461420356
 30
0.0
 11
236.1434834712
 21
350.957673484
 31
0.0
  0
LINE
  5
2E3
  8
0
  6
SLD-SOLID
 62
     7
 10
236.1434834712
 20
350.957673484
 30
0.0
 11
246.1434739345
 21
350.957673484
 31
0.0
  0
LINE
  5
2E4
  8
0
  6
SLD-SOLID
 62
     7
 10
246.1434739345
 20
350.957673484
 30
0.0
 11
246.1434739345
 21
410.0461420356
 31
0.0
  0
LINE
  5
2E5
  8
0
  6
SLD-SOLID
 62
     7
 10
263.1434785836
 20
410.0461420356
 30
0.0
 11
253.1434732192
 21
410.0461420356
 31
0.0
  0
LINE
  5
2E6
  8
0
  6
SLD-SOLID
 62
     7
 10
253.1434732192
 20
410.0461420356
 30
0.0
 11
253.1434732192
 21
350.957673484
 31
0.0
  0
LINE
  5
2E7
  8
0
  6
SLD-SOLID
 62
     7
 10
253.1434732192
 20
350.957673484
 30
0.0
 11
263.1434785836
 21
350.957673484
 31
0.0
  0
LINE
  5
2E8
  8
0
  6
SLD-SOLID
 62
     7
 10
263.1434785836
 20
350.957673484
 30
0.0
 11
263.1434785836
 21
410.0461420356
 31
0.0
  0
LINE
  5
2E9
  8
0
  6
SLD-SOLID
 62
     7
 10
280.1434832328
 20
410.0461420356
 30
0.0
 11
270.1434778684
 21
410.0461420356
 31
0.0
  0
LINE
  5
2EA
  8
0
  6
SLD-SOLID
 62
     7
 10
270.1434778684
 20
410.0461420356
 30
0.0
 11
270.1434778684
 21
350.957673484
 31
0.0
  0
LINE
  5
2EB
  8
0
  6
SLD-SOLID
 62
     7
 10
270.1434778684
 20
350.957673484
 30
0.0
 11
280.1434832328
 21
350.957673484
 31
0.0
  0
LINE
  5
2EC
  8
0
  6
SLD-SOLID
 62
     7
 10
280.1434832328
 20
350.957673484
 30
0.0
 11
280.1434832328
 21
410.0461420356
 31
0.0
  0
LINE
  5
2ED
  8
0
  6
SLD-SOLID
 62
     7
 10
297.1434729808
 20
410.0461420356
 30
0.0
 11
287.1434825175
 21
410.0461420356
 31
0.0
  0
LINE
  5
2EE
  8
0
  6
SLD-SOLID
 62
     7
 10
287.1434825175
 20
410.0461420356
 30
0.0
 11
287.1434825175
 21
350.957673484
 31
0.0
  0
LINE
  5
2EF
  8
0
  6
SLD-SOLID
 62
     7
 10
287.1434825175
 20
350.957673484
 30
0.0
 11
297.1434729808
 21
350.957673484
 31
0.0
  0
LINE
  5
2F0
  8
0
  6
SLD-SOLID
 62
     7
 10
297.1434729808
 20
350.957673484
 30
0.0
 11
297.1434729808
 21
410.0461420356
 31
0.0
  0
LINE
  5
2F1
  8
0
  6
SLD-SOLID
 62
     7
 10
314.14347763
 20
410.0461420356
 30
0.0
 11
304.1434871667
 21
410.0461420356
 31
0.0
  0
LINE
  5
2F2
  8
0
  6
SLD-SOLID
 62
     7
 10
304.1434871667
 20
410.0461420356
 30
0.0
 11
304.1434871667
 21
350.957673484
 31
0.0
  0
LINE
  5
2F3
  8
0
  6
SLD-SOLID
 62
     7
 10
304.1434871667
 20
350.957673484
 30
0.0
 11
314.14347763
 21
350.957673484
 31
0.0
  0
LINE
  5
2F4
  8
0
  6
SLD-SOLID
 62
     7
 10
314.14347763
 20
350.957673484
 30
0.0
 11
314.14347763
 21
410.0461420356
 31
0.0
  0
LINE
  5
2F5
  8
0
  6
SLD-SOLID
 62
     7
 10
331.1434822791
 20
410.0461420356
 30
0.0
 11
321.1434769147
 21
410.0461420356
 31
0.0
  0
LINE
  5
2F6
  8
0
  6
SLD-SOLID
 62
     7
 10
321.1434769147
 20
410.0461420356
 30
0.0
 11
321.1434769147
 21
350.957673484
 31
0.0
  0
LINE
  5
2F7
  8
0
  6
SLD-SOLID
 62
     7
 10
321.1434769147
 20
350.957673484
 30
0.0
 11
331.1434822791
 21
350.957673484
 31
0.0
  0
LINE
  5
2F8
  8
0
  6
SLD-SOLID
 62
     7
 10
331.1434822791
 20
350.957673484
 30
0.0
 11
331.1434822791
 21
410.0461420356
 31
0.0
  0
LINE
  5
2F9
  8
0
  6
SLD-SOLID
 62
     7
 10
348.1434869283
 20
410.0461420356
 30
0.0
 11
338.1434815639
 21
410.0461420356
 31
0.0
  0
LINE
  5
2FA
  8
0
  6
SLD-SOLID
 62
     7
 10
338.1434815639
 20
410.0461420356
 30
0.0
 11
338.1434815639
 21
350.957673484
 31
0.0
  0
LINE
  5
2FB
  8
0
  6
SLD-SOLID
 62
     7
 10
338.1434815639
 20
350.957673484
 30
0.0
 11
348.1434869283
 21
350.957673484
 31
0.0
  0
LINE
  5
2FC
  8
0
  6
SLD-SOLID
 62
     7
 10
348.1434869283
 20
350.957673484
 30
0.0
 11
348.1434869283
 21
410.0461420356
 31
0.0
  0
LINE
  5
2FD
  8
0
  6
SLD-SOLID
 62
     7
 10
365.1434766763
 20
410.0461420356
 30
0.0
 11
355.143486213
 21
410.0461420356
 31
0.0
  0
LINE
  5
2FE
  8
0
  6
SLD-SOLID
 62
     7
 10
355.143486213
 20
410.0461420356
 30
0.0
 11
355.143486213
 21
350.957673484
 31
0.0
  0
LINE
  5
2FF
  8
0
  6
SLD-SOLID
 62
     7
 10
355.143486213
 20
350.957673484
 30
0.0
 11
365.1434766763
 21
350.957673484
 31
0.0
  0
LINE
  5
300
  8
0
  6
SLD-SOLID
 62
     7
 10
365.1434766763
 20
350.957673484
 30
0.0
 11
365.1434766763
 21
410.0461420356
 31
0.0
  0
LINE
  5
301
  8
0
  6
SLD-SOLID
 62
     7
 10
382.1434813254
 20
410.0461420356
 30
0.0
 11
372.143475961
 21
410.0461420356
 31
0.0
  0
LINE
  5
302
  8
0
  6
SLD-SOLID
 62
     7
 10
372.143475961
 20
410.0461420356
 30
0.0
 11
372.143475961
 21
350.957673484
 31
0.0
  0
LINE
  5
303
  8
0
  6
SLD-SOLID
 62
     7
 10
372.143475961
 20
350.957673484
 30
0.0
 11
382.1434813254
 21
350.957673484
 31
0.0
  0
LINE
  5
304
  8
0
  6
SLD-SOLID
 62
     7
 10
382.1434813254
 20
350.957673484
 30
0.0
 11
382.1434813254
 21
410.0461420356
 31
0.0
  0
LINE
  5
305
  8
0
  6
SLD-SOLID
 62
     7
 10
399.143478524
 20
410.0461420356
 30
0.0
 11
389.1434806102
 21
410.0461420356
 31
0.0
  0
LINE
  5
306
  8
0
  6
SLD-SOLID
 62
     7
 10
389.1434806102
 20
410.0461420356
 30
0.0
 11
389.1434806102
 21
350.957673484
 31
0.0
  0
LINE
  5
307
  8
0
  6
SLD-SOLID
 62
     7
 10
389.1434806102
 20
350.957673484
 30
0.0
 11
399.143478524
 21
350.957673484
 31
0.0
  0
LINE
  5
308
  8
0
  6
SLD-SOLID
 62
     7
 10
399.143478524
 20
350.957673484
 30
0.0
 11
399.143478524
 21
410.0461420356
 31
0.0
  0
LINE
  5
309
  8
0
  6
SLD-SOLID
 62
     7
 10
416.1434831732
 20
410.0461420356
 30
0.0
 11
406.1434778088
 21
410.0461420356
 31
0.0
  0
LINE
  5
30A
  8
0
  6
SLD-SOLID
 62
     7
 10
406.1434778088
 20
410.0461420356
 30
0.0
 11
406.1434778088
 21
350.957673484
 31
0.0
  0
LINE
  5
30B
  8
0
  6
SLD-SOLID
 62
     7
 10
406.1434778088
 20
350.957673484
 30
0.0
 11
416.1434831732
 21
350.957673484
 31
0.0
  0
LINE
  5
30C
  8
0
  6
SLD-SOLID
 62
     7
 10
416.1434831732
 20
350.957673484
 30
0.0
 11
416.1434831732
 21
410.0461420356
 31
0.0
  0
LINE
  5
30D
  8
0
  6
SLD-SOLID
 62
     7
 10
433.1434803718
 20
410.0461420356
 30
0.0
 11
423.1434824579
 21
410.0461420356
 31
0.0
  0
LINE
  5
30E
  8
0
  6
SLD-SOLID
 62
     7
 10
423.1434824579
 20
410.0461420356
 30
0.0
 11
423.1434824579
 21
350.957673484
 31
0.0
  0
LINE
  5
30F
  8
0
  6
SLD-SOLID
 62
     7
 10
423.1434824579
 20
350.957673484
 30
0.0
 11
433.1434803718
 21
350.957673484
 31
0.0
  0
LINE
  5
310
  8
0
  6
SLD-SOLID
 62
     7
 10
433.1434803718
 20
350.957673484
 30
0.0
 11
433.1434803718
 21
410.0461420356
 31
0.0
  0
LINE
  5
311
  8
0
  6
SLD-SOLID
 62
     7
 10
450.1434812956
 20
410.0461420356
 30
0.0
 11
440.1434796565
 21
410.0461420356
 31
0.0
  0
LINE
  5
312
  8
0
  6
SLD-SOLID
 62
     7
 10
440.1434796565
 20
410.0461420356
 30
0.0
 11
440.1434796565
 21
350.957673484
 31
0.0
  0
LINE
  5
313
  8
0
  6
SLD-SOLID
 62
     7
 10
440.1434796565
 20
350.957673484
 30
0.0
 11
450.1434812956
 21
350.957673484
 31
0.0
  0
LINE
  5
314
  8
0
  6
SLD-SOLID
 62
     7
 10
450.1434812956
 20
350.957673484
 30
0.0
 11
450.1434812956
 21
410.0461420356
 31
0.0
  0
LINE
  5
315
  8
0
  6
SLD-SOLID
 62
     7
 10
467.1434784942
 20
410.0461420356
 30
0.0
 11
457.1434805804
 21
410.0461420356
 31
0.0
  0
LINE
  5
316
  8
0
  6
SLD-SOLID
 62
     7
 10
457.1434805804
 20
410.0461420356
 30
0.0
 11
457.1434805804
 21
350.957673484
 31
0.0
  0
LINE
  5
317
  8
0
  6
SLD-SOLID
 62
     7
 10
457.1434805804
 20
350.957673484
 30
0.0
 11
467.1434784942
 21
350.957673484
 31
0.0
  0
LINE
  5
318
  8
0
  6
SLD-SOLID
 62
     7
 10
467.1434784942
 20
350.957673484
 30
0.0
 11
467.1434784942
 21
410.0461420356
 31
0.0
  0
LINE
  5
319
  8
0
  6
SLD-SOLID
 62
     7
 10
484.1434794181
 20
410.0461420356
 30
0.0
 11
474.1434796416
 21
410.0461420356
 31
0.0
  0
LINE
  5
31A
  8
0
  6
SLD-SOLID
 62
     7
 10
474.1434796416
 20
410.0461420356
 30
0.0
 11
474.1434796416
 21
350.957673484
 31
0.0
  0
LINE
  5
31B
  8
0
  6
SLD-SOLID
 62
     7
 10
474.1434796416
 20
350.957673484
 30
0.0
 11
484.1434794181
 21
350.957673484
 31
0.0
  0
LINE
  5
31C
  8
0
  6
SLD-SOLID
 62
     7
 10
484.1434794181
 20
350.957673484
 30
0.0
 11
484.1434794181
 21
410.0461420356
 31
0.0
  0
LINE
  5
31D
  8
0
  6
SLD-SOLID
 62
     7
 10
501.1434799927
 20
410.0461420356
 30
0.0
 11
491.1434796342
 21
410.0461420356
 31
0.0
  0
LINE
  5
31E
  8
0
  6
SLD-SOLID
 62
     7
 10
491.1434796342
 20
410.0461420356
 30
0.0
 11
491.1434796342
 21
350.957673484
 31
0.0
  0
LINE
  5
31F
  8
0
  6
SLD-SOLID
 62
     7
 10
491.1434796342
 20
350.957673484
 30
0.0
 11
501.1434799927
 21
350.957673484
 31
0.0
  0
LINE
  5
320
  8
0
  6
SLD-SOLID
 62
     7
 10
501.1434799927
 20
350.957673484
 30
0.0
 11
501.1434799927
 21
410.0461420356
 31
0.0
  0
LINE
  5
321
  8
0
  6
SLD-SOLID
 62
     7
 10
518.1434803345
 20
410.0461420356
 30
0.0
 11
508.1434800924
 21
410.0461420356
 31
0.0
  0
LINE
  5
322
  8
0
  6
SLD-SOLID
 62
     7
 10
508.1434800924
 20
410.0461420356
 30
0.0
 11
508.1434800924
 21
350.957673484
 31
0.0
  0
LINE
  5
323
  8
0
  6
SLD-SOLID
 62
     7
 10
508.1434800924
 20
350.957673484
 30
0.0
 11
518.1434803345
 21
350.957673484
 31
0.0
  0
LINE
  5
324
  8
0
  6
SLD-SOLID
 62
     7
 10
518.1434803345
 20
350.957673484
 30
0.0
 11
518.1434803345
 21
410.0461420356
 31
0.0
  0
LINE
  5
325
  8
0
  6
SLD-SOLID
 62
     7
 10
535.1434784644
 20
410.0461420356
 30
0.0
 11
525.1434805506
 21
410.0461420356
 31
0.0
  0
LINE
  5
326
  8
0
  6
SLD-SOLID
 62
     7
 10
525.1434805506
 20
410.0461420356
 30
0.0
 11
525.1434805506
 21
350.957673484
 31
0.0
  0
LINE
  5
327
  8
0
  6
SLD-SOLID
 62
     7
 10
525.1434805506
 20
350.957673484
 30
0.0
 11
535.1434784644
 21
350.957673484
 31
0.0
  0
LINE
  5
328
  8
0
  6
SLD-SOLID
 62
     7
 10
535.1434784644
 20
350.957673484
 30
0.0
 11
535.1434784644
 21
410.0461420356
 31
0.0
  0
LINE
  5
329
  8
0
  6
SLD-SOLID
 62
     7
 10
552.1434793883
 20
410.0461420356
 30
0.0
 11
542.1434814745
 21
410.0461420356
 31
0.0
  0
LINE
  5
32A
  8
0
  6
SLD-SOLID
 62
     7
 10
542.1434814745
 20
410.0461420356
 30
0.0
 11
542.1434814745
 21
350.957673484
 31
0.0
  0
LINE
  5
32B
  8
0
  6
SLD-SOLID
 62
     7
 10
542.1434814745
 20
350.957673484
 30
0.0
 11
552.1434793883
 21
350.957673484
 31
0.0
  0
LINE
  5
32C
  8
0
  6
SLD-SOLID
 62
     7
 10
552.1434793883
 20
350.957673484
 30
0.0
 11
552.1434793883
 21
410.0461420356
 31
0.0
  0
LINE
  5
32D
  8
0
  6
SLD-SOLID
 62
     7
 10
569.1434803122
 20
410.0461420356
 30
0.0
 11
559.143478673
 21
410.0461420356
 31
0.0
  0
LINE
  5
32E
  8
0
  6
SLD-SOLID
 62
     7
 10
559.143478673
 20
410.0461420356
 30
0.0
 11
559.143478673
 21
350.957673484
 31
0.0
  0
LINE
  5
32F
  8
0
  6
SLD-SOLID
 62
     7
 10
559.143478673
 20
350.957673484
 30
0.0
 11
569.1434803122
 21
350.957673484
 31
0.0
  0
LINE
  5
330
  8
0
  6
SLD-SOLID
 62
     7
 10
569.1434803122
 20
350.957673484
 30
0.0
 11
569.1434803122
 21
410.0461420356
 31
0.0
  0
LINE
  5
331
  8
0
  6
SLD-SOLID
 62
     7
 10
586.1434775107
 20
410.0461420356
 30
0.0
 11
576.1434795969
 21
410.0461420356
 31
0.0
  0
LINE
  5
332
  8
0
  6
SLD-SOLID
 62
     7
 10
576.1434795969
 20
410.0461420356
 30
0.0
 11
576.1434795969
 21
350.957673484
 31
0.0
  0
LINE
  5
333
  8
0
  6
SLD-SOLID
 62
     7
 10
576.1434795969
 20
350.957673484
 30
0.0
 11
586.1434775107
 21
350.957673484
 31
0.0
  0
LINE
  5
334
  8
0
  6
SLD-SOLID
 62
     7
 10
586.1434775107
 20
350.957673484
 30
0.0
 11
586.1434775107
 21
410.0461420356
 31
0.0
  0
LINE
  5
335
  8
0
  6
SLD-SOLID
 62
     7
 10
603.1434821599
 20
410.0461420356
 30
0.0
 11
593.1434767955
 21
410.0461420356
 31
0.0
  0
LINE
  5
336
  8
0
  6
SLD-SOLID
 62
     7
 10
593.1434767955
 20
410.0461420356
 30
0.0
 11
593.1434767955
 21
350.957673484
 31
0.0
  0
LINE
  5
337
  8
0
  6
SLD-SOLID
 62
     7
 10
593.1434767955
 20
350.957673484
 30
0.0
 11
603.1434821599
 21
350.957673484
 31
0.0
  0
LINE
  5
338
  8
0
  6
SLD-SOLID
 62
     7
 10
603.1434821599
 20
350.957673484
 30
0.0
 11
603.1434821599
 21
410.0461420356
 31
0.0
  0
LINE
  5
339
  8
0
  6
SLD-SOLID
 62
     7
 10
620.1434793585
 20
410.0461420356
 30
0.0
 11
610.1434814447
 21
410.0461420356
 31
0.0
  0
LINE
  5
33A
  8
0
  6
SLD-SOLID
 62
     7
 10
610.1434814447
 20
410.0461420356
 30
0.0
 11
610.1434814447
 21
350.957673484
 31
0.0
  0
LINE
  5
33B
  8
0
  6
SLD-SOLID
 62
     7
 10
610.1434814447
 20
350.957673484
 30
0.0
 11
620.1434793585
 21
350.957673484
 31
0.0
  0
LINE
  5
33C
  8
0
  6
SLD-SOLID
 62
     7
 10
620.1434793585
 20
350.957673484
 30
0.0
 11
620.1434793585
 21
410.0461420356
 31
0.0
  0
LINE
  5
33D
  8
0
  6
SLD-SOLID
 62
     7
 10
637.1434765571
 20
410.0461420356
 30
0.0
 11
627.1434786432
 21
410.0461420356
 31
0.0
  0
LINE
  5
33E
  8
0
  6
SLD-SOLID
 62
     7
 10
627.1434786432
 20
410.0461420356
 30
0.0
 11
627.1434786432
 21
350.957673484
 31
0.0
  0
LINE
  5
33F
  8
0
  6
SLD-SOLID
 62
     7
 10
627.1434786432
 20
350.957673484
 30
0.0
 11
637.1434765571
 21
350.957673484
 31
0.0
  0
LINE
  5
340
  8
0
  6
SLD-SOLID
 62
     7
 10
637.1434765571
 20
350.957673484
 30
0.0
 11
637.1434765571
 21
410.0461420356
 31
0.0
  0
LINE
  5
341
  8
0
  6
SLD-SOLID
 62
     7
 10
654.1434812062
 20
410.0461420356
 30
0.0
 11
644.1434758418
 21
410.0461420356
 31
0.0
  0
LINE
  5
342
  8
0
  6
SLD-SOLID
 62
     7
 10
644.1434758418
 20
410.0461420356
 30
0.0
 11
644.1434758418
 21
350.957673484
 31
0.0
  0
LINE
  5
343
  8
0
  6
SLD-SOLID
 62
     7
 10
644.1434758418
 20
350.957673484
 30
0.0
 11
654.1434812062
 21
350.957673484
 31
0.0
  0
LINE
  5
344
  8
0
  6
SLD-SOLID
 62
     7
 10
654.1434812062
 20
350.957673484
 30
0.0
 11
654.1434812062
 21
410.0461420356
 31
0.0
  0
LINE
  5
345
  8
0
  6
SLD-SOLID
 62
     7
 10
671.1434858554
 20
410.0461420356
 30
0.0
 11
661.143480491
 21
410.0461420356
 31
0.0
  0
LINE
  5
346
  8
0
  6
SLD-SOLID
 62
     7
 10
661.143480491
 20
410.0461420356
 30
0.0
 11
661.143480491
 21
350.957673484
 31
0.0
  0
LINE
  5
347
  8
0
  6
SLD-SOLID
 62
     7
 10
661.143480491
 20
350.957673484
 30
0.0
 11
671.1434858554
 21
350.957673484
 31
0.0
  0
LINE
  5
348
  8
0
  6
SLD-SOLID
 62
     7
 10
671.1434858554
 20
350.957673484
 30
0.0
 11
671.1434858554
 21
410.0461420356
 31
0.0
  0
LINE
  5
349
  8
0
  6
SLD-SOLID
 62
     7
 10
688.1434756034
 20
410.0461420356
 30
0.0
 11
678.1434851401
 21
410.0461420356
 31
0.0
  0
LINE
  5
34A
  8
0
  6
SLD-SOLID
 62
     7
 10
678.1434851401
 20
410.0461420356
 30
0.0
 11
678.1434851401
 21
350.957673484
 31
0.0
  0
LINE
  5
34B
  8
0
  6
SLD-SOLID
 62
     7
 10
678.1434851401
 20
350.957673484
 30
0.0
 11
688.1434756034
 21
350.957673484
 31
0.0
  0
LINE
  5
34C
  8
0
  6
SLD-SOLID
 62
     7
 10
688.1434756034
 20
350.957673484
 30
0.0
 11
688.1434756034
 21
410.0461420356
 31
0.0
  0
LINE
  5
34D
  8
0
  6
SLD-SOLID
 62
     7
 10
705.1434802526
 20
410.0461420356
 30
0.0
 11
695.1434748881
 21
410.0461420356
 31
0.0
  0
LINE
  5
34E
  8
0
  6
SLD-SOLID
 62
     7
 10
695.1434748881
 20
410.0461420356
 30
0.0
 11
695.1434748881
 21
350.957673484
 31
0.0
  0
LINE
  5
34F
  8
0
  6
SLD-SOLID
 62
     7
 10
695.1434748881
 20
350.957673484
 30
0.0
 11
705.1434802526
 21
350.957673484
 31
0.0
  0
LINE
  5
350
  8
0
  6
SLD-SOLID
 62
     7
 10
705.1434802526
 20
350.957673484
 30
0.0
 11
705.1434802526
 21
410.0461420356
 31
0.0
  0
LINE
  5
351
  8
0
  6
SLD-SOLID
 62
     7
 10
722.1434849017
 20
410.0461420356
 30
0.0
 11
712.1434795373
 21
410.0461420356
 31
0.0
  0
LINE
  5
352
  8
0
  6
SLD-SOLID
 62
     7
 10
712.1434795373
 20
410.0461420356
 30
0.0
 11
712.1434795373
 21
350.957673484
 31
0.0
  0
LINE
  5
353
  8
0
  6
SLD-SOLID
 62
     7
 10
712.1434795373
 20
350.957673484
 30
0.0
 11
722.1434849017
 21
350.957673484
 31
0.0
  0
LINE
  5
354
  8
0
  6
SLD-SOLID
 62
     7
 10
722.1434849017
 20
350.957673484
 30
0.0
 11
722.1434849017
 21
410.0461420356
 31
0.0
  0
LINE
  5
355
  8
0
  6
SLD-SOLID
 62
     7
 10
739.1434746497
 20
410.0461420356
 30
0.0
 11
729.1434841865
 21
410.0461420356
 31
0.0
  0
LINE
  5
356
  8
0
  6
SLD-SOLID
 62
     7
 10
729.1434841865
 20
410.0461420356
 30
0.0
 11
729.1434841865
 21
350.957673484
 31
0.0
  0
LINE
  5
357
  8
0
  6
SLD-SOLID
 62
     7
 10
729.1434841865
 20
350.957673484
 30
0.0
 11
739.1434746497
 21
350.957673484
 31
0.0
  0
LINE
  5
358
  8
0
  6
SLD-SOLID
 62
     7
 10
739.1434746497
 20
350.957673484
 30
0.0
 11
739.1434746497
 21
410.0461420356
 31
0.0
  0
LINE
  5
359
  8
0
  6
SLD-SOLID
 62
     7
 10
756.1434942
 20
410.0461420356
 30
0.0
 11
746.1434739345
 21
410.0461420356
 31
0.0
  0
LINE
  5
35A
  8
0
  6
SLD-SOLID
 62
     7
 10
746.1434739345
 20
410.0461420356
 30
0.0
 11
746.1434739345
 21
350.957673484
 31
0.0
  0
LINE
  5
35B
  8
0
  6
SLD-SOLID
 62
     7
 10
746.1434739345
 20
350.957673484
 30
0.0
 11
756.1434942
 21
350.957673484
 31
0.0
  0
LINE
  5
35C
  8
0
  6
SLD-SOLID
 62
     7
 10
756.1434942
 20
350.957673484
 30
0.0
 11
756.1434942
 21
410.0461420356
 31
0.0
  0
LINE
  5
35D
  8
0
  6
SLD-SOLID
 62
     7
 10
773.1434839481
 20
410.0461420356
 30
0.0
 11
763.1434934848
 21
410.0461420356
 31
0.0
  0
LINE
  5
35E
  8
0
  6
SLD-SOLID
 62
     7
 10
763.1434934848
 20
410.0461420356
 30
0.0
 11
763.1434934848
 21
350.957673484
 31
0.0
  0
LINE
  5
35F
  8
0
  6
SLD-SOLID
 62
     7
 10
763.1434934848
 20
350.957673484
 30
0.0
 11
773.1434839481
 21
350.957673484
 31
0.0
  0
LINE
  5
360
  8
0
  6
SLD-SOLID
 62
     7
 10
773.1434839481
 20
350.957673484
 30
0.0
 11
773.1434839481
 21
410.0461420356
 31
0.0
  0
LINE
  5
361
  8
0
  6
SLD-SOLID
 62
     7
 10
790.1434736961
 20
410.0461420356
 30
0.0
 11
780.1434832328
 21
410.0461420356
 31
0.0
  0
LINE
  5
362
  8
0
  6
SLD-SOLID
 62
     7
 10
780.1434832328
 20
410.0461420356
 30
0.0
 11
780.1434832328
 21
350.957673484
 31
0.0
  0
LINE
  5
363
  8
0
  6
SLD-SOLID
 62
     7
 10
780.1434832328
 20
350.957673484
 30
0.0
 11
790.1434736961
 21
350.957673484
 31
0.0
  0
LINE
  5
364
  8
0
  6
SLD-SOLID
 62
     7
 10
790.1434736961
 20
350.957673484
 30
0.0
 11
790.1434736961
 21
410.0461420356
 31
0.0
  0
ARC
  5
365
  8
0
  6
SLD-SOLID
 62
     7
 10
56.958965475
 20
343.0245250409
 30
0.0
 40
1.039014969336002
 50
85.3345341328
 51
133.5199099201
  0
LINE
  5
366
  8
0
  6
SLD-SOLID
 62
     7
 10
56.2434929126
 20
416.5139090954
 30
0.0
 11
56.2434929126
 21
343.7779512941
 31
0.0
  0
ARC
  5
367
  8
0
  6
SLD-SOLID
 62
     7
 10
56.9589669519
 20
415.7604752364
 30
0.0
 40
1.039021501633336
 50
85.334645243
 51
133.5196801635
  0
ARC
  5
368
  8
0
  6
SLD-SOLID
 62
     7
 10
58.2418687609
 20
407.1255592277
 30
0.0
 40
9.744465950922201
 50
89.6965600876
 51
97.0642230337
  0
LINE
  5
369
  8
0
  6
SLD-SOLID
 62
     7
 10
799.2434936278
 20
333.6421963512
 30
0.0
 11
799.2434936278
 21
341.851581329
 31
0.0
  0
LINE
  5
36A
  8
0
  6
SLD-SOLID
 62
     7
 10
799.2434936278
 20
333.6421963512
 30
0.0
 11
797.9934948199
 21
333.6421963512
 31
0.0
  0
LINE
  5
36B
  8
0
  6
SLD-SOLID
 62
     7
 10
58.2934754603
 20
333.6421963512
 30
0.0
 11
57.0434766524
 21
333.6421963512
 31
0.0
  0
LINE
  5
36C
  8
0
  6
SLD-SOLID
 62
     7
 10
57.0434766524
 20
333.6421963512
 30
0.0
 11
57.0434766524
 21
341.851581329
 31
0.0
  0
LINE
  5
36D
  8
0
  6
SLD-SOLID
 62
     7
 10
56.2434929126
 20
342.6973041831
 30
0.0
 11
57.0434766524
 21
342.6973041831
 31
0.0
  0
LINE
  5
36E
  8
0
  6
SLD-SOLID
 62
     7
 10
56.2434929126
 20
343.7692713677
 30
0.0
 11
56.2434929126
 21
342.6973041831
 31
0.0
  0
LINE
  5
36F
  8
0
  6
SLD-SOLID
 62
     7
 10
56.2434929126
 20
343.7692713677
 30
0.0
 11
57.0434766524
 21
343.7692713677
 31
0.0
  0
LINE
  5
370
  8
0
  6
SLD-SOLID
 62
     7
 10
56.2434929126
 20
334.4879192053
 30
0.0
 11
57.0434766524
 21
334.4879192053
 31
0.0
  0
LINE
  5
371
  8
0
  6
SLD-SOLID
 62
     7
 10
56.2434929126
 20
342.6973041831
 30
0.0
 11
56.2434929126
 21
334.4879192053
 31
0.0
  0
LINE
  5
372
  8
0
  6
SLD-SOLID
 62
     7
 10
800.0434773677
 20
342.6973041831
 30
0.0
 11
799.2434936278
 21
342.6973041831
 31
0.0
  0
LINE
  5
373
  8
0
  6
SLD-SOLID
 62
     7
 10
800.0434773677
 20
334.4879192053
 30
0.0
 11
799.2434936278
 21
334.4879192053
 31
0.0
  0
LINE
  5
374
  8
0
  6
SLD-SOLID
 62
     7
 10
800.0434773677
 20
342.6973041831
 30
0.0
 11
800.0434773677
 21
334.4879192053
 31
0.0
  0
LINE
  5
375
  8
0
  6
SLD-SOLID
 62
     7
 10
800.0434773677
 20
343.7692713677
 30
0.0
 11
799.2434936278
 21
343.7692713677
 31
0.0
  0
LINE
  5
376
  8
0
  6
SLD-SOLID
 62
     7
 10
800.0434773677
 20
343.7692713677
 30
0.0
 11
800.0434773677
 21
342.6973041831
 31
0.0
  0
LINE
  5
377
  8
0
  6
SLD-SOLID
 62
     7
 10
800.0434773677
 20
343.7779512941
 30
0.0
 11
800.0434773677
 21
343.7692713677
 31
0.0
  0
LINE
  5
378
  8
0
  6
SLD-SOLID
 62
     7
 10
56.2434929126
 20
343.7779512941
 30
0.0
 11
56.2434929126
 21
343.7692713677
 31
0.0
  0
LINE
  5
379
  8
0
  6
SLD-SOLID
 62
     7
 10
501.1434799927
 20
409.9072240977
 30
0.0
 11
491.1434796342
 21
409.9072240977
 31
0.0
  0
LINE
  5
37A
  8
0
  6
SLD-SOLID
 62
     7
 10
620.1434793585
 20
409.9072240977
 30
0.0
 11
610.1434814447
 21
409.9072240977
 31
0.0
  0
LINE
  5
37B
  8
0
  6
SLD-SOLID
 62
     7
 10
518.1434803345
 20
409.9072240977
 30
0.0
 11
508.1434800924
 21
409.9072240977
 31
0.0
  0
LINE
  5
37C
  8
0
  6
SLD-SOLID
 62
     7
 10
671.1434858554
 20
409.9072240977
 30
0.0
 11
661.143480491
 21
409.9072240977
 31
0.0
  0
LINE
  5
37D
  8
0
  6
SLD-SOLID
 62
     7
 10
433.1434803718
 20
409.9072240977
 30
0.0
 11
423.1434824579
 21
409.9072240977
 31
0.0
  0
LINE
  5
37E
  8
0
  6
SLD-SOLID
 62
     7
 10
331.1434822791
 20
409.9072240977
 30
0.0
 11
321.1434769147
 21
409.9072240977
 31
0.0
  0
LINE
  5
37F
  8
0
  6
SLD-SOLID
 62
     7
 10
705.1434802526
 20
409.9072240977
 30
0.0
 11
695.1434748881
 21
409.9072240977
 31
0.0
  0
LINE
  5
380
  8
0
  6
SLD-SOLID
 62
     7
 10
297.1434729808
 20
409.9072240977
 30
0.0
 11
287.1434825175
 21
409.9072240977
 31
0.0
  0
LINE
  5
381
  8
0
  6
SLD-SOLID
 62
     7
 10
280.1434832328
 20
409.9072240977
 30
0.0
 11
270.1434778684
 21
409.9072240977
 31
0.0
  0
LINE
  5
382
  8
0
  6
SLD-SOLID
 62
     7
 10
144.1434758418
 20
409.9072240977
 30
0.0
 11
134.1434853786
 21
409.9072240977
 31
0.0
  0
LINE
  5
383
  8
0
  6
SLD-SOLID
 62
     7
 10
637.1434765571
 20
409.9072240977
 30
0.0
 11
627.1434786432
 21
409.9072240977
 31
0.0
  0
LINE
  5
384
  8
0
  6
SLD-SOLID
 62
     7
 10
688.1434756034
 20
409.9072240977
 30
0.0
 11
678.1434851401
 21
409.9072240977
 31
0.0
  0
LINE
  5
385
  8
0
  6
SLD-SOLID
 62
     7
 10
246.1434739345
 20
409.9072240977
 30
0.0
 11
236.1434834712
 21
409.9072240977
 31
0.0
  0
LINE
  5
386
  8
0
  6
SLD-SOLID
 62
     7
 10
229.1434841865
 20
409.9072240977
 30
0.0
 11
219.1434937232
 21
409.9072240977
 31
0.0
  0
LINE
  5
387
  8
0
  6
SLD-SOLID
 62
     7
 10
603.1434821599
 20
409.9072240977
 30
0.0
 11
593.1434767955
 21
409.9072240977
 31
0.0
  0
LINE
  5
388
  8
0
  6
SLD-SOLID
 62
     7
 10
467.1434784942
 20
409.9072240977
 30
0.0
 11
457.1434805804
 21
409.9072240977
 31
0.0
  0
LINE
  5
389
  8
0
  6
SLD-SOLID
 62
     7
 10
756.1434942
 20
409.9072240977
 30
0.0
 11
746.1434739345
 21
409.9072240977
 31
0.0
  0
LINE
  5
38A
  8
0
  6
SLD-SOLID
 62
     7
 10
195.1434748881
 20
409.9072240977
 30
0.0
 11
185.1434844249
 21
409.9072240977
 31
0.0
  0
LINE
  5
38B
  8
0
  6
SLD-SOLID
 62
     7
 10
535.1434784644
 20
409.9072240977
 30
0.0
 11
525.1434805506
 21
409.9072240977
 31
0.0
  0
LINE
  5
38C
  8
0
  6
SLD-SOLID
 62
     7
 10
654.1434812062
 20
409.9072240977
 30
0.0
 11
644.1434758418
 21
409.9072240977
 31
0.0
  0
LINE
  5
38D
  8
0
  6
SLD-SOLID
 62
     7
 10
161.1434655898
 20
409.9072240977
 30
0.0
 11
151.1434751266
 21
409.9072240977
 31
0.0
  0
LINE
  5
38E
  8
0
  6
SLD-SOLID
 62
     7
 10
399.143478524
 20
409.9072240977
 30
0.0
 11
389.1434806102
 21
409.9072240977
 31
0.0
  0
LINE
  5
38F
  8
0
  6
SLD-SOLID
 62
     7
 10
110.1434665435
 20
409.9072240977
 30
0.0
 11
100.1434760802
 21
409.9072240977
 31
0.0
  0
LINE
  5
390
  8
0
  6
SLD-SOLID
 62
     7
 10
93.1434767955
 20
409.9072240977
 30
0.0
 11
83.1434863322
 21
409.9072240977
 31
0.0
  0
LINE
  5
391
  8
0
  6
SLD-SOLID
 62
     7
 10
484.1434794181
 20
409.9072240977
 30
0.0
 11
474.1434796416
 21
409.9072240977
 31
0.0
  0
LINE
  5
392
  8
0
  6
SLD-SOLID
 62
     7
 10
416.1434831732
 20
409.9072240977
 30
0.0
 11
406.1434778088
 21
409.9072240977
 31
0.0
  0
LINE
  5
393
  8
0
  6
SLD-SOLID
 62
     7
 10
790.1434736961
 20
409.9072240977
 30
0.0
 11
780.1434832328
 21
409.9072240977
 31
0.0
  0
LINE
  5
394
  8
0
  6
SLD-SOLID
 62
     7
 10
552.1434793883
 20
409.9072240977
 30
0.0
 11
542.1434814745
 21
409.9072240977
 31
0.0
  0
LINE
  5
395
  8
0
  6
SLD-SOLID
 62
     7
 10
382.1434813254
 20
409.9072240977
 30
0.0
 11
372.143475961
 21
409.9072240977
 31
0.0
  0
LINE
  5
396
  8
0
  6
SLD-SOLID
 62
     7
 10
569.1434803122
 20
409.9072240977
 30
0.0
 11
559.143478673
 21
409.9072240977
 31
0.0
  0
LINE
  5
397
  8
0
  6
SLD-SOLID
 62
     7
 10
178.1434851401
 20
409.9072240977
 30
0.0
 11
168.1434946769
 21
409.9072240977
 31
0.0
  0
LINE
  5
398
  8
0
  6
SLD-SOLID
 62
     7
 10
348.1434869283
 20
409.9072240977
 30
0.0
 11
338.1434815639
 21
409.9072240977
 31
0.0
  0
LINE
  5
399
  8
0
  6
SLD-SOLID
 62
     7
 10
722.1434849017
 20
409.9072240977
 30
0.0
 11
712.1434795373
 21
409.9072240977
 31
0.0
  0
LINE
  5
39A
  8
0
  6
SLD-SOLID
 62
     7
 10
263.1434785836
 20
409.9072240977
 30
0.0
 11
253.1434732192
 21
409.9072240977
 31
0.0
  0
LINE
  5
39B
  8
0
  6
SLD-SOLID
 62
     7
 10
127.1434860938
 20
409.9072240977
 30
0.0
 11
117.1434658282
 21
409.9072240977
 31
0.0
  0
LINE
  5
39C
  8
0
  6
SLD-SOLID
 62
     7
 10
314.14347763
 20
409.9072240977
 30
0.0
 11
304.1434871667
 21
409.9072240977
 31
0.0
  0
LINE
  5
39D
  8
0
  6
SLD-SOLID
 62
     7
 10
739.1434746497
 20
409.9072240977
 30
0.0
 11
729.1434841865
 21
409.9072240977
 31
0.0
  0
LINE
  5
39E
  8
0
  6
SLD-SOLID
 62
     7
 10
450.1434812956
 20
409.9072240977
 30
0.0
 11
440.1434796565
 21
409.9072240977
 31
0.0
  0
LINE
  5
39F
  8
0
  6
SLD-SOLID
 62
     7
 10
76.1434870475
 20
409.9072240977
 30
0.0
 11
66.1434667819
 21
409.9072240977
 31
0.0
  0
LINE
  5
3A0
  8
0
  6
SLD-SOLID
 62
     7
 10
212.1434944385
 20
409.9072240977
 30
0.0
 11
202.1434741729
 21
409.9072240977
 31
0.0
  0
LINE
  5
3A1
  8
0
  6
SLD-SOLID
 62
     7
 10
773.1434839481
 20
409.9072240977
 30
0.0
 11
763.1434934848
 21
409.9072240977
 31
0.0
  0
LINE
  5
3A2
  8
0
  6
SLD-SOLID
 62
     7
 10
365.1434766763
 20
409.9072240977
 30
0.0
 11
355.143486213
 21
409.9072240977
 31
0.0
  0
LINE
  5
3A3
  8
0
  6
SLD-SOLID
 62
     7
 10
586.1434775107
 20
409.9072240977
 30
0.0
 11
576.1434795969
 21
409.9072240977
 31
0.0
  0
LINE
  5
3A4
  8
0
  6
SLD-SOLID
 62
     7
 10
799.2434936278
 20
416.7960542007
 30
0.0
 11
799.2434936278
 21
416.8698885231
 31
0.0
  0
LINE
  5
3A5
  8
0
  6
SLD-SOLID
 62
     7
 10
799.2434936278
 20
416.8698885231
 30
0.0
 11
797.9934948199
 21
416.8698885231
 31
0.0
  0
LINE
  5
3A6
  8
0
  6
SLD-SOLID
 62
     7
 10
799.2434936278
 20
418.5639093383
 30
0.0
 11
57.0434766524
 21
418.5639093383
 31
0.0
  0
LINE
  5
3A7
  8
0
  6
SLD-SOLID
 62
     7
 10
799.2434936278
 20
416.8698885231
 30
0.0
 11
799.2434936278
 21
418.5639093383
 31
0.0
  0
LINE
  5
3A8
  8
0
  6
SLD-SOLID
 62
     7
 10
57.0434766524
 20
416.8698885231
 30
0.0
 11
58.2934754603
 21
416.8698885231
 31
0.0
  0
LINE
  5
3A9
  8
0
  6
SLD-SOLID
 62
     7
 10
57.0434766524
 20
416.8698885231
 30
0.0
 11
57.0434766524
 21
418.5639093383
 31
0.0
  0
LINE
  5
3AA
  8
0
  6
SLD-SOLID
 62
     7
 10
57.0434766524
 20
416.8698885231
 30
0.0
 11
57.0434766524
 21
416.7960542007
 31
0.0
  0
LINE
  5
3AB
  8
0
  6
SLD-SOLID
 62
     7
 10
56.2434929126
 20
417.6639099358
 30
0.0
 11
57.0434766524
 21
417.6639099358
 31
0.0
  0
LINE
  5
3AC
  8
0
  6
SLD-SOLID
 62
     7
 10
56.2434929126
 20
417.6639099358
 30
0.0
 11
56.2434929126
 21
416.5139090954
 31
0.0
  0
LINE
  5
3AD
  8
0
  6
SLD-SOLID
 62
     7
 10
800.0434773677
 20
417.6639099358
 30
0.0
 11
799.2434936278
 21
417.6639099358
 31
0.0
  0
LINE
  5
3AE
  8
0
  6
SLD-SOLID
 62
     7
 10
800.0434773677
 20
417.6639099358
 30
0.0
 11
800.0434773677
 21
416.5139090954
 31
0.0
  0
LINE
  5
3AF
  8
0
  6
SLD-SOLID
 62
     7
 10
797.9934948199
 20
418.5639093383
 30
0.0
 11
797.9934948199
 21
419.8139095432
 31
0.0
  0
LINE
  5
3B0
  8
0
  6
SLD-SOLID
 62
     7
 10
58.2934754603
 20
419.8139095432
 30
0.0
 11
58.2934754603
 21
418.5639093383
 31
0.0
  0
LINE
  5
3B1
  8
0
  6
SLD-SOLID
 62
     7
 10
58.2934754603
 20
333.6421963512
 30
0.0
 11
58.2934754603
 21
332.4675825178
 31
0.0
  0
LINE
  5
3B2
  8
0
  6
SLD-SOLID
 62
     7
 10
797.9934948199
 20
332.4675825178
 30
0.0
 11
797.9934948199
 21
333.6421963512
 31
0.0
  0
POLYLINE
  5
3B3
  8
0
  6
SLD-SOLID
 62
     7
 66
     1
 10
0.0
 20
0.0
 30
0.0
  0
VERTEX
  5
6E0
  8
0
  6
SLD-SOLID
 62
     7
 10
800.0434773677
 20
233.9100730359
 30
0.0
  0
VERTEX
  5
6E1
  8
0
  6
SLD-SOLID
 62
     7
 10
799.9108570331
 20
234.1962498366
 30
0.0
  0
VERTEX
  5
6E2
  8
0
  6
SLD-SOLID
 62
     7
 10
799.529983353
 20
234.4825309454
 30
0.0
  0
VERTEX
  5
6E3
  8
0
  6
SLD-SOLID
 62
     7
 10
798.9501493686
 20
234.7688120543
 30
0.0
  0
VERTEX
  5
6E4
  8
0
  6
SLD-SOLID
 62
     7
 10
798.2464867347
 20
235.0551080643
 30
0.0
  0
VERTEX
  5
6E5
  8
0
  6
SLD-SOLID
 62
     7
 10
797.9934948199
 20
235.1530086934
 30
0.0
  0
SEQEND
  5
6E6
  8
0
  6
SLD-SOLID
 62
     7
  0
LINE
  5
3B4
  8
0
  6
SLD-SOLID
 62
     7
 10
800.0434773677
 20
233.9100730359
 30
0.0
 11
799.2434936278
 21
233.9100730359
 31
0.0
  0
ARC
  5
3B5
  8
0
  6
SLD-SOLID
 62
     7
 10
797.1717902175
 20
233.0766157665
 30
0.0
 40
2.233070988679197
 50
21.9151845513
 51
68.4094831293
  0
LINE
  5
3B6
  8
0
  6
SLD-SOLID
 62
     7
 10
800.0434773677
 20
233.9100730359
 30
0.0
 11
800.0434773677
 21
332.4675825178
 31
0.0
  0
LINE
  5
3B7
  8
0
  6
SLD-SOLID
 62
     7
 10
797.9934948199
 20
332.4675825178
 30
0.0
 11
800.0434773677
 21
332.4675825178
 31
0.0
  0
POLYLINE
  5
3B8
  8
0
  6
SLD-SOLID
 62
     7
 66
     1
 10
0.0
 20
0.0
 30
0.0
  0
VERTEX
  5
6E7
  8
0
  6
SLD-SOLID
 62
     7
 10
57.0505398028
 20
233.1030112444
 30
0.0
  0
VERTEX
  5
6E8
  8
0
  6
SLD-SOLID
 62
     7
 10
57.3367315047
 20
233.2356166779
 30
0.0
  0
VERTEX
  5
6E9
  8
0
  6
SLD-SOLID
 62
     7
 10
57.6230126136
 20
233.6165052592
 30
0.0
  0
VERTEX
  5
6EA
  8
0
  6
SLD-SOLID
 62
     7
 10
57.9092937224
 20
234.1963243424
 30
0.0
  0
VERTEX
  5
6EB
  8
0
  6
SLD-SOLID
 62
     7
 10
58.1955748313
 20
234.9000167786
 30
0.0
  0
VERTEX
  5
6EC
  8
0
  6
SLD-SOLID
 62
     7
 10
58.2934754603
 20
235.1530086934
 30
0.0
  0
SEQEND
  5
6ED
  8
0
  6
SLD-SOLID
 62
     7
  0
LINE
  5
3B9
  8
0
  6
SLD-SOLID
 62
     7
 10
57.0505398028
 20
233.1030112444
 30
0.0
 11
57.0505398028
 21
233.9030098854
 31
0.0
  0
ARC
  5
3BA
  8
0
  6
SLD-SOLID
 62
     7
 10
56.2173121853
 20
235.9744849416
 30
0.0
 40
2.232773425796276
 50
291.9119043459
 51
338.4127633348
  0
POLYLINE
  5
3BB
  8
0
  6
SLD-SOLID
 62
     7
 66
     1
 10
0.0
 20
0.0
 30
0.0
  0
VERTEX
  5
6EE
  8
0
  6
SLD-SOLID
 62
     7
 10
797.9934948199
 20
534.0139087974
 30
0.0
  0
VERTEX
  5
6EF
  8
0
  6
SLD-SOLID
 62
     7
 10
798.7188535445
 20
534.3000855981
 30
0.0
  0
VERTEX
  5
6F0
  8
0
  6
SLD-SOLID
 62
     7
 10
799.3505435699
 20
534.586366707
 30
0.0
  0
VERTEX
  5
6F1
  8
0
  6
SLD-SOLID
 62
     7
 10
799.8065489047
 20
534.8726552664
 30
0.0
  0
VERTEX
  5
6F2
  8
0
  6
SLD-SOLID
 62
     7
 10
800.0278013461
 20
535.1589363753
 30
0.0
  0
VERTEX
  5
6F3
  8
0
  6
SLD-SOLID
 62
     7
 10
800.0434773677
 20
535.2568370043
 30
0.0
  0
SEQEND
  5
6F4
  8
0
  6
SLD-SOLID
 62
     7
  0
LINE
  5
3BC
  8
0
  6
SLD-SOLID
 62
     7
 10
800.0434773677
 20
419.8139095432
 30
0.0
 11
800.0434773677
 21
535.2568370043
 31
0.0
  0
LINE
  5
3BD
  8
0
  6
SLD-SOLID
 62
     7
 10
800.0434773677
 20
419.8139095432
 30
0.0
 11
797.9934948199
 21
419.8139095432
 31
0.0
  0
POLYLINE
  5
3BE
  8
0
  6
SLD-SOLID
 62
     7
 66
     1
 10
0.0
 20
0.0
 30
0.0
  0
VERTEX
  5
6F5
  8
0
  6
SLD-SOLID
 62
     7
 10
797.9934948199
 20
235.1530086934
 30
0.0
  0
VERTEX
  5
6F6
  8
0
  6
SLD-SOLID
 62
     7
 10
798.2796567195
 20
234.4276499688
 30
0.0
  0
VERTEX
  5
6F7
  8
0
  6
SLD-SOLID
 62
     7
 10
798.5659378284
 20
233.7959301411
 30
0.0
  0
VERTEX
  5
6F8
  8
0
  6
SLD-SOLID
 62
     7
 10
798.8522189372
 20
233.3399248063
 30
0.0
  0
VERTEX
  5
6F9
  8
0
  6
SLD-SOLID
 62
     7
 10
799.1385000461
 20
233.1186723648
 30
0.0
  0
VERTEX
  5
6FA
  8
0
  6
SLD-SOLID
 62
     7
 10
799.2364006751
 20
233.1030112444
 30
0.0
  0
SEQEND
  5
6FB
  8
0
  6
SLD-SOLID
 62
     7
  0
LINE
  5
3BF
  8
0
  6
SLD-SOLID
 62
     7
 10
57.0505398028
 20
233.1030112444
 30
0.0
 11
799.2364006751
 21
233.1030112444
 31
0.0
  0
ARC
  5
3C0
  8
0
  6
SLD-SOLID
 62
     7
 10
800.0313459796
 20
235.9363703572
 30
0.0
 40
2.183229911197508
 50
201.0270459753
 51
248.6469125479
  0
LINE
  5
3C1
  8
0
  6
SLD-SOLID
 62
     7
 10
799.2364006751
 20
233.1030112444
 30
0.0
 11
799.2364006751
 21
233.9030098854
 31
0.0
  0
POLYLINE
  5
3C2
  8
0
  6
SLD-SOLID
 62
     7
 66
     1
 10
0.0
 20
0.0
 30
0.0
  0
VERTEX
  5
6FC
  8
0
  6
SLD-SOLID
 62
     7
 10
58.2934754603
 20
235.1530086934
 30
0.0
  0
VERTEX
  5
6FD
  8
0
  6
SLD-SOLID
 62
     7
 10
57.5681167358
 20
234.8668318926
 30
0.0
  0
VERTEX
  5
6FE
  8
0
  6
SLD-SOLID
 62
     7
 10
56.9363969081
 20
234.5805507838
 30
0.0
  0
VERTEX
  5
6FF
  8
0
  6
SLD-SOLID
 62
     7
 10
56.4803915732
 20
234.2942696749
 30
0.0
  0
VERTEX
  5
700
  8
0
  6
SLD-SOLID
 62
     7
 10
56.2591391318
 20
234.0079736649
 30
0.0
  0
VERTEX
  5
701
  8
0
  6
SLD-SOLID
 62
     7
 10
56.2434929126
 20
233.9100730359
 30
0.0
  0
SEQEND
  5
702
  8
0
  6
SLD-SOLID
 62
     7
  0
ARC
  5
3C3
  8
0
  6
SLD-SOLID
 62
     7
 10
59.0768854609
 20
233.1151279827
 30
0.0
 40
2.183274838410035
 50
111.0279517504
 51
158.6473805689
  0
LINE
  5
3C4
  8
0
  6
SLD-SOLID
 62
     7
 10
56.2434929126
 20
233.9100730359
 30
0.0
 11
57.0434766524
 21
233.9100730359
 31
0.0
  0
POLYLINE
  5
3C5
  8
0
  6
SLD-SOLID
 62
     7
 66
     1
 10
0.0
 20
0.0
 30
0.0
  0
VERTEX
  5
703
  8
0
  6
SLD-SOLID
 62
     7
 10
56.2434929126
 20
535.2568370043
 30
0.0
  0
VERTEX
  5
704
  8
0
  6
SLD-SOLID
 62
     7
 10
56.3761132472
 20
534.9706602036
 30
0.0
  0
VERTEX
  5
705
  8
0
  6
SLD-SOLID
 62
     7
 10
56.7569869273
 20
534.6843790947
 30
0.0
  0
VERTEX
  5
706
  8
0
  6
SLD-SOLID
 62
     7
 10
57.3367911094
 20
534.3980979859
 30
0.0
  0
VERTEX
  5
707
  8
0
  6
SLD-SOLID
 62
     7
 10
58.0404835456
 20
534.1118094264
 30
0.0
  0
VERTEX
  5
708
  8
0
  6
SLD-SOLID
 62
     7
 10
58.2934754603
 20
534.0139087974
 30
0.0
  0
SEQEND
  5
709
  8
0
  6
SLD-SOLID
 62
     7
  0
LINE
  5
3C6
  8
0
  6
SLD-SOLID
 62
     7
 10
56.2434929126
 20
535.2568370043
 30
0.0
 11
57.0434766524
 21
535.2568370043
 31
0.0
  0
ARC
  5
3C7
  8
0
  6
SLD-SOLID
 62
     7
 10
59.1150185766
 20
536.0901443155
 30
0.0
 40
2.2328652038254
 50
201.913161251
 51
248.4118498756
  0
POLYLINE
  5
3C8
  8
0
  6
SLD-SOLID
 62
     7
 66
     1
 10
0.0
 20
0.0
 30
0.0
  0
VERTEX
  5
70A
  8
0
  6
SLD-SOLID
 62
     7
 10
58.2934754603
 20
534.0139087974
 30
0.0
  0
VERTEX
  5
70B
  8
0
  6
SLD-SOLID
 62
     7
 10
58.0073135608
 20
534.739267522
 30
0.0
  0
VERTEX
  5
70C
  8
0
  6
SLD-SOLID
 62
     7
 10
57.7210324519
 20
535.3709873496
 30
0.0
  0
VERTEX
  5
70D
  8
0
  6
SLD-SOLID
 62
     7
 10
57.4347513431
 20
535.8269926845
 30
0.0
  0
VERTEX
  5
70E
  8
0
  6
SLD-SOLID
 62
     7
 10
57.1484404319
 20
536.0482376753
 30
0.0
  0
VERTEX
  5
70F
  8
0
  6
SLD-SOLID
 62
     7
 10
57.0505398028
 20
536.0639062463
 30
0.0
  0
SEQEND
  5
710
  8
0
  6
SLD-SOLID
 62
     7
  0
ARC
  5
3C9
  8
0
  6
SLD-SOLID
 62
     7
 10
56.2556614068
 20
533.2305650773
 30
0.0
 40
2.183188837662791
 50
21.0269558293
 51
68.6483764901
  0
LINE
  5
3CA
  8
0
  6
SLD-SOLID
 62
     7
 10
57.0505398028
 20
536.0639062463
 30
0.0
 11
57.0505398028
 21
535.2639076053
 31
0.0
  0
LINE
  5
3CB
  8
0
  6
SLD-SOLID
 62
     7
 10
56.2434929126
 20
332.4675825178
 30
0.0
 11
56.2434929126
 21
233.9100730359
 31
0.0
  0
LINE
  5
3CC
  8
0
  6
SLD-SOLID
 62
     7
 10
56.2434929126
 20
332.4675825178
 30
0.0
 11
58.2934754603
 21
332.4675825178
 31
0.0
  0
ARC
  5
3CD
  8
0
  6
SLD-SOLID
 62
     7
 10
797.2098481558
 20
536.0520322831
 30
0.0
 40
2.18358637046856
 50
291.0314622979
 51
338.6435265754
  0
LINE
  5
3CE
  8
0
  6
SLD-SOLID
 62
     7
 10
800.0434773677
 20
535.2568370043
 30
0.0
 11
799.2434936278
 21
535.2568370043
 31
0.0
  0
LINE
  5
3CF
  8
0
  6
SLD-SOLID
 62
     7
 10
799.2364006751
 20
536.0639062463
 30
0.0
 11
57.0505398028
 21
536.0639062463
 31
0.0
  0
POLYLINE
  5
3D0
  8
0
  6
SLD-SOLID
 62
     7
 66
     1
 10
0.0
 20
0.0
 30
0.0
  0
VERTEX
  5
711
  8
0
  6
SLD-SOLID
 62
     7
 10
799.2364006751
 20
536.0639062463
 30
0.0
  0
VERTEX
  5
712
  8
0
  6
SLD-SOLID
 62
     7
 10
798.9502387755
 20
535.9312933623
 30
0.0
  0
VERTEX
  5
713
  8
0
  6
SLD-SOLID
 62
     7
 10
798.6639576667
 20
535.5504122316
 30
0.0
  0
VERTEX
  5
714
  8
0
  6
SLD-SOLID
 62
     7
 10
798.3776765578
 20
534.9705931484
 30
0.0
  0
VERTEX
  5
715
  8
0
  6
SLD-SOLID
 62
     7
 10
798.091395449
 20
534.2669007121
 30
0.0
  0
VERTEX
  5
716
  8
0
  6
SLD-SOLID
 62
     7
 10
797.9934948199
 20
534.0139087974
 30
0.0
  0
SEQEND
  5
717
  8
0
  6
SLD-SOLID
 62
     7
  0
LINE
  5
3D1
  8
0
  6
SLD-SOLID
 62
     7
 10
56.2434929126
 20
419.8139095432
 30
0.0
 11
56.2434929126
 21
535.2568370043
 31
0.0
  0
LINE
  5
3D2
  8
0
  6
SLD-SOLID
 62
     7
 10
58.2934754603
 20
419.8139095432
 30
0.0
 11
56.2434929126
 21
419.8139095432
 31
0.0
  0
LINE
  5
3D3
  8
0
  6
SLD-SOLID
 62
     7
 10
799.2364006751
 20
536.0639062463
 30
0.0
 11
799.2364006751
 21
535.2639076053
 31
0.0
  0
ARC
  5
3D4
  8
0
  6
SLD-SOLID
 62
     7
 10
800.0695911515
 20
533.1925189787
 30
0.0
 40
2.232679379640933
 50
111.9118477832
 51
158.4141936936
  0
LINE
  5
3D5
  8
0
  6
SLD-SOLID
 62
     7
 10
56.2434929126
 20
418.313909763
 30
0.0
 11
57.0434766524
 21
418.313909763
 31
0.0
  0
LINE
  5
3D6
  8
0
  6
SLD-SOLID
 62
     7
 10
56.2434929126
 20
418.313909763
 30
0.0
 11
56.2434929126
 21
419.8139095432
 31
0.0
  0
LINE
  5
3D7
  8
0
  6
SLD-SOLID
 62
     7
 10
57.0434766524
 20
418.5639093383
 30
0.0
 11
57.0434766524
 21
419.8139095432
 31
0.0
  0
LINE
  5
3D8
  8
0
  6
SLD-SOLID
 62
     7
 10
56.2434929126
 20
333.967578107
 30
0.0
 11
57.0434766524
 21
333.967578107
 31
0.0
  0
LINE
  5
3D9
  8
0
  6
SLD-SOLID
 62
     7
 10
56.2434929126
 20
332.4675825178
 30
0.0
 11
56.2434929126
 21
333.967578107
 31
0.0
  0
LINE
  5
3DA
  8
0
  6
SLD-SOLID
 62
     7
 10
57.0434766524
 20
332.4675825178
 30
0.0
 11
57.0434766524
 21
333.6421963512
 31
0.0
  0
LINE
  5
3DB
  8
0
  6
SLD-SOLID
 62
     7
 10
800.0434773677
 20
418.313909763
 30
0.0
 11
799.2434936278
 21
418.313909763
 31
0.0
  0
LINE
  5
3DC
  8
0
  6
SLD-SOLID
 62
     7
 10
800.0434773677
 20
419.8139095432
 30
0.0
 11
800.0434773677
 21
418.313909763
 31
0.0
  0
LINE
  5
3DD
  8
0
  6
SLD-SOLID
 62
     7
 10
799.2434936278
 20
419.8139095432
 30
0.0
 11
799.2434936278
 21
418.5639093383
 31
0.0
  0
LINE
  5
3DE
  8
0
  6
SLD-SOLID
 62
     7
 10
800.0434773677
 20
333.967578107
 30
0.0
 11
799.2434936278
 21
333.967578107
 31
0.0
  0
LINE
  5
3DF
  8
0
  6
SLD-SOLID
 62
     7
 10
800.0434773677
 20
333.967578107
 30
0.0
 11
800.0434773677
 21
332.4675825178
 31
0.0
  0
LINE
  5
3E0
  8
0
  6
SLD-SOLID
 62
     7
 10
799.2434936278
 20
333.6421963512
 30
0.0
 11
799.2434936278
 21
332.4675825178
 31
0.0
  0
LINE
  5
3E1
  8
0
  6
SLD-SOLID
 62
     7
 10
628.293483209
 20
378.498763287
 30
0.0
 11
628.293483209
 21
378.1964634298
 31
0.0
  0
LINE
  5
3E2
  8
0
  6
SLD-SOLID
 62
     7
 10
627.4934771174
 20
378.498763287
 30
0.0
 11
627.4934771174
 21
376.4870878993
 31
0.0
  0
LINE
  5
3E3
  8
0
  6
SLD-SOLID
 62
     7
 10
628.293483209
 20
390.2485635816
 30
0.0
 11
628.293483209
 21
378.498763287
 31
0.0
  0
LINE
  5
3E4
  8
0
  6
SLD-SOLID
 62
     7
 10
627.4934771174
 20
390.2485635816
 30
0.0
 11
627.4934771174
 21
378.498763287
 31
0.0
  0
ARC
  5
3E5
  8
0
  6
SLD-SOLID
 62
     7
 10
626.2434845615
 20
390.2485312774
 30
0.0
 40
2.049998647741822
 50
0.0009028761
 51
63.9585156767
  0
ARC
  5
3E6
  8
0
  6
SLD-SOLID
 62
     7
 10
626.2435483972
 20
390.2485788183
 30
0.0
 40
1.249928720215633
 50
359.999301561
 51
43.9467370788
  0
ARC
  5
3E7
  8
0
  6
SLD-SOLID
 62
     7
 10
626.2435483972
 20
390.1087910251
 30
0.0
 40
1.249928720215633
 50
359.999301561
 51
43.9467370788
  0
LINE
  5
3E8
  8
0
  6
SLD-SOLID
 62
     7
 10
117.1434658282
 20
391.4985400378
 30
0.0
 11
127.1434860938
 21
391.4985400378
 31
0.0
  0
LINE
  5
3E9
  8
0
  6
SLD-SOLID
 62
     7
 10
134.1434853786
 20
391.4985400378
 30
0.0
 11
144.1434758418
 21
391.4985400378
 31
0.0
  0
LINE
  5
3EA
  8
0
  6
SLD-SOLID
 62
     7
 10
151.1434751266
 20
391.4985400378
 30
0.0
 11
161.1434655898
 21
391.4985400378
 31
0.0
  0
LINE
  5
3EB
  8
0
  6
SLD-SOLID
 62
     7
 10
168.1434946769
 20
391.4985400378
 30
0.0
 11
178.1434851401
 21
391.4985400378
 31
0.0
  0
LINE
  5
3EC
  8
0
  6
SLD-SOLID
 62
     7
 10
185.1434844249
 20
391.4985400378
 30
0.0
 11
195.1434748881
 21
391.4985400378
 31
0.0
  0
LINE
  5
3ED
  8
0
  6
SLD-SOLID
 62
     7
 10
202.1434741729
 20
391.4985400378
 30
0.0
 11
212.1434944385
 21
391.4985400378
 31
0.0
  0
LINE
  5
3EE
  8
0
  6
SLD-SOLID
 62
     7
 10
219.1434937232
 20
391.4985400378
 30
0.0
 11
229.1434841865
 21
391.4985400378
 31
0.0
  0
LINE
  5
3EF
  8
0
  6
SLD-SOLID
 62
     7
 10
236.1434834712
 20
391.4985400378
 30
0.0
 11
246.1434739345
 21
391.4985400378
 31
0.0
  0
LINE
  5
3F0
  8
0
  6
SLD-SOLID
 62
     7
 10
253.1434732192
 20
391.4985400378
 30
0.0
 11
263.1434785836
 21
391.4985400378
 31
0.0
  0
LINE
  5
3F1
  8
0
  6
SLD-SOLID
 62
     7
 10
270.1434778684
 20
391.4985400378
 30
0.0
 11
280.1434832328
 21
391.4985400378
 31
0.0
  0
LINE
  5
3F2
  8
0
  6
SLD-SOLID
 62
     7
 10
287.1434825175
 20
391.4985400378
 30
0.0
 11
297.1434729808
 21
391.4985400378
 31
0.0
  0
LINE
  5
3F3
  8
0
  6
SLD-SOLID
 62
     7
 10
304.1434871667
 20
391.4985400378
 30
0.0
 11
314.14347763
 21
391.4985400378
 31
0.0
  0
LINE
  5
3F4
  8
0
  6
SLD-SOLID
 62
     7
 10
321.1434769147
 20
391.4985400378
 30
0.0
 11
331.1434822791
 21
391.4985400378
 31
0.0
  0
LINE
  5
3F5
  8
0
  6
SLD-SOLID
 62
     7
 10
338.1434815639
 20
391.4985400378
 30
0.0
 11
348.1434869283
 21
391.4985400378
 31
0.0
  0
LINE
  5
3F6
  8
0
  6
SLD-SOLID
 62
     7
 10
355.143486213
 20
391.4985400378
 30
0.0
 11
365.1434766763
 21
391.4985400378
 31
0.0
  0
LINE
  5
3F7
  8
0
  6
SLD-SOLID
 62
     7
 10
372.143475961
 20
391.4985400378
 30
0.0
 11
382.1434813254
 21
391.4985400378
 31
0.0
  0
LINE
  5
3F8
  8
0
  6
SLD-SOLID
 62
     7
 10
389.1434806102
 20
391.4985400378
 30
0.0
 11
399.143478524
 21
391.4985400378
 31
0.0
  0
LINE
  5
3F9
  8
0
  6
SLD-SOLID
 62
     7
 10
406.1434778088
 20
391.4985400378
 30
0.0
 11
416.1434831732
 21
391.4985400378
 31
0.0
  0
LINE
  5
3FA
  8
0
  6
SLD-SOLID
 62
     7
 10
423.1434824579
 20
391.4985400378
 30
0.0
 11
433.1434803718
 21
391.4985400378
 31
0.0
  0
LINE
  5
3FB
  8
0
  6
SLD-SOLID
 62
     7
 10
440.1434796565
 20
391.4985400378
 30
0.0
 11
450.1434812956
 21
391.4985400378
 31
0.0
  0
LINE
  5
3FC
  8
0
  6
SLD-SOLID
 62
     7
 10
457.1434805804
 20
391.4985400378
 30
0.0
 11
467.1434784942
 21
391.4985400378
 31
0.0
  0
LINE
  5
3FD
  8
0
  6
SLD-SOLID
 62
     7
 10
474.1434796416
 20
391.4985400378
 30
0.0
 11
484.1434794181
 21
391.4985400378
 31
0.0
  0
LINE
  5
3FE
  8
0
  6
SLD-SOLID
 62
     7
 10
491.1434796342
 20
391.4985400378
 30
0.0
 11
501.1434799927
 21
391.4985400378
 31
0.0
  0
LINE
  5
3FF
  8
0
  6
SLD-SOLID
 62
     7
 10
508.1434800924
 20
391.4985400378
 30
0.0
 11
518.1434803345
 21
391.4985400378
 31
0.0
  0
LINE
  5
400
  8
0
  6
SLD-SOLID
 62
     7
 10
525.1434805506
 20
391.4985400378
 30
0.0
 11
535.1434784644
 21
391.4985400378
 31
0.0
  0
LINE
  5
401
  8
0
  6
SLD-SOLID
 62
     7
 10
542.1434814745
 20
391.4985400378
 30
0.0
 11
552.1434793883
 21
391.4985400378
 31
0.0
  0
LINE
  5
402
  8
0
  6
SLD-SOLID
 62
     7
 10
559.143478673
 20
391.4985400378
 30
0.0
 11
569.1434803122
 21
391.4985400378
 31
0.0
  0
LINE
  5
403
  8
0
  6
SLD-SOLID
 62
     7
 10
576.1434795969
 20
391.4985400378
 30
0.0
 11
586.1434775107
 21
391.4985400378
 31
0.0
  0
LINE
  5
404
  8
0
  6
SLD-SOLID
 62
     7
 10
593.1434767955
 20
391.4985400378
 30
0.0
 11
603.1434821599
 21
391.4985400378
 31
0.0
  0
LINE
  5
405
  8
0
  6
SLD-SOLID
 62
     7
 10
610.1434814447
 20
391.4985400378
 30
0.0
 11
620.1434793585
 21
391.4985400378
 31
0.0
  0
LINE
  5
406
  8
0
  6
SLD-SOLID
 62
     7
 10
117.1434658282
 20
392.2985275029
 30
0.0
 11
127.1434860938
 21
392.2985275029
 31
0.0
  0
LINE
  5
407
  8
0
  6
SLD-SOLID
 62
     7
 10
134.1434853786
 20
392.2985275029
 30
0.0
 11
144.1434758418
 21
392.2985275029
 31
0.0
  0
LINE
  5
408
  8
0
  6
SLD-SOLID
 62
     7
 10
151.1434751266
 20
392.2985275029
 30
0.0
 11
161.1434655898
 21
392.2985275029
 31
0.0
  0
LINE
  5
409
  8
0
  6
SLD-SOLID
 62
     7
 10
168.1434946769
 20
392.2985275029
 30
0.0
 11
178.1434851401
 21
392.2985275029
 31
0.0
  0
LINE
  5
40A
  8
0
  6
SLD-SOLID
 62
     7
 10
185.1434844249
 20
392.2985275029
 30
0.0
 11
195.1434748881
 21
392.2985275029
 31
0.0
  0
LINE
  5
40B
  8
0
  6
SLD-SOLID
 62
     7
 10
202.1434741729
 20
392.2985275029
 30
0.0
 11
212.1434944385
 21
392.2985275029
 31
0.0
  0
LINE
  5
40C
  8
0
  6
SLD-SOLID
 62
     7
 10
219.1434937232
 20
392.2985275029
 30
0.0
 11
229.1434841865
 21
392.2985275029
 31
0.0
  0
LINE
  5
40D
  8
0
  6
SLD-SOLID
 62
     7
 10
236.1434834712
 20
392.2985275029
 30
0.0
 11
246.1434739345
 21
392.2985275029
 31
0.0
  0
LINE
  5
40E
  8
0
  6
SLD-SOLID
 62
     7
 10
253.1434732192
 20
392.2985275029
 30
0.0
 11
263.1434785836
 21
392.2985275029
 31
0.0
  0
LINE
  5
40F
  8
0
  6
SLD-SOLID
 62
     7
 10
270.1434778684
 20
392.2985275029
 30
0.0
 11
280.1434832328
 21
392.2985275029
 31
0.0
  0
LINE
  5
410
  8
0
  6
SLD-SOLID
 62
     7
 10
287.1434825175
 20
392.2985275029
 30
0.0
 11
297.1434729808
 21
392.2985275029
 31
0.0
  0
LINE
  5
411
  8
0
  6
SLD-SOLID
 62
     7
 10
304.1434871667
 20
392.2985275029
 30
0.0
 11
314.14347763
 21
392.2985275029
 31
0.0
  0
LINE
  5
412
  8
0
  6
SLD-SOLID
 62
     7
 10
321.1434769147
 20
392.2985275029
 30
0.0
 11
331.1434822791
 21
392.2985275029
 31
0.0
  0
LINE
  5
413
  8
0
  6
SLD-SOLID
 62
     7
 10
338.1434815639
 20
392.2985275029
 30
0.0
 11
348.1434869283
 21
392.2985275029
 31
0.0
  0
LINE
  5
414
  8
0
  6
SLD-SOLID
 62
     7
 10
355.143486213
 20
392.2985275029
 30
0.0
 11
365.1434766763
 21
392.2985275029
 31
0.0
  0
LINE
  5
415
  8
0
  6
SLD-SOLID
 62
     7
 10
372.143475961
 20
392.2985275029
 30
0.0
 11
382.1434813254
 21
392.2985275029
 31
0.0
  0
LINE
  5
416
  8
0
  6
SLD-SOLID
 62
     7
 10
389.1434806102
 20
392.2985275029
 30
0.0
 11
399.143478524
 21
392.2985275029
 31
0.0
  0
LINE
  5
417
  8
0
  6
SLD-SOLID
 62
     7
 10
406.1434778088
 20
392.2985275029
 30
0.0
 11
416.1434831732
 21
392.2985275029
 31
0.0
  0
LINE
  5
418
  8
0
  6
SLD-SOLID
 62
     7
 10
423.1434824579
 20
392.2985275029
 30
0.0
 11
433.1434803718
 21
392.2985275029
 31
0.0
  0
LINE
  5
419
  8
0
  6
SLD-SOLID
 62
     7
 10
440.1434796565
 20
392.2985275029
 30
0.0
 11
450.1434812956
 21
392.2985275029
 31
0.0
  0
LINE
  5
41A
  8
0
  6
SLD-SOLID
 62
     7
 10
457.1434805804
 20
392.2985275029
 30
0.0
 11
467.1434784942
 21
392.2985275029
 31
0.0
  0
LINE
  5
41B
  8
0
  6
SLD-SOLID
 62
     7
 10
474.1434796416
 20
392.2985275029
 30
0.0
 11
484.1434794181
 21
392.2985275029
 31
0.0
  0
LINE
  5
41C
  8
0
  6
SLD-SOLID
 62
     7
 10
491.1434796342
 20
392.2985275029
 30
0.0
 11
501.1434799927
 21
392.2985275029
 31
0.0
  0
LINE
  5
41D
  8
0
  6
SLD-SOLID
 62
     7
 10
508.1434800924
 20
392.2985275029
 30
0.0
 11
518.1434803345
 21
392.2985275029
 31
0.0
  0
LINE
  5
41E
  8
0
  6
SLD-SOLID
 62
     7
 10
525.1434805506
 20
392.2985275029
 30
0.0
 11
535.1434784644
 21
392.2985275029
 31
0.0
  0
LINE
  5
41F
  8
0
  6
SLD-SOLID
 62
     7
 10
542.1434814745
 20
392.2985275029
 30
0.0
 11
552.1434793883
 21
392.2985275029
 31
0.0
  0
LINE
  5
420
  8
0
  6
SLD-SOLID
 62
     7
 10
559.143478673
 20
392.2985275029
 30
0.0
 11
569.1434803122
 21
392.2985275029
 31
0.0
  0
LINE
  5
421
  8
0
  6
SLD-SOLID
 62
     7
 10
576.1434795969
 20
392.2985275029
 30
0.0
 11
586.1434775107
 21
392.2985275029
 31
0.0
  0
LINE
  5
422
  8
0
  6
SLD-SOLID
 62
     7
 10
593.1434767955
 20
392.2985275029
 30
0.0
 11
603.1434821599
 21
392.2985275029
 31
0.0
  0
LINE
  5
423
  8
0
  6
SLD-SOLID
 62
     7
 10
610.1434814447
 20
392.2985275029
 30
0.0
 11
620.1434793585
 21
392.2985275029
 31
0.0
  0
LINE
  5
424
  8
0
  6
SLD-SOLID
 62
     7
 10
628.293483209
 20
376.3707210063
 30
0.0
 11
627.4934771174
 21
376.3707210063
 31
0.0
  0
LINE
  5
425
  8
0
  6
SLD-SOLID
 62
     7
 10
627.4934771174
 20
376.4870878993
 30
0.0
 11
627.4934771174
 21
376.3707210063
 31
0.0
  0
LINE
  5
426
  8
0
  6
SLD-SOLID
 62
     7
 10
602.4934786075
 20
392.2985275029
 30
0.0
 11
602.4934786075
 21
393.2707835673
 31
0.0
  0
LINE
  5
427
  8
0
  6
SLD-SOLID
 62
     7
 10
397.4934803956
 20
392.2985275029
 30
0.0
 11
397.4934803956
 21
393.2707835673
 31
0.0
  0
LINE
  5
428
  8
0
  6
SLD-SOLID
 62
     7
 10
596.4934813493
 20
393.2707835673
 30
0.0
 11
596.4934813493
 21
392.2985275029
 31
0.0
  0
LINE
  5
429
  8
0
  6
SLD-SOLID
 62
     7
 10
347.4934833758
 20
392.2985275029
 30
0.0
 11
347.4934833758
 21
393.2707835673
 31
0.0
  0
LINE
  5
42A
  8
0
  6
SLD-SOLID
 62
     7
 10
391.4934831374
 20
393.2707835673
 30
0.0
 11
391.4934831374
 21
392.2985275029
 31
0.0
  0
LINE
  5
42B
  8
0
  6
SLD-SOLID
 62
     7
 10
142.4934702628
 20
392.2985275029
 30
0.0
 11
142.4934702628
 21
393.2707835673
 31
0.0
  0
LINE
  5
42C
  8
0
  6
SLD-SOLID
 62
     7
 10
341.4934861177
 20
393.2707835673
 30
0.0
 11
341.4934861177
 21
392.2985275029
 31
0.0
  0
LINE
  5
42D
  8
0
  6
SLD-SOLID
 62
     7
 10
136.4934879058
 20
393.2707835673
 30
0.0
 11
136.4934879058
 21
392.2985275029
 31
0.0
  0
LINE
  5
42E
  8
0
  6
SLD-SOLID
 62
     7
 10
627.1434786432
 20
393.1825016378
 30
0.0
 11
627.4934771174
 21
393.1825016378
 31
0.0
  0
LINE
  5
42F
  8
0
  6
SLD-SOLID
 62
     7
 10
627.4934771174
 20
393.2707835673
 30
0.0
 11
627.1434786432
 21
393.2707835673
 31
0.0
  0
LINE
  5
430
  8
0
  6
SLD-SOLID
 62
     7
 10
627.4934771174
 20
393.2707835673
 30
0.0
 11
627.4934771174
 21
393.1825016378
 31
0.0
  0
ARC
  5
431
  8
0
  6
SLD-SOLID
 62
     7
 10
139.4934790843
 20
397.604675955
 30
0.0
 40
3.000023308817558
 50
0.2651753357
 51
179.7348246643
  0
LINE
  5
432
  8
0
  6
SLD-SOLID
 62
     7
 10
117.1434658282
 20
407.0605435162
 30
0.0
 11
127.1434860938
 21
407.0605435162
 31
0.0
  0
LINE
  5
433
  8
0
  6
SLD-SOLID
 62
     7
 10
134.1434853786
 20
407.0605435162
 30
0.0
 11
144.1434758418
 21
407.0605435162
 31
0.0
  0
LINE
  5
434
  8
0
  6
SLD-SOLID
 62
     7
 10
151.1434751266
 20
407.0605435162
 30
0.0
 11
161.1434655898
 21
407.0605435162
 31
0.0
  0
LINE
  5
435
  8
0
  6
SLD-SOLID
 62
     7
 10
168.1434946769
 20
407.0605435162
 30
0.0
 11
178.1434851401
 21
407.0605435162
 31
0.0
  0
LINE
  5
436
  8
0
  6
SLD-SOLID
 62
     7
 10
185.1434844249
 20
407.0605435162
 30
0.0
 11
195.1434748881
 21
407.0605435162
 31
0.0
  0
LINE
  5
437
  8
0
  6
SLD-SOLID
 62
     7
 10
202.1434741729
 20
407.0605435162
 30
0.0
 11
212.1434944385
 21
407.0605435162
 31
0.0
  0
LINE
  5
438
  8
0
  6
SLD-SOLID
 62
     7
 10
219.1434937232
 20
407.0605435162
 30
0.0
 11
229.1434841865
 21
407.0605435162
 31
0.0
  0
LINE
  5
439
  8
0
  6
SLD-SOLID
 62
     7
 10
236.1434834712
 20
407.0605435162
 30
0.0
 11
246.1434739345
 21
407.0605435162
 31
0.0
  0
LINE
  5
43A
  8
0
  6
SLD-SOLID
 62
     7
 10
253.1434732192
 20
407.0605435162
 30
0.0
 11
263.1434785836
 21
407.0605435162
 31
0.0
  0
LINE
  5
43B
  8
0
  6
SLD-SOLID
 62
     7
 10
270.1434778684
 20
407.0605435162
 30
0.0
 11
280.1434832328
 21
407.0605435162
 31
0.0
  0
LINE
  5
43C
  8
0
  6
SLD-SOLID
 62
     7
 10
287.1434825175
 20
407.0605435162
 30
0.0
 11
297.1434729808
 21
407.0605435162
 31
0.0
  0
LINE
  5
43D
  8
0
  6
SLD-SOLID
 62
     7
 10
304.1434871667
 20
407.0605435162
 30
0.0
 11
314.14347763
 21
407.0605435162
 31
0.0
  0
LINE
  5
43E
  8
0
  6
SLD-SOLID
 62
     7
 10
321.1434769147
 20
407.0605435162
 30
0.0
 11
331.1434822791
 21
407.0605435162
 31
0.0
  0
LINE
  5
43F
  8
0
  6
SLD-SOLID
 62
     7
 10
338.1434815639
 20
407.0605435162
 30
0.0
 11
348.1434869283
 21
407.0605435162
 31
0.0
  0
LINE
  5
440
  8
0
  6
SLD-SOLID
 62
     7
 10
355.143486213
 20
407.0605435162
 30
0.0
 11
365.1434766763
 21
407.0605435162
 31
0.0
  0
LINE
  5
441
  8
0
  6
SLD-SOLID
 62
     7
 10
372.143475961
 20
407.0605435162
 30
0.0
 11
382.1434813254
 21
407.0605435162
 31
0.0
  0
LINE
  5
442
  8
0
  6
SLD-SOLID
 62
     7
 10
389.1434806102
 20
407.0605435162
 30
0.0
 11
399.143478524
 21
407.0605435162
 31
0.0
  0
LINE
  5
443
  8
0
  6
SLD-SOLID
 62
     7
 10
406.1434778088
 20
407.0605435162
 30
0.0
 11
416.1434831732
 21
407.0605435162
 31
0.0
  0
LINE
  5
444
  8
0
  6
SLD-SOLID
 62
     7
 10
423.1434824579
 20
407.0605435162
 30
0.0
 11
433.1434803718
 21
407.0605435162
 31
0.0
  0
LINE
  5
445
  8
0
  6
SLD-SOLID
 62
     7
 10
440.1434796565
 20
407.0605435162
 30
0.0
 11
450.1434812956
 21
407.0605435162
 31
0.0
  0
LINE
  5
446
  8
0
  6
SLD-SOLID
 62
     7
 10
457.1434805804
 20
407.0605435162
 30
0.0
 11
467.1434784942
 21
407.0605435162
 31
0.0
  0
LINE
  5
447
  8
0
  6
SLD-SOLID
 62
     7
 10
474.1434796416
 20
407.0605435162
 30
0.0
 11
484.1434794181
 21
407.0605435162
 31
0.0
  0
LINE
  5
448
  8
0
  6
SLD-SOLID
 62
     7
 10
491.1434796342
 20
407.0605435162
 30
0.0
 11
501.1434799927
 21
407.0605435162
 31
0.0
  0
LINE
  5
449
  8
0
  6
SLD-SOLID
 62
     7
 10
508.1434800924
 20
407.0605435162
 30
0.0
 11
518.1434803345
 21
407.0605435162
 31
0.0
  0
LINE
  5
44A
  8
0
  6
SLD-SOLID
 62
     7
 10
525.1434805506
 20
407.0605435162
 30
0.0
 11
535.1434784644
 21
407.0605435162
 31
0.0
  0
LINE
  5
44B
  8
0
  6
SLD-SOLID
 62
     7
 10
542.1434814745
 20
407.0605435162
 30
0.0
 11
552.1434793883
 21
407.0605435162
 31
0.0
  0
LINE
  5
44C
  8
0
  6
SLD-SOLID
 62
     7
 10
559.143478673
 20
407.0605435162
 30
0.0
 11
569.1434803122
 21
407.0605435162
 31
0.0
  0
LINE
  5
44D
  8
0
  6
SLD-SOLID
 62
     7
 10
576.1434795969
 20
407.0605435162
 30
0.0
 11
586.1434775107
 21
407.0605435162
 31
0.0
  0
LINE
  5
44E
  8
0
  6
SLD-SOLID
 62
     7
 10
593.1434767955
 20
407.0605435162
 30
0.0
 11
603.1434821599
 21
407.0605435162
 31
0.0
  0
LINE
  5
44F
  8
0
  6
SLD-SOLID
 62
     7
 10
610.1434814447
 20
407.0605435162
 30
0.0
 11
620.1434793585
 21
407.0605435162
 31
0.0
  0
ARC
  5
450
  8
0
  6
SLD-SOLID
 62
     7
 10
625.5136199345
 20
405.0721110434
 30
0.0
 40
1.979857288064078
 50
0.0186806152
 51
34.5915304547
  0
ARC
  5
451
  8
0
  6
SLD-SOLID
 62
     7
 10
599.4934799784
 20
397.6046537311
 30
0.0
 40
3.000030862256482
 50
0.2655991141
 51
179.7344008859
  0
ARC
  5
452
  8
0
  6
SLD-SOLID
 62
     7
 10
394.4934817665
 20
397.6046537311
 30
0.0
 40
3.000030862256482
 50
0.2655991141
 51
179.7344008859
  0
ARC
  5
453
  8
0
  6
SLD-SOLID
 62
     7
 10
344.4934847468
 20
397.6046541717
 30
0.0
 40
3.00003086021401
 50
0.2655906991
 51
179.7344093009
  0
LINE
  5
454
  8
0
  6
SLD-SOLID
 62
     7
 10
136.4934879058
 20
397.6185605614
 30
0.0
 11
136.4934879058
 21
393.2707835673
 31
0.0
  0
LINE
  5
455
  8
0
  6
SLD-SOLID
 62
     7
 10
142.4934702628
 20
393.2707835673
 30
0.0
 11
142.4934702628
 21
397.6185605614
 31
0.0
  0
LINE
  5
456
  8
0
  6
SLD-SOLID
 62
     7
 10
341.4934861177
 20
397.6185605614
 30
0.0
 11
341.4934861177
 21
393.2707835673
 31
0.0
  0
LINE
  5
457
  8
0
  6
SLD-SOLID
 62
     7
 10
347.4934833758
 20
393.2707835673
 30
0.0
 11
347.4934833758
 21
397.6185605614
 31
0.0
  0
LINE
  5
458
  8
0
  6
SLD-SOLID
 62
     7
 10
391.4934831374
 20
397.6185605614
 30
0.0
 11
391.4934831374
 21
393.2707835673
 31
0.0
  0
LINE
  5
459
  8
0
  6
SLD-SOLID
 62
     7
 10
397.4934803956
 20
393.2707835673
 30
0.0
 11
397.4934803956
 21
397.6185605614
 31
0.0
  0
LINE
  5
45A
  8
0
  6
SLD-SOLID
 62
     7
 10
602.4934786075
 20
393.2707835673
 30
0.0
 11
602.4934786075
 21
397.6185605614
 31
0.0
  0
LINE
  5
45B
  8
0
  6
SLD-SOLID
 62
     7
 10
596.4934813493
 20
397.6185605614
 30
0.0
 11
596.4934813493
 21
393.2707835673
 31
0.0
  0
LINE
  5
45C
  8
0
  6
SLD-SOLID
 62
     7
 10
627.4934771174
 20
405.0727565526
 30
0.0
 11
627.4934771174
 21
393.2707835673
 31
0.0
  0
ARC
  5
45D
  8
0
  6
SLD-SOLID
 62
     7
 10
599.4934799784
 20
397.5163742889
 30
0.0
 40
3.000030859360674
 50
0.2655871833
 51
179.7344128167
  0
ARC
  5
45E
  8
0
  6
SLD-SOLID
 62
     7
 10
394.4934817665
 20
397.5163742889
 30
0.0
 40
3.000030859360674
 50
0.2655871833
 51
179.7344128167
  0
ARC
  5
45F
  8
0
  6
SLD-SOLID
 62
     7
 10
344.4934847468
 20
397.5163747296
 30
0.0
 40
3.000030857318294
 50
0.2655787684
 51
179.7344212316
  0
ARC
  5
460
  8
0
  6
SLD-SOLID
 62
     7
 10
139.4934790843
 20
397.5163965129
 30
0.0
 40
3.000023305926377
 50
0.2651634049
 51
179.7348365951
  0
ARC
  5
461
  8
0
  6
SLD-SOLID
 62
     7
 10
395.2934804075
 20
83.8843644545
 30
0.0
 40
280.1386547205319
 50
89.4037360821
 51
90.5962639179
  0
ARC
  5
462
  8
0
  6
SLD-SOLID
 62
     7
 10
345.3280010495
 20
74.4952250214
 30
0.0
 40
289.5276518396032
 50
89.4428235104
 51
90.5837583946
  0
ARC
  5
463
  8
0
  6
SLD-SOLID
 62
     7
 10
140.2934777253
 20
83.8864024988
 30
0.0
 40
280.1366167090317
 50
89.403733268
 51
90.596266732
  0
LINE
  5
464
  8
0
  6
SLD-SOLID
 62
     7
 10
620.1434793585
 20
364.1476374804
 30
0.0
 11
610.1434814447
 21
364.1476374804
 31
0.0
  0
LINE
  5
465
  8
0
  6
SLD-SOLID
 62
     7
 10
603.1434821599
 20
364.1476374804
 30
0.0
 11
593.1434767955
 21
364.1476374804
 31
0.0
  0
LINE
  5
466
  8
0
  6
SLD-SOLID
 62
     7
 10
586.1434775107
 20
364.1476374804
 30
0.0
 11
576.1434795969
 21
364.1476374804
 31
0.0
  0
LINE
  5
467
  8
0
  6
SLD-SOLID
 62
     7
 10
569.1434803122
 20
364.1476374804
 30
0.0
 11
559.143478673
 21
364.1476374804
 31
0.0
  0
LINE
  5
468
  8
0
  6
SLD-SOLID
 62
     7
 10
552.1434793883
 20
364.1476374804
 30
0.0
 11
542.1434814745
 21
364.1476374804
 31
0.0
  0
LINE
  5
469
  8
0
  6
SLD-SOLID
 62
     7
 10
535.1434784644
 20
364.1476374804
 30
0.0
 11
525.1434805506
 21
364.1476374804
 31
0.0
  0
LINE
  5
46A
  8
0
  6
SLD-SOLID
 62
     7
 10
518.1434803345
 20
364.1476374804
 30
0.0
 11
508.1434800924
 21
364.1476374804
 31
0.0
  0
LINE
  5
46B
  8
0
  6
SLD-SOLID
 62
     7
 10
501.1434799927
 20
364.1476374804
 30
0.0
 11
491.1434796342
 21
364.1476374804
 31
0.0
  0
LINE
  5
46C
  8
0
  6
SLD-SOLID
 62
     7
 10
484.1434794181
 20
364.1476374804
 30
0.0
 11
474.1434796416
 21
364.1476374804
 31
0.0
  0
LINE
  5
46D
  8
0
  6
SLD-SOLID
 62
     7
 10
467.1434784942
 20
364.1476374804
 30
0.0
 11
457.1434805804
 21
364.1476374804
 31
0.0
  0
LINE
  5
46E
  8
0
  6
SLD-SOLID
 62
     7
 10
450.1434812956
 20
364.1476374804
 30
0.0
 11
440.1434796565
 21
364.1476374804
 31
0.0
  0
LINE
  5
46F
  8
0
  6
SLD-SOLID
 62
     7
 10
433.1434803718
 20
364.1476374804
 30
0.0
 11
423.1434824579
 21
364.1476374804
 31
0.0
  0
LINE
  5
470
  8
0
  6
SLD-SOLID
 62
     7
 10
416.1434831732
 20
364.1476374804
 30
0.0
 11
406.1434778088
 21
364.1476374804
 31
0.0
  0
LINE
  5
471
  8
0
  6
SLD-SOLID
 62
     7
 10
399.143478524
 20
364.1476374804
 30
0.0
 11
389.1434806102
 21
364.1476374804
 31
0.0
  0
LINE
  5
472
  8
0
  6
SLD-SOLID
 62
     7
 10
382.1434813254
 20
364.1476374804
 30
0.0
 11
372.143475961
 21
364.1476374804
 31
0.0
  0
LINE
  5
473
  8
0
  6
SLD-SOLID
 62
     7
 10
365.1434766763
 20
364.1476374804
 30
0.0
 11
355.143486213
 21
364.1476374804
 31
0.0
  0
LINE
  5
474
  8
0
  6
SLD-SOLID
 62
     7
 10
348.1434869283
 20
364.1476374804
 30
0.0
 11
338.1434815639
 21
364.1476374804
 31
0.0
  0
LINE
  5
475
  8
0
  6
SLD-SOLID
 62
     7
 10
331.1434822791
 20
364.1476374804
 30
0.0
 11
321.1434769147
 21
364.1476374804
 31
0.0
  0
LINE
  5
476
  8
0
  6
SLD-SOLID
 62
     7
 10
314.14347763
 20
364.1476374804
 30
0.0
 11
304.1434871667
 21
364.1476374804
 31
0.0
  0
LINE
  5
477
  8
0
  6
SLD-SOLID
 62
     7
 10
297.1434729808
 20
364.1476374804
 30
0.0
 11
287.1434825175
 21
364.1476374804
 31
0.0
  0
LINE
  5
478
  8
0
  6
SLD-SOLID
 62
     7
 10
280.1434832328
 20
364.1476374804
 30
0.0
 11
270.1434778684
 21
364.1476374804
 31
0.0
  0
LINE
  5
479
  8
0
  6
SLD-SOLID
 62
     7
 10
263.1434785836
 20
364.1476374804
 30
0.0
 11
253.1434732192
 21
364.1476374804
 31
0.0
  0
LINE
  5
47A
  8
0
  6
SLD-SOLID
 62
     7
 10
246.1434739345
 20
364.1476374804
 30
0.0
 11
236.1434834712
 21
364.1476374804
 31
0.0
  0
LINE
  5
47B
  8
0
  6
SLD-SOLID
 62
     7
 10
229.1434841865
 20
364.1476374804
 30
0.0
 11
219.1434937232
 21
364.1476374804
 31
0.0
  0
LINE
  5
47C
  8
0
  6
SLD-SOLID
 62
     7
 10
212.1434944385
 20
364.1476374804
 30
0.0
 11
202.1434741729
 21
364.1476374804
 31
0.0
  0
LINE
  5
47D
  8
0
  6
SLD-SOLID
 62
     7
 10
195.1434748881
 20
364.1476374804
 30
0.0
 11
185.1434844249
 21
364.1476374804
 31
0.0
  0
LINE
  5
47E
  8
0
  6
SLD-SOLID
 62
     7
 10
178.1434851401
 20
364.1476374804
 30
0.0
 11
168.1434946769
 21
364.1476374804
 31
0.0
  0
LINE
  5
47F
  8
0
  6
SLD-SOLID
 62
     7
 10
161.1434655898
 20
364.1476374804
 30
0.0
 11
151.1434751266
 21
364.1476374804
 31
0.0
  0
LINE
  5
480
  8
0
  6
SLD-SOLID
 62
     7
 10
144.1434758418
 20
364.1476374804
 30
0.0
 11
134.1434853786
 21
364.1476374804
 31
0.0
  0
LINE
  5
481
  8
0
  6
SLD-SOLID
 62
     7
 10
127.1434860938
 20
364.1476374804
 30
0.0
 11
117.1434658282
 21
364.1476374804
 31
0.0
  0
ARC
  5
482
  8
0
  6
SLD-SOLID
 62
     7
 10
600.3279998403
 20
74.4963152729
 30
0.0
 40
289.5265616050148
 50
89.4428221167
 51
90.5837598228
  0
ARC
  5
483
  8
0
  6
SLD-SOLID
 62
     7
 10
627.0435066949
 20
366.1976135638
 30
0.0
 40
2.049975155074929
 50
272.795274645
 51
359.9996600761
  0
ARC
  5
484
  8
0
  6
SLD-SOLID
 62
     7
 10
627.0434828966
 20
366.1976238669
 30
0.0
 40
1.25000031251019
 50
274.5883689975
 51
359.9989702705
  0
LINE
  5
485
  8
0
  6
SLD-SOLID
 62
     7
 10
629.09348185
 20
366.0578136085
 30
0.0
 11
629.09348185
 21
366.1976014017
 31
0.0
  0
ARC
  5
486
  8
0
  6
SLD-SOLID
 62
     7
 10
627.0435023252
 20
366.0578299322
 30
0.0
 40
2.049979524824684
 50
272.7953909586
 51
359.9995437626
  0
LINE
  5
487
  8
0
  6
SLD-SOLID
 62
     7
 10
620.1434793585
 20
364.9476212202
 30
0.0
 11
610.1434814447
 21
364.9476212202
 31
0.0
  0
LINE
  5
488
  8
0
  6
SLD-SOLID
 62
     7
 10
603.1434821599
 20
364.9476212202
 30
0.0
 11
593.1434767955
 21
364.9476212202
 31
0.0
  0
LINE
  5
489
  8
0
  6
SLD-SOLID
 62
     7
 10
586.1434775107
 20
364.9476212202
 30
0.0
 11
576.1434795969
 21
364.9476212202
 31
0.0
  0
LINE
  5
48A
  8
0
  6
SLD-SOLID
 62
     7
 10
569.1434803122
 20
364.9476212202
 30
0.0
 11
559.143478673
 21
364.9476212202
 31
0.0
  0
LINE
  5
48B
  8
0
  6
SLD-SOLID
 62
     7
 10
552.1434793883
 20
364.9476212202
 30
0.0
 11
542.1434814745
 21
364.9476212202
 31
0.0
  0
LINE
  5
48C
  8
0
  6
SLD-SOLID
 62
     7
 10
535.1434784644
 20
364.9476212202
 30
0.0
 11
525.1434805506
 21
364.9476212202
 31
0.0
  0
LINE
  5
48D
  8
0
  6
SLD-SOLID
 62
     7
 10
518.1434803345
 20
364.9476212202
 30
0.0
 11
508.1434800924
 21
364.9476212202
 31
0.0
  0
LINE
  5
48E
  8
0
  6
SLD-SOLID
 62
     7
 10
501.1434799927
 20
364.9476212202
 30
0.0
 11
491.1434796342
 21
364.9476212202
 31
0.0
  0
LINE
  5
48F
  8
0
  6
SLD-SOLID
 62
     7
 10
484.1434794181
 20
364.9476212202
 30
0.0
 11
474.1434796416
 21
364.9476212202
 31
0.0
  0
LINE
  5
490
  8
0
  6
SLD-SOLID
 62
     7
 10
467.1434784942
 20
364.9476212202
 30
0.0
 11
457.1434805804
 21
364.9476212202
 31
0.0
  0
LINE
  5
491
  8
0
  6
SLD-SOLID
 62
     7
 10
450.1434812956
 20
364.9476212202
 30
0.0
 11
440.1434796565
 21
364.9476212202
 31
0.0
  0
LINE
  5
492
  8
0
  6
SLD-SOLID
 62
     7
 10
433.1434803718
 20
364.9476212202
 30
0.0
 11
423.1434824579
 21
364.9476212202
 31
0.0
  0
LINE
  5
493
  8
0
  6
SLD-SOLID
 62
     7
 10
416.1434831732
 20
364.9476212202
 30
0.0
 11
406.1434778088
 21
364.9476212202
 31
0.0
  0
LINE
  5
494
  8
0
  6
SLD-SOLID
 62
     7
 10
399.143478524
 20
364.9476212202
 30
0.0
 11
389.1434806102
 21
364.9476212202
 31
0.0
  0
LINE
  5
495
  8
0
  6
SLD-SOLID
 62
     7
 10
382.1434813254
 20
364.9476212202
 30
0.0
 11
372.143475961
 21
364.9476212202
 31
0.0
  0
LINE
  5
496
  8
0
  6
SLD-SOLID
 62
     7
 10
365.1434766763
 20
364.9476212202
 30
0.0
 11
355.143486213
 21
364.9476212202
 31
0.0
  0
LINE
  5
497
  8
0
  6
SLD-SOLID
 62
     7
 10
348.1434869283
 20
364.9476212202
 30
0.0
 11
338.1434815639
 21
364.9476212202
 31
0.0
  0
LINE
  5
498
  8
0
  6
SLD-SOLID
 62
     7
 10
331.1434822791
 20
364.9476212202
 30
0.0
 11
321.1434769147
 21
364.9476212202
 31
0.0
  0
LINE
  5
499
  8
0
  6
SLD-SOLID
 62
     7
 10
314.14347763
 20
364.9476212202
 30
0.0
 11
304.1434871667
 21
364.9476212202
 31
0.0
  0
LINE
  5
49A
  8
0
  6
SLD-SOLID
 62
     7
 10
297.1434729808
 20
364.9476212202
 30
0.0
 11
287.1434825175
 21
364.9476212202
 31
0.0
  0
LINE
  5
49B
  8
0
  6
SLD-SOLID
 62
     7
 10
280.1434832328
 20
364.9476212202
 30
0.0
 11
270.1434778684
 21
364.9476212202
 31
0.0
  0
LINE
  5
49C
  8
0
  6
SLD-SOLID
 62
     7
 10
263.1434785836
 20
364.9476212202
 30
0.0
 11
253.1434732192
 21
364.9476212202
 31
0.0
  0
LINE
  5
49D
  8
0
  6
SLD-SOLID
 62
     7
 10
246.1434739345
 20
364.9476212202
 30
0.0
 11
236.1434834712
 21
364.9476212202
 31
0.0
  0
LINE
  5
49E
  8
0
  6
SLD-SOLID
 62
     7
 10
229.1434841865
 20
364.9476212202
 30
0.0
 11
219.1434937232
 21
364.9476212202
 31
0.0
  0
LINE
  5
49F
  8
0
  6
SLD-SOLID
 62
     7
 10
212.1434944385
 20
364.9476212202
 30
0.0
 11
202.1434741729
 21
364.9476212202
 31
0.0
  0
LINE
  5
4A0
  8
0
  6
SLD-SOLID
 62
     7
 10
195.1434748881
 20
364.9476212202
 30
0.0
 11
185.1434844249
 21
364.9476212202
 31
0.0
  0
LINE
  5
4A1
  8
0
  6
SLD-SOLID
 62
     7
 10
178.1434851401
 20
364.9476212202
 30
0.0
 11
168.1434946769
 21
364.9476212202
 31
0.0
  0
LINE
  5
4A2
  8
0
  6
SLD-SOLID
 62
     7
 10
161.1434655898
 20
364.9476212202
 30
0.0
 11
151.1434751266
 21
364.9476212202
 31
0.0
  0
LINE
  5
4A3
  8
0
  6
SLD-SOLID
 62
     7
 10
144.1434758418
 20
364.9476212202
 30
0.0
 11
134.1434853786
 21
364.9476212202
 31
0.0
  0
LINE
  5
4A4
  8
0
  6
SLD-SOLID
 62
     7
 10
127.1434860938
 20
364.9476212202
 30
0.0
 11
117.1434658282
 21
364.9476212202
 31
0.0
  0
LINE
  5
4A5
  8
0
  6
SLD-SOLID
 62
     7
 10
628.293483209
 20
377.947397971
 30
0.0
 11
628.293483209
 21
366.1976014017
 31
0.0
  0
LINE
  5
4A6
  8
0
  6
SLD-SOLID
 62
     7
 10
629.09348185
 20
377.947397971
 30
0.0
 11
629.09348185
 21
366.1976014017
 31
0.0
  0
LINE
  5
4A7
  8
0
  6
SLD-SOLID
 62
     7
 10
629.09348185
 20
379.9356561839
 30
0.0
 11
628.293483209
 21
379.9356561839
 31
0.0
  0
LINE
  5
4A8
  8
0
  6
SLD-SOLID
 62
     7
 10
628.293483209
 20
378.1964634298
 30
0.0
 11
628.293483209
 21
377.947397971
 31
0.0
  0
LINE
  5
4A9
  8
0
  6
SLD-SOLID
 62
     7
 10
629.09348185
 20
379.9356561839
 30
0.0
 11
629.09348185
 21
377.947397971
 31
0.0
  0
POLYLINE
  5
4AA
  8
0
  6
SLD-SOLID
 62
     7
 66
     1
 10
0.0
 20
0.0
 30
0.0
  0
VERTEX
  5
718
  8
0
  6
SLD-SOLID
 62
     7
 10
597.3782005423
 20
364.0078496872
 30
0.0
  0
VERTEX
  5
719
  8
0
  6
SLD-SOLID
 62
     7
 10
597.335836541
 20
363.9754508375
 30
0.0
  0
VERTEX
  5
71A
  8
0
  6
SLD-SOLID
 62
     7
 10
597.2934799903
 20
363.8830859898
 30
0.0
  0
SEQEND
  5
71B
  8
0
  6
SLD-SOLID
 62
     7
  0
LINE
  5
4AB
  8
0
  6
SLD-SOLID
 62
     7
 10
597.2934799903
 20
363.8830859898
 30
0.0
 11
597.2934799903
 21
362.8812473952
 31
0.0
  0
LINE
  5
4AC
  8
0
  6
SLD-SOLID
 62
     7
 10
398.2934790366
 20
362.8812473952
 30
0.0
 11
398.2934790366
 21
363.8830859898
 31
0.0
  0
POLYLINE
  5
4AD
  8
0
  6
SLD-SOLID
 62
     7
 66
     1
 10
0.0
 20
0.0
 30
0.0
  0
VERTEX
  5
71C
  8
0
  6
SLD-SOLID
 62
     7
 10
398.2934790366
 20
363.8830859898
 30
0.0
  0
VERTEX
  5
71D
  8
0
  6
SLD-SOLID
 62
     7
 10
398.2511224859
 20
363.9754508375
 30
0.0
  0
VERTEX
  5
71E
  8
0
  6
SLD-SOLID
 62
     7
 10
398.2087659352
 20
364.0078496872
 30
0.0
  0
SEQEND
  5
71F
  8
0
  6
SLD-SOLID
 62
     7
  0
POLYLINE
  5
4AE
  8
0
  6
SLD-SOLID
 62
     7
 66
     1
 10
0.0
 20
0.0
 30
0.0
  0
VERTEX
  5
720
  8
0
  6
SLD-SOLID
 62
     7
 10
392.3781948798
 20
364.0078496872
 30
0.0
  0
VERTEX
  5
721
  8
0
  6
SLD-SOLID
 62
     7
 10
392.3358383291
 20
363.9754508375
 30
0.0
  0
VERTEX
  5
722
  8
0
  6
SLD-SOLID
 62
     7
 10
392.2934817784
 20
363.8830859898
 30
0.0
  0
SEQEND
  5
723
  8
0
  6
SLD-SOLID
 62
     7
  0
LINE
  5
4AF
  8
0
  6
SLD-SOLID
 62
     7
 10
392.2934817784
 20
363.8830859898
 30
0.0
 11
392.2934817784
 21
362.8812473952
 31
0.0
  0
POLYLINE
  5
4B0
  8
0
  6
SLD-SOLID
 62
     7
 66
     1
 10
0.0
 20
0.0
 30
0.0
  0
VERTEX
  5
724
  8
0
  6
SLD-SOLID
 62
     7
 10
342.3781978601
 20
364.0078496872
 30
0.0
  0
VERTEX
  5
725
  8
0
  6
SLD-SOLID
 62
     7
 10
342.3358338588
 20
363.9754508375
 30
0.0
  0
VERTEX
  5
726
  8
0
  6
SLD-SOLID
 62
     7
 10
342.2934847587
 20
363.8830859898
 30
0.0
  0
SEQEND
  5
727
  8
0
  6
SLD-SOLID
 62
     7
  0
LINE
  5
4B1
  8
0
  6
SLD-SOLID
 62
     7
 10
342.2934847587
 20
363.8830859898
 30
0.0
 11
342.2934847587
 21
362.8812473952
 31
0.0
  0
LINE
  5
4B2
  8
0
  6
SLD-SOLID
 62
     7
 10
143.293483805
 20
362.8812473952
 30
0.0
 11
143.293483805
 21
363.8830859898
 31
0.0
  0
POLYLINE
  5
4B3
  8
0
  6
SLD-SOLID
 62
     7
 66
     1
 10
0.0
 20
0.0
 30
0.0
  0
VERTEX
  5
728
  8
0
  6
SLD-SOLID
 62
     7
 10
143.293483805
 20
363.8830859898
 30
0.0
  0
VERTEX
  5
729
  8
0
  6
SLD-SOLID
 62
     7
 10
143.2511347049
 20
363.9754508375
 30
0.0
  0
VERTEX
  5
72A
  8
0
  6
SLD-SOLID
 62
     7
 10
143.2087558025
 20
364.0078496872
 30
0.0
  0
SEQEND
  5
72B
  8
0
  6
SLD-SOLID
 62
     7
  0
POLYLINE
  5
4B4
  8
0
  6
SLD-SOLID
 62
     7
 66
     1
 10
0.0
 20
0.0
 30
0.0
  0
VERTEX
  5
72C
  8
0
  6
SLD-SOLID
 62
     7
 10
137.3781996482
 20
364.0078496872
 30
0.0
  0
VERTEX
  5
72D
  8
0
  6
SLD-SOLID
 62
     7
 10
137.3358505481
 20
363.9754508375
 30
0.0
  0
VERTEX
  5
72E
  8
0
  6
SLD-SOLID
 62
     7
 10
137.2934716457
 20
363.8830859898
 30
0.0
  0
SEQEND
  5
72F
  8
0
  6
SLD-SOLID
 62
     7
  0
LINE
  5
4B5
  8
0
  6
SLD-SOLID
 62
     7
 10
137.2934716457
 20
363.8830859898
 30
0.0
 11
137.2934716457
 21
362.8812473952
 31
0.0
  0
ARC
  5
4B6
  8
0
  6
SLD-SOLID
 62
     7
 10
600.2948645617
 20
358.5413829423
 30
0.0
 40
3.001413879679309
 50
180.253203717
 51
341.6392276399
  0
LINE
  5
4B7
  8
0
  6
SLD-SOLID
 62
     7
 10
627.1434786432
 20
362.8812473952
 30
0.0
 11
628.293483209
 21
362.8812473952
 31
0.0
  0
LINE
  5
4B8
  8
0
  6
SLD-SOLID
 62
     7
 10
628.293483209
 20
362.8812473952
 30
0.0
 11
628.293483209
 21
351.0647383272
 31
0.0
  0
LINE
  5
4B9
  8
0
  6
SLD-SOLID
 62
     7
 10
628.293483209
 20
351.0647383272
 30
0.0
 11
628.2905774825
 21
350.957673484
 31
0.0
  0
LINE
  5
4BA
  8
0
  6
SLD-SOLID
 62
     7
 10
137.2934716457
 20
362.8812473952
 30
0.0
 11
137.2934716457
 21
358.5281190216
 31
0.0
  0
ARC
  5
4BB
  8
0
  6
SLD-SOLID
 62
     7
 10
140.2934777253
 20
358.5392389359
 30
0.0
 40
3.000026688310372
 50
180.2123733171
 51
359.7876266829
  0
LINE
  5
4BC
  8
0
  6
SLD-SOLID
 62
     7
 10
143.293483805
 20
358.5281190216
 30
0.0
 11
143.293483805
 21
362.8812473952
 31
0.0
  0
LINE
  5
4BD
  8
0
  6
SLD-SOLID
 62
     7
 10
342.2934847587
 20
362.8812473952
 30
0.0
 11
342.2934847587
 21
358.5281190216
 31
0.0
  0
ARC
  5
4BE
  8
0
  6
SLD-SOLID
 62
     7
 10
345.2948697587
 20
358.5413856321
 30
0.0
 40
3.001414320178543
 50
180.253255028
 51
341.6391763289
  0
LINE
  5
4BF
  8
0
  6
SLD-SOLID
 62
     7
 10
392.2934817784
 20
362.8812473952
 30
0.0
 11
392.2934817784
 21
358.5281190216
 31
0.0
  0
ARC
  5
4C0
  8
0
  6
SLD-SOLID
 62
     7
 10
395.2934804075
 20
358.5392295165
 30
0.0
 40
3.000019202881823
 50
180.2121939505
 51
359.7878060495
  0
LINE
  5
4C1
  8
0
  6
SLD-SOLID
 62
     7
 10
398.2934790366
 20
358.5281190216
 30
0.0
 11
398.2934790366
 21
362.8812473952
 31
0.0
  0
LINE
  5
4C2
  8
0
  6
SLD-SOLID
 62
     7
 10
597.2934799903
 20
362.8812473952
 30
0.0
 11
597.2934799903
 21
358.5281190216
 31
0.0
  0
LINE
  5
4C3
  8
0
  6
SLD-SOLID
 62
     7
 10
628.293483209
 20
362.9602160989
 30
0.0
 11
627.1434786432
 21
362.9602160989
 31
0.0
  0
LINE
  5
4C4
  8
0
  6
SLD-SOLID
 62
     7
 10
628.293483209
 20
362.8812473952
 30
0.0
 11
628.293483209
 21
362.9602160989
 31
0.0
  0
ARC
  5
4C5
  8
0
  6
SLD-SOLID
 62
     7
 10
600.2948645617
 20
358.6203441954
 30
0.0
 40
3.001413879679309
 50
180.253203717
 51
341.6392276399
  0
ARC
  5
4C6
  8
0
  6
SLD-SOLID
 62
     7
 10
395.2934804075
 20
358.6181907697
 30
0.0
 40
3.000019202881823
 50
180.2121939505
 51
359.7878060495
  0
ARC
  5
4C7
  8
0
  6
SLD-SOLID
 62
     7
 10
345.2948697587
 20
358.6203468853
 30
0.0
 40
3.001414320178543
 50
180.253255028
 51
341.6391763289
  0
ARC
  5
4C8
  8
0
  6
SLD-SOLID
 62
     7
 10
140.2934777253
 20
358.6182001891
 30
0.0
 40
3.000026688310372
 50
180.2123733171
 51
359.7876266829
  0
LINE
  5
4C9
  8
0
  6
SLD-SOLID
 62
     7
 10
800.6434875243
 20
534.1030028402
 30
0.0
 11
800.0434773677
 21
534.1030028402
 31
0.0
  0
LINE
  5
4CA
  8
0
  6
SLD-SOLID
 62
     7
 10
56.2434929126
 20
534.1030028402
 30
0.0
 11
55.643482756
 21
534.1030028402
 31
0.0
  0
LINE
  5
4CB
  8
0
  6
SLD-SOLID
 62
     7
 10
814.1434925311
 20
534.9030014812
 30
0.0
 11
800.0434773677
 21
534.9030014812
 31
0.0
  0
LINE
  5
4CC
  8
0
  6
SLD-SOLID
 62
     7
 10
799.1074162238
 20
534.9030014812
 30
0.0
 11
798.6238139384
 21
534.9030014812
 31
0.0
  0
LINE
  5
4CD
  8
0
  6
SLD-SOLID
 62
     7
 10
57.666404795
 20
534.9030014812
 30
0.0
 11
57.1752923244
 21
534.9030014812
 31
0.0
  0
LINE
  5
4CE
  8
0
  6
SLD-SOLID
 62
     7
 10
56.2434929126
 20
534.9030014812
 30
0.0
 11
42.1434777492
 21
534.9030014812
 31
0.0
  0
LINE
  5
4CF
  8
0
  6
SLD-SOLID
 62
     7
 10
816.1434667819
 20
534.9030014812
 30
0.0
 11
816.1434667819
 21
534.1030028402
 31
0.0
  0
LINE
  5
4D0
  8
0
  6
SLD-SOLID
 62
     7
 10
816.1434667819
 20
534.9030014812
 30
0.0
 11
814.1434925311
 21
534.9030014812
 31
0.0
  0
LINE
  5
4D1
  8
0
  6
SLD-SOLID
 62
     7
 10
40.1434736961
 20
534.9030014812
 30
0.0
 11
40.1434736961
 21
534.1030028402
 31
0.0
  0
LINE
  5
4D2
  8
0
  6
SLD-SOLID
 62
     7
 10
42.1434777492
 20
534.9030014812
 30
0.0
 11
40.1434736961
 21
534.9030014812
 31
0.0
  0
POLYLINE
  5
4D3
  8
0
  6
SLD-SOLID
 62
     7
 66
     1
 10
0.0
 20
0.0
 30
0.0
  0
VERTEX
  5
730
  8
0
  6
SLD-SOLID
 62
     7
 10
748.5998856538
 20
548.6530032693
 30
0.0
  0
VERTEX
  5
731
  8
0
  6
SLD-SOLID
 62
     7
 10
748.5976504796
 20
548.7253409563
 30
0.0
  0
VERTEX
  5
732
  8
0
  6
SLD-SOLID
 62
     7
 10
748.5914515966
 20
548.7892594873
 30
0.0
  0
VERTEX
  5
733
  8
0
  6
SLD-SOLID
 62
     7
 10
748.5817658418
 20
548.8427919089
 30
0.0
  0
VERTEX
  5
734
  8
0
  6
SLD-SOLID
 62
     7
 10
748.568101477
 20
548.8838595091
 30
0.0
  0
VERTEX
  5
735
  8
0
  6
SLD-SOLID
 62
     7
 10
748.5493558162
 20
548.9029926001
 30
0.0
  0
VERTEX
  5
736
  8
0
  6
SLD-SOLID
 62
     7
 10
748.5488193744
 20
548.9030075013
 30
0.0
  0
SEQEND
  5
737
  8
0
  6
SLD-SOLID
 62
     7
  0
LINE
  5
4D4
  8
0
  6
SLD-SOLID
 62
     7
 10
748.5488193744
 20
548.9030075013
 30
0.0
 11
755.2544313186
 21
548.9030075013
 31
0.0
  0
POLYLINE
  5
4D5
  8
0
  6
SLD-SOLID
 62
     7
 66
     1
 10
0.0
 20
0.0
 30
0.0
  0
VERTEX
  5
738
  8
0
  6
SLD-SOLID
 62
     7
 10
748.5488193744
 20
547.7030020892
 30
0.0
  0
VERTEX
  5
739
  8
0
  6
SLD-SOLID
 62
     7
 10
748.5493558162
 20
547.7030169903
 30
0.0
  0
VERTEX
  5
73A
  8
0
  6
SLD-SOLID
 62
     7
 10
748.568101477
 20
547.7221500813
 30
0.0
  0
VERTEX
  5
73B
  8
0
  6
SLD-SOLID
 62
     7
 10
748.5817658418
 20
547.7632176815
 30
0.0
  0
VERTEX
  5
73C
  8
0
  6
SLD-SOLID
 62
     7
 10
748.5914515966
 20
547.8167501031
 30
0.0
  0
VERTEX
  5
73D
  8
0
  6
SLD-SOLID
 62
     7
 10
748.5976504796
 20
547.8806686341
 30
0.0
  0
VERTEX
  5
73E
  8
0
  6
SLD-SOLID
 62
     7
 10
748.5998856538
 20
547.9530063211
 30
0.0
  0
SEQEND
  5
73F
  8
0
  6
SLD-SOLID
 62
     7
  0
LINE
  5
4D6
  8
0
  6
SLD-SOLID
 62
     7
 10
754.9667196982
 20
547.7030020892
 30
0.0
 11
748.5488193744
 21
547.7030020892
 31
0.0
  0
LINE
  5
4D7
  8
0
  6
SLD-SOLID
 62
     7
 10
748.5998856538
 20
547.9530063211
 30
0.0
 11
748.5998856538
 21
548.6530032693
 31
0.0
  0
ARC
  5
4D8
  8
0
  6
SLD-SOLID
 62
     7
 10
744.3618375864
 20
547.5668755158
 30
0.0
 40
1.353048326872368
 50
99.0695912422
 51
184.8276239267
  0
LINE
  5
4D9
  8
0
  6
SLD-SOLID
 62
     7
 10
744.1485511773
 20
548.9030075013
 30
0.0
 11
748.3186560386
 21
548.9030075013
 31
0.0
  0
LINE
  5
4DA
  8
0
  6
SLD-SOLID
 62
     7
 10
747.4074500316
 20
542.1030041515
 30
0.0
 11
743.2373600715
 21
542.1030041515
 31
0.0
  0
LINE
  5
4DB
  8
0
  6
SLD-SOLID
 62
     7
 10
747.9373353236
 20
542.1030041515
 30
0.0
 11
747.4074500316
 21
542.1030041515
 31
0.0
  0
LINE
  5
4DC
  8
0
  6
SLD-SOLID
 62
     7
 10
748.3186560386
 20
548.9030075013
 30
0.0
 11
748.5488193744
 21
548.9030075013
 31
0.0
  0
LINE
  5
4DD
  8
0
  6
SLD-SOLID
 62
     7
 10
748.5488193744
 20
547.7030020892
 30
0.0
 11
748.3186560386
 21
547.7030020892
 31
0.0
  0
LINE
  5
4DE
  8
0
  6
SLD-SOLID
 62
     7
 10
743.0135893338
 20
547.4530053078
 30
0.0
 11
742.9873632901
 21
547.4530053078
 31
0.0
  0
LINE
  5
4DF
  8
0
  6
SLD-SOLID
 62
     7
 10
743.6934846156
 20
548.9030075013
 30
0.0
 11
744.1485511773
 21
548.9030075013
 31
0.0
  0
ARC
  5
4E0
  8
0
  6
SLD-SOLID
 62
     7
 10
759.8604024315
 20
547.5543475572
 30
0.0
 40
1.416595148719282
 50
355.8975947148
 51
47.8450066098
  0
ARC
  5
4E1
  8
0
  6
SLD-SOLID
 62
     7
 10
760.5321487589
 20
542.341746972
 30
0.0
 40
0.2390657625321339
 50
177.3000307472
 51
267.0215513818
  0
LINE
  5
4E2
  8
0
  6
SLD-SOLID
 62
     7
 10
761.0496121162
 20
542.1030041515
 30
0.0
 11
760.5197268241
 21
542.1030041515
 31
0.0
  0
LINE
  5
4E3
  8
0
  6
SLD-SOLID
 62
     7
 10
760.5197268241
 20
542.1030041515
 30
0.0
 11
757.7836650127
 21
542.1030041515
 31
0.0
  0
POLYLINE
  5
4E4
  8
0
  6
SLD-SOLID
 62
     7
 66
     1
 10
0.0
 20
0.0
 30
0.0
  0
VERTEX
  5
740
  8
0
  6
SLD-SOLID
 62
     7
 10
754.8744815105
 20
547.4530053078
 30
0.0
  0
VERTEX
  5
741
  8
0
  6
SLD-SOLID
 62
     7
 10
754.8779981845
 20
547.5253429948
 30
0.0
  0
VERTEX
  5
742
  8
0
  6
SLD-SOLID
 62
     7
 10
754.8876839393
 20
547.5892615258
 30
0.0
  0
VERTEX
  5
743
  8
0
  6
SLD-SOLID
 62
     7
 10
754.902912926
 20
547.6427864968
 30
0.0
  0
VERTEX
  5
744
  8
0
  6
SLD-SOLID
 62
     7
 10
754.9244600051
 20
547.6838615476
 30
0.0
  0
VERTEX
  5
745
  8
0
  6
SLD-SOLID
 62
     7
 10
754.9542921298
 20
547.702987188
 30
0.0
  0
VERTEX
  5
746
  8
0
  6
SLD-SOLID
 62
     7
 10
754.9551265948
 20
547.7030020892
 30
0.0
  0
SEQEND
  5
747
  8
0
  6
SLD-SOLID
 62
     7
  0
LINE
  5
4E5
  8
0
  6
SLD-SOLID
 62
     7
 10
748.5488193744
 20
547.7030020892
 30
0.0
 11
754.9551265948
 21
547.7030020892
 31
0.0
  0
POLYLINE
  5
4E6
  8
0
  6
SLD-SOLID
 62
     7
 66
     1
 10
0.0
 20
0.0
 30
0.0
  0
VERTEX
  5
748
  8
0
  6
SLD-SOLID
 62
     7
 10
754.9551265948
 20
546.5030041276
 30
0.0
  0
VERTEX
  5
749
  8
0
  6
SLD-SOLID
 62
     7
 10
754.9542921298
 20
546.5030190288
 30
0.0
  0
VERTEX
  5
74A
  8
0
  6
SLD-SOLID
 62
     7
 10
754.9244600051
 20
546.5221446692
 30
0.0
  0
VERTEX
  5
74B
  8
0
  6
SLD-SOLID
 62
     7
 10
754.902912926
 20
546.56321972
 30
0.0
  0
VERTEX
  5
74C
  8
0
  6
SLD-SOLID
 62
     7
 10
754.8876839393
 20
546.616744691
 30
0.0
  0
VERTEX
  5
74D
  8
0
  6
SLD-SOLID
 62
     7
 10
754.8779981845
 20
546.680663222
 30
0.0
  0
VERTEX
  5
74E
  8
0
  6
SLD-SOLID
 62
     7
 10
754.8744815105
 20
546.7530083596
 30
0.0
  0
SEQEND
  5
74F
  8
0
  6
SLD-SOLID
 62
     7
  0
LINE
  5
4E7
  8
0
  6
SLD-SOLID
 62
     7
 10
754.9551265948
 20
546.5030041276
 30
0.0
 11
748.187332105
 21
546.5030041276
 31
0.0
  0
LINE
  5
4E8
  8
0
  6
SLD-SOLID
 62
     7
 10
754.8744815105
 20
547.4530053078
 30
0.0
 11
754.8744815105
 21
546.7530083596
 31
0.0
  0
POLYLINE
  5
4E9
  8
0
  6
SLD-SOLID
 62
     7
 66
     1
 10
0.0
 20
0.0
 30
0.0
  0
VERTEX
  5
750
  8
0
  6
SLD-SOLID
 62
     7
 10
759.7426014655
 20
546.5030041276
 30
0.0
  0
VERTEX
  5
751
  8
0
  6
SLD-SOLID
 62
     7
 10
760.1008253806
 20
546.5921503245
 30
0.0
  0
VERTEX
  5
752
  8
0
  6
SLD-SOLID
 62
     7
 10
760.4177134746
 20
546.8547981917
 30
0.0
  0
VERTEX
  5
753
  8
0
  6
SLD-SOLID
 62
     7
 10
760.644330334
 20
547.2491574227
 30
0.0
  0
VERTEX
  5
754
  8
0
  6
SLD-SOLID
 62
     7
 10
760.7582646125
 20
547.7104079663
 30
0.0
  0
VERTEX
  5
755
  8
0
  6
SLD-SOLID
 62
     7
 10
760.7726293319
 20
547.9530063211
 30
0.0
  0
SEQEND
  5
756
  8
0
  6
SLD-SOLID
 62
     7
  0
LINE
  5
4EA
  8
0
  6
SLD-SOLID
 62
     7
 10
759.7426014655
 20
546.5030041276
 30
0.0
 11
755.1618951076
 21
546.5030041276
 31
0.0
  0
LINE
  5
4EB
  8
0
  6
SLD-SOLID
 62
     7
 10
755.9804158919
 20
553.3030074774
 30
0.0
 11
760.5611222499
 21
553.3030074774
 31
0.0
  0
LINE
  5
4EC
  8
0
  6
SLD-SOLID
 62
     7
 10
755.5044430011
 20
553.3030074774
 30
0.0
 11
755.9804158919
 21
553.3030074774
 31
0.0
  0
LINE
  5
4ED
  8
0
  6
SLD-SOLID
 62
     7
 10
754.9551265948
 20
547.7030020892
 30
0.0
 11
755.1618951076
 21
547.7030020892
 31
0.0
  0
LINE
  5
4EE
  8
0
  6
SLD-SOLID
 62
     7
 10
755.1618951076
 20
546.5030041276
 30
0.0
 11
754.9551265948
 21
546.5030041276
 31
0.0
  0
LINE
  5
4EF
  8
0
  6
SLD-SOLID
 62
     7
 10
760.7726293319
 20
547.9530063211
 30
0.0
 11
760.8111339324
 21
547.9530063211
 31
0.0
  0
LINE
  5
4F0
  8
0
  6
SLD-SOLID
 62
     7
 10
760.593487572
 20
546.5030041276
 30
0.0
 11
759.7426014655
 21
546.5030041276
 31
0.0
  0
ARC
  5
4F1
  8
0
  6
SLD-SOLID
 62
     7
 10
744.1826741398
 20
553.0694290264
 30
0.0
 40
0.2343608214113507
 50
355.9828089154
 51
85.3170209309
  0
LINE
  5
4F2
  8
0
  6
SLD-SOLID
 62
     7
 10
744.2018079274
 20
553.3030074774
 30
0.0
 11
746.4136915916
 21
553.3030074774
 31
0.0
  0
LINE
  5
4F3
  8
0
  6
SLD-SOLID
 62
     7
 10
743.7258350366
 20
553.3030074774
 30
0.0
 11
744.2018079274
 21
553.3030074774
 31
0.0
  0
LINE
  5
4F4
  8
0
  6
SLD-SOLID
 62
     7
 10
753.2200055831
 20
536.2995904623
 30
0.0
 11
751.781775307
 21
536.0639062463
 31
0.0
  0
LINE
  5
4F5
  8
0
  6
SLD-SOLID
 62
     7
 10
749.1127240174
 20
536.0639062463
 30
0.0
 11
747.7694290393
 21
536.2995904623
 31
0.0
  0
LINE
  5
4F6
  8
0
  6
SLD-SOLID
 62
     7
 10
747.7694290393
 20
536.2995904623
 30
0.0
 11
747.7694290393
 21
540.6064209281
 31
0.0
  0
POLYLINE
  5
4F7
  8
0
  6
SLD-SOLID
 62
     7
 66
     1
 10
0.0
 20
0.0
 30
0.0
  0
VERTEX
  5
757
  8
0
  6
SLD-SOLID
 62
     7
 10
750.4947173112
 20
541.0530012785
 30
0.0
  0
VERTEX
  5
758
  8
0
  6
SLD-SOLID
 62
     7
 10
750.3009873145
 20
541.0505723893
 30
0.0
  0
VERTEX
  5
759
  8
0
  6
SLD-SOLID
 62
     7
 10
747.7694290393
 20
540.6064209281
 30
0.0
  0
SEQEND
  5
75A
  8
0
  6
SLD-SOLID
 62
     7
  0
LINE
  5
4F8
  8
0
  6
SLD-SOLID
 62
     7
 10
753.2200055831
 20
540.6064209281
 30
0.0
 11
750.4947173112
 21
541.0530012785
 31
0.0
  0
LINE
  5
4F9
  8
0
  6
SLD-SOLID
 62
     7
 10
753.2200055831
 20
536.2995904623
 30
0.0
 11
753.2200055831
 21
540.6064209281
 31
0.0
  0
POLYLINE
  5
4FA
  8
0
  6
SLD-SOLID
 62
     7
 66
     1
 10
0.0
 20
0.0
 30
0.0
  0
VERTEX
  5
75B
  8
0
  6
SLD-SOLID
 62
     7
 10
755.4070192092
 20
541.0530012785
 30
0.0
  0
VERTEX
  5
75C
  8
0
  6
SLD-SOLID
 62
     7
 10
755.2515702956
 20
541.0505723893
 30
0.0
  0
VERTEX
  5
75D
  8
0
  6
SLD-SOLID
 62
     7
 10
753.2200055831
 20
540.6064209281
 30
0.0
  0
SEQEND
  5
75E
  8
0
  6
SLD-SOLID
 62
     7
  0
LINE
  5
4FB
  8
0
  6
SLD-SOLID
 62
     7
 10
750.4947173112
 20
541.0530012785
 30
0.0
 11
755.4070192092
 21
541.0530012785
 31
0.0
  0
LINE
  5
4FC
  8
0
  6
SLD-SOLID
 62
     7
 10
754.2979853862
 20
536.0639062463
 30
0.0
 11
753.2200055831
 21
536.2995904623
 31
0.0
  0
LINE
  5
4FD
  8
0
  6
SLD-SOLID
 62
     7
 10
757.5940626376
 20
536.2995904623
 30
0.0
 11
756.4398782962
 21
536.0639062463
 31
0.0
  0
LINE
  5
4FE
  8
0
  6
SLD-SOLID
 62
     7
 10
757.5940626376
 20
540.6064209281
 30
0.0
 11
755.4070192092
 21
541.0530012785
 31
0.0
  0
LINE
  5
4FF
  8
0
  6
SLD-SOLID
 62
     7
 10
757.5940626376
 20
536.2995904623
 30
0.0
 11
757.5940626376
 21
540.6064209281
 31
0.0
  0
LINE
  5
500
  8
0
  6
SLD-SOLID
 62
     7
 10
747.5448685401
 20
536.0639062463
 30
0.0
 11
747.7694290393
 21
536.2995904623
 31
0.0
  0
POLYLINE
  5
501
  8
0
  6
SLD-SOLID
 62
     7
 66
     1
 10
0.0
 20
0.0
 30
0.0
  0
VERTEX
  5
75F
  8
0
  6
SLD-SOLID
 62
     7
 10
747.2311692947
 20
541.0530012785
 30
0.0
  0
VERTEX
  5
760
  8
0
  6
SLD-SOLID
 62
     7
 10
747.3776477092
 20
541.017588669
 30
0.0
  0
VERTEX
  5
761
  8
0
  6
SLD-SOLID
 62
     7
 10
747.7694290393
 20
540.6064209281
 30
0.0
  0
SEQEND
  5
762
  8
0
  6
SLD-SOLID
 62
     7
  0
LINE
  5
502
  8
0
  6
SLD-SOLID
 62
     7
 10
747.2311692947
 20
541.0530012785
 30
0.0
 11
750.4947173112
 21
541.0530012785
 31
0.0
  0
LINE
  5
503
  8
0
  6
SLD-SOLID
 62
     7
 10
757.3695021384
 20
536.0639062463
 30
0.0
 11
757.5940626376
 21
536.2995904623
 31
0.0
  0
POLYLINE
  5
504
  8
0
  6
SLD-SOLID
 62
     7
 66
     1
 10
0.0
 20
0.0
 30
0.0
  0
VERTEX
  5
763
  8
0
  6
SLD-SOLID
 62
     7
 10
757.055802893
 20
541.0530012785
 30
0.0
  0
VERTEX
  5
764
  8
0
  6
SLD-SOLID
 62
     7
 10
757.2022813075
 20
541.017588669
 30
0.0
  0
VERTEX
  5
765
  8
0
  6
SLD-SOLID
 62
     7
 10
757.5940626376
 20
540.6064209281
 30
0.0
  0
SEQEND
  5
766
  8
0
  6
SLD-SOLID
 62
     7
  0
LINE
  5
505
  8
0
  6
SLD-SOLID
 62
     7
 10
755.4070192092
 20
541.0530012785
 30
0.0
 11
757.1354645007
 21
541.0530012785
 31
0.0
  0
POLYLINE
  5
506
  8
0
  6
SLD-SOLID
 62
     7
 66
     1
 10
0.0
 20
0.0
 30
0.0
  0
VERTEX
  5
767
  8
0
  6
SLD-SOLID
 62
     7
 10
746.69290955
 20
536.2995904623
 30
0.0
  0
VERTEX
  5
768
  8
0
  6
SLD-SOLID
 62
     7
 10
746.8289273494
 20
536.1102339565
 30
0.0
  0
VERTEX
  5
769
  8
0
  6
SLD-SOLID
 62
     7
 10
746.901361894
 20
536.0639062463
 30
0.0
  0
SEQEND
  5
76A
  8
0
  6
SLD-SOLID
 62
     7
  0
LINE
  5
507
  8
0
  6
SLD-SOLID
 62
     7
 10
746.69290955
 20
536.2995904623
 30
0.0
 11
746.69290955
 21
540.6064209281
 31
0.0
  0
POLYLINE
  5
508
  8
0
  6
SLD-SOLID
 62
     7
 66
     1
 10
0.0
 20
0.0
 30
0.0
  0
VERTEX
  5
76B
  8
0
  6
SLD-SOLID
 62
     7
 10
746.69290955
 20
540.6064209281
 30
0.0
  0
VERTEX
  5
76C
  8
0
  6
SLD-SOLID
 62
     7
 10
746.8289273494
 20
540.795777434
 30
0.0
  0
VERTEX
  5
76D
  8
0
  6
SLD-SOLID
 62
     7
 10
747.2311692947
 20
541.0530012785
 30
0.0
  0
SEQEND
  5
76E
  8
0
  6
SLD-SOLID
 62
     7
  0
LINE
  5
509
  8
0
  6
SLD-SOLID
 62
     7
 10
746.69290955
 20
540.6064209281
 30
0.0
 11
748.8799380773
 21
541.0530012785
 31
0.0
  0
LINE
  5
50A
  8
0
  6
SLD-SOLID
 62
     7
 10
756.0318547004
 20
541.7495858609
 30
0.0
 11
753.2117503398
 21
541.3030055105
 31
0.0
  0
POLYLINE
  5
50B
  8
0
  6
SLD-SOLID
 62
     7
 66
     1
 10
0.0
 20
0.0
 30
0.0
  0
VERTEX
  5
76F
  8
0
  6
SLD-SOLID
 62
     7
 10
753.2117503398
 20
541.3030055105
 30
0.0
  0
VERTEX
  5
770
  8
0
  6
SLD-SOLID
 62
     7
 10
753.0112999194
 20
541.3054343997
 30
0.0
  0
VERTEX
  5
771
  8
0
  6
SLD-SOLID
 62
     7
 10
750.3916757815
 20
541.7495858609
 30
0.0
  0
SEQEND
  5
772
  8
0
  6
SLD-SOLID
 62
     7
  0
LINE
  5
50C
  8
0
  6
SLD-SOLID
 62
     7
 10
750.3916757815
 20
541.7495858609
 30
0.0
 11
750.3916757815
 21
546.0564237772
 31
0.0
  0
POLYLINE
  5
50D
  8
0
  6
SLD-SOLID
 62
     7
 66
     1
 10
0.0
 20
0.0
 30
0.0
  0
VERTEX
  5
773
  8
0
  6
SLD-SOLID
 62
     7
 10
753.2117503398
 20
546.5030041276
 30
0.0
  0
VERTEX
  5
774
  8
0
  6
SLD-SOLID
 62
     7
 10
753.0112999194
 20
546.5005752384
 30
0.0
  0
VERTEX
  5
775
  8
0
  6
SLD-SOLID
 62
     7
 10
750.3916757815
 20
546.0564237772
 30
0.0
  0
SEQEND
  5
776
  8
0
  6
SLD-SOLID
 62
     7
  0
LINE
  5
50E
  8
0
  6
SLD-SOLID
 62
     7
 10
756.0318547004
 20
546.0564237772
 30
0.0
 11
753.2117503398
 21
546.5030041276
 31
0.0
  0
LINE
  5
50F
  8
0
  6
SLD-SOLID
 62
     7
 10
756.0318547004
 20
541.7495858609
 30
0.0
 11
756.0318547004
 21
546.0564237772
 31
0.0
  0
LINE
  5
510
  8
0
  6
SLD-SOLID
 62
     7
 10
750.3916757815
 20
541.7495858609
 30
0.0
 11
748.4474765771
 21
541.3030055105
 31
0.0
  0
LINE
  5
511
  8
0
  6
SLD-SOLID
 62
     7
 10
753.2117503398
 20
541.3030055105
 30
0.0
 11
748.4474765771
 21
541.3030055105
 31
0.0
  0
LINE
  5
512
  8
0
  6
SLD-SOLID
 62
     7
 10
750.3916757815
 20
546.0564237772
 30
0.0
 11
748.4474765771
 21
546.5030041276
 31
0.0
  0
POLYLINE
  5
513
  8
0
  6
SLD-SOLID
 62
     7
 66
     1
 10
0.0
 20
0.0
 30
0.0
  0
VERTEX
  5
777
  8
0
  6
SLD-SOLID
 62
     7
 10
756.9077747577
 20
541.3030055105
 30
0.0
  0
VERTEX
  5
778
  8
0
  6
SLD-SOLID
 62
     7
 10
756.6693859809
 20
541.33841812
 30
0.0
  0
VERTEX
  5
779
  8
0
  6
SLD-SOLID
 62
     7
 10
756.0318547004
 20
541.7495858609
 30
0.0
  0
SEQEND
  5
77A
  8
0
  6
SLD-SOLID
 62
     7
  0
LINE
  5
514
  8
0
  6
SLD-SOLID
 62
     7
 10
756.9077747577
 20
541.3030055105
 30
0.0
 11
753.2117503398
 21
541.3030055105
 31
0.0
  0
POLYLINE
  5
515
  8
0
  6
SLD-SOLID
 62
     7
 66
     1
 10
0.0
 20
0.0
 30
0.0
  0
VERTEX
  5
77B
  8
0
  6
SLD-SOLID
 62
     7
 10
756.9077747577
 20
546.5030041276
 30
0.0
  0
VERTEX
  5
77C
  8
0
  6
SLD-SOLID
 62
     7
 10
756.6693859809
 20
546.4675915181
 30
0.0
  0
VERTEX
  5
77D
  8
0
  6
SLD-SOLID
 62
     7
 10
756.0318547004
 20
546.0564237772
 30
0.0
  0
SEQEND
  5
77E
  8
0
  6
SLD-SOLID
 62
     7
  0
POLYLINE
  5
516
  8
0
  6
SLD-SOLID
 62
     7
 66
     1
 10
0.0
 20
0.0
 30
0.0
  0
VERTEX
  5
77F
  8
0
  6
SLD-SOLID
 62
     7
 10
748.4474765771
 20
541.3030055105
 30
0.0
  0
VERTEX
  5
780
  8
0
  6
SLD-SOLID
 62
     7
 10
748.3092832082
 20
541.3054343997
 30
0.0
  0
VERTEX
  5
781
  8
0
  6
SLD-SOLID
 62
     7
 10
746.5032922738
 20
541.7495858609
 30
0.0
  0
SEQEND
  5
782
  8
0
  6
SLD-SOLID
 62
     7
  0
LINE
  5
517
  8
0
  6
SLD-SOLID
 62
     7
 10
746.5032922738
 20
541.7495858609
 30
0.0
 11
746.5032922738
 21
542.1030041515
 31
0.0
  0
POLYLINE
  5
518
  8
0
  6
SLD-SOLID
 62
     7
 66
     1
 10
0.0
 20
0.0
 30
0.0
  0
VERTEX
  5
783
  8
0
  6
SLD-SOLID
 62
     7
 10
748.4474765771
 20
546.5030041276
 30
0.0
  0
VERTEX
  5
784
  8
0
  6
SLD-SOLID
 62
     7
 10
748.3092832082
 20
546.5005752384
 30
0.0
  0
VERTEX
  5
785
  8
0
  6
SLD-SOLID
 62
     7
 10
748.187332105
 20
546.4705792009
 30
0.0
  0
SEQEND
  5
786
  8
0
  6
SLD-SOLID
 62
     7
  0
POLYLINE
  5
519
  8
0
  6
SLD-SOLID
 62
     7
 66
     1
 10
0.0
 20
0.0
 30
0.0
  0
VERTEX
  5
787
  8
0
  6
SLD-SOLID
 62
     7
 10
757.7836650127
 20
541.7495858609
 30
0.0
  0
VERTEX
  5
788
  8
0
  6
SLD-SOLID
 62
     7
 10
757.5623231643
 20
541.5602368056
 30
0.0
  0
VERTEX
  5
789
  8
0
  6
SLD-SOLID
 62
     7
 10
756.9077747577
 20
541.3030055105
 30
0.0
  0
SEQEND
  5
78A
  8
0
  6
SLD-SOLID
 62
     7
  0
POLYLINE
  5
51A
  8
0
  6
SLD-SOLID
 62
     7
 66
     1
 10
0.0
 20
0.0
 30
0.0
  0
VERTEX
  5
78B
  8
0
  6
SLD-SOLID
 62
     7
 10
757.7836650127
 20
546.0564237772
 30
0.0
  0
VERTEX
  5
78C
  8
0
  6
SLD-SOLID
 62
     7
 10
757.5623231643
 20
546.2457728325
 30
0.0
  0
VERTEX
  5
78D
  8
0
  6
SLD-SOLID
 62
     7
 10
757.3816912883
 20
546.3167619645
 30
0.0
  0
SEQEND
  5
78E
  8
0
  6
SLD-SOLID
 62
     7
  0
LINE
  5
51B
  8
0
  6
SLD-SOLID
 62
     7
 10
757.7836650127
 20
541.7495858609
 30
0.0
 11
757.7836650127
 21
546.0564237772
 31
0.0
  0
LINE
  5
51C
  8
0
  6
SLD-SOLID
 62
     7
 10
746.9072180503
 20
541.4890837609
 30
0.0
 11
746.5032922738
 21
541.7495858609
 31
0.0
  0
LINE
  5
51D
  8
0
  6
SLD-SOLID
 62
     7
 10
747.143475961
 20
541.3030055105
 30
0.0
 11
748.4474765771
 21
541.3030055105
 31
0.0
  0
LINE
  5
51E
  8
0
  6
SLD-SOLID
 62
     7
 10
757.1434813254
 20
541.3030055105
 30
0.0
 11
756.9077747577
 21
541.3030055105
 31
0.0
  0
LINE
  5
51F
  8
0
  6
SLD-SOLID
 62
     7
 10
754.3942468875
 20
549.3495878517
 30
0.0
 11
751.5293645375
 21
548.9030075013
 31
0.0
  0
POLYLINE
  5
520
  8
0
  6
SLD-SOLID
 62
     7
 66
     1
 10
0.0
 20
0.0
 30
0.0
  0
VERTEX
  5
78F
  8
0
  6
SLD-SOLID
 62
     7
 10
751.5293645375
 20
548.9030075013
 30
0.0
  0
VERTEX
  5
790
  8
0
  6
SLD-SOLID
 62
     7
 10
751.3257103675
 20
548.9054363905
 30
0.0
  0
VERTEX
  5
791
  8
0
  6
SLD-SOLID
 62
     7
 10
748.6644672864
 20
549.3495878517
 30
0.0
  0
SEQEND
  5
792
  8
0
  6
SLD-SOLID
 62
     7
  0
LINE
  5
521
  8
0
  6
SLD-SOLID
 62
     7
 10
748.6644672864
 20
549.3495878517
 30
0.0
 11
748.6644672864
 21
553.6564183175
 31
0.0
  0
POLYLINE
  5
522
  8
0
  6
SLD-SOLID
 62
     7
 66
     1
 10
0.0
 20
0.0
 30
0.0
  0
VERTEX
  5
793
  8
0
  6
SLD-SOLID
 62
     7
 10
751.5293645375
 20
554.1030061184
 30
0.0
  0
VERTEX
  5
794
  8
0
  6
SLD-SOLID
 62
     7
 10
751.3257103675
 20
554.1005772292
 30
0.0
  0
VERTEX
  5
795
  8
0
  6
SLD-SOLID
 62
     7
 10
748.6644672864
 20
553.6564183175
 30
0.0
  0
SEQEND
  5
796
  8
0
  6
SLD-SOLID
 62
     7
  0
LINE
  5
523
  8
0
  6
SLD-SOLID
 62
     7
 10
754.3942468875
 20
553.6564183175
 30
0.0
 11
751.5293645375
 21
554.1030061184
 31
0.0
  0
LINE
  5
524
  8
0
  6
SLD-SOLID
 62
     7
 10
754.3942468875
 20
549.3495878517
 30
0.0
 11
754.3942468875
 21
553.6564183175
 31
0.0
  0
LINE
  5
525
  8
0
  6
SLD-SOLID
 62
     7
 10
755.2544313186
 20
549.0702432333
 30
0.0
 11
754.3942468875
 21
549.3495878517
 31
0.0
  0
POLYLINE
  5
526
  8
0
  6
SLD-SOLID
 62
     7
 66
     1
 10
0.0
 20
0.0
 30
0.0
  0
VERTEX
  5
797
  8
0
  6
SLD-SOLID
 62
     7
 10
756.1337488406
 20
554.1030061184
 30
0.0
  0
VERTEX
  5
798
  8
0
  6
SLD-SOLID
 62
     7
 10
755.6603687518
 20
554.0675860583
 30
0.0
  0
VERTEX
  5
799
  8
0
  6
SLD-SOLID
 62
     7
 10
754.3942468875
 20
553.6564183175
 30
0.0
  0
SEQEND
  5
79A
  8
0
  6
SLD-SOLID
 62
     7
  0
LINE
  5
527
  8
0
  6
SLD-SOLID
 62
     7
 10
751.5293645375
 20
554.1030061184
 30
0.0
 11
756.1337488406
 21
554.1030061184
 31
0.0
  0
LINE
  5
528
  8
0
  6
SLD-SOLID
 62
     7
 10
748.6644672864
 20
553.6564183175
 30
0.0
 11
747.5390719884
 21
554.1030061184
 31
0.0
  0
LINE
  5
529
  8
0
  6
SLD-SOLID
 62
     7
 10
747.5390719884
 20
554.1030061184
 30
0.0
 11
751.5293645375
 21
554.1030061184
 31
0.0
  0
LINE
  5
52A
  8
0
  6
SLD-SOLID
 62
     7
 10
748.6644672864
 20
549.3495878517
 30
0.0
 11
747.5390719884
 21
548.9030075013
 31
0.0
  0
POLYLINE
  5
52B
  8
0
  6
SLD-SOLID
 62
     7
 66
     1
 10
0.0
 20
0.0
 30
0.0
  0
VERTEX
  5
79B
  8
0
  6
SLD-SOLID
 62
     7
 10
757.8732805961
 20
553.6564183175
 30
0.0
  0
VERTEX
  5
79C
  8
0
  6
SLD-SOLID
 62
     7
 10
757.4336963409
 20
553.8457822739
 30
0.0
  0
VERTEX
  5
79D
  8
0
  6
SLD-SOLID
 62
     7
 10
756.1337488406
 20
554.1030061184
 30
0.0
  0
SEQEND
  5
79E
  8
0
  6
SLD-SOLID
 62
     7
  0
LINE
  5
52C
  8
0
  6
SLD-SOLID
 62
     7
 10
757.8732805961
 20
553.3030074774
 30
0.0
 11
757.8732805961
 21
553.6564183175
 31
0.0
  0
LINE
  5
52D
  8
0
  6
SLD-SOLID
 62
     7
 10
746.4136915916
 20
549.3495878517
 30
0.0
 11
746.4136915916
 21
553.6564183175
 31
0.0
  0
POLYLINE
  5
52E
  8
0
  6
SLD-SOLID
 62
     7
 66
     1
 10
0.0
 20
0.0
 30
0.0
  0
VERTEX
  5
79F
  8
0
  6
SLD-SOLID
 62
     7
 10
747.5390719884
 20
554.1030061184
 30
0.0
  0
VERTEX
  5
7A0
  8
0
  6
SLD-SOLID
 62
     7
 10
747.4590825551
 20
554.1005772292
 30
0.0
  0
VERTEX
  5
7A1
  8
0
  6
SLD-SOLID
 62
     7
 10
746.4136915916
 20
553.6564183175
 30
0.0
  0
SEQEND
  5
7A2
  8
0
  6
SLD-SOLID
 62
     7
  0
LINE
  5
52F
  8
0
  6
SLD-SOLID
 62
     7
 10
757.5745123141
 20
553.7833464085
 30
0.0
 11
757.8732805961
 21
553.6564183175
 31
0.0
  0
LINE
  5
530
  8
0
  6
SLD-SOLID
 62
     7
 10
756.1337488406
 20
554.1030061184
 30
0.0
 11
757.1434813254
 21
554.1030061184
 31
0.0
  0
LINE
  5
531
  8
0
  6
SLD-SOLID
 62
     7
 10
747.143475961
 20
554.1030061184
 30
0.0
 11
747.5390719884
 21
554.1030061184
 31
0.0
  0
LINE
  5
532
  8
0
  6
SLD-SOLID
 62
     7
 10
802.6934700721
 20
233.9100730359
 30
0.0
 11
818.5934859031
 21
233.9100730359
 31
0.0
  0
LINE
  5
533
  8
0
  6
SLD-SOLID
 62
     7
 10
802.6934700721
 20
533.2959335982
 30
0.0
 11
818.5934859031
 21
533.2959335982
 31
0.0
  0
LINE
  5
534
  8
0
  6
SLD-SOLID
 62
     7
 10
802.6934700721
 20
233.9100730359
 30
0.0
 11
800.6434875243
 21
233.9100730359
 31
0.0
  0
LINE
  5
535
  8
0
  6
SLD-SOLID
 62
     7
 10
800.6434875243
 20
533.2959335982
 30
0.0
 11
800.6434875243
 21
233.9100730359
 31
0.0
  0
LINE
  5
536
  8
0
  6
SLD-SOLID
 62
     7
 10
800.6434875243
 20
533.2959335982
 30
0.0
 11
802.6934700721
 21
533.2959335982
 31
0.0
  0
POLYLINE
  5
537
  8
0
  6
SLD-SOLID
 62
     7
 66
     1
 10
0.0
 20
0.0
 30
0.0
  0
VERTEX
  5
7A3
  8
0
  6
SLD-SOLID
 62
     7
 10
820.6434684508
 20
235.1530086934
 30
0.0
  0
VERTEX
  5
7A4
  8
0
  6
SLD-SOLID
 62
     7
 10
820.5108481162
 20
234.8668318926
 30
0.0
  0
VERTEX
  5
7A5
  8
0
  6
SLD-SOLID
 62
     7
 10
820.1299744361
 20
234.5805507838
 30
0.0
  0
VERTEX
  5
7A6
  8
0
  6
SLD-SOLID
 62
     7
 10
819.5501702541
 20
234.2942696749
 30
0.0
  0
VERTEX
  5
7A7
  8
0
  6
SLD-SOLID
 62
     7
 10
818.8464778178
 20
234.0079736649
 30
0.0
  0
VERTEX
  5
7A8
  8
0
  6
SLD-SOLID
 62
     7
 10
818.5934859031
 20
233.9100730359
 30
0.0
  0
SEQEND
  5
7A9
  8
0
  6
SLD-SOLID
 62
     7
  0
POLYLINE
  5
538
  8
0
  6
SLD-SOLID
 62
     7
 66
     1
 10
0.0
 20
0.0
 30
0.0
  0
VERTEX
  5
7AA
  8
0
  6
SLD-SOLID
 62
     7
 10
818.5934859031
 20
533.2959335982
 30
0.0
  0
VERTEX
  5
7AB
  8
0
  6
SLD-SOLID
 62
     7
 10
819.3188446277
 20
533.0097567974
 30
0.0
  0
VERTEX
  5
7AC
  8
0
  6
SLD-SOLID
 62
     7
 10
819.9505644553
 20
532.7234756886
 30
0.0
  0
VERTEX
  5
7AD
  8
0
  6
SLD-SOLID
 62
     7
 10
820.4065697902
 20
532.4371945797
 30
0.0
  0
VERTEX
  5
7AE
  8
0
  6
SLD-SOLID
 62
     7
 10
820.6278222316
 20
532.1509060203
 30
0.0
  0
VERTEX
  5
7AF
  8
0
  6
SLD-SOLID
 62
     7
 10
820.6434684508
 20
532.0530053913
 30
0.0
  0
SEQEND
  5
7B0
  8
0
  6
SLD-SOLID
 62
     7
  0
LINE
  5
539
  8
0
  6
SLD-SOLID
 62
     7
 10
820.6434684508
 20
532.0530053913
 30
0.0
 11
820.6434684508
 21
235.1530086934
 31
0.0
  0
ARC
  5
53A
  8
0
  6
SLD-SOLID
 62
     7
 10
818.677559055
 20
532.26326219
 30
0.0
 40
1.04313553309567
 50
40.5217215091
 51
94.6228577374
  0
LINE
  5
53B
  8
0
  6
SLD-SOLID
 62
     7
 10
818.5934859031
 20
534.1030028402
 30
0.0
 11
818.5934859031
 21
533.3030041992
 31
0.0
  0
ARC
  5
53C
  8
0
  6
SLD-SOLID
 62
     7
 10
818.5934872259
 20
532.0530216151
 30
0.0
 40
2.049981225035339
 50
359.9995465518
 51
90.0000369712
  0
LINE
  5
53D
  8
0
  6
SLD-SOLID
 62
     7
 10
818.5934859031
 20
233.1030112444
 30
0.0
 11
818.5934859031
 21
233.9030098854
 31
0.0
  0
POLYLINE
  5
53E
  8
0
  6
SLD-SOLID
 62
     7
 66
     1
 10
0.0
 20
0.0
 30
0.0
  0
VERTEX
  5
7B1
  8
0
  6
SLD-SOLID
 62
     7
 10
818.5934859031
 20
233.9030098854
 30
0.0
  0
VERTEX
  5
7B2
  8
0
  6
SLD-SOLID
 62
     7
 10
819.0797107928
 20
234.0014469563
 30
0.0
  0
VERTEX
  5
7B3
  8
0
  6
SLD-SOLID
 62
     7
 10
819.4465773814
 20
234.2521142899
 30
0.0
  0
SEQEND
  5
7B4
  8
0
  6
SLD-SOLID
 62
     7
  0
ARC
  5
53F
  8
0
  6
SLD-SOLID
 62
     7
 10
818.5935801022
 20
235.1528995938
 30
0.0
 40
2.049888351561558
 50
269.9973670708
 51
0.0030494062
  0
LINE
  5
540
  8
0
  6
SLD-SOLID
 62
     7
 10
801.5247719997
 20
534.1030028402
 30
0.0
 11
818.5934859031
 21
534.1030028402
 31
0.0
  0
LINE
  5
541
  8
0
  6
SLD-SOLID
 62
     7
 10
818.5934859031
 20
533.3030041992
 30
0.0
 11
801.5247719997
 21
533.3030041992
 31
0.0
  0
LINE
  5
542
  8
0
  6
SLD-SOLID
 62
     7
 10
801.5247719997
 20
533.3030041992
 30
0.0
 11
801.5247719997
 21
534.1030028402
 31
0.0
  0
LINE
  5
543
  8
0
  6
SLD-SOLID
 62
     7
 10
803.8434820884
 20
233.9030098854
 30
0.0
 11
803.8434820884
 21
233.1030112444
 31
0.0
  0
LINE
  5
544
  8
0
  6
SLD-SOLID
 62
     7
 10
818.5934859031
 20
233.9030098854
 30
0.0
 11
803.8434820884
 21
233.9030098854
 31
0.0
  0
LINE
  5
545
  8
0
  6
SLD-SOLID
 62
     7
 10
818.5934859031
 20
233.1030112444
 30
0.0
 11
803.8434820884
 21
233.1030112444
 31
0.0
  0
LINE
  5
546
  8
0
  6
SLD-SOLID
 62
     7
 10
800.6434875243
 20
534.1030028402
 30
0.0
 11
800.6434875243
 21
533.3030041992
 31
0.0
  0
LINE
  5
547
  8
0
  6
SLD-SOLID
 62
     7
 10
801.5247719997
 20
533.3030041992
 30
0.0
 11
800.6434875243
 21
533.3030041992
 31
0.0
  0
LINE
  5
548
  8
0
  6
SLD-SOLID
 62
     7
 10
801.5247719997
 20
534.1030028402
 30
0.0
 11
800.6434875243
 21
534.1030028402
 31
0.0
  0
LINE
  5
549
  8
0
  6
SLD-SOLID
 62
     7
 10
800.0434773677
 20
233.9100730359
 30
0.0
 11
800.6434875243
 21
233.9100730359
 31
0.0
  0
LINE
  5
54A
  8
0
  6
SLD-SOLID
 62
     7
 10
800.6434875243
 20
533.2959335982
 30
0.0
 11
800.0434773677
 21
533.2959335982
 31
0.0
  0
LINE
  5
54B
  8
0
  6
SLD-SOLID
 62
     7
 10
799.2434936278
 20
233.9100730359
 30
0.0
 11
799.2120521777
 21
233.9100730359
 31
0.0
  0
POLYLINE
  5
54C
  8
0
  6
SLD-SOLID
 62
     7
 66
     1
 10
0.0
 20
0.0
 30
0.0
  0
VERTEX
  5
7B5
  8
0
  6
SLD-SOLID
 62
     7
 10
803.4632640594
 20
233.9100730359
 30
0.0
  0
VERTEX
  5
7B6
  8
0
  6
SLD-SOLID
 62
     7
 10
803.6439257377
 20
233.7034386336
 30
0.0
  0
VERTEX
  5
7B7
  8
0
  6
SLD-SOLID
 62
     7
 10
803.8434820884
 20
233.5282009779
 30
0.0
  0
SEQEND
  5
7B8
  8
0
  6
SLD-SOLID
 62
     7
  0
LINE
  5
54D
  8
0
  6
SLD-SOLID
 62
     7
 10
804.9607115501
 20
233.9100730359
 30
0.0
 11
805.0934808963
 21
233.9030098854
 31
0.0
  0
LINE
  5
54E
  8
0
  6
SLD-SOLID
 62
     7
 10
800.6434875243
 20
533.3030041992
 30
0.0
 11
800.0434773677
 21
533.3030041992
 31
0.0
  0
ARC
  5
54F
  8
0
  6
SLD-SOLID
 62
     7
 10
113.3483471785
 20
114.368876268
 30
0.0
 40
17.79535344380811
 50
332.0481890077
 51
359.7240292817
  0
ARC
  5
550
  8
0
  6
SLD-SOLID
 62
     7
 10
79.3338490015
 20
114.4606207049
 30
0.0
 40
18.19124302691095
 50
180.5589341951
 51
209.6404833339
  0
POLYLINE
  5
551
  8
0
  6
SLD-SOLID
 62
     7
 66
     1
 10
0.0
 20
0.0
 30
0.0
  0
VERTEX
  5
7B9
  8
0
  6
SLD-SOLID
 62
     7
 10
106.8886357062
 20
92.6617872654
 30
0.0
  0
VERTEX
  5
7BA
  8
0
  6
SLD-SOLID
 62
     7
 10
110.2033990138
 20
93.5363960205
 30
0.0
  0
VERTEX
  5
7BB
  8
0
  6
SLD-SOLID
 62
     7
 10
113.3738892787
 20
94.6396779953
 30
0.0
  0
VERTEX
  5
7BC
  8
0
  6
SLD-SOLID
 62
     7
 10
116.3675623649
 20
95.960278505
 30
0.0
  0
VERTEX
  5
7BD
  8
0
  6
SLD-SOLID
 62
     7
 10
119.1537218803
 20
97.4846970974
 30
0.0
  0
VERTEX
  5
7BE
  8
0
  6
SLD-SOLID
 62
     7
 10
121.7037575954
 20
99.1972577511
 30
0.0
  0
VERTEX
  5
7BF
  8
0
  6
SLD-SOLID
 62
     7
 10
123.9915328735
 20
101.0803770958
 30
0.0
  0
VERTEX
  5
7C0
  8
0
  6
SLD-SOLID
 62
     7
 10
125.9935336822
 20
103.114773029
 30
0.0
  0
VERTEX
  5
7C1
  8
0
  6
SLD-SOLID
 62
     7
 10
127.6892262214
 20
105.2795243203
 30
0.0
  0
VERTEX
  5
7C2
  8
0
  6
SLD-SOLID
 62
     7
 10
129.0612059348
 20
107.5524580418
 30
0.0
  0
VERTEX
  5
7C3
  8
0
  6
SLD-SOLID
 62
     7
 10
130.0954359286
 20
109.9102389752
 30
0.0
  0
VERTEX
  5
7C4
  8
0
  6
SLD-SOLID
 62
     7
 10
130.7812469714
 20
112.3286378323
 30
0.0
  0
VERTEX
  5
7C5
  8
0
  6
SLD-SOLID
 62
     7
 10
131.1116355174
 20
114.7828888832
 30
0.0
  0
VERTEX
  5
7C6
  8
0
  6
SLD-SOLID
 62
     7
 10
131.0832339042
 20
117.2477793633
 30
0.0
  0
VERTEX
  5
7C7
  8
0
  6
SLD-SOLID
 62
     7
 10
130.696250748
 20
119.698036903
 30
0.0
  0
VERTEX
  5
7C8
  8
0
  6
SLD-SOLID
 62
     7
 10
129.9547391646
 20
122.1084785401
 30
0.0
  0
VERTEX
  5
7C9
  8
0
  6
SLD-SOLID
 62
     7
 10
128.8662689441
 20
124.4544279515
 30
0.0
  0
VERTEX
  5
7CA
  8
0
  6
SLD-SOLID
 62
     7
 10
127.4420457595
 20
126.7117750584
 30
0.0
  0
VERTEX
  5
7CB
  8
0
  6
SLD-SOLID
 62
     7
 10
125.6966131442
 20
128.8573336541
 30
0.0
  0
VERTEX
  5
7CC
  8
0
  6
SLD-SOLID
 62
     7
 10
123.6479418986
 20
130.8691394268
 30
0.0
  0
VERTEX
  5
7CD
  8
0
  6
SLD-SOLID
 62
     7
 10
121.3170426601
 20
132.7265393673
 30
0.0
  0
VERTEX
  5
7CE
  8
0
  6
SLD-SOLID
 62
     7
 10
118.7278466933
 20
134.4104301869
 30
0.0
  0
VERTEX
  5
7CF
  8
0
  6
SLD-SOLID
 62
     7
 10
115.9068780654
 20
135.9035861432
 30
0.0
  0
VERTEX
  5
7D0
  8
0
  6
SLD-SOLID
 62
     7
 10
112.883134436
 20
137.1906590401
 30
0.0
  0
VERTEX
  5
7D1
  8
0
  6
SLD-SOLID
 62
     7
 10
109.6875804179
 20
138.2584166466
 30
0.0
  0
VERTEX
  5
7D2
  8
0
  6
SLD-SOLID
 62
     7
 10
106.3530879729
 20
139.095981115
 30
0.0
  0
VERTEX
  5
7D3
  8
0
  6
SLD-SOLID
 62
     7
 10
102.9138105624
 20
139.6946501671
 30
0.0
  0
VERTEX
  5
7D4
  8
0
  6
SLD-SOLID
 62
     7
 10
100.1434760802
 20
139.9948191582
 30
0.0
  0
SEQEND
  5
7D5
  8
0
  6
SLD-SOLID
 62
     7
  0
POLYLINE
  5
552
  8
0
  6
SLD-SOLID
 62
     7
 66
     1
 10
0.0
 20
0.0
 30
0.0
  0
VERTEX
  5
7D6
  8
0
  6
SLD-SOLID
 62
     7
 10
92.1434896701
 20
139.9948191582
 30
0.0
  0
VERTEX
  5
7D7
  8
0
  6
SLD-SOLID
 62
     7
 10
88.8233619445
 20
139.6161210476
 30
0.0
  0
VERTEX
  5
7D8
  8
0
  6
SLD-SOLID
 62
     7
 10
85.3983300441
 20
138.9791560112
 30
0.0
  0
VERTEX
  5
7D9
  8
0
  6
SLD-SOLID
 62
     7
 10
82.0835667365
 20
138.1045472561
 30
0.0
  0
VERTEX
  5
7DA
  8
0
  6
SLD-SOLID
 62
     7
 10
78.9130764716
 20
137.0012652813
 30
0.0
  0
VERTEX
  5
7DB
  8
0
  6
SLD-SOLID
 62
     7
 10
75.9194033855
 20
135.6806647717
 30
0.0
  0
VERTEX
  5
7DC
  8
0
  6
SLD-SOLID
 62
     7
 10
73.1332438701
 20
134.1562461792
 30
0.0
  0
VERTEX
  5
7DD
  8
0
  6
SLD-SOLID
 62
     7
 10
70.5831783527
 20
132.4436855256
 30
0.0
  0
VERTEX
  5
7DE
  8
0
  6
SLD-SOLID
 62
     7
 10
68.2954328769
 20
130.5605661808
 30
0.0
  0
VERTEX
  5
7DF
  8
0
  6
SLD-SOLID
 62
     7
 10
66.2934320682
 20
128.5261702477
 30
0.0
  0
VERTEX
  5
7E0
  8
0
  6
SLD-SOLID
 62
     7
 10
64.597739529
 20
126.3614189564
 30
0.0
  0
VERTEX
  5
7E1
  8
0
  6
SLD-SOLID
 62
     7
 10
63.2257300132
 20
124.0884852349
 30
0.0
  0
VERTEX
  5
7E2
  8
0
  6
SLD-SOLID
 62
     7
 10
62.1915298217
 20
121.7307043015
 30
0.0
  0
VERTEX
  5
7E3
  8
0
  6
SLD-SOLID
 62
     7
 10
61.5056889766
 20
119.3123054444
 30
0.0
  0
VERTEX
  5
7E4
  8
0
  6
SLD-SOLID
 62
     7
 10
61.1753004306
 20
116.8580543934
 30
0.0
  0
VERTEX
  5
7E5
  8
0
  6
SLD-SOLID
 62
     7
 10
61.2037318462
 20
114.3931639134
 30
0.0
  0
VERTEX
  5
7E6
  8
0
  6
SLD-SOLID
 62
     7
 10
61.5906852
 20
111.9429063736
 30
0.0
  0
VERTEX
  5
7E7
  8
0
  6
SLD-SOLID
 62
     7
 10
62.3322265857
 20
109.5324349343
 30
0.0
  0
VERTEX
  5
7E8
  8
0
  6
SLD-SOLID
 62
     7
 10
63.4206670039
 20
107.1865153252
 30
0.0
  0
VERTEX
  5
7E9
  8
0
  6
SLD-SOLID
 62
     7
 10
64.8449199908
 20
104.9291682183
 30
0.0
  0
VERTEX
  5
7EA
  8
0
  6
SLD-SOLID
 62
     7
 10
66.5903526061
 20
102.7835798203
 30
0.0
  0
VERTEX
  5
7EB
  8
0
  6
SLD-SOLID
 62
     7
 10
68.6389940494
 20
100.7717740475
 30
0.0
  0
VERTEX
  5
7EC
  8
0
  6
SLD-SOLID
 62
     7
 10
70.969893288
 20
98.9144039093
 30
0.0
  0
VERTEX
  5
7ED
  8
0
  6
SLD-SOLID
 62
     7
 10
73.559119057
 20
97.2305130898
 30
0.0
  0
VERTEX
  5
7EE
  8
0
  6
SLD-SOLID
 62
     7
 10
76.3800876849
 20
95.7373571335
 30
0.0
  0
VERTEX
  5
7EF
  8
0
  6
SLD-SOLID
 62
     7
 10
79.4038313144
 20
94.4502842366
 30
0.0
  0
VERTEX
  5
7F0
  8
0
  6
SLD-SOLID
 62
     7
 10
82.5993853324
 20
93.3824968277
 30
0.0
  0
VERTEX
  5
7F1
  8
0
  6
SLD-SOLID
 62
     7
 10
85.9338777774
 20
92.5449621617
 30
0.0
  0
VERTEX
  5
7F2
  8
0
  6
SLD-SOLID
 62
     7
 10
89.3731551879
 20
91.9462633072
 30
0.0
  0
VERTEX
  5
7F3
  8
0
  6
SLD-SOLID
 62
     7
 10
92.8819018119
 20
91.5925693451
 30
0.0
  0
VERTEX
  5
7F4
  8
0
  6
SLD-SOLID
 62
     7
 10
96.4241164439
 20
91.4874565541
 30
0.0
  0
VERTEX
  5
7F5
  8
0
  6
SLD-SOLID
 62
     7
 10
99.963470053
 20
91.63202762
 30
0.0
  0
VERTEX
  5
7F6
  8
0
  6
SLD-SOLID
 62
     7
 10
103.4636038058
 20
92.024822229
 30
0.0
  0
VERTEX
  5
7F7
  8
0
  6
SLD-SOLID
 62
     7
 10
106.8886357062
 20
92.6617872654
 30
0.0
  0
VERTEX
  5
7F8
  8
0
  6
SLD-SOLID
 62
     7
 10
106.8886357062
 20
92.6617872654
 30
0.0
  0
SEQEND
  5
7F9
  8
0
  6
SLD-SOLID
 62
     7
  0
POLYLINE
  5
553
  8
0
  6
SLD-SOLID
 62
     7
 66
     1
 10
0.0
 20
0.0
 30
0.0
  0
VERTEX
  5
7FA
  8
0
  6
SLD-SOLID
 62
     7
 10
97.5249844306
 20
112.8429365097
 30
0.0
  0
VERTEX
  5
7FB
  8
0
  6
SLD-SOLID
 62
     7
 10
98.6756222957
 20
113.2341515957
 30
0.0
  0
VERTEX
  5
7FC
  8
0
  6
SLD-SOLID
 62
     7
 10
99.6210711711
 20
113.8348770081
 30
0.0
  0
VERTEX
  5
7FD
  8
0
  6
SLD-SOLID
 62
     7
 10
100.2848284953
 20
114.596505159
 30
0.0
  0
VERTEX
  5
7FE
  8
0
  6
SLD-SOLID
 62
     7
 10
100.6130414718
 20
115.4572558342
 30
0.0
  0
VERTEX
  5
7FF
  8
0
  6
SLD-SOLID
 62
     7
 10
100.5791860335
 20
116.347451204
 30
0.0
  0
VERTEX
  5
800
  8
0
  6
SLD-SOLID
 62
     7
 10
100.185974192
 20
117.1949398457
 30
0.0
  0
VERTEX
  5
801
  8
0
  6
SLD-SOLID
 62
     7
 10
100.1434760802
 20
117.2537696301
 30
0.0
  0
SEQEND
  5
802
  8
0
  6
SLD-SOLID
 62
     7
  0
POLYLINE
  5
554
  8
0
  6
SLD-SOLID
 62
     7
 66
     1
 10
0.0
 20
0.0
 30
0.0
  0
VERTEX
  5
803
  8
0
  6
SLD-SOLID
 62
     7
 10
92.1434896701
 20
117.2537696301
 30
0.0
  0
VERTEX
  5
804
  8
0
  6
SLD-SOLID
 62
     7
 10
92.002137255
 20
117.0444381176
 30
0.0
  0
VERTEX
  5
805
  8
0
  6
SLD-SOLID
 62
     7
 10
91.6738944762
 20
116.1836874424
 30
0.0
  0
VERTEX
  5
806
  8
0
  6
SLD-SOLID
 62
     7
 10
91.7077797168
 20
115.2934920727
 30
0.0
  0
VERTEX
  5
807
  8
0
  6
SLD-SOLID
 62
     7
 10
92.1009915584
 20
114.446003431
 30
0.0
  0
VERTEX
  5
808
  8
0
  6
SLD-SOLID
 62
     7
 10
92.8217011207
 20
113.7098562657
 30
0.0
  0
VERTEX
  5
809
  8
0
  6
SLD-SOLID
 62
     7
 10
93.8115554565
 20
113.1446850239
 30
0.0
  0
VERTEX
  5
80A
  8
0
  6
SLD-SOLID
 62
     7
 10
94.9902969115
 20
112.7963256775
 30
0.0
  0
VERTEX
  5
80B
  8
0
  6
SLD-SOLID
 62
     7
 10
96.2624686473
 20
112.6929414212
 30
0.0
  0
VERTEX
  5
80C
  8
0
  6
SLD-SOLID
 62
     7
 10
97.5249844306
 20
112.8429365097
 30
0.0
  0
SEQEND
  5
80D
  8
0
  6
SLD-SOLID
 62
     7
  0
POLYLINE
  5
555
  8
0
  6
SLD-SOLID
 62
     7
 66
     1
 10
0.0
 20
0.0
 30
0.0
  0
VERTEX
  5
80E
  8
0
  6
SLD-SOLID
 62
     7
 10
91.9191079848
 20
114.7423279225
 30
0.0
  0
VERTEX
  5
80F
  8
0
  6
SLD-SOLID
 62
     7
 10
92.002137255
 20
114.8881506859
 30
0.0
  0
VERTEX
  5
810
  8
0
  6
SLD-SOLID
 62
     7
 10
92.1434896701
 20
115.0974523961
 30
0.0
  0
SEQEND
  5
811
  8
0
  6
SLD-SOLID
 62
     7
  0
POLYLINE
  5
556
  8
0
  6
SLD-SOLID
 62
     7
 66
     1
 10
0.0
 20
0.0
 30
0.0
  0
VERTEX
  5
812
  8
0
  6
SLD-SOLID
 62
     7
 10
100.1434760802
 20
115.0974523961
 30
0.0
  0
VERTEX
  5
813
  8
0
  6
SLD-SOLID
 62
     7
 10
100.185974192
 20
115.038652414
 30
0.0
  0
VERTEX
  5
814
  8
0
  6
SLD-SOLID
 62
     7
 10
100.3454166167
 20
114.7838723599
 30
0.0
  0
SEQEND
  5
815
  8
0
  6
SLD-SOLID
 62
     7
  0
ARC
  5
557
  8
0
  6
SLD-SOLID
 62
     7
 10
667.944383073
 20
114.2955777794
 30
0.0
 40
17.19910583216133
 50
342.7741618908
 51
359.958644158
  0
ARC
  5
558
  8
0
  6
SLD-SOLID
 62
     7
 10
633.150353609
 20
114.4157015872
 30
0.0
 40
18.00736469349819
 50
180.421712968
 51
209.0407980985
  0
POLYLINE
  5
559
  8
0
  6
SLD-SOLID
 62
     7
 66
     1
 10
0.0
 20
0.0
 30
0.0
  0
VERTEX
  5
816
  8
0
  6
SLD-SOLID
 62
     7
 10
684.3720215076
 20
110.7395780026
 30
0.0
  0
VERTEX
  5
817
  8
0
  6
SLD-SOLID
 62
     7
 10
684.9357473367
 20
113.1731760441
 30
0.0
  0
VERTEX
  5
818
  8
0
  6
SLD-SOLID
 62
     7
 10
685.1424562448
 20
115.633983606
 30
0.0
  0
VERTEX
  5
819
  8
0
  6
SLD-SOLID
 62
     7
 10
684.9900173658
 20
118.0966687142
 30
0.0
  0
VERTEX
  5
81A
  8
0
  6
SLD-SOLID
 62
     7
 10
684.4800251239
 20
120.5359888016
 30
0.0
  0
VERTEX
  5
81B
  8
0
  6
SLD-SOLID
 62
     7
 10
683.6176800244
 20
122.9269397198
 30
0.0
  0
VERTEX
  5
81C
  8
0
  6
SLD-SOLID
 62
     7
 10
682.4118482583
 20
125.2449643551
 30
0.0
  0
VERTEX
  5
81D
  8
0
  6
SLD-SOLID
 62
     7
 10
680.8748977893
 20
127.4663102566
 30
0.0
  0
VERTEX
  5
81E
  8
0
  6
SLD-SOLID
 62
     7
 10
679.0225940459
 20
129.568119043
 30
0.0
  0
VERTEX
  5
81F
  8
0
  6
SLD-SOLID
 62
     7
 10
676.8739658111
 20
131.5288734375
 30
0.0
  0
VERTEX
  5
820
  8
0
  6
SLD-SOLID
 62
     7
 10
674.451037001
 20
133.3284270703
 30
0.0
  0
VERTEX
  5
821
  8
0
  6
SLD-SOLID
 62
     7
 10
671.7786776536
 20
134.9483323037
 30
0.0
  0
VERTEX
  5
822
  8
0
  6
SLD-SOLID
 62
     7
 10
668.8843208068
 20
136.3719594418
 30
0.0
  0
VERTEX
  5
823
  8
0
  6
SLD-SOLID
 62
     7
 10
665.7976495736
 20
137.5846755444
 30
0.0
  0
VERTEX
  5
824
  8
0
  6
SLD-SOLID
 62
     7
 10
662.5503587239
 20
138.5741126477
 30
0.0
  0
VERTEX
  5
825
  8
0
  6
SLD-SOLID
 62
     7
 10
659.1757374518
 20
139.3300187527
 30
0.0
  0
VERTEX
  5
826
  8
0
  6
SLD-SOLID
 62
     7
 10
655.7084458583
 20
139.8447048603
 30
0.0
  0
VERTEX
  5
827
  8
0
  6
SLD-SOLID
 62
     7
 10
654.1434812062
 20
139.9948191582
 30
0.0
  0
SEQEND
  5
828
  8
0
  6
SLD-SOLID
 62
     7
  0
POLYLINE
  5
55A
  8
0
  6
SLD-SOLID
 62
     7
 66
     1
 10
0.0
 20
0.0
 30
0.0
  0
VERTEX
  5
829
  8
0
  6
SLD-SOLID
 62
     7
 10
646.1434798949
 20
139.9948191582
 30
0.0
  0
VERTEX
  5
82A
  8
0
  6
SLD-SOLID
 62
     7
 10
645.1088177674
 20
139.9011802613
 30
0.0
  0
VERTEX
  5
82B
  8
0
  6
SLD-SOLID
 62
     7
 10
641.6305887216
 20
139.423508638
 30
0.0
  0
VERTEX
  5
82C
  8
0
  6
SLD-SOLID
 62
     7
 10
638.2396953815
 20
138.7036335408
 30
0.0
  0
VERTEX
  5
82D
  8
0
  6
SLD-SOLID
 62
     7
 10
634.970976662
 20
137.7489459454
 30
0.0
  0
VERTEX
  5
82E
  8
0
  6
SLD-SOLID
 62
     7
 10
631.8579303735
 20
136.569250816
 30
0.0
  0
VERTEX
  5
82F
  8
0
  6
SLD-SOLID
 62
     7
 10
628.9325195068
 20
135.1766478955
 30
0.0
  0
VERTEX
  5
830
  8
0
  6
SLD-SOLID
 62
     7
 10
626.2247699016
 20
133.5854124962
 30
0.0
  0
VERTEX
  5
831
  8
0
  6
SLD-SOLID
 62
     7
 10
623.7624573224
 20
131.8118762909
 30
0.0
  0
VERTEX
  5
832
  8
0
  6
SLD-SOLID
 62
     7
 10
621.5708466881
 20
129.8742484986
 30
0.0
  0
VERTEX
  5
833
  8
0
  6
SLD-SOLID
 62
     7
 10
619.6724313014
 20
127.7924370705
 30
0.0
  0
VERTEX
  5
834
  8
0
  6
SLD-SOLID
 62
     7
 10
618.0866869801
 20
125.5877506672
 30
0.0
  0
VERTEX
  5
835
  8
0
  6
SLD-SOLID
 62
     7
 10
616.8298932427
 20
123.2828390538
 30
0.0
  0
VERTEX
  5
836
  8
0
  6
SLD-SOLID
 62
     7
 10
615.9149395936
 20
120.9013652741
 30
0.0
  0
VERTEX
  5
837
  8
0
  6
SLD-SOLID
 62
     7
 10
615.3512137645
 20
118.4677374302
 30
0.0
  0
VERTEX
  5
838
  8
0
  6
SLD-SOLID
 62
     7
 10
615.1445048564
 20
116.0069596707
 30
0.0
  0
VERTEX
  5
839
  8
0
  6
SLD-SOLID
 62
     7
 10
615.2969362848
 20
113.5442745625
 30
0.0
  0
VERTEX
  5
83A
  8
0
  6
SLD-SOLID
 62
     7
 10
615.8069434279
 20
111.1049246727
 30
0.0
  0
VERTEX
  5
83B
  8
0
  6
SLD-SOLID
 62
     7
 10
616.6692810767
 20
108.7139737545
 30
0.0
  0
VERTEX
  5
83C
  8
0
  6
SLD-SOLID
 62
     7
 10
617.8751202934
 20
106.3959491192
 30
0.0
  0
VERTEX
  5
83D
  8
0
  6
SLD-SOLID
 62
     7
 10
619.4120633119
 20
104.1746330201
 30
0.0
  0
VERTEX
  5
83E
  8
0
  6
SLD-SOLID
 62
     7
 10
621.2643596047
 20
102.0728242337
 30
0.0
  0
VERTEX
  5
83F
  8
0
  6
SLD-SOLID
 62
     7
 10
623.4129952901
 20
100.1120698391
 30
0.0
  0
VERTEX
  5
840
  8
0
  6
SLD-SOLID
 62
     7
 10
625.8359241002
 20
98.3125162064
 30
0.0
  0
VERTEX
  5
841
  8
0
  6
SLD-SOLID
 62
     7
 10
628.5082834476
 20
96.692610973
 30
0.0
  0
VERTEX
  5
842
  8
0
  6
SLD-SOLID
 62
     7
 10
631.4026402944
 20
95.2689838349
 30
0.0
  0
VERTEX
  5
843
  8
0
  6
SLD-SOLID
 62
     7
 10
634.4893115275
 20
94.05623793
 30
0.0
  0
VERTEX
  5
844
  8
0
  6
SLD-SOLID
 62
     7
 10
637.7366023772
 20
93.066830629
 30
0.0
  0
VERTEX
  5
845
  8
0
  6
SLD-SOLID
 62
     7
 10
641.1112087482
 20
92.310924524
 30
0.0
  0
VERTEX
  5
846
  8
0
  6
SLD-SOLID
 62
     7
 10
644.5785152429
 20
91.7962384163
 30
0.0
  0
VERTEX
  5
847
  8
0
  6
SLD-SOLID
 62
     7
 10
648.1029080861
 20
91.5280473172
 30
0.0
  0
VERTEX
  5
848
  8
0
  6
SLD-SOLID
 62
     7
 10
651.648251962
 20
91.5091824471
 30
0.0
  0
VERTEX
  5
849
  8
0
  6
SLD-SOLID
 62
     7
 10
655.1781433337
 20
91.7397332131
 30
0.0
  0
VERTEX
  5
84A
  8
0
  6
SLD-SOLID
 62
     7
 10
658.6563723796
 20
92.2174346386
 30
0.0
  0
VERTEX
  5
84B
  8
0
  6
SLD-SOLID
 62
     7
 10
662.0472657197
 20
92.9373097359
 30
0.0
  0
VERTEX
  5
84C
  8
0
  6
SLD-SOLID
 62
     7
 10
665.3159844392
 20
93.891967529
 30
0.0
  0
VERTEX
  5
84D
  8
0
  6
SLD-SOLID
 62
     7
 10
668.4290307277
 20
95.0716924607
 30
0.0
  0
VERTEX
  5
84E
  8
0
  6
SLD-SOLID
 62
     7
 10
671.3544415944
 20
96.4642953812
 30
0.0
  0
VERTEX
  5
84F
  8
0
  6
SLD-SOLID
 62
     7
 10
674.0621911996
 20
98.0555307805
 30
0.0
  0
VERTEX
  5
850
  8
0
  6
SLD-SOLID
 62
     7
 10
676.5245037788
 20
99.8290669857
 30
0.0
  0
VERTEX
  5
851
  8
0
  6
SLD-SOLID
 62
     7
 10
678.7161218637
 20
101.7666649758
 30
0.0
  0
VERTEX
  5
852
  8
0
  6
SLD-SOLID
 62
     7
 10
680.6145297998
 20
103.8485062062
 30
0.0
  0
VERTEX
  5
853
  8
0
  6
SLD-SOLID
 62
     7
 10
682.2002815717
 20
106.0531926094
 30
0.0
  0
VERTEX
  5
854
  8
0
  6
SLD-SOLID
 62
     7
 10
683.4570753091
 20
108.3581042229
 30
0.0
  0
VERTEX
  5
855
  8
0
  6
SLD-SOLID
 62
     7
 10
684.3720215076
 20
110.7395780026
 30
0.0
  0
VERTEX
  5
856
  8
0
  6
SLD-SOLID
 62
     7
 10
684.3720215076
 20
110.7395780026
 30
0.0
  0
SEQEND
  5
857
  8
0
  6
SLD-SOLID
 62
     7
  0
ARC
  5
55B
  8
0
  6
SLD-SOLID
 62
     7
 10
652.2995195947
 20
115.8177861887
 30
0.0
 40
2.33714416941803
 50
343.8376741016
 51
37.9096431448
  0
POLYLINE
  5
55C
  8
0
  6
SLD-SOLID
 62
     7
 66
     1
 10
0.0
 20
0.0
 30
0.0
  0
VERTEX
  5
858
  8
0
  6
SLD-SOLID
 62
     7
 10
646.1434798949
 20
117.2537696301
 30
0.0
  0
VERTEX
  5
859
  8
0
  6
SLD-SOLID
 62
     7
 10
645.7426684611
 20
116.4737236439
 30
0.0
  0
VERTEX
  5
85A
  8
0
  6
SLD-SOLID
 62
     7
 10
645.6562119239
 20
115.5852568089
 30
0.0
  0
VERTEX
  5
85B
  8
0
  6
SLD-SOLID
 62
     7
 10
645.9332990163
 20
114.7158336579
 30
0.0
  0
VERTEX
  5
85C
  8
0
  6
SLD-SOLID
 62
     7
 10
646.5514587873
 20
113.935906881
 30
0.0
  0
VERTEX
  5
85D
  8
0
  6
SLD-SOLID
 62
     7
 10
647.4606233352
 20
113.3086574017
 30
0.0
  0
VERTEX
  5
85E
  8
0
  6
SLD-SOLID
 62
     7
 10
648.5871362203
 20
112.8848981797
 30
0.0
  0
VERTEX
  5
85F
  8
0
  6
SLD-SOLID
 62
     7
 10
649.8397427314
 20
112.6989614903
 30
0.0
  0
VERTEX
  5
860
  8
0
  6
SLD-SOLID
 62
     7
 10
651.1169510596
 20
112.7659273087
 30
0.0
  0
VERTEX
  5
861
  8
0
  6
SLD-SOLID
 62
     7
 10
652.3153024428
 20
113.0803418099
 30
0.0
  0
VERTEX
  5
862
  8
0
  6
SLD-SOLID
 62
     7
 10
653.3376860135
 20
113.6167240082
 30
0.0
  0
VERTEX
  5
863
  8
0
  6
SLD-SOLID
 62
     7
 10
654.1013109201
 20
114.33165192
 30
0.0
  0
VERTEX
  5
864
  8
0
  6
SLD-SOLID
 62
     7
 10
654.54429264
 20
115.1672196328
 30
0.0
  0
VERTEX
  5
865
  8
0
  6
SLD-SOLID
 62
     7
 10
654.54429264
 20
115.1672196328
 30
0.0
  0
SEQEND
  5
866
  8
0
  6
SLD-SOLID
 62
     7
  0
LINE
  5
55D
  8
0
  6
SLD-SOLID
 62
     7
 10
645.9191131108
 20
114.7423279225
 30
0.0
 11
646.1434798949
 21
115.0974523961
 31
0.0
  0
LINE
  5
55E
  8
0
  6
SLD-SOLID
 62
     7
 10
654.1434812062
 20
115.0974523961
 30
0.0
 11
654.3439316266
 21
114.7865843712
 31
0.0
  0
LINE
  5
55F
  8
0
  6
SLD-SOLID
 62
     7
 10
633.3434867375
 20
168.2492387234
 30
0.0
 11
112.9434841388
 21
168.2492387234
 31
0.0
  0
LINE
  5
560
  8
0
  6
SLD-SOLID
 62
     7
 10
633.3434867375
 20
167.5491821705
 30
0.0
 11
633.3434867375
 21
168.2492387234
 31
0.0
  0
LINE
  5
561
  8
0
  6
SLD-SOLID
 62
     7
 10
633.3434867375
 20
167.5491821705
 30
0.0
 11
112.9434841388
 21
167.5491821705
 31
0.0
  0
LINE
  5
562
  8
0
  6
SLD-SOLID
 62
     7
 10
112.9434841388
 20
167.5491821705
 30
0.0
 11
112.9434841388
 21
168.2492387234
 31
0.0
  0
LINE
  5
563
  8
0
  6
SLD-SOLID
 62
     7
 10
112.9434841388
 20
168.2492387234
 30
0.0
 11
112.9434841388
 21
168.2607722222
 31
0.0
  0
LINE
  5
564
  8
0
  6
SLD-SOLID
 62
     7
 10
633.3434867375
 20
168.2492387234
 30
0.0
 11
633.3434867375
 21
168.2607722222
 31
0.0
  0
LINE
  5
565
  8
0
  6
SLD-SOLID
 62
     7
 10
633.3434867375
 20
168.2607722222
 30
0.0
 11
633.3434867375
 21
177.1030020653
 31
0.0
  0
LINE
  5
566
  8
0
  6
SLD-SOLID
 62
     7
 10
634.1434853786
 20
168.2607722222
 30
0.0
 11
634.1434853786
 21
177.1030020653
 31
0.0
  0
LINE
  5
567
  8
0
  6
SLD-SOLID
 62
     7
 10
634.1434853786
 20
168.2607722222
 30
0.0
 11
633.3434867375
 21
168.2607722222
 31
0.0
  0
LINE
  5
568
  8
0
  6
SLD-SOLID
 62
     7
 10
112.1434705966
 20
168.2607722222
 30
0.0
 11
112.1434705966
 21
177.1030020653
 31
0.0
  0
LINE
  5
569
  8
0
  6
SLD-SOLID
 62
     7
 10
112.9434841388
 20
168.2607722222
 30
0.0
 11
112.9434841388
 21
177.1030020653
 31
0.0
  0
LINE
  5
56A
  8
0
  6
SLD-SOLID
 62
     7
 10
112.1434705966
 20
168.2607722222
 30
0.0
 11
112.9434841388
 21
168.2607722222
 31
0.0
  0
LINE
  5
56B
  8
0
  6
SLD-SOLID
 62
     7
 10
593.1434767955
 20
389.8935657679
 30
0.0
 11
603.1434821599
 21
389.8935657679
 31
0.0
  0
LINE
  5
56C
  8
0
  6
SLD-SOLID
 62
     7
 10
593.1434767955
 20
389.7088397979
 30
0.0
 11
603.1434821599
 21
389.7088397979
 31
0.0
  0
LINE
  5
56D
  8
0
  6
SLD-SOLID
 62
     7
 10
542.1434814745
 20
389.8935657679
 30
0.0
 11
552.1434793883
 21
389.8935657679
 31
0.0
  0
LINE
  5
56E
  8
0
  6
SLD-SOLID
 62
     7
 10
542.1434814745
 20
389.7088397979
 30
0.0
 11
552.1434793883
 21
389.7088397979
 31
0.0
  0
POLYLINE
  5
56F
  8
0
  6
SLD-SOLID
 62
     7
 66
     1
 10
0.0
 20
0.0
 30
0.0
  0
VERTEX
  5
867
  8
0
  6
SLD-SOLID
 62
     7
 10
559.143478673
 20
390.3679740368
 30
0.0
  0
VERTEX
  5
868
  8
0
  6
SLD-SOLID
 62
     7
 10
559.2576923483
 20
390.4723715722
 30
0.0
  0
VERTEX
  5
869
  8
0
  6
SLD-SOLID
 62
     7
 10
559.3362065666
 20
390.5545142232
 30
0.0
  0
SEQEND
  5
86A
  8
0
  6
SLD-SOLID
 62
     7
  0
POLYLINE
  5
570
  8
0
  6
SLD-SOLID
 62
     7
 66
     1
 10
0.0
 20
0.0
 30
0.0
  0
VERTEX
  5
86B
  8
0
  6
SLD-SOLID
 62
     7
 10
559.143478673
 20
390.1832480668
 30
0.0
  0
VERTEX
  5
86C
  8
0
  6
SLD-SOLID
 62
     7
 10
559.2576923483
 20
390.2876456021
 30
0.0
  0
VERTEX
  5
86D
  8
0
  6
SLD-SOLID
 62
     7
 10
559.4838994258
 20
390.5545142232
 30
0.0
  0
SEQEND
  5
86E
  8
0
  6
SLD-SOLID
 62
     7
  0
LINE
  5
571
  8
0
  6
SLD-SOLID
 62
     7
 10
389.1434806102
 20
389.8935657679
 30
0.0
 11
399.143478524
 21
389.8935657679
 31
0.0
  0
LINE
  5
572
  8
0
  6
SLD-SOLID
 62
     7
 10
389.1434806102
 20
389.7088397979
 30
0.0
 11
399.143478524
 21
389.7088397979
 31
0.0
  0
LINE
  5
573
  8
0
  6
SLD-SOLID
 62
     7
 10
338.1434815639
 20
389.8935657679
 30
0.0
 11
348.1434869283
 21
389.8935657679
 31
0.0
  0
LINE
  5
574
  8
0
  6
SLD-SOLID
 62
     7
 10
338.1434815639
 20
389.7088397979
 30
0.0
 11
348.1434869283
 21
389.7088397979
 31
0.0
  0
LINE
  5
575
  8
0
  6
SLD-SOLID
 62
     7
 10
185.1434844249
 20
389.8935657679
 30
0.0
 11
195.1434748881
 21
389.8935657679
 31
0.0
  0
LINE
  5
576
  8
0
  6
SLD-SOLID
 62
     7
 10
185.1434844249
 20
389.7088397979
 30
0.0
 11
195.1434748881
 21
389.7088397979
 31
0.0
  0
LINE
  5
577
  8
0
  6
SLD-SOLID
 62
     7
 10
134.1434853786
 20
389.8935657679
 30
0.0
 11
144.1434758418
 21
389.8935657679
 31
0.0
  0
LINE
  5
578
  8
0
  6
SLD-SOLID
 62
     7
 10
134.1434853786
 20
389.7088397979
 30
0.0
 11
144.1434758418
 21
389.7088397979
 31
0.0
  0
CIRCLE
  5
579
  8
0
  6
SLD-SOLID
 62
     7
 10
599.8368337208
 20
396.827048063
 30
0.0
 40
2.190706084052227
  0
CIRCLE
  5
57A
  8
0
  6
SLD-SOLID
 62
     7
 10
394.836835509
 20
396.827048063
 30
0.0
 40
2.190706084052228
  0
CIRCLE
  5
57B
  8
0
  6
SLD-SOLID
 62
     7
 10
139.8368186667
 20
396.8270512348
 30
0.0
 40
2.190709298814074
  0
ARC
  5
57C
  8
0
  6
SLD-SOLID
 62
     7
 10
599.8434821778
 20
396.6030536704
 30
0.0
 40
2.201005776422841
 50
2.9875223676
 51
177.0124776324
  0
ARC
  5
57D
  8
0
  6
SLD-SOLID
 62
     7
 10
394.8434802406
 20
396.6030587601
 30
0.0
 40
2.201001790930605
 50
2.9873951069
 51
177.0126048931
  0
ARC
  5
57E
  8
0
  6
SLD-SOLID
 62
     7
 10
139.8434775584
 20
396.6030587602
 30
0.0
 40
2.201001790927935
 50
2.9873951056
 51
177.0126048944
  0
LINE
  5
57F
  8
0
  6
SLD-SOLID
 62
     7
 10
603.1434821599
 20
366.2437726497
 30
0.0
 11
593.1434767955
 21
366.2437726497
 31
0.0
  0
LINE
  5
580
  8
0
  6
SLD-SOLID
 62
     7
 10
603.1434821599
 20
366.4146032869
 30
0.0
 11
593.1434767955
 21
366.4146032869
 31
0.0
  0
LINE
  5
581
  8
0
  6
SLD-SOLID
 62
     7
 10
552.1434793883
 20
366.2437726497
 30
0.0
 11
542.1434814745
 21
366.2437726497
 31
0.0
  0
LINE
  5
582
  8
0
  6
SLD-SOLID
 62
     7
 10
552.1434793883
 20
366.4146032869
 30
0.0
 11
542.1434814745
 21
366.4146032869
 31
0.0
  0
POLYLINE
  5
583
  8
0
  6
SLD-SOLID
 62
     7
 66
     1
 10
0.0
 20
0.0
 30
0.0
  0
VERTEX
  5
86F
  8
0
  6
SLD-SOLID
 62
     7
 10
559.289115172
 20
365.6321433126
 30
0.0
  0
VERTEX
  5
870
  8
0
  6
SLD-SOLID
 62
     7
 10
559.2576923483
 20
365.6639535664
 30
0.0
  0
VERTEX
  5
871
  8
0
  6
SLD-SOLID
 62
     7
 10
559.143478673
 20
365.768533641
 30
0.0
  0
SEQEND
  5
872
  8
0
  6
SLD-SOLID
 62
     7
  0
POLYLINE
  5
584
  8
0
  6
SLD-SOLID
 62
     7
 66
     1
 10
0.0
 20
0.0
 30
0.0
  0
VERTEX
  5
873
  8
0
  6
SLD-SOLID
 62
     7
 10
559.4363162928
 20
365.6321433126
 30
0.0
  0
VERTEX
  5
874
  8
0
  6
SLD-SOLID
 62
     7
 10
559.2576923483
 20
365.8347804784
 30
0.0
  0
VERTEX
  5
875
  8
0
  6
SLD-SOLID
 62
     7
 10
559.143478673
 20
365.9393605529
 30
0.0
  0
SEQEND
  5
876
  8
0
  6
SLD-SOLID
 62
     7
  0
LINE
  5
585
  8
0
  6
SLD-SOLID
 62
     7
 10
399.143478524
 20
366.2437726497
 30
0.0
 11
389.1434806102
 21
366.2437726497
 31
0.0
  0
LINE
  5
586
  8
0
  6
SLD-SOLID
 62
     7
 10
399.143478524
 20
366.4146032869
 30
0.0
 11
389.1434806102
 21
366.4146032869
 31
0.0
  0
LINE
  5
587
  8
0
  6
SLD-SOLID
 62
     7
 10
348.1434869283
 20
366.2437726497
 30
0.0
 11
338.1434815639
 21
366.2437726497
 31
0.0
  0
LINE
  5
588
  8
0
  6
SLD-SOLID
 62
     7
 10
348.1434869283
 20
366.4146032869
 30
0.0
 11
338.1434815639
 21
366.4146032869
 31
0.0
  0
LINE
  5
589
  8
0
  6
SLD-SOLID
 62
     7
 10
195.1434748881
 20
366.2437726497
 30
0.0
 11
185.1434844249
 21
366.2437726497
 31
0.0
  0
LINE
  5
58A
  8
0
  6
SLD-SOLID
 62
     7
 10
195.1434748881
 20
366.4146032869
 30
0.0
 11
185.1434844249
 21
366.4146032869
 31
0.0
  0
LINE
  5
58B
  8
0
  6
SLD-SOLID
 62
     7
 10
144.1434758418
 20
366.2437726497
 30
0.0
 11
134.1434853786
 21
366.2437726497
 31
0.0
  0
LINE
  5
58C
  8
0
  6
SLD-SOLID
 62
     7
 10
144.1434758418
 20
366.4146032869
 30
0.0
 11
134.1434853786
 21
366.4146032869
 31
0.0
  0
CIRCLE
  5
58D
  8
0
  6
SLD-SOLID
 62
     7
 10
599.8491678442
 20
359.3006244544
 30
0.0
 40
2.192043266495343
  0
CIRCLE
  5
58E
  8
0
  6
SLD-SOLID
 62
     7
 10
344.8491573566
 20
359.3006223969
 30
0.0
 40
2.192045303813322
  0
CIRCLE
  5
58F
  8
0
  6
SLD-SOLID
 62
     7
 10
139.849173525
 20
359.3006202623
 30
0.0
 40
2.192047475664557
  0
ARC
  5
590
  8
0
  6
SLD-SOLID
 62
     7
 10
599.8434784525
 20
359.5049029777
 30
0.0
 40
2.200787542326542
 50
182.7196514212
 51
357.2803485788
  0
ARC
  5
591
  8
0
  6
SLD-SOLID
 62
     7
 10
344.8434757703
 20
359.5049029777
 30
0.0
 40
2.200787542326542
 50
182.7196514212
 51
357.2803485788
  0
ARC
  5
592
  8
0
  6
SLD-SOLID
 62
     7
 10
139.8434775584
 20
359.5049029776
 30
0.0
 40
2.200787542324133
 50
182.7196514199
 51
357.2803485801
  0
ENDSEC
  0
EOF
