  0
SECTION
  2
HEADER
  9
$ACADVER
  1
AC1015
  9
$ACADMAINTVER
 70
     6
  9
$DWGCODEPAGE
  3
ANSI_1252
  9
$INSBASE
 10
0.0
 20
0.0
 30
0.0
  9
$EXTMIN
 10
0.0
 20
0.0
 30
0.0
  9
$EXTMAX
 10
420.0
 20
297.0
 30
0.0
  9
$LIMMIN
 10
0.0
 20
0.0
  9
$LIMMAX
 10
420.0
 20
297.0
  9
$ORTHOMODE
 70
     0
  9
$REGENMODE
 70
     1
  9
$FILLMODE
 70
     1
  9
$QTEXTMODE
 70
     0
  9
$MIRRTEXT
 70
     1
  9
$LTSCALE
 40
1.0
  9
$ATTMODE
 70
     1
  9
$TEXTSIZE
 40
3.5
  9
$TRACEWID
 40
1.0
  9
$TEXTSTYLE
  7
Standard
  9
$CLAYER
  8
0
  9
$CELTYPE
  6
ByLayer
  9
$CECOLOR
 62
   256
  9
$CELTSCALE
 40
1.0
  9
$DISPSILH
 70
     0
  9
$DIMSCALE
 40
1.0
  9
$DIMASZ
 40
3.302
  9
$DIMEXO
 40
1.0
  9
$DIMDLI
 40
3.75
  9
$DIMRND
 40
0.0
  9
$DIMDLE
 40
0.0
  9
$DIMEXE
 40
1.0
  9
$DIMTP
 40
0.0
  9
$DIMTM
 40
0.0
  9
$DIMTXT
 40
3.5
  9
$DIMCEN
 40
2.5
  9
$DIMTSZ
 40
0.0
  9
$DIMTOL
 70
     0
  9
$DIMLIM
 70
     0
  9
$DIMTIH
 70
     1
  9
$DIMTOH
 70
     1
  9
$DIMSE1
 70
     0
  9
$DIMSE2
 70
     0
  9
$DIMTAD
 70
     1
  9
$DIMZIN
 70
     0
  9
$DIMBLK
  1

  9
$DIMASO
 70
     1
  9
$DIMSHO
 70
     1
  9
$DIMPOST
  1

  9
$DIMAPOST
  1

  9
$DIMALT
 70
     0
  9
$DIMALTD
 70
     3
  9
$DIMALTF
 40
0.0393700787
  9
$DIMLFAC
 40
10.0
  9
$DIMTOFL
 70
     1
  9
$DIMTVP
 40
0.0
  9
$DIMTIX
 70
     0
  9
$DIMSOXD
 70
     0
  9
$DIMSAH
 70
     0
  9
$DIMBLK1
  1

  9
$DIMBLK2
  1

  9
$DIMSTYLE
  2
ISO-25
  9
$DIMCLRD
 70
     0
  9
$DIMCLRE
 70
     0
  9
$DIMCLRT
 70
     0
  9
$DIMTFAC
 40
1.0
  9
$DIMGAP
 40
1.524
  9
$DIMJUST
 70
     0
  9
$DIMSD1
 70
     0
  9
$DIMSD2
 70
     0
  9
$DIMTOLJ
 70
     0
  9
$DIMTZIN
 70
     0
  9
$DIMALTZ
 70
     0
  9
$DIMALTTZ
 70
     0
  9
$DIMUPT
 70
     0
  9
$DIMDEC
 70
     1
  9
$DIMTDEC
 70
     1
  9
$DIMALTU
 70
     2
  9
$DIMALTTD
 70
     3
  9
$DIMTXSTY
  7
Standard
  9
$DIMAUNIT
 70
     0
  9
$DIMADEC
 70
     1
  9
$DIMALTRND
 40
0.0
  9
$DIMAZIN
 70
     0
  9
$DIMDSEP
 70
    44
  9
$DIMATFIT
 70
     3
  9
$DIMFRAC
 70
     0
  9
$DIMLDRBLK
  1

  9
$DIMLUNIT
 70
     2
  9
$DIMLWD
 70
    -2
  9
$DIMLWE
 70
    -2
  9
$DIMTMOVE
 70
     0
  9
$LUNITS
 70
     2
  9
$LUPREC
 70
     1
  9
$SKETCHINC
 40
1.0
  9
$FILLETRAD
 40
10.0
  9
$AUNITS
 70
     0
  9
$AUPREC
 70
     1
  9
$MENU
  1
.
  9
$ELEVATION
 40
0.0
  9
$PELEVATION
 40
0.0
  9
$THICKNESS
 40
0.0
  9
$LIMCHECK
 70
     0
  9
$CHAMFERA
 40
10.0
  9
$CHAMFERB
 40
10.0
  9
$CHAMFERC
 40
20.0
  9
$CHAMFERD
 40
0.0
  9
$SKPOLY
 70
     0
  9
$TDCREATE
 40
2455768.46904757
  9
$TDUCREATE
 40
2455768.427380903
  9
$TDUPDATE
 40
2455768.469047581
  9
$TDUUPDATE
 40
2455768.427380914
  9
$TDINDWG
 40
0.0000000116
  9
$TDUSRTIMER
 40
0.0000000116
  9
$USRTIMER
 70
     1
  9
$ANGBASE
 50
0.0
  9
$ANGDIR
 70
     0
  9
$PDMODE
 70
     0
  9
$PDSIZE
 40
-1.0
  9
$PLINEWID
 40
0.0
  9
$SPLFRAME
 70
     0
  9
$SPLINETYPE
 70
     6
  9
$SPLINESEGS
 70
     8
  9
$HANDSEED
  5
289
  9
$SURFTAB1
 70
     6
  9
$SURFTAB2
 70
     6
  9
$SURFTYPE
 70
     6
  9
$SURFU
 70
     6
  9
$SURFV
 70
     6
  9
$UCSBASE
  2

  9
$UCSNAME
  2

  9
$UCSORG
 10
0.0
 20
0.0
 30
0.0
  9
$UCSXDIR
 10
1.0
 20
0.0
 30
0.0
  9
$UCSYDIR
 10
0.0
 20
1.0
 30
0.0
  9
$UCSORTHOREF
  2

  9
$UCSORTHOVIEW
 70
     0
  9
$UCSORGTOP
 10
0.0
 20
0.0
 30
0.0
  9
$UCSORGBOTTOM
 10
0.0
 20
0.0
 30
0.0
  9
$UCSORGLEFT
 10
0.0
 20
0.0
 30
0.0
  9
$UCSORGRIGHT
 10
0.0
 20
0.0
 30
0.0
  9
$UCSORGFRONT
 10
0.0
 20
0.0
 30
0.0
  9
$UCSORGBACK
 10
0.0
 20
0.0
 30
0.0
  9
$PUCSBASE
  2

  9
$PUCSNAME
  2

  9
$PUCSORG
 10
0.0
 20
0.0
 30
0.0
  9
$PUCSXDIR
 10
1.0
 20
0.0
 30
0.0
  9
$PUCSYDIR
 10
0.0
 20
1.0
 30
0.0
  9
$PUCSORTHOREF
  2

  9
$PUCSORTHOVIEW
 70
     0
  9
$PUCSORGTOP
 10
0.0
 20
0.0
 30
0.0
  9
$PUCSORGBOTTOM
 10
0.0
 20
0.0
 30
0.0
  9
$PUCSORGLEFT
 10
0.0
 20
0.0
 30
0.0
  9
$PUCSORGRIGHT
 10
0.0
 20
0.0
 30
0.0
  9
$PUCSORGFRONT
 10
0.0
 20
0.0
 30
0.0
  9
$PUCSORGBACK
 10
0.0
 20
0.0
 30
0.0
  9
$USERI1
 70
     0
  9
$USERI2
 70
     0
  9
$USERI3
 70
     0
  9
$USERI4
 70
     0
  9
$USERI5
 70
     0
  9
$USERR1
 40
0.0
  9
$USERR2
 40
0.0
  9
$USERR3
 40
0.0
  9
$USERR4
 40
0.0
  9
$USERR5
 40
0.0
  9
$WORLDVIEW
 70
     1
  9
$SHADEDGE
 70
     3
  9
$SHADEDIF
 70
    70
  9
$TILEMODE
 70
     1
  9
$MAXACTVP
 70
    64
  9
$PINSBASE
 10
0.0
 20
0.0
 30
0.0
  9
$PLIMCHECK
 70
     0
  9
$PEXTMIN
 10
1.0000000000E+20
 20
1.0000000000E+20
 30
1.0000000000E+20
  9
$PEXTMAX
 10
-1.0000000000E+20
 20
-1.0000000000E+20
 30
-1.0000000000E+20
  9
$PLIMMIN
 10
0.0
 20
0.0
  9
$PLIMMAX
 10
420.0
 20
297.0
  9
$UNITMODE
 70
     0
  9
$VISRETAIN
 70
     1
  9
$PLINEGEN
 70
     0
  9
$PSLTSCALE
 70
     1
  9
$TREEDEPTH
 70
  3020
  9
$CMLSTYLE
  2
Standard
  9
$CMLJUST
 70
     0
  9
$CMLSCALE
 40
20.0
  9
$PROXYGRAPHICS
 70
     1
  9
$MEASUREMENT
 70
     1
  9
$CELWEIGHT
370
    -1
  9
$ENDCAPS
280
     0
  9
$JOINSTYLE
280
     0
  9
$LWDISPLAY
290
     1
  9
$INSUNITS
 70
     4
  9
$HYPERLINKBASE
  1

  9
$STYLESHEET
  1

  9
$XEDIT
290
     1
  9
$CEPSNTYPE
380
     0
  9
$PSTYLEMODE
290
     1
  9
$FINGERPRINTGUID
  2
{15E20E21-2F16-465A-B2CE-C20567FE0AED}
  9
$VERSIONGUID
  2
{FAEB1C32-E019-11D5-929B-00C0DF256EC4}
  9
$EXTNAMES
290
     1
  9
$PSVPSCALE
 40
0.0
  9
$OLESTARTUP
290
     0
  0
ENDSEC
  0
SECTION
  2
CLASSES
  0
CLASS
  1
ACDBDICTIONARYWDFLT
  2
AcDbDictionaryWithDefault
  3
ObjectDBX Classes
 90
        0
280
     0
281
     0
  0
CLASS
  1
VISUALSTYLE
  2
AcDbVisualStyle
  3
ObjectDBX Classes
 90
     4095
280
     0
281
     0
  0
CLASS
  1
MATERIAL
  2
AcDbMaterial
  3
ObjectDBX Classes
 90
     1153
280
     0
281
     0
  0
CLASS
  1
ACDBPLACEHOLDER
  2
AcDbPlaceHolder
  3
ObjectDBX Classes
 90
        0
280
     0
281
     0
  0
CLASS
  1
LAYOUT
  2
AcDbLayout
  3
ObjectDBX Classes
 90
        0
280
     0
281
     0
  0
ENDSEC
  0
SECTION
  2
TABLES
  0
TABLE
  2
VPORT
  5
8
330
0
100
AcDbSymbolTable
 70
     1
  0
VPORT
  5
29
330
8
100
AcDbSymbolTableRecord
100
AcDbViewportTableRecord
  2
*Active
 70
     0
 10
0.0
 20
0.0
 11
1.0
 21
1.0
 12
210.0
 22
148.5
 13
0.0
 23
0.0
 14
10.0
 24
10.0
 15
10.0
 25
10.0
 16
0.0
 26
0.0
 36
1.0
 17
0.0
 27
0.0
 37
0.0
 40
297.0
 41
1.4141414141
 42
50.0
 43
0.0
 44
0.0
 50
0.0
 51
0.0
 71
     0
 72
  2000
 73
     1
 74
     3
 75
     0
 76
     0
 77
     0
 78
     0
281
     0
 65
     1
110
0.0
120
0.0
130
0.0
111
1.0
121
0.0
131
0.0
112
0.0
122
1.0
132
0.0
 79
     0
146
0.0
  0
ENDTAB
  0
TABLE
  2
LTYPE
  5
5
330
0
100
AcDbSymbolTable
 70
     6
  0
LTYPE
  5
14
330
5
100
AcDbSymbolTableRecord
100
AcDbLinetypeTableRecord
  2
ByBlock
 70
     0
  3

 72
    65
 73
     0
 40
0.0
  0
LTYPE
  5
15
330
5
100
AcDbSymbolTableRecord
100
AcDbLinetypeTableRecord
  2
ByLayer
 70
     0
  3

 72
    65
 73
     0
 40
0.0
  0
LTYPE
  5
16
330
5
100
AcDbSymbolTableRecord
100
AcDbLinetypeTableRecord
  2
Continuous
 70
     0
  3
Solid line
 72
    65
 73
     0
 40
0.0
  0
LTYPE
  5
3F
330
5
100
AcDbSymbolTableRecord
100
AcDbLinetypeTableRecord
  2
HIDDEN
 70
     0
  3
Hidden __ __ __ __ __ __ __ __ __ __ __ __ __ __
 72
    65
 73
     2
 40
1.905
 49
1.27
 74
     0
 49
-0.635
 74
     0
  0
LTYPE
  5
40
330
5
100
AcDbSymbolTableRecord
100
AcDbLinetypeTableRecord
  2
PHANTOM
 70
     0
  3
Phantom ______  __  __  ______  __  __  ______
 72
    65
 73
     6
 40
12.7
 49
6.35
 74
     0
 49
-1.27
 74
     0
 49
1.27
 74
     0
 49
-1.27
 74
     0
 49
1.27
 74
     0
 49
-1.27
 74
     0
  0
LTYPE
  5
41
330
5
100
AcDbSymbolTableRecord
100
AcDbLinetypeTableRecord
  2
CENTER
 70
     0
  3
Center ____ _ ____ _ ____ _ ____ _ ____ _ ____
 72
    65
 73
     4
 40
10.16
 49
6.35
 74
     0
 49
-1.27
 74
     0
 49
1.27
 74
     0
 49
-1.27
 74
     0
  0
LTYPE
  5
42
330
5
100
AcDbSymbolTableRecord
100
AcDbLinetypeTableRecord
  2
CENTERX2
 70
     0
  3
Center (2x) ________  __  ________  __  _____
 72
    65
 73
     4
 40
20.32
 49
12.7
 74
     0
 49
-2.54
 74
     0
 49
2.54
 74
     0
 49
-2.54
 74
     0
  0
LTYPE
  5
43
330
5
100
AcDbSymbolTableRecord
100
AcDbLinetypeTableRecord
  2
DOT2
 70
     0
  3
Dot (.5x) ........................................
 72
    65
 73
     2
 40
0.635
 49
0.0
 74
     0
 49
-0.635
 74
     0
  0
ENDTAB
  0
TABLE
  2
LAYER
  5
2
330
0
100
AcDbSymbolTable
 70
     4
  0
LAYER
  5
10
330
2
100
AcDbSymbolTableRecord
100
AcDbLayerTableRecord
  2
0
 70
     0
 62
     7
  6
Continuous
370
    -3
390
F
  0
LAYER
  5
44
330
2
100
AcDbSymbolTableRecord
100
AcDbLayerTableRecord
  2
FORMAT
 70
     0
 62
     7
  6
Continuous
370
    -3
390
F
  0
LAYER
  5
45
330
2
100
AcDbSymbolTableRecord
100
AcDbLayerTableRecord
  2
SLD-0
 70
     0
 62
     1
  6
Continuous
370
    -3
390
F
  0
LAYER
  5
46
330
2
100
AcDbSymbolTableRecord
100
AcDbLayerTableRecord
  2
WATERMARK
 70
     0
 62
    20
  6
Continuous
370
    -3
390
F
  0
ENDTAB
  0
TABLE
  2
STYLE
  5
3
330
0
100
AcDbSymbolTable
 70
     1
  0
STYLE
  5
11
330
3
100
AcDbSymbolTableRecord
100
AcDbTextStyleTableRecord
  2
Standard
 70
     0
 40
0.0
 41
1.0
 50
0.0
 71
     0
 42
2.5
  3
txt
  4

  0
ENDTAB
  0
TABLE
  2
VIEW
  5
6
330
0
100
AcDbSymbolTable
 70
     0
  0
ENDTAB
  0
TABLE
  2
UCS
  5
7
330
0
100
AcDbSymbolTable
 70
     0
  0
ENDTAB
  0
TABLE
  2
APPID
  5
9
330
0
100
AcDbSymbolTable
 70
     1
  0
APPID
  5
12
330
9
100
AcDbSymbolTableRecord
100
AcDbRegAppTableRecord
  2
ACAD
 70
     0
  0
ENDTAB
  0
TABLE
  2
DIMSTYLE
  5
A
330
0
100
AcDbSymbolTable
 70
     1
100
AcDbDimStyleTable
  0
DIMSTYLE
105
27
330
A
100
AcDbSymbolTableRecord
100
AcDbDimStyleTableRecord
  2
ISO-25
 70
     0
 41
2.5
 42
0.625
 43
3.75
 44
1.25
 73
     0
 74
     0
 77
     1
 78
     8
140
2.5
141
2.5
143
0.0393700787
147
0.625
171
     3
172
     1
271
     2
272
     2
274
     3
278
    44
283
     0
284
     8
340
11
  0
ENDTAB
  0
TABLE
  2
BLOCK_RECORD
  5
1
330
0
100
AcDbSymbolTable
 70
     1
  0
BLOCK_RECORD
  5
1F
330
1
100
AcDbSymbolTableRecord
100
AcDbBlockTableRecord
  2
*Model_Space
340
22
  0
BLOCK_RECORD
  5
1B
330
1
100
AcDbSymbolTableRecord
100
AcDbBlockTableRecord
  2
*Paper_Space
340
1E
  0
BLOCK_RECORD
  5
23
330
1
100
AcDbSymbolTableRecord
100
AcDbBlockTableRecord
  2
*Paper_Space0
340
26
  0
ENDTAB
  0
ENDSEC
  0
SECTION
  2
BLOCKS
  0
BLOCK
  5
20
330
1F
100
AcDbEntity
  8
0
100
AcDbBlockBegin
  2
*Model_Space
 70
     0
 10
0.0
 20
0.0
 30
0.0
  3
*Model_Space
  1

  0
ENDBLK
  5
21
330
1F
100
AcDbEntity
  8
0
100
AcDbBlockEnd
  0
BLOCK
  5
1C
330
1B
100
AcDbEntity
 67
     1
  8
0
100
AcDbBlockBegin
  2
*Paper_Space
 70
     0
 10
0.0
 20
0.0
 30
0.0
  3
*Paper_Space
  1

  0
ENDBLK
  5
1D
330
1B
100
AcDbEntity
 67
     1
  8
0
100
AcDbBlockEnd
  0
BLOCK
  5
24
330
23
100
AcDbEntity
  8
0
100
AcDbBlockBegin
  2
*Paper_Space0
 70
     0
 10
0.0
 20
0.0
 30
0.0
  3
*Paper_Space0
  1

  0
ENDBLK
  5
25
330
23
100
AcDbEntity
  8
0
100
AcDbBlockEnd
  0
ENDSEC
  0
SECTION
  2
ENTITIES
  0
ARC
  5
47
330
1F
100
AcDbEntity
  8
0
  6
Continuous
 62
     7
370
    15
100
AcDbCircle
 10
313.3369210875
 20
148.3653644647
 30
0.0
 40
0.2000000000000171
100
AcDbArc
 50
270.0
 51
0.0
  0
ARC
  5
48
330
1F
100
AcDbEntity
  8
0
  6
Continuous
 62
     7
370
    15
100
AcDbCircle
 10
308.0369210875
 20
148.3653644647
 30
0.0
 40
0.2000000000000455
100
AcDbArc
 50
180.0
 51
270.0
  0
LINE
  5
49
330
1F
100
AcDbEntity
  8
0
  6
Continuous
 62
     7
370
    15
100
AcDbLine
 10
313.5369212545
 20
148.3653647552
 30
0.0
 11
313.5369212545
 21
148.7653655659
 31
0.0
  0
LINE
  5
4A
330
1F
100
AcDbEntity
  8
0
  6
Continuous
 62
     7
370
    15
100
AcDbLine
 10
307.8369231142
 20
148.7653655659
 30
0.0
 11
307.8369231142
 21
148.3653647552
 31
0.0
  0
ARC
  5
4B
330
1F
100
AcDbEntity
  8
0
  6
Continuous
 62
     7
370
    15
100
AcDbCircle
 10
254.4369210875
 20
148.3653644647
 30
0.0
 40
0.2000000000000171
100
AcDbArc
 50
270.0
 51
0.0
  0
ARC
  5
4C
330
1F
100
AcDbEntity
  8
0
  6
Continuous
 62
     7
370
    15
100
AcDbCircle
 10
249.1369210875
 20
148.3653644647
 30
0.0
 40
0.2000000000000171
100
AcDbArc
 50
180.0
 51
270.0
  0
LINE
  5
4D
330
1F
100
AcDbEntity
  8
0
  6
Continuous
 62
     7
370
    15
100
AcDbLine
 10
254.6369210996
 20
148.3653647552
 30
0.0
 11
254.6369210996
 21
148.7653655659
 31
0.0
  0
LINE
  5
4E
330
1F
100
AcDbEntity
  8
0
  6
Continuous
 62
     7
370
    15
100
AcDbLine
 10
248.9369210966
 20
148.7653655659
 30
0.0
 11
248.9369210966
 21
148.3653647552
 31
0.0
  0
LINE
  5
4F
330
1F
100
AcDbEntity
  8
0
  6
Continuous
 62
     7
370
    15
100
AcDbLine
 10
313.5169238962
 20
148.7653655659
 30
0.0
 11
313.5169238962
 21
155.5653674255
 31
0.0
  0
LINE
  5
50
330
1F
100
AcDbEntity
  8
0
  6
Continuous
 62
     7
370
    15
100
AcDbLine
 10
307.8569204725
 20
155.5653674255
 30
0.0
 11
307.8569204725
 21
148.7653655659
 31
0.0
  0
LINE
  5
51
330
1F
100
AcDbEntity
  8
0
  6
Continuous
 62
     7
370
    15
100
AcDbLine
 10
254.616920761
 20
148.7653655659
 30
0.0
 11
254.616920761
 21
155.5653674255
 31
0.0
  0
LINE
  5
52
330
1F
100
AcDbEntity
  8
0
  6
Continuous
 62
     7
370
    15
100
AcDbLine
 10
248.9569210626
 20
155.5653674255
 30
0.0
 11
248.9569210626
 21
148.7653655659
 31
0.0
  0
ARC
  5
53
330
1F
100
AcDbEntity
  8
0
  6
Continuous
 62
     7
370
    15
100
AcDbCircle
 10
255.1269210875
 20
164.8153644647
 30
0.0
 40
0.1500000000000057
100
AcDbArc
 50
90.0
 51
180.0
  0
ARC
  5
54
330
1F
100
AcDbEntity
  8
0
  6
Continuous
 62
     7
370
    15
100
AcDbCircle
 10
248.4469210875
 20
164.8153644647
 30
0.0
 40
0.1500000000000057
100
AcDbArc
 50
0.0
 51
90.0
  0
LINE
  5
55
330
1F
100
AcDbEntity
  8
0
  6
Continuous
 62
     7
370
    15
100
AcDbLine
 10
254.9769208945
 20
156.1686200748
 30
0.0
 11
254.9769208945
 21
164.8153645645
 31
0.0
  0
LINE
  5
56
330
1F
100
AcDbEntity
  8
0
  6
Continuous
 62
     7
370
    15
100
AcDbLine
 10
248.5969209291
 20
164.8153645645
 30
0.0
 11
248.5969209291
 21
156.1686200748
 31
0.0
  0
ARC
  5
57
330
1F
100
AcDbEntity
  8
0
  6
Continuous
 62
     7
370
    15
100
AcDbCircle
 10
254.5069210875
 20
156.1686210593
 30
0.0
 40
0.4700000000000001
100
AcDbArc
 50
350.5402980318
 51
0.0
  0
ARC
  5
58
330
1F
100
AcDbEntity
  8
0
  6
Continuous
 62
     7
370
    15
100
AcDbCircle
 10
249.0669210875
 20
156.1686210593
 30
0.0
 40
0.4700000000000001
100
AcDbArc
 50
180.0
 51
189.4597019682
  0
LINE
  5
59
330
1F
100
AcDbEntity
  8
0
  6
Continuous
 62
     7
370
    15
100
AcDbLine
 10
248.6033124097
 20
156.0913724552
 30
0.0
 11
248.6909561969
 21
155.5653674255
 31
0.0
  0
LINE
  5
5A
330
1F
100
AcDbEntity
  8
0
  6
Continuous
 62
     7
370
    15
100
AcDbLine
 10
254.8828863718
 20
155.5653674255
 30
0.0
 11
254.9705297865
 21
156.0913724552
 31
0.0
  0
ARC
  5
5B
330
1F
100
AcDbEntity
  8
0
  6
Continuous
 62
     7
370
    15
100
AcDbCircle
 10
314.0269210875
 20
164.8153644647
 30
0.0
 40
0.1500000000000057
100
AcDbArc
 50
90.0
 51
180.0
  0
ARC
  5
5C
330
1F
100
AcDbEntity
  8
0
  6
Continuous
 62
     7
370
    15
100
AcDbCircle
 10
307.3469210875
 20
164.8153644647
 30
0.0
 40
0.1500000000000057
100
AcDbArc
 50
0.0
 51
90.0
  0
LINE
  5
5D
330
1F
100
AcDbEntity
  8
0
  6
Continuous
 62
     7
370
    15
100
AcDbLine
 10
313.8769240297
 20
156.1686200748
 30
0.0
 11
313.8769240297
 21
164.8153645645
 31
0.0
  0
LINE
  5
5E
330
1F
100
AcDbEntity
  8
0
  6
Continuous
 62
     7
370
    15
100
AcDbLine
 10
307.496920339
 20
164.8153645645
 30
0.0
 11
307.496920339
 21
156.1686200748
 31
0.0
  0
ARC
  5
5F
330
1F
100
AcDbEntity
  8
0
  6
Continuous
 62
     7
370
    15
100
AcDbCircle
 10
313.4069210875
 20
156.1686210593
 30
0.0
 40
0.4700000000000001
100
AcDbArc
 50
350.5402980318
 51
0.0
  0
ARC
  5
60
330
1F
100
AcDbEntity
  8
0
  6
Continuous
 62
     7
370
    15
100
AcDbCircle
 10
307.9669210875
 20
156.1686210593
 30
0.0
 40
0.4700000000000273
100
AcDbArc
 50
180.0
 51
189.4597019682
  0
LINE
  5
61
330
1F
100
AcDbEntity
  8
0
  6
Continuous
 62
     7
370
    15
100
AcDbLine
 10
307.5033099569
 20
156.0913724552
 30
0.0
 11
307.5909585871
 21
155.5653674255
 31
0.0
  0
LINE
  5
62
330
1F
100
AcDbEntity
  8
0
  6
Continuous
 62
     7
370
    15
100
AcDbLine
 10
313.7828857817
 20
155.5653674255
 30
0.0
 11
313.8705284514
 21
156.0913724552
 31
0.0
  0
LINE
  5
63
330
1F
100
AcDbEntity
  8
0
  6
Continuous
 62
     7
370
    15
100
AcDbLine
 10
308.4569187082
 20
165.1653630386
 30
0.0
 11
308.4569187082
 21
165.2153653751
 31
0.0
  0
LINE
  5
64
330
1F
100
AcDbEntity
  8
0
  6
Continuous
 62
     7
370
    15
100
AcDbLine
 10
307.4169189848
 20
165.2153653751
 30
0.0
 11
307.4169189848
 21
165.1653630386
 31
0.0
  0
LINE
  5
65
330
1F
100
AcDbEntity
  8
0
  6
Continuous
 62
     7
370
    15
100
AcDbLine
 10
255.0569207586
 20
165.1653630386
 30
0.0
 11
255.0569207586
 21
165.2153653751
 31
0.0
  0
LINE
  5
66
330
1F
100
AcDbEntity
  8
0
  6
Continuous
 62
     7
370
    15
100
AcDbLine
 10
254.0169210352
 20
165.2153653751
 30
0.0
 11
254.0169210352
 21
165.1653630386
 31
0.0
  0
LINE
  5
67
330
1F
100
AcDbEntity
  8
0
  6
Continuous
 62
     7
370
    15
100
AcDbLine
 10
249.556921161
 20
165.1653630386
 30
0.0
 11
249.556921161
 21
165.2153653751
 31
0.0
  0
LINE
  5
68
330
1F
100
AcDbEntity
  8
0
  6
Continuous
 62
     7
370
    15
100
AcDbLine
 10
248.516921065
 20
165.2153653751
 30
0.0
 11
248.516921065
 21
165.1653630386
 31
0.0
  0
LWPOLYLINE
  5
69
330
1F
100
AcDbEntity
  8
0
  6
Continuous
 62
     7
370
    15
100
AcDbPolyline
 90
        5
 70
   128
 43
0.0
 10
321.5993435301
 20
215.9932700644
 10
321.5993435301
 20
215.9932715546
 10
321.5993435301
 20
215.9932745348
 10
321.5993375696
 20
215.9932790051
 10
321.5993375696
 20
215.9932790051
  0
LINE
  5
6A
330
1F
100
AcDbEntity
  8
0
  6
Continuous
 62
     7
370
    15
100
AcDbLine
 10
322.1369237818
 20
210.0103644381
 30
0.0
 11
323.1369228281
 21
210.4103637586
 31
0.0
  0
LINE
  5
6B
330
1F
100
AcDbEntity
  8
0
  6
Continuous
 62
     7
370
    15
100
AcDbLine
 10
322.3690540709
 20
216.417510594
 30
0.0
 11
322.1369237818
 21
216.5103641997
 31
0.0
  0
LINE
  5
6C
330
1F
100
AcDbEntity
  8
0
  6
Continuous
 62
     7
370
    15
100
AcDbLine
 10
323.1369228281
 20
216.1103648792
 30
0.0
 11
322.8332788862
 21
216.2318212639
 31
0.0
  0
LINE
  5
6D
330
1F
100
AcDbEntity
  8
0
  6
Continuous
 62
     7
370
    15
100
AcDbLine
 10
323.1369228281
 20
210.4103637586
 30
0.0
 11
325.0779600062
 21
211.2838310848
 31
0.0
  0
LINE
  5
6E
330
1F
100
AcDbEntity
  8
0
  6
Continuous
 62
     7
370
    15
100
AcDbLine
 10
323.1825144209
 20
216.0898459803
 30
0.0
 11
323.1369228281
 21
216.1103648792
 31
0.0
  0
ARC
  5
6F
330
1F
100
AcDbEntity
  8
0
  6
Continuous
 62
     7
370
    15
100
AcDbCircle
 10
325.0369210875
 20
211.3750230257
 30
0.0
 40
0.0999999999999919
100
AcDbArc
 50
294.2277453179
 51
0.0
  0
LINE
  5
70
330
1F
100
AcDbEntity
  8
0
  6
Continuous
 62
     7
370
    15
100
AcDbLine
 10
321.9369203962
 20
212.5491840492
 30
0.0
 11
322.1369237818
 21
212.5456927071
 31
0.0
  0
LINE
  5
71
330
1F
100
AcDbEntity
  8
0
  6
Continuous
 62
     7
370
    15
100
AcDbLine
 10
322.8339106955
 20
216.2326452981
 30
0.0
 11
322.3691673197
 21
216.4185432444
 31
0.0
  0
LINE
  5
72
330
1F
100
AcDbEntity
  8
0
  6
Continuous
 62
     7
370
    15
100
AcDbLine
 10
321.6569216169
 20
212.048940147
 30
0.0
 11
321.6869206347
 21
212.1174497257
 31
0.0
  0
LINE
  5
73
330
1F
100
AcDbEntity
  8
0
  6
Continuous
 62
     7
370
    15
100
AcDbLine
 10
321.6869206347
 20
214.4032789122
 30
0.0
 11
321.6569216169
 21
214.4717884909
 31
0.0
  0
ARC
  5
74
330
1F
100
AcDbEntity
  8
0
  6
Continuous
 62
     7
370
    15
100
AcDbCircle
 10
323.0869210875
 20
212.7703644647
 30
0.0
 40
0.0500000000000114
100
AcDbArc
 50
270.0
 51
0.0
  0
ARC
  5
75
330
1F
100
AcDbEntity
  8
0
  6
Continuous
 62
     7
370
    15
100
AcDbCircle
 10
323.0869210875
 20
213.7503644647
 30
0.0
 40
0.0499999999999829
100
AcDbArc
 50
0.0
 51
90.0
  0
LINE
  5
76
330
1F
100
AcDbEntity
  8
0
  6
Continuous
 62
     7
370
    15
100
AcDbLine
 10
321.6869206347
 20
212.7203641187
 30
0.0
 11
323.0869204916
 21
212.7203641187
 31
0.0
  0
LINE
  5
77
330
1F
100
AcDbEntity
  8
0
  6
Continuous
 62
     7
370
    15
100
AcDbLine
 10
323.0869204916
 20
213.8003645192
 30
0.0
 11
321.6869206347
 21
213.8003645192
 31
0.0
  0
LINE
  5
78
330
1F
100
AcDbEntity
  8
0
  6
Continuous
 62
     7
370
    15
100
AcDbLine
 10
321.6869206347
 20
212.6953644405
 30
0.0
 11
321.9369203962
 21
212.6953644405
 31
0.0
  0
LINE
  5
79
330
1F
100
AcDbEntity
  8
0
  6
Continuous
 62
     7
370
    15
100
AcDbLine
 10
242.8969211124
 20
213.695364977
 30
0.0
 11
242.6969210796
 21
213.4953645717
 31
0.0
  0
LINE
  5
7A
330
1F
100
AcDbEntity
  8
0
  6
Continuous
 62
     7
370
    15
100
AcDbLine
 10
242.6969210796
 20
211.6953639041
 30
0.0
 11
242.8969211124
 21
211.4953649889
 31
0.0
  0
LINE
  5
7B
330
1F
100
AcDbEntity
  8
0
  6
Continuous
 62
     7
370
    15
100
AcDbLine
 10
242.8969211124
 20
211.4953649889
 30
0.0
 11
243.0969211452
 21
211.6953639041
 31
0.0
  0
LINE
  5
7C
330
1F
100
AcDbEntity
  8
0
  6
Continuous
 62
     7
370
    15
100
AcDbLine
 10
243.0969211452
 20
213.4953645717
 30
0.0
 11
242.8969211124
 21
213.695364977
 31
0.0
  0
LINE
  5
7D
330
1F
100
AcDbEntity
  8
0
  6
Continuous
 62
     7
370
    15
100
AcDbLine
 10
242.4969210468
 20
213.695364977
 30
0.0
 11
242.296921014
 21
213.4953645717
 31
0.0
  0
LINE
  5
7E
330
1F
100
AcDbEntity
  8
0
  6
Continuous
 62
     7
370
    15
100
AcDbLine
 10
242.296921014
 20
211.6953639041
 30
0.0
 11
242.4969210468
 21
211.4953649889
 31
0.0
  0
LINE
  5
7F
330
1F
100
AcDbEntity
  8
0
  6
Continuous
 62
     7
370
    15
100
AcDbLine
 10
242.4969210468
 20
211.4953649889
 30
0.0
 11
242.6969210796
 21
211.6953639041
 31
0.0
  0
LINE
  5
80
330
1F
100
AcDbEntity
  8
0
  6
Continuous
 62
     7
370
    15
100
AcDbLine
 10
242.6969210796
 20
213.4953645717
 30
0.0
 11
242.4969210468
 21
213.695364977
 31
0.0
  0
LINE
  5
81
330
1F
100
AcDbEntity
  8
0
  6
Continuous
 62
     7
370
    15
100
AcDbLine
 10
242.0969211675
 20
213.695364977
 30
0.0
 11
241.8969211347
 21
213.4953645717
 31
0.0
  0
LINE
  5
82
330
1F
100
AcDbEntity
  8
0
  6
Continuous
 62
     7
370
    15
100
AcDbLine
 10
241.8969211347
 20
211.6953639041
 30
0.0
 11
242.0969211675
 21
211.4953649889
 31
0.0
  0
LINE
  5
83
330
1F
100
AcDbEntity
  8
0
  6
Continuous
 62
     7
370
    15
100
AcDbLine
 10
242.0969211675
 20
211.4953649889
 30
0.0
 11
242.296921014
 21
211.6953639041
 31
0.0
  0
LINE
  5
84
330
1F
100
AcDbEntity
  8
0
  6
Continuous
 62
     7
370
    15
100
AcDbLine
 10
242.296921014
 20
213.4953645717
 30
0.0
 11
242.0969211675
 21
213.695364977
 31
0.0
  0
LINE
  5
85
330
1F
100
AcDbEntity
  8
0
  6
Continuous
 62
     7
370
    15
100
AcDbLine
 10
241.696921102
 20
213.695364977
 30
0.0
 11
241.4969210692
 21
213.4953645717
 31
0.0
  0
LINE
  5
86
330
1F
100
AcDbEntity
  8
0
  6
Continuous
 62
     7
370
    15
100
AcDbLine
 10
241.4969210692
 20
211.6953639041
 30
0.0
 11
241.696921102
 21
211.4953649889
 31
0.0
  0
LINE
  5
87
330
1F
100
AcDbEntity
  8
0
  6
Continuous
 62
     7
370
    15
100
AcDbLine
 10
241.696921102
 20
211.4953649889
 30
0.0
 11
241.8969211347
 21
211.6953639041
 31
0.0
  0
LINE
  5
88
330
1F
100
AcDbEntity
  8
0
  6
Continuous
 62
     7
370
    15
100
AcDbLine
 10
241.8969211347
 20
213.4953645717
 30
0.0
 11
241.696921102
 21
213.695364977
 31
0.0
  0
LINE
  5
89
330
1F
100
AcDbEntity
  8
0
  6
Continuous
 62
     7
370
    15
100
AcDbLine
 10
243.0969211452
 20
211.4953649889
 30
0.0
 11
244.6369210903
 21
211.4953649889
 31
0.0
  0
LINE
  5
8A
330
1F
100
AcDbEntity
  8
0
  6
Continuous
 62
     7
370
    15
100
AcDbLine
 10
244.6369210903
 20
213.695364977
 30
0.0
 11
243.0969211452
 21
213.695364977
 31
0.0
  0
LINE
  5
8B
330
1F
100
AcDbEntity
  8
0
  6
Continuous
 62
     7
370
    15
100
AcDbLine
 10
313.9569194235
 20
165.1653630386
 30
0.0
 11
313.9569194235
 21
165.2153653751
 31
0.0
  0
LINE
  5
8C
330
1F
100
AcDbEntity
  8
0
  6
Continuous
 62
     7
370
    15
100
AcDbLine
 10
312.9169197001
 20
165.2153653751
 30
0.0
 11
312.9169197001
 21
165.1653630386
 31
0.0
  0
LINE
  5
8D
330
1F
100
AcDbEntity
  8
0
  6
Continuous
 62
     7
370
    15
100
AcDbLine
 10
320.1815099634
 20
219.3453645061
 30
0.0
 11
320.1815099634
 21
219.3953646074
 31
0.0
  0
LINE
  5
8E
330
1F
100
AcDbEntity
  8
0
  6
Continuous
 62
     7
370
    15
100
AcDbLine
 10
319.3815083422
 20
219.3953646074
 30
0.0
 11
319.3815083422
 21
219.3453645061
 31
0.0
  0
LINE
  5
8F
330
1F
100
AcDbEntity
  8
0
  6
Continuous
 62
     7
370
    15
100
AcDbLine
 10
318.7515110888
 20
219.3453645061
 30
0.0
 11
318.7515110888
 21
219.3953646074
 31
0.0
  0
LINE
  5
90
330
1F
100
AcDbEntity
  8
0
  6
Continuous
 62
     7
370
    15
100
AcDbLine
 10
317.9515094675
 20
219.3953646074
 30
0.0
 11
317.9515094675
 21
219.3453645061
 31
0.0
  0
LINE
  5
91
330
1F
100
AcDbEntity
  8
0
  6
Continuous
 62
     7
370
    15
100
AcDbLine
 10
313.3369238295
 20
148.1653673302
 30
0.0
 11
308.0369205393
 21
148.1653673302
 31
0.0
  0
LINE
  5
92
330
1F
100
AcDbEntity
  8
0
  6
Continuous
 62
     7
370
    15
100
AcDbLine
 10
313.5369212545
 20
148.7653655659
 30
0.0
 11
307.8369231142
 21
148.7653655659
 31
0.0
  0
LINE
  5
93
330
1F
100
AcDbEntity
  8
0
  6
Continuous
 62
     7
370
    15
100
AcDbLine
 10
254.4369214393
 20
148.1653673302
 30
0.0
 11
249.1369211294
 21
148.1653673302
 31
0.0
  0
LINE
  5
94
330
1F
100
AcDbEntity
  8
0
  6
Continuous
 62
     7
370
    15
100
AcDbLine
 10
254.6369210996
 20
148.7653655659
 30
0.0
 11
248.9369210966
 21
148.7653655659
 31
0.0
  0
LINE
  5
95
330
1F
100
AcDbEntity
  8
0
  6
Continuous
 62
     7
370
    15
100
AcDbLine
 10
255.2869209267
 20
164.9653656135
 30
0.0
 11
255.2869209267
 21
165.1653630386
 31
0.0
  0
LINE
  5
96
330
1F
100
AcDbEntity
  8
0
  6
Continuous
 62
     7
370
    15
100
AcDbLine
 10
248.2869210832
 20
164.9653656135
 30
0.0
 11
255.2869209267
 21
164.9653656135
 31
0.0
  0
LINE
  5
97
330
1F
100
AcDbEntity
  8
0
  6
Continuous
 62
     7
370
    15
100
AcDbLine
 10
248.2869210832
 20
164.9653656135
 30
0.0
 11
248.2869210832
 21
165.1653630386
 31
0.0
  0
LINE
  5
98
330
1F
100
AcDbEntity
  8
0
  6
Continuous
 62
     7
370
    15
100
AcDbLine
 10
248.2869210832
 20
165.1653630386
 30
0.0
 11
255.2869209267
 21
165.1653630386
 31
0.0
  0
LINE
  5
99
330
1F
100
AcDbEntity
  8
0
  6
Continuous
 62
     7
370
    15
100
AcDbLine
 10
254.8828863718
 20
155.5653674255
 30
0.0
 11
248.6909561969
 21
155.5653674255
 31
0.0
  0
LINE
  5
9A
330
1F
100
AcDbEntity
  8
0
  6
Continuous
 62
     7
370
    15
100
AcDbLine
 10
314.1869218268
 20
164.9653656135
 30
0.0
 11
314.1869218268
 21
165.1653630386
 31
0.0
  0
LINE
  5
9B
330
1F
100
AcDbEntity
  8
0
  6
Continuous
 62
     7
370
    15
100
AcDbLine
 10
307.186922542
 20
164.9653656135
 30
0.0
 11
314.1869218268
 21
164.9653656135
 31
0.0
  0
LINE
  5
9C
330
1F
100
AcDbEntity
  8
0
  6
Continuous
 62
     7
370
    15
100
AcDbLine
 10
307.186922542
 20
164.9653656135
 30
0.0
 11
307.186922542
 21
165.1653630386
 31
0.0
  0
LINE
  5
9D
330
1F
100
AcDbEntity
  8
0
  6
Continuous
 62
     7
370
    15
100
AcDbLine
 10
307.186922542
 20
165.1653630386
 30
0.0
 11
314.1869218268
 21
165.1653630386
 31
0.0
  0
LINE
  5
9E
330
1F
100
AcDbEntity
  8
0
  6
Continuous
 62
     7
370
    15
100
AcDbLine
 10
313.7828857817
 20
155.5653674255
 30
0.0
 11
307.5909585871
 21
155.5653674255
 31
0.0
  0
LINE
  5
9F
330
1F
100
AcDbEntity
  8
0
  6
Continuous
 62
     7
370
    15
100
AcDbLine
 10
249.7869209565
 20
206.5953639994
 30
0.0
 11
249.7869209565
 21
169.2953629146
 31
0.0
  0
LINE
  5
A0
330
1F
100
AcDbEntity
  8
0
  6
Continuous
 62
     7
370
    15
100
AcDbLine
 10
249.795499555
 20
206.5953639994
 30
0.0
 11
249.9369212605
 21
206.5953639994
 31
0.0
  0
LINE
  5
A1
330
1F
100
AcDbEntity
  8
0
  6
Continuous
 62
     7
370
    15
100
AcDbLine
 10
249.9369212605
 20
206.5953639994
 30
0.0
 11
249.9369212605
 21
169.2953629146
 31
0.0
  0
LINE
  5
A2
330
1F
100
AcDbEntity
  8
0
  6
Continuous
 62
     7
370
    15
100
AcDbLine
 10
249.9369212605
 20
206.5953639994
 30
0.0
 11
253.6369213082
 21
206.5953639994
 31
0.0
  0
LINE
  5
A3
330
1F
100
AcDbEntity
  8
0
  6
Continuous
 62
     7
370
    15
100
AcDbLine
 10
253.6369213082
 20
206.5953639994
 30
0.0
 11
253.6369213082
 21
169.2953629146
 31
0.0
  0
LINE
  5
A4
330
1F
100
AcDbEntity
  8
0
  6
Continuous
 62
     7
370
    15
100
AcDbLine
 10
253.7869208671
 20
206.5953639994
 30
0.0
 11
253.7869208671
 21
169.2953629146
 31
0.0
  0
LINE
  5
A5
330
1F
100
AcDbEntity
  8
0
  6
Continuous
 62
     7
370
    15
100
AcDbLine
 10
253.6369213082
 20
206.5953639994
 30
0.0
 11
253.7783422686
 21
206.5953639994
 31
0.0
  0
LINE
  5
A6
330
1F
100
AcDbEntity
  8
0
  6
Continuous
 62
     7
370
    15
100
AcDbLine
 10
308.6869211115
 20
206.5953639994
 30
0.0
 11
308.6869211115
 21
169.2953629146
 31
0.0
  0
LINE
  5
A7
330
1F
100
AcDbEntity
  8
0
  6
Continuous
 62
     7
370
    15
100
AcDbLine
 10
308.6954982199
 20
206.5953639994
 30
0.0
 11
308.8369221605
 21
206.5953639994
 31
0.0
  0
LINE
  5
A8
330
1F
100
AcDbEntity
  8
0
  6
Continuous
 62
     7
370
    15
100
AcDbLine
 10
308.8369221605
 20
206.5953639994
 30
0.0
 11
308.8369221605
 21
169.2953629146
 31
0.0
  0
LINE
  5
A9
330
1F
100
AcDbEntity
  8
0
  6
Continuous
 62
     7
370
    15
100
AcDbLine
 10
308.8369221605
 20
206.5953639994
 30
0.0
 11
312.5369222082
 21
206.5953639994
 31
0.0
  0
LINE
  5
AA
330
1F
100
AcDbEntity
  8
0
  6
Continuous
 62
     7
370
    15
100
AcDbLine
 10
312.5369222082
 20
206.5953639994
 30
0.0
 11
312.5369222082
 21
169.2953629146
 31
0.0
  0
LINE
  5
AB
330
1F
100
AcDbEntity
  8
0
  6
Continuous
 62
     7
370
    15
100
AcDbLine
 10
312.6869232573
 20
206.5953639994
 30
0.0
 11
312.6869232573
 21
169.2953629146
 31
0.0
  0
LINE
  5
AC
330
1F
100
AcDbEntity
  8
0
  6
Continuous
 62
     7
370
    15
100
AcDbLine
 10
312.5369222082
 20
206.5953639994
 30
0.0
 11
312.6783401884
 21
206.5953639994
 31
0.0
  0
LINE
  5
AD
330
1F
100
AcDbEntity
  8
0
  6
Continuous
 62
     7
370
    15
100
AcDbLine
 10
246.0369210869
 20
206.5953639994
 30
0.0
 11
247.6069211207
 21
206.5953639994
 31
0.0
  0
LINE
  5
AE
330
1F
100
AcDbEntity
  8
0
  6
Continuous
 62
     7
370
    15
100
AcDbLine
 10
245.7869210925
 20
206.5953639994
 30
0.0
 11
245.7869210925
 21
206.8153647433
 31
0.0
  0
LINE
  5
AF
330
1F
100
AcDbEntity
  8
0
  6
Continuous
 62
     7
370
    15
100
AcDbLine
 10
245.7869210925
 20
206.5953639994
 30
0.0
 11
246.0369210869
 21
206.5953639994
 31
0.0
  0
LINE
  5
B0
330
1F
100
AcDbEntity
  8
0
  6
Continuous
 62
     7
370
    15
100
AcDbLine
 10
247.8569210686
 20
206.5953639994
 30
0.0
 11
247.8569210686
 21
206.8153647433
 31
0.0
  0
LINE
  5
B1
330
1F
100
AcDbEntity
  8
0
  6
Continuous
 62
     7
370
    15
100
AcDbLine
 10
247.6069211207
 20
206.5953639994
 30
0.0
 11
247.8569210686
 21
206.5953639994
 31
0.0
  0
LINE
  5
B2
330
1F
100
AcDbEntity
  8
0
  6
Continuous
 62
     7
370
    15
100
AcDbLine
 10
247.956921085
 20
206.5953639994
 30
0.0
 11
247.956921085
 21
206.8153647433
 31
0.0
  0
LINE
  5
B3
330
1F
100
AcDbEntity
  8
0
  6
Continuous
 62
     7
370
    15
100
AcDbLine
 10
247.956921085
 20
206.5953639994
 30
0.0
 11
248.2069210328
 21
206.5953639994
 31
0.0
  0
LINE
  5
B4
330
1F
100
AcDbEntity
  8
0
  6
Continuous
 62
     7
370
    15
100
AcDbLine
 10
248.2069210328
 20
206.5953639994
 30
0.0
 11
249.795499555
 21
206.5953639994
 31
0.0
  0
LINE
  5
B5
330
1F
100
AcDbEntity
  8
0
  6
Continuous
 62
     7
370
    15
100
AcDbLine
 10
253.7783422686
 20
206.5953639994
 30
0.0
 11
255.3669207908
 21
206.5953639994
 31
0.0
  0
LINE
  5
B6
330
1F
100
AcDbEntity
  8
0
  6
Continuous
 62
     7
370
    15
100
AcDbLine
 10
255.6169212975
 20
206.5953639994
 30
0.0
 11
255.6169212975
 21
206.8153647433
 31
0.0
  0
LINE
  5
B7
330
1F
100
AcDbEntity
  8
0
  6
Continuous
 62
     7
370
    15
100
AcDbLine
 10
255.3669207908
 20
206.5953639994
 30
0.0
 11
255.6169212975
 21
206.5953639994
 31
0.0
  0
LINE
  5
B8
330
1F
100
AcDbEntity
  8
0
  6
Continuous
 62
     7
370
    15
100
AcDbLine
 10
255.7169207551
 20
206.5953639994
 30
0.0
 11
255.7169207551
 21
206.8153647433
 31
0.0
  0
LINE
  5
B9
330
1F
100
AcDbEntity
  8
0
  6
Continuous
 62
     7
370
    15
100
AcDbLine
 10
255.7169207551
 20
206.5953639994
 30
0.0
 11
255.9669212617
 21
206.5953639994
 31
0.0
  0
LINE
  5
BA
330
1F
100
AcDbEntity
  8
0
  6
Continuous
 62
     7
370
    15
100
AcDbLine
 10
255.9669212617
 20
206.5953639994
 30
0.0
 11
257.5369210161
 21
206.5953639994
 31
0.0
  0
LINE
  5
BB
330
1F
100
AcDbEntity
  8
0
  6
Continuous
 62
     7
370
    15
100
AcDbLine
 10
257.7869207777
 20
206.5953639994
 30
0.0
 11
257.7869207777
 21
206.8153647433
 31
0.0
  0
LINE
  5
BC
330
1F
100
AcDbEntity
  8
0
  6
Continuous
 62
     7
370
    15
100
AcDbLine
 10
257.5369210161
 20
206.5953639994
 30
0.0
 11
257.7869207777
 21
206.5953639994
 31
0.0
  0
LINE
  5
BD
330
1F
100
AcDbEntity
  8
0
  6
Continuous
 62
     7
370
    15
100
AcDbLine
 10
247.8569210686
 20
206.5953639994
 30
0.0
 11
247.956921085
 21
206.5953639994
 31
0.0
  0
LINE
  5
BE
330
1F
100
AcDbEntity
  8
0
  6
Continuous
 62
     7
370
    15
100
AcDbLine
 10
255.6169212975
 20
206.5953639994
 30
0.0
 11
255.7169207551
 21
206.5953639994
 31
0.0
  0
LINE
  5
BF
330
1F
100
AcDbEntity
  8
0
  6
Continuous
 62
     7
370
    15
100
AcDbLine
 10
304.6869189657
 20
206.5953639994
 30
0.0
 11
304.6869189657
 21
206.8153647433
 31
0.0
  0
LINE
  5
C0
330
1F
100
AcDbEntity
  8
0
  6
Continuous
 62
     7
370
    15
100
AcDbLine
 10
304.6869189657
 20
206.5953639994
 30
0.0
 11
304.9369187273
 21
206.5953639994
 31
0.0
  0
LINE
  5
C1
330
1F
100
AcDbEntity
  8
0
  6
Continuous
 62
     7
370
    15
100
AcDbLine
 10
304.9369187273
 20
206.5953639994
 30
0.0
 11
306.5069229521
 21
206.5953639994
 31
0.0
  0
LINE
  5
C2
330
1F
100
AcDbEntity
  8
0
  6
Continuous
 62
     7
370
    15
100
AcDbLine
 10
306.7569227137
 20
206.5953639994
 30
0.0
 11
306.7569227137
 21
206.8153647433
 31
0.0
  0
LINE
  5
C3
330
1F
100
AcDbEntity
  8
0
  6
Continuous
 62
     7
370
    15
100
AcDbLine
 10
306.5069229521
 20
206.5953639994
 30
0.0
 11
306.7569227137
 21
206.5953639994
 31
0.0
  0
LINE
  5
C4
330
1F
100
AcDbEntity
  8
0
  6
Continuous
 62
     7
370
    15
100
AcDbLine
 10
306.8569214262
 20
206.5953639994
 30
0.0
 11
306.8569214262
 21
206.8153647433
 31
0.0
  0
LINE
  5
C5
330
1F
100
AcDbEntity
  8
0
  6
Continuous
 62
     7
370
    15
100
AcDbLine
 10
306.8569214262
 20
206.5953639994
 30
0.0
 11
307.1069211878
 21
206.5953639994
 31
0.0
  0
LINE
  5
C6
330
1F
100
AcDbEntity
  8
0
  6
Continuous
 62
     7
370
    15
100
AcDbLine
 10
307.1069211878
 20
206.5953639994
 30
0.0
 11
308.6954982199
 21
206.5953639994
 31
0.0
  0
LINE
  5
C7
330
1F
100
AcDbEntity
  8
0
  6
Continuous
 62
     7
370
    15
100
AcDbLine
 10
312.6783401884
 20
206.5953639994
 30
0.0
 11
314.266923181
 21
206.5953639994
 31
0.0
  0
LINE
  5
C8
330
1F
100
AcDbEntity
  8
0
  6
Continuous
 62
     7
370
    15
100
AcDbLine
 10
314.5169229426
 20
206.5953639994
 30
0.0
 11
314.5169229426
 21
206.8153647433
 31
0.0
  0
LINE
  5
C9
330
1F
100
AcDbEntity
  8
0
  6
Continuous
 62
     7
370
    15
100
AcDbLine
 10
314.266923181
 20
206.5953639994
 30
0.0
 11
314.5169229426
 21
206.5953639994
 31
0.0
  0
LINE
  5
CA
330
1F
100
AcDbEntity
  8
0
  6
Continuous
 62
     7
370
    15
100
AcDbLine
 10
315.3162152685
 20
206.845363761
 30
0.0
 11
315.477630607
 21
206.845363761
 31
0.0
  0
LINE
  5
CB
330
1F
100
AcDbEntity
  8
0
  6
Continuous
 62
     7
370
    15
100
AcDbLine
 10
314.8669214167
 20
206.5953639994
 30
0.0
 11
316.436919681
 21
206.5953639994
 31
0.0
  0
LINE
  5
CC
330
1F
100
AcDbEntity
  8
0
  6
Continuous
 62
     7
370
    15
100
AcDbLine
 10
314.6169216551
 20
206.5953639994
 30
0.0
 11
314.6169216551
 21
206.8153647433
 31
0.0
  0
LINE
  5
CD
330
1F
100
AcDbEntity
  8
0
  6
Continuous
 62
     7
370
    15
100
AcDbLine
 10
314.6169216551
 20
206.5953639994
 30
0.0
 11
314.8669214167
 21
206.5953639994
 31
0.0
  0
LINE
  5
CE
330
1F
100
AcDbEntity
  8
0
  6
Continuous
 62
     7
370
    15
100
AcDbLine
 10
316.6869194426
 20
206.5953639994
 30
0.0
 11
316.6869194426
 21
206.8153647433
 31
0.0
  0
LINE
  5
CF
330
1F
100
AcDbEntity
  8
0
  6
Continuous
 62
     7
370
    15
100
AcDbLine
 10
316.436919681
 20
206.5953639994
 30
0.0
 11
316.6869194426
 21
206.5953639994
 31
0.0
  0
LINE
  5
D0
330
1F
100
AcDbEntity
  8
0
  6
Continuous
 62
     7
370
    15
100
AcDbLine
 10
306.7569227137
 20
206.5953639994
 30
0.0
 11
306.8569214262
 21
206.5953639994
 31
0.0
  0
LINE
  5
D1
330
1F
100
AcDbEntity
  8
0
  6
Continuous
 62
     7
370
    15
100
AcDbLine
 10
314.5169229426
 20
206.5953639994
 30
0.0
 11
314.6169216551
 21
206.5953639994
 31
0.0
  0
LINE
  5
D2
330
1F
100
AcDbEntity
  8
0
  6
Continuous
 62
     7
370
    15
100
AcDbLine
 10
244.7676282089
 20
165.6953615795
 30
0.0
 11
320.6062168993
 21
165.6953615795
 31
0.0
  0
LINE
  5
D3
330
1F
100
AcDbEntity
  8
0
  6
Continuous
 62
     7
370
    15
100
AcDbLine
 10
244.7676282089
 20
169.0903646599
 30
0.0
 11
244.7676282089
 21
165.6953615795
 31
0.0
  0
LINE
  5
D4
330
1F
100
AcDbEntity
  8
0
  6
Continuous
 62
     7
370
    15
100
AcDbLine
 10
244.7676282089
 20
169.0903646599
 30
0.0
 11
320.6062168993
 21
169.0903646599
 31
0.0
  0
LINE
  5
D5
330
1F
100
AcDbEntity
  8
0
  6
Continuous
 62
     7
370
    15
100
AcDbLine
 10
320.6062168993
 20
169.0903646599
 30
0.0
 11
320.6062168993
 21
165.6953615795
 31
0.0
  0
LWPOLYLINE
  5
D6
330
1F
100
AcDbEntity
  8
0
  6
Continuous
 62
     7
370
    15
100
AcDbPolyline
 90
        6
 70
   128
 43
0.0
 10
320.4819233336
 20
169.2953629146
 10
320.5105395235
 20
169.2821008812
 10
320.5391676344
 20
169.2440135132
 10
320.5677957453
 20
169.1860301147
 10
320.5964238562
 20
169.1156608711
 10
320.6062168993
 20
169.0903646599
  0
LINE
  5
D7
330
1F
100
AcDbEntity
  8
0
  6
Continuous
 62
     7
370
    15
100
AcDbLine
 10
244.8919210762
 20
169.2953629146
 30
0.0
 11
320.4819233336
 21
169.2953629146
 31
0.0
  0
LWPOLYLINE
  5
D8
330
1F
100
AcDbEntity
  8
0
  6
Continuous
 62
     7
370
    15
100
AcDbPolyline
 90
        6
 70
   128
 43
0.0
 10
244.7676282089
 20
169.0903646599
 10
244.7962459821
 20
169.1629035126
 10
244.8248741396
 20
169.2260725151
 10
244.8535024367
 20
169.2716700683
 10
244.8821307339
 20
169.2937953125
 10
244.8919210762
 20
169.2953629146
  0
ARC
  5
D9
330
1F
100
AcDbEntity
  8
0
  6
Continuous
 62
     7
370
    15
100
AcDbCircle
 10
244.8919217789
 20
169.0903622342
 30
0.0
 40
0.2050006804459308
100
AcDbArc
 50
90.0001964006
 51
179.9993220482
  0
ARC
  5
DA
330
1F
100
AcDbEntity
  8
0
  6
Continuous
 62
     7
370
    15
100
AcDbCircle
 10
244.8836978007
 20
169.0935993995
 30
0.0
 40
0.1168214913091721
100
AcDbArc
 50
133.5492298289
 51
181.5866996698
  0
LINE
  5
DB
330
1F
100
AcDbEntity
  8
0
  6
Continuous
 62
     7
370
    15
100
AcDbLine
 10
244.6869210985
 20
169.0903646599
 30
0.0
 11
244.7669211023
 21
169.0903646599
 31
0.0
  0
ARC
  5
DC
330
1F
100
AcDbEntity
  8
0
  6
Continuous
 62
     7
370
    15
100
AcDbCircle
 10
320.4819201551
 20
169.0903614814
 30
0.0
 40
0.205001433275412
100
AcDbArc
 50
0.0008883508
 51
89.9991116492
  0
LINE
  5
DD
330
1F
100
AcDbEntity
  8
0
  6
Continuous
 62
     7
370
    15
100
AcDbLine
 10
320.6869215883
 20
169.0903646599
 30
0.0
 11
320.6069202341
 21
169.0903646599
 31
0.0
  0
LWPOLYLINE
  5
DE
330
1F
100
AcDbEntity
  8
0
  6
Continuous
 62
     7
370
    15
100
AcDbPolyline
 90
        3
 70
   128
 43
0.0
 10
320.6069202341
 20
169.0903646599
 10
320.5970795073
 20
169.1389841686
 10
320.5720097937
 20
169.1756708275
  0
LINE
  5
DF
330
1F
100
AcDbEntity
  8
0
  6
Continuous
 62
     7
370
    15
100
AcDbLine
 10
244.6869210985
 20
165.6953615795
 30
0.0
 11
244.7669211023
 21
165.6953615795
 31
0.0
  0
LINE
  5
E0
330
1F
100
AcDbEntity
  8
0
  6
Continuous
 62
     7
370
    15
100
AcDbLine
 10
244.6869210985
 20
169.0903646599
 30
0.0
 11
244.6869210985
 21
165.6953615795
 31
0.0
  0
LINE
  5
E1
330
1F
100
AcDbEntity
  8
0
  6
Continuous
 62
     7
370
    15
100
AcDbLine
 10
244.7669211023
 20
169.0903646599
 30
0.0
 11
244.7669211023
 21
165.6953615795
 31
0.0
  0
LINE
  5
E2
330
1F
100
AcDbEntity
  8
0
  6
Continuous
 62
     7
370
    15
100
AcDbLine
 10
320.6869215883
 20
169.0903646599
 30
0.0
 11
320.6869215883
 21
165.6953615795
 31
0.0
  0
LINE
  5
E3
330
1F
100
AcDbEntity
  8
0
  6
Continuous
 62
     7
370
    15
100
AcDbLine
 10
320.6869215883
 20
165.6953615795
 30
0.0
 11
320.6069202341
 21
165.6953615795
 31
0.0
  0
LINE
  5
E4
330
1F
100
AcDbEntity
  8
0
  6
Continuous
 62
     7
370
    15
100
AcDbLine
 10
320.6069202341
 20
169.0903646599
 30
0.0
 11
320.6069202341
 21
165.6953615795
 31
0.0
  0
LINE
  5
E5
330
1F
100
AcDbEntity
  8
0
  6
Continuous
 62
     7
370
    15
100
AcDbLine
 10
315.5362160124
 20
165.4903633247
 30
0.0
 11
315.5362160124
 21
165.2153653751
 31
0.0
  0
LINE
  5
E6
330
1F
100
AcDbEntity
  8
0
  6
Continuous
 62
     7
370
    15
100
AcDbLine
 10
246.9376282014
 20
165.2153653751
 30
0.0
 11
315.5362160124
 21
165.2153653751
 31
0.0
  0
LINE
  5
E7
330
1F
100
AcDbEntity
  8
0
  6
Continuous
 62
     7
370
    15
100
AcDbLine
 10
246.9376282014
 20
165.2153653751
 30
0.0
 11
246.9376282014
 21
165.4903633247
 31
0.0
  0
LINE
  5
E8
330
1F
100
AcDbEntity
  8
0
  6
Continuous
 62
     7
370
    15
100
AcDbLine
 10
246.9376282014
 20
165.4903633247
 30
0.0
 11
315.5362160124
 21
165.4903633247
 31
0.0
  0
LINE
  5
E9
330
1F
100
AcDbEntity
  8
0
  6
Continuous
 62
     7
370
    15
100
AcDbLine
 10
315.5362160124
 20
165.6953615795
 30
0.0
 11
315.5362160124
 21
165.4903633247
 31
0.0
  0
LINE
  5
EA
330
1F
100
AcDbEntity
  8
0
  6
Continuous
 62
     7
370
    15
100
AcDbLine
 10
246.9376282014
 20
165.6953615795
 30
0.0
 11
246.9376282014
 21
165.4903633247
 31
0.0
  0
LINE
  5
EB
330
1F
100
AcDbEntity
  8
0
  6
Continuous
 62
     7
370
    15
100
AcDbLine
 10
246.9369211413
 20
165.3653664242
 30
0.0
 11
246.7869211167
 21
165.3653664242
 31
0.0
  0
LINE
  5
EC
330
1F
100
AcDbEntity
  8
0
  6
Continuous
 62
     7
370
    15
100
AcDbLine
 10
246.9369211413
 20
165.6953615795
 30
0.0
 11
246.9369211413
 21
165.3653664242
 31
0.0
  0
LINE
  5
ED
330
1F
100
AcDbEntity
  8
0
  6
Continuous
 62
     7
370
    15
100
AcDbLine
 10
246.7869211167
 20
165.6953615795
 30
0.0
 11
246.7869211167
 21
165.3653664242
 31
0.0
  0
LINE
  5
EE
330
1F
100
AcDbEntity
  8
0
  6
Continuous
 62
     7
370
    15
100
AcDbLine
 10
315.6869203962
 20
165.3653664242
 30
0.0
 11
315.6869203962
 21
165.6953615795
 31
0.0
  0
LINE
  5
EF
330
1F
100
AcDbEntity
  8
0
  6
Continuous
 62
     7
370
    15
100
AcDbLine
 10
315.5369193472
 20
165.3653664242
 30
0.0
 11
315.6869203962
 21
165.3653664242
 31
0.0
  0
LINE
  5
F0
330
1F
100
AcDbEntity
  8
0
  6
Continuous
 62
     7
370
    15
100
AcDbLine
 10
315.5369193472
 20
165.6953615795
 30
0.0
 11
315.5369193472
 21
165.3653664242
 31
0.0
  0
ARC
  5
F1
330
1F
100
AcDbEntity
  8
0
  6
Continuous
 62
     7
370
    15
100
AcDbCircle
 10
247.0619210875
 20
165.4903644647
 30
0.0
 40
0.2750000000000026
100
AcDbArc
 50
207.0356917894
 51
243.1295854597
  0
LINE
  5
F2
330
1F
100
AcDbEntity
  8
0
  6
Continuous
 62
     7
370
    15
100
AcDbLine
 10
246.9369211413
 20
165.4903633247
 30
0.0
 11
246.9376282014
 21
165.4770893703
 31
0.0
  0
ARC
  5
F3
330
1F
100
AcDbEntity
  8
0
  6
Continuous
 62
     7
370
    15
100
AcDbCircle
 10
315.4119210875
 20
165.4903644647
 30
0.0
 40
0.2750000000000005
100
AcDbArc
 50
296.8704145403
 51
332.9643082106
  0
LINE
  5
F4
330
1F
100
AcDbEntity
  8
0
  6
Continuous
 62
     7
370
    15
100
AcDbLine
 10
315.5362160124
 20
165.4770893703
 30
0.0
 11
315.5369193472
 21
165.4903633247
 31
0.0
  0
LINE
  5
F5
330
1F
100
AcDbEntity
  8
0
  6
Continuous
 62
     7
370
    15
100
AcDbLine
 10
314.886918775
 20
238.7036269258
 30
0.0
 11
314.7669227041
 21
238.7036269258
 31
0.0
  0
LINE
  5
F6
330
1F
100
AcDbEntity
  8
0
  6
Continuous
 62
     7
370
    15
100
AcDbLine
 10
314.886918775
 20
238.1975395332
 30
0.0
 11
314.7669227041
 21
238.1975395332
 31
0.0
  0
LINE
  5
F7
330
1F
100
AcDbEntity
  8
0
  6
Continuous
 62
     7
370
    15
100
AcDbLine
 10
314.886918775
 20
238.7036269258
 30
0.0
 11
314.886918775
 21
238.1975395332
 31
0.0
  0
LINE
  5
F8
330
1F
100
AcDbEntity
  8
0
  6
Continuous
 62
     7
370
    15
100
AcDbLine
 10
314.7669227041
 20
238.7036269258
 30
0.0
 11
314.7669227041
 21
238.1975395332
 31
0.0
  0
LINE
  5
F9
330
1F
100
AcDbEntity
  8
0
  6
Continuous
 62
     7
370
    15
100
AcDbLine
 10
314.7669227041
 20
237.6475808869
 30
0.0
 11
314.886918775
 21
237.6475808869
 31
0.0
  0
LINE
  5
FA
330
1F
100
AcDbEntity
  8
0
  6
Continuous
 62
     7
370
    15
100
AcDbLine
 10
314.886918775
 20
238.1975395332
 30
0.0
 11
314.886918775
 21
237.6475808869
 31
0.0
  0
LINE
  5
FB
330
1F
100
AcDbEntity
  8
0
  6
Continuous
 62
     7
370
    15
100
AcDbLine
 10
314.7669227041
 20
238.1975395332
 30
0.0
 11
314.7669227041
 21
237.6475808869
 31
0.0
  0
ARC
  5
FC
330
1F
100
AcDbEntity
  8
0
  6
Continuous
 62
     7
370
    15
100
AcDbCircle
 10
314.61692263
 20
237.6800529153
 30
0.0
 40
0.1500000745950818
100
AcDbArc
 50
279.11534827
 51
359.9956688888
  0
ARC
  5
FD
330
1F
100
AcDbEntity
  8
0
  6
Continuous
 62
     7
370
    15
100
AcDbCircle
 10
314.6169264299
 20
237.6475900997
 30
0.0
 40
0.149996274562361
100
AcDbArc
 50
285.0069916559
 51
359.9964809081
  0
ARC
  5
FE
330
1F
100
AcDbEntity
  8
0
  6
Continuous
 62
     7
370
    15
100
AcDbCircle
 10
314.6169456087
 20
237.6475808111
 30
0.0
 40
0.269973166285137
100
AcDbArc
 50
287.9832036948
 51
0.0000160864
  0
LINE
  5
FF
330
1F
100
AcDbEntity
  8
0
  6
Continuous
 62
     7
370
    15
100
AcDbLine
 10
314.886918775
 20
238.7238381158
 30
0.0
 11
314.7669227041
 21
238.7238381158
 31
0.0
  0
LINE
  5
100
330
1F
100
AcDbEntity
  8
0
  6
Continuous
 62
     7
370
    15
100
AcDbLine
 10
314.886918775
 20
238.7238381158
 30
0.0
 11
314.886918775
 21
238.7036269258
 31
0.0
  0
LINE
  5
101
330
1F
100
AcDbEntity
  8
0
  6
Continuous
 62
     7
370
    15
100
AcDbLine
 10
314.7669227041
 20
238.7238381158
 30
0.0
 11
314.7669227041
 21
238.7036269258
 31
0.0
  0
LINE
  5
102
330
1F
100
AcDbEntity
  8
0
  6
Continuous
 62
     7
370
    15
100
AcDbLine
 10
314.886918775
 20
238.7663757156
 30
0.0
 11
314.7669227041
 21
238.7663757156
 31
0.0
  0
LINE
  5
103
330
1F
100
AcDbEntity
  8
0
  6
Continuous
 62
     7
370
    15
100
AcDbLine
 10
314.886918775
 20
238.7663757156
 30
0.0
 11
314.886918775
 21
238.7238381158
 31
0.0
  0
LINE
  5
104
330
1F
100
AcDbEntity
  8
0
  6
Continuous
 62
     7
370
    15
100
AcDbLine
 10
314.7669227041
 20
238.7663757156
 30
0.0
 11
314.7669227041
 21
238.7238381158
 31
0.0
  0
ARC
  5
105
330
1F
100
AcDbEntity
  8
0
  6
Continuous
 62
     7
370
    15
100
AcDbCircle
 10
314.6169230441
 20
237.7103406221
 30
0.0
 40
0.149999660422407
100
AcDbArc
 50
273.1201381304
 51
359.9958191733
  0
ARC
  5
106
330
1F
100
AcDbEntity
  8
0
  6
Continuous
 62
     7
370
    15
100
AcDbCircle
 10
314.6169238336
 20
237.7428008541
 30
0.0
 40
0.1499988709050401
100
AcDbArc
 50
269.9991678667
 51
359.9959939121
  0
LINE
  5
107
330
1F
100
AcDbEntity
  8
0
  6
Continuous
 62
     7
370
    15
100
AcDbLine
 10
314.6169216551
 20
237.5928019832
 30
0.0
 11
314.6075160421
 21
237.5928019832
 31
0.0
  0
LINE
  5
108
330
1F
100
AcDbEntity
  8
0
  6
Continuous
 62
     7
370
    15
100
AcDbLine
 10
314.886918775
 20
238.7865869056
 30
0.0
 11
314.7669227041
 21
238.7865869056
 31
0.0
  0
LINE
  5
109
330
1F
100
AcDbEntity
  8
0
  6
Continuous
 62
     7
370
    15
100
AcDbLine
 10
314.886918775
 20
238.7865869056
 30
0.0
 11
314.886918775
 21
238.7663757156
 31
0.0
  0
LINE
  5
10A
330
1F
100
AcDbEntity
  8
0
  6
Continuous
 62
     7
370
    15
100
AcDbLine
 10
314.7669227041
 20
238.7865869056
 30
0.0
 11
314.7669227041
 21
238.7663757156
 31
0.0
  0
LINE
  5
10B
330
1F
100
AcDbEntity
  8
0
  6
Continuous
 62
     7
370
    15
100
AcDbLine
 10
321.3569195189
 20
215.8709270607
 30
0.0
 11
321.5169222273
 21
215.8709270607
 31
0.0
  0
LINE
  5
10C
330
1F
100
AcDbEntity
  8
0
  6
Continuous
 62
     7
370
    15
100
AcDbLine
 10
321.5169222273
 20
210.2697623621
 30
0.0
 11
321.5169222273
 21
215.8709270607
 31
0.0
  0
LINE
  5
10D
330
1F
100
AcDbEntity
  8
0
  6
Continuous
 62
     7
370
    15
100
AcDbLine
 10
321.3569195189
 20
210.2697623621
 30
0.0
 11
321.5169222273
 21
210.2697623621
 31
0.0
  0
LINE
  5
10E
330
1F
100
AcDbEntity
  8
0
  6
Continuous
 62
     7
370
    15
100
AcDbLine
 10
321.3569195189
 20
216.0703642021
 30
0.0
 11
321.5169222273
 21
216.0703642021
 31
0.0
  0
LINE
  5
10F
330
1F
100
AcDbEntity
  8
0
  6
Continuous
 62
     7
370
    15
100
AcDbLine
 10
321.5169222273
 20
215.8709270607
 30
0.0
 11
321.5169222273
 21
216.0703642021
 31
0.0
  0
LINE
  5
110
330
1F
100
AcDbEntity
  8
0
  6
Continuous
 62
     7
370
    15
100
AcDbLine
 10
321.5169222273
 20
210.0703639637
 30
0.0
 11
321.5169222273
 21
210.2697623621
 31
0.0
  0
LINE
  5
111
330
1F
100
AcDbEntity
  8
0
  6
Continuous
 62
     7
370
    15
100
AcDbLine
 10
321.3569195189
 20
210.0703639637
 30
0.0
 11
321.5169222273
 21
210.0703639637
 31
0.0
  0
LWPOLYLINE
  5
112
330
1F
100
AcDbEntity
  8
0
  6
Continuous
 62
     7
370
    15
100
AcDbPolyline
 90
        5
 70
   128
 43
0.0
 10
321.5169222273
 20
215.8709270607
 10
321.5728254236
 20
215.8611682902
 10
321.6195971884
 20
215.8476201545
 10
321.647438518
 20
215.8326117049
 10
321.6569216169
 20
215.8165929566
  0
LINE
  5
113
330
1F
100
AcDbEntity
  8
0
  6
Continuous
 62
     7
370
    15
100
AcDbLine
 10
321.6569216169
 20
215.8165929566
 30
0.0
 11
321.6569216169
 21
210.3241366993
 31
0.0
  0
LWPOLYLINE
  5
114
330
1F
100
AcDbEntity
  8
0
  6
Continuous
 62
     7
370
    15
100
AcDbPolyline
 90
        5
 70
   128
 43
0.0
 10
321.5169222273
 20
210.2697623621
 10
321.5728194632
 20
210.2795285831
 10
321.6195971884
 20
210.2930871497
 10
321.647438518
 20
210.3081060301
 10
321.6569216169
 20
210.3241366993
  0
ARC
  5
115
330
1F
100
AcDbEntity
  8
0
  6
Continuous
 62
     7
370
    15
100
AcDbCircle
 10
321.356912916
 20
210.3241399297
 30
0.0
 40
0.3000087009549713
100
AcDbArc
 50
302.2320071657
 51
359.9993830447
  0
ARC
  5
116
330
1F
100
AcDbEntity
  8
0
  6
Continuous
 62
     7
370
    15
100
AcDbCircle
 10
321.3569040402
 20
215.8165833394
 30
0.0
 40
0.3000175769359589
100
AcDbArc
 50
0.0018366403
 51
57.7670577391
  0
LINE
  5
117
330
1F
100
AcDbEntity
  8
0
  6
Continuous
 62
     7
370
    15
100
AcDbLine
 10
322.1369237818
 20
210.0103644381
 30
0.0
 11
322.1369237818
 21
212.7203641187
 31
0.0
  0
LINE
  5
118
330
1F
100
AcDbEntity
  8
0
  6
Continuous
 62
     7
370
    15
100
AcDbLine
 10
322.1369237818
 20
213.8003645192
 30
0.0
 11
322.1369237818
 21
216.5103641997
 31
0.0
  0
LINE
  5
119
330
1F
100
AcDbEntity
  8
0
  6
Continuous
 62
     7
370
    15
100
AcDbLine
 10
323.1369228281
 20
215.6303418527
 30
0.0
 11
323.1369228281
 21
216.1103648792
 31
0.0
  0
LWPOLYLINE
  5
11A
330
1F
100
AcDbEntity
  8
0
  6
Continuous
 62
     7
370
    15
100
AcDbPolyline
 90
        3
 70
   128
 43
0.0
 10
323.0740578093
 20
215.5198706041
 10
323.091057054
 20
215.5875129352
 10
323.1369228281
 20
215.6303418527
  0
LWPOLYLINE
  5
11B
330
1F
100
AcDbEntity
  8
0
  6
Continuous
 62
     7
370
    15
100
AcDbPolyline
 90
        3
 70
   128
 43
0.0
 10
323.1369228281
 20
210.8903867851
 10
323.091057054
 20
210.9332157026
 10
323.0740578093
 20
211.0008580337
  0
LINE
  5
11C
330
1F
100
AcDbEntity
  8
0
  6
Continuous
 62
     7
370
    15
100
AcDbLine
 10
323.1369228281
 20
210.4103637586
 30
0.0
 11
323.1369228281
 21
210.8903867851
 31
0.0
  0
LWPOLYLINE
  5
11D
330
1F
100
AcDbEntity
  8
0
  6
Continuous
 62
     7
370
    15
100
AcDbPolyline
 90
       10
 70
   128
 43
0.0
 10
322.3690540709
 20
216.417510594
 10
322.3690481104
 20
216.4175135742
 10
322.3862500109
 20
216.4091778646
 10
322.4353582777
 20
216.3859976183
 10
322.5094051279
 20
216.3527710091
 10
322.597655765
 20
216.3158802043
 10
322.6869316019
 20
216.2815598498
 10
322.7634639658
 20
216.2545380841
 10
322.8150160231
 20
216.2375880133
 10
322.8332788862
 20
216.2318212639
  0
LINE
  5
11E
330
1F
100
AcDbEntity
  8
0
  6
Continuous
 62
     7
370
    15
100
AcDbLine
 10
323.1369228281
 20
215.4469040881
 30
0.0
 11
323.1369228281
 21
213.2955221187
 31
0.0
  0
LINE
  5
11F
330
1F
100
AcDbEntity
  8
0
  6
Continuous
 62
     7
370
    15
100
AcDbLine
 10
323.1369228281
 20
212.7343473683
 30
0.0
 11
323.1369228281
 21
211.0738245498
 31
0.0
  0
ARC
  5
120
330
1F
100
AcDbEntity
  8
0
  6
Continuous
 62
     7
370
    15
100
AcDbCircle
 10
323.0557342168
 20
211.0802091502
 30
0.0
 40
0.0814392640431102
100
AcDbArc
 50
283.0027034585
 51
355.50356424
  0
ARC
  5
121
330
1F
100
AcDbEntity
  8
0
  6
Continuous
 62
     7
370
    15
100
AcDbCircle
 10
323.0557342168
 20
215.4405194876
 30
0.0
 40
0.0814392640430974
100
AcDbArc
 50
4.49643576
 51
76.9972965415
  0
ARC
  5
122
330
1F
100
AcDbEntity
  8
0
  6
Continuous
 62
     7
370
    15
100
AcDbCircle
 10
323.0630221864
 20
215.5345741432
 30
0.0
 40
0.1195979058416236
100
AcDbArc
 50
358.7560707797
 51
51.036618286
  0
ARC
  5
123
330
1F
100
AcDbEntity
  8
0
  6
Continuous
 62
     7
370
    15
100
AcDbCircle
 10
323.2244775706
 20
215.4546979879
 30
0.0
 40
0.0879009544903335
100
AcDbArc
 50
118.4576966111
 51
185.0869159817
  0
ARC
  5
124
330
1F
100
AcDbEntity
  8
0
  6
Continuous
 62
     7
370
    15
100
AcDbCircle
 10
323.140351428
 20
215.6302605234
 30
0.0
 40
0.003429564330851
100
AcDbArc
 50
178.641149294
 51
231.7492422667
  0
ARC
  5
125
330
1F
100
AcDbEntity
  8
0
  6
Continuous
 62
     7
370
    15
100
AcDbCircle
 10
323.2245757632
 20
211.0660833615
 30
0.0
 40
0.0879941079124802
100
AcDbArc
 50
174.9529400564
 51
241.5024473508
  0
ARC
  5
126
330
1F
100
AcDbEntity
  8
0
  6
Continuous
 62
     7
370
    15
100
AcDbCircle
 10
323.0630278661
 20
210.9861533083
 30
0.0
 40
0.1195922532074742
100
AcDbArc
 50
308.9620722506
 51
1.2445565511
  0
ARC
  5
127
330
1F
100
AcDbEntity
  8
0
  6
Continuous
 62
     7
370
    15
100
AcDbCircle
 10
323.1403298157
 20
210.8904797228
 30
0.0
 40
0.0034082549659944
100
AcDbArc
 50
128.0707454967
 51
181.562558769
  0
ARC
  5
128
330
1F
100
AcDbEntity
  8
0
  6
Continuous
 62
     7
370
    15
100
AcDbCircle
 10
323.2511366592
 20
215.2539288763
 30
0.0
 40
0.2863731581338873
100
AcDbArc
 50
50.9153649258
 51
103.8484554918
  0
LINE
  5
129
330
1F
100
AcDbEntity
  8
0
  6
Continuous
 62
     7
370
    15
100
AcDbLine
 10
323.4316856779
 20
215.4762161623
 30
0.0
 11
323.4316856779
 21
211.0445139657
 31
0.0
  0
ARC
  5
12A
330
1F
100
AcDbEntity
  8
0
  6
Continuous
 62
     7
370
    15
100
AcDbCircle
 10
323.246956563
 20
211.285466303
 30
0.0
 40
0.3036163282570957
100
AcDbArc
 50
257.7608041204
 51
307.476028252
  0
ARC
  5
12B
330
1F
100
AcDbEntity
  8
0
  6
Continuous
 62
     7
370
    15
100
AcDbCircle
 10
323.2605074557
 20
211.3139315986
 30
0.0
 40
0.4381763863201291
100
AcDbArc
 50
253.7956465524
 51
298.7070078017
  0
ARC
  5
12C
330
1F
100
AcDbEntity
  8
0
  6
Continuous
 62
     7
370
    15
100
AcDbCircle
 10
323.0586533488
 20
210.8527840941
 30
0.0
 40
0.4194203884402113
100
AcDbArc
 50
10.5549131847
 51
27.2021013755
  0
ARC
  5
12D
330
1F
100
AcDbEntity
  8
0
  6
Continuous
 62
     7
370
    15
100
AcDbCircle
 10
303.0982105427
 20
259.9845294565
 30
0.0
 40
53.11717691267948
100
AcDbArc
 50
292.5533703782
 51
294.4436055565
  0
ARC
  5
12E
330
1F
100
AcDbEntity
  8
0
  6
Continuous
 62
     7
370
    15
100
AcDbCircle
 10
323.2606849624
 20
215.2084346292
 30
0.0
 40
0.436655270618821
100
AcDbArc
 50
61.2102090723
 51
106.2866294945
  0
ARC
  5
12F
330
1F
100
AcDbEntity
  8
0
  6
Continuous
 62
     7
370
    15
100
AcDbCircle
 10
323.0586791175
 20
215.6679382183
 30
0.0
 40
0.4193938970593211
100
AcDbArc
 50
332.7972389711
 51
349.445291484
  0
ARC
  5
130
330
1F
100
AcDbEntity
  8
0
  6
Continuous
 62
     7
370
    15
100
AcDbCircle
 10
324.1425702359
 20
218.1681632539
 30
0.0
 40
2.289347037486364
100
AcDbArc
 50
245.2059429775
 51
245.7913589881
  0
LINE
  5
131
330
1F
100
AcDbEntity
  8
0
  6
Continuous
 62
     7
370
    15
100
AcDbLine
 10
323.2037992395
 20
216.0801453243
 30
0.0
 11
324.9431700625
 21
215.2920229088
 31
0.0
  0
LINE
  5
132
330
1F
100
AcDbEntity
  8
0
  6
Continuous
 62
     7
370
    15
100
AcDbLine
 10
324.9431700625
 20
215.2920229088
 30
0.0
 11
325.0779600062
 21
215.2311978589
 31
0.0
  0
LINE
  5
133
330
1F
100
AcDbEntity
  8
0
  6
Continuous
 62
     7
370
    15
100
AcDbLine
 10
325.0779600062
 20
214.89243039
 30
0.0
 11
325.0779600062
 21
215.2311978589
 31
0.0
  0
ARC
  5
134
330
1F
100
AcDbEntity
  8
0
  6
Continuous
 62
     7
370
    15
100
AcDbCircle
 10
303.0979476976
 20
166.5355946354
 30
0.0
 40
53.11783603725274
100
AcDbArc
 50
65.5564061722
 51
67.446617893
  0
ARC
  5
135
330
1F
100
AcDbEntity
  8
0
  6
Continuous
 62
     7
370
    15
100
AcDbCircle
 10
301.7046157924
 20
264.3215010198
 30
0.0
 40
57.53696998779452
100
AcDbArc
 50
292.1862938899
 51
293.9255263709
  0
ARC
  5
136
330
1F
100
AcDbEntity
  8
0
  6
Continuous
 62
     7
370
    15
100
AcDbCircle
 10
324.5338607678
 20
211.4727213764
 30
0.0
 40
0.5659047129658734
100
AcDbArc
 50
15.9570727581
 51
26.8696771626
  0
ARC
  5
137
330
1F
100
AcDbEntity
  8
0
  6
Continuous
 62
     7
370
    15
100
AcDbCircle
 10
301.7065217222
 20
162.2038216129
 30
0.0
 40
57.53199779190918
100
AcDbArc
 50
66.0743531958
 51
67.8137365826
  0
ARC
  5
138
330
1F
100
AcDbEntity
  8
0
  6
Continuous
 62
     7
370
    15
100
AcDbCircle
 10
324.5338607678
 20
215.0480072614
 30
0.0
 40
0.5659047129673257
100
AcDbArc
 50
333.1303228374
 51
344.0429272419
  0
LINE
  5
139
330
1F
100
AcDbEntity
  8
0
  6
Continuous
 62
     7
370
    15
100
AcDbLine
 10
325.0386686243
 20
211.7284891854
 30
0.0
 11
325.0386686243
 21
214.7922394524
 31
0.0
  0
ARC
  5
13A
330
1F
100
AcDbEntity
  8
0
  6
Continuous
 62
     7
370
    15
100
AcDbCircle
 10
325.0613389306
 20
211.6116141142
 30
0.0
 40
0.1190534546024954
100
AcDbArc
 50
50.5905764488
 51
100.977368207
  0
ARC
  5
13B
330
1F
100
AcDbEntity
  8
0
  6
Continuous
 62
     7
370
    15
100
AcDbCircle
 10
325.0534762819
 20
211.7082029269
 30
0.0
 40
0.083571588954403
100
AcDbArc
 50
287.0356744739
 51
356.8415082566
  0
ARC
  5
13C
330
1F
100
AcDbEntity
  8
0
  6
Continuous
 62
     7
370
    15
100
AcDbCircle
 10
325.0613389306
 20
214.9091145236
 30
0.0
 40
0.1190534546024954
100
AcDbArc
 50
259.022631793
 51
309.4094235512
  0
ARC
  5
13D
330
1F
100
AcDbEntity
  8
0
  6
Continuous
 62
     7
370
    15
100
AcDbCircle
 10
325.0534762819
 20
214.812525711
 30
0.0
 40
0.0835715889544061
100
AcDbArc
 50
3.1584917435
 51
72.9643255261
  0
LINE
  5
13E
330
1F
100
AcDbEntity
  8
0
  6
Continuous
 62
     7
370
    15
100
AcDbLine
 10
325.1369209208
 20
214.8171303521
 30
0.0
 11
325.1369209208
 21
211.7035982858
 31
0.0
  0
LINE
  5
13F
330
1F
100
AcDbEntity
  8
0
  6
Continuous
 62
     7
370
    15
100
AcDbLine
 10
325.1369209208
 20
211.7035982858
 30
0.0
 11
325.1369209208
 21
211.3750232111
 31
0.0
  0
LINE
  5
140
330
1F
100
AcDbEntity
  8
0
  6
Continuous
 62
     7
370
    15
100
AcDbLine
 10
325.1369209208
 20
215.1397300611
 30
0.0
 11
325.1369209208
 21
214.8171303521
 31
0.0
  0
ARC
  5
141
330
1F
100
AcDbEntity
  8
0
  6
Continuous
 62
     7
370
    15
100
AcDbCircle
 10
325.0365943584
 20
215.1397959626
 30
0.0
 40
0.1003265839569602
100
AcDbArc
 50
359.9623641304
 51
65.6499756185
  0
LINE
  5
142
330
1F
100
AcDbEntity
  8
0
  6
Continuous
 62
     7
370
    15
100
AcDbLine
 10
321.9369203962
 20
212.7203641187
 30
0.0
 11
321.9369203962
 21
212.6631749521
 31
0.0
  0
LINE
  5
143
330
1F
100
AcDbEntity
  8
0
  6
Continuous
 62
     7
370
    15
100
AcDbLine
 10
321.9369203962
 20
212.6631749521
 30
0.0
 11
321.9369203962
 21
212.5577566872
 31
0.0
  0
LINE
  5
144
330
1F
100
AcDbEntity
  8
0
  6
Continuous
 62
     7
370
    15
100
AcDbLine
 10
321.9369203962
 20
212.5577566872
 30
0.0
 11
321.9369203962
 21
212.5491840492
 31
0.0
  0
LWPOLYLINE
  5
145
330
1F
100
AcDbEntity
  8
0
  6
Continuous
 62
     7
370
    15
100
AcDbPolyline
 90
       10
 70
   128
 43
0.0
 10
322.3694415011
 20
216.4184314857
 10
322.3694176592
 20
216.4184419165
 10
322.3866374411
 20
216.4100972663
 10
322.4357933916
 20
216.3868946682
 10
322.509893886
 20
216.3536442171
 10
322.5981981672
 20
216.3167370211
 10
322.6875038065
 20
216.2824121962
 10
322.7640123285
 20
216.2554038416
 10
322.8155226626
 20
216.2384731422
 10
322.833648435
 20
216.2327496062
  0
LINE
  5
146
330
1F
100
AcDbEntity
  8
0
  6
Continuous
 62
     7
370
    15
100
AcDbLine
 10
244.9869210778
 20
238.1553647767
 30
0.0
 11
248.2369211681
 21
238.1553647767
 31
0.0
  0
LINE
  5
147
330
1F
100
AcDbEntity
  8
0
  6
Continuous
 62
     7
370
    15
100
AcDbLine
 10
244.9869210778
 20
257.1381879698
 30
0.0
 11
244.9869210778
 21
238.1553647767
 31
0.0
  0
LINE
  5
148
330
1F
100
AcDbEntity
  8
0
  6
Continuous
 62
     7
370
    15
100
AcDbLine
 10
312.7369196333
 20
240.3474574636
 30
0.0
 11
244.9869210778
 21
257.1381879698
 31
0.0
  0
ARC
  5
149
330
1F
100
AcDbEntity
  8
0
  6
Continuous
 62
     7
370
    15
100
AcDbCircle
 10
312.4963649835
 20
239.3768222518
 30
0.0
 40
1.000000000000021
100
AcDbArc
 50
28.590234854
 51
76.0806356206
  0
LINE
  5
14A
330
1F
100
AcDbEntity
  8
0
  6
Continuous
 62
     7
370
    15
100
AcDbLine
 10
314.6551699556
 20
237.5053642045
 30
0.0
 11
313.374427072
 21
239.8553644966
 31
0.0
  0
LINE
  5
14B
330
1F
100
AcDbEntity
  8
0
  6
Continuous
 62
     7
370
    15
100
AcDbLine
 10
248.2369211681
 20
237.5053642045
 30
0.0
 11
314.6551699556
 21
237.5053642045
 31
0.0
  0
LINE
  5
14C
330
1F
100
AcDbEntity
  8
0
  6
Continuous
 62
     7
370
    15
100
AcDbLine
 10
248.2369211681
 20
238.1553647767
 30
0.0
 11
248.2369211681
 21
237.5053642045
 31
0.0
  0
ARC
  5
14D
330
1F
100
AcDbEntity
  8
0
  6
Continuous
 62
     7
370
    15
100
AcDbCircle
 10
315.4845635075
 20
237.5145476152
 30
0.0
 40
0.8294443917104928
100
AcDbArc
 50
180.6343781818
 51
205.6607008963
  0
LINE
  5
14E
330
1F
100
AcDbEntity
  8
0
  6
Continuous
 62
     7
370
    15
100
AcDbLine
 10
248.2369211681
 20
237.1553642403
 30
0.0
 11
248.2369211681
 21
237.5053642045
 31
0.0
  0
ARC
  5
14F
330
1F
100
AcDbEntity
  8
0
  6
Continuous
 62
     7
370
    15
100
AcDbCircle
 10
245.0001786878
 20
258.9291877823
 30
0.0
 40
1.791048880580308
100
AcDbArc
 50
258.2981823267
 51
269.5758842515
  0
LINE
  5
150
330
1F
100
AcDbEntity
  8
0
  6
Continuous
 62
     7
370
    15
100
AcDbLine
 10
244.9869210778
 20
238.1553647767
 30
0.0
 11
244.6369210903
 21
238.1553647767
 31
0.0
  0
LINE
  5
151
330
1F
100
AcDbEntity
  8
0
  6
Continuous
 62
     7
370
    15
100
AcDbLine
 10
244.6369210903
 20
238.1553647767
 30
0.0
 11
244.6369210903
 21
257.1753633867
 31
0.0
  0
LWPOLYLINE
  5
152
330
1F
100
AcDbEntity
  8
0
  6
Continuous
 62
     7
370
    15
100
AcDbPolyline
 90
        6
 70
   128
 43
0.0
 10
314.6551699556
 20
237.5053642045
 10
314.6737725653
 20
237.4528942357
 10
314.6923692144
 20
237.4070537935
 10
314.7109599032
 20
237.3736439
 10
314.7295505919
 20
237.3568659376
 10
314.7369236864
 20
237.3553646456
  0
LINE
  5
153
330
1F
100
AcDbEntity
  8
0
  6
Continuous
 62
     7
370
    15
100
AcDbLine
 10
314.7369236864
 20
237.3553646456
 30
0.0
 11
314.7369236864
 21
237.1553642403
 31
0.0
  0
LINE
  5
154
330
1F
100
AcDbEntity
  8
0
  6
Continuous
 62
     7
370
    15
100
AcDbLine
 10
244.8369210765
 20
257.1753633867
 30
0.0
 11
244.6369210903
 21
257.1753633867
 31
0.0
  0
ARC
  5
155
330
1F
100
AcDbEntity
  8
0
  6
Continuous
 62
     7
370
    15
100
AcDbCircle
 10
244.9972400624
 20
257.5010313438
 30
0.0
 40
0.3629900763619971
100
AcDbArc
 50
243.7900175046
 51
268.3709914712
  0
LINE
  5
156
330
1F
100
AcDbEntity
  8
0
  6
Continuous
 62
     7
370
    15
100
AcDbLine
 10
321.6869206347
 20
213.2603643189
 30
0.0
 11
321.6869206347
 21
214.4032789122
 31
0.0
  0
LINE
  5
157
330
1F
100
AcDbEntity
  8
0
  6
Continuous
 62
     7
370
    15
100
AcDbLine
 10
321.6869206347
 20
212.1174497257
 30
0.0
 11
321.6869206347
 21
213.2603643189
 31
0.0
  0
LINE
  5
158
330
1F
100
AcDbEntity
  8
0
  6
Continuous
 62
     7
370
    15
100
AcDbLine
 10
323.1369228281
 20
212.770364965
 30
0.0
 11
323.1369228281
 21
213.2603643189
 31
0.0
  0
LINE
  5
159
330
1F
100
AcDbEntity
  8
0
  6
Continuous
 62
     7
370
    15
100
AcDbLine
 10
242.8969211124
 20
211.4953649889
 30
0.0
 11
242.8969211124
 21
213.695364977
 31
0.0
  0
LINE
  5
15A
330
1F
100
AcDbEntity
  8
0
  6
Continuous
 62
     7
370
    15
100
AcDbLine
 10
242.6969210796
 20
211.6953639041
 30
0.0
 11
242.6969210796
 21
213.4953645717
 31
0.0
  0
LINE
  5
15B
330
1F
100
AcDbEntity
  8
0
  6
Continuous
 62
     7
370
    15
100
AcDbLine
 10
242.4969210468
 20
211.4953649889
 30
0.0
 11
242.4969210468
 21
213.695364977
 31
0.0
  0
LINE
  5
15C
330
1F
100
AcDbEntity
  8
0
  6
Continuous
 62
     7
370
    15
100
AcDbLine
 10
242.296921014
 20
211.6953639041
 30
0.0
 11
242.296921014
 21
213.4953645717
 31
0.0
  0
LINE
  5
15D
330
1F
100
AcDbEntity
  8
0
  6
Continuous
 62
     7
370
    15
100
AcDbLine
 10
242.0969211675
 20
211.4953649889
 30
0.0
 11
242.0969211675
 21
213.695364977
 31
0.0
  0
LINE
  5
15E
330
1F
100
AcDbEntity
  8
0
  6
Continuous
 62
     7
370
    15
100
AcDbLine
 10
241.8969211347
 20
211.6953639041
 30
0.0
 11
241.8969211347
 21
213.4953645717
 31
0.0
  0
LINE
  5
15F
330
1F
100
AcDbEntity
  8
0
  6
Continuous
 62
     7
370
    15
100
AcDbLine
 10
241.696921102
 20
211.4953649889
 30
0.0
 11
241.696921102
 21
213.695364977
 31
0.0
  0
LINE
  5
160
330
1F
100
AcDbEntity
  8
0
  6
Continuous
 62
     7
370
    15
100
AcDbLine
 10
241.4969210692
 20
211.6953639041
 30
0.0
 11
241.4969210692
 21
213.4953645717
 31
0.0
  0
LINE
  5
161
330
1F
100
AcDbEntity
  8
0
  6
Continuous
 62
     7
370
    15
100
AcDbLine
 10
243.0969211452
 20
213.695364977
 30
0.0
 11
243.0969211452
 21
211.4953649889
 31
0.0
  0
LINE
  5
162
330
1F
100
AcDbEntity
  8
0
  6
Continuous
 62
     7
370
    15
100
AcDbLine
 10
244.8369210765
 20
233.1753404538
 30
0.0
 11
244.8369210765
 21
233.1780617784
 31
0.0
  0
ARC
  5
163
330
1F
100
AcDbEntity
  8
0
  6
Continuous
 62
     7
370
    15
100
AcDbCircle
 10
315.3964289588
 20
207.1003931863
 30
0.0
 40
0.2205230732752499
100
AcDbArc
 50
291.6060613579
 51
338.7213539479
  0
ARC
  5
164
330
1F
100
AcDbEntity
  8
0
  6
Continuous
 62
     7
370
    15
100
AcDbCircle
 10
315.2836781784
 20
207.0731310885
 30
0.0
 40
0.3225849241922267
100
AcDbArc
 50
306.9590843092
 51
350.5855778416
  0
LINE
  5
165
330
1F
100
AcDbEntity
  8
0
  6
Continuous
 62
     7
370
    15
100
AcDbLine
 10
315.477630607
 20
206.8953646074
 30
0.0
 11
315.477630607
 21
206.8153647433
 31
0.0
  0
ARC
  5
166
330
1F
100
AcDbEntity
  8
0
  6
Continuous
 62
     7
370
    15
100
AcDbCircle
 10
311.0971914655
 20
211.4255830536
 30
0.0
 40
6.300675652078913
100
AcDbArc
 50
314.0368333931
 51
315.6398649598
  0
LINE
  5
167
330
1F
100
AcDbEntity
  8
0
  6
Continuous
 62
     7
370
    15
100
AcDbLine
 10
315.3969199576
 20
206.8960709225
 30
0.0
 11
315.4769213118
 21
206.8960709225
 31
0.0
  0
ARC
  5
168
330
1F
100
AcDbEntity
  8
0
  6
Continuous
 62
     7
370
    15
100
AcDbCircle
 10
297.0334179829
 20
237.4143235847
 30
0.0
 40
35.6171580889262
100
AcDbArc
 50
301.0362451582
 51
301.4218982193
  0
ARC
  5
169
330
1F
100
AcDbEntity
  8
0
  6
Continuous
 62
     7
370
    15
100
AcDbCircle
 10
320.3559504602
 20
219.1314764447
 30
0.0
 40
0.796020428683832
100
AcDbArc
 50
0.6397745433
 51
15.5867275552
  0
LINE
  5
16A
330
1F
100
AcDbEntity
  8
0
  6
Continuous
 62
     7
370
    15
100
AcDbLine
 10
321.1519212641
 20
219.1403647612
 30
0.0
 11
315.6019182123
 21
219.1403647612
 31
0.0
  0
ARC
  5
16B
330
1F
100
AcDbEntity
  8
0
  6
Continuous
 62
     7
370
    15
100
AcDbCircle
 10
315.2976156872
 20
219.0960482182
 30
0.0
 40
0.3075125733298248
100
AcDbArc
 50
8.2859152607
 51
54.1694225884
  0
LINE
  5
16C
330
1F
100
AcDbEntity
  8
0
  6
Continuous
 62
     7
370
    15
100
AcDbLine
 10
315.477630607
 20
219.3453645061
 30
0.0
 11
321.1226971068
 21
219.3453645061
 31
0.0
  0
LINE
  5
16D
330
1F
100
AcDbEntity
  8
0
  6
Continuous
 62
     7
370
    15
100
AcDbLine
 10
321.1519212641
 20
219.1403647612
 30
0.0
 11
321.1519212641
 21
207.0203644882
 31
0.0
  0
LINE
  5
16E
330
1F
100
AcDbEntity
  8
0
  6
Continuous
 62
     7
370
    15
100
AcDbLine
 10
315.6019182123
 20
207.0203644882
 30
0.0
 11
321.1519212641
 21
207.0203644882
 31
0.0
  0
LINE
  5
16F
330
1F
100
AcDbEntity
  8
0
  6
Continuous
 62
     7
370
    15
100
AcDbLine
 10
315.6019182123
 20
219.1403647612
 30
0.0
 11
315.6019182123
 21
207.0203644882
 31
0.0
  0
LINE
  5
170
330
1F
100
AcDbEntity
  8
0
  6
Continuous
 62
     7
370
    15
100
AcDbLine
 10
315.477630607
 20
206.8153647433
 30
0.0
 11
321.1069197573
 21
206.8153647433
 31
0.0
  0
ARC
  5
171
330
1F
100
AcDbEntity
  8
0
  6
Continuous
 62
     7
370
    15
100
AcDbCircle
 10
320.6061479932
 20
207.0327333039
 30
0.0
 40
0.5459134096105234
100
AcDbArc
 50
336.5359201169
 51
358.7017326032
  0
LINE
  5
172
330
1F
100
AcDbEntity
  8
0
  6
Continuous
 62
     7
370
    15
100
AcDbLine
 10
315.3969199576
 20
219.2646575819
 30
0.0
 11
315.3969199576
 21
206.8960709225
 31
0.0
  0
ARC
  5
173
330
1F
100
AcDbEntity
  8
0
  6
Continuous
 62
     7
370
    15
100
AcDbCircle
 10
376.9094749049
 20
320.4871565653
 30
0.0
 40
118.4474090750181
100
AcDbArc
 50
238.7130977948
 51
238.8290633565
  0
ARC
  5
174
330
1F
100
AcDbEntity
  8
0
  6
Continuous
 62
     7
370
    15
100
AcDbCircle
 10
315.3981370059
 20
219.0620343774
 30
0.0
 40
0.2183172671586568
100
AcDbArc
 50
21.0259975849
 51
68.6465871093
  0
LINE
  5
175
330
1F
100
AcDbEntity
  8
0
  6
Continuous
 62
     7
370
    15
100
AcDbLine
 10
315.477630607
 20
219.265364642
 30
0.0
 11
315.477630607
 21
219.3453645061
 31
0.0
  0
LWPOLYLINE
  5
176
330
1F
100
AcDbEntity
  8
0
  6
Continuous
 62
     7
370
    15
100
AcDbPolyline
 90
        2
 70
   128
 43
0.0
 10
315.6019182123
 20
219.1403647612
 10
315.6019182123
 20
219.1403647612
  0
ARC
  5
177
330
1F
100
AcDbEntity
  8
0
  6
Continuous
 62
     7
370
    15
100
AcDbCircle
 10
313.7889293729
 20
217.442104803
 30
0.0
 40
2.484152857102246
100
AcDbArc
 50
43.1285453676
 51
47.1950997255
  0
LINE
  5
178
330
1F
100
AcDbEntity
  8
0
  6
Continuous
 62
     7
370
    15
100
AcDbLine
 10
315.3969199576
 20
219.2646575819
 30
0.0
 11
315.4769213118
 21
219.2646575819
 31
0.0
  0
LINE
  5
179
330
1F
100
AcDbEntity
  8
0
  6
Continuous
 62
     7
370
    15
100
AcDbLine
 10
321.3569195189
 20
207.0203644882
 30
0.0
 11
321.1519212641
 21
207.0203644882
 31
0.0
  0
LINE
  5
17A
330
1F
100
AcDbEntity
  8
0
  6
Continuous
 62
     7
370
    15
100
AcDbLine
 10
321.1519212641
 20
219.1403647612
 30
0.0
 11
321.3569195189
 21
219.1403647612
 31
0.0
  0
LINE
  5
17B
330
1F
100
AcDbEntity
  8
0
  6
Continuous
 62
     7
370
    15
100
AcDbLine
 10
321.3569195189
 20
219.1403647612
 30
0.0
 11
321.3569195189
 21
207.0203644882
 31
0.0
  0
ARC
  5
17C
330
1F
100
AcDbEntity
  8
0
  6
Continuous
 62
     7
370
    15
100
AcDbCircle
 10
321.15192365
 20
219.1403701273
 30
0.0
 40
0.1249945147110544
100
AcDbArc
 50
359.9975402519
 51
90.0010936927
  0
LINE
  5
17D
330
1F
100
AcDbEntity
  8
0
  6
Continuous
 62
     7
370
    15
100
AcDbLine
 10
321.1519212641
 20
219.265364642
 30
0.0
 11
321.1519212641
 21
219.3453645061
 31
0.0
  0
ARC
  5
17E
330
1F
100
AcDbEntity
  8
0
  6
Continuous
 62
     7
370
    15
100
AcDbCircle
 10
321.1519193951
 20
219.1403643823
 30
0.0
 40
0.2050001237764368
100
AcDbArc
 50
0.0001058925
 51
89.9994776305
  0
ARC
  5
17F
330
1F
100
AcDbEntity
  8
0
  6
Continuous
 62
     7
370
    15
100
AcDbCircle
 10
321.1519235237
 20
207.0203607385
 30
0.0
 40
0.2049959951792354
100
AcDbArc
 50
269.9993684397
 51
0.0010480373
  0
LINE
  5
180
330
1F
100
AcDbEntity
  8
0
  6
Continuous
 62
     7
370
    15
100
AcDbLine
 10
321.1519212641
 20
206.8953646074
 30
0.0
 11
321.1519212641
 21
206.8153647433
 31
0.0
  0
ARC
  5
181
330
1F
100
AcDbEntity
  8
0
  6
Continuous
 62
     7
370
    15
100
AcDbCircle
 10
321.1519224587
 20
207.0203603134
 30
0.0
 40
0.1249957060264523
100
AcDbArc
 50
269.9994524161
 51
0.0019136394
  0
LINE
  5
182
330
1F
100
AcDbEntity
  8
0
  6
Continuous
 62
     7
370
    15
100
AcDbLine
 10
321.1519212641
 20
206.8153647433
 30
0.0
 11
321.1069197573
 21
206.8153647433
 31
0.0
  0
LINE
  5
183
330
1F
100
AcDbEntity
  8
0
  6
Continuous
 62
     7
370
    15
100
AcDbLine
 10
321.1226971068
 20
219.3453645061
 30
0.0
 11
321.1519212641
 21
219.3453645061
 31
0.0
  0
LINE
  5
184
330
1F
100
AcDbEntity
  8
0
  6
Continuous
 62
     7
370
    15
100
AcDbLine
 10
319.0298528589
 20
202.0203632961
 30
0.0
 11
319.0298528589
 21
206.31536373
 31
0.0
  0
LINE
  5
185
330
1F
100
AcDbEntity
  8
0
  6
Continuous
 62
     7
370
    15
100
AcDbLine
 10
319.0298528589
 20
206.31536373
 30
0.0
 11
312.6869232573
 21
206.31536373
 31
0.0
  0
LINE
  5
186
330
1F
100
AcDbEntity
  8
0
  6
Continuous
 62
     7
370
    15
100
AcDbLine
 10
308.6869211115
 20
206.31536373
 30
0.0
 11
304.6369225897
 21
206.31536373
 31
0.0
  0
LINE
  5
187
330
1F
100
AcDbEntity
  8
0
  6
Continuous
 62
     7
370
    15
100
AcDbLine
 10
318.9119191088
 20
201.8153650413
 30
0.0
 11
317.2326297678
 21
201.8153650413
 31
0.0
  0
LINE
  5
188
330
1F
100
AcDbEntity
  8
0
  6
Continuous
 62
     7
370
    15
100
AcDbLine
 10
317.2326297678
 20
201.8153650413
 30
0.0
 11
317.1076328672
 21
201.8153650413
 31
0.0
  0
LINE
  5
189
330
1F
100
AcDbEntity
  8
0
  6
Continuous
 62
     7
370
    15
100
AcDbLine
 10
317.1076328672
 20
201.8153650413
 30
0.0
 11
317.1076328672
 21
201.8754048
 31
0.0
  0
LINE
  5
18A
330
1F
100
AcDbEntity
  8
0
  6
Continuous
 62
     7
370
    15
100
AcDbLine
 10
317.1076328672
 20
201.8754048
 30
0.0
 11
312.6869232573
 21
201.8754048
 31
0.0
  0
LINE
  5
18B
330
1F
100
AcDbEntity
  8
0
  6
Continuous
 62
     7
370
    15
100
AcDbLine
 10
308.6869211115
 20
201.8153650413
 30
0.0
 11
304.6369225897
 21
201.8153650413
 31
0.0
  0
ARC
  5
18C
330
1F
100
AcDbEntity
  8
0
  6
Continuous
 62
     7
370
    15
100
AcDbCircle
 10
318.7090116998
 20
202.0685182141
 30
0.0
 40
0.3244348093546496
100
AcDbArc
 50
308.7128830344
 51
351.46421428
  0
ARC
  5
18D
330
1F
100
AcDbEntity
  8
0
  6
Continuous
 62
     7
370
    15
100
AcDbCircle
 10
318.9323142329
 20
202.0126401957
 30
0.0
 40
0.1048924443956095
100
AcDbArc
 50
306.1345390572
 51
4.2224380809
  0
LINE
  5
18E
330
1F
100
AcDbEntity
  8
0
  6
Continuous
 62
     7
370
    15
100
AcDbLine
 10
319.0369219698
 20
202.0203632961
 30
0.0
 11
319.116923324
 21
202.0203632961
 31
0.0
  0
ARC
  5
18F
330
1F
100
AcDbEntity
  8
0
  6
Continuous
 62
     7
370
    15
100
AcDbCircle
 10
318.911911591
 20
202.0203767746
 30
0.0
 40
0.2050117334288543
100
AcDbArc
 50
270.0021010265
 51
359.9962330838
  0
LINE
  5
190
330
1F
100
AcDbEntity
  8
0
  6
Continuous
 62
     7
370
    15
100
AcDbLine
 10
319.2419202246
 20
206.2353638659
 30
0.0
 11
319.2419202246
 21
206.31536373
 31
0.0
  0
ARC
  5
191
330
1F
100
AcDbEntity
  8
0
  6
Continuous
 62
     7
370
    15
100
AcDbCircle
 10
319.2419210875
 20
206.1103644647
 30
0.0
 40
0.2050000000000125
100
AcDbArc
 50
90.0
 51
180.0
  0
LINE
  5
192
330
1F
100
AcDbEntity
  8
0
  6
Continuous
 62
     7
370
    15
100
AcDbLine
 10
319.116923324
 20
206.1103639851
 30
0.0
 11
319.0369219698
 21
206.1103639851
 31
0.0
  0
ARC
  5
193
330
1F
100
AcDbEntity
  8
0
  6
Continuous
 62
     7
370
    15
100
AcDbCircle
 10
319.2419210875
 20
206.1103644647
 30
0.0
 40
0.125
100
AcDbArc
 50
90.0
 51
180.0
  0
LINE
  5
194
330
1F
100
AcDbEntity
  8
0
  6
Continuous
 62
     7
370
    15
100
AcDbLine
 10
319.2419202246
 20
206.2353638659
 30
0.0
 11
320.8719224848
 21
206.2353638659
 31
0.0
  0
LINE
  5
195
330
1F
100
AcDbEntity
  8
0
  6
Continuous
 62
     7
370
    15
100
AcDbLine
 10
320.8719224848
 20
206.2353638659
 30
0.0
 11
320.8719224848
 21
206.31536373
 31
0.0
  0
LINE
  5
196
330
1F
100
AcDbEntity
  8
0
  6
Continuous
 62
     7
370
    15
100
AcDbLine
 10
319.2419202246
 20
206.31536373
 30
0.0
 11
320.8719224848
 21
206.31536373
 31
0.0
  0
LINE
  5
197
330
1F
100
AcDbEntity
  8
0
  6
Continuous
 62
     7
370
    15
100
AcDbLine
 10
321.0769207396
 20
205.135364617
 30
0.0
 11
320.9969193853
 21
205.135364617
 31
0.0
  0
LINE
  5
198
330
1F
100
AcDbEntity
  8
0
  6
Continuous
 62
     7
370
    15
100
AcDbLine
 10
320.9969193853
 20
205.135364617
 30
0.0
 11
320.9969193853
 21
206.1103639851
 31
0.0
  0
LINE
  5
199
330
1F
100
AcDbEntity
  8
0
  6
Continuous
 62
     7
370
    15
100
AcDbLine
 10
320.9969193853
 20
206.1103639851
 30
0.0
 11
321.0769207396
 21
206.1103639851
 31
0.0
  0
LINE
  5
19A
330
1F
100
AcDbEntity
  8
0
  6
Continuous
 62
     7
370
    15
100
AcDbLine
 10
321.0769207396
 20
205.135364617
 30
0.0
 11
321.0769207396
 21
206.1103639851
 31
0.0
  0
LINE
  5
19B
330
1F
100
AcDbEntity
  8
0
  6
Continuous
 62
     7
370
    15
100
AcDbLine
 10
321.0769207396
 20
204.6353650938
 30
0.0
 11
320.9969193853
 21
204.6353650938
 31
0.0
  0
LINE
  5
19C
330
1F
100
AcDbEntity
  8
0
  6
Continuous
 62
     7
370
    15
100
AcDbLine
 10
320.9969193853
 20
204.6353650938
 30
0.0
 11
320.9969193853
 21
205.135364617
 31
0.0
  0
LINE
  5
19D
330
1F
100
AcDbEntity
  8
0
  6
Continuous
 62
     7
370
    15
100
AcDbLine
 10
321.0769207396
 20
204.6353650938
 30
0.0
 11
321.0769207396
 21
205.135364617
 31
0.0
  0
ARC
  5
19E
330
1F
100
AcDbEntity
  8
0
  6
Continuous
 62
     7
370
    15
100
AcDbCircle
 10
320.8719210875
 20
206.1103644647
 30
0.0
 40
0.2050000000000125
100
AcDbArc
 50
0.0
 51
90.0
  0
ARC
  5
19F
330
1F
100
AcDbEntity
  8
0
  6
Continuous
 62
     7
370
    15
100
AcDbCircle
 10
320.8719210875
 20
206.1103644647
 30
0.0
 40
0.125
100
AcDbArc
 50
0.0
 51
90.0
  0
LINE
  5
1A0
330
1F
100
AcDbEntity
  8
0
  6
Continuous
 62
     7
370
    15
100
AcDbLine
 10
319.116923324
 20
202.0203632961
 30
0.0
 11
319.116923324
 21
206.1103639851
 31
0.0
  0
LINE
  5
1A1
330
1F
100
AcDbEntity
  8
0
  6
Continuous
 62
     7
370
    15
100
AcDbLine
 10
319.0369219698
 20
202.0203632961
 30
0.0
 11
319.0369219698
 21
206.1103639851
 31
0.0
  0
LWPOLYLINE
  5
1A2
330
1F
100
AcDbEntity
  8
0
  6
Continuous
 62
     7
370
    15
100
AcDbPolyline
 90
        3
 70
   128
 43
0.0
 10
317.0876772322
 20
201.8754048
 10
317.0899064459
 20
201.8732113491
 10
317.1076328672
 20
201.8578840147
  0
LINE
  5
1A3
330
1F
100
AcDbEntity
  8
0
  6
Continuous
 62
     7
370
    15
100
AcDbLine
 10
317.1076328672
 20
201.8153650413
 30
0.0
 11
312.6869232573
 21
201.8153650413
 31
0.0
  0
LINE
  5
1A4
330
1F
100
AcDbEntity
  8
0
  6
Continuous
 62
     7
370
    15
100
AcDbLine
 10
304.6369225897
 20
201.9403649221
 30
0.0
 11
304.6369225897
 21
206.8153647433
 31
0.0
  0
LINE
  5
1A5
330
1F
100
AcDbEntity
  8
0
  6
Continuous
 62
     7
370
    15
100
AcDbLine
 10
304.5851440348
 20
201.69536301
 30
0.0
 11
253.7869208671
 21
201.69536301
 31
0.0
  0
LINE
  5
1A6
330
1F
100
AcDbEntity
  8
0
  6
Continuous
 62
     7
370
    15
100
AcDbLine
 10
304.6369225897
 20
201.69536301
 30
0.0
 11
304.6369225897
 21
201.9403649221
 31
0.0
  0
LINE
  5
1A7
330
1F
100
AcDbEntity
  8
0
  6
Continuous
 62
     7
370
    15
100
AcDbLine
 10
304.6369225897
 20
201.69536301
 30
0.0
 11
304.5851440348
 21
201.69536301
 31
0.0
  0
LINE
  5
1A8
330
1F
100
AcDbEntity
  8
0
  6
Continuous
 62
     7
370
    15
100
AcDbLine
 10
304.6735317625
 20
201.6587538372
 30
0.0
 11
304.7583849348
 21
201.7436070095
 31
0.0
  0
ARC
  5
1A9
330
1F
100
AcDbEntity
  8
0
  6
Continuous
 62
     7
370
    15
100
AcDbCircle
 10
304.5851547627
 20
201.5703844212
 30
0.0
 40
0.1249785892790683
100
AcDbArc
 50
44.9975415619
 51
90.0049181647
  0
LWPOLYLINE
  5
1AA
330
1F
100
AcDbEntity
  8
0
  6
Continuous
 62
     7
370
    15
100
AcDbPolyline
 90
        3
 70
   128
 43
0.0
 10
304.7583849348
 20
201.7436070095
 10
304.6886117376
 20
201.7924440752
 10
304.6369225897
 20
201.8062663923
  0
LINE
  5
1AB
330
1F
100
AcDbEntity
  8
0
  6
Continuous
 62
     7
370
    15
100
AcDbLine
 10
304.7583849348
 20
201.7436070095
 30
0.0
 11
305.4288835444
 21
201.0731113802
 31
0.0
  0
LINE
  5
1AC
330
1F
100
AcDbEntity
  8
0
  6
Continuous
 62
     7
370
    15
100
AcDbLine
 10
305.4288835444
 20
201.0731113802
 30
0.0
 11
305.3440303721
 21
200.9882582079
 31
0.0
  0
LINE
  5
1AD
330
1F
100
AcDbEntity
  8
0
  6
Continuous
 62
     7
370
    15
100
AcDbLine
 10
304.6735317625
 20
201.6587538372
 30
0.0
 11
305.3440303721
 21
200.9882582079
 31
0.0
  0
LINE
  5
1AE
330
1F
100
AcDbEntity
  8
0
  6
Continuous
 62
     7
370
    15
100
AcDbLine
 10
315.3169186033
 20
233.1453425537
 30
0.0
 11
315.3169186033
 21
233.2946574043
 31
0.0
  0
ARC
  5
1AF
330
1F
100
AcDbEntity
  8
0
  6
Continuous
 62
     7
370
    15
100
AcDbCircle
 10
310.7133260086
 20
202.4427796529
 30
0.0
 40
6.404069199799713
100
AcDbArc
 50
44.0490821993
 51
45.62625012
  0
LINE
  5
1B0
330
1F
100
AcDbEntity
  8
0
  6
Continuous
 62
     7
370
    15
100
AcDbLine
 10
315.3162152685
 20
206.8153647433
 30
0.0
 11
315.3162152685
 21
206.8953646074
 31
0.0
  0
ARC
  5
1B1
330
1F
100
AcDbEntity
  8
0
  6
Continuous
 62
     7
370
    15
100
AcDbCircle
 10
284.4186202991
 20
188.221998391
 30
0.0
 40
36.06070780230108
100
AcDbArc
 50
31.0384312979
 51
31.4193428012
  0
LINE
  5
1B2
330
1F
100
AcDbEntity
  8
0
  6
Continuous
 62
     7
370
    15
100
AcDbLine
 10
315.3969199576
 20
206.8960709225
 30
0.0
 11
315.3169186033
 21
206.8960709225
 31
0.0
  0
ARC
  5
1B3
330
1F
100
AcDbEntity
  8
0
  6
Continuous
 62
     7
370
    15
100
AcDbCircle
 10
315.1118844009
 20
206.8148753921
 30
0.0
 40
0.2205260490983761
100
AcDbArc
 50
21.6040455304
 51
68.7192561167
  0
ARC
  5
1B4
330
1F
100
AcDbEntity
  8
0
  6
Continuous
 62
     7
370
    15
100
AcDbCircle
 10
315.1391593241
 20
206.7021438081
 30
0.0
 40
0.3225651405045543
100
AcDbArc
 50
36.9561013374
 51
80.5857552851
  0
LINE
  5
1B5
330
1F
100
AcDbEntity
  8
0
  6
Continuous
 62
     7
370
    15
100
AcDbLine
 10
315.3162152685
 20
206.8153647433
 30
0.0
 11
244.7176282007
 21
206.8153647433
 31
0.0
  0
LWPOLYLINE
  5
1B6
330
1F
100
AcDbEntity
  8
0
  6
Continuous
 62
     7
370
    15
100
AcDbPolyline
 90
        6
 70
   128
 43
0.0
 10
244.7176282007
 20
206.8153647433
 10
244.7462460205
 20
206.8286267768
 10
244.7748742245
 20
206.8667141448
 10
244.8035025217
 20
206.9246960531
 10
244.8321308188
 20
206.9950652967
 10
244.841921068
 20
207.0203644882
  0
LINE
  5
1B7
330
1F
100
AcDbEntity
  8
0
  6
Continuous
 62
     7
370
    15
100
AcDbLine
 10
244.841921068
 20
207.0203644882
 30
0.0
 11
315.1919217028
 21
207.0203644882
 31
0.0
  0
LINE
  5
1B8
330
1F
100
AcDbEntity
  8
0
  6
Continuous
 62
     7
370
    15
100
AcDbLine
 10
315.1919217028
 20
233.1703645836
 30
0.0
 11
244.841921068
 21
233.1703645836
 31
0.0
  0
LINE
  5
1B9
330
1F
100
AcDbEntity
  8
0
  6
Continuous
 62
     7
370
    15
100
AcDbLine
 10
315.1919217028
 20
207.0203644882
 30
0.0
 11
315.1919217028
 21
233.1703645836
 31
0.0
  0
LINE
  5
1BA
330
1F
100
AcDbEntity
  8
0
  6
Continuous
 62
     7
370
    15
100
AcDbLine
 10
244.841921068
 20
233.1703645836
 30
0.0
 11
244.841921068
 21
207.0203644882
 31
0.0
  0
LWPOLYLINE
  5
1BB
330
1F
100
AcDbEntity
  8
0
  6
Continuous
 62
     7
370
    15
100
AcDbPolyline
 90
        6
 70
   128
 43
0.0
 10
315.1919217028
 20
233.1703645836
 10
315.264454595
 20
233.1989822636
 10
315.327629558
 20
233.2276103745
 10
315.3732271113
 20
233.2562388579
 10
315.3953523554
 20
233.2848669688
 10
315.3969199576
 20
233.2946574043
  0
LINE
  5
1BC
330
1F
100
AcDbEntity
  8
0
  6
Continuous
 62
     7
370
    15
100
AcDbLine
 10
315.3969199576
 20
206.8960709225
 30
0.0
 11
315.3969199576
 21
233.2946574043
 31
0.0
  0
ARC
  5
1BD
330
1F
100
AcDbEntity
  8
0
  6
Continuous
 62
     7
370
    15
100
AcDbCircle
 10
247.923309521
 20
203.7964613373
 30
0.0
 40
4.459653161894606
100
AcDbArc
 50
133.7051985619
 51
135.9700910694
  0
LINE
  5
1BE
330
1F
100
AcDbEntity
  8
0
  6
Continuous
 62
     7
370
    15
100
AcDbLine
 10
244.6369210903
 20
206.8960709225
 30
0.0
 11
244.7169210941
 21
206.8960709225
 31
0.0
  0
ARC
  5
1BF
330
1F
100
AcDbEntity
  8
0
  6
Continuous
 62
     7
370
    15
100
AcDbCircle
 10
248.2718668855
 20
201.132080952
 30
0.0
 40
6.814426704682049
100
AcDbArc
 50
120.2209500082
 51
122.2367663916
  0
LINE
  5
1C0
330
1F
100
AcDbEntity
  8
0
  6
Continuous
 62
     7
370
    15
100
AcDbLine
 10
244.6369210903
 20
233.2946574043
 30
0.0
 11
244.6369210903
 21
206.8960709225
 31
0.0
  0
ARC
  5
1C1
330
1F
100
AcDbEntity
  8
0
  6
Continuous
 62
     7
370
    15
100
AcDbCircle
 10
211.6760192849
 20
178.7000239725
 30
0.0
 40
63.77299622386188
100
AcDbArc
 50
58.6636002806
 51
58.8789878474
  0
ARC
  5
1C2
330
1F
100
AcDbEntity
  8
0
  6
Continuous
 62
     7
370
    15
100
AcDbCircle
 10
244.6343006847
 20
207.1025156803
 30
0.0
 40
0.2232824263656283
100
AcDbArc
 50
291.9126945939
 51
338.4122950674
  0
LINE
  5
1C3
330
1F
100
AcDbEntity
  8
0
  6
Continuous
 62
     7
370
    15
100
AcDbLine
 10
244.7176282007
 20
206.8153647433
 30
0.0
 11
244.7176282007
 21
206.8953646074
 31
0.0
  0
ARC
  5
1C4
330
1F
100
AcDbEntity
  8
0
  6
Continuous
 62
     7
370
    15
100
AcDbCircle
 10
179.5092816903
 20
167.5910228021
 30
0.0
 40
92.56891398603004
100
AcDbArc
 50
45.1079732327
 51
45.217080582
  0
LWPOLYLINE
  5
1C5
330
1F
100
AcDbEntity
  8
0
  6
Continuous
 62
     7
370
    15
100
AcDbPolyline
 90
        2
 70
   128
 43
0.0
 10
244.841921068
 20
233.1703645836
 10
244.841921068
 20
233.1703645836
  0
LINE
  5
1C6
330
1F
100
AcDbEntity
  8
0
  6
Continuous
 62
     7
370
    15
100
AcDbLine
 10
244.6369210903
 20
233.2946574043
 30
0.0
 11
244.7169210941
 21
233.2946574043
 31
0.0
  0
ARC
  5
1C7
330
1F
100
AcDbEntity
  8
0
  6
Continuous
 62
     7
370
    15
100
AcDbCircle
 10
244.636426586
 20
233.0903272685
 30
0.0
 40
0.2205310724952065
100
AcDbArc
 50
21.2802392296
 51
68.3947711092
  0
LINE
  5
1C8
330
1F
100
AcDbEntity
  8
0
  6
Continuous
 62
     7
370
    15
100
AcDbLine
 10
244.7176282007
 20
233.2953644644
 30
0.0
 11
244.7176282007
 21
233.3753643285
 31
0.0
  0
ARC
  5
1C9
330
1F
100
AcDbEntity
  8
0
  6
Continuous
 62
     7
370
    15
100
AcDbCircle
 10
244.5236819929
 20
233.1175935862
 30
0.0
 40
0.3225846975567228
100
AcDbArc
 50
9.4152204684
 51
53.042268136
  0
ARC
  5
1CA
330
1F
100
AcDbEntity
  8
0
  6
Continuous
 62
     7
370
    15
100
AcDbCircle
 10
315.1135781689
 20
233.3741508038
 30
0.0
 40
0.2183266654151624
100
AcDbArc
 50
291.0287467102
 51
338.6476081967
  0
LINE
  5
1CB
330
1F
100
AcDbEntity
  8
0
  6
Continuous
 62
     7
370
    15
100
AcDbLine
 10
315.3169186033
 20
233.2946574043
 30
0.0
 11
315.3969199576
 21
233.2946574043
 31
0.0
  0
LWPOLYLINE
  5
1CC
330
1F
100
AcDbEntity
  8
0
  6
Continuous
 62
     7
370
    15
100
AcDbPolyline
 90
        2
 70
   128
 43
0.0
 10
315.1919217028
 20
233.1703645836
 10
315.1919217028
 20
233.1703645836
  0
LINE
  5
1CD
330
1F
100
AcDbEntity
  8
0
  6
Continuous
 62
     7
370
    15
100
AcDbLine
 10
315.3162152685
 20
233.3753643285
 30
0.0
 11
315.3162152685
 21
233.2953644644
 31
0.0
  0
ARC
  5
1CE
330
1F
100
AcDbEntity
  8
0
  6
Continuous
 62
     7
370
    15
100
AcDbCircle
 10
318.6030079507
 20
229.9028483275
 30
0.0
 40
4.723576174318615
100
AcDbArc
 50
134.0931693526
 51
136.2314983281
  0
ARC
  5
1CF
330
1F
100
AcDbEntity
  8
0
  6
Continuous
 62
     7
370
    15
100
AcDbCircle
 10
321.4227061514
 20
229.5327526247
 30
0.0
 40
7.214907872485194
100
AcDbArc
 50
147.819157267
 51
149.7230686339
  0
LINE
  5
1D0
330
1F
100
AcDbEntity
  8
0
  6
Continuous
 62
     7
370
    15
100
AcDbLine
 10
315.3162152685
 20
233.3753643285
 30
0.0
 11
244.7569210727
 21
233.3753643285
 31
0.0
  0
LINE
  5
1D1
330
1F
100
AcDbEntity
  8
0
  6
Continuous
 62
     7
370
    15
100
AcDbLine
 10
315.4115111746
 20
228.9946573514
 30
0.0
 11
315.3969199576
 21
228.9946573514
 31
0.0
  0
LINE
  5
1D2
330
1F
100
AcDbEntity
  8
0
  6
Continuous
 62
     7
370
    15
100
AcDbLine
 10
315.3969199576
 20
220.9946570645
 30
0.0
 11
315.4115111746
 21
220.9946570645
 31
0.0
  0
LINE
  5
1D3
330
1F
100
AcDbEntity
  8
0
  6
Continuous
 62
     7
370
    15
100
AcDbLine
 10
244.7569210727
 20
233.2753644983
 30
0.0
 11
244.7569210727
 21
233.2561490785
 31
0.0
  0
LINE
  5
1D4
330
1F
100
AcDbEntity
  8
0
  6
Continuous
 62
     7
370
    15
100
AcDbLine
 10
244.7569210727
 20
235.1753646235
 30
0.0
 11
244.7579210803
 21
235.1753646235
 31
0.0
  0
LINE
  5
1D5
330
1F
100
AcDbEntity
  8
0
  6
Continuous
 62
     7
370
    15
100
AcDbLine
 10
319.5645542063
 20
224.914214174
 30
0.0
 11
319.7072119631
 21
224.9605668436
 31
0.0
  0
LWPOLYLINE
  5
1D6
330
1F
100
AcDbEntity
  8
0
  6
Continuous
 62
     7
370
    15
100
AcDbPolyline
 90
        9
 70
   128
 43
0.0
 10
319.7072119631
 20
224.9605668436
 10
319.737354032
 20
224.8677959393
 10
319.7663397707
 20
224.7785901378
 10
319.793048612
 20
224.6963774513
 10
319.8164613165
 20
224.6243176709
 10
319.835677854
 20
224.5651794325
 10
319.8499591269
 20
224.5212359081
 10
319.858750812
 20
224.4941757719
 10
319.8617191233
 20
224.4850383799
  0
LINE
  5
1D7
330
1F
100
AcDbEntity
  8
0
  6
Continuous
 62
     7
370
    15
100
AcDbLine
 10
319.8617191233
 20
224.4850383799
 30
0.0
 11
319.7190613665
 21
224.4386860828
 31
0.0
  0
LINE
  5
1D8
330
1F
100
AcDbEntity
  8
0
  6
Continuous
 62
     7
370
    15
100
AcDbLine
 10
321.3837118067
 20
229.1854138679
 30
0.0
 11
321.526375524
 21
229.2317663978
 31
0.0
  0
LWPOLYLINE
  5
1D9
330
1F
100
AcDbEntity
  8
0
  6
Continuous
 62
     7
370
    15
100
AcDbPolyline
 90
        9
 70
   128
 43
0.0
 10
321.526375524
 20
229.2317663978
 10
321.5866596617
 20
229.0462244961
 10
321.6446311392
 20
228.8678128
 10
321.6980547823
 20
228.7033877063
 10
321.7448801912
 20
228.5592678662
 10
321.7833132662
 20
228.440991855
 10
321.8118698515
 20
228.3531048062
 10
321.8294532217
 20
228.2989842544
 10
321.8353898443
 20
228.2807098429
  0
LINE
  5
1DA
330
1F
100
AcDbEntity
  8
0
  6
Continuous
 62
     7
370
    15
100
AcDbLine
 10
321.8353898443
 20
228.2807098429
 30
0.0
 11
321.6927320875
 21
228.2343573596
 31
0.0
  0
LWPOLYLINE
  5
1DB
330
1F
100
AcDbEntity
  8
0
  6
Continuous
 62
     7
370
    15
100
AcDbPolyline
 90
        9
 70
   128
 43
0.0
 10
321.6927320875
 20
228.2343573596
 10
321.6867954649
 20
228.2526315848
 10
321.6692061342
 20
228.3067522298
 10
321.6406555094
 20
228.3946392785
 10
321.6022224344
 20
228.5129153828
 10
321.5553970255
 20
228.6570351298
 10
321.5019674219
 20
228.8214603166
 10
321.4440019049
 20
228.9998719196
 10
321.3837118067
 20
229.1854138679
  0
LINE
  5
1DC
330
1F
100
AcDbEntity
  8
0
  6
Continuous
 62
     7
370
    15
100
AcDbLine
 10
317.7372248091
 20
231.0235520552
 30
0.0
 11
317.5945670523
 21
230.9771994787
 31
0.0
  0
LINE
  5
1DD
330
1F
100
AcDbEntity
  8
0
  6
Continuous
 62
     7
370
    15
100
AcDbLine
 10
319.7072119631
 20
224.9605668436
 30
0.0
 11
317.7372248091
 21
231.0235520552
 31
0.0
  0
LINE
  5
1DE
330
1F
100
AcDbEntity
  8
0
  6
Continuous
 62
     7
370
    15
100
AcDbLine
 10
321.3100583471
 20
229.8975059737
 30
0.0
 11
321.1674005903
 21
229.8511534249
 31
0.0
  0
LINE
  5
1DF
330
1F
100
AcDbEntity
  8
0
  6
Continuous
 62
     7
370
    15
100
AcDbLine
 10
321.1674005903
 20
229.8511534249
 30
0.0
 11
321.3837118067
 21
229.1854138679
 31
0.0
  0
LINE
  5
1E0
330
1F
100
AcDbEntity
  8
0
  6
Continuous
 62
     7
370
    15
100
AcDbLine
 10
321.3100583471
 20
229.8975059737
 30
0.0
 11
321.526375524
 21
229.2317663978
 31
0.0
  0
ARC
  5
1E1
330
1F
100
AcDbEntity
  8
0
  6
Continuous
 62
     7
370
    15
100
AcDbCircle
 10
318.9799727218
 20
229.1404143374
 30
0.0
 40
2.45000000000004
100
AcDbArc
 50
18.0
 51
108.0
  0
LINE
  5
1E2
330
1F
100
AcDbEntity
  8
0
  6
Continuous
 62
     7
370
    15
100
AcDbLine
 10
318.2692320265
 20
231.3278442907
 30
0.0
 11
318.2228834547
 21
231.4705028857
 31
0.0
  0
ARC
  5
1E3
330
1F
100
AcDbEntity
  8
0
  6
Continuous
 62
     7
370
    15
100
AcDbCircle
 10
318.9799727218
 20
229.1404143374
 30
0.0
 40
2.300000000000029
100
AcDbArc
 50
18.0
 51
108.0
  0
ARC
  5
1E4
330
1F
100
AcDbEntity
  8
0
  6
Continuous
 62
     7
370
    15
100
AcDbCircle
 10
317.8561089138
 20
231.062179188
 30
0.0
 40
0.2749999999999981
100
AcDbArc
 50
108.0
 51
198.0
  0
LINE
  5
1E5
330
1F
100
AcDbEntity
  8
0
  6
Continuous
 62
     7
370
    15
100
AcDbLine
 10
317.771127931
 20
231.3237197424
 30
0.0
 11
317.8174824633
 21
231.1810612406
 31
0.0
  0
ARC
  5
1E6
330
1F
100
AcDbEntity
  8
0
  6
Continuous
 62
     7
370
    15
100
AcDbCircle
 10
317.8561089138
 20
231.062179188
 30
0.0
 40
0.125000000000005
100
AcDbArc
 50
108.0
 51
198.0
  0
LINE
  5
1E7
330
1F
100
AcDbEntity
  8
0
  6
Continuous
 62
     7
370
    15
100
AcDbLine
 10
317.771127931
 20
231.3237197424
 30
0.0
 11
318.2228834547
 21
231.4705028857
 31
0.0
  0
LINE
  5
1E8
330
1F
100
AcDbEntity
  8
0
  6
Continuous
 62
     7
370
    15
100
AcDbLine
 10
317.8174824633
 20
231.1810612406
 30
0.0
 11
318.2692320265
 21
231.3278442907
 31
0.0
  0
LINE
  5
1E9
330
1F
100
AcDbEntity
  8
0
  6
Continuous
 62
     7
370
    15
100
AcDbLine
 10
315.4115111746
 20
231.3756310108
 30
0.0
 11
315.3969199576
 21
231.3756266336
 31
0.0
  0
LINE
  5
1EA
330
1F
100
AcDbEntity
  8
0
  6
Continuous
 62
     7
370
    15
100
AcDbLine
 10
315.5115098871
 20
219.5253645728
 30
0.0
 11
321.4759142317
 21
219.5253645728
 31
0.0
  0
LINE
  5
1EB
330
1F
100
AcDbEntity
  8
0
  6
Continuous
 62
     7
370
    15
100
AcDbLine
 10
321.4759142317
 20
219.5253645728
 30
0.0
 11
321.4759142317
 21
219.4753644715
 31
0.0
  0
LINE
  5
1EC
330
1F
100
AcDbEntity
  8
0
  6
Continuous
 62
     7
370
    15
100
AcDbLine
 10
315.5115098871
 20
219.5253645728
 30
0.0
 11
315.5115098871
 21
219.4753644715
 31
0.0
  0
ARC
  5
1ED
330
1F
100
AcDbEntity
  8
0
  6
Continuous
 62
     7
370
    15
100
AcDbCircle
 10
315.5115099921
 20
231.4441319174
 30
0.0
 40
0.1000000000000796
100
AcDbArc
 50
90.0
 51
180.0
  0
LINE
  5
1EE
330
1F
100
AcDbEntity
  8
0
  6
Continuous
 62
     7
370
    15
100
AcDbLine
 10
315.5115098871
 20
231.5441319446
 30
0.0
 11
315.5115098871
 21
231.4941318433
 31
0.0
  0
ARC
  5
1EF
330
1F
100
AcDbEntity
  8
0
  6
Continuous
 62
     7
370
    15
100
AcDbCircle
 10
315.5115099921
 20
231.4441319174
 30
0.0
 40
0.0500000000000682
100
AcDbArc
 50
90.0
 51
180.0
  0
LINE
  5
1F0
330
1F
100
AcDbEntity
  8
0
  6
Continuous
 62
     7
370
    15
100
AcDbLine
 10
315.4115111746
 20
231.4441319282
 30
0.0
 11
315.4615075506
 21
231.4441319282
 31
0.0
  0
LINE
  5
1F1
330
1F
100
AcDbEntity
  8
0
  6
Continuous
 62
     7
370
    15
100
AcDbLine
 10
321.5333731093
 20
219.5521553706
 30
0.0
 11
322.7752418436
 21
221.0321588169
 31
0.0
  0
ARC
  5
1F2
330
1F
100
AcDbEntity
  8
0
  6
Continuous
 62
     7
370
    15
100
AcDbCircle
 10
321.4759169222
 20
219.6003644647
 30
0.0
 40
0.0750000000000171
100
AcDbArc
 50
270.0
 51
320.0
  0
ARC
  5
1F3
330
1F
100
AcDbEntity
  8
0
  6
Continuous
 62
     7
370
    15
100
AcDbCircle
 10
315.5115099921
 20
219.5753644647
 30
0.0
 40
0.0500000000000682
100
AcDbArc
 50
180.0
 51
270.0
  0
LINE
  5
1F4
330
1F
100
AcDbEntity
  8
0
  6
Continuous
 62
     7
370
    15
100
AcDbLine
 10
315.4615075506
 20
231.4441319282
 30
0.0
 11
315.4615075506
 21
219.5753646742
 31
0.0
  0
LINE
  5
1F5
330
1F
100
AcDbEntity
  8
0
  6
Continuous
 62
     7
370
    15
100
AcDbLine
 10
317.2535867609
 20
231.4941318433
 30
0.0
 11
315.5115098871
 21
231.4941318433
 31
0.0
  0
ARC
  5
1F6
330
1F
100
AcDbEntity
  8
0
  6
Continuous
 62
     7
370
    15
100
AcDbCircle
 10
317.2535896369
 20
231.4441319174
 30
0.0
 40
0.0500000000000114
100
AcDbArc
 50
18.0
 51
90.0
  0
LINE
  5
1F7
330
1F
100
AcDbEntity
  8
0
  6
Continuous
 62
     7
370
    15
100
AcDbLine
 10
319.7391660132
 20
223.9561145852
 30
0.0
 11
317.301145307
 21
231.459582756
 31
0.0
  0
ARC
  5
1F8
330
1F
100
AcDbEntity
  8
0
  6
Continuous
 62
     7
370
    15
100
AcDbCircle
 10
320.8138608712
 20
224.3053039652
 30
0.0
 40
1.130000000000009
100
AcDbArc
 50
198.0
 51
250.0
  0
LINE
  5
1F9
330
1F
100
AcDbEntity
  8
0
  6
Continuous
 62
     7
370
    15
100
AcDbLine
 10
322.3724157728
 20
222.535514618
 30
0.0
 11
320.4273791231
 21
223.24345165
 31
0.0
  0
ARC
  5
1FA
330
1F
100
AcDbEntity
  8
0
  6
Continuous
 62
     7
370
    15
100
AcDbCircle
 10
322.0474982491
 20
221.642806913
 30
0.0
 40
0.9499999999999823
100
AcDbArc
 50
320.0
 51
70.0
  0
LINE
  5
1FB
330
1F
100
AcDbEntity
  8
0
  6
Continuous
 62
     7
370
    15
100
AcDbLine
 10
315.4115111746
 20
219.5753646742
 30
0.0
 11
315.4115111746
 21
231.4441319282
 31
0.0
  0
LINE
  5
1FC
330
1F
100
AcDbEntity
  8
0
  6
Continuous
 62
     7
370
    15
100
AcDbLine
 10
315.4615075506
 20
219.5753646742
 30
0.0
 11
315.4115111746
 21
219.5753646742
 31
0.0
  0
ARC
  5
1FD
330
1F
100
AcDbEntity
  8
0
  6
Continuous
 62
     7
370
    15
100
AcDbCircle
 10
315.5115099921
 20
219.5753644647
 30
0.0
 40
0.1000000000000796
100
AcDbArc
 50
180.0
 51
270.0
  0
LWPOLYLINE
  5
1FE
330
1F
100
AcDbEntity
  8
0
  6
Continuous
 62
     7
370
    15
100
AcDbPolyline
 90
        9
 70
   128
 43
0.0
 10
319.7867185988
 20
223.9715655993
 10
319.7858066477
 20
223.9712686936
 10
319.7831005968
 20
223.9703895251
 10
319.7787077345
 20
223.9689616214
 10
319.7727889933
 20
223.9670401166
 10
319.7655887522
 20
223.9646987717
 10
319.7573633112
 20
223.962027366
 10
319.7484464563
 20
223.9591290902
 10
319.7391660132
 20
223.9561145852
  0
LWPOLYLINE
  5
1FF
330
1F
100
AcDbEntity
  8
0
  6
Continuous
 62
     7
370
    15
100
AcDbPolyline
 90
        9
 70
   128
 43
0.0
 10
320.4444796957
 20
223.2904357563
 10
320.4441518702
 20
223.289533491
 10
320.4431803145
 20
223.2868594776
 10
320.4415948309
 20
223.2825172792
 10
320.4394729055
 20
223.2766745339
 10
320.4368801035
 20
223.2695547591
 10
320.4339237131
 20
223.2614313911
 10
320.4307169832
 20
223.2526173542
 10
320.4273791231
 20
223.24345165
  0
LWPOLYLINE
  5
200
330
1F
100
AcDbEntity
  8
0
  6
Continuous
 62
     7
370
    15
100
AcDbPolyline
 90
        9
 70
   128
 43
0.0
 10
322.3724157728
 20
222.535514618
 10
322.3757536329
 20
222.5446810673
 10
322.3789603628
 20
222.5534951042
 10
322.3819167532
 20
222.5616184722
 10
322.3845095553
 20
222.568738247
 10
322.3866374411
 20
222.5745809923
 10
322.3882169642
 20
222.5789231907
 10
322.3891885199
 20
222.581596459
 10
322.3895163454
 20
222.5824994694
  0
LWPOLYLINE
  5
201
330
1F
100
AcDbEntity
  8
0
  6
Continuous
 62
     7
370
    15
100
AcDbPolyline
 90
        9
 70
   128
 43
0.0
 10
322.7752418436
 20
221.0321588169
 10
322.7827103056
 20
221.0258884083
 10
322.7898986258
 20
221.0198593984
 10
322.7965207018
 20
221.0143027554
 10
322.8023261942
 20
221.009433056
 10
322.8070886053
 20
221.0054358195
 10
322.8106291212
 20
221.002466018
 10
322.8128046908
 20
221.0006369005
 10
322.8135437883
 20
221.0000192474
  0
LWPOLYLINE
  5
202
330
1F
100
AcDbEntity
  8
0
  6
Continuous
 62
     7
370
    15
100
AcDbPolyline
 90
        9
 70
   128
 43
0.0
 10
321.5333731093
 20
219.5521553706
 10
321.5408415712
 20
219.5458849619
 10
321.5480298914
 20
219.5398559521
 10
321.5546519674
 20
219.5343000542
 10
321.5604514994
 20
219.5294296096
 10
321.565219871
 20
219.5254323731
 10
321.5687544264
 20
219.5224625717
 10
321.5709359564
 20
219.5206334542
 10
321.571675054
 20
219.520015801
  0
LINE
  5
203
330
1F
100
AcDbEntity
  8
0
  6
Continuous
 62
     7
370
    15
100
AcDbLine
 10
317.2354252256
 20
231.5441319446
 30
0.0
 11
317.2354252256
 21
231.624131995
 31
0.0
  0
LINE
  5
204
330
1F
100
AcDbEntity
  8
0
  6
Continuous
 62
     7
370
    15
100
AcDbLine
 10
315.6115085997
 20
231.624131995
 30
0.0
 11
315.6115085997
 21
231.5441319446
 31
0.0
  0
LINE
  5
205
330
1F
100
AcDbEntity
  8
0
  6
Continuous
 62
     7
370
    15
100
AcDbLine
 10
315.6115085997
 20
231.624131995
 30
0.0
 11
317.2354252256
 21
231.624131995
 31
0.0
  0
LINE
  5
206
330
1F
100
AcDbEntity
  8
0
  6
Continuous
 62
     7
370
    15
100
AcDbLine
 10
315.6115085997
 20
231.5441319446
 30
0.0
 11
317.2354252256
 21
231.5441319446
 31
0.0
  0
LINE
  5
207
330
1F
100
AcDbEntity
  8
0
  6
Continuous
 62
     7
370
    15
100
AcDbLine
 10
315.4115111746
 20
231.5441319446
 30
0.0
 11
315.4115111746
 21
231.624131995
 31
0.0
  0
LINE
  5
208
330
1F
100
AcDbEntity
  8
0
  6
Continuous
 62
     7
370
    15
100
AcDbLine
 10
315.4115111746
 20
231.624131995
 30
0.0
 11
315.6115085997
 21
231.624131995
 31
0.0
  0
LINE
  5
209
330
1F
100
AcDbEntity
  8
0
  6
Continuous
 62
     7
370
    15
100
AcDbLine
 10
315.6115085997
 20
231.5441319446
 30
0.0
 11
315.4115111746
 21
231.5441319446
 31
0.0
  0
LINE
  5
20A
330
1F
100
AcDbEntity
  8
0
  6
Continuous
 62
     7
370
    15
100
AcDbLine
 10
321.4759142317
 20
219.3953646074
 30
0.0
 11
321.4759142317
 21
219.4753644715
 31
0.0
  0
LINE
  5
20B
330
1F
100
AcDbEntity
  8
0
  6
Continuous
 62
     7
370
    15
100
AcDbLine
 10
315.6115085997
 20
219.3953646074
 30
0.0
 11
321.4759142317
 21
219.3953646074
 31
0.0
  0
LINE
  5
20C
330
1F
100
AcDbEntity
  8
0
  6
Continuous
 62
     7
370
    15
100
AcDbLine
 10
315.6115085997
 20
219.4753644715
 30
0.0
 11
315.6115085997
 21
219.3953646074
 31
0.0
  0
LINE
  5
20D
330
1F
100
AcDbEntity
  8
0
  6
Continuous
 62
     7
370
    15
100
AcDbLine
 10
315.6115085997
 20
219.4753644715
 30
0.0
 11
321.4759142317
 21
219.4753644715
 31
0.0
  0
LINE
  5
20E
330
1F
100
AcDbEntity
  8
0
  6
Continuous
 62
     7
370
    15
100
AcDbLine
 10
315.6115085997
 20
219.3953646074
 30
0.0
 11
315.4115111746
 21
219.3953646074
 31
0.0
  0
LINE
  5
20F
330
1F
100
AcDbEntity
  8
0
  6
Continuous
 62
     7
370
    15
100
AcDbLine
 10
315.4115111746
 20
219.3953646074
 30
0.0
 11
315.4115111746
 21
219.4753644715
 31
0.0
  0
LINE
  5
210
330
1F
100
AcDbEntity
  8
0
  6
Continuous
 62
     7
370
    15
100
AcDbLine
 10
315.4115111746
 20
219.4753644715
 30
0.0
 11
315.6115085997
 21
219.4753644715
 31
0.0
  0
LINE
  5
211
330
1F
100
AcDbEntity
  8
0
  6
Continuous
 62
     7
370
    15
100
AcDbLine
 10
319.8628039278
 20
223.9962869982
 30
0.0
 11
317.4303920187
 21
231.4824804391
 31
0.0
  0
LINE
  5
212
330
1F
100
AcDbEntity
  8
0
  6
Continuous
 62
     7
370
    15
100
AcDbLine
 10
319.7867185988
 20
223.9715655993
 30
0.0
 11
319.8628039278
 21
223.9962869982
 31
0.0
  0
LINE
  5
213
330
1F
100
AcDbEntity
  8
0
  6
Continuous
 62
     7
370
    15
100
AcDbLine
 10
319.7867185988
 20
223.9715655993
 30
0.0
 11
317.3543066897
 21
231.4577590401
 31
0.0
  0
LINE
  5
214
330
1F
100
AcDbEntity
  8
0
  6
Continuous
 62
     7
370
    15
100
AcDbLine
 10
317.3543066897
 20
231.4577590401
 30
0.0
 11
317.4303920187
 21
231.4824804391
 31
0.0
  0
ARC
  5
215
330
1F
100
AcDbEntity
  8
0
  6
Continuous
 62
     7
370
    15
100
AcDbCircle
 10
317.2354260737
 20
231.4191319174
 30
0.0
 40
0.2049999999999841
100
AcDbArc
 50
18.0
 51
90.0
  0
ARC
  5
216
330
1F
100
AcDbEntity
  8
0
  6
Continuous
 62
     7
370
    15
100
AcDbCircle
 10
317.2354260737
 20
231.4191319174
 30
0.0
 40
0.125
100
AcDbArc
 50
18.0
 51
90.0
  0
LINE
  5
217
330
1F
100
AcDbEntity
  8
0
  6
Continuous
 62
     7
370
    15
100
AcDbLine
 10
322.3895163454
 20
222.5824994694
 30
0.0
 11
322.4168808378
 21
222.6576750825
 31
0.0
  0
LINE
  5
218
330
1F
100
AcDbEntity
  8
0
  6
Continuous
 62
     7
370
    15
100
AcDbLine
 10
322.3895163454
 20
222.5824994694
 30
0.0
 11
320.4444796957
 21
223.2904357563
 31
0.0
  0
LINE
  5
219
330
1F
100
AcDbEntity
  8
0
  6
Continuous
 62
     7
370
    15
100
AcDbLine
 10
320.4718382277
 20
223.3656113695
 30
0.0
 11
320.4444796957
 21
223.2904357563
 31
0.0
  0
LINE
  5
21A
330
1F
100
AcDbEntity
  8
0
  6
Continuous
 62
     7
370
    15
100
AcDbLine
 10
322.4168808378
 20
222.6576750825
 30
0.0
 11
320.4718382277
 21
223.3656113695
 31
0.0
  0
ARC
  5
21B
330
1F
100
AcDbEntity
  8
0
  6
Continuous
 62
     7
370
    15
100
AcDbCircle
 10
320.8138608712
 20
224.3053039652
 30
0.0
 40
1.080000000000003
100
AcDbArc
 50
198.0
 51
250.0
  0
ARC
  5
21C
330
1F
100
AcDbEntity
  8
0
  6
Continuous
 62
     7
370
    15
100
AcDbCircle
 10
320.8138608712
 20
224.3053039652
 30
0.0
 40
1.00000000000003
100
AcDbArc
 50
198.0
 51
250.0
  0
LINE
  5
21D
330
1F
100
AcDbEntity
  8
0
  6
Continuous
 62
     7
370
    15
100
AcDbLine
 10
321.571675054
 20
219.520015801
 30
0.0
 11
321.6329545893
 21
219.4685926388
 31
0.0
  0
LINE
  5
21E
330
1F
100
AcDbEntity
  8
0
  6
Continuous
 62
     7
370
    15
100
AcDbLine
 10
321.571675054
 20
219.520015801
 30
0.0
 11
322.8135437883
 21
221.0000192474
 31
0.0
  0
LINE
  5
21F
330
1F
100
AcDbEntity
  8
0
  6
Continuous
 62
     7
370
    15
100
AcDbLine
 10
322.8748233236
 20
220.9485960852
 30
0.0
 11
322.8135437883
 21
221.0000192474
 31
0.0
  0
LINE
  5
220
330
1F
100
AcDbEntity
  8
0
  6
Continuous
 62
     7
370
    15
100
AcDbLine
 10
321.6329545893
 20
219.4685926388
 30
0.0
 11
322.8748233236
 21
220.9485960852
 31
0.0
  0
ARC
  5
221
330
1F
100
AcDbEntity
  8
0
  6
Continuous
 62
     7
370
    15
100
AcDbCircle
 10
321.4759169222
 20
219.6003644647
 30
0.0
 40
0.1250000000000037
100
AcDbArc
 50
270.0
 51
320.0
  0
ARC
  5
222
330
1F
100
AcDbEntity
  8
0
  6
Continuous
 62
     7
370
    15
100
AcDbCircle
 10
321.4759169222
 20
219.6003644647
 30
0.0
 40
0.2049999999999915
100
AcDbArc
 50
270.0
 51
320.0
  0
ARC
  5
223
330
1F
100
AcDbEntity
  8
0
  6
Continuous
 62
     7
370
    15
100
AcDbCircle
 10
322.0474982491
 20
221.642806913
 30
0.0
 40
0.9999999999999973
100
AcDbArc
 50
320.0
 51
70.0
  0
ARC
  5
224
330
1F
100
AcDbEntity
  8
0
  6
Continuous
 62
     7
370
    15
100
AcDbCircle
 10
322.0474982491
 20
221.642806913
 30
0.0
 40
1.079999999999984
100
AcDbArc
 50
320.0
 51
70.0
  0
LINE
  5
225
330
1F
100
AcDbEntity
  8
0
  6
Continuous
 62
     7
370
    15
100
AcDbLine
 10
317.3910648741
 20
231.6035268556
 30
0.0
 11
317.4303920187
 21
231.4824804391
 31
0.0
  0
ARC
  5
226
330
1F
100
AcDbEntity
  8
0
  6
Continuous
 62
     7
370
    15
100
AcDbCircle
 10
317.5099443358
 20
231.6421540142
 30
0.0
 40
0.2050000000000341
100
AcDbArc
 50
170.6830271436
 51
188.7082319089
  0
ARC
  5
227
330
1F
100
AcDbEntity
  8
0
  6
Continuous
 62
     7
370
    15
100
AcDbCircle
 10
317.5099443358
 20
231.6421540142
 30
0.0
 40
0.1250000000000365
100
AcDbArc
 50
164.602759144
 51
198.0
  0
LINE
  5
228
330
1F
100
AcDbEntity
  8
0
  6
Continuous
 62
     7
370
    15
100
AcDbLine
 10
248.1379210196
 20
233.6203643779
 30
0.0
 11
248.1379210196
 21
233.3753643285
 31
0.0
  0
LINE
  5
229
330
1F
100
AcDbEntity
  8
0
  6
Continuous
 62
     7
370
    15
100
AcDbLine
 10
244.7579210803
 20
233.6203643779
 30
0.0
 11
248.1379210196
 21
233.6203643779
 31
0.0
  0
LINE
  5
22A
330
1F
100
AcDbEntity
  8
0
  6
Continuous
 62
     7
370
    15
100
AcDbLine
 10
244.7579210803
 20
233.3753643285
 30
0.0
 11
244.7579210803
 21
233.6203643779
 31
0.0
  0
ARC
  5
22B
330
1F
100
AcDbEntity
  8
0
  6
Continuous
 62
     7
370
    15
100
AcDbCircle
 10
244.9479210875
 20
237.9303644647
 30
0.0
 40
0.1900000000000261
100
AcDbArc
 50
90.0
 51
180.0
  0
LINE
  5
22C
330
1F
100
AcDbEntity
  8
0
  6
Continuous
 62
     7
370
    15
100
AcDbLine
 10
247.9479211561
 20
238.1203641842
 30
0.0
 11
244.9479210835
 21
238.1203641842
 31
0.0
  0
ARC
  5
22D
330
1F
100
AcDbEntity
  8
0
  6
Continuous
 62
     7
370
    15
100
AcDbCircle
 10
247.9479210875
 20
237.9303644647
 30
0.0
 40
0.1899999999999977
100
AcDbArc
 50
0.0
 51
90.0
  0
LINE
  5
22E
330
1F
100
AcDbEntity
  8
0
  6
Continuous
 62
     7
370
    15
100
AcDbLine
 10
248.1379210196
 20
233.6203643779
 30
0.0
 11
248.1379210196
 21
237.9303646932
 31
0.0
  0
LINE
  5
22F
330
1F
100
AcDbEntity
  8
0
  6
Continuous
 62
     7
370
    15
100
AcDbLine
 10
244.7579210803
 20
237.9303646932
 30
0.0
 11
244.7579210803
 21
233.6203643779
 31
0.0
  0
LINE
  5
230
330
1F
100
AcDbEntity
  8
0
  6
Continuous
 62
     7
370
    15
100
AcDbLine
 10
315.7150120653
 20
231.6753428157
 30
0.0
 11
315.4700131334
 21
231.6753428157
 31
0.0
  0
LINE
  5
231
330
1F
100
AcDbEntity
  8
0
  6
Continuous
 62
     7
370
    15
100
AcDbLine
 10
315.4700131334
 20
233.1453425537
 30
0.0
 11
315.4700131334
 21
231.6753428157
 31
0.0
  0
LINE
  5
232
330
1F
100
AcDbEntity
  8
0
  6
Continuous
 62
     7
370
    15
100
AcDbLine
 10
315.4700131334
 20
233.1453425537
 30
0.0
 11
315.7150120653
 21
233.1453425537
 31
0.0
  0
LINE
  5
233
330
1F
100
AcDbEntity
  8
0
  6
Continuous
 62
     7
370
    15
100
AcDbLine
 10
315.7150120653
 20
233.1453425537
 30
0.0
 11
315.7150120653
 21
231.6753428157
 31
0.0
  0
LINE
  5
234
330
1F
100
AcDbEntity
  8
0
  6
Continuous
 62
     7
370
    15
100
AcDbLine
 10
315.7150120653
 20
233.4253428231
 30
0.0
 11
315.7150120653
 21
233.1453425537
 31
0.0
  0
LINE
  5
235
330
1F
100
AcDbEntity
  8
0
  6
Continuous
 62
     7
370
    15
100
AcDbLine
 10
315.0650114931
 20
233.4253428231
 30
0.0
 11
315.7150120653
 21
233.4253428231
 31
0.0
  0
LINE
  5
236
330
1F
100
AcDbEntity
  8
0
  6
Continuous
 62
     7
370
    15
100
AcDbLine
 10
315.0650114931
 20
236.9253424655
 30
0.0
 11
315.0650114931
 21
233.4253428231
 31
0.0
  0
ARC
  5
237
330
1F
100
AcDbEntity
  8
0
  6
Continuous
 62
     7
370
    15
100
AcDbCircle
 10
315.2650141204
 20
236.9253427255
 30
0.0
 40
0.1999999999999886
100
AcDbArc
 50
90.0
 51
180.0
  0
LINE
  5
238
330
1F
100
AcDbEntity
  8
0
  6
Continuous
 62
     7
370
    15
100
AcDbLine
 10
318.9650149263
 20
237.1253428708
 30
0.0
 11
315.2650148787
 21
237.1253428708
 31
0.0
  0
ARC
  5
239
330
1F
100
AcDbEntity
  8
0
  6
Continuous
 62
     7
370
    15
100
AcDbCircle
 10
318.9750141204
 20
234.8253644647
 30
0.0
 40
2.300000000000009
100
AcDbArc
 50
296.1145004007
 51
90.2491128697
  0
LINE
  5
23A
330
1F
100
AcDbEntity
  8
0
  6
Continuous
 62
     7
370
    15
100
AcDbLine
 10
317.5533265986
 20
231.6921958427
 30
0.0
 11
319.9873955168
 21
232.7601572226
 31
0.0
  0
ARC
  5
23B
330
1F
100
AcDbEntity
  8
0
  6
Continuous
 62
     7
370
    15
100
AcDbCircle
 10
317.472967225
 20
231.8753427255
 30
0.0
 40
0.2000000000000171
100
AcDbArc
 50
270.0
 51
293.6896982314
  0
LINE
  5
23C
330
1F
100
AcDbEntity
  8
0
  6
Continuous
 62
     7
370
    15
100
AcDbLine
 10
315.7150120653
 20
231.6753428157
 30
0.0
 11
317.4729676165
 21
231.6753428157
 31
0.0
  0
ARC
  5
23D
330
1F
100
AcDbEntity
  8
0
  6
Continuous
 62
     7
370
    15
100
AcDbCircle
 10
317.7750141204
 20
233.8559085583
 30
0.0
 40
0.0250351101093122
100
AcDbArc
 50
79.8945592916
 51
263.9942235049
  0
ARC
  5
23E
330
1F
100
AcDbEntity
  8
0
  6
Continuous
 62
     7
370
    15
100
AcDbCircle
 10
317.7250141204
 20
233.5753644647
 30
0.0
 40
0.26000000000002
100
AcDbArc
 50
280.4998591652
 51
79.5001408348
  0
ARC
  5
23F
330
1F
100
AcDbEntity
  8
0
  6
Continuous
 62
     7
370
    15
100
AcDbCircle
 10
317.7750141204
 20
233.2948203711
 30
0.0
 40
0.0250351101093322
100
AcDbArc
 50
96.0057764951
 51
280.1054407085
  0
ARC
  5
240
330
1F
100
AcDbEntity
  8
0
  6
Continuous
 62
     7
370
    15
100
AcDbCircle
 10
317.7250141204
 20
233.5753644647
 30
0.0
 40
0.3100000000000025
100
AcDbArc
 50
280.1054407084
 51
79.8945592916
  0
ARC
  5
241
330
1F
100
AcDbEntity
  8
0
  6
Continuous
 62
     7
370
    15
100
AcDbCircle
 10
317.7250141204
 20
233.5753644647
 30
0.0
 40
0.3100000000000029
100
AcDbArc
 50
100.8891073053
 51
259.1110070998
  0
ARC
  5
242
330
1F
100
AcDbEntity
  8
0
  6
Continuous
 62
     7
370
    15
100
AcDbCircle
 10
317.6711828527
 20
233.2955331499
 30
0.0
 40
0.0250379496815755
100
AcDbArc
 50
259.1110070997
 51
83.3730607603
  0
ARC
  5
243
330
1F
100
AcDbEntity
  8
0
  6
Continuous
 62
     7
370
    15
100
AcDbCircle
 10
317.7250141204
 20
233.5753644647
 30
0.0
 40
0.2600000000000041
100
AcDbArc
 50
101.3148497955
 51
258.700947069
  0
ARC
  5
244
330
1F
100
AcDbEntity
  8
0
  6
Continuous
 62
     7
370
    15
100
AcDbCircle
 10
317.6711828527
 20
233.8551927675
 30
0.0
 40
0.0250409074676981
100
AcDbArc
 50
276.4642622072
 51
100.8891073054
  0
LINE
  5
245
330
1F
100
AcDbEntity
  8
0
  6
Continuous
 62
     7
370
    15
100
AcDbLine
 10
315.4700131334
 20
233.1453425537
 30
0.0
 11
315.3969199576
 21
233.1453425537
 31
0.0
  0
LINE
  5
246
330
1F
100
AcDbEntity
  8
0
  6
Continuous
 62
     7
370
    15
100
AcDbLine
 10
315.3969199576
 20
231.6753428157
 30
0.0
 11
315.4700131334
 21
231.6753428157
 31
0.0
  0
LINE
  5
247
330
1F
100
AcDbEntity
  8
0
  6
Continuous
 62
     7
370
    15
100
AcDbLine
 10
317.5534279265
 20
231.6921971466
 30
0.0
 11
317.5775618471
 21
231.7027872156
 31
0.0
  0
ARC
  5
248
330
1F
100
AcDbEntity
  8
0
  6
Continuous
 62
     7
370
    15
100
AcDbCircle
 10
317.4730668054
 20
231.8753427255
 30
0.0
 40
0.2000000000000171
100
AcDbArc
 50
270.0
 51
293.6906453817
  0
LINE
  5
249
330
1F
100
AcDbEntity
  8
0
  6
Continuous
 62
     7
370
    15
100
AcDbLine
 10
248.1379210196
 20
236.9103645633
 30
0.0
 11
315.035918466
 21
236.9103645633
 31
0.0
  0
LINE
  5
24A
330
1F
100
AcDbEntity
  8
0
  6
Continuous
 62
     7
370
    15
100
AcDbLine
 10
315.035918466
 20
233.6203643779
 30
0.0
 11
315.035918466
 21
236.9103645633
 31
0.0
  0
LINE
  5
24B
330
1F
100
AcDbEntity
  8
0
  6
Continuous
 62
     7
370
    15
100
AcDbLine
 10
248.1379210196
 20
233.6203643779
 30
0.0
 11
315.035918466
 21
233.6203643779
 31
0.0
  0
LINE
  5
24C
330
1F
100
AcDbEntity
  8
0
  6
Continuous
 62
     7
370
    15
100
AcDbLine
 10
248.1379210196
 20
236.9103645633
 30
0.0
 11
248.1379210196
 21
233.6203643779
 31
0.0
  0
LINE
  5
24D
330
1F
100
AcDbEntity
  8
0
  6
Continuous
 62
     7
370
    15
100
AcDbLine
 10
315.035918466
 20
233.6203643779
 30
0.0
 11
315.035918466
 21
233.3753643285
 31
0.0
  0
LINE
  5
24E
330
1F
100
AcDbEntity
  8
0
  6
Continuous
 62
     7
370
    15
100
AcDbLine
 10
315.035918466
 20
237.1553642403
 30
0.0
 11
315.035918466
 21
236.9103645633
 31
0.0
  0
LINE
  5
24F
330
1F
100
AcDbEntity
  8
0
  6
Continuous
 62
     7
370
    15
100
AcDbLine
 10
248.1379210196
 20
237.1553642403
 30
0.0
 11
315.035918466
 21
237.1553642403
 31
0.0
  0
LINE
  5
250
330
1F
100
AcDbEntity
  8
0
  6
Continuous
 62
     7
370
    15
100
AcDbLine
 10
244.6369210903
 20
233.3753643285
 30
0.0
 11
244.7569210727
 21
233.3753643285
 31
0.0
  0
LINE
  5
251
330
1F
100
AcDbEntity
  8
0
  6
Continuous
 62
     7
370
    15
100
AcDbLine
 10
244.6369210903
 20
237.9303646932
 30
0.0
 11
244.6369210903
 21
233.3753643285
 31
0.0
  0
LINE
  5
252
330
1F
100
AcDbEntity
  8
0
  6
Continuous
 62
     7
370
    15
100
AcDbLine
 10
244.7569210727
 20
237.9303646932
 30
0.0
 11
244.6369210903
 21
237.9303646932
 31
0.0
  0
LINE
  5
253
330
1F
100
AcDbEntity
  8
0
  6
Continuous
 62
     7
370
    15
100
AcDbLine
 10
244.7569210727
 20
237.9303646932
 30
0.0
 11
244.7569210727
 21
233.3753643285
 31
0.0
  0
ARC
  5
254
330
1F
100
AcDbEntity
  8
0
  6
Continuous
 62
     7
370
    15
100
AcDbCircle
 10
244.8819210875
 20
237.9303644647
 30
0.0
 40
0.2450000000000199
100
AcDbArc
 50
113.3114456815
 51
180.0
  0
LWPOLYLINE
  5
255
330
1F
100
AcDbEntity
  8
0
  6
Continuous
 62
     7
370
    15
100
AcDbPolyline
 90
        3
 70
   128
 43
0.0
 10
244.7598074742
 20
237.9570712994
 10
244.759322907
 20
237.9547504435
 10
244.7569210727
 20
237.9303646932
  0
ARC
  5
256
330
1F
100
AcDbEntity
  8
0
  6
Continuous
 62
     7
370
    15
100
AcDbCircle
 10
247.8919210875
 20
237.9303644647
 30
0.0
 40
0.2450000000000312
100
AcDbArc
 50
9.5338064879
 51
66.6885543185
  0
LINE
  5
257
330
1F
100
AcDbEntity
  8
0
  6
Continuous
 62
     7
370
    15
100
AcDbLine
 10
315.0979967035
 20
237.0353644441
 30
0.0
 11
315.0819213308
 21
237.0353644441
 31
0.0
  0
LINE
  5
258
330
1F
100
AcDbEntity
  8
0
  6
Continuous
 62
     7
370
    15
100
AcDbLine
 10
315.0819213308
 20
237.1553642403
 30
0.0
 11
315.0819213308
 21
237.0353644441
 31
0.0
  0
LINE
  5
259
330
1F
100
AcDbEntity
  8
0
  6
Continuous
 62
     7
370
    15
100
AcDbLine
 10
318.9750165857
 20
237.1553642403
 30
0.0
 11
315.0819213308
 21
237.1553642403
 31
0.0
  0
LINE
  5
25A
330
1F
100
AcDbEntity
  8
0
  6
Continuous
 62
     7
370
    15
100
AcDbLine
 10
317.5775439657
 20
231.7028235371
 30
0.0
 11
317.5869913019
 21
231.6811062123
 31
0.0
  0
LINE
  5
25B
330
1F
100
AcDbEntity
  8
0
  6
Continuous
 62
     7
370
    15
100
AcDbLine
 10
317.5869913019
 20
231.6811062123
 30
0.0
 11
319.9040980257
 21
232.6886145125
 31
0.0
  0
ARC
  5
25C
330
1F
100
AcDbEntity
  8
0
  6
Continuous
 62
     7
370
    15
100
AcDbCircle
 10
318.9750141204
 20
234.8253644647
 30
0.0
 40
2.330000000000013
100
AcDbArc
 50
293.5
 51
90.0
  0
LINE
  5
25D
330
1F
100
AcDbEntity
  8
0
  6
Continuous
 62
     7
370
    15
100
AcDbLine
 10
315.0819213308
 20
237.1553642403
 30
0.0
 11
315.035918466
 21
237.1510071407
 31
0.0
  0
LWPOLYLINE
  5
25E
330
1F
100
AcDbEntity
  8
0
  6
Continuous
 62
     7
370
    15
100
AcDbPolyline
 90
        3
 70
   128
 43
0.0
 10
315.0819213308
 20
237.0353644441
 10
315.0575370707
 20
237.0329623769
 10
315.035918466
 20
237.0265928756
  0
LINE
  5
25F
330
1F
100
AcDbEntity
  8
0
  6
Continuous
 62
     8
370
    15
100
AcDbLine
 10
313.5369212545
 20
148.3653647552
 30
0.0
 11
307.8369231142
 21
148.3653647552
 31
0.0
  0
LINE
  5
260
330
1F
100
AcDbEntity
  8
0
  6
Continuous
 62
     8
370
    15
100
AcDbLine
 10
254.6369210996
 20
148.3653647552
 30
0.0
 11
248.9369210966
 21
148.3653647552
 31
0.0
  0
LINE
  5
261
330
1F
100
AcDbEntity
  8
0
  6
Continuous
 62
     8
370
    15
100
AcDbLine
 10
254.9769208945
 20
164.8153645645
 30
0.0
 11
248.5969209291
 21
164.8153645645
 31
0.0
  0
LINE
  5
262
330
1F
100
AcDbEntity
  8
0
  6
Continuous
 62
     8
370
    15
100
AcDbLine
 10
254.9769208945
 20
156.1686200748
 30
0.0
 11
248.5969209291
 21
156.1686200748
 31
0.0
  0
LINE
  5
263
330
1F
100
AcDbEntity
  8
0
  6
Continuous
 62
     8
370
    15
100
AcDbLine
 10
254.9705297865
 20
156.0913724552
 30
0.0
 11
248.6033124097
 21
156.0913724552
 31
0.0
  0
LINE
  5
264
330
1F
100
AcDbEntity
  8
0
  6
Continuous
 62
     8
370
    15
100
AcDbLine
 10
313.8769240297
 20
164.8153645645
 30
0.0
 11
307.496920339
 21
164.8153645645
 31
0.0
  0
LINE
  5
265
330
1F
100
AcDbEntity
  8
0
  6
Continuous
 62
     8
370
    15
100
AcDbLine
 10
313.8769240297
 20
156.1686200748
 30
0.0
 11
307.496920339
 21
156.1686200748
 31
0.0
  0
LINE
  5
266
330
1F
100
AcDbEntity
  8
0
  6
Continuous
 62
     8
370
    15
100
AcDbLine
 10
313.8705284514
 20
156.0913724552
 30
0.0
 11
307.5033099569
 21
156.0913724552
 31
0.0
  0
LINE
  5
267
330
1F
100
AcDbEntity
  8
0
  6
Continuous
 62
     8
370
    15
100
AcDbLine
 10
247.6069211207
 20
206.5953639994
 30
0.0
 11
247.6069211207
 21
206.8153647433
 31
0.0
  0
LINE
  5
268
330
1F
100
AcDbEntity
  8
0
  6
Continuous
 62
     8
370
    15
100
AcDbLine
 10
246.0369210869
 20
206.5953639994
 30
0.0
 11
246.0369210869
 21
206.8153647433
 31
0.0
  0
LINE
  5
269
330
1F
100
AcDbEntity
  8
0
  6
Continuous
 62
     8
370
    15
100
AcDbLine
 10
248.2069210328
 20
206.5953639994
 30
0.0
 11
248.2069210328
 21
206.8153647433
 31
0.0
  0
LINE
  5
26A
330
1F
100
AcDbEntity
  8
0
  6
Continuous
 62
     8
370
    15
100
AcDbLine
 10
255.3669207908
 20
206.5953639994
 30
0.0
 11
255.3669207908
 21
206.8153647433
 31
0.0
  0
LINE
  5
26B
330
1F
100
AcDbEntity
  8
0
  6
Continuous
 62
     8
370
    15
100
AcDbLine
 10
255.9669212617
 20
206.5953639994
 30
0.0
 11
255.9669212617
 21
206.8153647433
 31
0.0
  0
LINE
  5
26C
330
1F
100
AcDbEntity
  8
0
  6
Continuous
 62
     8
370
    15
100
AcDbLine
 10
257.5369210161
 20
206.5953639994
 30
0.0
 11
257.5369210161
 21
206.8153647433
 31
0.0
  0
LINE
  5
26D
330
1F
100
AcDbEntity
  8
0
  6
Continuous
 62
     8
370
    15
100
AcDbLine
 10
304.9369187273
 20
206.5953639994
 30
0.0
 11
304.9369187273
 21
206.8153647433
 31
0.0
  0
LINE
  5
26E
330
1F
100
AcDbEntity
  8
0
  6
Continuous
 62
     8
370
    15
100
AcDbLine
 10
306.5069229521
 20
206.5953639994
 30
0.0
 11
306.5069229521
 21
206.8153647433
 31
0.0
  0
LINE
  5
26F
330
1F
100
AcDbEntity
  8
0
  6
Continuous
 62
     8
370
    15
100
AcDbLine
 10
307.1069211878
 20
206.5953639994
 30
0.0
 11
307.1069211878
 21
206.8153647433
 31
0.0
  0
LINE
  5
270
330
1F
100
AcDbEntity
  8
0
  6
Continuous
 62
     8
370
    15
100
AcDbLine
 10
314.266923181
 20
206.5953639994
 30
0.0
 11
314.266923181
 21
206.8153647433
 31
0.0
  0
LINE
  5
271
330
1F
100
AcDbEntity
  8
0
  6
Continuous
 62
     8
370
    15
100
AcDbLine
 10
316.436919681
 20
206.5953639994
 30
0.0
 11
316.436919681
 21
206.8153647433
 31
0.0
  0
LINE
  5
272
330
1F
100
AcDbEntity
  8
0
  6
Continuous
 62
     8
370
    15
100
AcDbLine
 10
314.8669214167
 20
206.5953639994
 30
0.0
 11
314.8669214167
 21
206.8153647433
 31
0.0
  0
LINE
  5
273
330
1F
100
AcDbEntity
  8
0
  6
Continuous
 62
     8
370
    15
100
AcDbLine
 10
314.6169216551
 20
237.5755494188
 30
0.0
 11
314.6169216551
 21
237.5928019832
 31
0.0
  0
LINE
  5
274
330
1F
100
AcDbEntity
  8
0
  6
Continuous
 62
     8
370
    15
100
AcDbLine
 10
323.0740578093
 20
211.0008580337
 30
0.0
 11
323.0740578093
 21
212.7203641187
 31
0.0
  0
LINE
  5
275
330
1F
100
AcDbEntity
  8
0
  6
Continuous
 62
     8
370
    15
100
AcDbLine
 10
323.0740578093
 20
213.8003645192
 30
0.0
 11
323.0740578093
 21
215.5198706041
 31
0.0
  0
LINE
  5
276
330
1F
100
AcDbEntity
  8
0
  6
Continuous
 62
     8
370
    15
100
AcDbLine
 10
325.0779600062
 20
211.2838310848
 30
0.0
 11
325.0779600062
 21
211.6282982479
 31
0.0
  0
LINE
  5
277
330
1F
100
AcDbEntity
  8
0
  6
Continuous
 62
     8
370
    15
100
AcDbLine
 10
322.1369237818
 20
212.6607684146
 30
0.0
 11
321.9369203962
 21
212.6631749521
 31
0.0
  0
LINE
  5
278
330
1F
100
AcDbEntity
  8
0
  6
Continuous
 62
     8
370
    15
100
AcDbLine
 10
322.1369237818
 20
212.5548643719
 30
0.0
 11
321.9369203962
 21
212.5577566872
 31
0.0
  0
LINE
  5
279
330
1F
100
AcDbEntity
  8
0
  6
Continuous
 62
     8
370
    15
100
AcDbLine
 10
323.0869204916
 20
213.2603643189
 30
0.0
 11
323.0869204916
 21
213.8003645192
 31
0.0
  0
LINE
  5
27A
330
1F
100
AcDbEntity
  8
0
  6
Continuous
 62
     8
370
    15
100
AcDbLine
 10
323.0869204916
 20
212.7203641187
 30
0.0
 11
323.0869204916
 21
213.2603643189
 31
0.0
  0
LINE
  5
27B
330
1F
100
AcDbEntity
  8
0
  6
Continuous
 62
     8
370
    15
100
AcDbLine
 10
319.0298528589
 20
202.0203632961
 30
0.0
 11
312.6869232573
 21
202.0203632961
 31
0.0
  0
LINE
  5
27C
330
1F
100
AcDbEntity
  8
0
  6
Continuous
 62
     8
370
    15
100
AcDbLine
 10
308.6869211115
 20
202.0203632961
 30
0.0
 11
304.6369225897
 21
202.0203632961
 31
0.0
  0
LINE
  5
27D
330
1F
100
AcDbEntity
  8
0
  6
Continuous
 62
     8
370
    15
100
AcDbLine
 10
304.6369225897
 20
201.9403649221
 30
0.0
 11
253.7869208671
 21
201.9403649221
 31
0.0
  0
LINE
  5
27E
330
1F
100
AcDbEntity
  8
0
  6
Continuous
 62
     8
370
    15
100
AcDbLine
 10
244.7569210727
 20
235.0753644209
 30
0.0
 11
244.7579210803
 21
235.0753644209
 31
0.0
  0
LINE
  5
27F
330
1F
100
AcDbEntity
  8
0
  6
Continuous
 62
     8
370
    15
100
AcDbLine
 10
317.2535867609
 20
231.5428051825
 30
0.0
 11
317.2535867609
 21
231.4941318433
 31
0.0
  0
LWPOLYLINE
  5
280
330
1F
100
AcDbEntity
  8
0
  6
Continuous
 62
     8
370
    15
100
AcDbPolyline
 90
        8
 70
   128
 43
0.0
 10
317.3474342741
 20
231.4746236156
 10
317.3450739302
 20
231.4738575096
 10
317.3406810679
 20
231.4724296059
 10
317.3347682871
 20
231.4705081011
 10
317.3275620855
 20
231.4681667562
 10
317.319342605
 20
231.4654955368
 10
317.3104197897
 20
231.4625970747
 10
317.301145307
 20
231.459582756
  0
LINE
  5
281
330
1F
100
AcDbEntity
  8
0
  6
Continuous
 62
     8
370
    15
100
AcDbLine
 10
317.3910648741
 20
231.6035268556
 30
0.0
 11
317.3489363112
 21
231.5898388351
 31
0.0
  0
LINE
  5
282
330
1F
100
AcDbEntity
  8
0
  6
Continuous
 62
     8
370
    15
100
AcDbLine
 10
244.8819210932
 20
238.1553647767
 30
0.0
 11
244.8819210932
 21
238.1085326622
 31
0.0
  0
LINE
  5
283
330
1F
100
AcDbEntity
  8
0
  6
Continuous
 62
     8
370
    15
100
AcDbLine
 10
247.8919211023
 20
238.1203641842
 30
0.0
 11
247.8919211023
 21
238.1553647767
 31
0.0
  0
LINE
  5
284
330
1F
100
AcDbEntity
  8
0
  6
Continuous
 62
     8
370
    15
100
AcDbLine
 10
318.9750165857
 20
237.1253644775
 30
0.0
 11
318.9750165857
 21
237.1553642403
 31
0.0
  0
LINE
  5
285
330
1F
100
AcDbEntity
  8
0
  6
Continuous
 62
     8
370
    15
100
AcDbLine
 10
319.9040980257
 20
232.6886145125
 30
0.0
 11
319.8913187899
 21
232.7180033277
 31
0.0
  0
LINE
  5
286
330
1F
100
AcDbEntity
  8
0
  6
CENTERX2
 62
     7
370
     0
100
AcDbLine
 10
242.2969210875
 20
212.5953644647
 30
0.0
 11
241.8969210875
 21
212.5953644647
 31
0.0
  0
LINE
  5
287
330
1F
100
AcDbEntity
  8
0
  6
CENTERX2
 62
     7
370
     0
100
AcDbLine
 10
242.6969210875
 20
212.5953644647
 30
0.0
 11
242.2969210875
 21
212.5953644647
 31
0.0
  0
LINE
  5
288
330
1F
100
AcDbEntity
  8
0
  6
CENTERX2
 62
     7
370
     0
100
AcDbLine
 10
243.0969210875
 20
212.5953644647
 30
0.0
 11
242.6969210875
 21
212.5953644647
 31
0.0
  0
ENDSEC
  0
SECTION
  2
OBJECTS
  0
DICTIONARY
  5
C
330
0
100
AcDbDictionary
281
     1
  3
ACAD_GROUP
350
D
  3
ACAD_LAYOUT
350
1A
  3
ACAD_MLINESTYLE
350
17
  3
ACAD_PLOTSETTINGS
350
19
  3
ACAD_PLOTSTYLENAME
350
E
  0
DICTIONARY
  5
D
102
{ACAD_REACTORS
330
C
102
}
330
C
100
AcDbDictionary
281
     1
  0
DICTIONARY
  5
1A
102
{ACAD_REACTORS
330
C
102
}
330
C
100
AcDbDictionary
281
     1
  3
Layout1
350
1E
  3
Layout2
350
26
  3
Model
350
22
  0
DICTIONARY
  5
17
102
{ACAD_REACTORS
330
C
102
}
330
C
100
AcDbDictionary
281
     1
  3
Standard
350
18
  0
DICTIONARY
  5
19
102
{ACAD_REACTORS
330
C
102
}
330
C
100
AcDbDictionary
281
     1
  0
ACDBDICTIONARYWDFLT
  5
E
102
{ACAD_REACTORS
330
C
102
}
330
C
100
AcDbDictionary
281
     1
  3
Normal
350
F
100
AcDbDictionaryWithDefault
340
F
  0
LAYOUT
  5
1E
102
{ACAD_REACTORS
330
1A
102
}
330
1A
100
AcDbPlotSettings
  1

  2
none_device
  4

  6

 40
0.0
 41
0.0
 42
0.0
 43
0.0
 44
0.0
 45
0.0
 46
0.0
 47
0.0
 48
0.0
 49
0.0
140
0.0
141
0.0
142
1.0
143
1.0
 70
   688
 72
     0
 73
     0
 74
     5
  7

 75
    16
147
1.0
148
0.0
149
0.0
100
AcDbLayout
  1
Layout1
 70
     1
 71
     1
 10
0.0
 20
0.0
 11
420.0
 21
297.0
 12
0.0
 22
0.0
 32
0.0
 14
1.0000000000E+20
 24
1.0000000000E+20
 34
1.0000000000E+20
 15
-1.0000000000E+20
 25
-1.0000000000E+20
 35
-1.0000000000E+20
146
0.0
 13
0.0
 23
0.0
 33
0.0
 16
1.0
 26
0.0
 36
0.0
 17
0.0
 27
1.0
 37
0.0
 76
     0
330
1B
  0
LAYOUT
  5
26
102
{ACAD_REACTORS
330
1A
102
}
330
1A
100
AcDbPlotSettings
  1

  2
none_device
  4

  6

 40
0.0
 41
0.0
 42
0.0
 43
0.0
 44
0.0
 45
0.0
 46
0.0
 47
0.0
 48
0.0
 49
0.0
140
0.0
141
0.0
142
1.0
143
1.0
 70
   688
 72
     0
 73
     0
 74
     5
  7

 75
    16
147
1.0
148
0.0
149
0.0
100
AcDbLayout
  1
Layout2
 70
     1
 71
     2
 10
0.0
 20
0.0
 11
0.0
 21
0.0
 12
0.0
 22
0.0
 32
0.0
 14
0.0
 24
0.0
 34
0.0
 15
0.0
 25
0.0
 35
0.0
146
0.0
 13
0.0
 23
0.0
 33
0.0
 16
1.0
 26
0.0
 36
0.0
 17
0.0
 27
1.0
 37
0.0
 76
     0
330
23
  0
LAYOUT
  5
22
102
{ACAD_REACTORS
330
1A
102
}
330
1A
100
AcDbPlotSettings
  1

  2
none_device
  4

  6

 40
0.0
 41
0.0
 42
0.0
 43
0.0
 44
0.0
 45
0.0
 46
0.0
 47
0.0
 48
0.0
 49
0.0
140
0.0
141
0.0
142
1.0
143
1.0
 70
  1712
 72
     0
 73
     0
 74
     0
  7

 75
     0
147
1.0
148
0.0
149
0.0
100
AcDbLayout
  1
Model
 70
     1
 71
     0
 10
0.0
 20
0.0
 11
420.0
 21
297.0
 12
0.0
 22
0.0
 32
0.0
 14
0.0
 24
0.0
 34
0.0
 15
420.0
 25
297.0
 35
0.0
146
0.0
 13
0.0
 23
0.0
 33
0.0
 16
1.0
 26
0.0
 36
0.0
 17
0.0
 27
1.0
 37
0.0
 76
     0
330
1F
331
29
  0
MLINESTYLE
  5
18
102
{ACAD_REACTORS
330
17
102
}
330
17
100
AcDbMlineStyle
  2
Standard
 70
     0
  3

 62
   256
 51
90.0
 52
90.0
 71
     2
 49
0.5
 62
   256
  6
BYLAYER
 49
-0.5
 62
   256
  6
BYLAYER
  0
ACDBPLACEHOLDER
  5
F
102
{ACAD_REACTORS
330
E
102
}
330
E
  0
ENDSEC
  0
EOF
