  0
SECTION
  2
HEADER
  9
$ACADVER
  1
AC1015
  9
$ACADMAINTVER
 70
     6
  9
$DWGCODEPAGE
  3
ANSI_1252
  9
$INSBASE
 10
0.0
 20
0.0
 30
0.0
  9
$EXTMIN
 10
0.0
 20
0.0
 30
0.0
  9
$EXTMAX
 10
900.0
 20
1200.0
 30
0.0
  9
$LIMMIN
 10
0.0
 20
0.0
  9
$LIMMAX
 10
900.0
 20
1200.0
  9
$ORTHOMODE
 70
     0
  9
$REGENMODE
 70
     1
  9
$FILLMODE
 70
     1
  9
$QTEXTMODE
 70
     0
  9
$MIRRTEXT
 70
     1
  9
$LTSCALE
 40
1.0
  9
$ATTMODE
 70
     1
  9
$TEXTSIZE
 40
3.5
  9
$TRACEWID
 40
1.0
  9
$TEXTSTYLE
  7
Standard
  9
$CLAYER
  8
0
  9
$CELTYPE
  6
ByLayer
  9
$CECOLOR
 62
   256
  9
$CELTSCALE
 40
1.0
  9
$DISPSILH
 70
     0
  9
$DIMSCALE
 40
1.0
  9
$DIMASZ
 40
3.302
  9
$DIMEXO
 40
1.0
  9
$DIMDLI
 40
3.75
  9
$DIMRND
 40
0.0
  9
$DIMDLE
 40
0.0
  9
$DIMEXE
 40
1.0
  9
$DIMTP
 40
0.0
  9
$DIMTM
 40
0.0
  9
$DIMTXT
 40
3.5
  9
$DIMCEN
 40
2.5
  9
$DIMTSZ
 40
0.0
  9
$DIMTOL
 70
     0
  9
$DIMLIM
 70
     0
  9
$DIMTIH
 70
     1
  9
$DIMTOH
 70
     1
  9
$DIMSE1
 70
     0
  9
$DIMSE2
 70
     0
  9
$DIMTAD
 70
     1
  9
$DIMZIN
 70
     0
  9
$DIMBLK
  1

  9
$DIMASO
 70
     1
  9
$DIMSHO
 70
     1
  9
$DIMPOST
  1

  9
$DIMAPOST
  1

  9
$DIMALT
 70
     0
  9
$DIMALTD
 70
     3
  9
$DIMALTF
 40
0.0393700787
  9
$DIMLFAC
 40
1.0
  9
$DIMTOFL
 70
     1
  9
$DIMTVP
 40
0.0
  9
$DIMTIX
 70
     0
  9
$DIMSOXD
 70
     0
  9
$DIMSAH
 70
     0
  9
$DIMBLK1
  1

  9
$DIMBLK2
  1

  9
$DIMSTYLE
  2
ISO-25
  9
$DIMCLRD
 70
     0
  9
$DIMCLRE
 70
     0
  9
$DIMCLRT
 70
     0
  9
$DIMTFAC
 40
1.0
  9
$DIMGAP
 40
1.524
  9
$DIMJUST
 70
     0
  9
$DIMSD1
 70
     0
  9
$DIMSD2
 70
     0
  9
$DIMTOLJ
 70
     0
  9
$DIMTZIN
 70
     0
  9
$DIMALTZ
 70
     0
  9
$DIMALTTZ
 70
     0
  9
$DIMUPT
 70
     0
  9
$DIMDEC
 70
     3
  9
$DIMTDEC
 70
     3
  9
$DIMALTU
 70
     2
  9
$DIMALTTD
 70
     3
  9
$DIMTXSTY
  7
Standard
  9
$DIMAUNIT
 70
     0
  9
$DIMADEC
 70
     2
  9
$DIMALTRND
 40
0.0
  9
$DIMAZIN
 70
     0
  9
$DIMDSEP
 70
    44
  9
$DIMATFIT
 70
     3
  9
$DIMFRAC
 70
     0
  9
$DIMLDRBLK
  1

  9
$DIMLUNIT
 70
     2
  9
$DIMLWD
 70
    -2
  9
$DIMLWE
 70
    -2
  9
$DIMTMOVE
 70
     0
  9
$LUNITS
 70
     2
  9
$LUPREC
 70
     8
  9
$SKETCHINC
 40
1.0
  9
$FILLETRAD
 40
10.0
  9
$AUNITS
 70
     0
  9
$AUPREC
 70
     8
  9
$MENU
  1
.
  9
$ELEVATION
 40
0.0
  9
$PELEVATION
 40
0.0
  9
$THICKNESS
 40
0.0
  9
$LIMCHECK
 70
     0
  9
$CHAMFERA
 40
0.0
  9
$CHAMFERB
 40
0.0
  9
$CHAMFERC
 40
0.0
  9
$CHAMFERD
 40
0.0
  9
$SKPOLY
 70
     0
  9
$TDCREATE
 40
2458432.42512522
  9
$TDUCREATE
 40
2458432.42512522
  9
$TDUPDATE
 40
2458432.425126609
  9
$TDUUPDATE
 40
2458432.425126609
  9
$TDINDWG
 40
0.0000000116
  9
$TDUSRTIMER
 40
0.0000000116
  9
$USRTIMER
 70
     1
  9
$ANGBASE
 50
0.0
  9
$ANGDIR
 70
     0
  9
$PDMODE
 70
     0
  9
$PDSIZE
 40
-1.0
  9
$PLINEWID
 40
0.0
  9
$SPLFRAME
 70
     0
  9
$SPLINETYPE
 70
     6
  9
$SPLINESEGS
 70
     8
  9
$HANDSEED
  5
5DC
  9
$SURFTAB1
 70
     6
  9
$SURFTAB2
 70
     6
  9
$SURFTYPE
 70
     6
  9
$SURFU
 70
     6
  9
$SURFV
 70
     6
  9
$UCSBASE
  2

  9
$UCSNAME
  2

  9
$UCSORG
 10
0.0
 20
0.0
 30
0.0
  9
$UCSXDIR
 10
1.0
 20
0.0
 30
0.0
  9
$UCSYDIR
 10
0.0
 20
1.0
 30
0.0
  9
$UCSORTHOREF
  2

  9
$UCSORTHOVIEW
 70
     0
  9
$UCSORGTOP
 10
0.0
 20
0.0
 30
0.0
  9
$UCSORGBOTTOM
 10
0.0
 20
0.0
 30
0.0
  9
$UCSORGLEFT
 10
0.0
 20
0.0
 30
0.0
  9
$UCSORGRIGHT
 10
0.0
 20
0.0
 30
0.0
  9
$UCSORGFRONT
 10
0.0
 20
0.0
 30
0.0
  9
$UCSORGBACK
 10
0.0
 20
0.0
 30
0.0
  9
$PUCSBASE
  2

  9
$PUCSNAME
  2

  9
$PUCSORG
 10
0.0
 20
0.0
 30
0.0
  9
$PUCSXDIR
 10
1.0
 20
0.0
 30
0.0
  9
$PUCSYDIR
 10
0.0
 20
1.0
 30
0.0
  9
$PUCSORTHOREF
  2

  9
$PUCSORTHOVIEW
 70
     0
  9
$PUCSORGTOP
 10
0.0
 20
0.0
 30
0.0
  9
$PUCSORGBOTTOM
 10
0.0
 20
0.0
 30
0.0
  9
$PUCSORGLEFT
 10
0.0
 20
0.0
 30
0.0
  9
$PUCSORGRIGHT
 10
0.0
 20
0.0
 30
0.0
  9
$PUCSORGFRONT
 10
0.0
 20
0.0
 30
0.0
  9
$PUCSORGBACK
 10
0.0
 20
0.0
 30
0.0
  9
$USERI1
 70
     0
  9
$USERI2
 70
     0
  9
$USERI3
 70
     0
  9
$USERI4
 70
     0
  9
$USERI5
 70
     0
  9
$USERR1
 40
0.0
  9
$USERR2
 40
0.0
  9
$USERR3
 40
0.0
  9
$USERR4
 40
0.0
  9
$USERR5
 40
0.0
  9
$WORLDVIEW
 70
     1
  9
$SHADEDGE
 70
     3
  9
$SHADEDIF
 70
    70
  9
$TILEMODE
 70
     1
  9
$MAXACTVP
 70
    64
  9
$PINSBASE
 10
0.0
 20
0.0
 30
0.0
  9
$PLIMCHECK
 70
     0
  9
$PEXTMIN
 10
1.0000000000E+20
 20
1.0000000000E+20
 30
1.0000000000E+20
  9
$PEXTMAX
 10
-1.0000000000E+20
 20
-1.0000000000E+20
 30
-1.0000000000E+20
  9
$PLIMMIN
 10
0.0
 20
0.0
  9
$PLIMMAX
 10
420.0
 20
297.0
  9
$UNITMODE
 70
     0
  9
$VISRETAIN
 70
     1
  9
$PLINEGEN
 70
     0
  9
$PSLTSCALE
 70
     1
  9
$TREEDEPTH
 70
  3020
  9
$CMLSTYLE
  2
Standard
  9
$CMLJUST
 70
     0
  9
$CMLSCALE
 40
20.0
  9
$PROXYGRAPHICS
 70
     1
  9
$MEASUREMENT
 70
     1
  9
$CELWEIGHT
370
    -1
  9
$ENDCAPS
280
     0
  9
$JOINSTYLE
280
     0
  9
$LWDISPLAY
290
     1
  9
$INSUNITS
 70
     4
  9
$HYPERLINKBASE
  1

  9
$STYLESHEET
  1

  9
$XEDIT
290
     1
  9
$CEPSNTYPE
380
     0
  9
$PSTYLEMODE
290
     1
  9
$FINGERPRINTGUID
  2
{321F084D-F20A-4B24-9481-A7952C23C771}
  9
$VERSIONGUID
  2
{FAEB1C32-E019-11D5-929B-00C0DF256EC4}
  9
$EXTNAMES
290
     1
  9
$PSVPSCALE
 40
0.0
  9
$OLESTARTUP
290
     0
  0
ENDSEC
  0
SECTION
  2
CLASSES
  0
CLASS
  1
ACDBDICTIONARYWDFLT
  2
AcDbDictionaryWithDefault
  3
ObjectDBX Classes
 90
        0
280
     0
281
     0
  0
CLASS
  1
VISUALSTYLE
  2
AcDbVisualStyle
  3
ObjectDBX Classes
 90
     4095
280
     0
281
     0
  0
CLASS
  1
MATERIAL
  2
AcDbMaterial
  3
ObjectDBX Classes
 90
     1153
280
     0
281
     0
  0
CLASS
  1
SCALE
  2
AcDbScale
  3
ObjectDBX Classes
 90
     1153
280
     0
281
     0
  0
CLASS
  1
TABLESTYLE
  2
AcDbTableStyle
  3
ObjectDBX Classes
 90
     4095
280
     0
281
     0
  0
CLASS
  1
MLEADERSTYLE
  2
AcDbMLeaderStyle
  3
ACDB_MLEADERSTYLE_CLASS
 90
     4095
280
     0
281
     0
  0
CLASS
  1
SUN
  2
AcDbSun
  3
SCENEOE
 90
     1153
280
     0
281
     0
  0
CLASS
  1
ACDBPLACEHOLDER
  2
AcDbPlaceHolder
  3
ObjectDBX Classes
 90
        0
280
     0
281
     0
  0
CLASS
  1
LAYOUT
  2
AcDbLayout
  3
ObjectDBX Classes
 90
        0
280
     0
281
     0
  0
ENDSEC
  0
SECTION
  2
TABLES
  0
TABLE
  2
VPORT
  5
8
330
0
100
AcDbSymbolTable
 70
     1
  0
VPORT
  5
29
330
8
100
AcDbSymbolTableRecord
100
AcDbViewportTableRecord
  2
*Active
 70
     0
 10
0.0
 20
0.0
 11
1.0
 21
1.0
 12
450.0
 22
600.0
 13
0.0
 23
0.0
 14
10.0
 24
10.0
 15
10.0
 25
10.0
 16
0.0
 26
0.0
 36
1.0
 17
0.0
 27
0.0
 37
0.0
 40
1200.0
 41
0.75
 42
50.0
 43
0.0
 44
0.0
 50
0.0
 51
0.0
 71
     0
 72
  2000
 73
     1
 74
     3
 75
     0
 76
     0
 77
     0
 78
     0
281
     0
 65
     1
110
0.0
120
0.0
130
0.0
111
1.0
121
0.0
131
0.0
112
0.0
122
1.0
132
0.0
 79
     0
146
0.0
  0
ENDTAB
  0
TABLE
  2
LTYPE
  5
5
330
0
100
AcDbSymbolTable
 70
     6
  0
LTYPE
  5
14
330
5
100
AcDbSymbolTableRecord
100
AcDbLinetypeTableRecord
  2
ByBlock
 70
     0
  3

 72
    65
 73
     0
 40
0.0
  0
LTYPE
  5
15
330
5
100
AcDbSymbolTableRecord
100
AcDbLinetypeTableRecord
  2
ByLayer
 70
     0
  3

 72
    65
 73
     0
 40
0.0
  0
LTYPE
  5
16
330
5
100
AcDbSymbolTableRecord
100
AcDbLinetypeTableRecord
  2
Continuous
 70
     0
  3
Solid line
 72
    65
 73
     0
 40
0.0
  0
LTYPE
  5
6E
330
5
100
AcDbSymbolTableRecord
100
AcDbLinetypeTableRecord
  2
HIDDEN
 70
     0
  3
Hidden __ __ __ __ __ __ __ __ __ __ __ __ __ __
 72
    65
 73
     2
 40
1.905
 49
1.27
 74
     0
 49
-0.635
 74
     0
  0
LTYPE
  5
6F
330
5
100
AcDbSymbolTableRecord
100
AcDbLinetypeTableRecord
  2
PHANTOM
 70
     0
  3
Phantom ______  __  __  ______  __  __  ______
 72
    65
 73
     6
 40
12.7
 49
6.35
 74
     0
 49
-1.27
 74
     0
 49
1.27
 74
     0
 49
-1.27
 74
     0
 49
1.27
 74
     0
 49
-1.27
 74
     0
  0
LTYPE
  5
70
330
5
100
AcDbSymbolTableRecord
100
AcDbLinetypeTableRecord
  2
CENTER
 70
     0
  3
Center ____ _ ____ _ ____ _ ____ _ ____ _ ____
 72
    65
 73
     4
 40
10.16
 49
6.35
 74
     0
 49
-1.27
 74
     0
 49
1.27
 74
     0
 49
-1.27
 74
     0
  0
LTYPE
  5
71
330
5
100
AcDbSymbolTableRecord
100
AcDbLinetypeTableRecord
  2
CENTERX2
 70
     0
  3
Center (2x) ________  __  ________  __  _____
 72
    65
 73
     4
 40
20.32
 49
12.7
 74
     0
 49
-2.54
 74
     0
 49
2.54
 74
     0
 49
-2.54
 74
     0
  0
LTYPE
  5
72
330
5
100
AcDbSymbolTableRecord
100
AcDbLinetypeTableRecord
  2
DOT2
 70
     0
  3
Dot (.5x) ........................................
 72
    65
 73
     2
 40
0.635
 49
0.0
 74
     0
 49
-0.635
 74
     0
  0
ENDTAB
  0
TABLE
  2
LAYER
  5
2
330
0
100
AcDbSymbolTable
 70
     4
  0
LAYER
  5
10
330
2
100
AcDbSymbolTableRecord
100
AcDbLayerTableRecord
  2
0
 70
     0
 62
     7
  6
Continuous
370
    -3
390
F
  0
LAYER
  5
73
330
2
100
AcDbSymbolTableRecord
100
AcDbLayerTableRecord
  2
FORMAT
 70
     0
 62
     7
  6
Continuous
370
    -3
390
F
  0
LAYER
  5
74
330
2
100
AcDbSymbolTableRecord
100
AcDbLayerTableRecord
  2
SLD-0
 70
     0
 62
     1
  6
Continuous
370
    -3
390
F
  0
LAYER
  5
75
330
2
100
AcDbSymbolTableRecord
100
AcDbLayerTableRecord
  2
WATERMARK
 70
     0
 62
     1
  6
Continuous
370
    -3
390
F
  0
ENDTAB
  0
TABLE
  2
STYLE
  5
3
330
0
100
AcDbSymbolTable
 70
     1
  0
STYLE
  5
11
330
3
100
AcDbSymbolTableRecord
100
AcDbTextStyleTableRecord
  2
Standard
 70
     0
 40
0.0
 41
1.0
 50
0.0
 71
     0
 42
3.5
  3
txt
  4

  0
ENDTAB
  0
TABLE
  2
VIEW
  5
6
330
0
100
AcDbSymbolTable
 70
     0
  0
ENDTAB
  0
TABLE
  2
UCS
  5
7
330
0
100
AcDbSymbolTable
 70
     0
  0
ENDTAB
  0
TABLE
  2
APPID
  5
9
330
0
100
AcDbSymbolTable
 70
     1
  0
APPID
  5
12
330
9
100
AcDbSymbolTableRecord
100
AcDbRegAppTableRecord
  2
ACAD
 70
     0
  0
ENDTAB
  0
TABLE
  2
DIMSTYLE
  5
A
330
0
100
AcDbSymbolTable
 70
     1
100
AcDbDimStyleTable
  0
DIMSTYLE
105
27
330
A
100
AcDbSymbolTableRecord
100
AcDbDimStyleTableRecord
  2
ISO-25
 70
     0
 41
2.5
 42
0.625
 43
3.75
 44
1.25
 73
     0
 74
     0
 77
     1
 78
     8
140
2.5
141
2.5
143
0.0393700787
147
0.625
171
     3
172
     1
178
     0
271
     2
272
     2
274
     3
278
    44
283
     0
284
     8
340
11
  0
ENDTAB
  0
TABLE
  2
BLOCK_RECORD
  5
1
330
0
100
AcDbSymbolTable
 70
     1
  0
BLOCK_RECORD
  5
1F
330
1
100
AcDbSymbolTableRecord
100
AcDbBlockTableRecord
  2
*Model_Space
340
22
  0
BLOCK_RECORD
  5
1B
330
1
100
AcDbSymbolTableRecord
100
AcDbBlockTableRecord
  2
*Paper_Space
340
1E
  0
BLOCK_RECORD
  5
23
330
1
100
AcDbSymbolTableRecord
100
AcDbBlockTableRecord
  2
*Paper_Space0
340
26
  0
ENDTAB
  0
ENDSEC
  0
SECTION
  2
BLOCKS
  0
BLOCK
  5
20
330
1F
100
AcDbEntity
  8
0
100
AcDbBlockBegin
  2
*Model_Space
 70
     0
 10
0.0
 20
0.0
 30
0.0
  3
*Model_Space
  1

  0
ENDBLK
  5
21
330
1F
100
AcDbEntity
  8
0
100
AcDbBlockEnd
  0
BLOCK
  5
1C
330
1B
100
AcDbEntity
 67
     1
  8
0
100
AcDbBlockBegin
  2
*Paper_Space
 70
     0
 10
0.0
 20
0.0
 30
0.0
  3
*Paper_Space
  1

  0
ENDBLK
  5
1D
330
1B
100
AcDbEntity
 67
     1
  8
0
100
AcDbBlockEnd
  0
BLOCK
  5
24
330
23
100
AcDbEntity
  8
0
100
AcDbBlockBegin
  2
*Paper_Space0
 70
     0
 10
0.0
 20
0.0
 30
0.0
  3
*Paper_Space0
  1

  0
ENDBLK
  5
25
330
23
100
AcDbEntity
  8
0
100
AcDbBlockEnd
  0
ENDSEC
  0
SECTION
  2
ENTITIES
  0
LINE
  5
76
330
1F
100
AcDbEntity
  8
0
  6
Continuous
 62
     7
370
    25
100
AcDbLine
 10
821.8550896405
 20
311.9848274337
 30
0.0
 11
821.9198489427
 21
311.9326460098
 31
0.0
  0
LINE
  5
77
330
1F
100
AcDbEntity
  8
0
  6
Continuous
 62
     7
370
    25
100
AcDbLine
 10
836.3198489427
 20
311.9326460098
 30
0.0
 11
836.3846082448
 21
311.9848274337
 31
0.0
  0
LINE
  5
78
330
1F
100
AcDbEntity
  8
0
  6
Continuous
 62
     7
370
    25
100
AcDbLine
 10
836.4305993841
 20
311.8434060775
 30
0.0
 11
836.3198489427
 21
311.9326460098
 31
0.0
  0
LINE
  5
79
330
1F
100
AcDbEntity
  8
0
  6
Continuous
 62
     7
370
    25
100
AcDbLine
 10
821.9198489427
 20
311.9326460098
 30
0.0
 11
821.8090985012
 21
311.8434060775
 31
0.0
  0
ARC
  5
7A
330
1F
100
AcDbEntity
  8
0
  6
Continuous
 62
     7
370
    25
100
AcDbCircle
 10
697.0698489427
 20
238.2434060775
 30
0.0
 40
8.0
100
AcDbArc
 50
180.0
 51
270.0
  0
ARC
  5
7B
330
1F
100
AcDbEntity
  8
0
  6
Continuous
 62
     7
370
    25
100
AcDbCircle
 10
788.5698489427
 20
238.2434060775
 30
0.0
 40
8.0
100
AcDbArc
 50
270.0
 51
0.0
  0
LINE
  5
7C
330
1F
100
AcDbEntity
  8
0
  6
Continuous
 62
     7
370
    25
100
AcDbLine
 10
689.0698489427
 20
240.3434060775
 30
0.0
 11
689.0698489427
 21
238.2434060775
 31
0.0
  0
LINE
  5
7D
330
1F
100
AcDbEntity
  8
0
  6
Continuous
 62
     7
370
    25
100
AcDbLine
 10
796.5698489427
 20
238.2434060775
 30
0.0
 11
796.5698489427
 21
239.1434060775
 31
0.0
  0
LINE
  5
7E
330
1F
100
AcDbEntity
  8
0
  6
Continuous
 62
     7
370
    25
100
AcDbLine
 10
699.8198489427
 20
230.2434060775
 30
0.0
 11
699.8198489427
 21
228.2434060775
 31
0.0
  0
LINE
  5
7F
330
1F
100
AcDbEntity
  8
0
  6
Continuous
 62
     7
370
    25
100
AcDbLine
 10
785.8198489427
 20
228.2434060775
 30
0.0
 11
785.8198489427
 21
230.2434060775
 31
0.0
  0
LINE
  5
80
330
1F
100
AcDbEntity
  8
0
  6
Continuous
 62
     7
370
    25
100
AcDbLine
 10
811.5198489425
 20
1061.5434060775
 30
0.0
 11
810.5198489427
 21
1061.5434060775
 31
0.0
  0
LINE
  5
81
330
1F
100
AcDbEntity
  8
0
  6
Continuous
 62
     7
370
    25
100
AcDbLine
 10
755.5198489427
 20
1061.5434060775
 30
0.0
 11
716.2698489427
 21
1061.5434060775
 31
0.0
  0
LINE
  5
82
330
1F
100
AcDbEntity
  8
0
  6
Continuous
 62
     7
370
    25
100
AcDbLine
 10
716.2698489427
 20
1049.5434060775
 30
0.0
 11
755.5198489427
 21
1049.5434060775
 31
0.0
  0
LINE
  5
83
330
1F
100
AcDbEntity
  8
0
  6
Continuous
 62
     7
370
    25
100
AcDbLine
 10
810.5198489427
 20
1049.5434060775
 30
0.0
 11
811.5198489425
 21
1049.5434060775
 31
0.0
  0
ARC
  5
84
330
1F
100
AcDbEntity
  8
0
  6
Continuous
 62
     7
370
    25
100
AcDbCircle
 10
716.2698489427
 20
1020.5434060775
 30
0.0
 40
29.0
100
AcDbArc
 50
90.0
 51
180.0
  0
ARC
  5
85
330
1F
100
AcDbEntity
  8
0
  6
Continuous
 62
     7
370
    25
100
AcDbCircle
 10
716.2698489427
 20
1020.5434060775
 30
0.0
 40
41.0
100
AcDbArc
 50
90.0
 51
180.0
  0
LINE
  5
86
330
1F
100
AcDbEntity
  8
0
  6
Continuous
 62
     7
370
    25
100
AcDbLine
 10
687.2698489427
 20
1000.0408807605
 30
0.0
 11
687.2698489427
 21
1020.5434060775
 31
0.0
  0
LINE
  5
87
330
1F
100
AcDbEntity
  8
0
  6
Continuous
 62
     7
370
    25
100
AcDbLine
 10
675.2698489427
 20
1020.5434060775
 30
0.0
 11
675.2698489427
 21
1000.0408807605
 31
0.0
  0
SPLINE
  5
88
330
1F
100
AcDbEntity
  8
0
  6
Continuous
 62
     7
370
    25
100
AcDbSpline
210
0.0
220
0.0
230
1.0
 70
     8
 71
     3
 72
    16
 73
    12
 74
     0
 42
0.000000001
 43
0.00000001
 40
0.0
 40
0.0
 40
0.0
 40
0.0
 40
0.0636022702383656
 40
0.1845770834972737
 40
0.3055828381648392
 40
0.4265843856970518
 40
0.5475791111267188
 40
0.6685636867145333
 40
0.789533546943885
 40
0.910482055039824
 40
1.0
 40
1.0
 40
1.0
 40
1.0
 10
675.2698489426626
 20
1000.040880760549
 30
0.0
 10
675.269818301557
 20
999.4586558332751
 30
0.0
 10
675.2697293794816
 20
997.7690089289597
 30
0.0
 10
675.2687405664776
 20
994.9805419322804
 30
0.0
 10
675.266529495185
 20
991.7145546135009
 30
0.0
 10
675.2632313277869
 20
988.5234137472295
 30
0.0
 10
675.2588941458861
 20
985.4368440292401
 30
0.0
 10
675.2535568620992
 20
982.481505888258
 30
0.0
 10
675.2472538603322
 20
979.6889995334441
 30
0.0
 10
675.2407215931709
 20
977.2938734908187
 30
0.0
 10
675.2360655853247
 20
975.9041778606784
 30
0.0
 10
675.2340852400102
 20
975.3130969776022
 30
0.0
  0
SPLINE
  5
89
330
1F
100
AcDbEntity
  8
0
  6
Continuous
 62
     7
370
    25
100
AcDbSpline
210
0.0
220
0.0
230
1.0
 70
     8
 71
     3
 72
    16
 73
    12
 74
     0
 42
0.000000001
 43
0.00000001
 40
0.0
 40
0.0
 40
0.0
 40
0.0
 40
0.0636074388293103
 40
0.1846725784596866
 40
0.305735665623436
 40
0.4267720179855302
 40
0.5477905482920334
 40
0.6687970951099337
 40
0.7897957064408933
 40
0.9107893775647177
 40
1.0
 40
1.0
 40
1.0
 40
1.0
 10
687.2340120645177
 20
975.2711898604605
 30
0.0
 10
687.2354312810305
 20
975.6900131972246
 30
0.0
 10
687.2395517169045
 20
976.9059902424083
 30
0.0
 10
687.2457525918121
 20
979.0831135579783
 30
0.0
 10
687.2522675927429
 20
981.8464273805605
 30
0.0
 10
687.2578249631777
 20
984.7765092931389
 30
0.0
 10
687.2623865911388
 20
987.8428894951484
 30
0.0
 10
687.2659148446569
 20
991.0191502160908
 30
0.0
 10
687.2683562576904
 20
994.2763813592176
 30
0.0
 10
687.2696507901661
 20
997.2959939126898
 30
0.0
 10
687.2697899031606
 20
999.2230421989713
 30
0.0
 10
687.2698489426626
 20
1000.040880760549
 30
0.0
  0
LINE
  5
8A
330
1F
100
AcDbEntity
  8
0
  6
Continuous
 62
     7
370
    25
100
AcDbLine
 10
687.1836261885
 20
960.8434060775
 30
0.0
 11
687.2340120645
 21
975.2711898605
 31
0.0
  0
LINE
  5
8B
330
1F
100
AcDbEntity
  8
0
  6
Continuous
 62
     7
370
    25
100
AcDbLine
 10
675.23408524
 20
975.3130969776
 30
0.0
 11
675.1835530126
 21
960.8434060775
 31
0.0
  0
LINE
  5
8C
330
1F
100
AcDbEntity
  8
0
  6
Continuous
 62
     7
370
    25
100
AcDbLine
 10
690.5198489431
 20
960.8434060775
 30
0.0
 11
690.5198489431
 21
975.2921434205
 31
0.0
  0
LINE
  5
8D
330
1F
100
AcDbEntity
  8
0
  6
Continuous
 62
     7
370
    25
100
AcDbLine
 10
690.5198489431
 20
975.2921434205
 30
0.0
 11
690.5198489431
 21
1000.0408807621
 31
0.0
  0
ARC
  5
8E
330
1F
100
AcDbEntity
  8
0
  6
Continuous
 62
     7
370
    25
100
AcDbCircle
 10
719.5198489431
 20
1020.543406079
 30
0.0
 40
29.0
100
AcDbArc
 50
127.8018424762
 51
180.0
  0
ARC
  5
8F
330
1F
100
AcDbEntity
  8
0
  6
Continuous
 62
     7
370
    25
100
AcDbCircle
 10
719.5198489431
 20
1020.543406079
 30
0.0
 40
29.00000000000003
100
AcDbArc
 50
90.0
 51
123.8836359526
  0
LINE
  5
90
330
1F
100
AcDbEntity
  8
0
  6
Continuous
 62
     7
370
    25
100
AcDbLine
 10
690.5198489431
 20
1000.0408807621
 30
0.0
 11
690.5198489431
 21
1020.543406079
 31
0.0
  0
LINE
  5
91
330
1F
100
AcDbEntity
  8
0
  6
Continuous
 62
     7
370
    25
100
AcDbLine
 10
810.1198489427
 20
481.3434060801
 30
0.0
 11
811.5198489427
 21
481.3434060801
 31
0.0
  0
LINE
  5
92
330
1F
100
AcDbEntity
  8
0
  6
Continuous
 62
     7
370
    25
100
AcDbLine
 10
811.5198489427
 20
493.3434060801
 30
0.0
 11
810.1198489427
 21
493.3434060801
 31
0.0
  0
LINE
  5
93
330
1F
100
AcDbEntity
  8
0
  6
Continuous
 62
     7
370
    25
100
AcDbLine
 10
810.1198489427
 20
269.7434060775
 30
0.0
 11
820.6198489427
 21
269.7434060775
 31
0.0
  0
LINE
  5
94
330
1F
100
AcDbEntity
  8
0
  6
Continuous
 62
     7
370
    25
100
AcDbLine
 10
820.6198489427
 20
277.9434060775
 30
0.0
 11
810.1198489427
 21
277.9434060775
 31
0.0
  0
LINE
  5
95
330
1F
100
AcDbEntity
  8
0
  6
Continuous
 62
     7
370
    25
100
AcDbLine
 10
852.5198489427
 20
522.3434060801
 30
0.0
 11
852.5198489427
 21
529.8434060775
 31
0.0
  0
LINE
  5
96
330
1F
100
AcDbEntity
  8
0
  6
Continuous
 62
     7
370
    25
100
AcDbLine
 10
852.5198489427
 20
531.0434060775
 30
0.0
 11
852.5198489427
 21
850.4434060775
 31
0.0
  0
LINE
  5
97
330
1F
100
AcDbEntity
  8
0
  6
Continuous
 62
     7
370
    25
100
AcDbLine
 10
852.5198489427
 20
851.6434060775
 30
0.0
 11
852.5198489427
 21
1020.5434060775
 31
0.0
  0
LINE
  5
98
330
1F
100
AcDbEntity
  8
0
  6
Continuous
 62
     7
370
    25
100
AcDbLine
 10
840.5198489427
 20
1020.5434060775
 30
0.0
 11
840.5198489427
 21
851.6434060775
 31
0.0
  0
LINE
  5
99
330
1F
100
AcDbEntity
  8
0
  6
Continuous
 62
     7
370
    25
100
AcDbLine
 10
840.5198489427
 20
850.4434060775
 30
0.0
 11
840.5198489427
 21
531.0434060775
 31
0.0
  0
LINE
  5
9A
330
1F
100
AcDbEntity
  8
0
  6
Continuous
 62
     7
370
    25
100
AcDbLine
 10
840.5198489427
 20
529.8434060775
 30
0.0
 11
840.5198489427
 21
522.3434060801
 31
0.0
  0
LINE
  5
9B
330
1F
100
AcDbEntity
  8
0
  6
Continuous
 62
     7
370
    25
100
AcDbLine
 10
839.0198489427
 20
480.3334060801
 30
0.0
 11
853.5298489427
 21
480.3334060801
 31
0.0
  0
LINE
  5
9C
330
1F
100
AcDbEntity
  8
0
  6
Continuous
 62
     7
370
    25
100
AcDbLine
 10
839.5198489427
 20
494.3534060801
 30
0.0
 11
839.0198489427
 21
494.3534060801
 31
0.0
  0
LINE
  5
9D
330
1F
100
AcDbEntity
  8
0
  6
Continuous
 62
     7
370
    25
100
AcDbLine
 10
853.5298489427
 20
480.3334060801
 30
0.0
 11
853.5298489427
 21
494.8434060801
 31
0.0
  0
LINE
  5
9E
330
1F
100
AcDbEntity
  8
0
  6
Continuous
 62
     7
370
    25
100
AcDbLine
 10
839.5098489427
 20
494.8434060801
 30
0.0
 11
839.5098489427
 21
494.3434060801
 31
0.0
  0
LINE
  5
9F
330
1F
100
AcDbEntity
  8
0
  6
Continuous
 62
     7
370
    25
100
AcDbLine
 10
849.8198489427
 20
480.0834060754
 30
0.0
 11
853.5298489368
 21
480.0834060754
 31
0.0
  0
LINE
  5
A0
330
1F
100
AcDbEntity
  8
0
  6
Continuous
 62
     7
370
    25
100
AcDbLine
 10
853.5298489368
 20
480.0834060754
 30
0.0
 11
853.5298489368
 21
480.3334060801
 31
0.0
  0
LINE
  5
A1
330
1F
100
AcDbEntity
  8
0
  6
Continuous
 62
     7
370
    25
100
AcDbLine
 10
853.5298489427
 20
1048.0434060775
 30
0.0
 11
853.5298489427
 21
1062.5534060775
 31
0.0
  0
LINE
  5
A2
330
1F
100
AcDbEntity
  8
0
  6
Continuous
 62
     7
370
    25
100
AcDbLine
 10
839.5098489427
 20
1048.5434060775
 30
0.0
 11
839.5098489427
 21
1048.0434060775
 31
0.0
  0
LINE
  5
A3
330
1F
100
AcDbEntity
  8
0
  6
Continuous
 62
     7
370
    25
100
AcDbLine
 10
853.5298489427
 20
1062.5534060775
 30
0.0
 11
839.0198489427
 21
1062.5534060775
 31
0.0
  0
LINE
  5
A4
330
1F
100
AcDbEntity
  8
0
  6
Continuous
 62
     7
370
    25
100
AcDbLine
 10
839.0198489427
 20
1048.5334060775
 30
0.0
 11
839.5198489427
 21
1048.5334060775
 31
0.0
  0
LINE
  5
A5
330
1F
100
AcDbEntity
  8
0
  6
Continuous
 62
     7
370
    25
100
AcDbLine
 10
856.0198489427
 20
505.5934060801
 30
0.0
 11
855.5198489427
 21
506.3434060801
 31
0.0
  0
LINE
  5
A6
330
1F
100
AcDbEntity
  8
0
  6
Continuous
 62
     7
370
    25
100
AcDbLine
 10
837.5198489427
 20
506.3434060801
 30
0.0
 11
837.0198489427
 21
505.5934060801
 31
0.0
  0
LINE
  5
A7
330
1F
100
AcDbEntity
  8
0
  6
Continuous
 62
     7
370
    25
100
AcDbLine
 10
837.0198489427
 20
507.0934060801
 30
0.0
 11
837.5198489427
 21
506.3434060801
 31
0.0
  0
LINE
  5
A8
330
1F
100
AcDbEntity
  8
0
  6
Continuous
 62
     7
370
    25
100
AcDbLine
 10
855.5198489427
 20
506.3434060801
 30
0.0
 11
856.0198489427
 21
507.0934060801
 31
0.0
  0
LINE
  5
A9
330
1F
100
AcDbEntity
  8
0
  6
Continuous
 62
     7
370
    25
100
AcDbLine
 10
856.0198489427
 20
507.0934060801
 30
0.0
 11
855.853182276
 21
507.3434060801
 31
0.0
  0
LINE
  5
AA
330
1F
100
AcDbEntity
  8
0
  6
Continuous
 62
     7
370
    25
100
AcDbLine
 10
837.1865156093
 20
507.3434060801
 30
0.0
 11
837.0198489427
 21
507.0934060801
 31
0.0
  0
LINE
  5
AB
330
1F
100
AcDbEntity
  8
0
  6
Continuous
 62
     7
370
    25
100
AcDbLine
 10
837.0198489427
 20
502.5934060801
 30
0.0
 11
837.5198489427
 21
501.8434060801
 31
0.0
  0
LINE
  5
AC
330
1F
100
AcDbEntity
  8
0
  6
Continuous
 62
     7
370
    25
100
AcDbLine
 10
855.5198489427
 20
501.8434060801
 30
0.0
 11
856.0198489427
 21
502.5934060801
 31
0.0
  0
LINE
  5
AD
330
1F
100
AcDbEntity
  8
0
  6
Continuous
 62
     7
370
    25
100
AcDbLine
 10
856.0198489427
 20
501.0934060801
 30
0.0
 11
855.5198489427
 21
501.8434060801
 31
0.0
  0
LINE
  5
AE
330
1F
100
AcDbEntity
  8
0
  6
Continuous
 62
     7
370
    25
100
AcDbLine
 10
837.5198489427
 20
501.8434060801
 30
0.0
 11
837.0198489427
 21
501.0934060801
 31
0.0
  0
LINE
  5
AF
330
1F
100
AcDbEntity
  8
0
  6
Continuous
 62
     7
370
    25
100
AcDbLine
 10
837.0198489427
 20
501.0934060801
 30
0.0
 11
837.5198489427
 21
500.3434060801
 31
0.0
  0
LINE
  5
B0
330
1F
100
AcDbEntity
  8
0
  6
Continuous
 62
     7
370
    25
100
AcDbLine
 10
855.5198489427
 20
500.3434060801
 30
0.0
 11
856.0198489427
 21
501.0934060801
 31
0.0
  0
LINE
  5
B1
330
1F
100
AcDbEntity
  8
0
  6
Continuous
 62
     7
370
    25
100
AcDbLine
 10
856.0198489427
 20
504.0934060801
 30
0.0
 11
855.5198489427
 21
504.8434060801
 31
0.0
  0
LINE
  5
B2
330
1F
100
AcDbEntity
  8
0
  6
Continuous
 62
     7
370
    25
100
AcDbLine
 10
837.5198489427
 20
504.8434060801
 30
0.0
 11
837.0198489427
 21
504.0934060801
 31
0.0
  0
LINE
  5
B3
330
1F
100
AcDbEntity
  8
0
  6
Continuous
 62
     7
370
    25
100
AcDbLine
 10
856.0198489427
 20
499.5934060801
 30
0.0
 11
855.5198489427
 21
500.3434060801
 31
0.0
  0
LINE
  5
B4
330
1F
100
AcDbEntity
  8
0
  6
Continuous
 62
     7
370
    25
100
AcDbLine
 10
837.5198489427
 20
500.3434060801
 30
0.0
 11
837.0198489427
 21
499.5934060801
 31
0.0
  0
LINE
  5
B5
330
1F
100
AcDbEntity
  8
0
  6
Continuous
 62
     7
370
    25
100
AcDbLine
 10
837.0198489427
 20
499.5934060801
 30
0.0
 11
837.1865156093
 21
499.3434060801
 31
0.0
  0
LINE
  5
B6
330
1F
100
AcDbEntity
  8
0
  6
Continuous
 62
     7
370
    25
100
AcDbLine
 10
855.853182276
 20
499.3434060801
 30
0.0
 11
856.0198489427
 21
499.5934060801
 31
0.0
  0
LINE
  5
B7
330
1F
100
AcDbEntity
  8
0
  6
Continuous
 62
     7
370
    25
100
AcDbLine
 10
856.0198489427
 20
502.5934060801
 30
0.0
 11
855.5198489427
 21
503.3434060801
 31
0.0
  0
LINE
  5
B8
330
1F
100
AcDbEntity
  8
0
  6
Continuous
 62
     7
370
    25
100
AcDbLine
 10
837.5198489427
 20
503.3434060801
 30
0.0
 11
837.0198489427
 21
502.5934060801
 31
0.0
  0
LINE
  5
B9
330
1F
100
AcDbEntity
  8
0
  6
Continuous
 62
     7
370
    25
100
AcDbLine
 10
837.0198489427
 20
505.5934060801
 30
0.0
 11
837.5198489427
 21
504.8434060801
 31
0.0
  0
LINE
  5
BA
330
1F
100
AcDbEntity
  8
0
  6
Continuous
 62
     7
370
    25
100
AcDbLine
 10
855.5198489427
 20
504.8434060801
 30
0.0
 11
856.0198489427
 21
505.5934060801
 31
0.0
  0
LINE
  5
BB
330
1F
100
AcDbEntity
  8
0
  6
Continuous
 62
     7
370
    25
100
AcDbLine
 10
837.0198489427
 20
504.0934060801
 30
0.0
 11
837.5198489427
 21
503.3434060801
 31
0.0
  0
LINE
  5
BC
330
1F
100
AcDbEntity
  8
0
  6
Continuous
 62
     7
370
    25
100
AcDbLine
 10
855.5198489427
 20
503.3434060801
 30
0.0
 11
856.0198489427
 21
504.0934060801
 31
0.0
  0
ARC
  5
BD
330
1F
100
AcDbEntity
  8
0
  6
Continuous
 62
     7
370
    25
100
AcDbCircle
 10
854.0198489427
 20
498.8434060801
 30
0.0
 40
0.5000000000001137
100
AcDbArc
 50
90.0
 51
180.0
  0
ARC
  5
BE
330
1F
100
AcDbEntity
  8
0
  6
Continuous
 62
     7
370
    25
100
AcDbCircle
 10
839.0198489427
 20
498.8434060801
 30
0.0
 40
0.5000000000001137
100
AcDbArc
 50
0.0
 51
90.0
  0
LINE
  5
BF
330
1F
100
AcDbEntity
  8
0
  6
Continuous
 62
     7
370
    25
100
AcDbLine
 10
853.5198489427
 20
494.8434060801
 30
0.0
 11
853.5198489427
 21
498.8434060801
 31
0.0
  0
LINE
  5
C0
330
1F
100
AcDbEntity
  8
0
  6
Continuous
 62
     7
370
    25
100
AcDbLine
 10
839.5198489427
 20
498.8434060801
 30
0.0
 11
839.5198489427
 21
494.8434060801
 31
0.0
  0
LINE
  5
C1
330
1F
100
AcDbEntity
  8
0
  6
Continuous
 62
     7
370
    25
100
AcDbLine
 10
839.5198489427
 20
494.3534060801
 30
0.0
 11
839.5198489427
 21
494.3434060801
 31
0.0
  0
LINE
  5
C2
330
1F
100
AcDbEntity
  8
0
  6
Continuous
 62
     7
370
    25
100
AcDbLine
 10
834.2698489427
 20
1046.0434060775
 30
0.0
 11
834.5198489427
 21
1046.2100727442
 31
0.0
  0
LINE
  5
C3
330
1F
100
AcDbEntity
  8
0
  6
Continuous
 62
     7
370
    25
100
AcDbLine
 10
834.5198489427
 20
1064.8767394108
 30
0.0
 11
834.2698489427
 21
1065.0434060775
 31
0.0
  0
LINE
  5
C4
330
1F
100
AcDbEntity
  8
0
  6
Continuous
 62
     7
370
    25
100
AcDbLine
 10
834.2698489427
 20
1065.0434060775
 30
0.0
 11
833.5198489427
 21
1064.5434060775
 31
0.0
  0
LINE
  5
C5
330
1F
100
AcDbEntity
  8
0
  6
Continuous
 62
     7
370
    25
100
AcDbLine
 10
833.5198489427
 20
1046.5434060775
 30
0.0
 11
834.2698489427
 21
1046.0434060775
 31
0.0
  0
LINE
  5
C6
330
1F
100
AcDbEntity
  8
0
  6
Continuous
 62
     7
370
    25
100
AcDbLine
 10
832.7698489427
 20
1046.0434060775
 30
0.0
 11
833.5198489427
 21
1046.5434060775
 31
0.0
  0
LINE
  5
C7
330
1F
100
AcDbEntity
  8
0
  6
Continuous
 62
     7
370
    25
100
AcDbLine
 10
833.5198489427
 20
1064.5434060775
 30
0.0
 11
832.7698489427
 21
1065.0434060775
 31
0.0
  0
LINE
  5
C8
330
1F
100
AcDbEntity
  8
0
  6
Continuous
 62
     7
370
    25
100
AcDbLine
 10
832.7698489427
 20
1065.0434060775
 30
0.0
 11
832.0198489427
 21
1064.5434060775
 31
0.0
  0
LINE
  5
C9
330
1F
100
AcDbEntity
  8
0
  6
Continuous
 62
     7
370
    25
100
AcDbLine
 10
832.0198489427
 20
1046.5434060775
 30
0.0
 11
832.7698489427
 21
1046.0434060775
 31
0.0
  0
LINE
  5
CA
330
1F
100
AcDbEntity
  8
0
  6
Continuous
 62
     7
370
    25
100
AcDbLine
 10
831.2698489427
 20
1046.0434060775
 30
0.0
 11
832.0198489427
 21
1046.5434060775
 31
0.0
  0
LINE
  5
CB
330
1F
100
AcDbEntity
  8
0
  6
Continuous
 62
     7
370
    25
100
AcDbLine
 10
832.0198489427
 20
1064.5434060775
 30
0.0
 11
831.2698489427
 21
1065.0434060775
 31
0.0
  0
LINE
  5
CC
330
1F
100
AcDbEntity
  8
0
  6
Continuous
 62
     7
370
    25
100
AcDbLine
 10
831.2698489427
 20
1065.0434060775
 30
0.0
 11
830.5198489427
 21
1064.5434060775
 31
0.0
  0
LINE
  5
CD
330
1F
100
AcDbEntity
  8
0
  6
Continuous
 62
     7
370
    25
100
AcDbLine
 10
830.5198489427
 20
1046.5434060775
 30
0.0
 11
831.2698489427
 21
1046.0434060775
 31
0.0
  0
LINE
  5
CE
330
1F
100
AcDbEntity
  8
0
  6
Continuous
 62
     7
370
    25
100
AcDbLine
 10
829.7698489427
 20
1046.0434060775
 30
0.0
 11
830.5198489427
 21
1046.5434060775
 31
0.0
  0
LINE
  5
CF
330
1F
100
AcDbEntity
  8
0
  6
Continuous
 62
     7
370
    25
100
AcDbLine
 10
830.5198489427
 20
1064.5434060775
 30
0.0
 11
829.7698489427
 21
1065.0434060775
 31
0.0
  0
LINE
  5
D0
330
1F
100
AcDbEntity
  8
0
  6
Continuous
 62
     7
370
    25
100
AcDbLine
 10
829.7698489427
 20
1065.0434060775
 30
0.0
 11
829.0198489427
 21
1064.5434060775
 31
0.0
  0
LINE
  5
D1
330
1F
100
AcDbEntity
  8
0
  6
Continuous
 62
     7
370
    25
100
AcDbLine
 10
829.0198489427
 20
1046.5434060775
 30
0.0
 11
829.7698489427
 21
1046.0434060775
 31
0.0
  0
LINE
  5
D2
330
1F
100
AcDbEntity
  8
0
  6
Continuous
 62
     7
370
    25
100
AcDbLine
 10
828.2698489427
 20
1046.0434060775
 30
0.0
 11
829.0198489427
 21
1046.5434060775
 31
0.0
  0
LINE
  5
D3
330
1F
100
AcDbEntity
  8
0
  6
Continuous
 62
     7
370
    25
100
AcDbLine
 10
829.0198489427
 20
1064.5434060775
 30
0.0
 11
828.2698489427
 21
1065.0434060775
 31
0.0
  0
LINE
  5
D4
330
1F
100
AcDbEntity
  8
0
  6
Continuous
 62
     7
370
    25
100
AcDbLine
 10
828.2698489427
 20
1065.0434060775
 30
0.0
 11
827.5198489427
 21
1064.5434060775
 31
0.0
  0
LINE
  5
D5
330
1F
100
AcDbEntity
  8
0
  6
Continuous
 62
     7
370
    25
100
AcDbLine
 10
827.5198489427
 20
1046.5434060775
 30
0.0
 11
828.2698489427
 21
1046.0434060775
 31
0.0
  0
LINE
  5
D6
330
1F
100
AcDbEntity
  8
0
  6
Continuous
 62
     7
370
    25
100
AcDbLine
 10
826.7698489427
 20
1046.0434060775
 30
0.0
 11
827.5198489427
 21
1046.5434060775
 31
0.0
  0
LINE
  5
D7
330
1F
100
AcDbEntity
  8
0
  6
Continuous
 62
     7
370
    25
100
AcDbLine
 10
827.5198489427
 20
1064.5434060775
 30
0.0
 11
826.7698489427
 21
1065.0434060775
 31
0.0
  0
LINE
  5
D8
330
1F
100
AcDbEntity
  8
0
  6
Continuous
 62
     7
370
    25
100
AcDbLine
 10
826.7698489427
 20
1065.0434060775
 30
0.0
 11
826.5198489425
 21
1064.8767394107
 31
0.0
  0
LINE
  5
D9
330
1F
100
AcDbEntity
  8
0
  6
Continuous
 62
     7
370
    25
100
AcDbLine
 10
826.5198489425
 20
1046.2100727443
 30
0.0
 11
826.7698489427
 21
1046.0434060775
 31
0.0
  0
ARC
  5
DA
330
1F
100
AcDbEntity
  8
0
  6
Continuous
 62
     7
370
    25
100
AcDbCircle
 10
835.0198489427
 20
1063.0434060775
 30
0.0
 40
0.5000000000002274
100
AcDbArc
 50
179.9999999989
 51
270.0
  0
ARC
  5
DB
330
1F
100
AcDbEntity
  8
0
  6
Continuous
 62
     7
370
    25
100
AcDbCircle
 10
835.0198489427
 20
1048.0434060775
 30
0.0
 40
0.5000000000002274
100
AcDbArc
 50
90.0
 51
179.9999999989
  0
LINE
  5
DC
330
1F
100
AcDbEntity
  8
0
  6
Continuous
 62
     7
370
    25
100
AcDbLine
 10
839.0198489427
 20
1062.5434060775
 30
0.0
 11
835.0198489427
 21
1062.5434060775
 31
0.0
  0
LINE
  5
DD
330
1F
100
AcDbEntity
  8
0
  6
Continuous
 62
     7
370
    25
100
AcDbLine
 10
835.0198489427
 20
1048.5434060775
 30
0.0
 11
839.0198489427
 21
1048.5434060775
 31
0.0
  0
LINE
  5
DE
330
1F
100
AcDbEntity
  8
0
  6
Continuous
 62
     7
370
    25
100
AcDbLine
 10
856.0198489368
 20
505.3434060754
 30
0.0
 11
855.9365156048
 21
505.4684060733
 31
0.0
  0
LINE
  5
DF
330
1F
100
AcDbEntity
  8
0
  6
Continuous
 62
     7
370
    25
100
AcDbLine
 10
837.1031822746
 20
505.4684060822
 30
0.0
 11
837.0198489368
 21
505.3434060754
 31
0.0
  0
LINE
  5
E0
330
1F
100
AcDbEntity
  8
0
  6
Continuous
 62
     7
370
    25
100
AcDbLine
 10
837.0198489368
 20
505.3434060754
 30
0.0
 11
837.4365156048
 21
504.7184060733
 31
0.0
  0
LINE
  5
E1
330
1F
100
AcDbEntity
  8
0
  6
Continuous
 62
     7
370
    25
100
AcDbLine
 10
855.6031822746
 20
504.7184060822
 30
0.0
 11
856.0198489368
 21
505.3434060754
 31
0.0
  0
LINE
  5
E2
330
1F
100
AcDbEntity
  8
0
  6
Continuous
 62
     7
370
    25
100
AcDbLine
 10
856.0198489368
 20
506.8434060754
 30
0.0
 11
855.9365156048
 21
506.9684060733
 31
0.0
  0
LINE
  5
E3
330
1F
100
AcDbEntity
  8
0
  6
Continuous
 62
     7
370
    25
100
AcDbLine
 10
837.1031822746
 20
506.9684060822
 30
0.0
 11
837.0198489368
 21
506.8434060754
 31
0.0
  0
LINE
  5
E4
330
1F
100
AcDbEntity
  8
0
  6
Continuous
 62
     7
370
    25
100
AcDbLine
 10
837.0198489368
 20
506.8434060754
 30
0.0
 11
837.4365156048
 21
506.2184060733
 31
0.0
  0
LINE
  5
E5
330
1F
100
AcDbEntity
  8
0
  6
Continuous
 62
     7
370
    25
100
AcDbLine
 10
855.6031822746
 20
506.2184060822
 30
0.0
 11
856.0198489368
 21
506.8434060754
 31
0.0
  0
LINE
  5
E6
330
1F
100
AcDbEntity
  8
0
  6
Continuous
 62
     7
370
    25
100
AcDbLine
 10
837.0198489368
 20
503.8434060754
 30
0.0
 11
837.4365156048
 21
503.2184060733
 31
0.0
  0
LINE
  5
E7
330
1F
100
AcDbEntity
  8
0
  6
Continuous
 62
     7
370
    25
100
AcDbLine
 10
855.6031822746
 20
503.2184060822
 30
0.0
 11
856.0198489368
 21
503.8434060754
 31
0.0
  0
LINE
  5
E8
330
1F
100
AcDbEntity
  8
0
  6
Continuous
 62
     7
370
    25
100
AcDbLine
 10
856.0198489368
 20
503.8434060754
 30
0.0
 11
855.9365156048
 21
503.9684060733
 31
0.0
  0
LINE
  5
E9
330
1F
100
AcDbEntity
  8
0
  6
Continuous
 62
     7
370
    25
100
AcDbLine
 10
837.1031822746
 20
503.9684060822
 30
0.0
 11
837.0198489368
 21
503.8434060754
 31
0.0
  0
LINE
  5
EA
330
1F
100
AcDbEntity
  8
0
  6
Continuous
 62
     7
370
    25
100
AcDbLine
 10
856.0198489368
 20
500.8434060754
 30
0.0
 11
855.9365156048
 21
500.9684060733
 31
0.0
  0
LINE
  5
EB
330
1F
100
AcDbEntity
  8
0
  6
Continuous
 62
     7
370
    25
100
AcDbLine
 10
837.1031822746
 20
500.9684060822
 30
0.0
 11
837.0198489368
 21
500.8434060754
 31
0.0
  0
LINE
  5
EC
330
1F
100
AcDbEntity
  8
0
  6
Continuous
 62
     7
370
    25
100
AcDbLine
 10
856.0198489368
 20
502.3434060754
 30
0.0
 11
855.9365156048
 21
502.4684060733
 31
0.0
  0
LINE
  5
ED
330
1F
100
AcDbEntity
  8
0
  6
Continuous
 62
     7
370
    25
100
AcDbLine
 10
837.1031822746
 20
502.4684060822
 30
0.0
 11
837.0198489368
 21
502.3434060754
 31
0.0
  0
LINE
  5
EE
330
1F
100
AcDbEntity
  8
0
  6
Continuous
 62
     7
370
    25
100
AcDbLine
 10
837.0198489368
 20
500.8434060754
 30
0.0
 11
837.4365156048
 21
500.2184060733
 31
0.0
  0
LINE
  5
EF
330
1F
100
AcDbEntity
  8
0
  6
Continuous
 62
     7
370
    25
100
AcDbLine
 10
855.6031822746
 20
500.2184060822
 30
0.0
 11
856.0198489368
 21
500.8434060754
 31
0.0
  0
LINE
  5
F0
330
1F
100
AcDbEntity
  8
0
  6
Continuous
 62
     7
370
    25
100
AcDbLine
 10
837.0198489368
 20
502.3434060754
 30
0.0
 11
837.4365156048
 21
501.7184060733
 31
0.0
  0
LINE
  5
F1
330
1F
100
AcDbEntity
  8
0
  6
Continuous
 62
     7
370
    25
100
AcDbLine
 10
855.6031822746
 20
501.7184060822
 30
0.0
 11
856.0198489368
 21
502.3434060754
 31
0.0
  0
LINE
  5
F2
330
1F
100
AcDbEntity
  8
0
  6
Continuous
 62
     7
370
    25
100
AcDbLine
 10
837.0198489368
 20
499.3434060754
 30
0.0
 11
837.1865156034
 21
499.0934060754
 31
0.0
  0
LINE
  5
F3
330
1F
100
AcDbEntity
  8
0
  6
Continuous
 62
     7
370
    25
100
AcDbLine
 10
855.8531822701
 20
499.0934060754
 30
0.0
 11
856.0198489368
 21
499.3434060754
 31
0.0
  0
LINE
  5
F4
330
1F
100
AcDbEntity
  8
0
  6
Continuous
 62
     7
370
    25
100
AcDbLine
 10
856.0198489368
 20
499.3434060754
 30
0.0
 11
855.9365156048
 21
499.4684060733
 31
0.0
  0
LINE
  5
F5
330
1F
100
AcDbEntity
  8
0
  6
Continuous
 62
     7
370
    25
100
AcDbLine
 10
837.1031822746
 20
499.4684060822
 30
0.0
 11
837.0198489368
 21
499.3434060754
 31
0.0
  0
ARC
  5
F6
330
1F
100
AcDbEntity
  8
0
  6
Continuous
 62
     7
370
    25
100
AcDbCircle
 10
854.0198489368
 20
498.5934060754
 30
0.0
 40
0.5000000000000568
100
AcDbArc
 50
90.0
 51
180.0
  0
ARC
  5
F7
330
1F
100
AcDbEntity
  8
0
  6
Continuous
 62
     7
370
    25
100
AcDbCircle
 10
839.0198489368
 20
498.5934060754
 30
0.0
 40
0.5
100
AcDbArc
 50
0.0
 51
90.0
  0
LINE
  5
F8
330
1F
100
AcDbEntity
  8
0
  6
Continuous
 62
     7
370
    25
100
AcDbLine
 10
832.7698489427
 20
477.8434060801
 30
0.0
 11
833.5198489427
 21
478.3434060801
 31
0.0
  0
LINE
  5
F9
330
1F
100
AcDbEntity
  8
0
  6
Continuous
 62
     7
370
    25
100
AcDbLine
 10
833.5198489427
 20
496.3434060801
 30
0.0
 11
832.7698489427
 21
496.8434060801
 31
0.0
  0
LINE
  5
FA
330
1F
100
AcDbEntity
  8
0
  6
Continuous
 62
     7
370
    25
100
AcDbLine
 10
834.2698489427
 20
496.8434060801
 30
0.0
 11
833.5198489427
 21
496.3434060801
 31
0.0
  0
LINE
  5
FB
330
1F
100
AcDbEntity
  8
0
  6
Continuous
 62
     7
370
    25
100
AcDbLine
 10
833.5198489427
 20
478.3434060801
 30
0.0
 11
834.2698489427
 21
477.8434060801
 31
0.0
  0
LINE
  5
FC
330
1F
100
AcDbEntity
  8
0
  6
Continuous
 62
     7
370
    25
100
AcDbLine
 10
832.7698489427
 20
496.8434060801
 30
0.0
 11
832.0198489427
 21
496.3434060801
 31
0.0
  0
LINE
  5
FD
330
1F
100
AcDbEntity
  8
0
  6
Continuous
 62
     7
370
    25
100
AcDbLine
 10
832.0198489427
 20
478.3434060801
 30
0.0
 11
832.7698489427
 21
477.8434060801
 31
0.0
  0
LINE
  5
FE
330
1F
100
AcDbEntity
  8
0
  6
Continuous
 62
     7
370
    25
100
AcDbLine
 10
831.2698489427
 20
477.8434060801
 30
0.0
 11
832.0198489427
 21
478.3434060801
 31
0.0
  0
LINE
  5
FF
330
1F
100
AcDbEntity
  8
0
  6
Continuous
 62
     7
370
    25
100
AcDbLine
 10
832.0198489427
 20
496.3434060801
 30
0.0
 11
831.2698489427
 21
496.8434060801
 31
0.0
  0
LINE
  5
100
330
1F
100
AcDbEntity
  8
0
  6
Continuous
 62
     7
370
    25
100
AcDbLine
 10
834.2698489427
 20
477.8434060801
 30
0.0
 11
834.5198489427
 21
478.0100727467
 31
0.0
  0
LINE
  5
101
330
1F
100
AcDbEntity
  8
0
  6
Continuous
 62
     7
370
    25
100
AcDbLine
 10
834.5198489427
 20
496.6767394134
 30
0.0
 11
834.2698489427
 21
496.8434060801
 31
0.0
  0
LINE
  5
102
330
1F
100
AcDbEntity
  8
0
  6
Continuous
 62
     7
370
    25
100
AcDbLine
 10
829.7698489427
 20
477.8434060801
 30
0.0
 11
830.5198489427
 21
478.3434060801
 31
0.0
  0
LINE
  5
103
330
1F
100
AcDbEntity
  8
0
  6
Continuous
 62
     7
370
    25
100
AcDbLine
 10
830.5198489427
 20
496.3434060801
 30
0.0
 11
829.7698489427
 21
496.8434060801
 31
0.0
  0
LINE
  5
104
330
1F
100
AcDbEntity
  8
0
  6
Continuous
 62
     7
370
    25
100
AcDbLine
 10
826.7698489427
 20
477.8434060801
 30
0.0
 11
827.5198489427
 21
478.3434060801
 31
0.0
  0
LINE
  5
105
330
1F
100
AcDbEntity
  8
0
  6
Continuous
 62
     7
370
    25
100
AcDbLine
 10
827.5198489427
 20
496.3434060801
 30
0.0
 11
826.7698489427
 21
496.8434060801
 31
0.0
  0
LINE
  5
106
330
1F
100
AcDbEntity
  8
0
  6
Continuous
 62
     7
370
    25
100
AcDbLine
 10
826.7698489427
 20
496.8434060801
 30
0.0
 11
826.5198489427
 21
496.6767394134
 31
0.0
  0
LINE
  5
107
330
1F
100
AcDbEntity
  8
0
  6
Continuous
 62
     7
370
    25
100
AcDbLine
 10
826.5198489427
 20
478.0100727467
 30
0.0
 11
826.7698489427
 21
477.8434060801
 31
0.0
  0
LINE
  5
108
330
1F
100
AcDbEntity
  8
0
  6
Continuous
 62
     7
370
    25
100
AcDbLine
 10
829.7698489427
 20
496.8434060801
 30
0.0
 11
829.0198489427
 21
496.3434060801
 31
0.0
  0
LINE
  5
109
330
1F
100
AcDbEntity
  8
0
  6
Continuous
 62
     7
370
    25
100
AcDbLine
 10
829.0198489427
 20
478.3434060801
 30
0.0
 11
829.7698489427
 21
477.8434060801
 31
0.0
  0
LINE
  5
10A
330
1F
100
AcDbEntity
  8
0
  6
Continuous
 62
     7
370
    25
100
AcDbLine
 10
831.2698489427
 20
496.8434060801
 30
0.0
 11
830.5198489427
 21
496.3434060801
 31
0.0
  0
LINE
  5
10B
330
1F
100
AcDbEntity
  8
0
  6
Continuous
 62
     7
370
    25
100
AcDbLine
 10
830.5198489427
 20
478.3434060801
 30
0.0
 11
831.2698489427
 21
477.8434060801
 31
0.0
  0
LINE
  5
10C
330
1F
100
AcDbEntity
  8
0
  6
Continuous
 62
     7
370
    25
100
AcDbLine
 10
828.2698489427
 20
496.8434060801
 30
0.0
 11
827.5198489427
 21
496.3434060801
 31
0.0
  0
LINE
  5
10D
330
1F
100
AcDbEntity
  8
0
  6
Continuous
 62
     7
370
    25
100
AcDbLine
 10
827.5198489427
 20
478.3434060801
 30
0.0
 11
828.2698489427
 21
477.8434060801
 31
0.0
  0
LINE
  5
10E
330
1F
100
AcDbEntity
  8
0
  6
Continuous
 62
     7
370
    25
100
AcDbLine
 10
828.2698489427
 20
477.8434060801
 30
0.0
 11
829.0198489427
 21
478.3434060801
 31
0.0
  0
LINE
  5
10F
330
1F
100
AcDbEntity
  8
0
  6
Continuous
 62
     7
370
    25
100
AcDbLine
 10
829.0198489427
 20
496.3434060801
 30
0.0
 11
828.2698489427
 21
496.8434060801
 31
0.0
  0
ARC
  5
110
330
1F
100
AcDbEntity
  8
0
  6
Continuous
 62
     7
370
    25
100
AcDbCircle
 10
835.0198489427
 20
494.8434060801
 30
0.0
 40
0.4999999999999432
100
AcDbArc
 50
180.0
 51
270.0
  0
ARC
  5
111
330
1F
100
AcDbEntity
  8
0
  6
Continuous
 62
     7
370
    25
100
AcDbCircle
 10
835.0198489427
 20
479.8434060801
 30
0.0
 40
0.5000000000000568
100
AcDbArc
 50
90.0
 51
180.0
  0
LINE
  5
112
330
1F
100
AcDbEntity
  8
0
  6
Continuous
 62
     7
370
    25
100
AcDbLine
 10
839.0198489427
 20
494.3434060801
 30
0.0
 11
835.0198489427
 21
494.3434060801
 31
0.0
  0
LINE
  5
113
330
1F
100
AcDbEntity
  8
0
  6
Continuous
 62
     7
370
    25
100
AcDbLine
 10
835.0198489427
 20
480.3434060801
 30
0.0
 11
839.0198489427
 21
480.3434060801
 31
0.0
  0
LINE
  5
114
330
1F
100
AcDbEntity
  8
0
  6
Continuous
 62
     7
370
    25
100
AcDbLine
 10
837.0198489427
 20
1035.7934060775
 30
0.0
 11
837.1865156093
 21
1035.5434060775
 31
0.0
  0
LINE
  5
115
330
1F
100
AcDbEntity
  8
0
  6
Continuous
 62
     7
370
    25
100
AcDbLine
 10
855.853182276
 20
1035.5434060775
 30
0.0
 11
856.0198489427
 21
1035.7934060775
 31
0.0
  0
LINE
  5
116
330
1F
100
AcDbEntity
  8
0
  6
Continuous
 62
     7
370
    25
100
AcDbLine
 10
856.0198489427
 20
1043.2934060775
 30
0.0
 11
855.853182276
 21
1043.5434060775
 31
0.0
  0
LINE
  5
117
330
1F
100
AcDbEntity
  8
0
  6
Continuous
 62
     7
370
    25
100
AcDbLine
 10
837.1865156093
 20
1043.5434060775
 30
0.0
 11
837.0198489427
 21
1043.2934060775
 31
0.0
  0
LINE
  5
118
330
1F
100
AcDbEntity
  8
0
  6
Continuous
 62
     7
370
    25
100
AcDbLine
 10
856.0198489427
 20
1040.2934060775
 30
0.0
 11
855.5198489427
 21
1041.0434060775
 31
0.0
  0
LINE
  5
119
330
1F
100
AcDbEntity
  8
0
  6
Continuous
 62
     7
370
    25
100
AcDbLine
 10
837.5198489427
 20
1041.0434060775
 30
0.0
 11
837.0198489427
 21
1040.2934060775
 31
0.0
  0
LINE
  5
11A
330
1F
100
AcDbEntity
  8
0
  6
Continuous
 62
     7
370
    25
100
AcDbLine
 10
837.0198489427
 20
1038.7934060775
 30
0.0
 11
837.5198489427
 21
1038.0434060775
 31
0.0
  0
LINE
  5
11B
330
1F
100
AcDbEntity
  8
0
  6
Continuous
 62
     7
370
    25
100
AcDbLine
 10
855.5198489427
 20
1038.0434060775
 30
0.0
 11
856.0198489427
 21
1038.7934060775
 31
0.0
  0
LINE
  5
11C
330
1F
100
AcDbEntity
  8
0
  6
Continuous
 62
     7
370
    25
100
AcDbLine
 10
837.0198489427
 20
1041.7934060775
 30
0.0
 11
837.5198489427
 21
1041.0434060775
 31
0.0
  0
LINE
  5
11D
330
1F
100
AcDbEntity
  8
0
  6
Continuous
 62
     7
370
    25
100
AcDbLine
 10
855.5198489427
 20
1041.0434060775
 30
0.0
 11
856.0198489427
 21
1041.7934060775
 31
0.0
  0
LINE
  5
11E
330
1F
100
AcDbEntity
  8
0
  6
Continuous
 62
     7
370
    25
100
AcDbLine
 10
856.0198489427
 20
1038.7934060775
 30
0.0
 11
855.5198489427
 21
1039.5434060775
 31
0.0
  0
LINE
  5
11F
330
1F
100
AcDbEntity
  8
0
  6
Continuous
 62
     7
370
    25
100
AcDbLine
 10
837.5198489427
 20
1039.5434060775
 30
0.0
 11
837.0198489427
 21
1038.7934060775
 31
0.0
  0
LINE
  5
120
330
1F
100
AcDbEntity
  8
0
  6
Continuous
 62
     7
370
    25
100
AcDbLine
 10
856.0198489427
 20
1041.7934060775
 30
0.0
 11
855.5198489427
 21
1042.5434060775
 31
0.0
  0
LINE
  5
121
330
1F
100
AcDbEntity
  8
0
  6
Continuous
 62
     7
370
    25
100
AcDbLine
 10
837.5198489427
 20
1042.5434060775
 30
0.0
 11
837.0198489427
 21
1041.7934060775
 31
0.0
  0
LINE
  5
122
330
1F
100
AcDbEntity
  8
0
  6
Continuous
 62
     7
370
    25
100
AcDbLine
 10
856.0198489427
 20
1035.7934060775
 30
0.0
 11
855.5198489427
 21
1036.5434060775
 31
0.0
  0
LINE
  5
123
330
1F
100
AcDbEntity
  8
0
  6
Continuous
 62
     7
370
    25
100
AcDbLine
 10
837.5198489427
 20
1036.5434060775
 30
0.0
 11
837.0198489427
 21
1035.7934060775
 31
0.0
  0
LINE
  5
124
330
1F
100
AcDbEntity
  8
0
  6
Continuous
 62
     7
370
    25
100
AcDbLine
 10
837.0198489427
 20
1043.2934060775
 30
0.0
 11
837.5198489427
 21
1042.5434060775
 31
0.0
  0
LINE
  5
125
330
1F
100
AcDbEntity
  8
0
  6
Continuous
 62
     7
370
    25
100
AcDbLine
 10
855.5198489427
 20
1042.5434060775
 30
0.0
 11
856.0198489427
 21
1043.2934060775
 31
0.0
  0
LINE
  5
126
330
1F
100
AcDbEntity
  8
0
  6
Continuous
 62
     7
370
    25
100
AcDbLine
 10
837.0198489427
 20
1040.2934060775
 30
0.0
 11
837.5198489427
 21
1039.5434060775
 31
0.0
  0
LINE
  5
127
330
1F
100
AcDbEntity
  8
0
  6
Continuous
 62
     7
370
    25
100
AcDbLine
 10
855.5198489427
 20
1039.5434060775
 30
0.0
 11
856.0198489427
 21
1040.2934060775
 31
0.0
  0
LINE
  5
128
330
1F
100
AcDbEntity
  8
0
  6
Continuous
 62
     7
370
    25
100
AcDbLine
 10
856.0198489427
 20
1037.2934060775
 30
0.0
 11
855.5198489427
 21
1038.0434060775
 31
0.0
  0
LINE
  5
129
330
1F
100
AcDbEntity
  8
0
  6
Continuous
 62
     7
370
    25
100
AcDbLine
 10
837.5198489427
 20
1038.0434060775
 30
0.0
 11
837.0198489427
 21
1037.2934060775
 31
0.0
  0
LINE
  5
12A
330
1F
100
AcDbEntity
  8
0
  6
Continuous
 62
     7
370
    25
100
AcDbLine
 10
837.0198489427
 20
1037.2934060775
 30
0.0
 11
837.5198489427
 21
1036.5434060775
 31
0.0
  0
LINE
  5
12B
330
1F
100
AcDbEntity
  8
0
  6
Continuous
 62
     7
370
    25
100
AcDbLine
 10
855.5198489427
 20
1036.5434060775
 30
0.0
 11
856.0198489427
 21
1037.2934060775
 31
0.0
  0
ARC
  5
12C
330
1F
100
AcDbEntity
  8
0
  6
Continuous
 62
     7
370
    25
100
AcDbCircle
 10
839.0198489427
 20
1044.0434060775
 30
0.0
 40
0.5000000000001137
100
AcDbArc
 50
270.0
 51
0.0
  0
ARC
  5
12D
330
1F
100
AcDbEntity
  8
0
  6
Continuous
 62
     7
370
    25
100
AcDbCircle
 10
854.0198489427
 20
1044.0434060775
 30
0.0
 40
0.5000000000001137
100
AcDbArc
 50
180.0
 51
270.0
  0
LINE
  5
12E
330
1F
100
AcDbEntity
  8
0
  6
Continuous
 62
     7
370
    25
100
AcDbLine
 10
839.5198489427
 20
1048.0434060775
 30
0.0
 11
839.5198489427
 21
1044.0434060775
 31
0.0
  0
LINE
  5
12F
330
1F
100
AcDbEntity
  8
0
  6
Continuous
 62
     7
370
    25
100
AcDbLine
 10
853.5198489427
 20
1044.0434060775
 30
0.0
 11
853.5198489427
 21
1048.0434060775
 31
0.0
  0
ARC
  5
130
330
1F
100
AcDbEntity
  8
0
  6
Continuous
 62
     7
370
    25
100
AcDbCircle
 10
475.2698489473
 20
978.7672113968
 30
0.0
 40
2.0
100
AcDbArc
 50
0.0
 51
57.5027570594
  0
ARC
  5
131
330
1F
100
AcDbEntity
  8
0
  6
Continuous
 62
     7
370
    25
100
AcDbCircle
 10
441.2698489473
 20
978.7672113968
 30
0.0
 40
2.000000000000018
100
AcDbArc
 50
122.4972429406
 51
180.0
  0
LINE
  5
132
330
1F
100
AcDbEntity
  8
0
  6
Continuous
 62
     7
370
    25
100
AcDbLine
 10
439.2698489473
 20
978.7672113968
 30
0.0
 11
439.2698489473
 21
977.8434060775
 31
0.0
  0
LINE
  5
133
330
1F
100
AcDbEntity
  8
0
  6
Continuous
 62
     7
370
    25
100
AcDbLine
 10
477.2698489473
 20
977.8434060775
 30
0.0
 11
477.2698489473
 21
978.7672113968
 31
0.0
  0
ARC
  5
134
330
1F
100
AcDbEntity
  8
0
  6
Continuous
 62
     7
370
    25
100
AcDbCircle
 10
441.2698489473
 20
977.8434060775
 30
0.0
 40
2.0
100
AcDbArc
 50
180.0
 51
270.0
  0
ARC
  5
135
330
1F
100
AcDbEntity
  8
0
  6
Continuous
 62
     7
370
    25
100
AcDbCircle
 10
475.2698489473
 20
977.8434060775
 30
0.0
 40
2.0
100
AcDbArc
 50
270.0
 51
0.0
  0
ARC
  5
136
330
1F
100
AcDbEntity
  8
0
  6
Continuous
 62
     7
370
    25
100
AcDbCircle
 10
457.7916237978
 20
951.3289799288
 30
0.0
 40
34.53221327345187
100
AcDbArc
 50
57.5027570594
 51
89.2065044192
  0
ARC
  5
137
330
1F
100
AcDbEntity
  8
0
  6
Continuous
 62
     7
370
    25
100
AcDbCircle
 10
458.7480740968
 20
951.3289799288
 30
0.0
 40
34.53221327345187
100
AcDbArc
 50
90.7934955808
 51
122.4972429406
  0
ARC
  5
138
330
1F
100
AcDbEntity
  8
0
  6
Continuous
 62
     7
370
    25
100
AcDbCircle
 10
443.3977099223
 20
973.8434060775
 30
0.0
 40
2.00000000000003
100
AcDbArc
 50
42.8789036033
 51
90.0
  0
ARC
  5
139
330
1F
100
AcDbEntity
  8
0
  6
Continuous
 62
     7
370
    25
100
AcDbCircle
 10
473.1419879722
 20
973.8434060775
 30
0.0
 40
2.00000000000003
100
AcDbArc
 50
90.0
 51
137.1210963967
  0
LINE
  5
13A
330
1F
100
AcDbEntity
  8
0
  6
Continuous
 62
     7
370
    25
100
AcDbLine
 10
444.8632969056
 20
975.2043082762
 30
0.0
 11
450.2354359305
 21
969.4189277878
 31
0.0
  0
LINE
  5
13B
330
1F
100
AcDbEntity
  8
0
  6
Continuous
 62
     7
370
    25
100
AcDbLine
 10
466.304261964
 20
969.4189277878
 30
0.0
 11
471.676400989
 21
975.2043082762
 31
0.0
  0
ARC
  5
13C
330
1F
100
AcDbEntity
  8
0
  6
Continuous
 62
     7
370
    25
100
AcDbCircle
 10
448.7698489473
 20
968.0580255891
 30
0.0
 40
2.00000000000003
100
AcDbArc
 50
0.0
 51
42.8789036033
  0
ARC
  5
13D
330
1F
100
AcDbEntity
  8
0
  6
Continuous
 62
     7
370
    25
100
AcDbCircle
 10
467.7698489473
 20
968.0580255891
 30
0.0
 40
2.00000000000003
100
AcDbArc
 50
137.1210963967
 51
180.0
  0
LINE
  5
13E
330
1F
100
AcDbEntity
  8
0
  6
Continuous
 62
     7
370
    25
100
AcDbLine
 10
450.7698489473
 20
968.0580255891
 30
0.0
 11
450.7698489473
 21
960.8434060775
 31
0.0
  0
LINE
  5
13F
330
1F
100
AcDbEntity
  8
0
  6
Continuous
 62
     7
370
    25
100
AcDbLine
 10
465.7698489473
 20
960.8434060775
 30
0.0
 11
465.7698489473
 21
968.0580255891
 31
0.0
  0
ARC
  5
140
330
1F
100
AcDbEntity
  8
0
  6
Continuous
 62
     7
370
    25
100
AcDbCircle
 10
28.6324509076
 20
1079.6477447001
 30
0.0
 40
2.500000000000142
100
AcDbArc
 50
61.9
 51
241.9
  0
LINE
  5
141
330
1F
100
AcDbEntity
  8
0
  6
Continuous
 62
     7
370
    25
100
AcDbLine
 10
54.3604272336
 20
1068.7443441805
 30
0.0
 11
29.8099806107
 21
1081.8530618652
 31
0.0
  0
LINE
  5
142
330
1F
100
AcDbEntity
  8
0
  6
Continuous
 62
     7
370
    25
100
AcDbLine
 10
27.4549212046
 20
1077.4424275351
 30
0.0
 11
52.0053678275
 21
1064.3337098504
 31
0.0
  0
LINE
  5
143
330
1F
100
AcDbEntity
  8
0
  6
Continuous
 62
     7
370
    25
100
AcDbLine
 10
52.0053678275
 20
1064.3337098504
 30
0.0
 11
95.5226648883
 21
1041.0976371904
 31
0.0
  0
LINE
  5
144
330
1F
100
AcDbEntity
  8
0
  6
Continuous
 62
     7
370
    25
100
AcDbLine
 10
97.8777242944
 20
1045.5082715205
 30
0.0
 11
54.3604272336
 21
1068.7443441805
 31
0.0
  0
LINE
  5
145
330
1F
100
AcDbEntity
  8
0
  6
Continuous
 62
     7
370
    25
100
AcDbLine
 10
95.5226648883
 20
1041.0976371904
 30
0.0
 11
97.0160737406
 21
1040.3002311255
 31
0.0
  0
LINE
  5
146
330
1F
100
AcDbEntity
  8
0
  6
Continuous
 62
     7
370
    25
100
AcDbLine
 10
99.3711331467
 20
1044.7108654556
 30
0.0
 11
97.8777242944
 21
1045.5082715205
 31
0.0
  0
LINE
  5
147
330
1F
100
AcDbEntity
  8
0
  6
Continuous
 62
     7
370
    25
100
AcDbLine
 10
225.6675774724
 20
971.6067255439
 30
0.0
 11
245.8254835625
 21
960.8434060775
 31
0.0
  0
LINE
  5
148
330
1F
100
AcDbEntity
  8
0
  6
Continuous
 62
     7
370
    25
100
AcDbLine
 10
105.698323694
 20
1035.6643413898
 30
0.0
 11
220.3748162763
 21
974.4327968313
 31
0.0
  0
LINE
  5
149
330
1F
100
AcDbEntity
  8
0
  6
Continuous
 62
     7
370
    25
100
AcDbLine
 10
97.0160737406
 20
1040.3002311255
 30
0.0
 11
100.4055624979
 21
1038.4904126771
 31
0.0
  0
LINE
  5
14A
330
1F
100
AcDbEntity
  8
0
  6
Continuous
 62
     7
370
    25
100
AcDbLine
 10
256.4409270351
 20
960.8434060775
 30
0.0
 11
99.3711331467
 21
1044.7108654556
 31
0.0
  0
LINE
  5
14B
330
1F
100
AcDbEntity
  8
0
  6
Continuous
 62
     7
370
    25
100
AcDbLine
 10
256.6282103927
 20
960.8434060775
 30
0.0
 11
101.2622567581
 21
1043.8010994864
 31
0.0
  0
ARC
  5
14C
330
1F
100
AcDbEntity
  8
0
  6
Continuous
 62
     7
370
    25
100
AcDbCircle
 10
28.6324509076
 20
1080.0443607649
 30
0.0
 40
2.499999999999976
100
AcDbArc
 50
61.9
 51
184.5496649705
  0
LINE
  5
14D
330
1F
100
AcDbEntity
  8
0
  6
Continuous
 62
     7
370
    25
100
AcDbLine
 10
54.3604272336
 20
1069.1409602453
 30
0.0
 11
29.8099806107
 21
1082.2496779299
 31
0.0
  0
LINE
  5
14E
330
1F
100
AcDbEntity
  8
0
  6
Continuous
 62
     7
370
    25
100
AcDbLine
 10
97.8777242944
 20
1045.9048875852
 30
0.0
 11
54.3604272336
 21
1069.1409602453
 31
0.0
  0
LINE
  5
14F
330
1F
100
AcDbEntity
  8
0
  6
Continuous
 62
     7
370
    25
100
AcDbLine
 10
99.3711331467
 20
1045.1074815203
 30
0.0
 11
97.8777242944
 21
1045.9048875852
 31
0.0
  0
LINE
  5
150
330
1F
100
AcDbEntity
  8
0
  6
Continuous
 62
     7
370
    25
100
AcDbLine
 10
257.1837229181
 20
960.8434060775
 30
0.0
 11
99.3711331467
 21
1045.1074815203
 31
0.0
  0
LINE
  5
151
330
1F
100
AcDbEntity
  8
0
  6
Continuous
 62
     7
370
    25
100
AcDbLine
 10
257.3710062757
 20
960.8434060775
 30
0.0
 11
101.2622567581
 21
1044.1977155511
 31
0.0
  0
LINE
  5
152
330
1F
100
AcDbEntity
  8
0
  6
Continuous
 62
     7
370
    25
100
AcDbLine
 10
755.0198489427
 20
1097.0434060775
 30
0.0
 11
755.5198489427
 21
1097.0434060775
 31
0.0
  0
LINE
  5
153
330
1F
100
AcDbEntity
  8
0
  6
Continuous
 62
     7
370
    25
100
AcDbLine
 10
755.5198489427
 20
1105.0434060775
 30
0.0
 11
755.0198489427
 21
1105.0434060775
 31
0.0
  0
LINE
  5
154
330
1F
100
AcDbEntity
  8
0
  6
Continuous
 62
     7
370
    25
100
AcDbLine
 10
745.9179056318
 20
1091.4439784636
 30
0.0
 11
746.0198489427
 21
1091.5459217744
 31
0.0
  0
LINE
  5
155
330
1F
100
AcDbEntity
  8
0
  6
Continuous
 62
     7
370
    25
100
AcDbLine
 10
746.0198489427
 20
1110.5408903805
 30
0.0
 11
745.5197758141
 21
1111.0409635091
 31
0.0
  0
LINE
  5
156
330
1F
100
AcDbEntity
  8
0
  6
Continuous
 62
     7
370
    25
100
AcDbLine
 10
742.5193357914
 20
1111.0403772292
 30
0.0
 11
742.0198489427
 21
1110.5408903805
 31
0.0
  0
LINE
  5
157
330
1F
100
AcDbEntity
  8
0
  6
Continuous
 62
     7
370
    25
100
AcDbLine
 10
742.0198489427
 20
1091.5459217744
 30
0.0
 11
742.121792254
 21
1091.4439784631
 31
0.0
  0
ARC
  5
158
330
1F
100
AcDbEntity
  8
0
  6
Continuous
 62
     7
370
    25
100
AcDbCircle
 10
746.4198489427
 20
1095.6434060775
 30
0.0
 40
0.3999999999998636
100
AcDbArc
 50
90.0
 51
180.0
  0
ARC
  5
159
330
1F
100
AcDbEntity
  8
0
  6
Continuous
 62
     7
370
    25
100
AcDbCircle
 10
746.4198489427
 20
1106.4434060775
 30
0.0
 40
0.3999999999998636
100
AcDbArc
 50
180.0
 51
270.0
  0
ARC
  5
15A
330
1F
100
AcDbEntity
  8
0
  6
Continuous
 62
     7
370
    25
100
AcDbCircle
 10
753.3198489427
 20
1105.8434060775
 30
0.0
 40
0.2000000000000455
100
AcDbArc
 50
0.0
 51
90.0000000003
  0
ARC
  5
15B
330
1F
100
AcDbEntity
  8
0
  6
Continuous
 62
     7
370
    25
100
AcDbCircle
 10
753.3198489427
 20
1096.2434060775
 30
0.0
 40
0.2000000000000455
100
AcDbArc
 50
269.9999999997
 51
0.0
  0
LINE
  5
15C
330
1F
100
AcDbEntity
  8
0
  6
Continuous
 62
     7
370
    25
100
AcDbLine
 10
746.4198489427
 20
1096.0434060775
 30
0.0
 11
753.3198489427
 21
1096.0434060775
 31
0.0
  0
LINE
  5
15D
330
1F
100
AcDbEntity
  8
0
  6
Continuous
 62
     7
370
    25
100
AcDbLine
 10
753.3198489427
 20
1106.0434060775
 30
0.0
 11
746.4198489427
 21
1106.0434060775
 31
0.0
  0
LINE
  5
15E
330
1F
100
AcDbEntity
  8
0
  6
Continuous
 62
     7
370
    25
100
AcDbLine
 10
66.4198489427
 20
509.2934060775
 30
0.0
 11
65.9198489427
 21
509.2934060775
 31
0.0
  0
LINE
  5
15F
330
1F
100
AcDbEntity
  8
0
  6
Continuous
 62
     7
370
    25
100
AcDbLine
 10
65.9198489427
 20
502.2934060775
 30
0.0
 11
66.4198489427
 21
502.2934060775
 31
0.0
  0
LINE
  5
160
330
1F
100
AcDbEntity
  8
0
  6
Continuous
 62
     7
370
    25
100
AcDbLine
 10
73.1198489427
 20
515.7934060775
 30
0.0
 11
68.4198489427
 21
515.7934060775
 31
0.0
  0
LINE
  5
161
330
1F
100
AcDbEntity
  8
0
  6
Continuous
 62
     7
370
    25
100
AcDbLine
 10
68.4198489427
 20
495.7934060775
 30
0.0
 11
73.1198489427
 21
495.7934060775
 31
0.0
  0
ARC
  5
162
330
1F
100
AcDbEntity
  8
0
  6
Continuous
 62
     7
370
    25
100
AcDbCircle
 10
68.4198489427
 20
497.7934060775
 30
0.0
 40
2.0
100
AcDbArc
 50
180.0
 51
270.0
  0
ARC
  5
163
330
1F
100
AcDbEntity
  8
0
  6
Continuous
 62
     7
370
    25
100
AcDbCircle
 10
68.4198489427
 20
513.7934060775
 30
0.0
 40
2.0
100
AcDbArc
 50
90.0
 51
180.0
  0
LINE
  5
164
330
1F
100
AcDbEntity
  8
0
  6
Continuous
 62
     7
370
    25
100
AcDbLine
 10
45.8198489427
 20
243.1434060775
 30
0.0
 11
45.8198489427
 21
241.6434060775
 31
0.0
  0
LINE
  5
165
330
1F
100
AcDbEntity
  8
0
  6
Continuous
 62
     7
370
    25
100
AcDbLine
 10
62.8198489427
 20
241.6434060775
 30
0.0
 11
62.8198489427
 21
243.1434060775
 31
0.0
  0
LINE
  5
166
330
1F
100
AcDbEntity
  8
0
  6
Continuous
 62
     7
370
    25
100
AcDbLine
 10
62.8198489427
 20
243.1434060775
 30
0.0
 11
62.3198489427
 21
243.6434060775
 31
0.0
  0
LINE
  5
167
330
1F
100
AcDbEntity
  8
0
  6
Continuous
 62
     7
370
    25
100
AcDbLine
 10
46.3198489427
 20
243.6434060775
 30
0.0
 11
45.8198489427
 21
243.1434060775
 31
0.0
  0
LINE
  5
168
330
1F
100
AcDbEntity
  8
0
  6
Continuous
 62
     7
370
    25
100
AcDbLine
 10
45.8198489427
 20
241.6434060775
 30
0.0
 11
46.3198489427
 21
241.1434060775
 31
0.0
  0
LINE
  5
169
330
1F
100
AcDbEntity
  8
0
  6
Continuous
 62
     7
370
    25
100
AcDbLine
 10
62.3198489427
 20
241.1434060775
 30
0.0
 11
62.8198489427
 21
241.6434060775
 31
0.0
  0
LINE
  5
16A
330
1F
100
AcDbEntity
  8
0
  6
Continuous
 62
     7
370
    25
100
AcDbLine
 10
47.8198489427
 20
247.5434060775
 30
0.0
 11
47.8198489427
 21
247.4019847212
 31
0.0
  0
LINE
  5
16B
330
1F
100
AcDbEntity
  8
0
  6
Continuous
 62
     7
370
    25
100
AcDbLine
 10
62.8198489427
 20
768.8434060775
 30
0.0
 11
62.3198489427
 21
769.3434060775
 31
0.0
  0
LINE
  5
16C
330
1F
100
AcDbEntity
  8
0
  6
Continuous
 62
     7
370
    25
100
AcDbLine
 10
46.3198489427
 20
769.3434060775
 30
0.0
 11
45.8198489427
 21
768.8434060775
 31
0.0
  0
LINE
  5
16D
330
1F
100
AcDbEntity
  8
0
  6
Continuous
 62
     7
370
    25
100
AcDbLine
 10
62.8198489427
 20
767.3434060775
 30
0.0
 11
62.8198489427
 21
768.8434060775
 31
0.0
  0
LINE
  5
16E
330
1F
100
AcDbEntity
  8
0
  6
Continuous
 62
     7
370
    25
100
AcDbLine
 10
45.8198489427
 20
768.8434060775
 30
0.0
 11
45.8198489427
 21
767.3434060775
 31
0.0
  0
LINE
  5
16F
330
1F
100
AcDbEntity
  8
0
  6
Continuous
 62
     7
370
    25
100
AcDbLine
 10
45.8198489427
 20
767.3434060775
 30
0.0
 11
46.3198489427
 21
766.8434060775
 31
0.0
  0
LINE
  5
170
330
1F
100
AcDbEntity
  8
0
  6
Continuous
 62
     7
370
    25
100
AcDbLine
 10
62.3198489427
 20
766.8434060775
 30
0.0
 11
62.8198489427
 21
767.3434060775
 31
0.0
  0
LINE
  5
171
330
1F
100
AcDbEntity
  8
0
  6
Continuous
 62
     7
370
    25
100
AcDbLine
 10
47.8198489427
 20
763.0848274337
 30
0.0
 11
47.8198489427
 21
762.9434060775
 31
0.0
  0
LINE
  5
172
330
1F
100
AcDbEntity
  8
0
  6
Continuous
 62
     7
370
    25
100
AcDbLine
 10
65.9198489427
 20
290.2934060775
 30
0.0
 11
72.4049201927
 21
291.91467389
 31
0.0
  0
LINE
  5
173
330
1F
100
AcDbEntity
  8
0
  6
Continuous
 62
     7
370
    25
100
AcDbLine
 10
72.4049201927
 20
299.672138265
 30
0.0
 11
65.9198489427
 21
301.2934060775
 31
0.0
  0
ARC
  5
174
330
1F
100
AcDbEntity
  8
0
  6
Continuous
 62
     7
370
    25
100
AcDbCircle
 10
71.9198489427
 20
297.7318532647
 30
0.0
 40
2.000000000006063
100
AcDbArc
 50
53.1301023551
 51
75.9637565331
  0
ARC
  5
175
330
1F
100
AcDbEntity
  8
0
  6
Continuous
 62
     7
370
    25
100
AcDbCircle
 10
71.9198489427
 20
293.8549588903
 30
0.0
 40
2.000000000006118
100
AcDbArc
 50
284.0362434669
 51
306.8698976449
  0
LINE
  5
176
330
1F
100
AcDbEntity
  8
0
  6
Continuous
 62
     7
370
    25
100
AcDbLine
 10
65.9198489427
 20
709.1934060775
 30
0.0
 11
72.4049201927
 21
710.81467389
 31
0.0
  0
LINE
  5
177
330
1F
100
AcDbEntity
  8
0
  6
Continuous
 62
     7
370
    25
100
AcDbLine
 10
72.4049201927
 20
718.572138265
 30
0.0
 11
65.9198489427
 21
720.1934060775
 31
0.0
  0
ARC
  5
178
330
1F
100
AcDbEntity
  8
0
  6
Continuous
 62
     7
370
    25
100
AcDbCircle
 10
71.9198489427
 20
716.6318532647
 30
0.0
 40
2.000000000006173
100
AcDbArc
 50
53.130102355
 51
75.9637565331
  0
ARC
  5
179
330
1F
100
AcDbEntity
  8
0
  6
Continuous
 62
     7
370
    25
100
AcDbCircle
 10
71.9198489427
 20
712.7549588903
 30
0.0
 40
2.000000000006063
100
AcDbArc
 50
284.0362434669
 51
306.869897645
  0
LINE
  5
17A
330
1F
100
AcDbEntity
  8
0
  6
Continuous
 62
     7
370
    25
100
AcDbLine
 10
47.3198489427
 20
775.1434060775
 30
0.0
 11
47.3198489427
 21
772.6434060775
 31
0.0
  0
SPLINE
  5
17B
330
1F
100
AcDbEntity
  8
0
  6
Continuous
 62
     7
370
    25
100
AcDbSpline
210
0.0
220
0.0
230
1.0
 70
     8
 71
     3
 72
    13
 73
     9
 74
     0
 42
0.000000001
 43
0.00000001
 40
0.0
 40
0.0
 40
0.0
 40
0.0
 40
0.1537005146059923
 40
0.4677837651248252
 40
0.6522647620192712
 40
0.8142558356557961
 40
0.9817880838864222
 40
1.0
 40
1.0
 40
1.0
 40
1.0
 10
821.7222348799557
 20
368.4813528191493
 30
0.0
 10
821.7218709398206
 20
368.4884315367758
 30
0.0
 10
821.7207632969015
 20
368.5099754411151
 30
0.0
 10
821.7430304255886
 20
368.5505630693058
 30
0.0
 10
821.8051678692241
 20
368.5986664885979
 30
0.0
 10
821.8766380026743
 20
368.6262780201388
 30
0.0
 10
821.9353493154598
 20
368.6374485806945
 30
0.0
 10
821.9664937643649
 20
368.6355697314657
 30
0.0
 10
821.969547427412
 20
368.6353855133253
 30
0.0
  0
ARC
  5
17C
330
1F
100
AcDbEntity
  8
0
  6
Continuous
 62
     7
370
    25
100
AcDbCircle
 10
827.0698489427
 20
368.8860239729
 30
0.0
 40
0.25
100
AcDbArc
 50
270.0
 51
0.0
  0
LINE
  5
17D
330
1F
100
AcDbEntity
  8
0
  6
Continuous
 62
     7
370
    25
100
AcDbLine
 10
821.9698489427
 20
368.6360239729
 30
0.0
 11
827.0698489427
 21
368.6360239729
 31
0.0
  0
ARC
  5
17E
330
1F
100
AcDbEntity
  8
0
  6
Continuous
 62
     7
370
    25
100
AcDbCircle
 10
827.0698489427
 20
373.3238451875
 30
0.0
 40
0.25
100
AcDbArc
 50
0.0
 51
90.0
  0
LINE
  5
17F
330
1F
100
AcDbEntity
  8
0
  6
Continuous
 62
     7
370
    25
100
AcDbLine
 10
827.0698489427
 20
373.5738451875
 30
0.0
 11
821.9698489427
 21
373.5738451875
 31
0.0
  0
ARC
  5
180
330
1F
100
AcDbEntity
  8
0
  6
Continuous
 62
     7
370
    25
100
AcDbCircle
 10
820.7698489427
 20
372.5934060775
 30
0.0
 40
0.2500000000000063
100
AcDbArc
 50
121.0756875732
 51
180.0
  0
ARC
  5
181
330
1F
100
AcDbEntity
  8
0
  6
Continuous
 62
     7
370
    25
100
AcDbCircle
 10
827.0698489427
 20
354.9629669674
 30
0.0
 40
0.2500000000001137
100
AcDbArc
 50
270.0
 51
0.0
  0
LINE
  5
182
330
1F
100
AcDbEntity
  8
0
  6
Continuous
 62
     7
370
    25
100
AcDbLine
 10
821.9698489427
 20
354.7129669674
 30
0.0
 11
827.0698489427
 21
354.7129669674
 31
0.0
  0
SPLINE
  5
183
330
1F
100
AcDbEntity
  8
0
  6
Continuous
 62
     7
370
    25
100
AcDbSpline
210
0.0
220
0.0
230
1.0
 70
     8
 71
     3
 72
    13
 73
     9
 74
     0
 42
0.000000001
 43
0.00000001
 40
0.0
 40
0.0
 40
0.0
 40
0.0
 40
0.156018611341587
 40
0.4086735129025033
 40
0.5953335874206044
 40
0.7561090603040602
 40
0.924910380955476
 40
1.0
 40
1.0
 40
1.0
 40
1.0
 10
821.7188028885678
 20
360.5873594209533
 30
0.0
 10
821.7190593293864
 20
360.5851411519527
 30
0.0
 10
821.7197310477752
 20
360.5793306414166
 30
0.0
 10
821.7093722051682
 20
360.5562801297587
 30
0.0
 10
821.6636517280482
 20
360.5165236261948
 30
0.0
 10
821.5958772496816
 20
360.4859860257101
 30
0.0
 10
821.5270218890314
 20
360.4693888767171
 30
0.0
 10
821.4833079674053
 20
360.4705351823188
 30
0.0
 10
821.4698492398036
 20
360.4708881091272
 30
0.0
  0
ARC
  5
184
330
1F
100
AcDbEntity
  8
0
  6
Continuous
 62
     7
370
    25
100
AcDbCircle
 10
816.3698489427
 20
360.2189967415
 30
0.0
 40
0.2500000000000568
100
AcDbArc
 50
90.0
 51
180.0
  0
LINE
  5
185
330
1F
100
AcDbEntity
  8
0
  6
Continuous
 62
     7
370
    25
100
AcDbLine
 10
821.4698489427
 20
360.4689967415
 30
0.0
 11
816.3698489427
 21
360.4689967415
 31
0.0
  0
ARC
  5
186
330
1F
100
AcDbEntity
  8
0
  6
Continuous
 62
     7
370
    25
100
AcDbCircle
 10
816.3698489427
 20
355.3928297694
 30
0.0
 40
0.2500000000000568
100
AcDbArc
 50
180.0
 51
270.0
  0
LINE
  5
187
330
1F
100
AcDbEntity
  8
0
  6
Continuous
 62
     7
370
    25
100
AcDbLine
 10
816.3698489427
 20
355.1428297694
 30
0.0
 11
821.4698489427
 21
355.1428297694
 31
0.0
  0
ARC
  5
188
330
1F
100
AcDbEntity
  8
0
  6
Continuous
 62
     7
370
    25
100
AcDbCircle
 10
822.6698489427
 20
355.6934060775
 30
0.0
 40
0.25
100
AcDbArc
 50
270.0
 51
0.0
  0
LINE
  5
189
330
1F
100
AcDbEntity
  8
0
  6
Continuous
 62
     7
370
    25
100
AcDbLine
 10
822.40662853
 20
355.4434060775
 30
0.0
 11
822.6698489427
 21
355.4434060775
 31
0.0
  0
ARC
  5
18A
330
1F
100
AcDbEntity
  8
0
  6
Continuous
 62
     7
370
    25
100
AcDbCircle
 10
816.3698489427
 20
372.8939823856
 30
0.0
 40
0.2500000000000568
100
AcDbArc
 50
90.0
 51
180.0
  0
LINE
  5
18B
330
1F
100
AcDbEntity
  8
0
  6
Continuous
 62
     7
370
    25
100
AcDbLine
 10
820.8983279258
 20
373.1439823856
 30
0.0
 11
816.3698489427
 21
373.1439823856
 31
0.0
  0
LINE
  5
18C
330
1F
100
AcDbEntity
  8
0
  6
Continuous
 62
     7
370
    25
100
AcDbLine
 10
815.0698489427
 20
369.1434060775
 30
0.0
 11
814.8734920088
 21
369.4835062634
 31
0.0
  0
LINE
  5
18D
330
1F
100
AcDbEntity
  8
0
  6
Continuous
 62
     7
370
    25
100
AcDbLine
 10
814.8734920088
 20
358.8033058915
 30
0.0
 11
815.0698489427
 21
359.1434060775
 31
0.0
  0
LINE
  5
18E
330
1F
100
AcDbEntity
  8
0
  6
Continuous
 62
     7
370
    25
100
AcDbLine
 10
815.3198489427
 20
359.1434060775
 30
0.0
 11
815.4080550596
 21
358.9906286014
 31
0.0
  0
LINE
  5
18F
330
1F
100
AcDbEntity
  8
0
  6
Continuous
 62
     7
370
    25
100
AcDbLine
 10
815.4080550596
 20
369.2961835536
 30
0.0
 11
815.3198489427
 21
369.1434060775
 31
0.0
  0
LINE
  5
190
330
1F
100
AcDbEntity
  8
0
  6
Continuous
 62
     7
370
    25
100
AcDbLine
 10
820.5198489427
 20
369.1434060775
 30
0.0
 11
820.4316428257
 21
369.2961835536
 31
0.0
  0
LINE
  5
191
330
1F
100
AcDbEntity
  8
0
  6
Continuous
 62
     7
370
    25
100
AcDbLine
 10
815.0698489427
 20
361.1434060775
 30
0.0
 11
815.3198489427
 21
361.1434060775
 31
0.0
  0
LINE
  5
192
330
1F
100
AcDbEntity
  8
0
  6
Continuous
 62
     7
370
    25
100
AcDbLine
 10
815.3198489427
 20
367.1434060775
 30
0.0
 11
815.0698489427
 21
367.1434060775
 31
0.0
  0
LWPOLYLINE
  5
193
330
1F
100
AcDbEntity
  8
0
  6
Continuous
 62
     7
370
    25
100
AcDbPolyline
 90
        3
 70
   128
 43
0.0
 10
70.9532916845
 20
911.8466470591
 10
70.9683706067
 20
911.8354719021
 10
71.0197449148
 20
911.8068479612
  0
LINE
  5
194
330
1F
100
AcDbEntity
  8
0
  6
Continuous
 62
     7
370
    25
100
AcDbLine
 10
78.2723041801
 20
907.0445359995
 30
0.0
 11
78.382109668
 21
907.2970713326
 31
0.0
  0
LINE
  5
195
330
1F
100
AcDbEntity
  8
0
  6
Continuous
 62
     7
370
    25
100
AcDbLine
 10
71.045629073
 20
910.487063884
 30
0.0
 11
70.9636622283
 21
910.2985530471
 31
0.0
  0
LINE
  5
196
330
1F
100
AcDbEntity
  8
0
  6
Continuous
 62
     7
370
    25
100
AcDbLine
 10
58.2198489427
 20
238.1434060775
 30
0.0
 11
58.2198489427
 21
238.6434060775
 31
0.0
  0
LINE
  5
197
330
1F
100
AcDbEntity
  8
0
  6
Continuous
 62
     7
370
    25
100
AcDbLine
 10
50.4198489427
 20
238.6434060775
 30
0.0
 11
50.4198489427
 21
238.1434060775
 31
0.0
  0
LINE
  5
198
330
1F
100
AcDbEntity
  8
0
  6
Continuous
 62
     7
370
    25
100
AcDbLine
 10
49.3198489427
 20
772.6434060775
 30
0.0
 11
49.3198489427
 21
769.3434060775
 31
0.0
  0
LINE
  5
199
330
1F
100
AcDbEntity
  8
0
  6
Continuous
 62
     7
370
    25
100
AcDbLine
 10
59.3198489427
 20
769.3434060775
 30
0.0
 11
59.3198489427
 21
772.6434060775
 31
0.0
  0
LINE
  5
19A
330
1F
100
AcDbEntity
  8
0
  6
Continuous
 62
     7
370
    25
100
AcDbLine
 10
50.4198489427
 20
775.6434060775
 30
0.0
 11
50.4198489427
 21
775.1434060775
 31
0.0
  0
LINE
  5
19B
330
1F
100
AcDbEntity
  8
0
  6
Continuous
 62
     7
370
    25
100
AcDbLine
 10
58.2198489427
 20
775.1434060775
 30
0.0
 11
58.2198489427
 21
775.6434060775
 31
0.0
  0
LINE
  5
19C
330
1F
100
AcDbEntity
  8
0
  6
Continuous
 62
     7
370
    25
100
AcDbLine
 10
46.3198489427
 20
241.1434060775
 30
0.0
 11
46.3198489427
 21
238.6434060775
 31
0.0
  0
LINE
  5
19D
330
1F
100
AcDbEntity
  8
0
  6
Continuous
 62
     7
370
    25
100
AcDbLine
 10
800.1198489427
 20
240.6434060775
 30
0.0
 11
800.1198489427
 21
241.1434060775
 31
0.0
  0
LINE
  5
19E
330
1F
100
AcDbEntity
  8
0
  6
Continuous
 62
     7
370
    25
100
AcDbLine
 10
792.1198489427
 20
241.1434060775
 30
0.0
 11
792.1198489427
 21
240.6434060775
 31
0.0
  0
ARC
  5
19F
330
1F
100
AcDbEntity
  8
0
  6
Continuous
 62
     7
370
    25
100
AcDbCircle
 10
847.819848943
 20
303.6069144044
 30
0.0
 40
2.0
100
AcDbArc
 50
0.0
 51
75.5224878141
  0
ARC
  5
1A0
330
1F
100
AcDbEntity
  8
0
  6
Continuous
 62
     7
370
    25
100
AcDbCircle
 10
885.819848943
 20
303.6069144044
 30
0.0
 40
2.0
100
AcDbArc
 50
104.4775121859
 51
180.0
  0
LINE
  5
1A1
330
1F
100
AcDbEntity
  8
0
  6
Continuous
 62
     7
370
    25
100
AcDbLine
 10
885.319848943
 20
305.5434060775
 30
0.0
 11
885.319848943
 21
313.1434060775
 31
0.0
  0
LINE
  5
1A2
330
1F
100
AcDbEntity
  8
0
  6
Continuous
 62
     7
370
    25
100
AcDbLine
 10
848.319848943
 20
310.8552916349
 30
0.0
 11
848.319848943
 21
305.5434060775
 31
0.0
  0
LINE
  5
1A3
330
1F
100
AcDbEntity
  8
0
  6
Continuous
 62
     7
370
    25
100
AcDbLine
 10
883.819848943
 20
290.2967180089
 30
0.0
 11
883.819848943
 21
303.6069144044
 31
0.0
  0
LINE
  5
1A4
330
1F
100
AcDbEntity
  8
0
  6
Continuous
 62
     7
370
    25
100
AcDbLine
 10
849.819848943
 20
303.6069144044
 30
0.0
 11
849.819848943
 21
299.6434060775
 31
0.0
  0
LINE
  5
1A5
330
1F
100
AcDbEntity
  8
0
  6
Continuous
 62
     7
370
    25
100
AcDbLine
 10
842.319848943
 20
268.1434060775
 30
0.0
 11
842.819848943
 21
268.8934060775
 31
0.0
  0
LINE
  5
1A6
330
1F
100
AcDbEntity
  8
0
  6
Continuous
 62
     7
370
    25
100
AcDbLine
 10
842.819848943
 20
303.3934060775
 30
0.0
 11
842.319848943
 21
304.1434060775
 31
0.0
  0
ARC
  5
1A7
330
1F
100
AcDbEntity
  8
0
  6
Continuous
 62
     7
370
    25
100
AcDbCircle
 10
844.819848943
 20
270.6434060775
 30
0.0
 40
2.0
100
AcDbArc
 50
90.0
 51
180.0
  0
ARC
  5
1A8
330
1F
100
AcDbEntity
  8
0
  6
Continuous
 62
     7
370
    25
100
AcDbCircle
 10
844.819848943
 20
301.6434060775
 30
0.0
 40
2.0
100
AcDbArc
 50
180.0
 51
270.0
  0
LINE
  5
1A9
330
1F
100
AcDbEntity
  8
0
  6
Continuous
 62
     7
370
    25
100
AcDbLine
 10
844.819848943
 20
272.6434060775
 30
0.0
 11
846.819848943
 21
272.6434060775
 31
0.0
  0
LINE
  5
1AA
330
1F
100
AcDbEntity
  8
0
  6
Continuous
 62
     7
370
    25
100
AcDbLine
 10
846.819848943
 20
299.6434060775
 30
0.0
 11
844.819848943
 21
299.6434060775
 31
0.0
  0
LINE
  5
1AB
330
1F
100
AcDbEntity
  8
0
  6
Continuous
 62
     7
370
    25
100
AcDbLine
 10
846.819848943
 20
272.6434060775
 30
0.0
 11
866.819848943
 21
272.6434060775
 31
0.0
  0
LINE
  5
1AC
330
1F
100
AcDbEntity
  8
0
  6
Continuous
 62
     7
370
    25
100
AcDbLine
 10
866.819848943
 20
299.6434060775
 30
0.0
 11
846.819848943
 21
299.6434060775
 31
0.0
  0
ARC
  5
1AD
330
1F
100
AcDbEntity
  8
0
  6
Continuous
 62
     7
370
    25
100
AcDbCircle
 10
866.819848943
 20
286.1434060775
 30
0.0
 40
17.5
100
AcDbArc
 50
230.4823472028
 51
129.5176527972
  0
ARC
  5
1AE
330
1F
100
AcDbEntity
  8
0
  6
Continuous
 62
     7
370
    25
100
AcDbCircle
 10
810.819848943
 20
297.1434060775
 30
0.0
 40
0.5
100
AcDbArc
 50
270.0
 51
0.0
  0
LINE
  5
1AF
330
1F
100
AcDbEntity
  8
0
  6
Continuous
 62
     7
370
    25
100
AcDbLine
 10
810.819848943
 20
296.6434060775
 30
0.0
 11
810.1198489427
 21
296.6434060775
 31
0.0
  0
LINE
  5
1B0
330
1F
100
AcDbEntity
  8
0
  6
Continuous
 62
     7
370
    25
100
AcDbLine
 10
765.0198489427
 20
73.1434060775
 30
0.0
 11
765.0198489427
 21
77.1434060775
 31
0.0
  0
LINE
  5
1B1
330
1F
100
AcDbEntity
  8
0
  6
Continuous
 62
     7
370
    25
100
AcDbLine
 10
708.0198489427
 20
77.1434060775
 30
0.0
 11
708.0198489427
 21
73.1434060775
 31
0.0
  0
ARC
  5
1B2
330
1F
100
AcDbEntity
  8
0
  6
Continuous
 62
     7
370
    25
100
AcDbCircle
 10
763.0198489427
 20
73.1434060775
 30
0.0
 40
2.0
100
AcDbArc
 50
270.0
 51
0.0
  0
ARC
  5
1B3
330
1F
100
AcDbEntity
  8
0
  6
Continuous
 62
     7
370
    25
100
AcDbCircle
 10
710.0198489427
 20
73.1434060775
 30
0.0
 40
2.0
100
AcDbArc
 50
180.0
 51
270.0
  0
LINE
  5
1B4
330
1F
100
AcDbEntity
  8
0
  6
Continuous
 62
     7
370
    25
100
AcDbLine
 10
180.0198489427
 20
73.1434060775
 30
0.0
 11
180.0198489427
 21
77.1434060775
 31
0.0
  0
LINE
  5
1B5
330
1F
100
AcDbEntity
  8
0
  6
Continuous
 62
     7
370
    25
100
AcDbLine
 10
123.0198489427
 20
77.1434060775
 30
0.0
 11
123.0198489427
 21
73.1434060775
 31
0.0
  0
ARC
  5
1B6
330
1F
100
AcDbEntity
  8
0
  6
Continuous
 62
     7
370
    25
100
AcDbCircle
 10
178.0198489427
 20
73.1434060775
 30
0.0
 40
2.000000000000014
100
AcDbArc
 50
270.0
 51
0.0
  0
ARC
  5
1B7
330
1F
100
AcDbEntity
  8
0
  6
Continuous
 62
     7
370
    25
100
AcDbCircle
 10
125.0198489427
 20
73.1434060775
 30
0.0
 40
2.000000000000014
100
AcDbArc
 50
180.0
 51
270.0
  0
LINE
  5
1B8
330
1F
100
AcDbEntity
  8
0
  6
Continuous
 62
     7
370
    25
100
AcDbLine
 10
180.0198489427
 20
70.6434060775
 30
0.0
 11
180.0198489427
 21
73.1434060775
 31
0.0
  0
LINE
  5
1B9
330
1F
100
AcDbEntity
  8
0
  6
Continuous
 62
     7
370
    25
100
AcDbLine
 10
123.0198489427
 20
73.1434060775
 30
0.0
 11
123.0198489427
 21
70.6434060775
 31
0.0
  0
ARC
  5
1BA
330
1F
100
AcDbEntity
  8
0
  6
Continuous
 62
     7
370
    25
100
AcDbCircle
 10
178.0198489427
 20
70.6434060775
 30
0.0
 40
2.0
100
AcDbArc
 50
270.0
 51
0.0
  0
ARC
  5
1BB
330
1F
100
AcDbEntity
  8
0
  6
Continuous
 62
     7
370
    25
100
AcDbCircle
 10
125.0198489427
 20
70.6434060775
 30
0.0
 40
2.0
100
AcDbArc
 50
180.0
 51
270.0
  0
LINE
  5
1BC
330
1F
100
AcDbEntity
  8
0
  6
Continuous
 62
     7
370
    25
100
AcDbLine
 10
179.8198489427
 20
77.1434060775
 30
0.0
 11
179.8198489427
 21
145.1434060775
 31
0.0
  0
LINE
  5
1BD
330
1F
100
AcDbEntity
  8
0
  6
Continuous
 62
     7
370
    25
100
AcDbLine
 10
123.2198489427
 20
145.1434060775
 30
0.0
 11
123.2198489427
 21
77.1434060775
 31
0.0
  0
LINE
  5
1BE
330
1F
100
AcDbEntity
  8
0
  6
Continuous
 62
     7
370
    25
100
AcDbLine
 10
764.8198489427
 20
77.1434060775
 30
0.0
 11
764.8198489427
 21
145.1434060775
 31
0.0
  0
LINE
  5
1BF
330
1F
100
AcDbEntity
  8
0
  6
Continuous
 62
     7
370
    25
100
AcDbLine
 10
708.2198489427
 20
145.1434060775
 30
0.0
 11
708.2198489427
 21
77.1434060775
 31
0.0
  0
ARC
  5
1C0
330
1F
100
AcDbEntity
  8
0
  6
Continuous
 62
     7
370
    25
100
AcDbCircle
 10
769.9198489427
 20
237.6434060775
 30
0.0
 40
1.5
100
AcDbArc
 50
90.0
 51
180.0
  0
ARC
  5
1C1
330
1F
100
AcDbEntity
  8
0
  6
Continuous
 62
     7
370
    25
100
AcDbCircle
 10
703.1198489427
 20
237.6434060775
 30
0.0
 40
1.5
100
AcDbArc
 50
0.0
 51
90.0
  0
LINE
  5
1C2
330
1F
100
AcDbEntity
  8
0
  6
Continuous
 62
     7
370
    25
100
AcDbLine
 10
768.4198489427
 20
151.1759720231
 30
0.0
 11
768.4198489427
 21
237.6434060775
 31
0.0
  0
LINE
  5
1C3
330
1F
100
AcDbEntity
  8
0
  6
Continuous
 62
     7
370
    25
100
AcDbLine
 10
704.6198489427
 20
237.6434060775
 30
0.0
 11
704.6198489427
 21
151.1759720231
 31
0.0
  0
ARC
  5
1C4
330
1F
100
AcDbEntity
  8
0
  6
Continuous
 62
     7
370
    25
100
AcDbCircle
 10
763.7198489427
 20
151.1759720231
 30
0.0
 40
4.700000000000127
100
AcDbArc
 50
350.5402980318
 51
0.0
  0
ARC
  5
1C5
330
1F
100
AcDbEntity
  8
0
  6
Continuous
 62
     7
370
    25
100
AcDbCircle
 10
709.3198489427
 20
151.1759720231
 30
0.0
 40
4.699999999999932
100
AcDbArc
 50
180.0
 51
189.4597019682
  0
LINE
  5
1C6
330
1F
100
AcDbEntity
  8
0
  6
Continuous
 62
     7
370
    25
100
AcDbLine
 10
704.6837621697
 20
150.4035087986
 30
0.0
 11
705.5601987223
 21
145.1434060775
 31
0.0
  0
LINE
  5
1C7
330
1F
100
AcDbEntity
  8
0
  6
Continuous
 62
     7
370
    25
100
AcDbLine
 10
767.479499163
 20
145.1434060775
 30
0.0
 11
768.3559357157
 21
150.4035087986
 31
0.0
  0
ARC
  5
1C8
330
1F
100
AcDbEntity
  8
0
  6
Continuous
 62
     7
370
    25
100
AcDbCircle
 10
184.9198489427
 20
235.1434060775
 30
0.0
 40
1.5
100
AcDbArc
 50
90.0
 51
180.0
  0
ARC
  5
1C9
330
1F
100
AcDbEntity
  8
0
  6
Continuous
 62
     7
370
    25
100
AcDbCircle
 10
118.1198489427
 20
235.1434060775
 30
0.0
 40
1.5
100
AcDbArc
 50
0.0
 51
90.0
  0
LINE
  5
1CA
330
1F
100
AcDbEntity
  8
0
  6
Continuous
 62
     7
370
    25
100
AcDbLine
 10
183.4198489427
 20
148.6759720231
 30
0.0
 11
183.4198489427
 21
151.1759720231
 31
0.0
  0
LINE
  5
1CB
330
1F
100
AcDbEntity
  8
0
  6
Continuous
 62
     7
370
    25
100
AcDbLine
 10
119.6198489427
 20
151.1759720231
 30
0.0
 11
119.6198489427
 21
148.6759720231
 31
0.0
  0
ARC
  5
1CC
330
1F
100
AcDbEntity
  8
0
  6
Continuous
 62
     7
370
    25
100
AcDbCircle
 10
178.7198489427
 20
148.6759720231
 30
0.0
 40
4.7
100
AcDbArc
 50
350.5402980318
 51
0.0
  0
ARC
  5
1CD
330
1F
100
AcDbEntity
  8
0
  6
Continuous
 62
     7
370
    25
100
AcDbCircle
 10
124.3198489427
 20
148.6759720231
 30
0.0
 40
4.699999999999974
100
AcDbArc
 50
180.0
 51
189.4597019682
  0
LINE
  5
1CE
330
1F
100
AcDbEntity
  8
0
  6
Continuous
 62
     7
370
    25
100
AcDbLine
 10
119.6837621697
 20
147.9035087986
 30
0.0
 11
120.5601987223
 21
142.6434060775
 31
0.0
  0
LINE
  5
1CF
330
1F
100
AcDbEntity
  8
0
  6
Continuous
 62
     7
370
    25
100
AcDbLine
 10
182.479499163
 20
142.6434060775
 30
0.0
 11
183.3559357157
 21
147.9035087986
 31
0.0
  0
ARC
  5
1D0
330
1F
100
AcDbEntity
  8
0
  6
Continuous
 62
     7
370
    25
100
AcDbCircle
 10
184.9198489427
 20
237.6434060775
 30
0.0
 40
1.500000000000057
100
AcDbArc
 50
90.0
 51
180.0
  0
ARC
  5
1D1
330
1F
100
AcDbEntity
  8
0
  6
Continuous
 62
     7
370
    25
100
AcDbCircle
 10
118.1198489427
 20
237.6434060775
 30
0.0
 40
1.500000000000057
100
AcDbArc
 50
0.0
 51
90.0
  0
LINE
  5
1D2
330
1F
100
AcDbEntity
  8
0
  6
Continuous
 62
     7
370
    25
100
AcDbLine
 10
183.4198489427
 20
151.1759720231
 30
0.0
 11
183.4198489427
 21
237.6434060775
 31
0.0
  0
LINE
  5
1D3
330
1F
100
AcDbEntity
  8
0
  6
Continuous
 62
     7
370
    25
100
AcDbLine
 10
119.6198489427
 20
237.6434060775
 30
0.0
 11
119.6198489427
 21
151.1759720231
 31
0.0
  0
ARC
  5
1D4
330
1F
100
AcDbEntity
  8
0
  6
Continuous
 62
     7
370
    25
100
AcDbCircle
 10
178.7198489427
 20
151.1759720231
 30
0.0
 40
4.700000000000006
100
AcDbArc
 50
350.5402980318
 51
0.0
  0
ARC
  5
1D5
330
1F
100
AcDbEntity
  8
0
  6
Continuous
 62
     7
370
    25
100
AcDbCircle
 10
124.3198489427
 20
151.1759720231
 30
0.0
 40
4.699999999999977
100
AcDbArc
 50
180.0
 51
189.4597019682
  0
LINE
  5
1D6
330
1F
100
AcDbEntity
  8
0
  6
Continuous
 62
     7
370
    25
100
AcDbLine
 10
119.6837621697
 20
150.4035087986
 30
0.0
 11
120.5601987223
 21
145.1434060775
 31
0.0
  0
LINE
  5
1D7
330
1F
100
AcDbEntity
  8
0
  6
Continuous
 62
     7
370
    25
100
AcDbLine
 10
182.479499163
 20
145.1434060775
 30
0.0
 11
183.3559357157
 21
150.4035087986
 31
0.0
  0
LINE
  5
1D8
330
1F
100
AcDbEntity
  8
0
  6
Continuous
 62
     7
370
    25
100
AcDbLine
 10
827.9139614924
 20
308.1434060775
 30
0.0
 11
827.9139614924
 21
310.6434060775
 31
0.0
  0
LINE
  5
1D9
330
1F
100
AcDbEntity
  8
0
  6
Continuous
 62
     7
370
    25
100
AcDbLine
 10
830.325736393
 20
308.1434060775
 30
0.0
 11
830.325736393
 21
310.6434060775
 31
0.0
  0
LINE
  5
1DA
330
1F
100
AcDbEntity
  8
0
  6
Continuous
 62
     7
370
    25
100
AcDbLine
 10
837.1139614924
 20
308.1434060775
 30
0.0
 11
837.1139614924
 21
310.6434060775
 31
0.0
  0
ELLIPSE
  5
1DB
330
1F
100
AcDbEntity
  8
0
  6
Continuous
 62
     7
370
    25
100
AcDbEllipse
 10
824.5762554032
 20
301.7283743698
 30
0.0
 11
1.732050807568953
 21
0.0
 31
0.0
210
0.0
220
0.0
230
1.0
 40
0.5773502692
 41
2.382392206292519
 42
3.141592653589874
  0
ELLIPSE
  5
1DC
330
1F
100
AcDbEntity
  8
0
  6
Continuous
 62
     7
370
    25
100
AcDbEllipse
 10
824.5762554032
 20
301.7283743698
 30
0.0
 11
1.732050807568953
 21
0.0
 31
0.0
210
0.0
220
0.0
230
1.0
 40
0.5773502692
 41
3.141592653589793
 42
3.900793100886651
  0
LINE
  5
1DD
330
1F
100
AcDbEntity
  8
0
  6
Continuous
 62
     7
370
    25
100
AcDbLine
 10
821.125736393
 20
298.1434060775
 30
0.0
 11
821.125736393
 21
310.6434060775
 31
0.0
  0
LINE
  5
1DE
330
1F
100
AcDbEntity
  8
0
  6
Continuous
 62
     7
370
    25
100
AcDbLine
 10
836.3198489427
 20
311.9326460098
 30
0.0
 11
821.9198489427
 21
311.9326460098
 31
0.0
  0
LINE
  5
1DF
330
1F
100
AcDbEntity
  8
0
  6
Continuous
 62
     7
370
    25
100
AcDbLine
 10
838.3198489427
 20
310.6434060775
 30
0.0
 11
838.3198489427
 21
308.1434060775
 31
0.0
  0
LINE
  5
1E0
330
1F
100
AcDbEntity
  8
0
  6
Continuous
 62
     7
370
    25
100
AcDbLine
 10
819.9198489427
 20
298.1434060775
 30
0.0
 11
819.9198489427
 21
310.6434060775
 31
0.0
  0
LINE
  5
1E1
330
1F
100
AcDbEntity
  8
0
  6
Continuous
 62
     7
370
    25
100
AcDbLine
 10
820.0705685171
 20
403.7934060775
 30
0.0
 11
824.6691293683
 21
403.7934060775
 31
0.0
  0
LINE
  5
1E2
330
1F
100
AcDbEntity
  8
0
  6
Continuous
 62
     7
370
    25
100
AcDbLine
 10
811.0198489427
 20
316.9934060775
 30
0.0
 11
810.1198489427
 21
316.9934060775
 31
0.0
  0
LINE
  5
1E3
330
1F
100
AcDbEntity
  8
0
  6
Continuous
 62
     7
370
    25
100
AcDbLine
 10
811.0198489427
 20
316.9934060775
 30
0.0
 11
811.0198489427
 21
358.4711543827
 31
0.0
  0
LINE
  5
1E4
330
1F
100
AcDbEntity
  8
0
  6
Continuous
 62
     7
370
    25
100
AcDbLine
 10
811.0198489427
 20
369.8156577722
 30
0.0
 11
811.0198489427
 21
481.3434060801
 31
0.0
  0
LINE
  5
1E5
330
1F
100
AcDbEntity
  8
0
  6
Continuous
 62
     7
370
    25
100
AcDbLine
 10
811.0198489427
 20
316.9934060775
 30
0.0
 11
812.2698489427
 21
316.9934060775
 31
0.0
  0
LINE
  5
1E6
330
1F
100
AcDbEntity
  8
0
  6
Continuous
 62
     7
370
    25
100
AcDbLine
 10
847.3698489427
 20
311.9848274337
 30
0.0
 11
815.0198489427
 21
311.9848274337
 31
0.0
  0
LINE
  5
1E7
330
1F
100
AcDbEntity
  8
0
  6
Continuous
 62
     7
370
    25
100
AcDbLine
 10
815.0198489427
 20
315.9934060775
 30
0.0
 11
815.0198489427
 21
311.9848274337
 31
0.0
  0
ARC
  5
1E8
330
1F
100
AcDbEntity
  8
0
  6
Continuous
 62
     7
370
    25
100
AcDbCircle
 10
814.0198489427
 20
315.9934060775
 30
0.0
 40
1.0
100
AcDbArc
 50
0.0
 51
90.0
  0
CIRCLE
  5
1E9
330
1F
100
AcDbEntity
  8
0
  6
Continuous
 62
     7
370
    25
100
AcDbCircle
 10
822.3698489427
 20
405.3019847213
 30
0.0
 40
2.749999999999886
  0
LINE
  5
1EA
330
1F
100
AcDbEntity
  8
0
  6
Continuous
 62
     7
370
    25
100
AcDbLine
 10
812.2698489427
 20
316.9934060775
 30
0.0
 11
814.0198489427
 21
316.9934060775
 31
0.0
  0
SPLINE
  5
1EB
330
1F
100
AcDbEntity
  8
0
  6
Continuous
 62
     7
370
    25
100
AcDbSpline
210
0.0
220
0.0
230
1.0
 70
     8
 71
     3
 72
    12
 73
     8
 74
     0
 42
0.000000001
 43
0.00000001
 40
0.0
 40
0.0
 40
0.0
 40
0.0
 40
0.2234479110493905
 40
0.4469287295705318
 40
0.6704096803451393
 40
0.8938904261532126
 40
1.0
 40
1.0
 40
1.0
 40
1.0
 10
849.8198489426632
 20
313.0934060775087
 30
0.0
 10
849.7904903963993
 20
313.0108063037617
 30
0.0
 10
849.7317689801991
 20
312.8455945916889
 30
0.0
 10
849.2751597662528
 20
312.5977346122996
 30
0.0
 10
848.6079551176658
 20
312.3500070091994
 30
0.0
 10
847.926500404101
 20
312.1451969169983
 30
0.0
 10
847.50541484533
 20
312.0238835312566
 30
0.0
 10
847.3698489426633
 20
311.984827433746
 30
0.0
  0
LINE
  5
1EC
330
1F
100
AcDbEntity
  8
0
  6
Continuous
 62
     7
370
    25
100
AcDbLine
 10
849.8198489427
 20
480.3334060801
 30
0.0
 11
849.8198489427
 21
313.0934060775
 31
0.0
  0
LINE
  5
1ED
330
1F
100
AcDbEntity
  8
0
  6
Continuous
 62
     7
370
    25
100
AcDbLine
 10
847.3698489427
 20
310.6434060775
 30
0.0
 11
847.3698489427
 21
311.8434060775
 31
0.0
  0
SPLINE
  5
1EE
330
1F
100
AcDbEntity
  8
0
  6
Continuous
 62
     7
370
    25
100
AcDbSpline
210
0.0
220
0.0
230
1.0
 70
     8
 71
     3
 72
    10
 73
     6
 74
     0
 42
0.000000001
 43
0.00000001
 40
0.0
 40
0.0
 40
0.0
 40
0.0
 40
0.4986825677772879
 40
0.942787938806651
 40
1.0
 40
1.0
 40
1.0
 40
1.0
 10
847.3698489426633
 20
311.8434060775087
 30
0.0
 10
847.5481430961813
 20
311.8687248902833
 30
0.0
 10
847.885218398905
 20
311.916591555074
 30
0.0
 10
848.2169090581699
 20
312.1230358203327
 30
0.0
 10
848.3093044631778
 20
312.2793577073062
 30
0.0
 10
848.3198489430332
 20
312.2971976960809
 30
0.0
  0
SPLINE
  5
1EF
330
1F
100
AcDbEntity
  8
0
  6
Continuous
 62
     7
370
    25
100
AcDbSpline
210
0.0
220
0.0
230
1.0
 70
     8
 71
     3
 72
    12
 73
     8
 74
     0
 42
0.000000001
 43
0.00000001
 40
0.0
 40
0.0
 40
0.0
 40
0.0
 40
0.2234479110493425
 40
0.4469287295704821
 40
0.6704096803450913
 40
0.8938904261531749
 40
1.0
 40
1.0
 40
1.0
 40
1.0
 10
847.3698489426633
 20
310.6434060775087
 30
0.0
 10
847.6565264384685
 20
310.6727646237727
 30
0.0
 10
848.229923649456
 20
310.7314860399728
 30
0.0
 10
848.9859978623277
 20
311.188095253919
 30
0.0
 10
849.5411415741044
 20
311.8552999025059
 30
0.0
 10
849.7918771596904
 20
312.5367546160708
 30
0.0
 10
849.8130367445993
 20
312.9578401748419
 30
0.0
 10
849.8198489426632
 20
313.0934060775087
 30
0.0
  0
LINE
  5
1F0
330
1F
100
AcDbEntity
  8
0
  6
Continuous
 62
     7
370
    25
100
AcDbLine
 10
815.0198489427
 20
311.8434060775
 30
0.0
 11
815.0198489427
 21
310.6434060775
 31
0.0
  0
LINE
  5
1F1
330
1F
100
AcDbEntity
  8
0
  6
Continuous
 62
     7
370
    25
100
AcDbLine
 10
847.3698489427
 20
310.6434060775
 30
0.0
 11
815.0198489427
 21
310.6434060775
 31
0.0
  0
LINE
  5
1F2
330
1F
100
AcDbEntity
  8
0
  6
Continuous
 62
     7
370
    25
100
AcDbLine
 10
847.3698489427
 20
311.8434060775
 30
0.0
 11
815.0198489427
 21
311.8434060775
 31
0.0
  0
LINE
  5
1F3
330
1F
100
AcDbEntity
  8
0
  6
Continuous
 62
     7
370
    25
100
AcDbLine
 10
810.1198489427
 20
505.4434060775
 30
0.0
 11
811.0198489427
 21
505.4434060775
 31
0.0
  0
LINE
  5
1F4
330
1F
100
AcDbEntity
  8
0
  6
Continuous
 62
     7
370
    25
100
AcDbLine
 10
811.0198489427
 20
505.4434060775
 30
0.0
 11
811.0198489427
 21
503.4434060775
 31
0.0
  0
LINE
  5
1F5
330
1F
100
AcDbEntity
  8
0
  6
Continuous
 62
     7
370
    25
100
AcDbLine
 10
811.0198489427
 20
493.3434060801
 30
0.0
 11
811.0198489427
 21
503.4434060775
 31
0.0
  0
LINE
  5
1F6
330
1F
100
AcDbEntity
  8
0
  6
Continuous
 62
     7
370
    25
100
AcDbLine
 10
814.0198489427
 20
310.6434060775
 30
0.0
 11
815.0198489427
 21
310.6434060775
 31
0.0
  0
LINE
  5
1F7
330
1F
100
AcDbEntity
  8
0
  6
Continuous
 62
     7
370
    25
100
AcDbLine
 10
815.0198489427
 20
311.8434060775
 30
0.0
 11
814.0198489427
 21
311.8434060775
 31
0.0
  0
LINE
  5
1F8
330
1F
100
AcDbEntity
  8
0
  6
Continuous
 62
     7
370
    25
100
AcDbLine
 10
812.0198489427
 20
310.6434060775
 30
0.0
 11
814.0198489427
 21
310.6434060775
 31
0.0
  0
LINE
  5
1F9
330
1F
100
AcDbEntity
  8
0
  6
Continuous
 62
     7
370
    25
100
AcDbLine
 10
814.0198489427
 20
311.8434060775
 30
0.0
 11
812.0198489427
 21
311.8434060775
 31
0.0
  0
LINE
  5
1FA
330
1F
100
AcDbEntity
  8
0
  6
Continuous
 62
     7
370
    25
100
AcDbLine
 10
811.0198489427
 20
311.8434060775
 30
0.0
 11
811.0198489427
 21
310.6434060775
 31
0.0
  0
LINE
  5
1FB
330
1F
100
AcDbEntity
  8
0
  6
Continuous
 62
     7
370
    25
100
AcDbLine
 10
811.0198489427
 20
310.6434060775
 30
0.0
 11
812.0198489427
 21
310.6434060775
 31
0.0
  0
LINE
  5
1FC
330
1F
100
AcDbEntity
  8
0
  6
Continuous
 62
     7
370
    25
100
AcDbLine
 10
812.0198489427
 20
311.8434060775
 30
0.0
 11
811.0198489427
 21
311.8434060775
 31
0.0
  0
LINE
  5
1FD
330
1F
100
AcDbEntity
  8
0
  6
Continuous
 62
     7
370
    25
100
AcDbLine
 10
810.1198489427
 20
310.6434060775
 30
0.0
 11
811.0198489427
 21
310.6434060775
 31
0.0
  0
LINE
  5
1FE
330
1F
100
AcDbEntity
  8
0
  6
Continuous
 62
     7
370
    25
100
AcDbLine
 10
811.0198489427
 20
311.8434060775
 30
0.0
 11
810.1198489427
 21
311.8434060775
 31
0.0
  0
SPLINE
  5
1FF
330
1F
100
AcDbEntity
  8
0
  6
Continuous
 62
     7
370
    25
100
AcDbSpline
210
0.0
220
0.0
230
1.0
 70
    24
 71
     3
 72
     9
 73
     5
 74
     0
 42
0.000000001
 43
0.00000001
 40
0.0
 40
0.0
 40
0.0
 40
0.0
 40
0.5089263594478662
 40
1.0
 40
1.0
 40
1.0
 40
1.0
 10
787.0481342366728
 20
230.2434060774663
 30
0.0
 10
787.4994334963561
 20
230.2434060774663
 30
0.0
 10
788.3862008081786
 20
230.2434060774663
 30
0.0
 10
788.4981241908366
 20
230.2434060774663
 30
0.0
 10
788.5530868138214
 20
230.2434060774663
 30
0.0
  0
SPLINE
  5
200
330
1F
100
AcDbEntity
  8
0
  6
Continuous
 62
     7
370
    25
100
AcDbSpline
210
0.0
220
0.0
230
1.0
 70
    24
 71
     3
 72
    11
 73
     7
 74
     0
 42
0.000000001
 43
0.00000001
 40
0.0
 40
0.0
 40
0.0
 40
0.0
 40
0.248904301105084
 40
0.5000000000000009
 40
0.7510956988949163
 40
0.9999999999999999
 40
0.9999999999999999
 40
0.9999999999999999
 40
0.9999999999999999
 10
775.1022195401445
 20
230.2434060774663
 30
0.0
 10
776.4714434631617
 20
230.2434060774663
 30
0.0
 10
779.2219462004347
 20
230.2434060774663
 30
0.0
 10
782.5533275921231
 20
230.2434060774663
 30
0.0
 10
785.282682028059
 20
230.2434060774663
 30
0.0
 10
786.4613721530916
 20
230.2434060774663
 30
0.0
 10
787.0481342366728
 20
230.2434060774663
 30
0.0
  0
LINE
  5
201
330
1F
100
AcDbEntity
  8
0
  6
Continuous
 62
     7
370
    25
100
AcDbLine
 10
773.9197543131
 20
230.6434060775
 30
0.0
 11
775.1022195401
 21
230.2434060775
 31
0.0
  0
LINE
  5
202
330
1F
100
AcDbEntity
  8
0
  6
Continuous
 62
     7
370
    25
100
AcDbLine
 10
772.1836226909
 20
230.6434060775
 30
0.0
 11
773.9197543131
 21
230.6434060775
 31
0.0
  0
LINE
  5
203
330
1F
100
AcDbEntity
  8
0
  6
Continuous
 62
     7
370
    25
100
AcDbLine
 10
769.0803473454
 20
230.2434060775
 30
0.0
 11
772.1836226909
 21
230.6434060775
 31
0.0
  0
LINE
  5
204
330
1F
100
AcDbEntity
  8
0
  6
Continuous
 62
     7
370
    25
100
AcDbLine
 10
768.4198489427
 20
230.2434060775
 30
0.0
 11
769.0803473454
 21
230.2434060775
 31
0.0
  0
LINE
  5
205
330
1F
100
AcDbEntity
  8
0
  6
Continuous
 62
     7
370
    25
100
AcDbLine
 10
770.0937384091
 20
230.6434060775
 30
0.0
 11
768.4198489427
 21
230.437744564
 31
0.0
  0
LINE
  5
206
330
1F
100
AcDbEntity
  8
0
  6
Continuous
 62
     7
370
    25
100
AcDbLine
 10
768.4198489427
 20
230.6434060775
 30
0.0
 11
770.0937384091
 21
230.6434060775
 31
0.0
  0
LINE
  5
207
330
1F
100
AcDbEntity
  8
0
  6
Continuous
 62
     7
370
    25
100
AcDbLine
 10
703.8816255173
 20
230.2434060775
 30
0.0
 11
704.6198489427
 21
230.2434060775
 31
0.0
  0
LINE
  5
208
330
1F
100
AcDbEntity
  8
0
  6
Continuous
 62
     7
370
    25
100
AcDbLine
 10
703.0202964312
 20
230.6434060775
 30
0.0
 11
703.8816255173
 21
230.2434060775
 31
0.0
  0
LINE
  5
209
330
1F
100
AcDbEntity
  8
0
  6
Continuous
 62
     7
370
    25
100
AcDbLine
 10
699.4326434009
 20
230.6434060775
 30
0.0
 11
703.0202964312
 21
230.6434060775
 31
0.0
  0
LINE
  5
20A
330
1F
100
AcDbEntity
  8
0
  6
Continuous
 62
     7
370
    25
100
AcDbLine
 10
702.6882636442
 20
230.2434060775
 30
0.0
 11
699.4326434009
 21
230.6434060775
 31
0.0
  0
LINE
  5
20B
330
1F
100
AcDbEntity
  8
0
  6
Continuous
 62
     7
370
    25
100
AcDbLine
 10
701.469102152
 20
230.2434060775
 30
0.0
 11
702.6882636442
 21
230.2434060775
 31
0.0
  0
LINE
  5
20C
330
1F
100
AcDbEntity
  8
0
  6
Continuous
 62
     7
370
    25
100
AcDbLine
 10
698.3658268064
 20
230.6434060775
 30
0.0
 11
701.469102152
 21
230.2434060775
 31
0.0
  0
LINE
  5
20D
330
1F
100
AcDbEntity
  8
0
  6
Continuous
 62
     7
370
    25
100
AcDbLine
 10
697.5474146797
 20
230.6434060775
 30
0.0
 11
698.3658268064
 21
230.6434060775
 31
0.0
  0
LINE
  5
20E
330
1F
100
AcDbEntity
  8
0
  6
Continuous
 62
     7
370
    25
100
AcDbLine
 10
698.7298799068
 20
230.2434060775
 30
0.0
 11
697.5474146797
 21
230.6434060775
 31
0.0
  0
SPLINE
  5
20F
330
1F
100
AcDbEntity
  8
0
  6
Continuous
 62
     7
370
    25
100
AcDbSpline
210
0.0
220
0.0
230
1.0
 70
    24
 71
     3
 72
     9
 73
     5
 74
     0
 42
0.000000001
 43
0.00000001
 40
0.0
 40
0.0
 40
0.0
 40
0.0
 40
0.5021913977898349
 40
1.0
 40
1.0
 40
1.0
 40
1.0
 10
697.0706142045642
 20
230.2434060774664
 30
0.0
 10
697.1500619429921
 20
230.2434060774664
 30
0.0
 10
697.3082640523425
 20
230.2434060774663
 30
0.0
 10
698.2573945703208
 20
230.2434060774663
 30
0.0
 10
698.7298799067905
 20
230.2434060774663
 30
0.0
  0
LINE
  5
210
330
1F
100
AcDbEntity
  8
0
  6
Continuous
 62
     7
370
    25
100
AcDbLine
 10
784.3896034267
 20
228.2434060775
 30
0.0
 11
785.8198489427
 21
228.2434060775
 31
0.0
  0
LINE
  5
211
330
1F
100
AcDbEntity
  8
0
  6
Continuous
 62
     7
370
    25
100
AcDbLine
 10
699.8198489427
 20
228.2434060775
 30
0.0
 11
704.6198489427
 21
228.2434060775
 31
0.0
  0
LINE
  5
212
330
1F
100
AcDbEntity
  8
0
  6
Continuous
 62
     7
370
    25
100
AcDbLine
 10
768.4198489427
 20
228.2434060775
 30
0.0
 11
784.3896034267
 21
228.2434060775
 31
0.0
  0
LINE
  5
213
330
1F
100
AcDbEntity
  8
0
  6
Continuous
 62
     7
370
    25
100
AcDbLine
 10
700.2875225009
 20
229.4434060775
 30
0.0
 11
700.2875225009
 21
230.2434060775
 31
0.0
  0
LINE
  5
214
330
1F
100
AcDbEntity
  8
0
  6
Continuous
 62
     7
370
    25
100
AcDbLine
 10
700.78284343
 20
229.4434060775
 30
0.0
 11
700.2875225009
 21
229.4434060775
 31
0.0
  0
LINE
  5
215
330
1F
100
AcDbEntity
  8
0
  6
Continuous
 62
     7
370
    25
100
AcDbLine
 10
700.78284343
 20
229.4434060775
 30
0.0
 11
700.78284343
 21
230.2434060775
 31
0.0
  0
LINE
  5
216
330
1F
100
AcDbEntity
  8
0
  6
Continuous
 62
     7
370
    25
100
AcDbLine
 10
701.3203967111
 20
229.4434060775
 30
0.0
 11
701.3203967111
 21
230.2434060775
 31
0.0
  0
LINE
  5
217
330
1F
100
AcDbEntity
  8
0
  6
Continuous
 62
     7
370
    25
100
AcDbLine
 10
704.6198489427
 20
229.4434060775
 30
0.0
 11
701.3203967111
 21
229.4434060775
 31
0.0
  0
LINE
  5
218
330
1F
100
AcDbEntity
  8
0
  6
Continuous
 62
     7
370
    25
100
AcDbLine
 10
773.3213235355
 20
229.4434060775
 30
0.0
 11
768.4198489427
 21
229.4434060775
 31
0.0
  0
LINE
  5
219
330
1F
100
AcDbEntity
  8
0
  6
Continuous
 62
     7
370
    25
100
AcDbLine
 10
773.3213235355
 20
230.2434060775
 30
0.0
 11
773.3213235355
 21
229.4434060775
 31
0.0
  0
LINE
  5
21A
330
1F
100
AcDbEntity
  8
0
  6
Continuous
 62
     7
370
    25
100
AcDbLine
 10
774.881944504
 20
229.4434060775
 30
0.0
 11
774.881944504
 21
230.2434060775
 31
0.0
  0
LINE
  5
21B
330
1F
100
AcDbEntity
  8
0
  6
Continuous
 62
     7
370
    25
100
AcDbLine
 10
776.6598621342
 20
229.4434060775
 30
0.0
 11
774.881944504
 21
229.4434060775
 31
0.0
  0
LINE
  5
21C
330
1F
100
AcDbEntity
  8
0
  6
Continuous
 62
     7
370
    25
100
AcDbLine
 10
776.6598621342
 20
230.2434060775
 30
0.0
 11
776.6598621342
 21
229.4434060775
 31
0.0
  0
LINE
  5
21D
330
1F
100
AcDbEntity
  8
0
  6
Continuous
 62
     7
370
    25
100
AcDbLine
 10
770.8957164974
 20
230.2434060775
 30
0.0
 11
770.8957164974
 21
230.6434060775
 31
0.0
  0
LINE
  5
21E
330
1F
100
AcDbEntity
  8
0
  6
Continuous
 62
     7
370
    25
100
AcDbLine
 10
771.0702804823
 20
230.2434060775
 30
0.0
 11
771.0702804823
 21
230.6434060775
 31
0.0
  0
LINE
  5
21F
330
1F
100
AcDbEntity
  8
0
  6
Continuous
 62
     7
370
    25
100
AcDbLine
 10
775.1022195401
 20
230.2434060775
 30
0.0
 11
773.3213235355
 21
230.2434060775
 31
0.0
  0
LINE
  5
220
330
1F
100
AcDbEntity
  8
0
  6
Continuous
 62
     7
370
    25
100
AcDbLine
 10
769.2553573454
 20
230.2434060775
 30
0.0
 11
771.0702804823
 21
230.2434060775
 31
0.0
  0
LINE
  5
221
330
1F
100
AcDbEntity
  8
0
  6
Continuous
 62
     7
370
    25
100
AcDbLine
 10
703.8816255173
 20
230.2434060775
 30
0.0
 11
702.6882636442
 21
230.2434060775
 31
0.0
  0
LINE
  5
222
330
1F
100
AcDbEntity
  8
0
  6
Continuous
 62
     7
370
    25
100
AcDbLine
 10
699.1346903066
 20
230.2434060775
 30
0.0
 11
699.1346903066
 21
230.6434060775
 31
0.0
  0
LINE
  5
223
330
1F
100
AcDbEntity
  8
0
  6
Continuous
 62
     7
370
    25
100
AcDbLine
 10
699.1346903066
 20
230.2434060775
 30
0.0
 11
698.7298799068
 21
230.2434060775
 31
0.0
  0
LINE
  5
224
330
1F
100
AcDbEntity
  8
0
  6
Continuous
 62
     7
370
    25
100
AcDbLine
 10
701.3203967111
 20
230.2434060775
 30
0.0
 11
699.1346903066
 21
230.2434060775
 31
0.0
  0
LINE
  5
225
330
1F
100
AcDbEntity
  8
0
  6
Continuous
 62
     7
370
    25
100
AcDbLine
 10
820.6198489427
 20
271.6971504491
 30
0.0
 11
820.6198489427
 21
269.7434060775
 31
0.0
  0
LINE
  5
226
330
1F
100
AcDbEntity
  8
0
  6
Continuous
 62
     7
370
    25
100
AcDbLine
 10
820.6198489427
 20
277.9434060775
 30
0.0
 11
820.6198489427
 21
271.6971504491
 31
0.0
  0
SPLINE
  5
227
330
1F
100
AcDbEntity
  8
0
  6
Continuous
 62
     7
370
    25
100
AcDbSpline
210
0.0
220
0.0
230
1.0
 70
    24
 71
     3
 72
    12
 73
     8
 74
     0
 42
0.000000001
 43
0.00000001
 40
0.0
 40
0.0
 40
0.0
 40
0.0
 40
0.2202615857669286
 40
0.4402905390308132
 40
0.6667308798419121
 40
0.9072271314872182
 40
1.0
 40
1.0
 40
1.0
 40
1.0
 10
844.0198489426625
 20
492.8434060800628
 30
0.0
 10
844.0198489426614
 20
492.7898591835275
 30
0.0
 10
844.0198489426591
 20
492.6828219447965
 30
0.0
 10
844.0198489426632
 20
492.5393303877178
 30
0.0
 10
844.0198489426625
 20
492.4259430610554
 30
0.0
 10
844.0198489426618
 20
492.3680756124792
 30
0.0
 10
844.0198489426623
 20
492.353440435499
 30
0.0
 10
844.0198489426625
 20
492.3493664086315
 30
0.0
  0
SPLINE
  5
228
330
1F
100
AcDbEntity
  8
0
  6
Continuous
 62
     7
370
    25
100
AcDbSpline
210
0.0
220
0.0
230
1.0
 70
     8
 71
     3
 72
     9
 73
     5
 74
     0
 42
0.000000001
 43
0.00000001
 40
0.0
 40
0.0
 40
0.0
 40
0.0
 40
0.5169128699050771
 40
1.0
 40
1.0
 40
1.0
 40
1.0
 10
851.6536705139008
 20
492.8434060800627
 30
0.0
 10
851.6154259033312
 20
492.7793726193811
 30
0.0
 10
851.5414393326804
 20
492.6554959190518
 30
0.0
 10
851.5268815972845
 20
492.5468955060603
 30
0.0
 10
851.5198489426715
 20
492.4944320442211
 30
0.0
  0
SPLINE
  5
229
330
1F
100
AcDbEntity
  8
0
  6
Continuous
 62
     7
370
    25
100
AcDbSpline
210
0.0
220
0.0
230
1.0
 70
    24
 71
     3
 72
     9
 73
     5
 74
     0
 42
0.000000001
 43
0.00000001
 40
0.0
 40
0.0
 40
0.0
 40
0.0
 40
0.4866861859071968
 40
1.0
 40
1.0
 40
1.0
 40
1.0
 10
851.5198489426623
 20
492.3434060800629
 30
0.0
 10
851.5198489426623
 20
492.3491575704756
 30
0.0
 10
851.5198489426625
 20
492.3609752274778
 30
0.0
 10
851.5198489426625
 20
492.4491611276508
 30
0.0
 10
851.5198489426625
 20
492.4944281684178
 30
0.0
  0
SPLINE
  5
22A
330
1F
100
AcDbEntity
  8
0
  6
Continuous
 62
     7
370
    25
100
AcDbSpline
210
0.0
220
0.0
230
1.0
 70
     8
 71
     3
 72
    12
 73
     8
 74
     0
 42
0.000000001
 43
0.00000001
 40
0.0
 40
0.0
 40
0.0
 40
0.0
 40
0.1924873510328922
 40
0.4255533285954878
 40
0.51276398971762
 40
0.8633630395675052
 40
1.0
 40
1.0
 40
1.0
 40
1.0
 10
843.9318767722408
 20
492.3434060800628
 30
0.0
 10
844.2663455048338
 20
492.3641896836556
 30
0.0
 10
845.0057929630814
 20
492.4101383220555
 30
0.0
 10
845.876718614007
 20
492.6168717433363
 30
0.0
 10
847.0460900011036
 20
492.6833503122085
 30
0.0
 10
848.0236645498163
 20
492.3918592518609
 30
0.0
 10
848.8703755682512
 20
492.3540180065743
 30
0.0
 10
849.107821113084
 20
492.3434060800628
 30
0.0
  0
SPLINE
  5
22B
330
1F
100
AcDbEntity
  8
0
  6
Continuous
 62
     7
370
    25
100
AcDbSpline
210
0.0
220
0.0
230
1.0
 70
     8
 71
     3
 72
     9
 73
     5
 74
     0
 42
0.000000001
 43
0.00000001
 40
0.0
 40
0.0
 40
0.0
 40
0.0
 40
0.5169126410084961
 40
1.0
 40
1.0
 40
1.0
 40
1.0
 10
841.0198489426624
 20
482.2095845088244
 30
0.0
 10
841.0838820322172
 20
482.2478291850945
 30
0.0
 10
841.2077580694328
 20
482.3218159156093
 30
0.0
 10
841.316360612258
 20
482.3363734966719
 30
0.0
 10
841.3688251278513
 20
482.3434060800607
 30
0.0
  0
LINE
  5
22C
330
1F
100
AcDbEntity
  8
0
  6
Continuous
 62
     7
370
    25
100
AcDbLine
 10
841.0198489427
 20
482.2095845088
 30
0.0
 11
841.0198489427
 21
489.8434060801
 31
0.0
  0
SPLINE
  5
22D
330
1F
100
AcDbEntity
  8
0
  6
Continuous
 62
     7
370
    25
100
AcDbSpline
210
0.0
220
0.0
230
1.0
 70
     8
 71
     3
 72
    12
 73
     8
 74
     0
 42
0.000000001
 43
0.00000001
 40
0.0
 40
0.0
 40
0.0
 40
0.0
 40
0.1924873510328773
 40
0.4255533285954949
 40
0.5127639897176102
 40
0.8633630395674993
 40
1.0
 40
1.0
 40
1.0
 40
1.0
 10
841.5198489426625
 20
484.7554339096413
 30
0.0
 10
841.4990653390697
 20
485.0899026422343
 30
0.0
 10
841.4531167006697
 20
485.8293501004819
 30
0.0
 10
841.2463832793894
 20
486.7002757514075
 30
0.0
 10
841.1799047105168
 20
487.8696471385039
 30
0.0
 10
841.4713957708641
 20
488.8472216872169
 30
0.0
 10
841.5092370161508
 20
489.6939327056517
 30
0.0
 10
841.5198489426625
 20
489.9313782504844
 30
0.0
  0
LINE
  5
22E
330
1F
100
AcDbEntity
  8
0
  6
Continuous
 62
     7
370
    25
100
AcDbLine
 10
841.5198489427
 20
489.9313782592
 30
0.0
 11
841.5198489427
 21
492.3434060801
 31
0.0
  0
LINE
  5
22F
330
1F
100
AcDbEntity
  8
0
  6
Continuous
 62
     7
370
    25
100
AcDbLine
 10
841.5198489427
 20
492.3434060801
 30
0.0
 11
843.7995364606
 21
492.3434060801
 31
0.0
  0
LINE
  5
230
330
1F
100
AcDbEntity
  8
0
  6
Continuous
 62
     7
370
    25
100
AcDbLine
 10
849.1078211218
 20
492.3434060801
 30
0.0
 11
851.5198489427
 21
492.3434060801
 31
0.0
  0
LINE
  5
231
330
1F
100
AcDbEntity
  8
0
  6
Continuous
 62
     7
370
    25
100
AcDbLine
 10
851.5198489427
 20
482.3434060801
 30
0.0
 11
851.5198489427
 21
492.3434060801
 31
0.0
  0
LINE
  5
232
330
1F
100
AcDbEntity
  8
0
  6
Continuous
 62
     7
370
    25
100
AcDbLine
 10
851.5198489427
 20
482.3434060801
 30
0.0
 11
841.5198489427
 21
482.3434060801
 31
0.0
  0
LINE
  5
233
330
1F
100
AcDbEntity
  8
0
  6
Continuous
 62
     7
370
    25
100
AcDbLine
 10
841.5198489427
 20
482.3434060801
 30
0.0
 11
841.5198489427
 21
484.7554339009
 31
0.0
  0
LINE
  5
234
330
1F
100
AcDbEntity
  8
0
  6
Continuous
 62
     7
370
    25
100
AcDbLine
 10
839.0198489427
 20
494.3534060801
 30
0.0
 11
839.0198489427
 21
480.3334060801
 31
0.0
  0
LINE
  5
235
330
1F
100
AcDbEntity
  8
0
  6
Continuous
 62
     7
370
    25
100
AcDbLine
 10
851.6536705139
 20
482.2095845088
 30
0.0
 11
853.5298489427
 21
480.3334060801
 31
0.0
  0
LINE
  5
236
330
1F
100
AcDbEntity
  8
0
  6
Continuous
 62
     7
370
    25
100
AcDbLine
 10
839.5098495866
 20
494.3534054361
 30
0.0
 11
841.4597149748
 21
492.4035400479
 31
0.0
  0
LINE
  5
237
330
1F
100
AcDbEntity
  8
0
  6
Continuous
 62
     7
370
    25
100
AcDbLine
 10
853.5298489427
 20
494.8434060801
 30
0.0
 11
839.5098489427
 21
494.8434060801
 31
0.0
  0
LINE
  5
238
330
1F
100
AcDbEntity
  8
0
  6
Continuous
 62
     7
370
    25
100
AcDbLine
 10
851.5198489427
 20
482.3434060801
 30
0.0
 11
851.6536705139
 21
482.2095845088
 31
0.0
  0
LINE
  5
239
330
1F
100
AcDbEntity
  8
0
  6
Continuous
 62
     7
370
    25
100
AcDbLine
 10
853.5298489368
 20
480.0834060754
 30
0.0
 11
853.2798489322
 21
480.3334060801
 31
0.0
  0
SPLINE
  5
23A
330
1F
100
AcDbEntity
  8
0
  6
Continuous
 62
     7
370
    25
100
AcDbSpline
210
0.0
220
0.0
230
1.0
 70
    24
 71
     3
 72
    12
 73
     8
 74
     0
 42
0.000000001
 43
0.00000001
 40
0.0
 40
0.0
 40
0.0
 40
0.0
 40
0.2202615857669611
 40
0.4402905390308205
 40
0.6667308798418905
 40
0.9072271314872031
 40
1.0
 40
1.0
 40
1.0
 40
1.0
 10
841.0198489425376
 20
1053.043406077491
 30
0.0
 10
841.0733958390729
 20
1053.04340607749
 30
0.0
 10
841.1804330778036
 20
1053.043406077488
 30
0.0
 10
841.3239246348809
 20
1053.043406077492
 30
0.0
 10
841.4373119615407
 20
1053.043406077491
 30
0.0
 10
841.4951794101147
 20
1053.04340607749
 30
0.0
 10
841.5098145870934
 20
1053.043406077491
 30
0.0
 10
841.5138886139604
 20
1053.043406077491
 30
0.0
  0
SPLINE
  5
23B
330
1F
100
AcDbEntity
  8
0
  6
Continuous
 62
     7
370
    25
100
AcDbSpline
210
0.0
220
0.0
230
1.0
 70
     8
 71
     3
 72
     9
 73
     5
 74
     0
 42
0.000000001
 43
0.00000001
 40
0.0
 40
0.0
 40
0.0
 40
0.0
 40
0.5169128699051141
 40
1.0
 40
1.0
 40
1.0
 40
1.0
 10
841.0198489425716
 20
1060.677227648729
 30
0.0
 10
841.0838824032521
 20
1060.638983038159
 30
0.0
 10
841.2077591035797
 20
1060.564996467509
 30
0.0
 10
841.3163595165687
 20
1060.550438732113
 30
0.0
 10
841.3688229784067
 20
1060.5434060775
 30
0.0
  0
SPLINE
  5
23C
330
1F
100
AcDbEntity
  8
0
  6
Continuous
 62
     7
370
    25
100
AcDbSpline
210
0.0
220
0.0
230
1.0
 70
    24
 71
     3
 72
     9
 73
     5
 74
     0
 42
0.000000001
 43
0.00000001
 40
0.0
 40
0.0
 40
0.0
 40
0.0
 40
0.4866861859071973
 40
1.0
 40
1.0
 40
1.0
 40
1.0
 10
841.5198489425558
 20
1060.543406077491
 30
0.0
 10
841.5140974521446
 20
1060.543406077491
 30
0.0
 10
841.5022797951457
 20
1060.543406077491
 30
0.0
 10
841.4140938949755
 20
1060.543406077491
 30
0.0
 10
841.3688268542099
 20
1060.543406077491
 30
0.0
  0
SPLINE
  5
23D
330
1F
100
AcDbEntity
  8
0
  6
Continuous
 62
     7
370
    25
100
AcDbSpline
210
0.0
220
0.0
230
1.0
 70
     8
 71
     3
 72
    12
 73
     8
 74
     0
 42
0.000000001
 43
0.00000001
 40
0.0
 40
0.0
 40
0.0
 40
0.0
 40
0.1924873510328922
 40
0.4255533285954878
 40
0.51276398971762
 40
0.8633630395675052
 40
1.0
 40
1.0
 40
1.0
 40
1.0
 10
841.5198489425281
 20
1052.955433907069
 30
0.0
 10
841.4990653389353
 20
1053.289902639662
 30
0.0
 10
841.4531167005355
 20
1054.02935009791
 30
0.0
 10
841.2463832792542
 20
1054.900275748835
 30
0.0
 10
841.1799047103827
 20
1056.069647135932
 30
0.0
 10
841.4713957707298
 20
1057.047221684645
 30
0.0
 10
841.5092370160165
 20
1057.89393270308
 30
0.0
 10
841.5198489425281
 20
1058.131378247912
 30
0.0
  0
SPLINE
  5
23E
330
1F
100
AcDbEntity
  8
0
  6
Continuous
 62
     7
370
    25
100
AcDbSpline
210
0.0
220
0.0
230
1.0
 70
     8
 71
     3
 72
     9
 73
     5
 74
     0
 42
0.000000001
 43
0.00000001
 40
0.0
 40
0.0
 40
0.0
 40
0.0
 40
0.5169126410084881
 40
1.0
 40
1.0
 40
1.0
 40
1.0
 10
851.6536705138099
 20
1050.043406077491
 30
0.0
 10
851.6154258375389
 20
1050.107439167045
 30
0.0
 10
851.5414391070221
 20
1050.231315204261
 30
0.0
 10
851.5268815259572
 20
1050.339917747086
 30
0.0
 10
851.519848942567
 20
1050.39238226268
 30
0.0
  0
LINE
  5
23F
330
1F
100
AcDbEntity
  8
0
  6
Continuous
 62
     7
370
    25
100
AcDbLine
 10
851.6536705138
 20
1050.0434060775
 30
0.0
 11
844.0198489425
 21
1050.0434060775
 31
0.0
  0
SPLINE
  5
240
330
1F
100
AcDbEntity
  8
0
  6
Continuous
 62
     7
370
    25
100
AcDbSpline
210
0.0
220
0.0
230
1.0
 70
     8
 71
     3
 72
    12
 73
     8
 74
     0
 42
0.000000001
 43
0.00000001
 40
0.0
 40
0.0
 40
0.0
 40
0.0
 40
0.1924873510328771
 40
0.4255533285954944
 40
0.5127639897176092
 40
0.8633630395674994
 40
0.9999999999999999
 40
0.9999999999999999
 40
0.9999999999999999
 40
0.9999999999999999
 10
849.1078211129496
 20
1050.543406077491
 30
0.0
 10
848.7733523803566
 20
1050.522622473898
 30
0.0
 10
848.0339049221091
 20
1050.476673835498
 30
0.0
 10
847.1629792711834
 20
1050.269940414217
 30
0.0
 10
845.9936078840868
 20
1050.203461845345
 30
0.0
 10
845.0160333353738
 20
1050.494952905692
 30
0.0
 10
844.1693223169393
 20
1050.532794150979
 30
0.0
 10
843.9318767721064
 20
1050.543406077491
 30
0.0
  0
LINE
  5
241
330
1F
100
AcDbEntity
  8
0
  6
Continuous
 62
     7
370
    25
100
AcDbLine
 10
843.9318767634
 20
1050.5434060775
 30
0.0
 11
841.5198489425
 21
1050.5434060775
 31
0.0
  0
LINE
  5
242
330
1F
100
AcDbEntity
  8
0
  6
Continuous
 62
     7
370
    25
100
AcDbLine
 10
841.5198489425
 20
1050.5434060775
 30
0.0
 11
841.5198489425
 21
1052.8230935954
 31
0.0
  0
LINE
  5
243
330
1F
100
AcDbEntity
  8
0
  6
Continuous
 62
     7
370
    25
100
AcDbLine
 10
841.5198489425
 20
1058.1313782566
 30
0.0
 11
841.5198489425
 21
1060.5434060775
 31
0.0
  0
LINE
  5
244
330
1F
100
AcDbEntity
  8
0
  6
Continuous
 62
     7
370
    25
100
AcDbLine
 10
851.5198489425
 20
1060.5434060775
 30
0.0
 11
841.5198489425
 21
1060.5434060775
 31
0.0
  0
LINE
  5
245
330
1F
100
AcDbEntity
  8
0
  6
Continuous
 62
     7
370
    25
100
AcDbLine
 10
851.5198489425
 20
1060.5434060775
 30
0.0
 11
851.5198489425
 21
1050.5434060775
 31
0.0
  0
LINE
  5
246
330
1F
100
AcDbEntity
  8
0
  6
Continuous
 62
     7
370
    25
100
AcDbLine
 10
851.5198489425
 20
1050.5434060775
 30
0.0
 11
849.1078211217
 21
1050.5434060775
 31
0.0
  0
LINE
  5
247
330
1F
100
AcDbEntity
  8
0
  6
Continuous
 62
     7
370
    25
100
AcDbLine
 10
839.5098489427
 20
1048.0434060775
 30
0.0
 11
853.5298489427
 21
1048.0434060775
 31
0.0
  0
LINE
  5
248
330
1F
100
AcDbEntity
  8
0
  6
Continuous
 62
     7
370
    25
100
AcDbLine
 10
851.6536705138
 20
1060.6772276487
 30
0.0
 11
853.5298489427
 21
1062.5534060775
 31
0.0
  0
LINE
  5
249
330
1F
100
AcDbEntity
  8
0
  6
Continuous
 62
     7
370
    25
100
AcDbLine
 10
839.5098495866
 20
1048.5334067214
 30
0.0
 11
841.4597149747
 21
1050.4832721096
 31
0.0
  0
LINE
  5
24A
330
1F
100
AcDbEntity
  8
0
  6
Continuous
 62
     7
370
    25
100
AcDbLine
 10
839.0198489427
 20
1062.5534060775
 30
0.0
 11
839.0198489427
 21
1048.5334060775
 31
0.0
  0
LINE
  5
24B
330
1F
100
AcDbEntity
  8
0
  6
Continuous
 62
     7
370
    25
100
AcDbLine
 10
851.5198489426
 20
1060.5434060775
 30
0.0
 11
851.6536705138
 21
1060.6772276487
 31
0.0
  0
LINE
  5
24C
330
1F
100
AcDbEntity
  8
0
  6
Continuous
 62
     7
370
    25
100
AcDbLine
 10
837.5198489427
 20
506.3434060801
 30
0.0
 11
855.5198489427
 21
506.3434060801
 31
0.0
  0
LINE
  5
24D
330
1F
100
AcDbEntity
  8
0
  6
Continuous
 62
     7
370
    25
100
AcDbLine
 10
837.0198489427
 20
505.5934060801
 30
0.0
 11
856.0198489427
 21
505.5934060801
 31
0.0
  0
LINE
  5
24E
330
1F
100
AcDbEntity
  8
0
  6
Continuous
 62
     7
370
    25
100
AcDbLine
 10
837.0198489427
 20
507.0934060801
 30
0.0
 11
856.0198489427
 21
507.0934060801
 31
0.0
  0
LINE
  5
24F
330
1F
100
AcDbEntity
  8
0
  6
Continuous
 62
     7
370
    25
100
AcDbLine
 10
856.0198489427
 20
502.5934060801
 30
0.0
 11
837.0198489427
 21
502.5934060801
 31
0.0
  0
LINE
  5
250
330
1F
100
AcDbEntity
  8
0
  6
Continuous
 62
     7
370
    25
100
AcDbLine
 10
855.5198489427
 20
501.8434060801
 30
0.0
 11
837.5198489427
 21
501.8434060801
 31
0.0
  0
LINE
  5
251
330
1F
100
AcDbEntity
  8
0
  6
Continuous
 62
     7
370
    25
100
AcDbLine
 10
856.0198489427
 20
501.0934060801
 30
0.0
 11
837.0198489427
 21
501.0934060801
 31
0.0
  0
LINE
  5
252
330
1F
100
AcDbEntity
  8
0
  6
Continuous
 62
     7
370
    25
100
AcDbLine
 10
855.5198489427
 20
500.3434060801
 30
0.0
 11
837.5198489427
 21
500.3434060801
 31
0.0
  0
LINE
  5
253
330
1F
100
AcDbEntity
  8
0
  6
Continuous
 62
     7
370
    25
100
AcDbLine
 10
837.5198489427
 20
504.8434060801
 30
0.0
 11
855.5198489427
 21
504.8434060801
 31
0.0
  0
LINE
  5
254
330
1F
100
AcDbEntity
  8
0
  6
Continuous
 62
     7
370
    25
100
AcDbLine
 10
837.0198489427
 20
504.0934060801
 30
0.0
 11
856.0198489427
 21
504.0934060801
 31
0.0
  0
LINE
  5
255
330
1F
100
AcDbEntity
  8
0
  6
Continuous
 62
     7
370
    25
100
AcDbLine
 10
856.0198489427
 20
499.5934060801
 30
0.0
 11
837.0198489427
 21
499.5934060801
 31
0.0
  0
LINE
  5
256
330
1F
100
AcDbEntity
  8
0
  6
Continuous
 62
     7
370
    25
100
AcDbLine
 10
846.5198489427
 20
499.3434060801
 30
0.0
 11
837.1865156093
 21
499.3434060801
 31
0.0
  0
LINE
  5
257
330
1F
100
AcDbEntity
  8
0
  6
Continuous
 62
     7
370
    25
100
AcDbLine
 10
855.853182276
 20
499.3434060801
 30
0.0
 11
846.5198489427
 21
499.3434060801
 31
0.0
  0
LINE
  5
258
330
1F
100
AcDbEntity
  8
0
  6
Continuous
 62
     7
370
    25
100
AcDbLine
 10
855.5198489427
 20
503.3434060801
 30
0.0
 11
837.5198489427
 21
503.3434060801
 31
0.0
  0
LINE
  5
259
330
1F
100
AcDbEntity
  8
0
  6
Continuous
 62
     7
370
    25
100
AcDbLine
 10
853.5198489427
 20
493.3434060801
 30
0.0
 11
840.5198489427
 21
493.3434060801
 31
0.0
  0
LINE
  5
25A
330
1F
100
AcDbEntity
  8
0
  6
Continuous
 62
     7
370
    25
100
AcDbLine
 10
834.2698489427
 20
1065.0434060775
 30
0.0
 11
834.2698489427
 21
1046.0434060775
 31
0.0
  0
LINE
  5
25B
330
1F
100
AcDbEntity
  8
0
  6
Continuous
 62
     7
370
    25
100
AcDbLine
 10
834.5198489425
 20
1055.5434060775
 30
0.0
 11
834.5198489427
 21
1046.2100727442
 31
0.0
  0
LINE
  5
25C
330
1F
100
AcDbEntity
  8
0
  6
Continuous
 62
     7
370
    25
100
AcDbLine
 10
834.5198489427
 20
1064.8767394108
 30
0.0
 11
834.5198489425
 21
1055.5434060775
 31
0.0
  0
LINE
  5
25D
330
1F
100
AcDbEntity
  8
0
  6
Continuous
 62
     7
370
    25
100
AcDbLine
 10
833.5198489427
 20
1064.5434060775
 30
0.0
 11
833.5198489427
 21
1046.5434060775
 31
0.0
  0
LINE
  5
25E
330
1F
100
AcDbEntity
  8
0
  6
Continuous
 62
     7
370
    25
100
AcDbLine
 10
832.7698489427
 20
1065.0434060775
 30
0.0
 11
832.7698489427
 21
1046.0434060775
 31
0.0
  0
LINE
  5
25F
330
1F
100
AcDbEntity
  8
0
  6
Continuous
 62
     7
370
    25
100
AcDbLine
 10
832.0198489427
 20
1064.5434060775
 30
0.0
 11
832.0198489427
 21
1046.5434060775
 31
0.0
  0
LINE
  5
260
330
1F
100
AcDbEntity
  8
0
  6
Continuous
 62
     7
370
    25
100
AcDbLine
 10
831.2698489427
 20
1065.0434060775
 30
0.0
 11
831.2698489427
 21
1046.0434060775
 31
0.0
  0
LINE
  5
261
330
1F
100
AcDbEntity
  8
0
  6
Continuous
 62
     7
370
    25
100
AcDbLine
 10
830.5198489427
 20
1064.5434060775
 30
0.0
 11
830.5198489427
 21
1046.5434060775
 31
0.0
  0
LINE
  5
262
330
1F
100
AcDbEntity
  8
0
  6
Continuous
 62
     7
370
    25
100
AcDbLine
 10
829.7698489427
 20
1046.0434060775
 30
0.0
 11
829.7698489427
 21
1065.0434060775
 31
0.0
  0
LINE
  5
263
330
1F
100
AcDbEntity
  8
0
  6
Continuous
 62
     7
370
    25
100
AcDbLine
 10
829.0198489427
 20
1046.5434060775
 30
0.0
 11
829.0198489427
 21
1064.5434060775
 31
0.0
  0
LINE
  5
264
330
1F
100
AcDbEntity
  8
0
  6
Continuous
 62
     7
370
    25
100
AcDbLine
 10
828.2698489427
 20
1046.0434060775
 30
0.0
 11
828.2698489427
 21
1065.0434060775
 31
0.0
  0
LINE
  5
265
330
1F
100
AcDbEntity
  8
0
  6
Continuous
 62
     7
370
    25
100
AcDbLine
 10
827.5198489427
 20
1046.5434060775
 30
0.0
 11
827.5198489427
 21
1064.5434060775
 31
0.0
  0
LINE
  5
266
330
1F
100
AcDbEntity
  8
0
  6
Continuous
 62
     7
370
    25
100
AcDbLine
 10
826.7698489427
 20
1046.0434060775
 30
0.0
 11
826.7698489427
 21
1065.0434060775
 31
0.0
  0
LINE
  5
267
330
1F
100
AcDbEntity
  8
0
  6
Continuous
 62
     7
370
    25
100
AcDbLine
 10
840.5198489427
 20
1062.5434060775
 30
0.0
 11
840.5198489426
 21
1049.5434060775
 31
0.0
  0
LINE
  5
268
330
1F
100
AcDbEntity
  8
0
  6
Continuous
 62
     7
370
    25
100
AcDbLine
 10
811.5198489425
 20
1066.5434060775
 30
0.0
 11
826.5198489425
 21
1066.5434060775
 31
0.0
  0
LINE
  5
269
330
1F
100
AcDbEntity
  8
0
  6
Continuous
 62
     7
370
    25
100
AcDbLine
 10
811.5198489424
 20
1055.5434060775
 30
0.0
 11
826.5198489424
 21
1055.5434060775
 31
0.0
  0
LINE
  5
26A
330
1F
100
AcDbEntity
  8
0
  6
Continuous
 62
     7
370
    25
100
AcDbLine
 10
811.5198489425
 20
1066.5434060775
 30
0.0
 11
811.5198489424
 21
1055.5434060775
 31
0.0
  0
LINE
  5
26B
330
1F
100
AcDbEntity
  8
0
  6
Continuous
 62
     7
370
    25
100
AcDbLine
 10
826.5198489424
 20
1055.5434060775
 30
0.0
 11
826.5198489425
 21
1066.5434060775
 31
0.0
  0
LINE
  5
26C
330
1F
100
AcDbEntity
  8
0
  6
Continuous
 62
     7
370
    25
100
AcDbLine
 10
826.5198489425
 20
1044.5434060775
 30
0.0
 11
811.5198489425
 21
1044.5434060775
 31
0.0
  0
LINE
  5
26D
330
1F
100
AcDbEntity
  8
0
  6
Continuous
 62
     7
370
    25
100
AcDbLine
 10
811.5198489424
 20
1055.5434060775
 30
0.0
 11
811.5198489425
 21
1044.5434060775
 31
0.0
  0
LINE
  5
26E
330
1F
100
AcDbEntity
  8
0
  6
Continuous
 62
     7
370
    25
100
AcDbLine
 10
826.5198489425
 20
1044.5434060775
 30
0.0
 11
826.5198489424
 21
1055.5434060775
 31
0.0
  0
LINE
  5
26F
330
1F
100
AcDbEntity
  8
0
  6
Continuous
 62
     7
370
    25
100
AcDbLine
 10
857.5198489427
 20
522.3434060801
 30
0.0
 11
857.5198489427
 21
507.3434060801
 31
0.0
  0
LINE
  5
270
330
1F
100
AcDbEntity
  8
0
  6
Continuous
 62
     7
370
    25
100
AcDbLine
 10
846.5198489427
 20
507.3434060801
 30
0.0
 11
857.5198489427
 21
507.3434060801
 31
0.0
  0
LINE
  5
271
330
1F
100
AcDbEntity
  8
0
  6
Continuous
 62
     7
370
    25
100
AcDbLine
 10
846.5198489427
 20
522.3434060801
 30
0.0
 11
846.5198489427
 21
507.3434060801
 31
0.0
  0
LINE
  5
272
330
1F
100
AcDbEntity
  8
0
  6
Continuous
 62
     7
370
    25
100
AcDbLine
 10
857.5198489427
 20
522.3434060801
 30
0.0
 11
846.5198489427
 21
522.3434060801
 31
0.0
  0
LINE
  5
273
330
1F
100
AcDbEntity
  8
0
  6
Continuous
 62
     7
370
    25
100
AcDbLine
 10
835.5198489427
 20
507.3434060801
 30
0.0
 11
835.5198489427
 21
522.3434060801
 31
0.0
  0
LINE
  5
274
330
1F
100
AcDbEntity
  8
0
  6
Continuous
 62
     7
370
    25
100
AcDbLine
 10
846.5198489427
 20
522.3434060801
 30
0.0
 11
835.5198489427
 21
522.3434060801
 31
0.0
  0
LINE
  5
275
330
1F
100
AcDbEntity
  8
0
  6
Continuous
 62
     7
370
    25
100
AcDbLine
 10
835.5198489427
 20
507.3434060801
 30
0.0
 11
846.5198489427
 21
507.3434060801
 31
0.0
  0
LINE
  5
276
330
1F
100
AcDbEntity
  8
0
  6
Continuous
 62
     7
370
    25
100
AcDbLine
 10
857.5198489368
 20
507.3434060801
 30
0.0
 11
857.5198489368
 21
507.0934060754
 31
0.0
  0
LINE
  5
277
330
1F
100
AcDbEntity
  8
0
  6
Continuous
 62
     7
370
    25
100
AcDbLine
 10
856.0198489457
 20
507.0934060754
 30
0.0
 11
857.5198489368
 21
507.0934060754
 31
0.0
  0
LINE
  5
278
330
1F
100
AcDbEntity
  8
0
  6
Continuous
 62
     7
370
    25
100
AcDbLine
 10
835.5198489368
 20
507.0934060754
 30
0.0
 11
837.0198489396
 21
507.0934060754
 31
0.0
  0
LINE
  5
279
330
1F
100
AcDbEntity
  8
0
  6
Continuous
 62
     7
370
    25
100
AcDbLine
 10
835.5198489368
 20
507.3434060801
 30
0.0
 11
835.5198489368
 21
507.0934060754
 31
0.0
  0
LINE
  5
27A
330
1F
100
AcDbEntity
  8
0
  6
Continuous
 62
     7
370
    25
100
AcDbLine
 10
837.0198489368
 20
505.3434060754
 30
0.0
 11
837.1865156124
 21
505.3434060754
 31
0.0
  0
LINE
  5
27B
330
1F
100
AcDbEntity
  8
0
  6
Continuous
 62
     7
370
    25
100
AcDbLine
 10
855.8531822729
 20
505.3434060754
 30
0.0
 11
856.0198489368
 21
505.3434060754
 31
0.0
  0
LINE
  5
27C
330
1F
100
AcDbEntity
  8
0
  6
Continuous
 62
     7
370
    25
100
AcDbLine
 10
837.0198489368
 20
506.8434060754
 30
0.0
 11
837.1865156124
 21
506.8434060754
 31
0.0
  0
LINE
  5
27D
330
1F
100
AcDbEntity
  8
0
  6
Continuous
 62
     7
370
    25
100
AcDbLine
 10
855.8531822729
 20
506.8434060754
 30
0.0
 11
856.0198489368
 21
506.8434060754
 31
0.0
  0
LINE
  5
27E
330
1F
100
AcDbEntity
  8
0
  6
Continuous
 62
     7
370
    25
100
AcDbLine
 10
837.0198489368
 20
503.8434060754
 30
0.0
 11
837.1865156124
 21
503.8434060754
 31
0.0
  0
LINE
  5
27F
330
1F
100
AcDbEntity
  8
0
  6
Continuous
 62
     7
370
    25
100
AcDbLine
 10
855.8531822729
 20
503.8434060754
 30
0.0
 11
856.0198489368
 21
503.8434060754
 31
0.0
  0
LINE
  5
280
330
1F
100
AcDbEntity
  8
0
  6
Continuous
 62
     7
370
    25
100
AcDbLine
 10
837.0198489368
 20
500.8434060754
 30
0.0
 11
837.1865156124
 21
500.8434060754
 31
0.0
  0
LINE
  5
281
330
1F
100
AcDbEntity
  8
0
  6
Continuous
 62
     7
370
    25
100
AcDbLine
 10
855.8531822729
 20
500.8434060754
 30
0.0
 11
856.0198489368
 21
500.8434060754
 31
0.0
  0
LINE
  5
282
330
1F
100
AcDbEntity
  8
0
  6
Continuous
 62
     7
370
    25
100
AcDbLine
 10
837.0198489368
 20
502.3434060754
 30
0.0
 11
837.1865156124
 21
502.3434060754
 31
0.0
  0
LINE
  5
283
330
1F
100
AcDbEntity
  8
0
  6
Continuous
 62
     7
370
    25
100
AcDbLine
 10
855.8531822729
 20
502.3434060754
 30
0.0
 11
856.0198489368
 21
502.3434060754
 31
0.0
  0
LINE
  5
284
330
1F
100
AcDbEntity
  8
0
  6
Continuous
 62
     7
370
    25
100
AcDbLine
 10
856.0198489368
 20
499.3434060754
 30
0.0
 11
855.853182276
 21
499.3434060754
 31
0.0
  0
LINE
  5
285
330
1F
100
AcDbEntity
  8
0
  6
Continuous
 62
     7
370
    25
100
AcDbLine
 10
837.1865156093
 20
499.3434060754
 30
0.0
 11
837.0198489368
 21
499.3434060754
 31
0.0
  0
LINE
  5
286
330
1F
100
AcDbEntity
  8
0
  6
Continuous
 62
     7
370
    25
100
AcDbLine
 10
855.8531822701
 20
499.0934060754
 30
0.0
 11
853.5868362381
 21
499.0934060754
 31
0.0
  0
LINE
  5
287
330
1F
100
AcDbEntity
  8
0
  6
Continuous
 62
     7
370
    25
100
AcDbLine
 10
839.4528616472
 20
499.0934060754
 30
0.0
 11
837.1865156034
 21
499.0934060754
 31
0.0
  0
LINE
  5
288
330
1F
100
AcDbEntity
  8
0
  6
Continuous
 62
     7
370
    25
100
AcDbLine
 10
811.5198489427
 20
487.3434060801
 30
0.0
 11
826.5198489427
 21
487.3434060801
 31
0.0
  0
LINE
  5
289
330
1F
100
AcDbEntity
  8
0
  6
Continuous
 62
     7
370
    25
100
AcDbLine
 10
826.5198489427
 20
476.3434060801
 30
0.0
 11
826.5198489427
 21
487.3434060801
 31
0.0
  0
LINE
  5
28A
330
1F
100
AcDbEntity
  8
0
  6
Continuous
 62
     7
370
    25
100
AcDbLine
 10
826.5198489427
 20
476.3434060801
 30
0.0
 11
811.5198489427
 21
476.3434060801
 31
0.0
  0
LINE
  5
28B
330
1F
100
AcDbEntity
  8
0
  6
Continuous
 62
     7
370
    25
100
AcDbLine
 10
811.5198489427
 20
476.3434060801
 30
0.0
 11
811.5198489427
 21
487.3434060801
 31
0.0
  0
LINE
  5
28C
330
1F
100
AcDbEntity
  8
0
  6
Continuous
 62
     7
370
    25
100
AcDbLine
 10
811.5198489427
 20
498.3434060801
 30
0.0
 11
826.5198489427
 21
498.3434060801
 31
0.0
  0
LINE
  5
28D
330
1F
100
AcDbEntity
  8
0
  6
Continuous
 62
     7
370
    25
100
AcDbLine
 10
826.5198489427
 20
487.3434060801
 30
0.0
 11
826.5198489427
 21
498.3434060801
 31
0.0
  0
LINE
  5
28E
330
1F
100
AcDbEntity
  8
0
  6
Continuous
 62
     7
370
    25
100
AcDbLine
 10
811.5198489427
 20
487.3434060801
 30
0.0
 11
811.5198489427
 21
498.3434060801
 31
0.0
  0
LINE
  5
28F
330
1F
100
AcDbEntity
  8
0
  6
Continuous
 62
     7
370
    25
100
AcDbLine
 10
832.7698489427
 20
477.8434060801
 30
0.0
 11
832.7698489427
 21
496.8434060801
 31
0.0
  0
LINE
  5
290
330
1F
100
AcDbEntity
  8
0
  6
Continuous
 62
     7
370
    25
100
AcDbLine
 10
833.5198489427
 20
496.3434060801
 30
0.0
 11
833.5198489427
 21
478.3434060801
 31
0.0
  0
LINE
  5
291
330
1F
100
AcDbEntity
  8
0
  6
Continuous
 62
     7
370
    25
100
AcDbLine
 10
834.2698489427
 20
496.8434060801
 30
0.0
 11
834.2698489427
 21
477.8434060801
 31
0.0
  0
LINE
  5
292
330
1F
100
AcDbEntity
  8
0
  6
Continuous
 62
     7
370
    25
100
AcDbLine
 10
832.0198489427
 20
478.3434060801
 30
0.0
 11
832.0198489427
 21
496.3434060801
 31
0.0
  0
LINE
  5
293
330
1F
100
AcDbEntity
  8
0
  6
Continuous
 62
     7
370
    25
100
AcDbLine
 10
831.2698489427
 20
477.8434060801
 30
0.0
 11
831.2698489427
 21
496.8434060801
 31
0.0
  0
LINE
  5
294
330
1F
100
AcDbEntity
  8
0
  6
Continuous
 62
     7
370
    25
100
AcDbLine
 10
834.5198489427
 20
487.3434060801
 30
0.0
 11
834.5198489427
 21
478.0100727467
 31
0.0
  0
LINE
  5
295
330
1F
100
AcDbEntity
  8
0
  6
Continuous
 62
     7
370
    25
100
AcDbLine
 10
834.5198489427
 20
496.6767394134
 30
0.0
 11
834.5198489427
 21
487.3434060801
 31
0.0
  0
LINE
  5
296
330
1F
100
AcDbEntity
  8
0
  6
Continuous
 62
     7
370
    25
100
AcDbLine
 10
829.7698489427
 20
477.8434060801
 30
0.0
 11
829.7698489427
 21
496.8434060801
 31
0.0
  0
LINE
  5
297
330
1F
100
AcDbEntity
  8
0
  6
Continuous
 62
     7
370
    25
100
AcDbLine
 10
830.5198489427
 20
478.3434060801
 30
0.0
 11
830.5198489427
 21
496.3434060801
 31
0.0
  0
LINE
  5
298
330
1F
100
AcDbEntity
  8
0
  6
Continuous
 62
     7
370
    25
100
AcDbLine
 10
826.7698489427
 20
477.8434060801
 30
0.0
 11
826.7698489427
 21
496.8434060801
 31
0.0
  0
LINE
  5
299
330
1F
100
AcDbEntity
  8
0
  6
Continuous
 62
     7
370
    25
100
AcDbLine
 10
827.5198489427
 20
478.3434060801
 30
0.0
 11
827.5198489427
 21
496.3434060801
 31
0.0
  0
LINE
  5
29A
330
1F
100
AcDbEntity
  8
0
  6
Continuous
 62
     7
370
    25
100
AcDbLine
 10
829.0198489427
 20
478.3434060801
 30
0.0
 11
829.0198489427
 21
496.3434060801
 31
0.0
  0
LINE
  5
29B
330
1F
100
AcDbEntity
  8
0
  6
Continuous
 62
     7
370
    25
100
AcDbLine
 10
828.2698489427
 20
477.8434060801
 30
0.0
 11
828.2698489427
 21
496.8434060801
 31
0.0
  0
LINE
  5
29C
330
1F
100
AcDbEntity
  8
0
  6
Continuous
 62
     7
370
    25
100
AcDbLine
 10
840.5198489427
 20
493.3434060801
 30
0.0
 11
840.5198489427
 21
480.3434060801
 31
0.0
  0
LINE
  5
29D
330
1F
100
AcDbEntity
  8
0
  6
Continuous
 62
     7
370
    25
100
AcDbLine
 10
846.5198489424
 20
1020.5434060775
 30
0.0
 11
846.5198489424
 21
1035.5434060775
 31
0.0
  0
LINE
  5
29E
330
1F
100
AcDbEntity
  8
0
  6
Continuous
 62
     7
370
    25
100
AcDbLine
 10
857.5198489425
 20
1035.5434060775
 30
0.0
 11
846.5198489424
 21
1035.5434060775
 31
0.0
  0
LINE
  5
29F
330
1F
100
AcDbEntity
  8
0
  6
Continuous
 62
     7
370
    25
100
AcDbLine
 10
857.5198489425
 20
1035.5434060775
 30
0.0
 11
857.5198489425
 21
1020.5434060775
 31
0.0
  0
LINE
  5
2A0
330
1F
100
AcDbEntity
  8
0
  6
Continuous
 62
     7
370
    25
100
AcDbLine
 10
857.5198489425
 20
1020.5434060775
 30
0.0
 11
846.5198489424
 21
1020.5434060775
 31
0.0
  0
LINE
  5
2A1
330
1F
100
AcDbEntity
  8
0
  6
Continuous
 62
     7
370
    25
100
AcDbLine
 10
835.5198489425
 20
1020.5434060775
 30
0.0
 11
835.5198489425
 21
1035.5434060775
 31
0.0
  0
LINE
  5
2A2
330
1F
100
AcDbEntity
  8
0
  6
Continuous
 62
     7
370
    25
100
AcDbLine
 10
846.5198489424
 20
1035.5434060775
 30
0.0
 11
835.5198489425
 21
1035.5434060775
 31
0.0
  0
LINE
  5
2A3
330
1F
100
AcDbEntity
  8
0
  6
Continuous
 62
     7
370
    25
100
AcDbLine
 10
846.5198489424
 20
1020.5434060775
 30
0.0
 11
835.5198489425
 21
1020.5434060775
 31
0.0
  0
LINE
  5
2A4
330
1F
100
AcDbEntity
  8
0
  6
Continuous
 62
     7
370
    25
100
AcDbLine
 10
856.0198489427
 20
1035.7934060775
 30
0.0
 11
837.0198489427
 21
1035.7934060775
 31
0.0
  0
LINE
  5
2A5
330
1F
100
AcDbEntity
  8
0
  6
Continuous
 62
     7
370
    25
100
AcDbLine
 10
837.0198489427
 20
1043.2934060775
 30
0.0
 11
856.0198489427
 21
1043.2934060775
 31
0.0
  0
LINE
  5
2A6
330
1F
100
AcDbEntity
  8
0
  6
Continuous
 62
     7
370
    25
100
AcDbLine
 10
846.5198489425
 20
1043.5434060775
 30
0.0
 11
855.853182276
 21
1043.5434060775
 31
0.0
  0
LINE
  5
2A7
330
1F
100
AcDbEntity
  8
0
  6
Continuous
 62
     7
370
    25
100
AcDbLine
 10
837.1865156093
 20
1043.5434060775
 30
0.0
 11
846.5198489425
 21
1043.5434060775
 31
0.0
  0
LINE
  5
2A8
330
1F
100
AcDbEntity
  8
0
  6
Continuous
 62
     7
370
    25
100
AcDbLine
 10
856.0198489427
 20
1040.2934060775
 30
0.0
 11
837.0198489427
 21
1040.2934060775
 31
0.0
  0
LINE
  5
2A9
330
1F
100
AcDbEntity
  8
0
  6
Continuous
 62
     7
370
    25
100
AcDbLine
 10
855.5198489427
 20
1041.0434060775
 30
0.0
 11
837.5198489427
 21
1041.0434060775
 31
0.0
  0
LINE
  5
2AA
330
1F
100
AcDbEntity
  8
0
  6
Continuous
 62
     7
370
    25
100
AcDbLine
 10
855.5198489427
 20
1038.0434060775
 30
0.0
 11
837.5198489427
 21
1038.0434060775
 31
0.0
  0
LINE
  5
2AB
330
1F
100
AcDbEntity
  8
0
  6
Continuous
 62
     7
370
    25
100
AcDbLine
 10
856.0198489427
 20
1038.7934060775
 30
0.0
 11
837.0198489427
 21
1038.7934060775
 31
0.0
  0
LINE
  5
2AC
330
1F
100
AcDbEntity
  8
0
  6
Continuous
 62
     7
370
    25
100
AcDbLine
 10
856.0198489427
 20
1041.7934060775
 30
0.0
 11
837.0198489427
 21
1041.7934060775
 31
0.0
  0
LINE
  5
2AD
330
1F
100
AcDbEntity
  8
0
  6
Continuous
 62
     7
370
    25
100
AcDbLine
 10
855.5198489427
 20
1039.5434060775
 30
0.0
 11
837.5198489427
 21
1039.5434060775
 31
0.0
  0
LINE
  5
2AE
330
1F
100
AcDbEntity
  8
0
  6
Continuous
 62
     7
370
    25
100
AcDbLine
 10
837.5198489427
 20
1042.5434060775
 30
0.0
 11
855.5198489427
 21
1042.5434060775
 31
0.0
  0
LINE
  5
2AF
330
1F
100
AcDbEntity
  8
0
  6
Continuous
 62
     7
370
    25
100
AcDbLine
 10
855.5198489427
 20
1036.5434060775
 30
0.0
 11
837.5198489427
 21
1036.5434060775
 31
0.0
  0
LINE
  5
2B0
330
1F
100
AcDbEntity
  8
0
  6
Continuous
 62
     7
370
    25
100
AcDbLine
 10
856.0198489427
 20
1037.2934060775
 30
0.0
 11
837.0198489427
 21
1037.2934060775
 31
0.0
  0
LINE
  5
2B1
330
1F
100
AcDbEntity
  8
0
  6
Continuous
 62
     7
370
    25
100
AcDbLine
 10
840.5198489426
 20
1049.5434060775
 30
0.0
 11
853.5198489427
 21
1049.5434060775
 31
0.0
  0
LINE
  5
2B2
330
1F
100
AcDbEntity
  8
0
  6
Continuous
 62
     7
370
    25
100
AcDbLine
 10
833.5198489427
 20
529.8434060775
 30
0.0
 11
848.5198489427
 21
529.8434060775
 31
0.0
  0
LINE
  5
2B3
330
1F
100
AcDbEntity
  8
0
  6
Continuous
 62
     7
370
    25
100
AcDbLine
 10
833.5198489427
 20
531.0434060775
 30
0.0
 11
848.5198489427
 21
531.0434060775
 31
0.0
  0
LINE
  5
2B4
330
1F
100
AcDbEntity
  8
0
  6
Continuous
 62
     7
370
    25
100
AcDbLine
 10
858.5198489427
 20
531.0434060775
 30
0.0
 11
858.5198489427
 21
529.8434060775
 31
0.0
  0
LINE
  5
2B5
330
1F
100
AcDbEntity
  8
0
  6
Continuous
 62
     7
370
    25
100
AcDbLine
 10
848.5198489427
 20
529.8434060775
 30
0.0
 11
858.5198489427
 21
529.8434060775
 31
0.0
  0
LINE
  5
2B6
330
1F
100
AcDbEntity
  8
0
  6
Continuous
 62
     7
370
    25
100
AcDbLine
 10
848.5198489427
 20
531.0434060775
 30
0.0
 11
858.5198489427
 21
531.0434060775
 31
0.0
  0
LINE
  5
2B7
330
1F
100
AcDbEntity
  8
0
  6
Continuous
 62
     7
370
    25
100
AcDbLine
 10
823.5198489427
 20
531.0434060775
 30
0.0
 11
823.5198489427
 21
529.8434060775
 31
0.0
  0
LINE
  5
2B8
330
1F
100
AcDbEntity
  8
0
  6
Continuous
 62
     7
370
    25
100
AcDbLine
 10
823.5198489427
 20
529.8434060775
 30
0.0
 11
833.5198489427
 21
529.8434060775
 31
0.0
  0
LINE
  5
2B9
330
1F
100
AcDbEntity
  8
0
  6
Continuous
 62
     7
370
    25
100
AcDbLine
 10
823.5198489427
 20
531.0434060775
 30
0.0
 11
833.5198489427
 21
531.0434060775
 31
0.0
  0
LINE
  5
2BA
330
1F
100
AcDbEntity
  8
0
  6
Continuous
 62
     7
370
    25
100
AcDbLine
 10
821.5198489427
 20
529.8434060775
 30
0.0
 11
823.5198489427
 21
529.8434060775
 31
0.0
  0
LINE
  5
2BB
330
1F
100
AcDbEntity
  8
0
  6
Continuous
 62
     7
370
    25
100
AcDbLine
 10
821.5198489427
 20
531.0434060775
 30
0.0
 11
823.5198489427
 21
531.0434060775
 31
0.0
  0
LINE
  5
2BC
330
1F
100
AcDbEntity
  8
0
  6
Continuous
 62
     7
370
    25
100
AcDbLine
 10
810.5198489427
 20
528.5934060775
 30
0.0
 11
810.5198489427
 21
516.8434060775
 31
0.0
  0
LINE
  5
2BD
330
1F
100
AcDbEntity
  8
0
  6
Continuous
 62
     7
370
    25
100
AcDbLine
 10
811.7698489427
 20
529.8434060775
 30
0.0
 11
821.5198489427
 21
529.8434060775
 31
0.0
  0
LINE
  5
2BE
330
1F
100
AcDbEntity
  8
0
  6
Continuous
 62
     7
370
    25
100
AcDbLine
 10
811.7698489427
 20
531.0434060775
 30
0.0
 11
821.5198489427
 21
531.0434060775
 31
0.0
  0
ARC
  5
2BF
330
1F
100
AcDbEntity
  8
0
  6
Continuous
 62
     7
370
    25
100
AcDbCircle
 10
811.7698489427
 20
528.5934060775
 30
0.0
 40
2.450000000000045
100
AcDbArc
 50
90.0
 51
132.3354018765
  0
ARC
  5
2C0
330
1F
100
AcDbEntity
  8
0
  6
Continuous
 62
     7
370
    25
100
AcDbCircle
 10
811.7698489427
 20
528.5934060775
 30
0.0
 40
1.25
100
AcDbArc
 50
90.0
 51
180.0
  0
LINE
  5
2C1
330
1F
100
AcDbEntity
  8
0
  6
Continuous
 62
     7
370
    25
100
AcDbLine
 10
810.1198489427
 20
514.8434060775
 30
0.0
 11
810.5198489427
 21
514.8434060775
 31
0.0
  0
LINE
  5
2C2
330
1F
100
AcDbEntity
  8
0
  6
Continuous
 62
     7
370
    25
100
AcDbLine
 10
810.5198489427
 20
516.8434060775
 30
0.0
 11
810.5198489427
 21
514.8434060775
 31
0.0
  0
LINE
  5
2C3
330
1F
100
AcDbEntity
  8
0
  6
Continuous
 62
     7
370
    25
100
AcDbLine
 10
840.5198489427
 20
833.2434060775
 30
0.0
 11
833.5198489427
 21
833.2434060775
 31
0.0
  0
LINE
  5
2C4
330
1F
100
AcDbEntity
  8
0
  6
Continuous
 62
     7
370
    25
100
AcDbLine
 10
840.5198489427
 20
834.4434060775
 30
0.0
 11
833.5198489427
 21
834.4434060775
 31
0.0
  0
LINE
  5
2C5
330
1F
100
AcDbEntity
  8
0
  6
Continuous
 62
     7
370
    25
100
AcDbLine
 10
833.5198489427
 20
833.2434060775
 30
0.0
 11
811.7698489427
 21
833.2434060775
 31
0.0
  0
LINE
  5
2C6
330
1F
100
AcDbEntity
  8
0
  6
Continuous
 62
     7
370
    25
100
AcDbLine
 10
833.5198489427
 20
834.4434060775
 30
0.0
 11
811.7698489427
 21
834.4434060775
 31
0.0
  0
ARC
  5
2C7
330
1F
100
AcDbEntity
  8
0
  6
Continuous
 62
     7
370
    25
100
AcDbCircle
 10
811.7698489427
 20
835.6934060775
 30
0.0
 40
2.449999999999938
100
AcDbArc
 50
227.6645981236
 51
270.0
  0
ARC
  5
2C8
330
1F
100
AcDbEntity
  8
0
  6
Continuous
 62
     7
370
    25
100
AcDbCircle
 10
811.7698489427
 20
835.6934060775
 30
0.0
 40
1.25
100
AcDbArc
 50
180.0
 51
270.0
  0
LINE
  5
2C9
330
1F
100
AcDbEntity
  8
0
  6
Continuous
 62
     7
370
    25
100
AcDbLine
 10
858.5198489427
 20
833.2434060775
 30
0.0
 11
858.5198489427
 21
834.4434060775
 31
0.0
  0
LINE
  5
2CA
330
1F
100
AcDbEntity
  8
0
  6
Continuous
 62
     7
370
    25
100
AcDbLine
 10
858.5198489427
 20
833.2434060775
 30
0.0
 11
852.5198489427
 21
833.2434060775
 31
0.0
  0
LINE
  5
2CB
330
1F
100
AcDbEntity
  8
0
  6
Continuous
 62
     7
370
    25
100
AcDbLine
 10
858.5198489427
 20
834.4434060775
 30
0.0
 11
852.5198489427
 21
834.4434060775
 31
0.0
  0
LINE
  5
2CC
330
1F
100
AcDbEntity
  8
0
  6
Continuous
 62
     7
370
    25
100
AcDbLine
 10
835.5198489368
 20
521.6434060775
 30
0.0
 11
833.5198489427
 21
521.6434060775
 31
0.0
  0
LINE
  5
2CD
330
1F
100
AcDbEntity
  8
0
  6
Continuous
 62
     7
370
    25
100
AcDbLine
 10
840.5198489427
 20
522.8434060775
 30
0.0
 11
833.5198489427
 21
522.8434060775
 31
0.0
  0
LINE
  5
2CE
330
1F
100
AcDbEntity
  8
0
  6
Continuous
 62
     7
370
    25
100
AcDbLine
 10
833.5198489427
 20
521.6434060775
 30
0.0
 11
811.7698489427
 21
521.6434060775
 31
0.0
  0
LINE
  5
2CF
330
1F
100
AcDbEntity
  8
0
  6
Continuous
 62
     7
370
    25
100
AcDbLine
 10
833.5198489427
 20
522.8434060775
 30
0.0
 11
811.7698489427
 21
522.8434060775
 31
0.0
  0
LINE
  5
2D0
330
1F
100
AcDbEntity
  8
0
  6
Continuous
 62
     7
370
    25
100
AcDbLine
 10
810.5198489427
 20
535.8434060775
 30
0.0
 11
810.5198489427
 21
530.700536828
 31
0.0
  0
LINE
  5
2D1
330
1F
100
AcDbEntity
  8
0
  6
Continuous
 62
     7
370
    25
100
AcDbLine
 10
810.1198489427
 20
537.8434060775
 30
0.0
 11
810.5198489427
 21
537.8434060775
 31
0.0
  0
LINE
  5
2D2
330
1F
100
AcDbEntity
  8
0
  6
Continuous
 62
     7
370
    25
100
AcDbLine
 10
810.5198489427
 20
537.8434060775
 30
0.0
 11
810.5198489427
 21
535.8434060775
 31
0.0
  0
ARC
  5
2D3
330
1F
100
AcDbEntity
  8
0
  6
Continuous
 62
     7
370
    25
100
AcDbCircle
 10
811.7698489427
 20
524.0934060775
 30
0.0
 40
2.449999999999979
100
AcDbArc
 50
239.3225755275
 51
270.0
  0
ARC
  5
2D4
330
1F
100
AcDbEntity
  8
0
  6
Continuous
 62
     7
370
    25
100
AcDbCircle
 10
811.7698489427
 20
524.0934060775
 30
0.0
 40
1.25
100
AcDbArc
 50
180.0
 51
270.0
  0
LINE
  5
2D5
330
1F
100
AcDbEntity
  8
0
  6
Continuous
 62
     7
370
    25
100
AcDbLine
 10
858.5198489427
 20
521.6434060775
 30
0.0
 11
858.5198489427
 21
522.8434060775
 31
0.0
  0
LINE
  5
2D6
330
1F
100
AcDbEntity
  8
0
  6
Continuous
 62
     7
370
    25
100
AcDbLine
 10
858.5198489427
 20
521.6434060775
 30
0.0
 11
857.5198489368
 21
521.6434060775
 31
0.0
  0
LINE
  5
2D7
330
1F
100
AcDbEntity
  8
0
  6
Continuous
 62
     7
370
    25
100
AcDbLine
 10
858.5198489427
 20
522.8434060775
 30
0.0
 11
852.5198489427
 21
522.8434060775
 31
0.0
  0
LINE
  5
2D8
330
1F
100
AcDbEntity
  8
0
  6
Continuous
 62
     7
370
    25
100
AcDbLine
 10
833.5198489427
 20
851.6434060775
 30
0.0
 11
848.5198489427
 21
851.6434060775
 31
0.0
  0
LINE
  5
2D9
330
1F
100
AcDbEntity
  8
0
  6
Continuous
 62
     7
370
    25
100
AcDbLine
 10
833.5198489427
 20
850.4434060775
 30
0.0
 11
848.5198489427
 21
850.4434060775
 31
0.0
  0
LINE
  5
2DA
330
1F
100
AcDbEntity
  8
0
  6
Continuous
 62
     7
370
    25
100
AcDbLine
 10
858.5198489427
 20
851.6434060775
 30
0.0
 11
858.5198489427
 21
850.4434060775
 31
0.0
  0
LINE
  5
2DB
330
1F
100
AcDbEntity
  8
0
  6
Continuous
 62
     7
370
    25
100
AcDbLine
 10
848.5198489427
 20
851.6434060775
 30
0.0
 11
858.5198489427
 21
851.6434060775
 31
0.0
  0
LINE
  5
2DC
330
1F
100
AcDbEntity
  8
0
  6
Continuous
 62
     7
370
    25
100
AcDbLine
 10
848.5198489427
 20
850.4434060775
 30
0.0
 11
858.5198489427
 21
850.4434060775
 31
0.0
  0
LINE
  5
2DD
330
1F
100
AcDbEntity
  8
0
  6
Continuous
 62
     7
370
    25
100
AcDbLine
 10
823.5198489427
 20
851.6434060775
 30
0.0
 11
823.5198489427
 21
850.4434060775
 31
0.0
  0
LINE
  5
2DE
330
1F
100
AcDbEntity
  8
0
  6
Continuous
 62
     7
370
    25
100
AcDbLine
 10
823.5198489427
 20
851.6434060775
 30
0.0
 11
833.5198489427
 21
851.6434060775
 31
0.0
  0
LINE
  5
2DF
330
1F
100
AcDbEntity
  8
0
  6
Continuous
 62
     7
370
    25
100
AcDbLine
 10
823.5198489427
 20
850.4434060775
 30
0.0
 11
833.5198489427
 21
850.4434060775
 31
0.0
  0
LINE
  5
2E0
330
1F
100
AcDbEntity
  8
0
  6
Continuous
 62
     7
370
    25
100
AcDbLine
 10
821.5198489427
 20
851.6434060775
 30
0.0
 11
823.5198489427
 21
851.6434060775
 31
0.0
  0
LINE
  5
2E1
330
1F
100
AcDbEntity
  8
0
  6
Continuous
 62
     7
370
    25
100
AcDbLine
 10
821.5198489427
 20
850.4434060775
 30
0.0
 11
823.5198489427
 21
850.4434060775
 31
0.0
  0
LINE
  5
2E2
330
1F
100
AcDbEntity
  8
0
  6
Continuous
 62
     7
370
    25
100
AcDbLine
 10
811.7698489427
 20
851.6434060775
 30
0.0
 11
821.5198489427
 21
851.6434060775
 31
0.0
  0
LINE
  5
2E3
330
1F
100
AcDbEntity
  8
0
  6
Continuous
 62
     7
370
    25
100
AcDbLine
 10
811.7698489427
 20
850.4434060775
 30
0.0
 11
821.5198489427
 21
850.4434060775
 31
0.0
  0
LINE
  5
2E4
330
1F
100
AcDbEntity
  8
0
  6
Continuous
 62
     7
370
    25
100
AcDbLine
 10
810.5198489427
 20
849.1934060775
 30
0.0
 11
810.5198489427
 21
837.4434060775
 31
0.0
  0
ARC
  5
2E5
330
1F
100
AcDbEntity
  8
0
  6
Continuous
 62
     7
370
    25
100
AcDbCircle
 10
811.7698489427
 20
849.1934060775
 30
0.0
 40
2.449999999999932
100
AcDbArc
 50
90.0
 51
132.3354018764
  0
ARC
  5
2E6
330
1F
100
AcDbEntity
  8
0
  6
Continuous
 62
     7
370
    25
100
AcDbCircle
 10
811.7698489427
 20
849.1934060775
 30
0.0
 40
1.249999999999886
100
AcDbArc
 50
90.0
 51
180.0
  0
LINE
  5
2E7
330
1F
100
AcDbEntity
  8
0
  6
Continuous
 62
     7
370
    25
100
AcDbLine
 10
810.1198489427
 20
835.4434060775
 30
0.0
 11
810.5198489427
 21
835.4434060775
 31
0.0
  0
LINE
  5
2E8
330
1F
100
AcDbEntity
  8
0
  6
Continuous
 62
     7
370
    25
100
AcDbLine
 10
810.5198489427
 20
837.4434060775
 30
0.0
 11
810.5198489427
 21
835.4434060775
 31
0.0
  0
LINE
  5
2E9
330
1F
100
AcDbEntity
  8
0
  6
Continuous
 62
     7
370
    25
100
AcDbLine
 10
808.1198489427
 20
958.47011656
 30
0.0
 11
808.1198489427
 21
958.4429344807
 31
0.0
  0
LINE
  5
2EA
330
1F
100
AcDbEntity
  8
0
  6
Continuous
 62
     7
370
    25
100
AcDbLine
 10
809.3198489427
 20
1145.8518929533
 30
0.0
 11
809.3198489427
 21
1145.4518929533
 31
0.0
  0
LINE
  5
2EB
330
1F
100
AcDbEntity
  8
0
  6
Continuous
 62
     7
370
    25
100
AcDbLine
 10
808.1198489427
 20
1145.8518929533
 30
0.0
 11
808.1198489427
 21
1145.4518929533
 31
0.0
  0
LINE
  5
2EC
330
1F
100
AcDbEntity
  8
0
  6
Continuous
 62
     7
370
    25
100
AcDbLine
 10
475.2698488609
 20
975.8434060775
 30
0.0
 11
441.2698489473
 21
975.8434060775
 31
0.0
  0
LINE
  5
2ED
330
1F
100
AcDbEntity
  8
0
  6
Continuous
 62
     7
370
    25
100
AcDbLine
 10
52.0059062656
 20
1064.333424232
 30
0.0
 11
52.0699627064
 21
1064.3197453749
 31
0.0
  0
LINE
  5
2EE
330
1F
100
AcDbEntity
  8
0
  6
Continuous
 62
     7
370
    25
100
AcDbLine
 10
100.4526636861
 20
1038.5786253637
 30
0.0
 11
105.7454248822
 21
1035.7525540764
 31
0.0
  0
LINE
  5
2EF
330
1F
100
AcDbEntity
  8
0
  6
Continuous
 62
     7
370
    25
100
AcDbLine
 10
100.4055624979
 20
1038.4904126771
 30
0.0
 11
100.4526636861
 21
1038.5786253637
 31
0.0
  0
LINE
  5
2F0
330
1F
100
AcDbEntity
  8
0
  6
Continuous
 62
     7
370
    25
100
AcDbLine
 10
105.698323694
 20
1035.6643413898
 30
0.0
 11
105.7454248822
 21
1035.7525540764
 31
0.0
  0
LINE
  5
2F1
330
1F
100
AcDbEntity
  8
0
  6
Continuous
 62
     7
370
    25
100
AcDbLine
 10
220.4219174645
 20
974.5210095179
 30
0.0
 11
225.7146786606
 21
971.6949382305
 31
0.0
  0
LINE
  5
2F2
330
1F
100
AcDbEntity
  8
0
  6
Continuous
 62
     7
370
    25
100
AcDbLine
 10
220.3748162763
 20
974.4327968313
 30
0.0
 11
220.4219174645
 21
974.5210095179
 31
0.0
  0
LINE
  5
2F3
330
1F
100
AcDbEntity
  8
0
  6
Continuous
 62
     7
370
    25
100
AcDbLine
 10
225.6675774724
 20
971.6067255439
 30
0.0
 11
225.7146786606
 21
971.6949382305
 31
0.0
  0
LINE
  5
2F4
330
1F
100
AcDbEntity
  8
0
  6
Continuous
 62
     7
370
    25
100
AcDbLine
 10
101.2622567581
 20
1043.8010994864
 30
0.0
 11
101.2207075347
 21
1043.7232847056
 31
0.0
  0
LINE
  5
2F5
330
1F
100
AcDbEntity
  8
0
  6
Continuous
 62
     7
370
    25
100
AcDbLine
 10
101.2622567581
 20
1044.1977155511
 30
0.0
 11
101.2207075347
 21
1044.1199007704
 31
0.0
  0
LINE
  5
2F6
330
1F
100
AcDbEntity
  8
0
  6
Continuous
 62
     7
370
    25
100
AcDbLine
 10
757.6198489427
 20
1126.460231378
 30
0.0
 11
757.5698489427
 21
1126.460231378
 31
0.0
  0
LINE
  5
2F7
330
1F
100
AcDbEntity
  8
0
  6
Continuous
 62
     7
370
    25
100
AcDbLine
 10
757.6198489427
 20
1126.960231378
 30
0.0
 11
757.6198489427
 21
1126.460231378
 31
0.0
  0
LINE
  5
2F8
330
1F
100
AcDbEntity
  8
0
  6
Continuous
 62
     7
370
    25
100
AcDbLine
 10
757.3198489427
 20
1126.960231378
 30
0.0
 11
757.6198489427
 21
1126.960231378
 31
0.0
  0
LINE
  5
2F9
330
1F
100
AcDbEntity
  8
0
  6
Continuous
 62
     7
370
    25
100
AcDbLine
 10
757.3198489427
 20
1133.5942346942
 30
0.0
 11
757.3198489427
 21
1126.960231378
 31
0.0
  0
ARC
  5
2FA
330
1F
100
AcDbEntity
  8
0
  6
Continuous
 62
     7
370
    25
100
AcDbCircle
 10
781.3198489427
 20
1126.960231378
 30
0.0
 40
24.90000000000018
100
AcDbArc
 50
105.0
 51
164.548306569
  0
LINE
  5
2FB
330
1F
100
AcDbEntity
  8
0
  6
Continuous
 62
     7
370
    25
100
AcDbLine
 10
808.1722070408
 20
1159.9336759375
 30
0.0
 11
774.8752547196
 21
1151.0117844526
 31
0.0
  0
LINE
  5
2FC
330
1F
100
AcDbEntity
  8
0
  6
Continuous
 62
     7
370
    25
100
AcDbLine
 10
809.6198489427
 20
1145.8518929533
 30
0.0
 11
809.6198489427
 21
1158.8228612372
 31
0.0
  0
LINE
  5
2FD
330
1F
100
AcDbEntity
  8
0
  6
Continuous
 62
     7
370
    25
100
AcDbLine
 10
808.0698489427
 20
1145.8518929533
 30
0.0
 11
808.0698489427
 21
1145.4518929533
 31
0.0
  0
LINE
  5
2FE
330
1F
100
AcDbEntity
  8
0
  6
Continuous
 62
     7
370
    25
100
AcDbLine
 10
808.0698489427
 20
1145.4518929533
 30
0.0
 11
808.4698489427
 21
1145.4518929533
 31
0.0
  0
LINE
  5
2FF
330
1F
100
AcDbEntity
  8
0
  6
Continuous
 62
     7
370
    25
100
AcDbLine
 10
808.4698489427
 20
960.8434060775
 30
0.0
 11
757.5698489427
 21
960.8434060775
 31
0.0
  0
ARC
  5
300
330
1F
100
AcDbEntity
  8
0
  6
Continuous
 62
     7
370
    25
100
AcDbCircle
 10
784.7198489427
 20
1138.2240204364
 30
0.0
 40
2.59999999999999
100
AcDbArc
 50
190.1041827161
 51
349.8958172839
  0
ARC
  5
301
330
1F
100
AcDbEntity
  8
0
  6
Continuous
 62
     7
370
    25
100
AcDbCircle
 10
781.9140513733
 20
1137.7240204364
 30
0.0
 40
0.2500000000000484
100
AcDbArc
 50
10.1041827161
 51
190.1041827161
  0
ARC
  5
302
330
1F
100
AcDbEntity
  8
0
  6
Continuous
 62
     7
370
    25
100
AcDbCircle
 10
784.7198489427
 20
1138.2240204364
 30
0.0
 40
3.099999999999975
100
AcDbArc
 50
190.1041827161
 51
349.8958172839
  0
ARC
  5
303
330
1F
100
AcDbEntity
  8
0
  6
Continuous
 62
     7
370
    25
100
AcDbCircle
 10
787.525646512
 20
1137.7240204364
 30
0.0
 40
0.2500000000000484
100
AcDbArc
 50
349.8958172839
 51
169.8958172839
  0
ARC
  5
304
330
1F
100
AcDbEntity
  8
0
  6
Continuous
 62
     7
370
    25
100
AcDbCircle
 10
781.9140513733
 20
1138.7240204364
 30
0.0
 40
0.2500000000000085
100
AcDbArc
 50
169.8958172839
 51
349.8958172839
  0
ARC
  5
305
330
1F
100
AcDbEntity
  8
0
  6
Continuous
 62
     7
370
    25
100
AcDbCircle
 10
784.7198489427
 20
1138.2240204364
 30
0.0
 40
2.60000000000003
100
AcDbArc
 50
10.1041827161
 51
169.8958172839
  0
ARC
  5
306
330
1F
100
AcDbEntity
  8
0
  6
Continuous
 62
     7
370
    25
100
AcDbCircle
 10
787.525646512
 20
1138.7240204364
 30
0.0
 40
0.2500000000000085
100
AcDbArc
 50
190.1041827161
 51
10.1041827161
  0
ARC
  5
307
330
1F
100
AcDbEntity
  8
0
  6
Continuous
 62
     7
370
    25
100
AcDbCircle
 10
784.7198489427
 20
1138.2240204364
 30
0.0
 40
3.099999999999975
100
AcDbArc
 50
10.1041827161
 51
169.8958172839
  0
LINE
  5
308
330
1F
100
AcDbEntity
  8
0
  6
Continuous
 62
     7
370
    25
100
AcDbLine
 10
809.6198489427
 20
1145.8518929533
 30
0.0
 11
808.0698489427
 21
1145.8518929533
 31
0.0
  0
ARC
  5
309
330
1F
100
AcDbEntity
  8
0
  6
Continuous
 62
     7
370
    25
100
AcDbCircle
 10
808.4698489427
 20
1158.8228612372
 30
0.0
 40
1.149999999999977
100
AcDbArc
 50
0.0
 51
105.0
  0
LINE
  5
30A
330
1F
100
AcDbEntity
  8
0
  6
Continuous
 62
     7
370
    25
100
AcDbLine
 10
810.5198489427
 20
960.8434060775
 30
0.0
 11
810.5198489427
 21
1145.4518929533
 31
0.0
  0
LINE
  5
30B
330
1F
100
AcDbEntity
  8
0
  6
Continuous
 62
     7
370
    25
100
AcDbLine
 10
810.5198489427
 20
960.8434060775
 30
0.0
 11
808.4698489427
 21
960.8434060775
 31
0.0
  0
LINE
  5
30C
330
1F
100
AcDbEntity
  8
0
  6
Continuous
 62
     7
370
    25
100
AcDbLine
 10
808.4698489427
 20
1145.4518929533
 30
0.0
 11
810.5198489427
 21
1145.4518929533
 31
0.0
  0
LINE
  5
30D
330
1F
100
AcDbEntity
  8
0
  6
Continuous
 62
     7
370
    25
100
AcDbLine
 10
809.7198489427
 20
1150.4518929533
 30
0.0
 11
809.7198489427
 21
1158.8228612372
 31
0.0
  0
LINE
  5
30E
330
1F
100
AcDbEntity
  8
0
  6
Continuous
 62
     7
370
    25
100
AcDbLine
 10
810.5198489427
 20
1150.4518929533
 30
0.0
 11
810.5198489427
 21
1158.8228612372
 31
0.0
  0
ARC
  5
30F
330
1F
100
AcDbEntity
  8
0
  6
Continuous
 62
     7
370
    25
100
AcDbCircle
 10
808.4698489427
 20
1158.8228612372
 30
0.0
 40
2.050000000000182
100
AcDbArc
 50
0.0
 51
105.0
  0
ARC
  5
310
330
1F
100
AcDbEntity
  8
0
  6
Continuous
 62
     7
370
    25
100
AcDbCircle
 10
808.4698489427
 20
1158.8228612372
 30
0.0
 40
1.250000000000001
100
AcDbArc
 50
0.0
 51
105.0
  0
LINE
  5
311
330
1F
100
AcDbEntity
  8
0
  6
Continuous
 62
     7
370
    25
100
AcDbLine
 10
810.5198489427
 20
1148.4518929533
 30
0.0
 11
809.7198489427
 21
1148.4518929533
 31
0.0
  0
LINE
  5
312
330
1F
100
AcDbEntity
  8
0
  6
Continuous
 62
     7
370
    25
100
AcDbLine
 10
809.7198489427
 20
1148.4518929533
 30
0.0
 11
809.7198489427
 21
1150.4518929533
 31
0.0
  0
LINE
  5
313
330
1F
100
AcDbEntity
  8
0
  6
Continuous
 62
     7
370
    25
100
AcDbLine
 10
810.5198489427
 20
1150.4518929533
 30
0.0
 11
810.5198489427
 21
1148.4518929533
 31
0.0
  0
LINE
  5
314
330
1F
100
AcDbEntity
  8
0
  6
Continuous
 62
     7
370
    25
100
AcDbLine
 10
807.9392699002
 20
1160.8030091811
 30
0.0
 11
774.642317579
 21
1151.8811176962
 31
0.0
  0
LINE
  5
315
330
1F
100
AcDbEntity
  8
0
  6
Continuous
 62
     7
370
    25
100
AcDbLine
 10
808.1463251363
 20
1160.0302685201
 30
0.0
 11
774.8493728151
 21
1151.1083770352
 31
0.0
  0
ARC
  5
316
330
1F
100
AcDbEntity
  8
0
  6
Continuous
 62
     7
370
    25
100
AcDbCircle
 10
781.3198489427
 20
1126.960231378
 30
0.0
 40
24.99999999999999
100
AcDbArc
 50
105.0
 51
180.0
  0
ARC
  5
317
330
1F
100
AcDbEntity
  8
0
  6
Continuous
 62
     7
370
    25
100
AcDbCircle
 10
781.3198489427
 20
1126.960231378
 30
0.0
 40
25.80000000000007
100
AcDbArc
 50
105.0
 51
180.0
  0
LINE
  5
318
330
1F
100
AcDbEntity
  8
0
  6
Continuous
 62
     7
370
    25
100
AcDbLine
 10
755.5198489427
 20
960.8434060775
 30
0.0
 11
755.5198489427
 21
1126.460231378
 31
0.0
  0
LINE
  5
319
330
1F
100
AcDbEntity
  8
0
  6
Continuous
 62
     7
370
    25
100
AcDbLine
 10
755.5198489427
 20
1126.460231378
 30
0.0
 11
757.5698489427
 21
1126.460231378
 31
0.0
  0
LINE
  5
31A
330
1F
100
AcDbEntity
  8
0
  6
Continuous
 62
     7
370
    25
100
AcDbLine
 10
757.5698489427
 20
960.8434060775
 30
0.0
 11
755.5198489427
 21
960.8434060775
 31
0.0
  0
LINE
  5
31B
330
1F
100
AcDbEntity
  8
0
  6
Continuous
 62
     7
370
    25
100
AcDbLine
 10
756.3198489427
 20
1126.960231378
 30
0.0
 11
756.3198489427
 21
1126.860231378
 31
0.0
  0
LINE
  5
31C
330
1F
100
AcDbEntity
  8
0
  6
Continuous
 62
     7
370
    25
100
AcDbLine
 10
755.5198489427
 20
1126.960231378
 30
0.0
 11
755.5198489427
 21
1126.860231378
 31
0.0
  0
LINE
  5
31D
330
1F
100
AcDbEntity
  8
0
  6
Continuous
 62
     7
370
    25
100
AcDbLine
 10
756.3198489427
 20
1126.860231378
 30
0.0
 11
755.5198489427
 21
1126.860231378
 31
0.0
  0
LINE
  5
31E
330
1F
100
AcDbEntity
  8
0
  6
Continuous
 62
     7
370
    25
100
AcDbLine
 10
755.5198489427
 20
1126.860231378
 30
0.0
 11
755.5198489427
 21
1126.460231378
 31
0.0
  0
LINE
  5
31F
330
1F
100
AcDbEntity
  8
0
  6
Continuous
 62
     7
370
    25
100
AcDbLine
 10
756.3198489427
 20
1126.460231378
 30
0.0
 11
756.3198489427
 21
1126.860231378
 31
0.0
  0
LINE
  5
320
330
1F
100
AcDbEntity
  8
0
  6
Continuous
 62
     7
370
    25
100
AcDbLine
 10
752.593372749
 20
1084.8359987946
 30
0.0
 11
706.0912004097
 21
1072.37577927
 31
0.0
  0
LINE
  5
321
330
1F
100
AcDbEntity
  8
0
  6
Continuous
 62
     7
370
    25
100
AcDbLine
 10
752.9816013167
 20
1083.3871100552
 30
0.0
 11
706.4794289773
 21
1070.9268905305
 31
0.0
  0
LINE
  5
322
330
1F
100
AcDbEntity
  8
0
  6
Continuous
 62
     7
370
    25
100
AcDbLine
 10
753.5198489427
 20
1122.0842568605
 30
0.0
 11
753.5198489427
 21
1086.0434060775
 31
0.0
  0
LINE
  5
323
330
1F
100
AcDbEntity
  8
0
  6
Continuous
 62
     7
370
    25
100
AcDbLine
 10
755.0198489427
 20
1122.0842568605
 30
0.0
 11
755.0198489427
 21
1086.0434060775
 31
0.0
  0
LINE
  5
324
330
1F
100
AcDbEntity
  8
0
  6
Continuous
 62
     7
370
    25
100
AcDbLine
 10
755.0198489427
 20
989.8869540337
 30
0.0
 11
755.0198489427
 21
968.9354780194
 31
0.0
  0
LINE
  5
325
330
1F
100
AcDbEntity
  8
0
  6
Continuous
 62
     7
370
    25
100
AcDbLine
 10
753.5198489427
 20
989.8869540337
 30
0.0
 11
753.5198489427
 21
968.9354780194
 31
0.0
  0
LINE
  5
326
330
1F
100
AcDbEntity
  8
0
  6
Continuous
 62
     7
370
    25
100
AcDbLine
 10
700.4877873357
 20
1000.2868118765
 30
0.0
 11
752.4869091648
 21
991.1179637249
 31
0.0
  0
LINE
  5
327
330
1F
100
AcDbEntity
  8
0
  6
Continuous
 62
     7
370
    25
100
AcDbLine
 10
700.7482596022
 20
1001.7640235061
 30
0.0
 11
752.7473814313
 21
992.5951753544
 31
0.0
  0
ARC
  5
328
330
1F
100
AcDbEntity
  8
0
  6
Continuous
 62
     7
370
    25
100
AcDbCircle
 10
752.2698489427
 20
989.8869540337
 30
0.0
 40
1.250000000000156
100
AcDbArc
 50
0.0
 51
80.0
  0
ARC
  5
329
330
1F
100
AcDbEntity
  8
0
  6
Continuous
 62
     7
370
    25
100
AcDbCircle
 10
752.2698489427
 20
989.8869540337
 30
0.0
 40
2.750000000000114
100
AcDbArc
 50
0.0
 51
80.0
  0
LINE
  5
32A
330
1F
100
AcDbEntity
  8
0
  6
Continuous
 62
     7
370
    25
100
AcDbLine
 10
753.5198489427
 20
1127.0842568605
 30
0.0
 11
755.0198489427
 21
1127.0842568605
 31
0.0
  0
LINE
  5
32B
330
1F
100
AcDbEntity
  8
0
  6
Continuous
 62
     7
370
    25
100
AcDbLine
 10
753.5198489427
 20
1122.0842568605
 30
0.0
 11
753.5198489427
 21
1127.0842568605
 31
0.0
  0
LINE
  5
32C
330
1F
100
AcDbEntity
  8
0
  6
Continuous
 62
     7
370
    25
100
AcDbLine
 10
755.0198489427
 20
1127.0842568605
 30
0.0
 11
755.0198489427
 21
1122.0842568605
 31
0.0
  0
LINE
  5
32D
330
1F
100
AcDbEntity
  8
0
  6
Continuous
 62
     7
370
    25
100
AcDbLine
 10
755.0198489427
 20
968.9354780194
 30
0.0
 11
755.0198489427
 21
966.9354780194
 31
0.0
  0
LINE
  5
32E
330
1F
100
AcDbEntity
  8
0
  6
Continuous
 62
     7
370
    25
100
AcDbLine
 10
755.0198489427
 20
966.9354780194
 30
0.0
 11
753.5198489427
 21
966.9354780194
 31
0.0
  0
LINE
  5
32F
330
1F
100
AcDbEntity
  8
0
  6
Continuous
 62
     7
370
    25
100
AcDbLine
 10
753.5198489427
 20
966.9354780194
 30
0.0
 11
753.5198489427
 21
968.9354780194
 31
0.0
  0
ARC
  5
330
330
1F
100
AcDbEntity
  8
0
  6
Continuous
 62
     7
370
    25
100
AcDbCircle
 10
752.2698489427
 20
1086.0434060775
 30
0.0
 40
1.250000000000114
100
AcDbArc
 50
285.0
 51
0.0
  0
ARC
  5
331
330
1F
100
AcDbEntity
  8
0
  6
Continuous
 62
     7
370
    25
100
AcDbCircle
 10
752.2698489427
 20
1086.0434060775
 30
0.0
 40
2.750000000000114
100
AcDbArc
 50
285.0
 51
0.0
  0
ARC
  5
332
330
1F
100
AcDbEntity
  8
0
  6
Continuous
 62
     7
370
    25
100
AcDbCircle
 10
700.9653198243
 20
1002.9950331973
 30
0.0
 40
2.750000000000127
100
AcDbArc
 50
175.0
 51
260.0
  0
ARC
  5
333
330
1F
100
AcDbEntity
  8
0
  6
Continuous
 62
     7
370
    25
100
AcDbCircle
 10
700.9653198243
 20
1002.9950331973
 30
0.0
 40
1.250000000000044
100
AcDbArc
 50
175.0
 51
260.0
  0
LINE
  5
334
330
1F
100
AcDbEntity
  8
0
  6
Continuous
 62
     7
370
    25
100
AcDbLine
 10
704.0634173639
 20
1069.9591615402
 30
0.0
 11
703.1381738683
 21
1059.3835799924
 31
0.0
  0
LINE
  5
335
330
1F
100
AcDbEntity
  8
0
  6
Continuous
 62
     7
370
    25
100
AcDbLine
 10
701.9461890045
 20
1045.7591306551
 30
0.0
 11
698.2257844045
 21
1003.2347114899
 31
0.0
  0
LINE
  5
336
330
1F
100
AcDbEntity
  8
0
  6
Continuous
 62
     7
370
    25
100
AcDbLine
 10
705.5577094111
 20
1069.8284279261
 30
0.0
 11
704.6867385611
 21
1059.8731855568
 31
0.0
  0
LINE
  5
337
330
1F
100
AcDbEntity
  8
0
  6
Continuous
 62
     7
370
    25
100
AcDbLine
 10
703.524845229
 20
1046.5926840011
 30
0.0
 11
699.7200764517
 21
1003.1039778758
 31
0.0
  0
ARC
  5
338
330
1F
100
AcDbEntity
  8
0
  6
Continuous
 62
     7
370
    25
100
AcDbCircle
 10
706.8029527837
 20
1069.7194832477
 30
0.0
 40
1.250000000000017
100
AcDbArc
 50
105.0
 51
175.0
  0
ARC
  5
339
330
1F
100
AcDbEntity
  8
0
  6
Continuous
 62
     7
370
    25
100
AcDbCircle
 10
706.8029527837
 20
1069.7194832477
 30
0.0
 40
2.750000000000004
100
AcDbArc
 50
105.0
 51
175.0
  0
LINE
  5
33A
330
1F
100
AcDbEntity
  8
0
  6
Continuous
 62
     7
370
    25
100
AcDbLine
 10
745.5198489427
 20
1100.9170347924
 30
0.0
 11
745.5198489427
 21
1100.9178139609
 31
0.0
  0
LINE
  5
33B
330
1F
100
AcDbEntity
  8
0
  6
Continuous
 62
     7
370
    25
100
AcDbLine
 10
745.9878810351
 20
1100.4427523746
 30
0.0
 11
745.5198489427
 21
1100.9170347924
 31
0.0
  0
LINE
  5
33C
330
1F
100
AcDbEntity
  8
0
  6
Continuous
 62
     7
370
    25
100
AcDbLine
 10
745.987881034
 20
1100.4427523342
 30
0.0
 11
742.0518168322
 21
1100.4427523559
 31
0.0
  0
LINE
  5
33D
330
1F
100
AcDbEntity
  8
0
  6
Continuous
 62
     7
370
    25
100
AcDbLine
 10
742.5198489427
 20
1100.9170347924
 30
0.0
 11
742.0518168322
 21
1100.4427523559
 31
0.0
  0
LINE
  5
33E
330
1F
100
AcDbEntity
  8
0
  6
Continuous
 62
     7
370
    25
100
AcDbLine
 10
742.5198489427
 20
1100.9178139609
 30
0.0
 11
742.5198489427
 21
1100.9170347924
 31
0.0
  0
LINE
  5
33F
330
1F
100
AcDbEntity
  8
0
  6
Continuous
 62
     7
370
    25
100
AcDbLine
 10
745.5198489427
 20
1100.9178139609
 30
0.0
 11
742.5198489427
 21
1100.9178139609
 31
0.0
  0
LINE
  5
340
330
1F
100
AcDbEntity
  8
0
  6
Continuous
 62
     7
370
    25
100
AcDbLine
 10
745.5198489427
 20
1100.9212655972
 30
0.0
 11
745.5198489427
 21
1100.9220018657
 31
0.0
  0
LINE
  5
341
330
1F
100
AcDbEntity
  8
0
  6
Continuous
 62
     7
370
    25
100
AcDbLine
 10
745.5198489427
 20
1100.9212655972
 30
0.0
 11
742.5198489427
 21
1100.9212655972
 31
0.0
  0
LINE
  5
342
330
1F
100
AcDbEntity
  8
0
  6
Continuous
 62
     7
370
    25
100
AcDbLine
 10
742.5198489427
 20
1100.9220018657
 30
0.0
 11
742.5198489427
 21
1100.9212655972
 31
0.0
  0
SPLINE
  5
343
330
1F
100
AcDbEntity
  8
0
  6
Continuous
 62
     7
370
    25
100
AcDbSpline
210
0.0
220
0.0
230
1.0
 70
     8
 71
     3
 72
     9
 73
     5
 74
     0
 42
0.000000001
 43
0.00000001
 40
0.0
 40
0.0
 40
0.0
 40
0.0
 40
0.7418901379650148
 40
0.9999999999999999
 40
0.9999999999999999
 40
0.9999999999999999
 40
0.9999999999999999
 10
742.0518168322267
 20
1101.395219167259
 30
0.0
 10
742.1663532832628
 20
1101.27759467239
 30
0.0
 10
742.3207379356188
 20
1101.1190476196
 30
0.0
 10
742.4789999547489
 20
1100.962427152811
 30
0.0
 10
742.5198489426718
 20
1100.922001865737
 30
0.0
  0
LINE
  5
344
330
1F
100
AcDbEntity
  8
0
  6
Continuous
 62
     7
370
    25
100
AcDbLine
 10
742.0518168322
 20
1101.3952191673
 30
0.0
 11
745.987881034
 21
1101.3952191474
 31
0.0
  0
SPLINE
  5
345
330
1F
100
AcDbEntity
  8
0
  6
Continuous
 62
     7
370
    25
100
AcDbSpline
210
0.0
220
0.0
230
1.0
 70
     8
 71
     3
 72
     9
 73
     5
 74
     0
 42
0.000000001
 43
0.00000001
 40
0.0
 40
0.0
 40
0.0
 40
0.0
 40
0.258109883462665
 40
1.0
 40
1.0
 40
1.0
 40
1.0
 10
745.5198489426718
 20
1100.922001865737
 30
0.0
 10
745.5606979305943
 20
1100.962427152812
 30
0.0
 10
745.7189599365837
 20
1101.119047606598
 30
0.0
 10
745.8733445764658
 20
1101.277594646058
 30
0.0
 10
745.9878810149397
 20
1101.395219127639
 30
0.0
  0
LINE
  5
346
330
1F
100
AcDbEntity
  8
0
  6
Continuous
 62
     7
370
    25
100
AcDbLine
 10
742.5198489427
 20
1100.9212655972
 30
0.0
 11
742.5198489427
 21
1100.9178139609
 31
0.0
  0
LINE
  5
347
330
1F
100
AcDbEntity
  8
0
  6
Continuous
 62
     7
370
    25
100
AcDbLine
 10
745.5198489427
 20
1100.9178139609
 30
0.0
 11
745.5198489427
 21
1100.9212655972
 31
0.0
  0
LINE
  5
348
330
1F
100
AcDbEntity
  8
0
  6
Continuous
 62
     7
370
    25
100
AcDbLine
 10
745.9878810351
 20
1101.3952191878
 30
0.0
 11
745.5188821524
 21
1101.916717288
 31
0.0
  0
LINE
  5
349
330
1F
100
AcDbEntity
  8
0
  6
Continuous
 62
     7
370
    25
100
AcDbLine
 10
745.5188872671
 20
1101.9197683783
 30
0.0
 11
745.9878810149
 21
1102.3441707431
 31
0.0
  0
LINE
  5
34A
330
1F
100
AcDbEntity
  8
0
  6
Continuous
 62
     7
370
    25
100
AcDbLine
 10
745.9878810351
 20
1102.3441708007
 30
0.0
 11
745.5188821524
 21
1102.9067190137
 31
0.0
  0
LINE
  5
34B
330
1F
100
AcDbEntity
  8
0
  6
Continuous
 62
     7
370
    25
100
AcDbLine
 10
745.5188872739
 20
1102.9097276035
 30
0.0
 11
745.9878810149
 21
1103.2801255479
 31
0.0
  0
LINE
  5
34C
330
1F
100
AcDbEntity
  8
0
  6
Continuous
 62
     7
370
    25
100
AcDbLine
 10
745.9878810351
 20
1103.2801256025
 30
0.0
 11
745.5188821524
 21
1103.8781031325
 31
0.0
  0
LINE
  5
34D
330
1F
100
AcDbEntity
  8
0
  6
Continuous
 62
     7
370
    25
100
AcDbLine
 10
745.5188872671
 20
1103.8810391427
 30
0.0
 11
745.9878810149
 21
1104.1937317912
 31
0.0
  0
LINE
  5
34E
330
1F
100
AcDbEntity
  8
0
  6
Continuous
 62
     7
370
    25
100
AcDbLine
 10
745.9878810351
 20
1104.1937318421
 30
0.0
 11
745.5188821523
 21
1104.8211638954
 31
0.0
  0
LINE
  5
34F
330
1F
100
AcDbEntity
  8
0
  6
Continuous
 62
     7
370
    25
100
AcDbLine
 10
745.5188872739
 20
1104.8239980108
 30
0.0
 11
745.9878810149
 21
1105.0758610213
 31
0.0
  0
LINE
  5
350
330
1F
100
AcDbEntity
  8
0
  6
Continuous
 62
     7
370
    25
100
AcDbLine
 10
745.9878810351
 20
1105.0758610681
 30
0.0
 11
745.5188821523
 21
1105.7264785509
 31
0.0
  0
LINE
  5
351
330
1F
100
AcDbEntity
  8
0
  6
Continuous
 62
     7
370
    25
100
AcDbLine
 10
745.5188872671
 20
1105.7291824314
 30
0.0
 11
745.9878810149
 21
1105.9176992946
 31
0.0
  0
LINE
  5
352
330
1F
100
AcDbEntity
  8
0
  6
Continuous
 62
     7
370
    25
100
AcDbLine
 10
745.9878810351
 20
1105.9176993367
 30
0.0
 11
745.5188821523
 21
1106.5850014942
 31
0.0
  0
LINE
  5
353
330
1F
100
AcDbEntity
  8
0
  6
Continuous
 62
     7
370
    25
100
AcDbLine
 10
745.5188872671
 20
1106.587548135
 30
0.0
 11
745.9878810149
 21
1106.7108352412
 31
0.0
  0
LINE
  5
354
330
1F
100
AcDbEntity
  8
0
  6
Continuous
 62
     7
370
    25
100
AcDbLine
 10
745.9878810351
 20
1106.7108352783
 30
0.0
 11
745.5188821523
 21
1107.388154648
 31
0.0
  0
LINE
  5
355
330
1F
100
AcDbEntity
  8
0
  6
Continuous
 62
     7
370
    25
100
AcDbLine
 10
745.5188872739
 20
1107.3905186175
 30
0.0
 11
745.9878810149
 21
1107.4473441091
 31
0.0
  0
LINE
  5
356
330
1F
100
AcDbEntity
  8
0
  6
Continuous
 62
     7
370
    25
100
AcDbLine
 10
745.9878810351
 20
1107.4473441407
 30
0.0
 11
745.5188821523
 21
1108.1279131713
 31
0.0
  0
LINE
  5
357
330
1F
100
AcDbEntity
  8
0
  6
Continuous
 62
     7
370
    25
100
AcDbLine
 10
745.5188872671
 20
1108.1300708223
 30
0.0
 11
745.9878810149
 21
1108.119866945
 31
0.0
  0
LINE
  5
358
330
1F
100
AcDbEntity
  8
0
  6
Continuous
 62
     7
370
    25
100
AcDbLine
 10
745.9878810351
 20
1108.1198669709
 30
0.0
 11
745.5188821524
 21
1108.7968856414
 31
0.0
  0
LINE
  5
359
330
1F
100
AcDbEntity
  8
0
  6
Continuous
 62
     7
370
    25
100
AcDbLine
 10
745.5188872671
 20
1108.7988154292
 30
0.0
 11
745.9878810149
 21
1108.7216841231
 31
0.0
  0
LINE
  5
35A
330
1F
100
AcDbEntity
  8
0
  6
Continuous
 62
     7
370
    25
100
AcDbLine
 10
745.9878810351
 20
1108.721684143
 30
0.0
 11
745.5188821524
 21
1109.3883879068
 31
0.0
  0
LINE
  5
35B
330
1F
100
AcDbEntity
  8
0
  6
Continuous
 62
     7
370
    25
100
AcDbLine
 10
745.5188872739
 20
1109.3900705643
 30
0.0
 11
745.9878810149
 21
1109.2467824851
 31
0.0
  0
LINE
  5
35C
330
1F
100
AcDbEntity
  8
0
  6
Continuous
 62
     7
370
    25
100
AcDbLine
 10
745.9878810351
 20
1109.2467824987
 30
0.0
 11
745.5188821523
 21
1109.8965098724
 31
0.0
  0
LINE
  5
35D
330
1F
100
AcDbEntity
  8
0
  6
Continuous
 62
     7
370
    25
100
AcDbLine
 10
745.5188872671
 20
1109.8979285573
 30
0.0
 11
745.9878810149
 21
1109.6899154216
 31
0.0
  0
LINE
  5
35E
330
1F
100
AcDbEntity
  8
0
  6
Continuous
 62
     7
370
    25
100
AcDbLine
 10
745.9878810351
 20
1109.689915429
 30
0.0
 11
745.5188821523
 21
1110.3161745512
 31
0.0
  0
LINE
  5
35F
330
1F
100
AcDbEntity
  8
0
  6
Continuous
 62
     7
370
    25
100
AcDbLine
 10
745.5188872671
 20
1110.3173151035
 30
0.0
 11
745.9878810149
 21
1110.046655295
 31
0.0
  0
LINE
  5
360
330
1F
100
AcDbEntity
  8
0
  6
Continuous
 62
     7
370
    25
100
AcDbLine
 10
745.9878810351
 20
1110.0466552959
 30
0.0
 11
745.5188821523
 21
1110.6431887926
 31
0.0
  0
LINE
  5
361
330
1F
100
AcDbEntity
  8
0
  6
Continuous
 62
     7
370
    25
100
AcDbLine
 10
745.5188872671
 20
1110.6440398162
 30
0.0
 11
745.9878810149
 21
1110.3134376782
 31
0.0
  0
LINE
  5
362
330
1F
100
AcDbEntity
  8
0
  6
Continuous
 62
     7
370
    25
100
AcDbLine
 10
745.9878810351
 20
1110.3134376728
 30
0.0
 11
745.5188821524
 21
1110.8742851782
 31
0.0
  0
LINE
  5
363
330
1F
100
AcDbEntity
  8
0
  6
Continuous
 62
     7
370
    25
100
AcDbLine
 10
745.5188872672
 20
1110.8748381702
 30
0.0
 11
745.9878810149
 21
1110.48759697
 31
0.0
  0
LINE
  5
364
330
1F
100
AcDbEntity
  8
0
  6
Continuous
 62
     7
370
    25
100
AcDbLine
 10
745.9878810351
 20
1110.4875969582
 30
0.0
 11
745.5188821524
 21
1111.0071546696
 31
0.0
  0
LINE
  5
365
330
1F
100
AcDbEntity
  8
0
  6
Continuous
 62
     7
370
    25
100
AcDbLine
 10
745.5188872672
 20
1111.0074041046
 30
0.0
 11
745.9135444329
 21
1110.6386622997
 31
0.0
  0
LINE
  5
366
330
1F
100
AcDbEntity
  8
0
  6
Continuous
 62
     7
370
    25
100
AcDbLine
 10
745.9135444523
 20
1110.638662283
 30
0.0
 11
745.5188821524
 21
1111.0418570508
 31
0.0
  0
LINE
  5
367
330
1F
100
AcDbEntity
  8
0
  6
Continuous
 62
     7
370
    25
100
AcDbLine
 10
745.5188872672
 20
1091.0535444028
 30
0.0
 11
745.9878810149
 21
1091.5142380519
 31
0.0
  0
LINE
  5
368
330
1F
100
AcDbEntity
  8
0
  6
Continuous
 62
     7
370
    25
100
AcDbLine
 10
745.9878810351
 20
1091.5142380726
 30
0.0
 11
745.5188821523
 21
1091.0619142816
 31
0.0
  0
LINE
  5
369
330
1F
100
AcDbEntity
  8
0
  6
Continuous
 62
     7
370
    25
100
AcDbLine
 10
745.5188872672
 20
1091.0620981991
 30
0.0
 11
745.9878810149
 21
1091.5691916681
 31
0.0
  0
LINE
  5
36A
330
1F
100
AcDbEntity
  8
0
  6
Continuous
 62
     7
370
    25
100
AcDbLine
 10
745.9878810351
 20
1091.5691916947
 30
0.0
 11
745.5188821523
 21
1091.1698936586
 31
0.0
  0
LINE
  5
36B
330
1F
100
AcDbEntity
  8
0
  6
Continuous
 62
     7
370
    25
100
AcDbLine
 10
745.5188872739
 20
1091.1703819122
 30
0.0
 11
745.9878810149
 21
1091.7188085029
 31
0.0
  0
LINE
  5
36C
330
1F
100
AcDbEntity
  8
0
  6
Continuous
 62
     7
370
    25
100
AcDbLine
 10
745.9878810351
 20
1091.7188085352
 30
0.0
 11
745.5188821523
 21
1091.3765259078
 31
0.0
  0
LINE
  5
36D
330
1F
100
AcDbEntity
  8
0
  6
Continuous
 62
     7
370
    25
100
AcDbLine
 10
745.5188872671
 20
1091.3773136432
 30
0.0
 11
745.9878810149
 21
1091.9615936343
 31
0.0
  0
LINE
  5
36E
330
1F
100
AcDbEntity
  8
0
  6
Continuous
 62
     7
370
    25
100
AcDbLine
 10
745.9878810351
 20
1091.961593672
 30
0.0
 11
745.5188821523
 21
1091.6797464283
 31
0.0
  0
LINE
  5
36F
330
1F
100
AcDbEntity
  8
0
  6
Continuous
 62
     7
370
    25
100
AcDbLine
 10
745.5188872739
 20
1091.6808257525
 30
0.0
 11
745.9878810149
 21
1092.2951212337
 31
0.0
  0
LINE
  5
370
330
1F
100
AcDbEntity
  8
0
  6
Continuous
 62
     7
370
    25
100
AcDbLine
 10
745.9878810351
 20
1092.2951212764
 30
0.0
 11
745.5188821523
 21
1092.0765255408
 31
0.0
  0
LINE
  5
371
330
1F
100
AcDbEntity
  8
0
  6
Continuous
 62
     7
370
    25
100
AcDbLine
 10
745.5188872671
 20
1092.0778856896
 30
0.0
 11
745.9878810149
 21
1092.7160588034
 31
0.0
  0
LINE
  5
372
330
1F
100
AcDbEntity
  8
0
  6
Continuous
 62
     7
370
    25
100
AcDbLine
 10
745.9878810351
 20
1092.7160588506
 30
0.0
 11
745.5188821523
 21
1092.5628987596
 31
0.0
  0
LINE
  5
373
330
1F
100
AcDbEntity
  8
0
  6
Continuous
 62
     7
370
    25
100
AcDbLine
 10
745.5188872739
 20
1092.564526125
 30
0.0
 11
745.9878810149
 21
1093.2202004744
 31
0.0
  0
LINE
  5
374
330
1F
100
AcDbEntity
  8
0
  6
Continuous
 62
     7
370
    25
100
AcDbLine
 10
745.9878810351
 20
1093.2202005257
 30
0.0
 11
745.5188821524
 21
1093.1340064042
 31
0.0
  0
LINE
  5
375
330
1F
100
AcDbEntity
  8
0
  6
Continuous
 62
     7
370
    25
100
AcDbLine
 10
745.5188872739
 20
1093.1358847351
 30
0.0
 11
745.9878810149
 21
1093.8025090297
 31
0.0
  0
LINE
  5
376
330
1F
100
AcDbEntity
  8
0
  6
Continuous
 62
     7
370
    25
100
AcDbLine
 10
745.9878810351
 20
1093.8025090847
 30
0.0
 11
745.5188821523
 21
1093.7841421558
 31
0.0
  0
LINE
  5
377
330
1F
100
AcDbEntity
  8
0
  6
Continuous
 62
     7
370
    25
100
AcDbLine
 10
745.5188872671
 20
1093.7862526896
 30
0.0
 11
745.9878810149
 21
1094.4571662349
 31
0.0
  0
LINE
  5
378
330
1F
100
AcDbEntity
  8
0
  6
Continuous
 62
     7
370
    25
100
AcDbLine
 10
745.9878810351
 20
1094.4571662929
 30
0.0
 11
745.5188821524
 21
1094.506810073
 31
0.0
  0
LINE
  5
379
330
1F
100
AcDbEntity
  8
0
  6
Continuous
 62
     7
370
    25
100
AcDbLine
 10
745.5188872671
 20
1094.5091317154
 30
0.0
 11
745.9878810149
 21
1095.1776309714
 31
0.0
  0
LINE
  5
37A
330
1F
100
AcDbEntity
  8
0
  6
Continuous
 62
     7
370
    25
100
AcDbLine
 10
745.9878810351
 20
1095.1776310319
 30
0.0
 11
745.5188821523
 21
1095.2947894967
 31
0.0
  0
LINE
  5
37B
330
1F
100
AcDbEntity
  8
0
  6
Continuous
 62
     7
370
    25
100
AcDbLine
 10
745.5188872671
 20
1095.2972990507
 30
0.0
 11
745.9878810149
 21
1095.9567045939
 31
0.0
  0
LINE
  5
37C
330
1F
100
AcDbEntity
  8
0
  6
Continuous
 62
     7
370
    25
100
AcDbLine
 10
745.9878810351
 20
1095.9567046562
 30
0.0
 11
745.5188821523
 21
1096.1402071971
 31
0.0
  0
LINE
  5
37D
330
1F
100
AcDbEntity
  8
0
  6
Continuous
 62
     7
370
    25
100
AcDbLine
 10
745.5188872739
 20
1096.1428795874
 30
0.0
 11
745.9878810149
 21
1096.7866028561
 31
0.0
  0
LINE
  5
37E
330
1F
100
AcDbEntity
  8
0
  6
Continuous
 62
     7
370
    25
100
AcDbLine
 10
745.9878810351
 20
1096.7866029197
 30
0.0
 11
745.5188821524
 21
1097.0346160398
 31
0.0
  0
LINE
  5
37F
330
1F
100
AcDbEntity
  8
0
  6
Continuous
 62
     7
370
    25
100
AcDbLine
 10
745.5188872739
 20
1097.037424567
 30
0.0
 11
745.9878810149
 21
1097.659033689
 31
0.0
  0
LINE
  5
380
330
1F
100
AcDbEntity
  8
0
  6
Continuous
 62
     7
370
    25
100
AcDbLine
 10
745.9878810351
 20
1097.6590337532
 30
0.0
 11
745.5188821523
 21
1097.9690793875
 31
0.0
  0
LINE
  5
381
330
1F
100
AcDbEntity
  8
0
  6
Continuous
 62
     7
370
    25
100
AcDbLine
 10
745.5188872739
 20
1097.9719959897
 30
0.0
 11
745.9878810149
 21
1098.5652800521
 31
0.0
  0
LINE
  5
382
330
1F
100
AcDbEntity
  8
0
  6
Continuous
 62
     7
370
    25
100
AcDbLine
 10
745.9878810351
 20
1098.5652801162
 30
0.0
 11
745.5188821523
 21
1098.9342603913
 31
0.0
  0
LINE
  5
383
330
1F
100
AcDbEntity
  8
0
  6
Continuous
 62
     7
370
    25
100
AcDbLine
 10
745.5188872739
 20
1098.9372559267
 30
0.0
 11
745.9878810149
 21
1099.4962870312
 31
0.0
  0
LINE
  5
384
330
1F
100
AcDbEntity
  8
0
  6
Continuous
 62
     7
370
    25
100
AcDbLine
 10
745.9878810351
 20
1099.4962870947
 30
0.0
 11
745.5188821523
 21
1099.9205152815
 31
0.0
  0
LINE
  5
385
330
1F
100
AcDbEntity
  8
0
  6
Continuous
 62
     7
370
    25
100
AcDbLine
 10
745.5188872739
 20
1099.9235598198
 30
0.0
 11
745.9878810149
 21
1100.4427523125
 31
0.0
  0
LINE
  5
386
330
1F
100
AcDbEntity
  8
0
  6
Continuous
 62
     7
370
    25
100
AcDbLine
 10
746.0198489427
 20
1101.0434060775
 30
0.0
 11
746.0198489427
 21
1091.5459217744
 31
0.0
  0
LINE
  5
387
330
1F
100
AcDbEntity
  8
0
  6
Continuous
 62
     7
370
    25
100
AcDbLine
 10
746.0198489427
 20
1110.5408903805
 30
0.0
 11
746.0198489427
 21
1101.0434060775
 31
0.0
  0
LINE
  5
388
330
1F
100
AcDbEntity
  8
0
  6
Continuous
 62
     7
370
    25
100
AcDbLine
 10
742.5208157329
 20
1111.0418570507
 30
0.0
 11
742.1261534139
 21
1110.638662263
 31
0.0
  0
LINE
  5
389
330
1F
100
AcDbEntity
  8
0
  6
Continuous
 62
     7
370
    25
100
AcDbLine
 10
742.1261534139
 20
1110.638662263
 30
0.0
 11
742.5208106183
 21
1111.0074041046
 31
0.0
  0
LINE
  5
38A
330
1F
100
AcDbEntity
  8
0
  6
Continuous
 62
     7
370
    25
100
AcDbLine
 10
742.5208157266
 20
1111.0071546817
 30
0.0
 11
742.0518168322
 21
1110.4875969377
 31
0.0
  0
LINE
  5
38B
330
1F
100
AcDbEntity
  8
0
  6
Continuous
 62
     7
370
    25
100
AcDbLine
 10
742.0518168322
 20
1110.4875969377
 30
0.0
 11
742.5208106182
 21
1110.8748381702
 31
0.0
  0
LINE
  5
38C
330
1F
100
AcDbEntity
  8
0
  6
Continuous
 62
     7
370
    25
100
AcDbLine
 10
742.5208157329
 20
1110.8742851782
 30
0.0
 11
742.0518168322
 21
1110.3134376506
 31
0.0
  0
LINE
  5
38D
330
1F
100
AcDbEntity
  8
0
  6
Continuous
 62
     7
370
    25
100
AcDbLine
 10
742.0518168322
 20
1110.3134376506
 30
0.0
 11
742.5208106183
 21
1110.6440398163
 31
0.0
  0
LINE
  5
38E
330
1F
100
AcDbEntity
  8
0
  6
Continuous
 62
     7
370
    25
100
AcDbLine
 10
742.5208157329
 20
1110.6431887925
 30
0.0
 11
742.0518168322
 21
1110.0466552724
 31
0.0
  0
LINE
  5
38F
330
1F
100
AcDbEntity
  8
0
  6
Continuous
 62
     7
370
    25
100
AcDbLine
 10
742.0518168322
 20
1110.0466552724
 30
0.0
 11
742.5208106182
 21
1110.3173151035
 31
0.0
  0
LINE
  5
390
330
1F
100
AcDbEntity
  8
0
  6
Continuous
 62
     7
370
    25
100
AcDbLine
 10
742.5208157266
 20
1110.3161745604
 30
0.0
 11
742.0518168322
 21
1109.6899154042
 31
0.0
  0
LINE
  5
391
330
1F
100
AcDbEntity
  8
0
  6
Continuous
 62
     7
370
    25
100
AcDbLine
 10
742.0518168322
 20
1109.6899154042
 30
0.0
 11
742.5208106183
 21
1109.8979285574
 31
0.0
  0
LINE
  5
392
330
1F
100
AcDbEntity
  8
0
  6
Continuous
 62
     7
370
    25
100
AcDbLine
 10
742.5208157329
 20
1109.8965098723
 30
0.0
 11
742.0518168322
 21
1109.2467824731
 31
0.0
  0
LINE
  5
393
330
1F
100
AcDbEntity
  8
0
  6
Continuous
 62
     7
370
    25
100
AcDbLine
 10
742.0518168322
 20
1109.2467824731
 30
0.0
 11
742.5208106182
 21
1109.3900705494
 31
0.0
  0
LINE
  5
394
330
1F
100
AcDbEntity
  8
0
  6
Continuous
 62
     7
370
    25
100
AcDbLine
 10
742.5208157266
 20
1109.3883879139
 30
0.0
 11
742.0518168322
 21
1108.7216841167
 31
0.0
  0
LINE
  5
395
330
1F
100
AcDbEntity
  8
0
  6
Continuous
 62
     7
370
    25
100
AcDbLine
 10
742.0518168322
 20
1108.7216841167
 30
0.0
 11
742.5208106183
 21
1108.7988154292
 31
0.0
  0
LINE
  5
396
330
1F
100
AcDbEntity
  8
0
  6
Continuous
 62
     7
370
    25
100
AcDbLine
 10
742.5208157329
 20
1108.7968856414
 30
0.0
 11
742.0518168322
 21
1108.1198669442
 31
0.0
  0
LINE
  5
397
330
1F
100
AcDbEntity
  8
0
  6
Continuous
 62
     7
370
    25
100
AcDbLine
 10
742.0518168322
 20
1108.1198669442
 30
0.0
 11
742.5208106182
 21
1108.1300708223
 31
0.0
  0
LINE
  5
398
330
1F
100
AcDbEntity
  8
0
  6
Continuous
 62
     7
370
    25
100
AcDbLine
 10
742.5208157266
 20
1108.1279131756
 30
0.0
 11
742.0518168322
 21
1107.4473441139
 31
0.0
  0
LINE
  5
399
330
1F
100
AcDbEntity
  8
0
  6
Continuous
 62
     7
370
    25
100
AcDbLine
 10
742.0518168322
 20
1107.4473441139
 30
0.0
 11
742.5208106183
 21
1107.3905186038
 31
0.0
  0
LINE
  5
39A
330
1F
100
AcDbEntity
  8
0
  6
Continuous
 62
     7
370
    25
100
AcDbLine
 10
742.5208157329
 20
1107.3881546478
 30
0.0
 11
742.0518168322
 21
1106.7108352515
 31
0.0
  0
LINE
  5
39B
330
1F
100
AcDbEntity
  8
0
  6
Continuous
 62
     7
370
    25
100
AcDbLine
 10
742.0518168322
 20
1106.7108352515
 30
0.0
 11
742.5208106183
 21
1106.587548135
 31
0.0
  0
LINE
  5
39C
330
1F
100
AcDbEntity
  8
0
  6
Continuous
 62
     7
370
    25
100
AcDbLine
 10
742.5208157329
 20
1106.5850014941
 30
0.0
 11
742.0518168322
 21
1105.9176993103
 31
0.0
  0
LINE
  5
39D
330
1F
100
AcDbEntity
  8
0
  6
Continuous
 62
     7
370
    25
100
AcDbLine
 10
742.0518168322
 20
1105.9176993103
 30
0.0
 11
742.5208106183
 21
1105.7291824314
 31
0.0
  0
LINE
  5
39E
330
1F
100
AcDbEntity
  8
0
  6
Continuous
 62
     7
370
    25
100
AcDbLine
 10
742.5208157329
 20
1105.7264785507
 30
0.0
 11
742.0518168322
 21
1105.0758610424
 31
0.0
  0
LINE
  5
39F
330
1F
100
AcDbEntity
  8
0
  6
Continuous
 62
     7
370
    25
100
AcDbLine
 10
742.0518168322
 20
1105.0758610424
 30
0.0
 11
742.5208106182
 21
1104.8239979995
 31
0.0
  0
LINE
  5
3A0
330
1F
100
AcDbEntity
  8
0
  6
Continuous
 62
     7
370
    25
100
AcDbLine
 10
742.5208157329
 20
1104.8211638953
 30
0.0
 11
742.0518168322
 21
1104.1937318173
 31
0.0
  0
LINE
  5
3A1
330
1F
100
AcDbEntity
  8
0
  6
Continuous
 62
     7
370
    25
100
AcDbLine
 10
742.0518168322
 20
1104.1937318173
 30
0.0
 11
742.5208106183
 21
1103.8810391426
 31
0.0
  0
SPLINE
  5
3A2
330
1F
100
AcDbEntity
  8
0
  6
Continuous
 62
     7
370
    25
100
AcDbSpline
210
0.0
220
0.0
230
1.0
 70
     8
 71
     3
 72
     9
 73
     5
 74
     0
 42
0.000000001
 43
0.00000001
 40
0.0
 40
0.0
 40
0.0
 40
0.0
 40
0.499962775429669
 40
1.0
 40
1.0
 40
1.0
 40
1.0
 10
742.5208157817912
 20
1103.878103193214
 30
0.0
 10
742.4415995552569
 20
1103.779086810279
 30
0.0
 10
742.2831553061503
 20
1103.581039299942
 30
0.0
 10
742.1289334840952
 20
1103.380435130841
 30
0.0
 10
742.0518168322267
 20
1103.280125578886
 30
0.0
  0
LINE
  5
3A3
330
1F
100
AcDbEntity
  8
0
  6
Continuous
 62
     7
370
    25
100
AcDbLine
 10
742.0518168322
 20
1103.2801255789
 30
0.0
 11
742.5208106182
 21
1102.9097275943
 31
0.0
  0
LINE
  5
3A4
330
1F
100
AcDbEntity
  8
0
  6
Continuous
 62
     7
370
    25
100
AcDbLine
 10
742.5208157266
 20
1102.9067190098
 30
0.0
 11
742.0518168322
 21
1102.3441707785
 31
0.0
  0
LINE
  5
3A5
330
1F
100
AcDbEntity
  8
0
  6
Continuous
 62
     7
370
    25
100
AcDbLine
 10
742.0518168322
 20
1102.3441707785
 30
0.0
 11
742.5208106182
 21
1101.9197683783
 31
0.0
  0
LINE
  5
3A6
330
1F
100
AcDbEntity
  8
0
  6
Continuous
 62
     7
370
    25
100
AcDbLine
 10
742.5208157266
 20
1101.9167172828
 30
0.0
 11
742.0518168322
 21
1101.3952191673
 31
0.0
  0
LINE
  5
3A7
330
1F
100
AcDbEntity
  8
0
  6
Continuous
 62
     7
370
    25
100
AcDbLine
 10
742.0518168322
 20
1100.4427523559
 30
0.0
 11
742.5208106183
 21
1099.9235598144
 31
0.0
  0
LINE
  5
3A8
330
1F
100
AcDbEntity
  8
0
  6
Continuous
 62
     7
370
    25
100
AcDbLine
 10
742.5208157266
 20
1099.9205152737
 30
0.0
 11
742.0518168322
 21
1099.496287078
 31
0.0
  0
LINE
  5
3A9
330
1F
100
AcDbEntity
  8
0
  6
Continuous
 62
     7
370
    25
100
AcDbLine
 10
742.0518168322
 20
1099.496287078
 30
0.0
 11
742.5208106182
 21
1098.9372559228
 31
0.0
  0
LINE
  5
3AA
330
1F
100
AcDbEntity
  8
0
  6
Continuous
 62
     7
370
    25
100
AcDbLine
 10
742.5208157329
 20
1098.9342603912
 30
0.0
 11
742.0518168322
 21
1098.5652801016
 31
0.0
  0
LINE
  5
3AB
330
1F
100
AcDbEntity
  8
0
  6
Continuous
 62
     7
370
    25
100
AcDbLine
 10
742.0518168322
 20
1098.5652801016
 30
0.0
 11
742.5208106182
 21
1097.9719959873
 31
0.0
  0
LINE
  5
3AC
330
1F
100
AcDbEntity
  8
0
  6
Continuous
 62
     7
370
    25
100
AcDbLine
 10
742.5208157266
 20
1097.9690793776
 30
0.0
 11
742.0518168322
 21
1097.6590337409
 31
0.0
  0
LINE
  5
3AD
330
1F
100
AcDbEntity
  8
0
  6
Continuous
 62
     7
370
    25
100
AcDbLine
 10
742.0518168322
 20
1097.6590337409
 30
0.0
 11
742.5208106182
 21
1097.0374245662
 31
0.0
  0
LINE
  5
3AE
330
1F
100
AcDbEntity
  8
0
  6
Continuous
 62
     7
370
    25
100
AcDbLine
 10
742.5208157329
 20
1097.0346160398
 30
0.0
 11
742.0518168322
 21
1096.7866029099
 31
0.0
  0
LINE
  5
3AF
330
1F
100
AcDbEntity
  8
0
  6
Continuous
 62
     7
370
    25
100
AcDbLine
 10
742.0518168322
 20
1096.7866029099
 30
0.0
 11
742.5208106182
 21
1096.142879588
 31
0.0
  0
LINE
  5
3B0
330
1F
100
AcDbEntity
  8
0
  6
Continuous
 62
     7
370
    25
100
AcDbLine
 10
742.5208157329
 20
1096.140207197
 30
0.0
 11
742.0518168322
 21
1095.956704649
 31
0.0
  0
LINE
  5
3B1
330
1F
100
AcDbEntity
  8
0
  6
Continuous
 62
     7
370
    25
100
AcDbLine
 10
742.0518168322
 20
1095.956704649
 30
0.0
 11
742.5208106182
 21
1095.2972990507
 31
0.0
  0
LINE
  5
3B2
330
1F
100
AcDbEntity
  8
0
  6
Continuous
 62
     7
370
    25
100
AcDbLine
 10
742.5208157329
 20
1095.2947894967
 30
0.0
 11
742.0518168322
 21
1095.1776310273
 31
0.0
  0
LINE
  5
3B3
330
1F
100
AcDbEntity
  8
0
  6
Continuous
 62
     7
370
    25
100
AcDbLine
 10
742.0518168322
 20
1095.1776310273
 30
0.0
 11
742.5208106182
 21
1094.5091317154
 31
0.0
  0
LINE
  5
3B4
330
1F
100
AcDbEntity
  8
0
  6
Continuous
 62
     7
370
    25
100
AcDbLine
 10
742.5208157266
 20
1094.5068100599
 30
0.0
 11
742.0518168322
 21
1094.457166291
 31
0.0
  0
LINE
  5
3B5
330
1F
100
AcDbEntity
  8
0
  6
Continuous
 62
     7
370
    25
100
AcDbLine
 10
742.0518168322
 20
1094.457166291
 30
0.0
 11
742.5208106182
 21
1093.7862526896
 31
0.0
  0
LINE
  5
3B6
330
1F
100
AcDbEntity
  8
0
  6
Continuous
 62
     7
370
    25
100
AcDbLine
 10
742.5208157266
 20
1093.7841421423
 30
0.0
 11
742.0518168322
 21
1093.8025090854
 31
0.0
  0
LINE
  5
3B7
330
1F
100
AcDbEntity
  8
0
  6
Continuous
 62
     7
370
    25
100
AcDbLine
 10
742.0518168322
 20
1093.8025090854
 30
0.0
 11
742.5208106182
 21
1093.1358847415
 31
0.0
  0
LINE
  5
3B8
330
1F
100
AcDbEntity
  8
0
  6
Continuous
 62
     7
370
    25
100
AcDbLine
 10
742.5208157329
 20
1093.1340064042
 30
0.0
 11
742.0518168322
 21
1093.2202005291
 31
0.0
  0
LINE
  5
3B9
330
1F
100
AcDbEntity
  8
0
  6
Continuous
 62
     7
370
    25
100
AcDbLine
 10
742.0518168322
 20
1093.2202005291
 30
0.0
 11
742.5208106183
 21
1092.5645261325
 31
0.0
  0
LINE
  5
3BA
330
1F
100
AcDbEntity
  8
0
  6
Continuous
 62
     7
370
    25
100
AcDbLine
 10
742.5208157266
 20
1092.5628987456
 30
0.0
 11
742.0518168322
 21
1092.7160588567
 31
0.0
  0
LINE
  5
3BB
330
1F
100
AcDbEntity
  8
0
  6
Continuous
 62
     7
370
    25
100
AcDbLine
 10
742.0518168322
 20
1092.7160588567
 30
0.0
 11
742.5208106183
 21
1092.0778856894
 31
0.0
  0
LINE
  5
3BC
330
1F
100
AcDbEntity
  8
0
  6
Continuous
 62
     7
370
    25
100
AcDbLine
 10
742.5208157329
 20
1092.0765255409
 30
0.0
 11
742.0518168322
 21
1092.295121285
 31
0.0
  0
LINE
  5
3BD
330
1F
100
AcDbEntity
  8
0
  6
Continuous
 62
     7
370
    25
100
AcDbLine
 10
742.0518168322
 20
1092.295121285
 30
0.0
 11
742.5208106182
 21
1091.6808257626
 31
0.0
  0
LINE
  5
3BE
330
1F
100
AcDbEntity
  8
0
  6
Continuous
 62
     7
370
    25
100
AcDbLine
 10
742.5208157329
 20
1091.6797464284
 30
0.0
 11
742.0518168322
 21
1091.9615936831
 31
0.0
  0
LINE
  5
3BF
330
1F
100
AcDbEntity
  8
0
  6
Continuous
 62
     7
370
    25
100
AcDbLine
 10
742.0518168322
 20
1091.9615936831
 30
0.0
 11
742.5208106182
 21
1091.3773136432
 31
0.0
  0
LINE
  5
3C0
330
1F
100
AcDbEntity
  8
0
  6
Continuous
 62
     7
370
    25
100
AcDbLine
 10
742.5208157329
 20
1091.3765259079
 30
0.0
 11
742.0518168322
 21
1091.7188085487
 31
0.0
  0
LINE
  5
3C1
330
1F
100
AcDbEntity
  8
0
  6
Continuous
 62
     7
370
    25
100
AcDbLine
 10
742.0518168322
 20
1091.7188085487
 30
0.0
 11
742.5208106183
 21
1091.1703819241
 31
0.0
  0
LINE
  5
3C2
330
1F
100
AcDbEntity
  8
0
  6
Continuous
 62
     7
370
    25
100
AcDbLine
 10
742.5208157329
 20
1091.1698936586
 30
0.0
 11
742.0518168322
 21
1091.5691917105
 31
0.0
  0
LINE
  5
3C3
330
1F
100
AcDbEntity
  8
0
  6
Continuous
 62
     7
370
    25
100
AcDbLine
 10
742.0518168322
 20
1091.5691917105
 30
0.0
 11
742.5208106183
 21
1091.062098199
 31
0.0
  0
LINE
  5
3C4
330
1F
100
AcDbEntity
  8
0
  6
Continuous
 62
     7
370
    25
100
AcDbLine
 10
742.5208157329
 20
1091.0619142817
 30
0.0
 11
742.0518168322
 21
1091.5142380904
 31
0.0
  0
LINE
  5
3C5
330
1F
100
AcDbEntity
  8
0
  6
Continuous
 62
     7
370
    25
100
AcDbLine
 10
742.0518168322
 20
1091.5142380904
 30
0.0
 11
742.5208106183
 21
1091.0535444027
 31
0.0
  0
LINE
  5
3C6
330
1F
100
AcDbEntity
  8
0
  6
Continuous
 62
     7
370
    25
100
AcDbLine
 10
742.0198489427
 20
1091.5459217744
 30
0.0
 11
742.0198489427
 21
1110.5408903805
 31
0.0
  0
LINE
  5
3C7
330
1F
100
AcDbEntity
  8
0
  6
Continuous
 62
     7
370
    25
100
AcDbLine
 10
742.5198489427
 20
1101.9183959119
 30
0.0
 11
745.5198489427
 21
1101.9183959119
 31
0.0
  0
LINE
  5
3C8
330
1F
100
AcDbEntity
  8
0
  6
Continuous
 62
     7
370
    25
100
AcDbLine
 10
742.0518168322
 20
1102.3441707785
 30
0.0
 11
745.987881034
 21
1102.3441707608
 31
0.0
  0
LINE
  5
3C9
330
1F
100
AcDbEntity
  8
0
  6
Continuous
 62
     7
370
    25
100
AcDbLine
 10
745.5198489427
 20
1099.9218808081
 30
0.0
 11
742.5198489427
 21
1099.9218808081
 31
0.0
  0
LINE
  5
3CA
330
1F
100
AcDbEntity
  8
0
  6
Continuous
 62
     7
370
    25
100
AcDbLine
 10
745.987881034
 20
1099.4962870546
 30
0.0
 11
742.0518168322
 21
1099.496287078
 31
0.0
  0
LINE
  5
3CB
330
1F
100
AcDbEntity
  8
0
  6
Continuous
 62
     7
370
    25
100
AcDbLine
 10
742.5198489427
 20
1102.9085297717
 30
0.0
 11
745.5198489427
 21
1102.9085297717
 31
0.0
  0
LINE
  5
3CC
330
1F
100
AcDbEntity
  8
0
  6
Continuous
 62
     7
370
    25
100
AcDbLine
 10
742.0518168322
 20
1103.2801255789
 30
0.0
 11
745.987881034
 21
1103.2801255634
 31
0.0
  0
LINE
  5
3CD
330
1F
100
AcDbEntity
  8
0
  6
Continuous
 62
     7
370
    25
100
AcDbLine
 10
745.5198489427
 20
1098.9354480832
 30
0.0
 11
742.5198489427
 21
1098.9354480832
 31
0.0
  0
LINE
  5
3CE
330
1F
100
AcDbEntity
  8
0
  6
Continuous
 62
     7
370
    25
100
AcDbLine
 10
745.987881034
 20
1098.5652800769
 30
0.0
 11
742.0518168322
 21
1098.5652801016
 31
0.0
  0
LINE
  5
3CF
330
1F
100
AcDbEntity
  8
0
  6
Continuous
 62
     7
370
    25
100
AcDbLine
 10
742.5198489427
 20
1103.8800279321
 30
0.0
 11
745.5198489427
 21
1103.8800279321
 31
0.0
  0
LINE
  5
3D0
330
1F
100
AcDbEntity
  8
0
  6
Continuous
 62
     7
370
    25
100
AcDbLine
 10
742.0518168322
 20
1104.1937318173
 30
0.0
 11
745.987881034
 21
1104.1937318043
 31
0.0
  0
LINE
  5
3D1
330
1F
100
AcDbEntity
  8
0
  6
Continuous
 62
     7
370
    25
100
AcDbLine
 10
745.5198489427
 20
1097.9700773777
 30
0.0
 11
742.5198489427
 21
1097.9700773777
 31
0.0
  0
LINE
  5
3D2
330
1F
100
AcDbEntity
  8
0
  6
Continuous
 62
     7
370
    25
100
AcDbLine
 10
745.987881034
 20
1097.659033715
 30
0.0
 11
742.0518168322
 21
1097.6590337409
 31
0.0
  0
LINE
  5
3D3
330
1F
100
AcDbEntity
  8
0
  6
Continuous
 62
     7
370
    25
100
AcDbLine
 10
742.5198489427
 20
1104.8231835046
 30
0.0
 11
745.5198489427
 21
1104.8231835046
 31
0.0
  0
LINE
  5
3D4
330
1F
100
AcDbEntity
  8
0
  6
Continuous
 62
     7
370
    25
100
AcDbLine
 10
742.0518168322
 20
1105.0758610424
 30
0.0
 11
745.987881034
 21
1105.0758610318
 31
0.0
  0
LINE
  5
3D5
330
1F
100
AcDbEntity
  8
0
  6
Continuous
 62
     7
370
    25
100
AcDbLine
 10
745.987881034
 20
1096.786602883
 30
0.0
 11
742.0518168322
 21
1096.7866029099
 31
0.0
  0
LINE
  5
3D6
330
1F
100
AcDbEntity
  8
0
  6
Continuous
 62
     7
370
    25
100
AcDbLine
 10
745.5198489427
 20
1097.0354143567
 30
0.0
 11
742.5198489427
 21
1097.0354143567
 31
0.0
  0
LINE
  5
3D7
330
1F
100
AcDbEntity
  8
0
  6
Continuous
 62
     7
370
    25
100
AcDbLine
 10
742.5198489427
 20
1105.7285727905
 30
0.0
 11
745.5198489427
 21
1105.7285727905
 31
0.0
  0
LINE
  5
3D8
330
1F
100
AcDbEntity
  8
0
  6
Continuous
 62
     7
370
    25
100
AcDbLine
 10
742.0518168322
 20
1105.9176993103
 30
0.0
 11
745.987881034
 21
1105.9176993025
 31
0.0
  0
LINE
  5
3D9
330
1F
100
AcDbEntity
  8
0
  6
Continuous
 62
     7
370
    25
100
AcDbLine
 10
745.987881034
 20
1095.9567046214
 30
0.0
 11
742.0518168322
 21
1095.956704649
 31
0.0
  0
LINE
  5
3DA
330
1F
100
AcDbEntity
  8
0
  6
Continuous
 62
     7
370
    25
100
AcDbLine
 10
745.5198489427
 20
1096.1407978641
 30
0.0
 11
742.5198489427
 21
1096.1407978641
 31
0.0
  0
LINE
  5
3DB
330
1F
100
AcDbEntity
  8
0
  6
Continuous
 62
     7
370
    25
100
AcDbLine
 10
742.5198489427
 20
1106.5871494393
 30
0.0
 11
745.5198489427
 21
1106.5871494393
 31
0.0
  0
LINE
  5
3DC
330
1F
100
AcDbEntity
  8
0
  6
Continuous
 62
     7
370
    25
100
AcDbLine
 10
742.0518168322
 20
1106.7108352515
 30
0.0
 11
745.987881034
 21
1106.7108352464
 31
0.0
  0
LINE
  5
3DD
330
1F
100
AcDbEntity
  8
0
  6
Continuous
 62
     7
370
    25
100
AcDbLine
 10
745.987881034
 20
1095.1776309994
 30
0.0
 11
742.0518168322
 21
1095.1776310273
 31
0.0
  0
LINE
  5
3DE
330
1F
100
AcDbEntity
  8
0
  6
Continuous
 62
     7
370
    25
100
AcDbLine
 10
745.5198489427
 20
1095.2951666121
 30
0.0
 11
742.5198489427
 21
1095.2951666121
 31
0.0
  0
LINE
  5
3DF
330
1F
100
AcDbEntity
  8
0
  6
Continuous
 62
     7
370
    25
100
AcDbLine
 10
742.5198489427
 20
1107.3903348369
 30
0.0
 11
745.5198489427
 21
1107.3903348369
 31
0.0
  0
LINE
  5
3E0
330
1F
100
AcDbEntity
  8
0
  6
Continuous
 62
     7
370
    25
100
AcDbLine
 10
742.0518168322
 20
1107.4473441139
 30
0.0
 11
745.987881034
 21
1107.4473441115
 31
0.0
  0
LINE
  5
3E1
330
1F
100
AcDbEntity
  8
0
  6
Continuous
 62
     7
370
    25
100
AcDbLine
 10
745.5198489427
 20
1094.5069698688
 30
0.0
 11
742.5198489427
 21
1094.5069698688
 31
0.0
  0
LINE
  5
3E2
330
1F
100
AcDbEntity
  8
0
  6
Continuous
 62
     7
370
    25
100
AcDbLine
 10
745.987881034
 20
1094.4571662629
 30
0.0
 11
742.0518168322
 21
1094.457166291
 31
0.0
  0
LINE
  5
3E3
330
1F
100
AcDbEntity
  8
0
  6
Continuous
 62
     7
370
    25
100
AcDbLine
 10
742.5198489427
 20
1108.1301038204
 30
0.0
 11
745.5198489427
 21
1108.1301038204
 31
0.0
  0
LINE
  5
3E4
330
1F
100
AcDbEntity
  8
0
  6
Continuous
 62
     7
370
    25
100
AcDbLine
 10
745.5198489427
 20
1093.7840830355
 30
0.0
 11
742.5198489427
 21
1093.7840830355
 31
0.0
  0
LINE
  5
3E5
330
1F
100
AcDbEntity
  8
0
  6
Continuous
 62
     7
370
    25
100
AcDbLine
 10
742.5198489427
 20
1108.7990648626
 30
0.0
 11
745.5198489427
 21
1108.7990648626
 31
0.0
  0
LINE
  5
3E6
330
1F
100
AcDbEntity
  8
0
  6
Continuous
 62
     7
370
    25
100
AcDbLine
 10
745.5198489427
 20
1093.1337289583
 30
0.0
 11
742.5198489427
 21
1093.1337289583
 31
0.0
  0
LINE
  5
3E7
330
1F
100
AcDbEntity
  8
0
  6
Continuous
 62
     7
370
    25
100
AcDbLine
 10
742.5198489427
 20
1109.3905339259
 30
0.0
 11
745.5198489427
 21
1109.3905339259
 31
0.0
  0
LINE
  5
3E8
330
1F
100
AcDbEntity
  8
0
  6
Continuous
 62
     7
370
    25
100
AcDbLine
 10
745.5198489427
 20
1092.5624057604
 30
0.0
 11
742.5198489427
 21
1092.5624057604
 31
0.0
  0
LINE
  5
3E9
330
1F
100
AcDbEntity
  8
0
  6
Continuous
 62
     7
370
    25
100
AcDbLine
 10
742.5198489427
 20
1109.8986012469
 30
0.0
 11
745.5198489427
 21
1109.8986012469
 31
0.0
  0
LINE
  5
3EA
330
1F
100
AcDbEntity
  8
0
  6
Continuous
 62
     7
370
    25
100
AcDbLine
 10
745.5198489427
 20
1092.0758219141
 30
0.0
 11
742.5198489427
 21
1092.0758219141
 31
0.0
  0
LINE
  5
3EB
330
1F
100
AcDbEntity
  8
0
  6
Continuous
 62
     7
370
    25
100
AcDbLine
 10
742.5198489427
 20
1110.3181903849
 30
0.0
 11
745.5198489427
 21
1110.3181903849
 31
0.0
  0
LINE
  5
3EC
330
1F
100
AcDbEntity
  8
0
  6
Continuous
 62
     7
370
    25
100
AcDbLine
 10
745.5198489427
 20
1091.6788392046
 30
0.0
 11
742.5198489427
 21
1091.6788392046
 31
0.0
  0
LINE
  5
3ED
330
1F
100
AcDbEntity
  8
0
  6
Continuous
 62
     7
370
    25
100
AcDbLine
 10
742.5198489427
 20
1110.645108944
 30
0.0
 11
745.5198489427
 21
1110.645108944
 31
0.0
  0
LINE
  5
3EE
330
1F
100
AcDbEntity
  8
0
  6
Continuous
 62
     7
370
    25
100
AcDbLine
 10
745.5198489427
 20
1091.3754241517
 30
0.0
 11
742.5198489427
 21
1091.3754241517
 31
0.0
  0
LINE
  5
3EF
330
1F
100
AcDbEntity
  8
0
  6
Continuous
 62
     7
370
    25
100
AcDbLine
 10
742.5198489427
 20
1110.8760904619
 30
0.0
 11
745.5198489427
 21
1110.8760904619
 31
0.0
  0
LINE
  5
3F0
330
1F
100
AcDbEntity
  8
0
  6
Continuous
 62
     7
370
    25
100
AcDbLine
 10
745.5198489427
 20
1091.1686083784
 30
0.0
 11
742.5198489427
 21
1091.1686083784
 31
0.0
  0
LINE
  5
3F1
330
1F
100
AcDbEntity
  8
0
  6
Continuous
 62
     7
370
    25
100
AcDbLine
 10
742.5198489427
 20
1111.0088270477
 30
0.0
 11
745.5198489427
 21
1111.0088270477
 31
0.0
  0
LINE
  5
3F2
330
1F
100
AcDbEntity
  8
0
  6
Continuous
 62
     7
370
    25
100
AcDbLine
 10
745.5198489427
 20
1091.0604583195
 30
0.0
 11
742.5198489427
 21
1091.0604583195
 31
0.0
  0
LINE
  5
3F3
330
1F
100
AcDbEntity
  8
0
  6
Continuous
 62
     7
370
    25
100
AcDbLine
 10
742.5198489427
 20
1111.0434060775
 30
0.0
 11
745.5198489427
 21
1111.0434060775
 31
0.0
  0
LINE
  5
3F4
330
1F
100
AcDbEntity
  8
0
  6
Continuous
 62
     7
370
    25
100
AcDbLine
 10
745.5198489427
 20
1091.0520545747
 30
0.0
 11
742.5198489427
 21
1091.0520545747
 31
0.0
  0
LINE
  5
3F5
330
1F
100
AcDbEntity
  8
0
  6
Continuous
 62
     7
370
    25
100
AcDbLine
 10
102.1197729753
 20
785.3434060794
 30
0.0
 11
102.1198489427
 21
785.3434060794
 31
0.0
  0
LINE
  5
3F6
330
1F
100
AcDbEntity
  8
0
  6
Continuous
 62
     7
370
    25
100
AcDbLine
 10
102.1198489368
 20
904.0434060775
 30
0.0
 11
102.1198489368
 21
785.3557315503
 31
0.0
  0
ARC
  5
3F7
330
1F
100
AcDbEntity
  8
0
  6
Continuous
 62
     7
370
    25
100
AcDbCircle
 10
101.1198489368
 20
904.0434060775
 30
0.0
 40
1.0
100
AcDbArc
 50
0.0
 51
90.0
  0
LINE
  5
3F8
330
1F
100
AcDbEntity
  8
0
  6
Continuous
 62
     7
370
    25
100
AcDbLine
 10
100.9407557975
 20
905.0434060775
 30
0.0
 11
101.1198489368
 21
905.0434060775
 31
0.0
  0
LINE
  5
3F9
330
1F
100
AcDbEntity
  8
0
  6
Continuous
 62
     7
370
    25
100
AcDbLine
 10
101.1198489368
 20
784.3557315503
 30
0.0
 11
101.0880947733
 21
784.3557315503
 31
0.0
  0
ARC
  5
3FA
330
1F
100
AcDbEntity
  8
0
  6
Continuous
 62
     7
370
    25
100
AcDbCircle
 10
101.1198489368
 20
785.3557315503
 30
0.0
 40
1.0
100
AcDbArc
 50
270.0
 51
0.0
  0
LINE
  5
3FB
330
1F
100
AcDbEntity
  8
0
  6
Continuous
 62
     7
370
    25
100
AcDbLine
 10
102.1198489368
 20
784.3557315503
 30
0.0
 11
102.1198489368
 21
783.5557315503
 31
0.0
  0
LINE
  5
3FC
330
1F
100
AcDbEntity
  8
0
  6
Continuous
 62
     7
370
    25
100
AcDbLine
 10
102.1198489368
 20
783.5557315503
 30
0.0
 11
100.1198489368
 21
783.5557315503
 31
0.0
  0
LINE
  5
3FD
330
1F
100
AcDbEntity
  8
0
  6
Continuous
 62
     7
370
    25
100
AcDbLine
 10
100.1198489368
 20
784.3557315503
 30
0.0
 11
102.1198489368
 21
784.3557315503
 31
0.0
  0
LINE
  5
3FE
330
1F
100
AcDbEntity
  8
0
  6
Continuous
 62
     7
370
    25
100
AcDbLine
 10
100.1198489368
 20
783.5557315503
 30
0.0
 11
41.475779636
 21
783.5557315503
 31
0.0
  0
LINE
  5
3FF
330
1F
100
AcDbEntity
  8
0
  6
Continuous
 62
     7
370
    25
100
AcDbLine
 10
100.1198489368
 20
784.3557315503
 30
0.0
 11
41.475779636
 21
784.3557315503
 31
0.0
  0
LINE
  5
400
330
1F
100
AcDbEntity
  8
0
  6
Continuous
 62
     7
370
    25
100
AcDbLine
 10
99.9725099609
 20
905.8434060775
 30
0.0
 11
83.8806881209
 21
905.8434060775
 31
0.0
  0
LINE
  5
401
330
1F
100
AcDbEntity
  8
0
  6
Continuous
 62
     7
370
    25
100
AcDbLine
 10
99.9725099609
 20
905.0434060775
 30
0.0
 11
83.8806881209
 21
905.0434060775
 31
0.0
  0
LINE
  5
402
330
1F
100
AcDbEntity
  8
0
  6
Continuous
 62
     7
370
    25
100
AcDbLine
 10
57.606905309
 20
829.5649566117
 30
0.0
 11
81.9310222625
 21
904.4268909159
 31
0.0
  0
LINE
  5
403
330
1F
100
AcDbEntity
  8
0
  6
Continuous
 62
     7
370
    25
100
AcDbLine
 10
58.367750522
 20
829.3177430162
 30
0.0
 11
82.6918674756
 21
904.1796773204
 31
0.0
  0
LINE
  5
404
330
1F
100
AcDbEntity
  8
0
  6
Continuous
 62
     7
370
    25
100
AcDbLine
 10
101.9725099609
 20
905.8434060775
 30
0.0
 11
101.9725099609
 21
905.0434060775
 31
0.0
  0
LINE
  5
405
330
1F
100
AcDbEntity
  8
0
  6
Continuous
 62
     7
370
    25
100
AcDbLine
 10
100.0698489427
 20
905.8434060775
 30
0.0
 11
101.9725099609
 21
905.8434060775
 31
0.0
  0
LINE
  5
406
330
1F
100
AcDbEntity
  8
0
  6
Continuous
 62
     7
370
    25
100
AcDbLine
 10
101.9725099609
 20
905.0434060775
 30
0.0
 11
101.1198489368
 21
905.0434060775
 31
0.0
  0
LINE
  5
407
330
1F
100
AcDbEntity
  8
0
  6
Continuous
 62
     7
370
    25
100
AcDbLine
 10
100.9407557975
 20
905.0434060775
 30
0.0
 11
99.9725099609
 21
905.0434060775
 31
0.0
  0
ARC
  5
408
330
1F
100
AcDbEntity
  8
0
  6
Continuous
 62
     7
370
    25
100
AcDbCircle
 10
83.8806881209
 20
903.7934060775
 30
0.0
 40
2.049999999999895
100
AcDbArc
 50
90.0
 51
162.0
  0
ARC
  5
409
330
1F
100
AcDbEntity
  8
0
  6
Continuous
 62
     7
370
    25
100
AcDbCircle
 10
83.8806881209
 20
903.7934060775
 30
0.0
 40
1.249999999999896
100
AcDbArc
 50
90.0
 51
162.0
  0
ARC
  5
40A
330
1F
100
AcDbEntity
  8
0
  6
Continuous
 62
     7
370
    25
100
AcDbCircle
 10
48.096340146
 20
832.6551265554
 30
0.0
 40
10.80000000000004
100
AcDbArc
 50
290.0
 51
342.0
  0
ARC
  5
40B
330
1F
100
AcDbEntity
  8
0
  6
Continuous
 62
     7
370
    25
100
AcDbCircle
 10
48.096340146
 20
832.6551265554
 30
0.0
 40
10.00000000000007
100
AcDbArc
 50
290.0
 51
342.0
  0
LINE
  5
40C
330
1F
100
AcDbEntity
  8
0
  6
Continuous
 62
     7
370
    25
100
AcDbLine
 10
32.3397649336
 20
815.4270822414
 30
0.0
 11
51.7901576939
 21
822.5064462509
 31
0.0
  0
LINE
  5
40D
330
1F
100
AcDbEntity
  8
0
  6
Continuous
 62
     7
370
    25
100
AcDbLine
 10
32.0661488189
 20
816.178836338
 30
0.0
 11
51.5165415793
 21
823.2582003476
 31
0.0
  0
LINE
  5
40E
330
1F
100
AcDbEntity
  8
0
  6
Continuous
 62
     7
370
    25
100
AcDbLine
 10
40.5182240821
 20
784.8022470382
 30
0.0
 11
28.0995219356
 21
799.6022799367
 31
0.0
  0
LINE
  5
40F
330
1F
100
AcDbEntity
  8
0
  6
Continuous
 62
     7
370
    25
100
AcDbLine
 10
39.9053885276
 20
784.2880169505
 30
0.0
 11
27.4866863811
 21
799.0880498489
 31
0.0
  0
ARC
  5
410
330
1F
100
AcDbEntity
  8
0
  6
Continuous
 62
     7
370
    25
100
AcDbCircle
 10
41.475779636
 20
785.6057315503
 30
0.0
 40
1.25
100
AcDbArc
 50
220.0
 51
270.0
  0
ARC
  5
411
330
1F
100
AcDbEntity
  8
0
  6
Continuous
 62
     7
370
    25
100
AcDbCircle
 10
41.475779636
 20
785.6057315503
 30
0.0
 40
2.05000000000005
100
AcDbArc
 50
220.0
 51
270.0
  0
ARC
  5
412
330
1F
100
AcDbEntity
  8
0
  6
Continuous
 62
     7
370
    25
100
AcDbCircle
 10
35.7599663668
 20
806.0301560335
 30
0.0
 40
10.79999999999998
100
AcDbArc
 50
110.0
 51
220.0
  0
ARC
  5
413
330
1F
100
AcDbEntity
  8
0
  6
Continuous
 62
     7
370
    25
100
AcDbCircle
 10
35.7599663668
 20
806.0301560335
 30
0.0
 40
10.00000000000003
100
AcDbArc
 50
110.0
 51
220.0
  0
ARC
  5
414
330
1F
100
AcDbEntity
  8
0
  6
Continuous
 62
     7
370
    25
100
AcDbCircle
 10
80.4264685961
 20
903.8414358377
 30
0.0
 40
2.050000000000156
100
AcDbArc
 50
31.7904428203
 51
66.0
  0
ARC
  5
415
330
1F
100
AcDbEntity
  8
0
  6
Continuous
 62
     7
370
    25
100
AcDbCircle
 10
80.4264685961
 20
903.8414358377
 30
0.0
 40
1.250000000000126
100
AcDbArc
 50
342.0
 51
66.0
  0
LINE
  5
416
330
1F
100
AcDbEntity
  8
0
  6
Continuous
 62
     7
370
    25
100
AcDbLine
 10
72.8276348544
 20
908.5929499426
 30
0.0
 11
80.9348893999
 21
904.9833676598
 31
0.0
  0
LINE
  5
417
330
1F
100
AcDbEntity
  8
0
  6
Continuous
 62
     7
370
    25
100
AcDbLine
 10
73.1530241688
 20
909.3237863087
 30
0.0
 11
81.2602787144
 21
905.7142040259
 31
0.0
  0
LINE
  5
418
330
1F
100
AcDbEntity
  8
0
  6
Continuous
 62
     7
370
    25
100
AcDbLine
 10
68.5852968806
 20
911.357469524
 30
0.0
 11
68.2599075661
 21
910.6266331579
 31
0.0
  0
LINE
  5
419
330
1F
100
AcDbEntity
  8
0
  6
Continuous
 62
     7
370
    25
100
AcDbLine
 10
68.2599075661
 20
910.6266331579
 30
0.0
 11
72.8276348544
 21
908.5929499426
 31
0.0
  0
LINE
  5
41A
330
1F
100
AcDbEntity
  8
0
  6
Continuous
 62
     7
370
    25
100
AcDbLine
 10
68.5852968806
 20
911.357469524
 30
0.0
 11
73.1530241688
 21
909.3237863087
 31
0.0
  0
LINE
  5
41B
330
1F
100
AcDbEntity
  8
0
  6
Continuous
 62
     7
370
    25
100
AcDbLine
 10
82.2116647479
 20
905.290619673
 30
0.0
 11
82.4134262629
 21
905.2250633828
 31
0.0
  0
LINE
  5
41C
330
1F
100
AcDbEntity
  8
0
  6
Continuous
 62
     7
370
    25
100
AcDbLine
 10
82.2116647479
 20
905.290619673
 30
0.0
 11
82.1173824274
 21
905.0004485274
 31
0.0
  0
LINE
  5
41D
330
1F
100
AcDbEntity
  8
0
  6
Continuous
 62
     7
370
    25
100
AcDbLine
 10
82.4777985194
 20
905.7096197039
 30
0.0
 11
82.8024859651
 21
906.1252006831
 31
0.0
  0
LINE
  5
41E
330
1F
100
AcDbEntity
  8
0
  6
Continuous
 62
     7
370
    25
100
AcDbLine
 10
83.5802441156
 20
905.8212703233
 30
0.0
 11
83.6441025584
 21
905.9030054028
 31
0.0
  0
ARC
  5
41F
330
1F
100
AcDbEntity
  8
0
  6
Continuous
 62
     7
370
    25
100
AcDbCircle
 10
84.0932205643
 20
904.4475136795
 30
0.0
 40
2.049999999999781
100
AcDbArc
 50
142.0
 51
155.8278304164
  0
SPLINE
  5
420
330
1F
100
AcDbEntity
  8
0
  6
Continuous
 62
     7
370
    25
100
AcDbSpline
210
0.0
220
0.0
230
1.0
 70
     8
 71
     3
 72
    13
 73
     9
 74
     0
 42
0.000000001
 43
0.00000001
 40
0.0
 40
0.0
 40
0.0
 40
0.0
 40
0.1336921125945786
 40
0.261330984226496
 40
0.3835549177803666
 40
0.5010915032723825
 40
0.7072834188121452
 40
1.0
 40
1.0
 40
1.0
 40
1.0
 10
810.5198489426648
 20
959.6363350096539
 30
0.0
 10
810.5081924207595
 20
959.6229883204144
 30
0.0
 10
810.4854071547998
 20
959.5968992462919
 30
0.0
 10
810.3122832982658
 20
959.5151762871615
 30
0.0
 10
810.0658321016117
 20
959.4030473549575
 30
0.0
 10
809.6812337131579
 20
959.217658073229
 30
0.0
 10
809.0362882583179
 20
958.8773558398059
 30
0.0
 10
808.4272060051123
 20
958.5723545770156
 30
0.0
 10
808.069848942665
 20
958.3934060774658
 30
0.0
  0
LINE
  5
421
330
1F
100
AcDbEntity
  8
0
  6
Continuous
 62
     7
370
    25
100
AcDbLine
 10
810.5198489427
 20
923.2434060775
 30
0.0
 11
810.5198489427
 21
959.6363350097
 31
0.0
  0
LINE
  5
422
330
1F
100
AcDbEntity
  8
0
  6
Continuous
 62
     7
370
    25
100
AcDbLine
 10
808.0698489427
 20
923.2434060775
 30
0.0
 11
810.5198489427
 21
923.2434060775
 31
0.0
  0
LINE
  5
423
330
1F
100
AcDbEntity
  8
0
  6
Continuous
 62
     7
370
    25
100
AcDbLine
 10
159.0298489427
 20
960.8434060775
 30
0.0
 11
755.5198489427
 21
960.8434060775
 31
0.0
  0
SPLINE
  5
424
330
1F
100
AcDbEntity
  8
0
  6
Continuous
 62
     7
370
    25
100
AcDbSpline
210
0.0
220
0.0
230
1.0
 70
     8
 71
     3
 72
    12
 73
     8
 74
     0
 42
0.000000001
 43
0.00000001
 40
0.0
 40
0.0
 40
0.0
 40
0.0
 40
0.2256471098599669
 40
0.4513366839867235
 40
0.6770264566945672
 40
0.9027160158545874
 40
1.0
 40
1.0
 40
1.0
 40
1.0
 10
808.0698489426647
 20
958.3934060774658
 30
0.0
 10
808.1633690502804
 20
958.6829026725369
 30
0.0
 10
808.3504268649517
 20
959.2619503427059
 30
0.0
 10
808.6310672210356
 20
960.023356504998
 30
0.0
 10
808.9115471765563
 20
960.5784183890917
 30
0.0
 10
809.1393783390423
 20
960.8185528792396
 30
0.0
 10
809.2726382066953
 20
960.8376528952281
 30
0.0
 10
809.312777874853
 20
960.8434060774657
 30
0.0
  0
LINE
  5
425
330
1F
100
AcDbEntity
  8
0
  6
Continuous
 62
     7
370
    25
100
AcDbLine
 10
159.0298489427
 20
960.8434060775
 30
0.0
 11
159.0298489427
 21
958.3934060775
 31
0.0
  0
LWPOLYLINE
  5
426
330
1F
100
AcDbEntity
  8
0
  6
Continuous
 62
     7
370
    25
100
AcDbPolyline
 90
        2
 70
   128
 43
0.0
 10
808.0698489427
 20
958.3934060775
 10
808.0698489427
 20
958.3934060775
  0
SPLINE
  5
427
330
1F
100
AcDbEntity
  8
0
  6
Continuous
 62
     7
370
    25
100
AcDbSpline
210
0.0
220
0.0
230
1.0
 70
     8
 71
     3
 72
    13
 73
     9
 74
     0
 42
0.000000001
 43
0.00000001
 40
0.0
 40
0.0
 40
0.0
 40
0.0
 40
0.1182968544160217
 40
0.2337751511479818
 40
0.3483788298718261
 40
0.4640967207804225
 40
0.6803948286592517
 40
1.0
 40
1.0
 40
1.0
 40
1.0
 10
809.319848942665
 20
959.6363350096539
 30
0.0
 10
809.3137847262402
 20
959.6228800878897
 30
0.0
 10
809.3018007802741
 20
959.5962908232422
 30
0.0
 10
809.2120275580544
 20
959.513484283357
 30
0.0
 10
809.0847293749404
 20
959.3999024994159
 30
0.0
 10
808.8840736333959
 20
959.2098333208168
 30
0.0
 10
808.5546275402014
 20
958.8688377406484
 30
0.0
 10
808.2509549815668
 20
958.5710202413853
 30
0.0
 10
808.069848942665
 20
958.3934060774658
 30
0.0
  0
LINE
  5
428
330
1F
100
AcDbEntity
  8
0
  6
Continuous
 62
     7
370
    25
100
AcDbLine
 10
810.5198489427
 20
959.6363350097
 30
0.0
 11
809.3198489427
 21
959.6363350097
 31
0.0
  0
LINE
  5
429
330
1F
100
AcDbEntity
  8
0
  6
Continuous
 62
     7
370
    25
100
AcDbLine
 10
159.0298489427
 20
923.2434060775
 30
0.0
 11
808.0698489427
 21
923.2434060775
 31
0.0
  0
LINE
  5
42A
330
1F
100
AcDbEntity
  8
0
  6
Continuous
 62
     7
370
    25
100
AcDbLine
 10
159.0298489427
 20
958.3934060775
 30
0.0
 11
159.0298489427
 21
923.2434060775
 31
0.0
  0
LINE
  5
42B
330
1F
100
AcDbEntity
  8
0
  6
Continuous
 62
     7
370
    25
100
AcDbLine
 10
809.3127778749
 20
959.6434060775
 30
0.0
 11
809.3127778749
 21
960.8434060775
 31
0.0
  0
SPLINE
  5
42C
330
1F
100
AcDbEntity
  8
0
  6
Continuous
 62
     7
370
    25
100
AcDbSpline
210
0.0
220
0.0
230
1.0
 70
     8
 71
     3
 72
    11
 73
     7
 74
     0
 42
0.000000001
 43
0.00000001
 40
0.0
 40
0.0
 40
0.0
 40
0.0
 40
0.2657210447342478
 40
0.5202381807569144
 40
0.7747258001506648
 40
1.0
 40
1.0
 40
1.0
 40
1.0
 10
808.0698489426647
 20
958.3934060774658
 30
0.0
 10
808.1800156935252
 20
958.5675987487518
 30
0.0
 10
808.3957041050501
 20
958.9086394009954
 30
0.0
 10
808.7166413680657
 20
959.3275101902062
 30
0.0
 10
809.0210217952422
 20
959.5955492066947
 30
0.0
 10
809.2195555208093
 20
959.6281147760595
 30
0.0
 10
809.312777874853
 20
959.6434060774658
 30
0.0
  0
LINE
  5
42D
330
1F
100
AcDbEntity
  8
0
  6
Continuous
 62
     7
370
    25
100
AcDbLine
 10
81.3472315919
 20
906.5094025347
 30
0.0
 11
83.8698489427
 21
905.8434060775
 31
0.0
  0
LINE
  5
42E
330
1F
100
AcDbEntity
  8
0
  6
Continuous
 62
     7
370
    25
100
AcDbLine
 10
77.6802996683
 20
908.1038313917
 30
0.0
 11
81.3472315919
 21
906.5094025347
 31
0.0
  0
LINE
  5
42F
330
1F
100
AcDbEntity
  8
0
  6
Continuous
 62
     7
370
    25
100
AcDbLine
 10
77.978053096
 20
908.7921938662
 30
0.0
 11
77.6802996683
 21
908.1038313917
 31
0.0
  0
LINE
  5
430
330
1F
100
AcDbEntity
  8
0
  6
Continuous
 62
     7
370
    25
100
AcDbLine
 10
58.4446735116
 20
917.2855490343
 30
0.0
 11
77.978053096
 21
908.7921938662
 31
0.0
  0
ARC
  5
431
330
1F
100
AcDbEntity
  8
0
  6
Continuous
 62
     7
370
    25
100
AcDbCircle
 10
67.2530404442
 20
937.5434060775
 30
0.0
 40
22.09000000000002
100
AcDbArc
 50
90.648449555
 51
246.5
  0
LINE
  5
432
330
1F
100
AcDbEntity
  8
0
  6
Continuous
 62
     7
370
    25
100
AcDbLine
 10
67.0030404442
 20
958.3434060775
 30
0.0
 11
67.0030404442
 21
959.6319913649
 31
0.0
  0
LINE
  5
433
330
1F
100
AcDbEntity
  8
0
  6
Continuous
 62
     7
370
    25
100
AcDbLine
 10
67.2530404442
 20
958.3434060775
 30
0.0
 11
67.0030404442
 21
958.3434060775
 31
0.0
  0
LINE
  5
434
330
1F
100
AcDbEntity
  8
0
  6
Continuous
 62
     7
370
    25
100
AcDbLine
 10
67.2530404442
 20
958.3934060775
 30
0.0
 11
67.2530404442
 21
958.3434060775
 31
0.0
  0
LINE
  5
435
330
1F
100
AcDbEntity
  8
0
  6
Continuous
 62
     7
370
    25
100
AcDbLine
 10
158.5698489427
 20
923.2434060775
 30
0.0
 11
158.5698489427
 21
958.3934060775
 31
0.0
  0
LINE
  5
436
330
1F
100
AcDbEntity
  8
0
  6
Continuous
 62
     7
370
    25
100
AcDbLine
 10
102.0698489427
 20
923.2434060775
 30
0.0
 11
158.5698489427
 21
923.2434060775
 31
0.0
  0
LINE
  5
437
330
1F
100
AcDbEntity
  8
0
  6
Continuous
 62
     7
370
    25
100
AcDbLine
 10
102.0698489427
 20
907.8434060775
 30
0.0
 11
102.0698489427
 21
923.2434060775
 31
0.0
  0
ARC
  5
438
330
1F
100
AcDbEntity
  8
0
  6
Continuous
 62
     7
370
    25
100
AcDbCircle
 10
100.0698489427
 20
907.8434060775
 30
0.0
 40
2.0
100
AcDbArc
 50
270.0
 51
360.0
  0
LINE
  5
439
330
1F
100
AcDbEntity
  8
0
  6
Continuous
 62
     7
370
    25
100
AcDbLine
 10
83.8698489427
 20
905.8434060775
 30
0.0
 11
100.0698489427
 21
905.8434060775
 31
0.0
  0
ARC
  5
43A
330
1F
100
AcDbEntity
  8
0
  6
Continuous
 62
     7
370
    25
100
AcDbCircle
 10
80.2530404442
 20
927.8488470138
 30
0.0
 40
0.2503511010932207
100
AcDbArc
 50
79.8945592916
 51
255.7948950782
  0
ARC
  5
43B
330
1F
100
AcDbEntity
  8
0
  6
Continuous
 62
     7
370
    25
100
AcDbCircle
 10
79.7530404442
 20
925.0434060775
 30
0.0
 40
2.600000000000103
100
AcDbArc
 50
279.7110222516
 51
80.2889777484
  0
ARC
  5
43C
330
1F
100
AcDbEntity
  8
0
  6
Continuous
 62
     7
370
    25
100
AcDbCircle
 10
80.2530404442
 20
922.2379651412
 30
0.0
 40
0.2503511010932207
100
AcDbArc
 50
104.2051049218
 51
280.1054407084
  0
ARC
  5
43D
330
1F
100
AcDbEntity
  8
0
  6
Continuous
 62
     7
370
    25
100
AcDbCircle
 10
79.7530404442
 20
925.0434060775
 30
0.0
 40
3.10000000000006
100
AcDbArc
 50
280.1054407084
 51
79.8945592916
  0
ARC
  5
43E
330
1F
100
AcDbEntity
  8
0
  6
Continuous
 62
     7
370
    25
100
AcDbCircle
 10
79.7530404442
 20
925.0434060775
 30
0.0
 40
3.10000000000006
100
AcDbArc
 50
100.1054407084
 51
259.8945592916
  0
ARC
  5
43F
330
1F
100
AcDbEntity
  8
0
  6
Continuous
 62
     7
370
    25
100
AcDbCircle
 10
79.2530404442
 20
922.2379651412
 30
0.0
 40
0.2503511010932207
100
AcDbArc
 50
259.8945592916
 51
75.7948950782
  0
ARC
  5
440
330
1F
100
AcDbEntity
  8
0
  6
Continuous
 62
     7
370
    25
100
AcDbCircle
 10
79.7530404442
 20
925.0434060775
 30
0.0
 40
2.600000000000084
100
AcDbArc
 50
99.7110222516
 51
260.2889777484
  0
ARC
  5
441
330
1F
100
AcDbEntity
  8
0
  6
Continuous
 62
     7
370
    25
100
AcDbCircle
 10
79.2530404442
 20
927.8488470138
 30
0.0
 40
0.2503511010932207
100
AcDbArc
 50
284.2051049219
 51
100.1054407084
  0
LINE
  5
442
330
1F
100
AcDbEntity
  8
0
  6
Continuous
 62
     7
370
    25
100
AcDbLine
 10
158.5698489427
 20
960.8434060775
 30
0.0
 11
158.5698489427
 21
958.3934060775
 31
0.0
  0
LINE
  5
443
330
1F
100
AcDbEntity
  8
0
  6
Continuous
 62
     7
370
    25
100
AcDbLine
 10
67.2530404442
 20
958.3934060775
 30
0.0
 11
67.2530404442
 21
960.5064370758
 31
0.0
  0
LINE
  5
444
330
1F
100
AcDbEntity
  8
0
  6
Continuous
 62
     7
370
    25
100
AcDbLine
 10
67.2530404442
 20
960.8434060775
 30
0.0
 11
158.5698489427
 21
960.8434060775
 31
0.0
  0
LINE
  5
445
330
1F
100
AcDbEntity
  8
0
  6
Continuous
 62
     7
370
    25
100
AcDbLine
 10
77.9740830432
 20
908.7830156833
 30
0.0
 11
58.4406860209
 21
917.2763784336
 31
0.0
  0
LINE
  5
446
330
1F
100
AcDbEntity
  8
0
  6
Continuous
 62
     7
370
    25
100
AcDbLine
 10
81.3167144629
 20
906.52267176
 30
0.0
 11
81.1332898912
 21
906.1008241258
 31
0.0
  0
LINE
  5
447
330
1F
100
AcDbEntity
  8
0
  6
Continuous
 62
     7
370
    25
100
AcDbLine
 10
81.1332898912
 20
906.1008241258
 30
0.0
 11
57.9621871382
 21
916.1759063443
 31
0.0
  0
ARC
  5
448
330
1F
100
AcDbEntity
  8
0
  6
Continuous
 62
     7
370
    25
100
AcDbCircle
 10
67.2530404442
 20
937.5434060775
 30
0.0
 40
23.30000000000003
100
AcDbArc
 50
90.0
 51
246.5
  0
LINE
  5
449
330
1F
100
AcDbEntity
  8
0
  6
Continuous
 62
     7
370
    25
100
AcDbLine
 10
67.2530404442
 20
960.8434060775
 30
0.0
 11
67.2530404442
 21
960.5064370758
 31
0.0
  0
ARC
  5
44A
330
1F
100
AcDbEntity
  8
0
  6
Continuous
 62
     7
370
    25
100
AcDbCircle
 10
67.2530404442
 20
937.5434060775
 30
0.0
 40
22.10000000000008
100
AcDbArc
 50
90.0
 51
246.5
  0
LINE
  5
44B
330
1F
100
AcDbEntity
  8
0
  6
Continuous
 62
     7
370
    25
100
AcDbLine
 10
159.0298489427
 20
960.7998349669
 30
0.0
 11
158.5698489427
 21
960.8434060775
 31
0.0
  0
LWPOLYLINE
  5
44C
330
1F
100
AcDbEntity
  8
0
  6
Continuous
 62
     7
370
    25
100
AcDbPolyline
 90
        3
 70
   128
 43
0.0
 10
159.0298489427
 20
959.5556883151
 10
158.8137118452
 20
959.619387678
 10
158.5698489427
 20
959.6434060775
  0
ARC
  5
44D
330
1F
100
AcDbEntity
  8
0
  6
Continuous
 62
     7
370
    25
100
AcDbCircle
 10
158.5698489427
 20
958.3934060775
 30
0.0
 40
0.4499999999999318
100
AcDbArc
 50
0.0000000003
 51
90.0000000001
  0
LINE
  5
44E
330
1F
100
AcDbEntity
  8
0
  6
Continuous
 62
     7
370
    25
100
AcDbLine
 10
159.0198489427
 20
933.4434060775
 30
0.0
 11
159.0198489427
 21
958.3934060775
 31
0.0
  0
LINE
  5
44F
330
1F
100
AcDbEntity
  8
0
  6
Continuous
 62
     7
370
    25
100
AcDbLine
 10
65.9198489427
 20
247.0934060775
 30
0.0
 11
63.8698489427
 21
247.0934060775
 31
0.0
  0
LINE
  5
450
330
1F
100
AcDbEntity
  8
0
  6
Continuous
 62
     7
370
    25
100
AcDbLine
 10
65.9198489427
 20
763.4434060775
 30
0.0
 11
65.9198489427
 21
247.0934060775
 31
0.0
  0
SPLINE
  5
451
330
1F
100
AcDbEntity
  8
0
  6
Continuous
 62
     7
370
    25
100
AcDbSpline
210
0.0
220
0.0
230
1.0
 70
     8
 71
     3
 72
    11
 73
     7
 74
     0
 42
0.000000001
 43
0.00000001
 40
0.0
 40
0.0
 40
0.0
 40
0.0
 40
0.2500000000000064
 40
0.5000000000000152
 40
0.7500000000000068
 40
1.0
 40
1.0
 40
1.0
 40
1.0
 10
63.86984894269021
 20
763.9862992962807
 30
0.0
 10
64.13847488249309
 20
763.9410581947129
 30
0.0
 10
64.67572676209859
 20
763.8505759915774
 30
0.0
 10
65.35334388314729
 20
763.7148526868739
 30
0.0
 10
65.82740477004828
 20
763.5791293821705
 30
0.0
 10
65.88903421847625
 20
763.4886471790351
 30
0.0
 10
65.91984894269032
 20
763.4434060774672
 30
0.0
  0
LINE
  5
452
330
1F
100
AcDbEntity
  8
0
  6
Continuous
 62
     7
370
    25
100
AcDbLine
 10
63.5198489427
 20
247.0934060775
 30
0.0
 11
63.8698489427
 21
247.0934060775
 31
0.0
  0
LINE
  5
453
330
1F
100
AcDbEntity
  8
0
  6
Continuous
 62
     7
370
    25
100
AcDbLine
 10
51.2166143104
 20
251.0934060775
 30
0.0
 11
51.3272990171
 21
251.0934060775
 31
0.0
  0
LINE
  5
454
330
1F
100
AcDbEntity
  8
0
  6
Continuous
 62
     7
370
    25
100
AcDbLine
 10
50.2112702989
 20
760.6934060775
 30
0.0
 11
50.0698489427
 21
760.6934060775
 31
0.0
  0
LINE
  5
455
330
1F
100
AcDbEntity
  8
0
  6
Continuous
 62
     7
370
    25
100
AcDbLine
 10
63.8698489427
 20
764.6863350097
 30
0.0
 11
63.5198489427
 21
764.6863350097
 31
0.0
  0
LINE
  5
456
330
1F
100
AcDbEntity
  8
0
  6
Continuous
 62
     7
370
    25
100
AcDbLine
 10
57.1198489427
 20
745.2434060775
 30
0.0
 11
57.1198489427
 21
746.8434060775
 31
0.0
  0
LINE
  5
457
330
1F
100
AcDbEntity
  8
0
  6
Continuous
 62
     7
370
    25
100
AcDbLine
 10
57.1198489427
 20
746.8434060775
 30
0.0
 11
57.111891861
 21
747.0076947341
 31
0.0
  0
LINE
  5
458
330
1F
100
AcDbEntity
  8
0
  6
Continuous
 62
     7
370
    25
100
AcDbLine
 10
53.727806029
 20
747.0076947817
 30
0.0
 11
53.7198489427
 21
746.8434060775
 31
0.0
  0
LINE
  5
459
330
1F
100
AcDbEntity
  8
0
  6
Continuous
 62
     7
370
    25
100
AcDbLine
 10
53.7198489427
 20
746.8434060775
 30
0.0
 11
53.7198489427
 21
745.2434060775
 31
0.0
  0
LINE
  5
45A
330
1F
100
AcDbEntity
  8
0
  6
Continuous
 62
     7
370
    25
100
AcDbLine
 10
53.7198489427
 20
745.2434060775
 30
0.0
 11
53.720584542
 21
745.1934011112
 31
0.0
  0
LINE
  5
45B
330
1F
100
AcDbEntity
  8
0
  6
Continuous
 62
     7
370
    25
100
AcDbLine
 10
57.1191133457
 20
745.1934011906
 30
0.0
 11
57.1198489427
 21
745.2434060775
 31
0.0
  0
LINE
  5
45C
330
1F
100
AcDbEntity
  8
0
  6
Continuous
 62
     7
370
    25
100
AcDbLine
 10
57.1198489427
 20
500.4434060775
 30
0.0
 11
57.1198489427
 21
502.0434060775
 31
0.0
  0
LINE
  5
45D
330
1F
100
AcDbEntity
  8
0
  6
Continuous
 62
     7
370
    25
100
AcDbLine
 10
57.1198489427
 20
502.0434060775
 30
0.0
 11
57.1191135195
 21
502.0934050572
 31
0.0
  0
LINE
  5
45E
330
1F
100
AcDbEntity
  8
0
  6
Continuous
 62
     7
370
    25
100
AcDbLine
 10
53.7205843654
 20
502.0934050407
 30
0.0
 11
53.7198489427
 21
502.0434060775
 31
0.0
  0
LINE
  5
45F
330
1F
100
AcDbEntity
  8
0
  6
Continuous
 62
     7
370
    25
100
AcDbLine
 10
53.7198489427
 20
502.0434060775
 30
0.0
 11
53.7198489427
 21
500.4434060775
 31
0.0
  0
LINE
  5
460
330
1F
100
AcDbEntity
  8
0
  6
Continuous
 62
     7
370
    25
100
AcDbLine
 10
53.7198489427
 20
500.4434060775
 30
0.0
 11
53.7205843852
 21
500.3934064417
 31
0.0
  0
LINE
  5
461
330
1F
100
AcDbEntity
  8
0
  6
Continuous
 62
     7
370
    25
100
AcDbLine
 10
57.1191135
 20
500.3934064359
 30
0.0
 11
57.1198489427
 21
500.4434060775
 31
0.0
  0
LINE
  5
462
330
1F
100
AcDbEntity
  8
0
  6
Continuous
 62
     7
370
    25
100
AcDbLine
 10
57.1198489427
 20
263.6434060775
 30
0.0
 11
57.1198489427
 21
265.2434060775
 31
0.0
  0
LINE
  5
463
330
1F
100
AcDbEntity
  8
0
  6
Continuous
 62
     7
370
    25
100
AcDbLine
 10
57.1198489427
 20
265.2434060775
 30
0.0
 11
57.1191134899
 21
265.2934060625
 31
0.0
  0
LINE
  5
464
330
1F
100
AcDbEntity
  8
0
  6
Continuous
 62
     7
370
    25
100
AcDbLine
 10
53.7205843954
 20
265.2934060623
 30
0.0
 11
53.7198489427
 21
265.2434060775
 31
0.0
  0
LINE
  5
465
330
1F
100
AcDbEntity
  8
0
  6
Continuous
 62
     7
370
    25
100
AcDbLine
 10
53.7198489427
 20
265.2434060775
 30
0.0
 11
53.7198489427
 21
263.6434060775
 31
0.0
  0
LINE
  5
466
330
1F
100
AcDbEntity
  8
0
  6
Continuous
 62
     7
370
    25
100
AcDbLine
 10
53.7198489427
 20
263.6434060775
 30
0.0
 11
53.7278056207
 21
263.4791215791
 31
0.0
  0
LINE
  5
467
330
1F
100
AcDbEntity
  8
0
  6
Continuous
 62
     7
370
    25
100
AcDbLine
 10
57.1118922628
 20
263.4791215598
 30
0.0
 11
57.1198489427
 21
263.6434060775
 31
0.0
  0
LINE
  5
468
330
1F
100
AcDbEntity
  8
0
  6
Continuous
 62
     7
370
    25
100
AcDbLine
 10
63.8698489427
 20
763.9862992963
 30
0.0
 11
63.8698489427
 21
764.6863350097
 31
0.0
  0
LINE
  5
469
330
1F
100
AcDbEntity
  8
0
  6
Continuous
 62
     7
370
    25
100
AcDbLine
 10
63.8698489427
 20
765.4934060775
 30
0.0
 11
63.5198489427
 21
765.4934060775
 31
0.0
  0
LINE
  5
46A
330
1F
100
AcDbEntity
  8
0
  6
Continuous
 62
     7
370
    25
100
AcDbLine
 10
63.8698489427
 20
765.4934060775
 30
0.0
 11
63.8698489427
 21
764.6934060775
 31
0.0
  0
LINE
  5
46B
330
1F
100
AcDbEntity
  8
0
  6
Continuous
 62
     7
370
    25
100
AcDbLine
 10
63.8698489427
 20
764.6934060775
 30
0.0
 11
63.5198489427
 21
764.6934060775
 31
0.0
  0
SPLINE
  5
46C
330
1F
100
AcDbEntity
  8
0
  6
Continuous
 62
     7
370
    25
100
AcDbSpline
210
0.0
220
0.0
230
1.0
 70
     8
 71
     3
 72
    11
 73
     7
 74
     0
 42
0.000000001
 43
0.00000001
 40
0.0
 40
0.0
 40
0.0
 40
0.0
 40
0.2499999999999876
 40
0.4999999999999948
 40
0.7499999999999925
 40
1.0
 40
1.0
 40
1.0
 40
1.0
 10
65.91984894269044
 20
763.4434060774685
 30
0.0
 10
65.88903421847641
 20
763.712032017271
 30
0.0
 10
65.82740477004828
 20
764.2492838968765
 30
0.0
 10
65.35334388314712
 20
764.9269010179252
 30
0.0
 10
64.67572676209876
 20
765.4009619048256
 30
0.0
 10
64.13847488249314
 20
765.4625913532536
 30
0.0
 10
63.86984894269043
 20
765.4934060774677
 30
0.0
  0
SPLINE
  5
46D
330
1F
100
AcDbEntity
  8
0
  6
Continuous
 62
     7
370
    25
100
AcDbSpline
210
0.0
220
0.0
230
1.0
 70
     8
 71
     3
 72
    11
 73
     7
 74
     0
 42
0.000000001
 43
0.00000001
 40
0.0
 40
0.0
 40
0.0
 40
0.0
 40
0.0963281961550274
 40
0.3975521307699977
 40
0.6987760653850033
 40
1.0
 40
1.0
 40
1.0
 40
1.0
 10
65.05512649866397
 20
763.7687877763487
 30
0.0
 10
65.04706374088326
 20
763.8204777096036
 30
0.0
 10
65.01378826533694
 20
764.0338051041261
 30
0.0
 10
64.76848987284428
 20
764.3459833845061
 30
0.0
 10
64.36272014583638
 20
764.6375358741669
 30
0.0
 10
64.03413934373903
 20
764.6747826763675
 30
0.0
 10
63.86984894269043
 20
764.6934060774677
 30
0.0
  0
LINE
  5
46E
330
1F
100
AcDbEntity
  8
0
  6
Continuous
 62
     7
370
    25
100
AcDbLine
 10
65.9198489427
 20
247.0434060775
 30
0.0
 11
65.9198489427
 21
247.0934060775
 31
0.0
  0
LINE
  5
46F
330
1F
100
AcDbEntity
  8
0
  6
Continuous
 62
     7
370
    25
100
AcDbLine
 10
65.1198489427
 20
247.0934060775
 30
0.0
 11
65.1198489427
 21
247.0434060775
 31
0.0
  0
ARC
  5
470
330
1F
100
AcDbEntity
  8
0
  6
Continuous
 62
     7
370
    25
100
AcDbCircle
 10
63.8698489427
 20
247.0434060775
 30
0.0
 40
1.249999999999972
100
AcDbArc
 50
270.0
 51
0.0
  0
ARC
  5
471
330
1F
100
AcDbEntity
  8
0
  6
Continuous
 62
     7
370
    25
100
AcDbCircle
 10
63.8698489427
 20
247.0434060775
 30
0.0
 40
2.049999999999997
100
AcDbArc
 50
270.0
 51
0.0
  0
LINE
  5
472
330
1F
100
AcDbEntity
  8
0
  6
Continuous
 62
     7
370
    25
100
AcDbLine
 10
63.8698489427
 20
244.9934060775
 30
0.0
 11
63.5198489427
 21
244.9934060775
 31
0.0
  0
LINE
  5
473
330
1F
100
AcDbEntity
  8
0
  6
Continuous
 62
     7
370
    25
100
AcDbLine
 10
63.8698489427
 20
245.7934060775
 30
0.0
 11
63.5198489427
 21
245.7934060775
 31
0.0
  0
LINE
  5
474
330
1F
100
AcDbEntity
  8
0
  6
Continuous
 62
     7
370
    25
100
AcDbLine
 10
45.3198489427
 20
244.9934060775
 30
0.0
 11
45.3198489427
 21
245.6934060775
 31
0.0
  0
LINE
  5
475
330
1F
100
AcDbEntity
  8
0
  6
Continuous
 62
     7
370
    25
100
AcDbLine
 10
46.0674264194
 20
244.9934060775
 30
0.0
 11
45.3198489427
 21
244.9934060775
 31
0.0
  0
LINE
  5
476
330
1F
100
AcDbEntity
  8
0
  6
Continuous
 62
     7
370
    25
100
AcDbLine
 10
46.0698489427
 20
245.7934060775
 30
0.0
 11
46.2112702989
 21
245.7934060775
 31
0.0
  0
LINE
  5
477
330
1F
100
AcDbEntity
  8
0
  6
Continuous
 62
     7
370
    25
100
AcDbLine
 10
45.3198489427
 20
764.7934060775
 30
0.0
 11
45.3198489427
 21
765.4934060775
 31
0.0
  0
LINE
  5
478
330
1F
100
AcDbEntity
  8
0
  6
Continuous
 62
     7
370
    25
100
AcDbLine
 10
45.3198489427
 20
765.4934060775
 30
0.0
 11
46.0710716257
 21
765.4934060775
 31
0.0
  0
LINE
  5
479
330
1F
100
AcDbEntity
  8
0
  6
Continuous
 62
     7
370
    25
100
AcDbLine
 10
46.2112702989
 20
764.6934060775
 30
0.0
 11
46.0698489427
 21
764.6934060775
 31
0.0
  0
LINE
  5
47A
330
1F
100
AcDbEntity
  8
0
  6
Continuous
 62
     7
370
    25
100
AcDbLine
 10
66.4198489427
 20
497.7934060775
 30
0.0
 11
66.4198489427
 21
513.7934060775
 31
0.0
  0
LINE
  5
47B
330
1F
100
AcDbEntity
  8
0
  6
Continuous
 62
     7
370
    25
100
AcDbLine
 10
61.4357863295
 20
243.1434060775
 30
0.0
 11
62.8198489427
 21
243.1434060775
 31
0.0
  0
LINE
  5
47C
330
1F
100
AcDbEntity
  8
0
  6
Continuous
 62
     7
370
    25
100
AcDbLine
 10
45.8198489427
 20
243.1434060775
 30
0.0
 11
61.4357863295
 21
243.1434060775
 31
0.0
  0
LINE
  5
47D
330
1F
100
AcDbEntity
  8
0
  6
Continuous
 62
     7
370
    25
100
AcDbLine
 10
61.4357863295
 20
241.6434060775
 30
0.0
 11
62.8198489427
 21
241.6434060775
 31
0.0
  0
LINE
  5
47E
330
1F
100
AcDbEntity
  8
0
  6
Continuous
 62
     7
370
    25
100
AcDbLine
 10
45.8198489427
 20
241.6434060775
 30
0.0
 11
61.4357863295
 21
241.6434060775
 31
0.0
  0
LWPOLYLINE
  5
47F
330
1F
100
AcDbEntity
  8
0
  6
Continuous
 62
     7
370
    25
100
AcDbPolyline
 90
        3
 70
   128
 43
0.0
 10
49.778229587
 20
243.6434060775
 10
49.6737879071
 20
243.4525094385
 10
49.6688073938
 20
243.4434060775
  0
LINE
  5
480
330
1F
100
AcDbEntity
  8
0
  6
Continuous
 62
     7
370
    25
100
AcDbLine
 10
50.0036750355
 20
243.4434060775
 30
0.0
 11
49.6688073938
 21
243.4434060775
 31
0.0
  0
LWPOLYLINE
  5
481
330
1F
100
AcDbEntity
  8
0
  6
Continuous
 62
     7
370
    25
100
AcDbPolyline
 90
        3
 70
   128
 43
0.0
 10
50.0036750355
 20
243.4434060775
 10
50.0086555488
 20
243.4525094385
 10
50.1130972288
 20
243.6434060775
  0
LINE
  5
482
330
1F
100
AcDbEntity
  8
0
  6
Continuous
 62
     7
370
    25
100
AcDbLine
 10
46.3198489427
 20
241.1434060775
 30
0.0
 11
47.9685961082
 21
241.1434060775
 31
0.0
  0
LINE
  5
483
330
1F
100
AcDbEntity
  8
0
  6
Continuous
 62
     7
370
    25
100
AcDbLine
 10
50.9149346841
 20
250.6434060775
 30
0.0
 11
51.0462810422
 21
250.6434060775
 31
0.0
  0
LINE
  5
484
330
1F
100
AcDbEntity
  8
0
  6
Continuous
 62
     7
370
    25
100
AcDbLine
 10
49.778229587
 20
243.4434060775
 30
0.0
 11
49.778229587
 21
243.6434060775
 31
0.0
  0
LINE
  5
485
330
1F
100
AcDbEntity
  8
0
  6
Continuous
 62
     7
370
    25
100
AcDbLine
 10
62.1300961961
 20
768.8434060775
 30
0.0
 11
45.8198489427
 21
768.8434060775
 31
0.0
  0
LINE
  5
486
330
1F
100
AcDbEntity
  8
0
  6
Continuous
 62
     7
370
    25
100
AcDbLine
 10
62.8198489427
 20
768.8434060775
 30
0.0
 11
62.1300961961
 21
768.8434060775
 31
0.0
  0
LINE
  5
487
330
1F
100
AcDbEntity
  8
0
  6
Continuous
 62
     7
370
    25
100
AcDbLine
 10
61.6706698871
 20
769.3434060775
 30
0.0
 11
46.3198489427
 21
769.3434060775
 31
0.0
  0
LINE
  5
488
330
1F
100
AcDbEntity
  8
0
  6
Continuous
 62
     7
370
    25
100
AcDbLine
 10
62.3198489427
 20
769.3434060775
 30
0.0
 11
61.6706698871
 21
769.3434060775
 31
0.0
  0
LINE
  5
489
330
1F
100
AcDbEntity
  8
0
  6
Continuous
 62
     7
370
    25
100
AcDbLine
 10
62.1300961961
 20
767.3434060775
 30
0.0
 11
45.8198489427
 21
767.3434060775
 31
0.0
  0
LINE
  5
48A
330
1F
100
AcDbEntity
  8
0
  6
Continuous
 62
     7
370
    25
100
AcDbLine
 10
62.8198489427
 20
767.3434060775
 30
0.0
 11
62.1300961961
 21
767.3434060775
 31
0.0
  0
LINE
  5
48B
330
1F
100
AcDbEntity
  8
0
  6
Continuous
 62
     7
370
    25
100
AcDbLine
 10
42.3198489427
 20
331.2446576423
 30
0.0
 11
42.3198489427
 21
275.2417608257
 31
0.0
  0
LINE
  5
48C
330
1F
100
AcDbEntity
  8
0
  6
Continuous
 62
     7
370
    25
100
AcDbLine
 10
43.9198489427
 20
273.2434060775
 30
0.0
 11
42.3198489427
 21
273.2434060775
 31
0.0
  0
SPLINE
  5
48D
330
1F
100
AcDbEntity
  8
0
  6
Continuous
 62
     7
370
    25
100
AcDbSpline
210
0.0
220
0.0
230
1.0
 70
    24
 71
     3
 72
    11
 73
     7
 74
     0
 42
0.000000001
 43
0.00000001
 40
0.0
 40
0.0
 40
0.0
 40
0.0
 40
0.2833229682742945
 40
0.558046278621556
 40
0.7754268978867095
 40
1.0
 40
1.0
 40
1.0
 40
1.0
 10
42.31984894267337
 20
275.2417608257098
 30
0.0
 10
42.31984894267337
 20
274.9446471330566
 30
0.0
 10
42.31984894267337
 20
274.3594379933863
 30
0.0
 10
42.31984894267343
 20
273.7102637981922
 30
0.0
 10
42.31984894267337
 20
273.3151036811428
 30
0.0
 10
42.31984894267343
 20
273.2675631746825
 30
0.0
 10
42.31984894267337
 20
273.2434060774676
 30
0.0
  0
LINE
  5
48E
330
1F
100
AcDbEntity
  8
0
  6
Continuous
 62
     7
370
    25
100
AcDbLine
 10
43.9198489427
 20
333.2434060775
 30
0.0
 11
42.3198489427
 21
333.2434060775
 31
0.0
  0
SPLINE
  5
48F
330
1F
100
AcDbEntity
  8
0
  6
Continuous
 62
     7
370
    25
100
AcDbSpline
210
0.0
220
0.0
230
1.0
 70
    24
 71
     3
 72
    11
 73
     7
 74
     0
 42
0.000000001
 43
0.00000001
 40
0.0
 40
0.0
 40
0.0
 40
0.0
 40
0.2833048031626439
 40
0.5580362635661744
 40
0.7754301448953661
 40
1.0
 40
1.0
 40
1.0
 40
1.0
 10
42.31984894267332
 20
333.2434060774676
 30
0.0
 10
42.31984894267327
 20
333.2044592593325
 30
0.0
 10
42.31984894267327
 20
333.1277442279343
 30
0.0
 10
42.31984894267332
 20
332.5932126389568
 30
0.0
 10
42.31984894267343
 20
331.9418084325496
 30
0.0
 10
42.31984894267337
 20
331.4795431063596
 30
0.0
 10
42.31984894267337
 20
331.2446576423168
 30
0.0
  0
LINE
  5
490
330
1F
100
AcDbEntity
  8
0
  6
Continuous
 62
     7
370
    25
100
AcDbLine
 10
40.9198489427
 20
275.7811215856
 30
0.0
 11
40.9198489427
 21
330.7056905694
 31
0.0
  0
SPLINE
  5
491
330
1F
100
AcDbEntity
  8
0
  6
Continuous
 62
     7
370
    25
100
AcDbSpline
210
0.0
220
0.0
230
1.0
 70
     8
 71
     3
 72
    11
 73
     7
 74
     0
 42
0.000000001
 43
0.00000001
 40
0.0
 40
0.0
 40
0.0
 40
0.0
 40
0.2514401155114613
 40
0.5021687862219011
 40
0.7628301310728067
 40
1.0
 40
1.0
 40
1.0
 40
1.0
 10
40.91984894267336
 20
275.7811215855575
 30
0.0
 10
40.93815972264303
 20
275.5289788211419
 30
0.0
 10
40.97472947259478
 20
275.0254067252429
 30
0.0
 10
41.27198833860191
 20
274.3097005255432
 30
0.0
 10
41.7155915768761
 20
273.6863271822966
 30
0.0
 10
42.12486740643284
 20
273.386327690577
 30
0.0
 10
42.31984894267337
 20
273.2434060774676
 30
0.0
  0
SPLINE
  5
492
330
1F
100
AcDbEntity
  8
0
  6
Continuous
 62
     7
370
    25
100
AcDbSpline
210
0.0
220
0.0
230
1.0
 70
    24
 71
     3
 72
    13
 73
     9
 74
     0
 42
0.000000001
 43
0.00000001
 40
0.0
 40
0.0
 40
0.0
 40
0.0
 40
0.1275744813591049
 40
0.2546483440425906
 40
0.5000017710082056
 40
0.7453551979738147
 40
0.8725131741728124
 40
1.0
 40
1.0
 40
1.0
 40
1.0
 10
42.31984894267337
 20
273.2434060774676
 30
0.0
 10
42.31984894267332
 20
273.2509603399122
 30
0.0
 10
42.31984894267343
 20
273.2660392209038
 30
0.0
 10
42.31984894267332
 20
273.4275417261749
 30
0.0
 10
42.31984894267321
 20
273.7943726402785
 30
0.0
 10
42.31984894267343
 20
274.3426723884687
 30
0.0
 10
42.31984894267337
 20
274.8428223927854
 30
0.0
 10
42.31984894267337
 20
275.1086669104018
 30
0.0
 10
42.31984894267337
 20
275.2417608257098
 30
0.0
  0
SPLINE
  5
493
330
1F
100
AcDbEntity
  8
0
  6
Continuous
 62
     7
370
    25
100
AcDbSpline
210
0.0
220
0.0
230
1.0
 70
     8
 71
     3
 72
    11
 73
     7
 74
     0
 42
0.000000001
 43
0.00000001
 40
0.0
 40
0.0
 40
0.0
 40
0.0
 40
0.2371761177076138
 40
0.4978312223648395
 40
0.7485598887879957
 40
0.9999999999999999
 40
0.9999999999999999
 40
0.9999999999999999
 40
0.9999999999999999
 10
42.31984894267332
 20
333.2434060774676
 30
0.0
 10
42.12486241288283
 20
333.1004802921438
 30
0.0
 10
41.71558687785654
 20
332.8004799417589
 30
0.0
 10
41.2719860219995
 20
332.1771058206038
 30
0.0
 10
40.97472944462882
 20
331.4614054193937
 30
0.0
 10
40.9381597133121
 20
330.9578333303572
 30
0.0
 10
40.91984894267336
 20
330.7056905693777
 30
0.0
  0
SPLINE
  5
494
330
1F
100
AcDbEntity
  8
0
  6
Continuous
 62
     7
370
    25
100
AcDbSpline
210
0.0
220
0.0
230
1.0
 70
    24
 71
     3
 72
    13
 73
     9
 74
     0
 42
0.000000001
 43
0.00000001
 40
0.0
 40
0.0
 40
0.0
 40
0.0
 40
0.1275693177285173
 40
0.2546459829165763
 40
0.5000146894810205
 40
0.7453717616663734
 40
0.8725249485133847
 40
1.0
 40
1.0
 40
1.0
 40
1.0
 10
42.31984894267337
 20
331.2446576423168
 30
0.0
 10
42.31984894267337
 20
331.3778530774743
 30
0.0
 10
42.31984894267337
 20
331.6437295680727
 30
0.0
 10
42.31984894267349
 20
332.1438919853255
 30
0.0
 10
42.31984894267321
 20
332.6922150305848
 30
0.0
 10
42.31984894267332
 20
333.0592857515422
 30
0.0
 10
42.31984894267337
 20
333.2206975487636
 30
0.0
 10
42.31984894267337
 20
333.2358301917245
 30
0.0
 10
42.31984894267337
 20
333.2434060774676
 30
0.0
  0
ARC
  5
495
330
1F
100
AcDbEntity
  8
0
  6
Continuous
 62
     7
370
    25
100
AcDbCircle
 10
43.940829128
 20
738.2484339302
 30
0.0
 40
0.5000000000000379
100
AcDbArc
 50
92.4048581936
 51
150.0
  0
ARC
  5
496
330
1F
100
AcDbEntity
  8
0
  6
Continuous
 62
     7
370
    25
100
AcDbCircle
 10
43.940829128
 20
698.247553206
 30
0.0
 40
0.5000000000000355
100
AcDbArc
 50
210.0
 51
267.5951418064
  0
SPLINE
  5
497
330
1F
100
AcDbEntity
  8
0
  6
Continuous
 62
     7
370
    25
100
AcDbSpline
210
0.0
220
0.0
230
1.0
 70
     8
 71
     3
 72
     9
 73
     5
 74
     0
 42
0.000000001
 43
0.00000001
 40
0.0
 40
0.0
 40
0.0
 40
0.0
 40
0.4999928052376024
 40
1.0
 40
1.0
 40
1.0
 40
1.0
 10
41.98683624078114
 20
735.864018971877
 30
0.0
 10
41.97889746063454
 20
735.8469734295037
 30
0.0
 10
41.96301967186739
 20
735.8128818541951
 30
0.0
 10
41.97889730831933
 20
735.7696232042839
 30
0.0
 10
41.98683624078114
 20
735.7479935680926
 30
0.0
  0
LINE
  5
498
330
1F
100
AcDbEntity
  8
0
  6
Continuous
 62
     7
370
    25
100
AcDbLine
 10
43.5078164261
 20
738.4984339302
 30
0.0
 11
41.9868362408
 21
735.8640189719
 31
0.0
  0
LINE
  5
499
330
1F
100
AcDbEntity
  8
0
  6
Continuous
 62
     7
370
    25
100
AcDbLine
 10
43.5078164261
 20
697.997553206
 30
0.0
 11
41.9868362408
 21
700.6319681643
 31
0.0
  0
SPLINE
  5
49A
330
1F
100
AcDbEntity
  8
0
  6
Continuous
 62
     7
370
    25
100
AcDbSpline
210
0.0
220
0.0
230
1.0
 70
     8
 71
     3
 72
     9
 73
     5
 74
     0
 42
0.000000001
 43
0.00000001
 40
0.0
 40
0.0
 40
0.0
 40
0.0
 40
0.4999928052377697
 40
0.9999999999999999
 40
0.9999999999999999
 40
0.9999999999999999
 40
0.9999999999999999
 10
41.98683624078103
 20
700.7479935680926
 30
0.0
 10
41.97889746063444
 20
700.7263645688644
 30
0.0
 10
41.96301967186739
 20
700.6831059479371
 30
0.0
 10
41.97889730831928
 20
700.6490142557054
 30
0.0
 10
41.98683624078103
 20
700.6319681643082
 30
0.0
  0
SPLINE
  5
49B
330
1F
100
AcDbEntity
  8
0
  6
Continuous
 62
     7
370
    25
100
AcDbSpline
210
0.0
220
0.0
230
1.0
 70
     8
 71
     3
 72
    12
 73
     8
 74
     0
 42
0.000000001
 43
0.00000001
 40
0.0
 40
0.0
 40
0.0
 40
0.0
 40
0.2526335935619588
 40
0.4991112428196053
 40
0.74940486796859
 40
0.8428769288219713
 40
1.0
 40
1.0
 40
1.0
 40
1.0
 10
41.98683624078114
 20
700.7479935680926
 30
0.0
 10
41.97506337159351
 20
700.7495921634194
 30
0.0
 10
41.9518045037251
 20
700.7527504009643
 30
0.0
 10
41.93231310058548
 20
700.7875835329108
 30
0.0
 10
41.92420279677084
 20
700.8233668359127
 30
0.0
 10
41.9204820310316
 20
700.8555616716638
 30
0.0
 10
41.92009291703214
 20
700.8717918484344
 30
0.0
 10
41.91984894267337
 20
700.8819681643081
 30
0.0
  0
LINE
  5
49C
330
1F
100
AcDbEntity
  8
0
  6
Continuous
 62
     7
370
    25
100
AcDbLine
 10
41.9198489427
 20
700.8819681643
 30
0.0
 11
41.9198489427
 21
735.6140189719
 31
0.0
  0
SPLINE
  5
49D
330
1F
100
AcDbEntity
  8
0
  6
Continuous
 62
     7
370
    25
100
AcDbSpline
210
0.0
220
0.0
230
1.0
 70
     8
 71
     3
 72
    12
 73
     8
 74
     0
 42
0.000000001
 43
0.00000001
 40
0.0
 40
0.0
 40
0.0
 40
0.0
 40
0.2526335952366577
 40
0.4991112461282722
 40
0.7494048729373067
 40
0.8428422724506356
 40
1.0
 40
1.0
 40
1.0
 40
1.0
 10
41.98683624078114
 20
735.7479935680926
 30
0.0
 10
41.97506337150475
 20
735.7463949718923
 30
0.0
 10
41.95180450346076
 20
735.7432367326217
 30
0.0
 10
41.93231310161988
 20
735.7084036134404
 30
0.0
 10
41.92420327014479
 20
735.6726223731126
 30
0.0
 10
41.92048219316635
 20
735.640427795998
 30
0.0
 10
41.92009301259792
 20
735.6241975659424
 30
0.0
 10
41.91984894267337
 20
735.614018971877
 30
0.0
  0
SPLINE
  5
49E
330
1F
100
AcDbEntity
  8
0
  6
Continuous
 62
     7
370
    25
100
AcDbSpline
210
0.0
220
0.0
230
1.0
 70
     8
 71
     3
 72
    12
 73
     8
 74
     0
 42
0.000000001
 43
0.00000001
 40
0.0
 40
0.0
 40
0.0
 40
0.0
 40
0.2526335952363324
 40
0.4991112461283376
 40
0.7494048729377334
 40
0.8428422697599232
 40
1.0
 40
1.0
 40
1.0
 40
1.0
 10
41.98683624078103
 20
700.6319681643082
 30
0.0
 10
41.97506337150458
 20
700.6547156091607
 30
0.0
 10
41.95180450346037
 20
700.6996562099388
 30
0.0
 10
41.93231310162015
 20
700.7656941162815
 30
0.0
 10
41.9242032701807
 20
700.8121846396822
 30
0.0
 10
41.92048219317967
 20
700.8506812430298
 30
0.0
 10
41.92009301260552
 20
700.869909434501
 30
0.0
 10
41.91984894267326
 20
700.8819681643081
 30
0.0
  0
SPLINE
  5
49F
330
1F
100
AcDbEntity
  8
0
  6
Continuous
 62
     7
370
    25
100
AcDbSpline
210
0.0
220
0.0
230
1.0
 70
     8
 71
     3
 72
    12
 73
     8
 74
     0
 42
0.000000001
 43
0.00000001
 40
0.0
 40
0.0
 40
0.0
 40
0.0
 40
0.1571230733353046
 40
0.2505951320308426
 40
0.500888757180317
 40
0.7473664064378823
 40
0.9999999999999999
 40
0.9999999999999999
 40
0.9999999999999999
 40
0.9999999999999999
 10
41.91984894267337
 20
735.614018971877
 30
0.0
 10
41.92009291703841
 20
735.6260750684287
 30
0.0
 10
41.92048203104276
 20
735.6453033017048
 30
0.0
 10
41.92420279679953
 20
735.6837997392109
 30
0.0
 10
41.93231310058582
 20
735.7302930295024
 30
0.0
 10
41.95180450372493
 20
735.7963309237923
 30
0.0
 10
41.97506337159346
 20
735.8412715261998
 30
0.0
 10
41.98683624078114
 20
735.864018971877
 30
0.0
  0
LINE
  5
4A0
330
1F
100
AcDbEntity
  8
0
  6
Continuous
 62
     7
370
    25
100
AcDbLine
 10
50.834062505
 20
759.9291925151
 30
0.0
 11
45.9698489427
 21
764.7934060775
 31
0.0
  0
ARC
  5
4A1
330
1F
100
AcDbEntity
  8
0
  6
Continuous
 62
     7
370
    25
100
AcDbCircle
 10
49.4198489427
 20
758.5149789527
 30
0.0
 40
2.000000000000041
100
AcDbArc
 50
0.0
 51
45.0
  0
LINE
  5
4A2
330
1F
100
AcDbEntity
  8
0
  6
Continuous
 62
     7
370
    25
100
AcDbLine
 10
51.4198489427
 20
748.0434060775
 30
0.0
 11
51.4198489427
 21
758.5149789527
 31
0.0
  0
ARC
  5
4A3
330
1F
100
AcDbEntity
  8
0
  6
Continuous
 62
     7
370
    25
100
AcDbCircle
 10
53.4198489427
 20
748.0434060775
 30
0.0
 40
2.0
100
AcDbArc
 50
180.0
 51
270.0
  0
LINE
  5
4A4
330
1F
100
AcDbEntity
  8
0
  6
Continuous
 62
     7
370
    25
100
AcDbLine
 10
53.5198489427
 20
746.0434060775
 30
0.0
 11
53.4198489427
 21
746.0434060775
 31
0.0
  0
ARC
  5
4A5
330
1F
100
AcDbEntity
  8
0
  6
Continuous
 62
     7
370
    25
100
AcDbCircle
 10
55.4198489427
 20
746.0434060775
 30
0.0
 40
1.900000000000006
100
AcDbArc
 50
180.0
 51
0.0
  0
LINE
  5
4A6
330
1F
100
AcDbEntity
  8
0
  6
Continuous
 62
     7
370
    25
100
AcDbLine
 10
63.5198489427
 20
264.4434060775
 30
0.0
 11
63.5198489427
 21
746.0434060775
 31
0.0
  0
LINE
  5
4A7
330
1F
100
AcDbEntity
  8
0
  6
Continuous
 62
     7
370
    25
100
AcDbLine
 10
57.3198489427
 20
264.4434060775
 30
0.0
 11
63.5198489427
 21
264.4434060775
 31
0.0
  0
ARC
  5
4A8
330
1F
100
AcDbEntity
  8
0
  6
Continuous
 62
     7
370
    25
100
AcDbCircle
 10
55.4198489427
 20
264.4434060775
 30
0.0
 40
1.900000000000006
100
AcDbArc
 50
0.0
 51
180.0
  0
LINE
  5
4A9
330
1F
100
AcDbEntity
  8
0
  6
Continuous
 62
     7
370
    25
100
AcDbLine
 10
53.4198489427
 20
264.4434060775
 30
0.0
 11
53.5198489427
 21
264.4434060775
 31
0.0
  0
ARC
  5
4AA
330
1F
100
AcDbEntity
  8
0
  6
Continuous
 62
     7
370
    25
100
AcDbCircle
 10
53.4198489427
 20
262.4434060775
 30
0.0
 40
2.0
100
AcDbArc
 50
90.0
 51
180.0
  0
LINE
  5
4AB
330
1F
100
AcDbEntity
  8
0
  6
Continuous
 62
     7
370
    25
100
AcDbLine
 10
51.4198489427
 20
251.9718332022
 30
0.0
 11
51.4198489427
 21
262.4434060775
 31
0.0
  0
ARC
  5
4AC
330
1F
100
AcDbEntity
  8
0
  6
Continuous
 62
     7
370
    25
100
AcDbCircle
 10
49.4198489427
 20
251.9718332022
 30
0.0
 40
2.0
100
AcDbArc
 50
315.0
 51
0.0
  0
LINE
  5
4AD
330
1F
100
AcDbEntity
  8
0
  6
Continuous
 62
     7
370
    25
100
AcDbLine
 10
45.9698489427
 20
245.6934060775
 30
0.0
 11
50.834062505
 21
250.5576196398
 31
0.0
  0
CIRCLE
  5
4AE
330
1F
100
AcDbEntity
  8
0
  6
Continuous
 62
     7
370
    25
100
AcDbCircle
 10
55.4198489427
 20
501.2434060775
 30
0.0
 40
1.90000000000002
  0
LINE
  5
4AF
330
1F
100
AcDbEntity
  8
0
  6
Continuous
 62
     7
370
    25
100
AcDbLine
 10
63.5198489427
 20
746.0434060775
 30
0.0
 11
57.3198489427
 21
746.0434060775
 31
0.0
  0
LINE
  5
4B0
330
1F
100
AcDbEntity
  8
0
  6
Continuous
 62
     7
370
    25
100
AcDbLine
 10
43.9198489427
 20
764.7934060775
 30
0.0
 11
45.9698489427
 21
764.7934060775
 31
0.0
  0
LINE
  5
4B1
330
1F
100
AcDbEntity
  8
0
  6
Continuous
 62
     7
370
    25
100
AcDbLine
 10
43.9198489427
 20
245.6934060775
 30
0.0
 11
43.9198489427
 21
764.7934060775
 31
0.0
  0
LINE
  5
4B2
330
1F
100
AcDbEntity
  8
0
  6
Continuous
 62
     7
370
    25
100
AcDbLine
 10
45.9698489427
 20
245.6934060775
 30
0.0
 11
43.9198489427
 21
245.6934060775
 31
0.0
  0
ARC
  5
4B3
330
1F
100
AcDbEntity
  8
0
  6
Continuous
 62
     7
370
    25
100
AcDbCircle
 10
55.4198489427
 20
746.1434060775
 30
0.0
 40
1.900000000000013
100
AcDbArc
 50
0.0
 51
180.0
  0
LINE
  5
4B4
330
1F
100
AcDbEntity
  8
0
  6
Continuous
 62
     7
370
    25
100
AcDbLine
 10
53.5198489427
 20
746.1434060775
 30
0.0
 11
53.4198489427
 21
746.1434060775
 31
0.0
  0
ARC
  5
4B5
330
1F
100
AcDbEntity
  8
0
  6
Continuous
 62
     7
370
    25
100
AcDbCircle
 10
53.4198489427
 20
748.0434060775
 30
0.0
 40
1.900000000000013
100
AcDbArc
 50
180.0
 51
270.0
  0
LINE
  5
4B6
330
1F
100
AcDbEntity
  8
0
  6
Continuous
 62
     7
370
    25
100
AcDbLine
 10
51.5198489427
 20
748.0434060775
 30
0.0
 11
51.5198489427
 21
758.5149789527
 31
0.0
  0
ARC
  5
4B7
330
1F
100
AcDbEntity
  8
0
  6
Continuous
 62
     7
370
    25
100
AcDbCircle
 10
49.4198489427
 20
758.5149789527
 30
0.0
 40
2.100000000000044
100
AcDbArc
 50
0.0
 51
45.0
  0
LINE
  5
4B8
330
1F
100
AcDbEntity
  8
0
  6
Continuous
 62
     7
370
    25
100
AcDbLine
 10
50.9047731832
 20
759.9999031932
 30
0.0
 11
46.1112702989
 21
764.7934060775
 31
0.0
  0
LINE
  5
4B9
330
1F
100
AcDbEntity
  8
0
  6
Continuous
 62
     7
370
    25
100
AcDbLine
 10
63.5198489427
 20
764.7934060775
 30
0.0
 11
63.5198489427
 21
746.1434060775
 31
0.0
  0
LINE
  5
4BA
330
1F
100
AcDbEntity
  8
0
  6
Continuous
 62
     7
370
    25
100
AcDbLine
 10
63.5198489427
 20
746.1434060775
 30
0.0
 11
57.3198489427
 21
746.1434060775
 31
0.0
  0
ARC
  5
4BB
330
1F
100
AcDbEntity
  8
0
  6
Continuous
 62
     7
370
    25
100
AcDbCircle
 10
49.4198489427
 20
251.9718332022
 30
0.0
 40
2.100000000000051
100
AcDbArc
 50
315.0
 51
0.0
  0
LINE
  5
4BC
330
1F
100
AcDbEntity
  8
0
  6
Continuous
 62
     7
370
    25
100
AcDbLine
 10
51.5198489427
 20
262.4434060775
 30
0.0
 11
51.5198489427
 21
251.9718332022
 31
0.0
  0
ARC
  5
4BD
330
1F
100
AcDbEntity
  8
0
  6
Continuous
 62
     7
370
    25
100
AcDbCircle
 10
53.4198489427
 20
262.4434060775
 30
0.0
 40
1.899999999999977
100
AcDbArc
 50
90.0
 51
180.0
  0
LINE
  5
4BE
330
1F
100
AcDbEntity
  8
0
  6
Continuous
 62
     7
370
    25
100
AcDbLine
 10
53.5198489427
 20
264.3434060775
 30
0.0
 11
53.4198489427
 21
264.3434060775
 31
0.0
  0
ARC
  5
4BF
330
1F
100
AcDbEntity
  8
0
  6
Continuous
 62
     7
370
    25
100
AcDbCircle
 10
55.4198489427
 20
264.3434060775
 30
0.0
 40
1.900000000000013
100
AcDbArc
 50
180.0
 51
0.0
  0
LINE
  5
4C0
330
1F
100
AcDbEntity
  8
0
  6
Continuous
 62
     7
370
    25
100
AcDbLine
 10
50.9047731832
 20
250.4869089617
 30
0.0
 11
46.1112702989
 21
245.6934060775
 31
0.0
  0
LINE
  5
4C1
330
1F
100
AcDbEntity
  8
0
  6
Continuous
 62
     7
370
    25
100
AcDbLine
 10
63.5198489427
 20
245.6934060775
 30
0.0
 11
63.5198489427
 21
264.3434060775
 31
0.0
  0
LINE
  5
4C2
330
1F
100
AcDbEntity
  8
0
  6
Continuous
 62
     7
370
    25
100
AcDbLine
 10
63.5198489427
 20
264.3434060775
 30
0.0
 11
57.3198489427
 21
264.3434060775
 31
0.0
  0
SPLINE
  5
4C3
330
1F
100
AcDbEntity
  8
0
  6
Continuous
 62
     7
370
    25
100
AcDbSpline
210
0.0
220
0.0
230
1.0
 70
     8
 71
     3
 72
    11
 73
     7
 74
     0
 42
0.000000001
 43
0.00000001
 40
0.0
 40
0.0
 40
0.0
 40
0.0
 40
0.2500000000000038
 40
0.4999999999999989
 40
0.7499999999999998
 40
1.0
 40
1.0
 40
1.0
 40
1.0
 10
46.04984894267178
 20
243.6434060774674
 30
0.0
 10
46.05496738902565
 20
243.6742208016814
 30
0.0
 10
46.06520428173344
 20
243.7358502501095
 30
0.0
 10
46.08055962079505
 20
244.2099111370104
 30
0.0
 10
46.09591495985666
 20
244.887528258059
 30
0.0
 10
46.10615185256439
 20
245.4247801376646
 30
0.0
 10
46.11127029891826
 20
245.6934060774674
 30
0.0
  0
LINE
  5
4C4
330
1F
100
AcDbEntity
  8
0
  6
Continuous
 62
     7
370
    25
100
AcDbLine
 10
63.5198489427
 20
245.6934060775
 30
0.0
 11
63.5198489427
 21
243.6434060775
 31
0.0
  0
LINE
  5
4C5
330
1F
100
AcDbEntity
  8
0
  6
Continuous
 62
     7
370
    25
100
AcDbLine
 10
63.5198489427
 20
243.6434060775
 30
0.0
 11
46.0498489427
 21
243.6434060775
 31
0.0
  0
SPLINE
  5
4C6
330
1F
100
AcDbEntity
  8
0
  6
Continuous
 62
     7
370
    25
100
AcDbSpline
210
0.0
220
0.0
230
1.0
 70
     8
 71
     3
 72
    11
 73
     7
 74
     0
 42
0.000000001
 43
0.00000001
 40
0.0
 40
0.0
 40
0.0
 40
0.0
 40
0.2499999999999936
 40
0.5000000000000022
 40
0.7500000000000011
 40
0.9999999999999999
 40
0.9999999999999999
 40
0.9999999999999999
 40
0.9999999999999999
 10
46.11127029891748
 20
764.7934060774675
 30
0.0
 10
46.10615185256361
 20
765.0620320172703
 30
0.0
 10
46.09591495985588
 20
765.5992838968759
 30
0.0
 10
46.08055962079433
 20
766.2769010179245
 30
0.0
 10
46.0652042817326
 20
766.7509619048255
 30
0.0
 10
46.05496738902504
 20
766.8125913532533
 30
0.0
 10
46.04984894267105
 20
766.8434060774675
 30
0.0
  0
LINE
  5
4C7
330
1F
100
AcDbEntity
  8
0
  6
Continuous
 62
     7
370
    25
100
AcDbLine
 10
46.0498489427
 20
766.8434060775
 30
0.0
 11
63.5198489427
 21
766.8434060775
 31
0.0
  0
LINE
  5
4C8
330
1F
100
AcDbEntity
  8
0
  6
Continuous
 62
     7
370
    25
100
AcDbLine
 10
63.5198489427
 20
766.8434060775
 30
0.0
 11
63.5198489427
 21
764.7934060775
 31
0.0
  0
LINE
  5
4C9
330
1F
100
AcDbEntity
  8
0
  6
Continuous
 62
     7
370
    25
100
AcDbLine
 10
46.0498489427
 20
244.4434060775
 30
0.0
 11
46.0498489427
 21
243.6434060775
 31
0.0
  0
LINE
  5
4CA
330
1F
100
AcDbEntity
  8
0
  6
Continuous
 62
     7
370
    25
100
AcDbLine
 10
46.0498489427
 20
766.0434060775
 30
0.0
 11
46.0498489427
 21
766.8434060775
 31
0.0
  0
ARC
  5
4CB
330
1F
100
AcDbEntity
  8
0
  6
Continuous
 62
     7
370
    25
100
AcDbCircle
 10
45.9698489427
 20
764.7934060775
 30
0.0
 40
2.050000000000068
100
AcDbArc
 50
90.0
 51
180.0
  0
ARC
  5
4CC
330
1F
100
AcDbEntity
  8
0
  6
Continuous
 62
     7
370
    25
100
AcDbCircle
 10
45.9698489427
 20
764.7934060775
 30
0.0
 40
1.25
100
AcDbArc
 50
90.0
 51
180.0
  0
LINE
  5
4CD
330
1F
100
AcDbEntity
  8
0
  6
Continuous
 62
     7
370
    25
100
AcDbLine
 10
45.9698489427
 20
766.0434060775
 30
0.0
 11
46.0498489427
 21
766.0434060775
 31
0.0
  0
LINE
  5
4CE
330
1F
100
AcDbEntity
  8
0
  6
Continuous
 62
     7
370
    25
100
AcDbLine
 10
45.9698489427
 20
766.8434060775
 30
0.0
 11
46.0498489427
 21
766.8434060775
 31
0.0
  0
ARC
  5
4CF
330
1F
100
AcDbEntity
  8
0
  6
Continuous
 62
     7
370
    25
100
AcDbCircle
 10
45.9698489427
 20
245.6934060775
 30
0.0
 40
1.250000000000028
100
AcDbArc
 50
180.0
 51
270.0
  0
ARC
  5
4D0
330
1F
100
AcDbEntity
  8
0
  6
Continuous
 62
     7
370
    25
100
AcDbCircle
 10
45.9698489427
 20
245.6934060775
 30
0.0
 40
2.049999999999997
100
AcDbArc
 50
180.0
 51
270.0
  0
LINE
  5
4D1
330
1F
100
AcDbEntity
  8
0
  6
Continuous
 62
     7
370
    25
100
AcDbLine
 10
46.0498489427
 20
244.4434060775
 30
0.0
 11
45.9698489427
 21
244.4434060775
 31
0.0
  0
LINE
  5
4D2
330
1F
100
AcDbEntity
  8
0
  6
Continuous
 62
     7
370
    25
100
AcDbLine
 10
46.0498489427
 20
243.6434060775
 30
0.0
 11
45.9698489427
 21
243.6434060775
 31
0.0
  0
LINE
  5
4D3
330
1F
100
AcDbEntity
  8
0
  6
Continuous
 62
     7
370
    25
100
AcDbLine
 10
103.1198489427
 20
783.9434060775
 30
0.0
 11
103.1198489427
 21
782.6434060775
 31
0.0
  0
LINE
  5
4D4
330
1F
100
AcDbEntity
  8
0
  6
Continuous
 62
     7
370
    25
100
AcDbLine
 10
100.6198489427
 20
783.5557315503
 30
0.0
 11
100.6198489427
 21
782.6434060775
 31
0.0
  0
LINE
  5
4D5
330
1F
100
AcDbEntity
  8
0
  6
Continuous
 62
     7
370
    25
100
AcDbLine
 10
52.8641588661
 20
772.6434060775
 30
0.0
 11
73.1198489427
 21
772.6434060775
 31
0.0
  0
LINE
  5
4D6
330
1F
100
AcDbEntity
  8
0
  6
Continuous
 62
     7
370
    25
100
AcDbLine
 10
52.8641588661
 20
775.1434060775
 30
0.0
 11
73.1198489427
 21
775.1434060775
 31
0.0
  0
LINE
  5
4D7
330
1F
100
AcDbEntity
  8
0
  6
Continuous
 62
     7
370
    25
100
AcDbLine
 10
47.3198489427
 20
772.6434060775
 30
0.0
 11
52.8641588661
 21
772.6434060775
 31
0.0
  0
LINE
  5
4D8
330
1F
100
AcDbEntity
  8
0
  6
Continuous
 62
     7
370
    25
100
AcDbLine
 10
47.3198489427
 20
775.1434060775
 30
0.0
 11
52.8641588661
 21
775.1434060775
 31
0.0
  0
LINE
  5
4D9
330
1F
100
AcDbEntity
  8
0
  6
Continuous
 62
     7
370
    25
100
AcDbLine
 10
75.1698489427
 20
247.1434060775
 30
0.0
 11
76.9198489427
 21
247.1434060775
 31
0.0
  0
LINE
  5
4DA
330
1F
100
AcDbEntity
  8
0
  6
Continuous
 62
     7
370
    25
100
AcDbLine
 10
104.1698489427
 20
782.6434060775
 30
0.0
 11
75.1698489427
 21
782.6434060775
 31
0.0
  0
ARC
  5
4DB
330
1F
100
AcDbEntity
  8
0
  6
Continuous
 62
     7
370
    25
100
AcDbCircle
 10
104.1698489427
 20
783.2934060775
 30
0.0
 40
0.650000000000091
100
AcDbArc
 50
270.0
 51
90.0
  0
LINE
  5
4DC
330
1F
100
AcDbEntity
  8
0
  6
Continuous
 62
     7
370
    25
100
AcDbLine
 10
784.8198489427
 20
241.1434060775
 30
0.0
 11
808.0698489427
 21
241.1434060775
 31
0.0
  0
LINE
  5
4DD
330
1F
100
AcDbEntity
  8
0
  6
Continuous
 62
     7
370
    25
100
AcDbLine
 10
784.8198489427
 20
241.1434060775
 30
0.0
 11
784.8198489427
 21
242.3934060775
 31
0.0
  0
ARC
  5
4DE
330
1F
100
AcDbEntity
  8
0
  6
Continuous
 62
     7
370
    25
100
AcDbCircle
 10
784.5698489427
 20
242.3934060775
 30
0.0
 40
0.2500000000001137
100
AcDbArc
 50
360.0
 51
180.0
  0
ARC
  5
4DF
330
1F
100
AcDbEntity
  8
0
  6
Continuous
 62
     7
370
    25
100
AcDbCircle
 10
105.6698489427
 20
242.3934060775
 30
0.0
 40
0.2500000000000853
100
AcDbArc
 50
0.0
 51
180.0
  0
LINE
  5
4E0
330
1F
100
AcDbEntity
  8
0
  6
Continuous
 62
     7
370
    25
100
AcDbLine
 10
105.4198489427
 20
242.3934060775
 30
0.0
 11
105.4198489427
 21
241.1434060775
 31
0.0
  0
LINE
  5
4E1
330
1F
100
AcDbEntity
  8
0
  6
Continuous
 62
     7
370
    25
100
AcDbLine
 10
81.9198489427
 20
241.1434060775
 30
0.0
 11
105.4198489427
 21
241.1434060775
 31
0.0
  0
ARC
  5
4E2
330
1F
100
AcDbEntity
  8
0
  6
Continuous
 62
     7
370
    25
100
AcDbCircle
 10
81.9198489427
 20
246.1434060775
 30
0.0
 40
5.000000000000028
100
AcDbArc
 50
180.0
 51
270.0
  0
LINE
  5
4E3
330
1F
100
AcDbEntity
  8
0
  6
Continuous
 62
     7
370
    25
100
AcDbLine
 10
76.9198489427
 20
247.1434060775
 30
0.0
 11
76.9198489427
 21
246.1434060775
 31
0.0
  0
LINE
  5
4E4
330
1F
100
AcDbEntity
  8
0
  6
Continuous
 62
     7
370
    25
100
AcDbLine
 10
173.9651484043
 20
845.4434060775
 30
0.0
 11
236.274549481
 21
845.4434060775
 31
0.0
  0
LINE
  5
4E5
330
1F
100
AcDbEntity
  8
0
  6
Continuous
 62
     7
370
    25
100
AcDbLine
 10
248.9651484043
 20
820.4434060775
 30
0.0
 11
311.274549481
 21
820.4434060775
 31
0.0
  0
LINE
  5
4E6
330
1F
100
AcDbEntity
  8
0
  6
Continuous
 62
     7
370
    25
100
AcDbLine
 10
248.9651484043
 20
870.4434060775
 30
0.0
 11
311.274549481
 21
870.4434060775
 31
0.0
  0
LINE
  5
4E7
330
1F
100
AcDbEntity
  8
0
  6
Continuous
 62
     7
370
    25
100
AcDbLine
 10
323.9651484043
 20
845.4434060775
 30
0.0
 11
386.274549481
 21
845.4434060775
 31
0.0
  0
LINE
  5
4E8
330
1F
100
AcDbEntity
  8
0
  6
Continuous
 62
     7
370
    25
100
AcDbLine
 10
398.9651484043
 20
820.4434060775
 30
0.0
 11
461.274549481
 21
820.4434060775
 31
0.0
  0
LINE
  5
4E9
330
1F
100
AcDbEntity
  8
0
  6
Continuous
 62
     7
370
    25
100
AcDbLine
 10
398.9651484043
 20
870.4434060775
 30
0.0
 11
461.274549481
 21
870.4434060775
 31
0.0
  0
LINE
  5
4EA
330
1F
100
AcDbEntity
  8
0
  6
Continuous
 62
     7
370
    25
100
AcDbLine
 10
473.9651484043
 20
845.4434060775
 30
0.0
 11
536.274549481
 21
845.4434060775
 31
0.0
  0
LINE
  5
4EB
330
1F
100
AcDbEntity
  8
0
  6
Continuous
 62
     7
370
    25
100
AcDbLine
 10
548.9651484043
 20
820.4434060775
 30
0.0
 11
611.274549481
 21
820.4434060775
 31
0.0
  0
LINE
  5
4EC
330
1F
100
AcDbEntity
  8
0
  6
Continuous
 62
     7
370
    25
100
AcDbLine
 10
548.9651484043
 20
870.4434060775
 30
0.0
 11
611.274549481
 21
870.4434060775
 31
0.0
  0
LINE
  5
4ED
330
1F
100
AcDbEntity
  8
0
  6
Continuous
 62
     7
370
    25
100
AcDbLine
 10
623.9651484043
 20
845.4434060775
 30
0.0
 11
686.274549481
 21
845.4434060775
 31
0.0
  0
LINE
  5
4EE
330
1F
100
AcDbEntity
  8
0
  6
Continuous
 62
     7
370
    25
100
AcDbLine
 10
698.9651484043
 20
820.4434060775
 30
0.0
 11
761.274549481
 21
820.4434060775
 31
0.0
  0
LINE
  5
4EF
330
1F
100
AcDbEntity
  8
0
  6
Continuous
 62
     7
370
    25
100
AcDbLine
 10
698.9651484043
 20
870.4434060775
 30
0.0
 11
761.274549481
 21
870.4434060775
 31
0.0
  0
LINE
  5
4F0
330
1F
100
AcDbEntity
  8
0
  6
Continuous
 62
     7
370
    25
100
AcDbLine
 10
698.9651484043
 20
845.4434060775
 30
0.0
 11
761.274549481
 21
845.4434060775
 31
0.0
  0
LINE
  5
4F1
330
1F
100
AcDbEntity
  8
0
  6
Continuous
 62
     7
370
    25
100
AcDbLine
 10
623.9651484043
 20
870.4434060775
 30
0.0
 11
686.274549481
 21
870.4434060775
 31
0.0
  0
LINE
  5
4F2
330
1F
100
AcDbEntity
  8
0
  6
Continuous
 62
     7
370
    25
100
AcDbLine
 10
623.9651484043
 20
820.4434060775
 30
0.0
 11
686.274549481
 21
820.4434060775
 31
0.0
  0
LINE
  5
4F3
330
1F
100
AcDbEntity
  8
0
  6
Continuous
 62
     7
370
    25
100
AcDbLine
 10
548.9651484043
 20
845.4434060775
 30
0.0
 11
611.274549481
 21
845.4434060775
 31
0.0
  0
LINE
  5
4F4
330
1F
100
AcDbEntity
  8
0
  6
Continuous
 62
     7
370
    25
100
AcDbLine
 10
473.9651484043
 20
870.4434060775
 30
0.0
 11
536.274549481
 21
870.4434060775
 31
0.0
  0
LINE
  5
4F5
330
1F
100
AcDbEntity
  8
0
  6
Continuous
 62
     7
370
    25
100
AcDbLine
 10
473.9651484043
 20
820.4434060775
 30
0.0
 11
536.274549481
 21
820.4434060775
 31
0.0
  0
LINE
  5
4F6
330
1F
100
AcDbEntity
  8
0
  6
Continuous
 62
     7
370
    25
100
AcDbLine
 10
398.9651484043
 20
845.4434060775
 30
0.0
 11
461.274549481
 21
845.4434060775
 31
0.0
  0
LINE
  5
4F7
330
1F
100
AcDbEntity
  8
0
  6
Continuous
 62
     7
370
    25
100
AcDbLine
 10
323.9651484043
 20
870.4434060775
 30
0.0
 11
386.274549481
 21
870.4434060775
 31
0.0
  0
LINE
  5
4F8
330
1F
100
AcDbEntity
  8
0
  6
Continuous
 62
     7
370
    25
100
AcDbLine
 10
323.9651484043
 20
820.4434060775
 30
0.0
 11
386.274549481
 21
820.4434060775
 31
0.0
  0
LINE
  5
4F9
330
1F
100
AcDbEntity
  8
0
  6
Continuous
 62
     7
370
    25
100
AcDbLine
 10
248.9651484043
 20
845.4434060775
 30
0.0
 11
311.274549481
 21
845.4434060775
 31
0.0
  0
LINE
  5
4FA
330
1F
100
AcDbEntity
  8
0
  6
Continuous
 62
     7
370
    25
100
AcDbLine
 10
173.9651484043
 20
870.4434060775
 30
0.0
 11
236.274549481
 21
870.4434060775
 31
0.0
  0
LINE
  5
4FB
330
1F
100
AcDbEntity
  8
0
  6
Continuous
 62
     7
370
    25
100
AcDbLine
 10
173.9651484043
 20
820.4434060775
 30
0.0
 11
236.274549481
 21
820.4434060775
 31
0.0
  0
SPLINE
  5
4FC
330
1F
100
AcDbEntity
  8
0
  6
Continuous
 62
     7
370
    25
100
AcDbSpline
210
0.0
220
0.0
230
1.0
 70
     8
 71
     3
 72
    12
 73
     8
 74
     0
 42
0.000000001
 43
0.00000001
 40
0.0
 40
0.0
 40
0.0
 40
0.0
 40
0.2301693782020193
 40
0.4604221642956772
 40
0.6906753391241967
 40
0.9209283614222492
 40
0.9999999999999999
 40
0.9999999999999999
 40
0.9999999999999999
 40
0.9999999999999999
 10
810.1198489426673
 20
922.6363350096518
 30
0.0
 10
810.0937716343731
 20
922.5409454448982
 30
0.0
 10
810.0416075679901
 20
922.3501317484883
 30
0.0
 10
809.6368975832816
 20
922.0638400058899
 30
0.0
 10
809.0488697275244
 20
921.7777248758538
 30
0.0
 10
808.4848450816926
 20
921.5536100684442
 30
0.0
 10
808.1543359080742
 20
921.4260211978739
 30
0.0
 10
808.0698489426672
 20
921.3934060774637
 30
0.0
  0
LINE
  5
4FD
330
1F
100
AcDbEntity
  8
0
  6
Continuous
 62
     7
370
    25
100
AcDbLine
 10
810.1198489427
 20
922.6363350097
 30
0.0
 11
810.1198489427
 21
241.1434060775
 31
0.0
  0
LINE
  5
4FE
330
1F
100
AcDbEntity
  8
0
  6
Continuous
 62
     7
370
    25
100
AcDbLine
 10
808.0698489427
 20
241.1434060775
 30
0.0
 11
810.1198489427
 21
241.1434060775
 31
0.0
  0
SPLINE
  5
4FF
330
1F
100
AcDbEntity
  8
0
  6
Continuous
 62
     7
370
    25
100
AcDbSpline
210
0.0
220
0.0
230
1.0
 70
     8
 71
     3
 72
    10
 73
     6
 74
     0
 42
0.000000001
 43
0.00000001
 40
0.0
 40
0.0
 40
0.0
 40
0.0
 40
0.3106044767696265
 40
0.6553022383848384
 40
1.0
 40
1.0
 40
1.0
 40
1.0
 10
103.268386073889
 20
923.2434060774659
 30
0.0
 10
103.3617188747837
 20
923.1244688295775
 30
0.0
 10
103.5586290866939
 20
922.8735392693239
 30
0.0
 10
103.8591167096202
 20
922.1943352600889
 30
0.0
 10
104.0662715316514
 20
921.6603824716755
 30
0.0
 10
104.1698489426671
 20
921.3934060774685
 30
0.0
  0
LINE
  5
500
330
1F
100
AcDbEntity
  8
0
  6
Continuous
 62
     7
370
    25
100
AcDbLine
 10
159.0298489427
 20
923.4434060775
 30
0.0
 11
158.5698489427
 21
923.4434060775
 31
0.0
  0
SPLINE
  5
501
330
1F
100
AcDbEntity
  8
0
  6
Continuous
 62
     7
370
    25
100
AcDbSpline
210
0.0
220
0.0
230
1.0
 70
     8
 71
     3
 72
    10
 73
     6
 74
     0
 42
0.000000001
 43
0.00000001
 40
0.0
 40
0.0
 40
0.0
 40
0.0
 40
0.344697761613892
 40
0.6893955232277943
 40
0.9999999999999999
 40
0.9999999999999999
 40
0.9999999999999999
 40
0.9999999999999999
 10
808.0698489426672
 20
921.3934060774637
 30
0.0
 10
808.173426353683
 20
921.6603824716703
 30
0.0
 10
808.3805811757142
 20
922.1943352600838
 30
0.0
 10
808.6810687986415
 20
922.8735392693213
 30
0.0
 10
808.877979010553
 20
923.1244688295762
 30
0.0
 10
808.9713118114488
 20
923.2434060774659
 30
0.0
  0
LINE
  5
502
330
1F
100
AcDbEntity
  8
0
  6
Continuous
 62
     7
370
    25
100
AcDbLine
 10
809.3127778749
 20
922.6434060775
 30
0.0
 11
809.3127778749
 21
923.4434060775
 31
0.0
  0
SPLINE
  5
503
330
1F
100
AcDbEntity
  8
0
  6
Continuous
 62
     7
370
    25
100
AcDbSpline
210
0.0
220
0.0
230
1.0
 70
     8
 71
     3
 72
    11
 73
     7
 74
     0
 42
0.000000001
 43
0.00000001
 40
0.0
 40
0.0
 40
0.0
 40
0.0
 40
0.2500000000000034
 40
0.49999999999998
 40
0.7500000000000104
 40
1.0
 40
1.0
 40
1.0
 40
1.0
 10
808.0698489426672
 20
921.3934060774637
 30
0.0
 10
808.1734263536829
 20
921.5572023822216
 30
0.0
 10
808.3805811757143
 20
921.8847949917373
 30
0.0
 10
808.6913134087613
 20
922.2979761631083
 30
0.0
 10
809.0020456418084
 20
922.5870376795114
 30
0.0
 10
809.2092004638397
 20
922.6246166114796
 30
0.0
 10
809.3127778748554
 20
922.6434060774637
 30
0.0
  0
SPLINE
  5
504
330
1F
100
AcDbEntity
  8
0
  6
Continuous
 62
     7
370
    25
100
AcDbSpline
210
0.0
220
0.0
230
1.0
 70
     8
 71
     3
 72
    11
 73
     7
 74
     0
 42
0.000000001
 43
0.00000001
 40
0.0
 40
0.0
 40
0.0
 40
0.0
 40
0.2543030279684816
 40
0.5087793961833011
 40
0.7632567853904545
 40
1.0
 40
1.0
 40
1.0
 40
1.0
 10
809.3198489426671
 20
922.6363350096519
 30
0.0
 10
809.3003902710769
 20
922.530958181111
 30
0.0
 10
809.261459664307
 20
922.3201326961572
 30
0.0
 10
808.9624883312802
 20
922.0038774604659
 30
0.0
 10
808.546517042636
 20
921.6948102210603
 30
0.0
 10
808.2248675513289
 20
921.491426588986
 30
0.0
 10
808.0698489426672
 20
921.3934060774637
 30
0.0
  0
LINE
  5
505
330
1F
100
AcDbEntity
  8
0
  6
Continuous
 62
     7
370
    25
100
AcDbLine
 10
810.1198489427
 20
922.6363350097
 30
0.0
 11
809.3198489427
 21
922.6363350097
 31
0.0
  0
LINE
  5
506
330
1F
100
AcDbEntity
  8
0
  6
Continuous
 62
     7
370
    25
100
AcDbLine
 10
102.1198489427
 20
783.9434060775
 30
0.0
 11
104.1698489427
 21
783.9434060775
 31
0.0
  0
LINE
  5
507
330
1F
100
AcDbEntity
  8
0
  6
Continuous
 62
     7
370
    25
100
AcDbLine
 10
102.1198489427
 20
922.6363350097
 30
0.0
 11
102.1198489427
 21
904.0434060775
 31
0.0
  0
LINE
  5
508
330
1F
100
AcDbEntity
  8
0
  6
Continuous
 62
     7
370
    25
100
AcDbLine
 10
102.1198489427
 20
785.3557315503
 30
0.0
 11
102.1198489427
 21
784.3557315503
 31
0.0
  0
SPLINE
  5
509
330
1F
100
AcDbEntity
  8
0
  6
Continuous
 62
     7
370
    25
100
AcDbSpline
210
0.0
220
0.0
230
1.0
 70
     8
 71
     3
 72
    12
 73
     8
 74
     0
 42
0.000000001
 43
0.00000001
 40
0.0
 40
0.0
 40
0.0
 40
0.0
 40
0.2301699461467779
 40
0.4604227344550679
 40
0.6906759109412348
 40
0.9209289349060275
 40
1.0
 40
1.0
 40
1.0
 40
1.0
 10
104.1698489426671
 20
921.3934060774687
 30
0.0
 10
103.9227696388291
 20
921.4887958797564
 30
0.0
 10
103.4285221030202
 20
921.6796098167786
 30
0.0
 10
102.7823947609353
 20
921.9659017922105
 30
0.0
 10
102.3184489843549
 20
922.2520169224307
 30
0.0
 10
102.1356400361371
 20
922.4761314931696
 30
0.0
 10
102.1230637576985
 20
922.6037201262192
 30
0.0
 10
102.1198489426671
 20
922.6363350096568
 30
0.0
  0
LINE
  5
50A
330
1F
100
AcDbEntity
  8
0
  6
Continuous
 62
     7
370
    25
100
AcDbLine
 10
102.1198489427
 20
922.6363350097
 30
0.0
 11
102.9198489427
 21
922.6363350097
 31
0.0
  0
SPLINE
  5
50B
330
1F
100
AcDbEntity
  8
0
  6
Continuous
 62
     7
370
    25
100
AcDbSpline
210
0.0
220
0.0
230
1.0
 70
     8
 71
     3
 72
    11
 73
     7
 74
     0
 42
0.000000001
 43
0.00000001
 40
0.0
 40
0.0
 40
0.0
 40
0.0
 40
0.2542997317784934
 40
0.5087760894399845
 40
0.763253476632012
 40
1.0
 40
1.0
 40
1.0
 40
1.0
 10
104.1698489426672
 20
921.3934060774686
 30
0.0
 10
104.0032169364126
 20
921.4987815240046
 30
0.0
 10
103.6698371883297
 20
921.7096056064233
 30
0.0
 10
103.2518857869364
 20
922.0258594897717
 30
0.0
 10
102.9717413916717
 20
922.3349280807327
 30
0.0
 10
102.9367251182896
 20
922.5383131131399
 30
0.0
 10
102.9198489426671
 20
922.6363350096567
 30
0.0
  0
SPLINE
  5
50C
330
1F
100
AcDbEntity
  8
0
  6
Continuous
 62
     7
370
    25
100
AcDbSpline
210
0.0
220
0.0
230
1.0
 70
     8
 71
     3
 72
    11
 73
     7
 74
     0
 42
0.000000001
 43
0.00000001
 40
0.0
 40
0.0
 40
0.0
 40
0.0
 40
0.2499999999999841
 40
0.4999999999999831
 40
0.7500000000000002
 40
1.0
 40
1.0
 40
1.0
 40
1.0
 10
102.9269200104793
 20
922.6434060774685
 30
0.0
 10
103.030497421495
 20
922.6246166114842
 30
0.0
 10
103.2376522435262
 20
922.5870376795161
 30
0.0
 10
103.5483844765729
 20
922.2979761631132
 30
0.0
 10
103.8591167096202
 20
921.884794991742
 30
0.0
 10
104.0662715316515
 20
921.5572023822265
 30
0.0
 10
104.1698489426671
 20
921.3934060774685
 30
0.0
  0
LINE
  5
50D
330
1F
100
AcDbEntity
  8
0
  6
Continuous
 62
     7
370
    25
100
AcDbLine
 10
102.9269200105
 20
922.6434060775
 30
0.0
 11
102.9269200105
 21
923.2434060775
 31
0.0
  0
LINE
  5
50E
330
1F
100
AcDbEntity
  8
0
  6
Continuous
 62
     7
370
    25
100
AcDbLine
 10
75.1698489427
 20
247.1434060775
 30
0.0
 11
73.1198489427
 21
247.1434060775
 31
0.0
  0
LINE
  5
50F
330
1F
100
AcDbEntity
  8
0
  6
Continuous
 62
     7
370
    25
100
AcDbLine
 10
73.1198489427
 20
782.6434060775
 30
0.0
 11
73.1198489427
 21
247.1434060775
 31
0.0
  0
LINE
  5
510
330
1F
100
AcDbEntity
  8
0
  6
Continuous
 62
     7
370
    25
100
AcDbLine
 10
73.1198489427
 20
782.6434060775
 30
0.0
 11
75.1698489427
 21
782.6434060775
 31
0.0
  0
LINE
  5
511
330
1F
100
AcDbEntity
  8
0
  6
Continuous
 62
     7
370
    25
100
AcDbLine
 10
784.3198489427
 20
242.3934060775
 30
0.0
 11
784.3198489427
 21
240.3434060775
 31
0.0
  0
LINE
  5
512
330
1F
100
AcDbEntity
  8
0
  6
Continuous
 62
     7
370
    25
100
AcDbLine
 10
105.9198489427
 20
240.3434060775
 30
0.0
 11
784.3198489427
 21
240.3434060775
 31
0.0
  0
LINE
  5
513
330
1F
100
AcDbEntity
  8
0
  6
Continuous
 62
     7
370
    25
100
AcDbLine
 10
105.9198489427
 20
240.3434060775
 30
0.0
 11
105.9198489427
 21
242.3934060775
 31
0.0
  0
LINE
  5
514
330
1F
100
AcDbEntity
  8
0
  6
Continuous
 62
     7
370
    25
100
AcDbLine
 10
158.5698489427
 20
933.4434060775
 30
0.0
 11
159.0298489427
 21
933.4434060775
 31
0.0
  0
SPLINE
  5
515
330
1F
100
AcDbEntity
  8
0
  6
Continuous
 62
     7
370
    25
100
AcDbSpline
210
0.0
220
0.0
230
1.0
 70
     8
 71
     3
 72
    13
 73
     9
 74
     0
 42
0.000000001
 43
0.00000001
 40
0.0
 40
0.0
 40
0.0
 40
0.0
 40
0.0075462231146403
 40
0.2722763788513878
 40
0.4815195415729992
 40
0.6613541616925731
 40
0.830458894939659
 40
1.0
 40
1.0
 40
1.0
 40
1.0
 10
821.7198489426734
 20
368.2367269068608
 30
0.0
 10
821.7198457586309
 20
368.2366199575915
 30
0.0
 10
821.719730874727
 20
368.2327611053792
 30
0.0
 10
821.7081452151157
 20
368.2257459523206
 30
0.0
 10
821.665426435843
 20
368.2168766854896
 30
0.0
 10
821.6097548327392
 20
368.2105924756257
 30
0.0
 10
821.5436190393582
 20
368.2063728273552
 30
0.0
 10
821.4944600899601
 20
368.2058133476104
 30
0.0
 10
821.4698489426734
 20
368.2055332472712
 30
0.0
  0
LINE
  5
516
330
1F
100
AcDbEntity
  8
0
  6
Continuous
 62
     7
370
    25
100
AcDbLine
 10
821.7198489427
 20
368.2367269069
 30
0.0
 11
821.7198489427
 21
360.7466680589
 31
0.0
  0
SPLINE
  5
517
330
1F
100
AcDbEntity
  8
0
  6
Continuous
 62
     7
370
    25
100
AcDbSpline
210
0.0
220
0.0
230
1.0
 70
     8
 71
     3
 72
    13
 73
     9
 74
     0
 42
0.000000001
 43
0.00000001
 40
0.0
 40
0.0
 40
0.0
 40
0.0
 40
0.1695411050603251
 40
0.3386458383075708
 40
0.518480458426927
 40
0.7277236211485689
 40
0.9924537768858687
 40
0.9999999999999999
 40
0.9999999999999999
 40
0.9999999999999999
 40
0.9999999999999999
 10
820.7698489426733
 20
368.2055332472712
 30
0.0
 10
820.7452377953867
 20
368.2058133476104
 30
0.0
 10
820.6960788459885
 20
368.2063728273552
 30
0.0
 10
820.6299430526077
 20
368.2105924756255
 30
0.0
 10
820.5742714495035
 20
368.2168766854894
 30
0.0
 10
820.5315526702313
 20
368.2257459523204
 30
0.0
 10
820.5199670106184
 20
368.2327611053796
 30
0.0
 10
820.5198521267158
 20
368.2366199575914
 30
0.0
 10
820.5198489426734
 20
368.2367269068608
 30
0.0
  0
LINE
  5
518
330
1F
100
AcDbEntity
  8
0
  6
Continuous
 62
     7
370
    25
100
AcDbLine
 10
820.5198489427
 20
360.4689967415
 30
0.0
 11
820.5198489427
 21
368.2367269069
 31
0.0
  0
LINE
  5
519
330
1F
100
AcDbEntity
  8
0
  6
Continuous
 62
     7
370
    25
100
AcDbLine
 10
821.4698489427
 20
368.2055332473
 30
0.0
 11
820.7698489427
 21
368.2055332473
 31
0.0
  0
SPLINE
  5
51A
330
1F
100
AcDbEntity
  8
0
  6
Continuous
 62
     7
370
    25
100
AcDbSpline
210
0.0
220
0.0
230
1.0
 70
     8
 71
     3
 72
    12
 73
     8
 74
     0
 42
0.000000001
 43
0.00000001
 40
0.0
 40
0.0
 40
0.0
 40
0.0
 40
0.2289440738516478
 40
0.4594214300241795
 40
0.6825355698157506
 40
0.8947175231628354
 40
1.0
 40
1.0
 40
1.0
 40
1.0
 10
820.5198489426734
 20
368.4811201336393
 30
0.0
 10
820.537183427251
 20
368.6099997099673
 30
0.0
 10
820.57196848877
 20
368.8686219938352
 30
0.0
 10
820.8458383345825
 20
369.2112328473294
 30
0.0
 10
821.2428748690653
 20
369.4582931542733
 30
0.0
 10
821.643750858418
 20
369.5693775100257
 30
0.0
 10
821.8886362515052
 20
369.5788259973778
 30
0.0
 10
821.9698489426735
 20
369.5819594512586
 30
0.0
  0
SPLINE
  5
51B
330
1F
100
AcDbEntity
  8
0
  6
Continuous
 62
     7
370
    25
100
AcDbSpline
210
0.0
220
0.0
230
1.0
 70
     8
 71
     3
 72
    12
 73
     8
 74
     0
 42
0.000000001
 43
0.00000001
 40
0.0
 40
0.0
 40
0.0
 40
0.0
 40
0.2028202020467322
 40
0.4049472449426567
 40
0.6098312030740543
 40
0.8226939241827486
 40
1.0
 40
1.0
 40
1.0
 40
1.0
 10
821.9698489426737
 20
373.5545094867616
 30
0.0
 10
821.8127081021382
 20
373.5422864675734
 30
0.0
 10
821.4989634662458
 20
373.5178822026375
 30
0.0
 10
821.078567215776
 20
373.3282309963064
 30
0.0
 10
820.7514886803367
 20
373.0461008405367
 30
0.0
 10
820.5532794140706
 20
372.706455378009
 30
0.0
 10
820.5302942081485
 20
372.4657077303333
 30
0.0
 10
820.5198489426735
 20
372.3563037467039
 30
0.0
  0
LINE
  5
51C
330
1F
100
AcDbEntity
  8
0
  6
Continuous
 62
     7
370
    25
100
AcDbLine
 10
820.5198489427
 20
368.4811201336
 30
0.0
 11
820.5198489427
 21
372.3563037467
 31
0.0
  0
LINE
  5
51D
330
1F
100
AcDbEntity
  8
0
  6
Continuous
 62
     7
370
    25
100
AcDbLine
 10
827.3198489427
 20
373.3238451875
 30
0.0
 11
827.3198489427
 21
369.4486615744
 31
0.0
  0
LINE
  5
51E
330
1F
100
AcDbEntity
  8
0
  6
Continuous
 62
     7
370
    25
100
AcDbLine
 10
827.3198489427
 20
369.4486615744
 30
0.0
 11
827.3198489427
 21
368.8860239729
 31
0.0
  0
LINE
  5
51F
330
1F
100
AcDbEntity
  8
0
  6
Continuous
 62
     7
370
    25
100
AcDbLine
 10
821.7198489427
 20
368.4811201336
 30
0.0
 11
821.7198489427
 21
368.2367269069
 31
0.0
  0
LINE
  5
520
330
1F
100
AcDbEntity
  8
0
  6
Continuous
 62
     7
370
    25
100
AcDbLine
 10
820.5198489427
 20
368.2367269069
 30
0.0
 11
820.5198489427
 21
368.4811201336
 31
0.0
  0
LINE
  5
521
330
1F
100
AcDbEntity
  8
0
  6
Continuous
 62
     7
370
    25
100
AcDbLine
 10
821.9698489427
 20
373.5738451875
 30
0.0
 11
821.9698489427
 21
373.5545094868
 31
0.0
  0
LINE
  5
522
330
1F
100
AcDbEntity
  8
0
  6
Continuous
 62
     7
370
    25
100
AcDbLine
 10
820.5198489427
 20
372.3563037467
 30
0.0
 11
820.5198489427
 21
372.5934060775
 31
0.0
  0
SPLINE
  5
523
330
1F
100
AcDbEntity
  8
0
  6
Continuous
 62
     7
370
    25
100
AcDbSpline
210
0.0
220
0.0
230
1.0
 70
     8
 71
     3
 72
    10
 73
     6
 74
     0
 42
0.000000001
 43
0.00000001
 40
0.0
 40
0.0
 40
0.0
 40
0.0
 40
0.381682835934633
 40
0.7620612310505938
 40
1.0
 40
1.0
 40
1.0
 40
1.0
 10
821.9698489426731
 20
354.7323026681727
 30
0.0
 10
821.8135979700277
 20
354.7451590484918
 30
0.0
 10
821.5016300286989
 20
354.7708278711121
 30
0.0
 10
821.1236791790615
 20
354.9278029056604
 30
0.0
 10
820.9609491558792
 20
355.0830775092473
 30
0.0
 10
820.8983279258094
 20
355.1428297693716
 30
0.0
  0
LINE
  5
524
330
1F
100
AcDbEntity
  8
0
  6
Continuous
 62
     7
370
    25
100
AcDbLine
 10
827.3198489427
 20
355.525604569
 30
0.0
 11
827.3198489427
 21
354.9629669674
 31
0.0
  0
LINE
  5
525
330
1F
100
AcDbEntity
  8
0
  6
Continuous
 62
     7
370
    25
100
AcDbLine
 10
827.3198489427
 20
358.8267001252
 30
0.0
 11
827.3198489427
 21
355.525604569
 31
0.0
  0
SPLINE
  5
526
330
1F
100
AcDbEntity
  8
0
  6
Continuous
 62
     7
370
    25
100
AcDbSpline
210
0.0
220
0.0
230
1.0
 70
     8
 71
     3
 72
    13
 73
     9
 74
     0
 42
0.000000001
 43
0.00000001
 40
0.0
 40
0.0
 40
0.0
 40
0.0
 40
0.0075462231146696
 40
0.2722763788514133
 40
0.4815195415730602
 40
0.6613541616925901
 40
0.8304588949396656
 40
0.9999999999999999
 40
0.9999999999999999
 40
0.9999999999999999
 40
0.9999999999999999
 10
821.7198489426734
 20
360.8100904206601
 30
0.0
 10
821.719852126716
 20
360.8103053556552
 30
0.0
 10
821.7199670106193
 20
360.8180604566217
 30
0.0
 10
821.7315526702312
 20
360.8320101120934
 30
0.0
 10
821.7742714495038
 20
360.8493638393285
 30
0.0
 10
821.8299430526075
 20
360.8615292162152
 30
0.0
 10
821.8960788459885
 20
360.8696371319843
 30
0.0
 10
821.9452377953869
 20
360.8707081241486
 30
0.0
 10
821.9698489426735
 20
360.8712443102596
 30
0.0
  0
LINE
  5
527
330
1F
100
AcDbEntity
  8
0
  6
Continuous
 62
     7
370
    25
100
AcDbLine
 10
821.7198489427
 20
360.8100904207
 30
0.0
 11
821.7198489427
 21
368.2367269069
 31
0.0
  0
LINE
  5
528
330
1F
100
AcDbEntity
  8
0
  6
Continuous
 62
     7
370
    25
100
AcDbLine
 10
821.7198489427
 20
368.4811201336
 30
0.0
 11
821.7198489427
 21
368.6328203263
 31
0.0
  0
SPLINE
  5
529
330
1F
100
AcDbEntity
  8
0
  6
Continuous
 62
     7
370
    25
100
AcDbSpline
210
0.0
220
0.0
230
1.0
 70
     8
 71
     3
 72
    13
 73
     9
 74
     0
 42
0.000000001
 43
0.00000001
 40
0.0
 40
0.0
 40
0.0
 40
0.0
 40
0.1695411050603195
 40
0.3386458383075436
 40
0.5184804584268962
 40
0.7277236211485828
 40
0.9924537768858381
 40
1.0
 40
1.0
 40
1.0
 40
1.0
 10
822.6698489426734
 20
360.8712443102595
 30
0.0
 10
822.6944600899601
 20
360.8707081241486
 30
0.0
 10
822.7436190393585
 20
360.8696371319843
 30
0.0
 10
822.8097548327391
 20
360.8615292162154
 30
0.0
 10
822.865426435843
 20
360.8493638393286
 30
0.0
 10
822.9081452151158
 20
360.8320101120934
 30
0.0
 10
822.9197308747276
 20
360.818060456622
 30
0.0
 10
822.9198457586309
 20
360.8103053556552
 30
0.0
 10
822.9198489426734
 20
360.8100904206601
 30
0.0
  0
LINE
  5
52A
330
1F
100
AcDbEntity
  8
0
  6
Continuous
 62
     7
370
    25
100
AcDbLine
 10
822.9198489427
 20
368.6360239729
 30
0.0
 11
822.9198489427
 21
360.8100904207
 31
0.0
  0
LINE
  5
52B
330
1F
100
AcDbEntity
  8
0
  6
Continuous
 62
     7
370
    25
100
AcDbLine
 10
821.9698489427
 20
360.8712443103
 30
0.0
 11
822.6698489427
 21
360.8712443103
 31
0.0
  0
SPLINE
  5
52C
330
1F
100
AcDbEntity
  8
0
  6
Continuous
 62
     7
370
    25
100
AcDbSpline
210
0.0
220
0.0
230
1.0
 70
     8
 71
     3
 72
    12
 73
     8
 74
     0
 42
0.000000001
 43
0.00000001
 40
0.0
 40
0.0
 40
0.0
 40
0.0
 40
0.2289440738516454
 40
0.4594214300241716
 40
0.6825355698157491
 40
0.894717523162834
 40
1.0
 40
1.0
 40
1.0
 40
1.0
 10
822.9198489426734
 20
360.5876047524832
 30
0.0
 10
822.9025144580959
 20
360.4715565938091
 30
0.0
 10
822.8677293965767
 20
360.2386830797109
 30
0.0
 10
822.5938595507643
 20
359.9297948923286
 30
0.0
 10
822.1968230162814
 20
359.7069257705772
 30
0.0
 10
821.7959470269285
 20
359.6066764955121
 30
0.0
 10
821.5510616338416
 20
359.5981495124065
 30
0.0
 10
821.4698489426734
 20
359.5953216620524
 30
0.0
  0
SPLINE
  5
52D
330
1F
100
AcDbEntity
  8
0
  6
Continuous
 62
     7
370
    25
100
AcDbSpline
210
0.0
220
0.0
230
1.0
 70
     8
 71
     3
 72
    12
 73
     8
 74
     0
 42
0.000000001
 43
0.00000001
 40
0.0
 40
0.0
 40
0.0
 40
0.0
 40
0.2028202020467324
 40
0.404947244942658
 40
0.6098312030740624
 40
0.8226939241827506
 40
1.0
 40
1.0
 40
1.0
 40
1.0
 10
821.469848942673
 20
355.1729660430374
 30
0.0
 10
821.6269897832086
 20
355.18418228557
 30
0.0
 10
821.9407344191012
 20
355.2065764379588
 30
0.0
 10
822.3611306695706
 20
355.3806371057316
 30
0.0
 10
822.68820920501
 20
355.6396815690168
 30
0.0
 10
822.8864184712763
 20
355.9516923505726
 30
0.0
 10
822.9094036771983
 20
356.1730484178045
 30
0.0
 10
822.9198489426732
 20
356.2736402025614
 30
0.0
  0
LINE
  5
52E
330
1F
100
AcDbEntity
  8
0
  6
Continuous
 62
     7
370
    25
100
AcDbLine
 10
822.9198489427
 20
360.5876047525
 30
0.0
 11
822.9198489427
 21
356.2736402026
 31
0.0
  0
LINE
  5
52F
330
1F
100
AcDbEntity
  8
0
  6
Continuous
 62
     7
370
    25
100
AcDbLine
 10
816.1198489427
 20
355.3928297694
 30
0.0
 11
816.1198489427
 21
359.7067943193
 31
0.0
  0
LINE
  5
530
330
1F
100
AcDbEntity
  8
0
  6
Continuous
 62
     7
370
    25
100
AcDbLine
 10
816.1198489427
 20
359.7067943193
 30
0.0
 11
816.1198489427
 21
360.2189967415
 31
0.0
  0
LINE
  5
531
330
1F
100
AcDbEntity
  8
0
  6
Continuous
 62
     7
370
    25
100
AcDbLine
 10
821.7198489427
 20
360.5876047525
 30
0.0
 11
821.7198489427
 21
360.8100904207
 31
0.0
  0
LINE
  5
532
330
1F
100
AcDbEntity
  8
0
  6
Continuous
 62
     7
370
    25
100
AcDbLine
 10
822.9198489427
 20
360.8100904207
 30
0.0
 11
822.9198489427
 21
360.5876047525
 31
0.0
  0
LINE
  5
533
330
1F
100
AcDbEntity
  8
0
  6
Continuous
 62
     7
370
    25
100
AcDbLine
 10
821.4698489427
 20
355.1428297694
 30
0.0
 11
821.4698489427
 21
355.172966043
 31
0.0
  0
LINE
  5
534
330
1F
100
AcDbEntity
  8
0
  6
Continuous
 62
     7
370
    25
100
AcDbLine
 10
822.9198489427
 20
356.2736402026
 30
0.0
 11
822.9198489427
 21
355.6934060775
 31
0.0
  0
LINE
  5
535
330
1F
100
AcDbEntity
  8
0
  6
Continuous
 62
     7
370
    25
100
AcDbLine
 10
816.1198489427
 20
372.3817799633
 30
0.0
 11
816.1198489427
 21
372.8939823856
 31
0.0
  0
LINE
  5
536
330
1F
100
AcDbEntity
  8
0
  6
Continuous
 62
     7
370
    25
100
AcDbLine
 10
816.1198489427
 20
369.6447243856
 30
0.0
 11
816.1198489427
 21
372.3817799633
 31
0.0
  0
LINE
  5
537
330
1F
100
AcDbEntity
  8
0
  6
Continuous
 62
     7
370
    25
100
AcDbLine
 10
810.3164309301
 20
366.0472387663
 30
0.0
 11
810.1198489427
 21
366.8766534298
 31
0.0
  0
LINE
  5
538
330
1F
100
AcDbEntity
  8
0
  6
Continuous
 62
     7
370
    25
100
AcDbLine
 10
810.1198489427
 20
369.0409861271
 30
0.0
 11
810.3164309301
 21
369.8156577722
 31
0.0
  0
LINE
  5
539
330
1F
100
AcDbEntity
  8
0
  6
Continuous
 62
     7
370
    25
100
AcDbLine
 10
810.3164309301
 20
369.8156577722
 30
0.0
 11
814.6232669553
 21
369.8156577722
 31
0.0
  0
SPLINE
  5
53A
330
1F
100
AcDbEntity
  8
0
  6
Continuous
 62
     7
370
    25
100
AcDbSpline
210
0.0
220
0.0
230
1.0
 70
     8
 71
     3
 72
     9
 73
     5
 74
     0
 42
0.000000001
 43
0.00000001
 40
0.0
 40
0.0
 40
0.0
 40
0.0
 40
0.0702005767034128
 40
1.0
 40
1.0
 40
1.0
 40
1.0
 10
815.0698489426733
 20
367.9314482692851
 30
0.0
 10
815.0694028264058
 20
367.9761151832557
 30
0.0
 10
815.0630479460252
 20
368.6123907819499
 30
0.0
 10
814.8351584641299
 20
369.235909980763
 30
0.0
 10
814.6232669552882
 20
369.8156577722337
 30
0.0
  0
LINE
  5
53B
330
1F
100
AcDbEntity
  8
0
  6
Continuous
 62
     7
370
    25
100
AcDbLine
 10
814.6232669553
 20
366.0472387663
 30
0.0
 11
815.0698489427
 21
367.9314482693
 31
0.0
  0
LINE
  5
53C
330
1F
100
AcDbEntity
  8
0
  6
Continuous
 62
     7
370
    25
100
AcDbLine
 10
810.3164309301
 20
366.0472387663
 30
0.0
 11
814.6232669553
 21
366.0472387663
 31
0.0
  0
LINE
  5
53D
330
1F
100
AcDbEntity
  8
0
  6
Continuous
 62
     7
370
    25
100
AcDbLine
 10
810.1198489427
 20
365.0602804304
 30
0.0
 11
810.3164309301
 21
366.0472387663
 31
0.0
  0
SPLINE
  5
53E
330
1F
100
AcDbEntity
  8
0
  6
Continuous
 62
     7
370
    25
100
AcDbSpline
210
0.0
220
0.0
230
1.0
 70
     8
 71
     3
 72
     9
 73
     5
 74
     0
 42
0.000000001
 43
0.00000001
 40
0.0
 40
0.0
 40
0.0
 40
0.0
 40
0.2686336050555562
 40
1.0
 40
1.0
 40
1.0
 40
1.0
 10
815.0698489426733
 20
363.211112918953
 30
0.0
 10
815.0632199900889
 20
363.4689961184985
 30
0.0
 10
815.0385434326528
 20
364.4289772775651
 30
0.0
 10
814.7986886690526
 20
365.363650315864
 30
0.0
 10
814.6232669552882
 20
366.0472387663364
 30
0.0
  0
LINE
  5
53F
330
1F
100
AcDbEntity
  8
0
  6
Continuous
 62
     7
370
    25
100
AcDbLine
 10
815.0698489427
 20
367.9314482693
 30
0.0
 11
815.0698489427
 21
363.211112919
 31
0.0
  0
SPLINE
  5
540
330
1F
100
AcDbEntity
  8
0
  6
Continuous
 62
     7
370
    25
100
AcDbSpline
210
0.0
220
0.0
230
1.0
 70
     8
 71
     3
 72
     9
 73
     5
 74
     0
 42
0.000000001
 43
0.00000001
 40
0.0
 40
0.0
 40
0.0
 40
0.0
 40
0.9250528692427161
 40
1.0
 40
1.0
 40
1.0
 40
1.0
 10
810.3164309300586
 20
360.3749870715695
 30
0.0
 10
810.2378772172954
 20
360.6110218713969
 30
0.0
 10
810.1529591381509
 20
360.8661800441623
 30
0.0
 10
810.1221574414532
 20
361.1313607860792
 30
0.0
 10
810.1198489426633
 20
361.151235321818
 30
0.0
  0
SPLINE
  5
541
330
1F
100
AcDbEntity
  8
0
  6
Continuous
 62
     7
370
    25
100
AcDbSpline
210
0.0
220
0.0
230
1.0
 70
     8
 71
     3
 72
     9
 73
     5
 74
     0
 42
0.000000001
 43
0.00000001
 40
0.0
 40
0.0
 40
0.0
 40
0.0
 40
0.2575513451038214
 40
1.0
 40
1.0
 40
1.0
 40
1.0
 10
814.6232669552882
 20
360.3749870715695
 30
0.0
 10
814.6906821780631
 20
360.6130847640202
 30
0.0
 10
814.952436675007
 20
361.5375516595618
 30
0.0
 10
815.0198201627996
 20
362.4980168386583
 30
0.0
 10
815.0698489426733
 20
363.211112918953
 30
0.0
  0
LINE
  5
542
330
1F
100
AcDbEntity
  8
0
  6
Continuous
 62
     7
370
    25
100
AcDbLine
 10
810.3164309301
 20
360.3749870716
 30
0.0
 11
814.6232669553
 21
360.3749870716
 31
0.0
  0
SPLINE
  5
543
330
1F
100
AcDbEntity
  8
0
  6
Continuous
 62
     7
370
    25
100
AcDbSpline
210
0.0
220
0.0
230
1.0
 70
     8
 71
     3
 72
     9
 73
     5
 74
     0
 42
0.000000001
 43
0.00000001
 40
0.0
 40
0.0
 40
0.0
 40
0.0
 40
0.070200576703445
 40
1.0
 40
1.0
 40
1.0
 40
1.0
 10
815.0698489426733
 20
359.4230707271349
 30
0.0
 10
815.0694028264058
 20
359.445636776928
 30
0.0
 10
815.0630479460254
 20
359.7670878369158
 30
0.0
 10
814.83515846413
 20
360.0820942709085
 30
0.0
 10
814.6232669552882
 20
360.3749870715696
 30
0.0
  0
LINE
  5
544
330
1F
100
AcDbEntity
  8
0
  6
Continuous
 62
     7
370
    25
100
AcDbLine
 10
815.0698489427
 20
363.211112919
 30
0.0
 11
815.0698489427
 21
359.4230707271
 31
0.0
  0
LINE
  5
545
330
1F
100
AcDbEntity
  8
0
  6
Continuous
 62
     7
370
    25
100
AcDbLine
 10
810.1198489427
 20
359.9836173224
 30
0.0
 11
810.3164309301
 21
360.3749870716
 31
0.0
  0
LINE
  5
546
330
1F
100
AcDbEntity
  8
0
  6
Continuous
 62
     7
370
    25
100
AcDbLine
 10
810.3164309301
 20
358.4711543827
 30
0.0
 11
810.1404860126
 21
358.846191548
 31
0.0
  0
LINE
  5
547
330
1F
100
AcDbEntity
  8
0
  6
Continuous
 62
     7
370
    25
100
AcDbLine
 10
814.6232669553
 20
358.4711543827
 30
0.0
 11
815.0698489427
 21
359.4230707271
 31
0.0
  0
LINE
  5
548
330
1F
100
AcDbEntity
  8
0
  6
Continuous
 62
     7
370
    25
100
AcDbLine
 10
810.3164309301
 20
358.4711543827
 30
0.0
 11
814.6232669553
 21
358.4711543827
 31
0.0
  0
LINE
  5
549
330
1F
100
AcDbEntity
  8
0
  6
Continuous
 62
     7
370
    25
100
AcDbLine
 10
814.6232669553
 20
369.8156577722
 30
0.0
 11
814.7992118727
 21
369.4406206069
 31
0.0
  0
LINE
  5
54A
330
1F
100
AcDbEntity
  8
0
  6
Continuous
 62
     7
370
    25
100
AcDbLine
 10
815.0698489427
 20
369.1434060775
 30
0.0
 11
815.0698489427
 21
367.9314482693
 31
0.0
  0
LINE
  5
54B
330
1F
100
AcDbEntity
  8
0
  6
Continuous
 62
     7
370
    25
100
AcDbLine
 10
810.3164309301
 20
369.8156577722
 30
0.0
 11
810.1404860126
 21
369.4406206069
 31
0.0
  0
LINE
  5
54C
330
1F
100
AcDbEntity
  8
0
  6
Continuous
 62
     7
370
    25
100
AcDbLine
 10
815.0698489427
 20
359.4230707271
 30
0.0
 11
815.0698489427
 21
359.1434060775
 31
0.0
  0
LINE
  5
54D
330
1F
100
AcDbEntity
  8
0
  6
Continuous
 62
     7
370
    25
100
AcDbLine
 10
823.3664309301
 20
359.5358280341
 30
0.0
 11
822.9198489427
 21
362.1941810102
 31
0.0
  0
SPLINE
  5
54E
330
1F
100
AcDbEntity
  8
0
  6
Continuous
 62
     7
370
    25
100
AcDbSpline
210
0.0
220
0.0
230
1.0
 70
     8
 71
     3
 72
     9
 73
     5
 74
     0
 42
0.000000001
 43
0.00000001
 40
0.0
 40
0.0
 40
0.0
 40
0.0
 40
0.0702005767034414
 40
0.9999999999999999
 40
0.9999999999999999
 40
0.9999999999999999
 40
0.9999999999999999
 10
822.9198489426734
 20
362.1941810102149
 30
0.0
 10
822.920295058941
 20
362.257199705059
 30
0.0
 10
822.9266499393215
 20
363.1548945361191
 30
0.0
 10
823.154539421217
 20
364.034591892092
 30
0.0
 10
823.3664309300585
 20
364.8525339863511
 30
0.0
  0
LINE
  5
54F
330
1F
100
AcDbEntity
  8
0
  6
Continuous
 62
     7
370
    25
100
AcDbLine
 10
823.3664309301
 20
364.8525339864
 30
0.0
 11
827.6732669553
 21
364.8525339864
 31
0.0
  0
SPLINE
  5
550
330
1F
100
AcDbEntity
  8
0
  6
Continuous
 62
     7
370
    25
100
AcDbSpline
210
0.0
220
0.0
230
1.0
 70
     8
 71
     3
 72
     9
 73
     5
 74
     0
 42
0.000000001
 43
0.00000001
 40
0.0
 40
0.0
 40
0.0
 40
0.0
 40
0.0702005767034412
 40
1.0
 40
1.0
 40
1.0
 40
1.0
 10
828.1198489426733
 20
362.1941810102149
 30
0.0
 10
828.1194028264058
 20
362.257199705059
 30
0.0
 10
828.1130479460255
 20
363.1548945361191
 30
0.0
 10
827.8851584641299
 20
364.034591892092
 30
0.0
 10
827.6732669552882
 20
364.8525339863511
 30
0.0
  0
LINE
  5
551
330
1F
100
AcDbEntity
  8
0
  6
Continuous
 62
     7
370
    25
100
AcDbLine
 10
827.6732669553
 20
359.5358280341
 30
0.0
 11
828.1198489427
 21
362.1941810102
 31
0.0
  0
LINE
  5
552
330
1F
100
AcDbEntity
  8
0
  6
Continuous
 62
     7
370
    25
100
AcDbLine
 10
823.3664309301
 20
359.5358280341
 30
0.0
 11
827.6732669553
 21
359.5358280341
 31
0.0
  0
SPLINE
  5
553
330
1F
100
AcDbEntity
  8
0
  6
Continuous
 62
     7
370
    25
100
AcDbSpline
210
0.0
220
0.0
230
1.0
 70
     8
 71
     3
 72
     9
 73
     5
 74
     0
 42
0.000000001
 43
0.00000001
 40
0.0
 40
0.0
 40
0.0
 40
0.0
 40
0.2575513451038151
 40
1.0
 40
1.0
 40
1.0
 40
1.0
 10
823.3664309300585
 20
364.8525339863511
 30
0.0
 10
823.2990157072837
 20
365.0459410773885
 30
0.0
 10
823.0372612103399
 20
365.7968868391336
 30
0.0
 10
822.9698777225473
 20
366.5770740573289
 30
0.0
 10
822.9198489426734
 20
367.1563230080453
 30
0.0
  0
SPLINE
  5
554
330
1F
100
AcDbEntity
  8
0
  6
Continuous
 62
     7
370
    25
100
AcDbSpline
210
0.0
220
0.0
230
1.0
 70
     8
 71
     3
 72
     9
 73
     5
 74
     0
 42
0.000000001
 43
0.00000001
 40
0.0
 40
0.0
 40
0.0
 40
0.0
 40
0.2575513451038186
 40
1.0
 40
1.0
 40
1.0
 40
1.0
 10
827.6732669552882
 20
364.8525339863511
 30
0.0
 10
827.740682178063
 20
365.0459410773885
 30
0.0
 10
828.002436675007
 20
365.7968868391336
 30
0.0
 10
828.0698201627996
 20
366.5770740573288
 30
0.0
 10
828.1198489426733
 20
367.1563230080453
 30
0.0
  0
LINE
  5
555
330
1F
100
AcDbEntity
  8
0
  6
Continuous
 62
     7
370
    25
100
AcDbLine
 10
828.1198489427
 20
367.156323008
 30
0.0
 11
828.1198489427
 21
362.1941810102
 31
0.0
  0
SPLINE
  5
556
330
1F
100
AcDbEntity
  8
0
  6
Continuous
 62
     7
370
    25
100
AcDbSpline
210
0.0
220
0.0
230
1.0
 70
     8
 71
     3
 72
     9
 73
     5
 74
     0
 42
0.000000001
 43
0.00000001
 40
0.0
 40
0.0
 40
0.0
 40
0.0
 40
0.4193685337932044
 40
0.9999999999999999
 40
0.9999999999999999
 40
0.9999999999999999
 40
0.9999999999999999
 10
822.9198489426734
 20
367.1563230080453
 30
0.0
 10
822.9235735297646
 20
367.3660793733525
 30
0.0
 10
822.9324549473985
 20
367.8662512947173
 30
0.0
 10
823.07917240325
 20
368.3532545555054
 30
0.0
 10
823.1643611747592
 20
368.6360239728644
 30
0.0
  0
LINE
  5
557
330
1F
100
AcDbEntity
  8
0
  6
Continuous
 62
     7
370
    25
100
AcDbLine
 10
827.3198489427
 20
369.4601120297
 30
0.0
 11
827.6732669553
 21
369.4601120297
 31
0.0
  0
SPLINE
  5
558
330
1F
100
AcDbEntity
  8
0
  6
Continuous
 62
     7
370
    25
100
AcDbSpline
210
0.0
220
0.0
230
1.0
 70
     8
 71
     3
 72
     9
 73
     5
 74
     0
 42
0.000000001
 43
0.00000001
 40
0.0
 40
0.0
 40
0.0
 40
0.0
 40
0.2686336050555617
 40
1.0
 40
1.0
 40
1.0
 40
1.0
 10
828.1198489426733
 20
367.1563230080453
 30
0.0
 10
828.113219990089
 20
367.3658018943719
 30
0.0
 10
828.0885434326526
 20
368.1455959424151
 30
0.0
 10
827.8486886690526
 20
368.9048321683016
 30
0.0
 10
827.6732669552882
 20
369.4601120297394
 30
0.0
  0
SPLINE
  5
559
330
1F
100
AcDbEntity
  8
0
  6
Continuous
 62
     7
370
    25
100
AcDbSpline
210
0.0
220
0.0
230
1.0
 70
     8
 71
     3
 72
     9
 73
     5
 74
     0
 42
0.000000001
 43
0.00000001
 40
0.0
 40
0.0
 40
0.0
 40
0.0
 40
0.0702005767034403
 40
1.0
 40
1.0
 40
1.0
 40
1.0
 10
822.9198489426734
 20
359.1812640796366
 30
0.0
 10
822.9202950589411
 20
359.1896693432899
 30
0.0
 10
822.9266499393209
 20
359.3094014601458
 30
0.0
 10
823.1545394212166
 20
359.4267331222862
 30
0.0
 10
823.3664309300585
 20
359.5358280340787
 30
0.0
  0
SPLINE
  5
55A
330
1F
100
AcDbEntity
  8
0
  6
Continuous
 62
     7
370
    25
100
AcDbSpline
210
0.0
220
0.0
230
1.0
 70
     8
 71
     3
 72
     9
 73
     5
 74
     0
 42
0.000000001
 43
0.00000001
 40
0.0
 40
0.0
 40
0.0
 40
0.0
 40
0.0702005767034401
 40
0.9999999999999999
 40
0.9999999999999999
 40
0.9999999999999999
 40
0.9999999999999999
 10
828.1198489426733
 20
359.1812640796366
 30
0.0
 10
828.1194028264058
 20
359.1896693432898
 30
0.0
 10
828.1130479460251
 20
359.3094014601458
 30
0.0
 10
827.8851584641297
 20
359.4267331222862
 30
0.0
 10
827.6732669552882
 20
359.5358280340787
 30
0.0
  0
LINE
  5
55B
330
1F
100
AcDbEntity
  8
0
  6
Continuous
 62
     7
370
    25
100
AcDbLine
 10
828.1198489427
 20
362.1941810102
 30
0.0
 11
828.1198489427
 21
359.1812640796
 31
0.0
  0
LINE
  5
55C
330
1F
100
AcDbEntity
  8
0
  6
Continuous
 62
     7
370
    25
100
AcDbLine
 10
827.6732669553
 20
369.4601120297
 30
0.0
 11
828.1198489427
 21
369.1055480753
 31
0.0
  0
LINE
  5
55D
330
1F
100
AcDbEntity
  8
0
  6
Continuous
 62
     7
370
    25
100
AcDbLine
 10
828.1198489427
 20
367.156323008
 30
0.0
 11
828.1198489427
 21
369.1432553711
 31
0.0
  0
LINE
  5
55E
330
1F
100
AcDbEntity
  8
0
  6
Continuous
 62
     7
370
    25
100
AcDbLine
 10
823.3664309301
 20
358.8267001252
 30
0.0
 11
822.9198489427
 21
359.1812640796
 31
0.0
  0
LINE
  5
55F
330
1F
100
AcDbEntity
  8
0
  6
Continuous
 62
     7
370
    25
100
AcDbLine
 10
827.6732669553
 20
358.8267001252
 30
0.0
 11
828.1198489427
 21
359.1812640796
 31
0.0
  0
LINE
  5
560
330
1F
100
AcDbEntity
  8
0
  6
Continuous
 62
     7
370
    25
100
AcDbLine
 10
823.3664309301
 20
358.8267001252
 30
0.0
 11
827.6732669553
 21
358.8267001252
 31
0.0
  0
LINE
  5
561
330
1F
100
AcDbEntity
  8
0
  6
Continuous
 62
     7
370
    25
100
AcDbLine
 10
815.7664309301
 20
358.6420877693
 30
0.0
 11
815.3198489427
 21
360.7759723302
 31
0.0
  0
SPLINE
  5
562
330
1F
100
AcDbEntity
  8
0
  6
Continuous
 62
     7
370
    25
100
AcDbSpline
210
0.0
220
0.0
230
1.0
 70
     8
 71
     3
 72
     9
 73
     5
 74
     0
 42
0.000000001
 43
0.00000001
 40
0.0
 40
0.0
 40
0.0
 40
0.0
 40
0.070200576703444
 40
0.9999999999999999
 40
0.9999999999999999
 40
0.9999999999999999
 40
0.9999999999999999
 10
815.3198489426734
 20
360.775972330197
 30
0.0
 10
815.320295058941
 20
360.8265580203529
 30
0.0
 10
815.326649939321
 20
361.547145977481
 30
0.0
 10
815.5545394212166
 20
362.2532871946281
 30
0.0
 10
815.7664309300586
 20
362.9098568910974
 30
0.0
  0
LINE
  5
563
330
1F
100
AcDbEntity
  8
0
  6
Continuous
 62
     7
370
    25
100
AcDbLine
 10
815.7664309301
 20
362.9098568911
 30
0.0
 11
820.0732669553
 21
362.9098568911
 31
0.0
  0
SPLINE
  5
564
330
1F
100
AcDbEntity
  8
0
  6
Continuous
 62
     7
370
    25
100
AcDbSpline
210
0.0
220
0.0
230
1.0
 70
     8
 71
     3
 72
     9
 73
     5
 74
     0
 42
0.000000001
 43
0.00000001
 40
0.0
 40
0.0
 40
0.0
 40
0.0
 40
0.0702005767034438
 40
1.0
 40
1.0
 40
1.0
 40
1.0
 10
820.5198489426734
 20
360.775972330197
 30
0.0
 10
820.5194028264058
 20
360.8265580203529
 30
0.0
 10
820.5130479460253
 20
361.547145977481
 30
0.0
 10
820.2851584641297
 20
362.2532871946281
 30
0.0
 10
820.0732669552882
 20
362.9098568910974
 30
0.0
  0
LINE
  5
565
330
1F
100
AcDbEntity
  8
0
  6
Continuous
 62
     7
370
    25
100
AcDbLine
 10
820.4556047136
 20
360.4689967415
 30
0.0
 11
820.5198489427
 21
360.7759723302
 31
0.0
  0
LINE
  5
566
330
1F
100
AcDbEntity
  8
0
  6
Continuous
 62
     7
370
    25
100
AcDbLine
 10
815.7664309301
 20
358.6420877693
 30
0.0
 11
816.1198489427
 21
358.6420877693
 31
0.0
  0
SPLINE
  5
567
330
1F
100
AcDbEntity
  8
0
  6
Continuous
 62
     7
370
    25
100
AcDbSpline
210
0.0
220
0.0
230
1.0
 70
     8
 71
     3
 72
     9
 73
     5
 74
     0
 42
0.000000001
 43
0.00000001
 40
0.0
 40
0.0
 40
0.0
 40
0.0
 40
0.2575513451038171
 40
1.0
 40
1.0
 40
1.0
 40
1.0
 10
815.7664309300585
 20
362.9098568910974
 30
0.0
 10
815.6990157072836
 20
363.1407795061535
 30
0.0
 10
815.43726121034
 20
364.0373875784703
 30
0.0
 10
815.3698777225472
 20
364.968909125548
 30
0.0
 10
815.3198489426734
 20
365.6605160451827
 30
0.0
  0
LINE
  5
568
330
1F
100
AcDbEntity
  8
0
  6
Continuous
 62
     7
370
    25
100
AcDbLine
 10
815.3198489427
 20
360.7759723302
 30
0.0
 11
815.3198489427
 21
365.6605160452
 31
0.0
  0
SPLINE
  5
569
330
1F
100
AcDbEntity
  8
0
  6
Continuous
 62
     7
370
    25
100
AcDbSpline
210
0.0
220
0.0
230
1.0
 70
     8
 71
     3
 72
     9
 73
     5
 74
     0
 42
0.000000001
 43
0.00000001
 40
0.0
 40
0.0
 40
0.0
 40
0.0
 40
0.2575513451038207
 40
1.0
 40
1.0
 40
1.0
 40
1.0
 10
820.0732669552882
 20
362.9098568910974
 30
0.0
 10
820.140682178063
 20
363.1407795061535
 30
0.0
 10
820.402436675007
 20
364.0373875784703
 30
0.0
 10
820.4698201627996
 20
364.968909125548
 30
0.0
 10
820.5198489426734
 20
365.6605160451827
 30
0.0
  0
SPLINE
  5
56A
330
1F
100
AcDbEntity
  8
0
  6
Continuous
 62
     7
370
    25
100
AcDbSpline
210
0.0
220
0.0
230
1.0
 70
     8
 71
     3
 72
     9
 73
     5
 74
     0
 42
0.000000001
 43
0.00000001
 40
0.0
 40
0.0
 40
0.0
 40
0.0
 40
0.2686336050555577
 40
1.0
 40
1.0
 40
1.0
 40
1.0
 10
815.3198489426734
 20
365.6605160451827
 30
0.0
 10
815.3264778952578
 20
365.910627930792
 30
0.0
 10
815.3511544526941
 20
366.8416800437905
 30
0.0
 10
815.5910092162941
 20
367.7481866966054
 30
0.0
 10
815.7664309300585
 20
368.4111751992679
 30
0.0
  0
LINE
  5
56B
330
1F
100
AcDbEntity
  8
0
  6
Continuous
 62
     7
370
    25
100
AcDbLine
 10
815.7664309301
 20
368.4111751993
 30
0.0
 11
820.0732669553
 21
368.4111751993
 31
0.0
  0
SPLINE
  5
56C
330
1F
100
AcDbEntity
  8
0
  6
Continuous
 62
     7
370
    25
100
AcDbSpline
210
0.0
220
0.0
230
1.0
 70
     8
 71
     3
 72
     9
 73
     5
 74
     0
 42
0.000000001
 43
0.00000001
 40
0.0
 40
0.0
 40
0.0
 40
0.0
 40
0.2686336050555567
 40
1.0
 40
1.0
 40
1.0
 40
1.0
 10
820.5198489426734
 20
365.6605160451827
 30
0.0
 10
820.5132199900888
 20
365.910627930792
 30
0.0
 10
820.4885434326527
 20
366.8416800437905
 30
0.0
 10
820.2486886690525
 20
367.7481866966054
 30
0.0
 10
820.0732669552882
 20
368.4111751992679
 30
0.0
  0
LINE
  5
56D
330
1F
100
AcDbEntity
  8
0
  6
Continuous
 62
     7
370
    25
100
AcDbLine
 10
820.0732669553
 20
368.4111751993
 30
0.0
 11
820.5198489427
 21
369.0279497925
 31
0.0
  0
LINE
  5
56E
330
1F
100
AcDbEntity
  8
0
  6
Continuous
 62
     7
370
    25
100
AcDbLine
 10
815.7664309301
 20
368.4111751993
 30
0.0
 11
815.3198489427
 21
369.0279497925
 31
0.0
  0
LINE
  5
56F
330
1F
100
AcDbEntity
  8
0
  6
Continuous
 62
     7
370
    25
100
AcDbLine
 10
815.3198489427
 20
365.6605160452
 30
0.0
 11
815.3198489427
 21
369.0279497925
 31
0.0
  0
LINE
  5
570
330
1F
100
AcDbEntity
  8
0
  6
Continuous
 62
     7
370
    25
100
AcDbLine
 10
815.468969024
 20
359.025797295
 30
0.0
 11
815.7664309301
 21
358.6420877693
 31
0.0
  0
LINE
  5
571
330
1F
100
AcDbEntity
  8
0
  6
Continuous
 62
     7
370
    25
100
AcDbLine
 10
815.3198489427
 20
359.1434060775
 30
0.0
 11
815.3198489427
 21
360.7759723302
 31
0.0
  0
SPLINE
  5
572
330
1F
100
AcDbEntity
  8
0
  6
Continuous
 62
     7
370
    25
100
AcDbSpline
210
0.0
220
0.0
230
1.0
 70
     8
 71
     3
 72
     9
 73
     5
 74
     0
 42
0.000000001
 43
0.00000001
 40
0.0
 40
0.0
 40
0.0
 40
0.0
 40
0.0702005767034151
 40
1.0
 40
1.0
 40
1.0
 40
1.0
 10
815.3198489426734
 20
369.0279497924525
 30
0.0
 10
815.320295058941
 20
369.042570999728
 30
0.0
 10
815.3266499393214
 20
369.2508485946154
 30
0.0
 10
815.5545394212169
 20
369.4549505267991
 30
0.0
 10
815.7664309300585
 20
369.6447243856373
 30
0.0
  0
LINE
  5
573
330
1F
100
AcDbEntity
  8
0
  6
Continuous
 62
     7
370
    25
100
AcDbLine
 10
815.7664309301
 20
369.6447243856
 30
0.0
 11
820.0732669553
 21
369.6447243856
 31
0.0
  0
LINE
  5
574
330
1F
100
AcDbEntity
  8
0
  6
Continuous
 62
     7
370
    25
100
AcDbLine
 10
820.3707288614
 20
369.2610148599
 30
0.0
 11
820.0732669553
 21
369.6447243856
 31
0.0
  0
LINE
  5
575
330
1F
100
AcDbEntity
  8
0
  6
Continuous
 62
     7
370
    25
100
AcDbLine
 10
815.3198489427
 20
369.0279497925
 30
0.0
 11
815.3198489427
 21
369.1434060775
 31
0.0
  0
LINE
  5
576
330
1F
100
AcDbEntity
  8
0
  6
Continuous
 62
     7
370
    25
100
AcDbLine
 10
805.3698489427
 20
240.6434060775
 30
0.0
 11
805.3698489427
 21
239.1434060775
 31
0.0
  0
LINE
  5
577
330
1F
100
AcDbEntity
  8
0
  6
Continuous
 62
     7
370
    25
100
AcDbLine
 10
805.3698489427
 20
239.1434060775
 30
0.0
 11
803.3698489427
 21
239.1434060775
 31
0.0
  0
LINE
  5
578
330
1F
100
AcDbEntity
  8
0
  6
Continuous
 62
     7
370
    25
100
AcDbLine
 10
803.3698489427
 20
240.6434060775
 30
0.0
 11
805.3698489427
 21
240.6434060775
 31
0.0
  0
LINE
  5
579
330
1F
100
AcDbEntity
  8
0
  6
Continuous
 62
     7
370
    25
100
AcDbLine
 10
787.3698489427
 20
239.1434060775
 30
0.0
 11
803.3698489427
 21
239.1434060775
 31
0.0
  0
LINE
  5
57A
330
1F
100
AcDbEntity
  8
0
  6
Continuous
 62
     7
370
    25
100
AcDbLine
 10
787.3698489427
 20
240.6434060775
 30
0.0
 11
803.3698489427
 21
240.6434060775
 31
0.0
  0
LINE
  5
57B
330
1F
100
AcDbEntity
  8
0
  6
Continuous
 62
     7
370
    25
100
AcDbLine
 10
785.3698489427
 20
239.1434060775
 30
0.0
 11
785.3698489427
 21
240.6434060775
 31
0.0
  0
LINE
  5
57C
330
1F
100
AcDbEntity
  8
0
  6
Continuous
 62
     7
370
    25
100
AcDbLine
 10
787.3698489427
 20
239.1434060775
 30
0.0
 11
785.3698489427
 21
239.1434060775
 31
0.0
  0
LINE
  5
57D
330
1F
100
AcDbEntity
  8
0
  6
Continuous
 62
     7
370
    25
100
AcDbLine
 10
785.3698489427
 20
240.6434060775
 30
0.0
 11
787.3698489427
 21
240.6434060775
 31
0.0
  0
ARC
  5
57E
330
1F
100
AcDbEntity
  8
0
  6
Continuous
 62
     7
370
    25
100
AcDbCircle
 10
805.3698489427
 20
241.8934060775
 30
0.0
 40
2.750000000000123
100
AcDbArc
 50
270.0
 51
344.1733798681
  0
ARC
  5
57F
330
1F
100
AcDbEntity
  8
0
  6
Continuous
 62
     7
370
    25
100
AcDbCircle
 10
805.3698489427
 20
241.8934060775
 30
0.0
 40
1.250000000000063
100
AcDbArc
 50
270.0
 51
323.1301023541
  0
LINE
  5
580
330
1F
100
AcDbEntity
  8
0
  6
Continuous
 62
     7
370
    25
100
AcDbLine
 10
103.4198489427
 20
782.6434060775
 30
0.0
 11
103.4198489427
 21
783.9434060775
 31
0.0
  0
LINE
  5
581
330
1F
100
AcDbEntity
  8
0
  6
Continuous
 62
     7
370
    25
100
AcDbLine
 10
103.9198489427
 20
782.6434060775
 30
0.0
 11
103.9198489427
 21
783.9434060775
 31
0.0
  0
LINE
  5
582
330
1F
100
AcDbEntity
  8
0
  6
Continuous
 62
     7
370
    25
100
AcDbLine
 10
50.4198489427
 20
238.1434060775
 30
0.0
 11
58.2198489427
 21
238.1434060775
 31
0.0
  0
LINE
  5
583
330
1F
100
AcDbEntity
  8
0
  6
Continuous
 62
     7
370
    25
100
AcDbLine
 10
58.2198489427
 20
775.6434060775
 30
0.0
 11
50.4198489427
 21
775.6434060775
 31
0.0
  0
LINE
  5
584
330
1F
100
AcDbEntity
  8
0
  6
Continuous
 62
     7
370
    25
100
AcDbLine
 10
107.0198489427
 20
238.6434060775
 30
0.0
 11
119.2378829314
 21
238.6434060775
 31
0.0
  0
LINE
  5
585
330
1F
100
AcDbEntity
  8
0
  6
Continuous
 62
     7
370
    25
100
AcDbLine
 10
105.0198489427
 20
238.6434060775
 30
0.0
 11
105.0198489427
 21
241.1434060775
 31
0.0
  0
LINE
  5
586
330
1F
100
AcDbEntity
  8
0
  6
Continuous
 62
     7
370
    25
100
AcDbLine
 10
105.0198489427
 20
238.6434060775
 30
0.0
 11
107.0198489427
 21
238.6434060775
 31
0.0
  0
LINE
  5
587
330
1F
100
AcDbEntity
  8
0
  6
Continuous
 62
     7
370
    25
100
AcDbLine
 10
183.8018149539
 20
238.6434060775
 30
0.0
 11
197.0198489427
 21
238.6434060775
 31
0.0
  0
LINE
  5
588
330
1F
100
AcDbEntity
  8
0
  6
Continuous
 62
     7
370
    25
100
AcDbLine
 10
199.0198489427
 20
238.6434060775
 30
0.0
 11
199.0198489427
 21
240.3434060775
 31
0.0
  0
LINE
  5
589
330
1F
100
AcDbEntity
  8
0
  6
Continuous
 62
     7
370
    25
100
AcDbLine
 10
197.0198489427
 20
238.6434060775
 30
0.0
 11
199.0198489427
 21
238.6434060775
 31
0.0
  0
LINE
  5
58A
330
1F
100
AcDbEntity
  8
0
  6
Continuous
 62
     7
370
    25
100
AcDbLine
 10
103.0198489427
 20
238.6434060775
 30
0.0
 11
105.0198489427
 21
238.6434060775
 31
0.0
  0
LINE
  5
58B
330
1F
100
AcDbEntity
  8
0
  6
Continuous
 62
     7
370
    25
100
AcDbLine
 10
87.5072705759
 20
238.6434060775
 30
0.0
 11
98.1198489427
 21
238.6434060775
 31
0.0
  0
LINE
  5
58C
330
1F
100
AcDbEntity
  8
0
  6
Continuous
 62
     7
370
    25
100
AcDbLine
 10
99.6198489427
 20
238.6434060775
 30
0.0
 11
103.0198489427
 21
238.6434060775
 31
0.0
  0
LINE
  5
58D
330
1F
100
AcDbEntity
  8
0
  6
Continuous
 62
     7
370
    25
100
AcDbLine
 10
85.9194573672
 20
238.6434060775
 30
0.0
 11
87.5072705759
 21
238.6434060775
 31
0.0
  0
LINE
  5
58E
330
1F
100
AcDbEntity
  8
0
  6
Continuous
 62
     7
370
    25
100
AcDbLine
 10
47.9685961082
 20
238.6434060775
 30
0.0
 11
85.9194573672
 21
238.6434060775
 31
0.0
  0
LINE
  5
58F
330
1F
100
AcDbEntity
  8
0
  6
Continuous
 62
     7
370
    25
100
AcDbLine
 10
47.9685961082
 20
241.1434060775
 30
0.0
 11
81.9198489368
 21
241.1434060775
 31
0.0
  0
LINE
  5
590
330
1F
100
AcDbEntity
  8
0
  6
Continuous
 62
     7
370
    25
100
AcDbLine
 10
46.3198489427
 20
238.6434060775
 30
0.0
 11
47.9685961082
 21
238.6434060775
 31
0.0
  0
LINE
  5
591
330
1F
100
AcDbEntity
  8
0
  6
Continuous
 62
     7
370
    25
100
AcDbLine
 10
784.8198489368
 20
241.1434060775
 30
0.0
 11
784.3198489427
 21
241.1434060775
 31
0.0
  0
SPLINE
  5
592
330
1F
100
AcDbEntity
  8
0
  6
Continuous
 62
     7
370
    25
100
AcDbSpline
210
0.0
220
0.0
230
1.0
 70
     8
 71
     3
 72
     9
 73
     5
 74
     0
 42
0.000000001
 43
0.00000001
 40
0.0
 40
0.0
 40
0.0
 40
0.0
 40
0.6376133816642277
 40
1.0
 40
1.0
 40
1.0
 40
1.0
 10
105.4797278600341
 20
242.6434060774657
 30
0.0
 10
105.5560951642426
 20
242.497102285445
 30
0.0
 10
105.6758657123597
 20
242.267646950554
 30
0.0
 10
105.8549508758656
 20
242.0913065101092
 30
0.0
 10
105.9198489426625
 20
242.0274030942206
 30
0.0
  0
LINE
  5
593
330
1F
100
AcDbEntity
  8
0
  6
Continuous
 62
     7
370
    25
100
AcDbLine
 10
105.4198489368
 20
241.1434060775
 30
0.0
 11
105.9198489427
 21
241.1434060775
 31
0.0
  0
LINE
  5
594
330
1F
100
AcDbEntity
  8
0
  6
Continuous
 62
     7
370
    25
100
AcDbLine
 10
98.1198489427
 20
229.1434060775
 30
0.0
 11
99.6198489427
 21
229.1434060775
 31
0.0
  0
LINE
  5
595
330
1F
100
AcDbEntity
  8
0
  6
Continuous
 62
     7
370
    25
100
AcDbLine
 10
98.1198489427
 20
229.1434060775
 30
0.0
 11
98.1198489427
 21
234.1434060775
 31
0.0
  0
LINE
  5
596
330
1F
100
AcDbEntity
  8
0
  6
Continuous
 62
     7
370
    25
100
AcDbLine
 10
99.6198489427
 20
229.1434060775
 30
0.0
 11
99.6198489427
 21
234.1434060775
 31
0.0
  0
LINE
  5
597
330
1F
100
AcDbEntity
  8
0
  6
Continuous
 62
     7
370
    25
100
AcDbLine
 10
98.1198489427
 20
234.1434060775
 30
0.0
 11
98.1198489427
 21
239.8934060775
 31
0.0
  0
LINE
  5
598
330
1F
100
AcDbEntity
  8
0
  6
Continuous
 62
     7
370
    25
100
AcDbLine
 10
99.6198489427
 20
234.1434060775
 30
0.0
 11
99.6198489427
 21
239.8934060775
 31
0.0
  0
ARC
  5
599
330
1F
100
AcDbEntity
  8
0
  6
Continuous
 62
     7
370
    25
100
AcDbCircle
 10
100.8698489427
 20
239.8934060775
 30
0.0
 40
2.750000000000007
100
AcDbArc
 50
152.9643082106
 51
180.0
  0
ARC
  5
59A
330
1F
100
AcDbEntity
  8
0
  6
Continuous
 62
     7
370
    25
100
AcDbCircle
 10
100.8698489427
 20
239.8934060775
 30
0.0
 40
1.249999999999972
100
AcDbArc
 50
90.0
 51
180.0
  0
LINE
  5
59B
330
1F
100
AcDbEntity
  8
0
  6
Continuous
 62
     7
370
    25
100
AcDbLine
 10
885.319848943
 20
305.5434060775
 30
0.0
 11
848.319848943
 21
305.5434060775
 31
0.0
  0
LINE
  5
59C
330
1F
100
AcDbEntity
  8
0
  6
Continuous
 62
     7
370
    25
100
AcDbLine
 10
885.319848943
 20
313.1434060775
 30
0.0
 11
849.8571199481
 21
313.1434060775
 31
0.0
  0
LINE
  5
59D
330
1F
100
AcDbEntity
  8
0
  6
Continuous
 62
     7
370
    25
100
AcDbLine
 10
842.819848943
 20
303.3934060775
 30
0.0
 11
842.819848943
 21
268.8934060775
 31
0.0
  0
ARC
  5
59E
330
1F
100
AcDbEntity
  8
0
  6
Continuous
 62
     7
370
    25
100
AcDbCircle
 10
866.819848943
 20
286.1434060775
 30
0.0
 40
13.5
100
AcDbArc
 50
270.0
 51
90.0
  0
LINE
  5
59F
330
1F
100
AcDbEntity
  8
0
  6
Continuous
 62
     7
370
    25
100
AcDbLine
 10
811.319848943
 20
285.3934060775
 30
0.0
 11
811.319848943
 21
286.8934060775
 31
0.0
  0
LINE
  5
5A0
330
1F
100
AcDbEntity
  8
0
  6
Continuous
 62
     7
370
    25
100
AcDbLine
 10
811.319848943
 20
277.9434060775
 30
0.0
 11
811.319848943
 21
285.3934060775
 31
0.0
  0
LINE
  5
5A1
330
1F
100
AcDbEntity
  8
0
  6
Continuous
 62
     7
370
    25
100
AcDbLine
 10
811.319848943
 20
286.8934060775
 30
0.0
 11
811.319848943
 21
296.8934060775
 31
0.0
  0
ARC
  5
5A2
330
1F
100
AcDbEntity
  8
0
  6
Continuous
 62
     7
370
    25
100
AcDbCircle
 10
821.319848943
 20
300.1434060775
 30
0.0
 40
2.0
100
AcDbArc
 50
270.0
 51
0.0
  0
ARC
  5
5A3
330
1F
100
AcDbEntity
  8
0
  6
Continuous
 62
     7
370
    25
100
AcDbCircle
 10
821.319848943
 20
272.1434060775
 30
0.0
 40
2.0
100
AcDbArc
 50
0.0
 51
90.0
  0
LINE
  5
5A4
330
1F
100
AcDbEntity
  8
0
  6
Continuous
 62
     7
370
    25
100
AcDbLine
 10
811.819848943
 20
298.1434060775
 30
0.0
 11
821.319848943
 21
298.1434060775
 31
0.0
  0
LINE
  5
5A5
330
1F
100
AcDbEntity
  8
0
  6
Continuous
 62
     7
370
    25
100
AcDbLine
 10
821.319848943
 20
274.1434060775
 30
0.0
 11
820.6198489427
 21
274.1434060775
 31
0.0
  0
ARC
  5
5A6
330
1F
100
AcDbEntity
  8
0
  6
Continuous
 62
     7
370
    25
100
AcDbCircle
 10
811.819848943
 20
297.6434060775
 30
0.0
 40
0.5
100
AcDbArc
 50
90.0
 51
180.0
  0
LINE
  5
5A7
330
1F
100
AcDbEntity
  8
0
  6
Continuous
 62
     7
370
    25
100
AcDbLine
 10
811.319848943
 20
296.8934060775
 30
0.0
 11
811.319848943
 21
297.6434060775
 31
0.0
  0
LINE
  5
5A8
330
1F
100
AcDbEntity
  8
0
  6
Continuous
 62
     7
370
    25
100
AcDbLine
 10
825.4538235392
 20
286.1434060775
 30
0.0
 11
826.319848943
 21
287.875456885
 31
0.0
  0
LINE
  5
5A9
330
1F
100
AcDbEntity
  8
0
  6
Continuous
 62
     7
370
    25
100
AcDbLine
 10
825.4538235392
 20
286.1434060775
 30
0.0
 11
823.319848943
 21
286.1434060775
 31
0.0
  0
LINE
  5
5AA
330
1F
100
AcDbEntity
  8
0
  6
Continuous
 62
     7
370
    25
100
AcDbLine
 10
823.319848943
 20
286.1434060775
 30
0.0
 11
823.319848943
 21
305.1434060775
 31
0.0
  0
LINE
  5
5AB
330
1F
100
AcDbEntity
  8
0
  6
Continuous
 62
     7
370
    25
100
AcDbLine
 10
823.319848943
 20
305.1434060775
 30
0.0
 11
825.4538235392
 21
307.2773806737
 31
0.0
  0
LINE
  5
5AC
330
1F
100
AcDbEntity
  8
0
  6
Continuous
 62
     7
370
    25
100
AcDbLine
 10
826.319848943
 20
306.4113552699
 30
0.0
 11
825.4538235392
 21
307.2773806737
 31
0.0
  0
LINE
  5
5AD
330
1F
100
AcDbEntity
  8
0
  6
Continuous
 62
     7
370
    25
100
AcDbLine
 10
826.319848943
 20
306.4113552699
 30
0.0
 11
826.319848943
 21
287.875456885
 31
0.0
  0
LINE
  5
5AE
330
1F
100
AcDbEntity
  8
0
  6
Continuous
 62
     7
370
    25
100
AcDbLine
 10
841.819848943
 20
306.4113552699
 30
0.0
 11
826.319848943
 21
306.4113552699
 31
0.0
  0
LINE
  5
5AF
330
1F
100
AcDbEntity
  8
0
  6
Continuous
 62
     7
370
    25
100
AcDbLine
 10
826.319848943
 20
287.875456885
 30
0.0
 11
841.819848943
 21
287.875456885
 31
0.0
  0
LINE
  5
5B0
330
1F
100
AcDbEntity
  8
0
  6
Continuous
 62
     7
370
    25
100
AcDbLine
 10
825.4538235392
 20
265.0094314812
 30
0.0
 11
826.319848943
 21
265.875456885
 31
0.0
  0
LINE
  5
5B1
330
1F
100
AcDbEntity
  8
0
  6
Continuous
 62
     7
370
    25
100
AcDbLine
 10
825.4538235392
 20
265.0094314812
 30
0.0
 11
823.319848943
 21
267.1434060775
 31
0.0
  0
LINE
  5
5B2
330
1F
100
AcDbEntity
  8
0
  6
Continuous
 62
     7
370
    25
100
AcDbLine
 10
823.319848943
 20
267.1434060775
 30
0.0
 11
823.319848943
 21
286.1434060775
 31
0.0
  0
LINE
  5
5B3
330
1F
100
AcDbEntity
  8
0
  6
Continuous
 62
     7
370
    25
100
AcDbLine
 10
826.319848943
 20
284.4113552699
 30
0.0
 11
825.4538235392
 21
286.1434060775
 31
0.0
  0
LINE
  5
5B4
330
1F
100
AcDbEntity
  8
0
  6
Continuous
 62
     7
370
    25
100
AcDbLine
 10
826.319848943
 20
284.4113552699
 30
0.0
 11
826.319848943
 21
265.875456885
 31
0.0
  0
LINE
  5
5B5
330
1F
100
AcDbEntity
  8
0
  6
Continuous
 62
     7
370
    25
100
AcDbLine
 10
841.819848943
 20
284.4113552699
 30
0.0
 11
826.319848943
 21
284.4113552699
 31
0.0
  0
LINE
  5
5B6
330
1F
100
AcDbEntity
  8
0
  6
Continuous
 62
     7
370
    25
100
AcDbLine
 10
826.319848943
 20
265.875456885
 30
0.0
 11
841.819848943
 21
265.875456885
 31
0.0
  0
LINE
  5
5B7
330
1F
100
AcDbEntity
  8
0
  6
Continuous
 62
     7
370
    25
100
AcDbLine
 10
842.319848943
 20
287.7414822888
 30
0.0
 11
842.319848943
 21
284.5453298661
 31
0.0
  0
ELLIPSE
  5
5B8
330
1F
100
AcDbEntity
  8
0
  6
Continuous
 62
     7
370
    25
100
AcDbEllipse
 10
841.819848943
 20
284.5453298661
 30
0.0
 11
0.4999999999998863
 21
0.0
 31
0.0
210
0.0
220
0.0
230
1.0
 40
0.2679491924
 41
4.712388980384693
 42
6.283185307179586
  0
ELLIPSE
  5
5B9
330
1F
100
AcDbEntity
  8
0
  6
Continuous
 62
     7
370
    25
100
AcDbEllipse
 10
841.819848943
 20
287.7414822888
 30
0.0
 11
0.4999999999998863
 21
0.0
 31
0.0
210
0.0
220
0.0
230
1.0
 40
0.2679491924
 41
0.0
 42
1.570796326794897
  0
LINE
  5
5BA
330
1F
100
AcDbEntity
  8
0
  6
Continuous
 62
     7
370
    25
100
AcDbLine
 10
842.319848943
 20
306.0453298661
 30
0.0
 11
842.319848943
 21
287.7414822888
 31
0.0
  0
ELLIPSE
  5
5BB
330
1F
100
AcDbEntity
  8
0
  6
Continuous
 62
     7
370
    25
100
AcDbEllipse
 10
841.819848943
 20
306.0453298661
 30
0.0
 11
0.4999999999998863
 21
0.0
 31
0.0
210
0.0
220
0.0
230
1.0
 40
0.7320508076
 41
0.0
 42
1.570796326794897
  0
LINE
  5
5BC
330
1F
100
AcDbEntity
  8
0
  6
Continuous
 62
     7
370
    25
100
AcDbLine
 10
842.319848943
 20
284.5453298661
 30
0.0
 11
842.319848943
 21
266.2414822888
 31
0.0
  0
ELLIPSE
  5
5BD
330
1F
100
AcDbEntity
  8
0
  6
Continuous
 62
     7
370
    25
100
AcDbEllipse
 10
841.819848943
 20
266.2414822888
 30
0.0
 11
0.5
 21
0.0
 31
0.0
210
0.0
220
0.0
230
1.0
 40
0.7320508076
 41
4.7123889803847
 42
6.283185307179586
  0
LINE
  5
5BE
330
1F
100
AcDbEntity
  8
0
  6
Continuous
 62
     7
370
    25
100
AcDbLine
 10
826.319848943
 20
264.1434060775
 30
0.0
 11
825.4538235392
 21
265.0094314812
 31
0.0
  0
LINE
  5
5BF
330
1F
100
AcDbEntity
  8
0
  6
Continuous
 62
     7
370
    25
100
AcDbLine
 10
841.819848943
 20
264.1434060775
 30
0.0
 11
826.319848943
 21
264.1434060775
 31
0.0
  0
LINE
  5
5C0
330
1F
100
AcDbEntity
  8
0
  6
Continuous
 62
     7
370
    25
100
AcDbLine
 10
825.4538235392
 20
307.2773806737
 30
0.0
 11
826.319848943
 21
308.1434060775
 31
0.0
  0
LINE
  5
5C1
330
1F
100
AcDbEntity
  8
0
  6
Continuous
 62
     7
370
    25
100
AcDbLine
 10
826.319848943
 20
308.1434060775
 30
0.0
 11
841.819848943
 21
308.1434060775
 31
0.0
  0
ARC
  5
5C2
330
1F
100
AcDbEntity
  8
0
  6
Continuous
 62
     7
370
    25
100
AcDbCircle
 10
841.819848943
 20
264.6434060775
 30
0.0
 40
0.5
100
AcDbArc
 50
270.0
 51
0.0
  0
LINE
  5
5C3
330
1F
100
AcDbEntity
  8
0
  6
Continuous
 62
     7
370
    25
100
AcDbLine
 10
842.319848943
 20
266.2414822888
 30
0.0
 11
842.319848943
 21
264.6434060775
 31
0.0
  0
ARC
  5
5C4
330
1F
100
AcDbEntity
  8
0
  6
Continuous
 62
     7
370
    25
100
AcDbCircle
 10
841.819848943
 20
307.6434060775
 30
0.0
 40
0.5000000000000568
100
AcDbArc
 50
0.0
 51
90.0
  0
LINE
  5
5C5
330
1F
100
AcDbEntity
  8
0
  6
Continuous
 62
     7
370
    25
100
AcDbLine
 10
842.319848943
 20
307.6434060775
 30
0.0
 11
842.319848943
 21
306.0453298661
 31
0.0
  0
LINE
  5
5C6
330
1F
100
AcDbEntity
  8
0
  6
Continuous
 62
     7
370
    25
100
AcDbLine
 10
736.5198489427
 20
77.1434060775
 30
0.0
 11
708.0198489427
 21
77.1434060775
 31
0.0
  0
LINE
  5
5C7
330
1F
100
AcDbEntity
  8
0
  6
Continuous
 62
     7
370
    25
100
AcDbLine
 10
765.0198489427
 20
77.1434060775
 30
0.0
 11
736.5198489427
 21
77.1434060775
 31
0.0
  0
LINE
  5
5C8
330
1F
100
AcDbEntity
  8
0
  6
Continuous
 62
     7
370
    25
100
AcDbLine
 10
736.5198489427
 20
71.1434060775
 30
0.0
 11
710.0198489427
 21
71.1434060775
 31
0.0
  0
LINE
  5
5C9
330
1F
100
AcDbEntity
  8
0
  6
Continuous
 62
     7
370
    25
100
AcDbLine
 10
763.0198489427
 20
71.1434060775
 30
0.0
 11
736.5198489427
 21
71.1434060775
 31
0.0
  0
LINE
  5
5CA
330
1F
100
AcDbEntity
  8
0
  6
Continuous
 62
     7
370
    25
100
AcDbLine
 10
180.0198489427
 20
77.1434060775
 30
0.0
 11
123.0198489427
 21
77.1434060775
 31
0.0
  0
LINE
  5
5CB
330
1F
100
AcDbEntity
  8
0
  6
Continuous
 62
     7
370
    25
100
AcDbLine
 10
178.0198489427
 20
71.1434060775
 30
0.0
 11
125.0198489427
 21
71.1434060775
 31
0.0
  0
LINE
  5
5CC
330
1F
100
AcDbEntity
  8
0
  6
Continuous
 62
     7
370
    25
100
AcDbLine
 10
178.0198489427
 20
68.6434060775
 30
0.0
 11
125.0198489427
 21
68.6434060775
 31
0.0
  0
LINE
  5
5CD
330
1F
100
AcDbEntity
  8
0
  6
Continuous
 62
     7
370
    25
100
AcDbLine
 10
781.5198489427
 20
239.1434060775
 30
0.0
 11
781.5198489427
 21
240.3434060775
 31
0.0
  0
LINE
  5
5CE
330
1F
100
AcDbEntity
  8
0
  6
Continuous
 62
     7
370
    25
100
AcDbLine
 10
691.5198489427
 20
239.1434060775
 30
0.0
 11
781.5198489427
 21
239.1434060775
 31
0.0
  0
LINE
  5
5CF
330
1F
100
AcDbEntity
  8
0
  6
Continuous
 62
     7
370
    25
100
AcDbLine
 10
691.5198489427
 20
239.1434060775
 30
0.0
 11
691.5198489427
 21
240.3434060775
 31
0.0
  0
LINE
  5
5D0
330
1F
100
AcDbEntity
  8
0
  6
Continuous
 62
     7
370
    25
100
AcDbLine
 10
736.5198489427
 20
145.1434060775
 30
0.0
 11
705.5601987223
 21
145.1434060775
 31
0.0
  0
LINE
  5
5D1
330
1F
100
AcDbEntity
  8
0
  6
Continuous
 62
     7
370
    25
100
AcDbLine
 10
767.479499163
 20
145.1434060775
 30
0.0
 11
736.5198489427
 21
145.1434060775
 31
0.0
  0
LINE
  5
5D2
330
1F
100
AcDbEntity
  8
0
  6
Continuous
 62
     7
370
    25
100
AcDbLine
 10
196.5198489427
 20
236.6434060775
 30
0.0
 11
196.5198489427
 21
238.6434060775
 31
0.0
  0
LINE
  5
5D3
330
1F
100
AcDbEntity
  8
0
  6
Continuous
 62
     7
370
    25
100
AcDbLine
 10
106.5198489427
 20
236.6434060775
 30
0.0
 11
119.6198489427
 21
236.6434060775
 31
0.0
  0
LINE
  5
5D4
330
1F
100
AcDbEntity
  8
0
  6
Continuous
 62
     7
370
    25
100
AcDbLine
 10
183.4198489427
 20
236.6434060775
 30
0.0
 11
196.5198489427
 21
236.6434060775
 31
0.0
  0
LINE
  5
5D5
330
1F
100
AcDbEntity
  8
0
  6
Continuous
 62
     7
370
    25
100
AcDbLine
 10
106.5198489427
 20
236.6434060775
 30
0.0
 11
106.5198489427
 21
238.6434060775
 31
0.0
  0
LINE
  5
5D6
330
1F
100
AcDbEntity
  8
0
  6
Continuous
 62
     7
370
    25
100
AcDbLine
 10
182.479499163
 20
142.6434060775
 30
0.0
 11
179.8198489427
 21
142.6434060775
 31
0.0
  0
LINE
  5
5D7
330
1F
100
AcDbEntity
  8
0
  6
Continuous
 62
     7
370
    25
100
AcDbLine
 10
123.2198489427
 20
142.6434060775
 30
0.0
 11
120.5601987223
 21
142.6434060775
 31
0.0
  0
LINE
  5
5D8
330
1F
100
AcDbEntity
  8
0
  6
Continuous
 62
     7
370
    25
100
AcDbLine
 10
106.5198489427
 20
239.1434060775
 30
0.0
 11
106.5198489427
 21
240.3434060775
 31
0.0
  0
LINE
  5
5D9
330
1F
100
AcDbEntity
  8
0
  6
Continuous
 62
     7
370
    25
100
AcDbLine
 10
106.5198489427
 20
239.1434060775
 30
0.0
 11
196.5198489427
 21
239.1434060775
 31
0.0
  0
LINE
  5
5DA
330
1F
100
AcDbEntity
  8
0
  6
Continuous
 62
     7
370
    25
100
AcDbLine
 10
196.5198489427
 20
239.1434060775
 30
0.0
 11
196.5198489427
 21
240.3434060775
 31
0.0
  0
LINE
  5
5DB
330
1F
100
AcDbEntity
  8
0
  6
Continuous
 62
     7
370
    25
100
AcDbLine
 10
182.479499163
 20
145.1434060775
 30
0.0
 11
120.5601987223
 21
145.1434060775
 31
0.0
  0
ENDSEC
  0
SECTION
  2
OBJECTS
  0
DICTIONARY
  5
C
330
0
100
AcDbDictionary
281
     1
  3
ACAD_GROUP
350
D
  3
ACAD_LAYOUT
350
1A
  3
ACAD_MLINESTYLE
350
17
  3
ACAD_PLOTSETTINGS
350
19
  3
ACAD_PLOTSTYLENAME
350
E
  3
ACAD_SCALELIST
350
47
  0
DICTIONARY
  5
D
102
{ACAD_REACTORS
330
C
102
}
330
C
100
AcDbDictionary
281
     1
  0
DICTIONARY
  5
1A
102
{ACAD_REACTORS
330
C
102
}
330
C
100
AcDbDictionary
281
     1
  3
Layout1
350
1E
  3
Layout2
350
26
  3
Model
350
22
  0
DICTIONARY
  5
17
102
{ACAD_REACTORS
330
C
102
}
330
C
100
AcDbDictionary
281
     1
  3
Standard
350
18
  0
DICTIONARY
  5
19
102
{ACAD_REACTORS
330
C
102
}
330
C
100
AcDbDictionary
281
     1
  0
ACDBDICTIONARYWDFLT
  5
E
102
{ACAD_REACTORS
330
C
102
}
330
C
100
AcDbDictionary
281
     1
  3
Normal
350
F
100
AcDbDictionaryWithDefault
340
F
  0
DICTIONARY
  5
47
102
{ACAD_REACTORS
330
C
102
}
330
C
100
AcDbDictionary
281
     1
  3
A0
350
48
  3
A1
350
49
  3
A2
350
4A
  3
A3
350
4B
  3
A4
350
4C
  3
A5
350
4D
  3
A6
350
4E
  3
A7
350
4F
  3
A8
350
50
  3
A9
350
51
  3
B0
350
52
  3
B1
350
53
  3
B2
350
54
  3
B3
350
55
  3
B4
350
56
  3
B5
350
57
  3
B6
350
58
  3
B7
350
59
  3
B8
350
5A
  3
B9
350
5B
  3
C0
350
5C
  3
C1
350
5D
  3
C2
350
5E
  3
C3
350
5F
  3
C4
350
60
  3
C5
350
61
  3
C6
350
62
  3
C7
350
63
  3
C8
350
64
  3
C9
350
65
  3
D0
350
66
  3
D1
350
67
  3
D2
350
68
  0
LAYOUT
  5
1E
102
{ACAD_REACTORS
330
1A
102
}
330
1A
100
AcDbPlotSettings
  1

  2
none_device
  4

  6

 40
0.0
 41
0.0
 42
0.0
 43
0.0
 44
0.0
 45
0.0
 46
0.0
 47
0.0
 48
0.0
 49
0.0
140
0.0
141
0.0
142
1.0
143
1.0
 70
   688
 72
     1
 73
     0
 74
     5
  7

 75
    16
147
1.0
148
0.0
149
0.0
100
AcDbLayout
  1
Layout1
 70
     1
 71
     1
 10
0.0
 20
0.0
 11
420.0
 21
297.0
 12
0.0
 22
0.0
 32
0.0
 14
1.0000000000E+20
 24
1.0000000000E+20
 34
1.0000000000E+20
 15
-1.0000000000E+20
 25
-1.0000000000E+20
 35
-1.0000000000E+20
146
0.0
 13
0.0
 23
0.0
 33
0.0
 16
1.0
 26
0.0
 36
0.0
 17
0.0
 27
1.0
 37
0.0
 76
     0
330
1B
  0
LAYOUT
  5
26
102
{ACAD_REACTORS
330
1A
102
}
330
1A
100
AcDbPlotSettings
  1

  2
none_device
  4

  6

 40
0.0
 41
0.0
 42
0.0
 43
0.0
 44
0.0
 45
0.0
 46
0.0
 47
0.0
 48
0.0
 49
0.0
140
0.0
141
0.0
142
1.0
143
1.0
 70
   688
 72
     1
 73
     0
 74
     5
  7

 75
    16
147
1.0
148
0.0
149
0.0
100
AcDbLayout
  1
Layout2
 70
     1
 71
     2
 10
0.0
 20
0.0
 11
0.0
 21
0.0
 12
0.0
 22
0.0
 32
0.0
 14
0.0
 24
0.0
 34
0.0
 15
0.0
 25
0.0
 35
0.0
146
0.0
 13
0.0
 23
0.0
 33
0.0
 16
1.0
 26
0.0
 36
0.0
 17
0.0
 27
1.0
 37
0.0
 76
     0
330
23
  0
LAYOUT
  5
22
102
{ACAD_REACTORS
330
1A
102
}
330
1A
100
AcDbPlotSettings
  1

  2
none_device
  4
Letter_(8.50_x_11.00_Inches)
  6

 40
6.35
 41
6.35
 42
6.35000508
 43
6.35000508
 44
215.9
 45
279.4
 46
0.0
 47
0.0
 48
0.0
 49
0.0
140
0.0
141
0.0
142
1.0
143
1.0
 70
  1712
 72
     1
 73
     0
 74
     0
  7

 75
     0
147
1.0
148
0.0
149
0.0
100
AcDbLayout
  1
Model
 70
     1
 71
     0
 10
0.0
 20
0.0
 11
900.0
 21
1200.0
 12
0.0
 22
0.0
 32
0.0
 14
0.0
 24
0.0
 34
0.0
 15
900.0
 25
1200.0
 35
0.0
146
0.0
 13
0.0
 23
0.0
 33
0.0
 16
1.0
 26
0.0
 36
0.0
 17
0.0
 27
1.0
 37
0.0
 76
     0
330
1F
331
29
  0
MLINESTYLE
  5
18
102
{ACAD_REACTORS
330
17
102
}
330
17
100
AcDbMlineStyle
  2
Standard
 70
     0
  3

 62
   256
 51
90.0
 52
90.0
 71
     2
 49
0.5
 62
   256
  6
BYLAYER
 49
-0.5
 62
   256
  6
BYLAYER
  0
ACDBPLACEHOLDER
  5
F
102
{ACAD_REACTORS
330
E
102
}
330
E
  0
SCALE
  5
48
102
{ACAD_REACTORS
330
47
102
}
330
47
100
AcDbScale
 70
     0
300
1:1
140
1.0
141
1.0
290
     1
  0
SCALE
  5
49
102
{ACAD_REACTORS
330
47
102
}
330
47
100
AcDbScale
 70
     0
300
1:2
140
1.0
141
2.0
290
     0
  0
SCALE
  5
4A
102
{ACAD_REACTORS
330
47
102
}
330
47
100
AcDbScale
 70
     0
300
1:4
140
1.0
141
4.0
290
     0
  0
SCALE
  5
4B
102
{ACAD_REACTORS
330
47
102
}
330
47
100
AcDbScale
 70
     0
300
1:5
140
1.0
141
5.0
290
     0
  0
SCALE
  5
4C
102
{ACAD_REACTORS
330
47
102
}
330
47
100
AcDbScale
 70
     0
300
1:8
140
1.0
141
8.0
290
     0
  0
SCALE
  5
4D
102
{ACAD_REACTORS
330
47
102
}
330
47
100
AcDbScale
 70
     0
300
1:10
140
1.0
141
10.0
290
     0
  0
SCALE
  5
4E
102
{ACAD_REACTORS
330
47
102
}
330
47
100
AcDbScale
 70
     0
300
1:16
140
1.0
141
16.0
290
     0
  0
SCALE
  5
4F
102
{ACAD_REACTORS
330
47
102
}
330
47
100
AcDbScale
 70
     0
300
1:20
140
1.0
141
20.0
290
     0
  0
SCALE
  5
50
102
{ACAD_REACTORS
330
47
102
}
330
47
100
AcDbScale
 70
     0
300
1:30
140
1.0
141
30.0
290
     0
  0
SCALE
  5
51
102
{ACAD_REACTORS
330
47
102
}
330
47
100
AcDbScale
 70
     0
300
1:40
140
1.0
141
40.0
290
     0
  0
SCALE
  5
52
102
{ACAD_REACTORS
330
47
102
}
330
47
100
AcDbScale
 70
     0
300
1:50
140
1.0
141
50.0
290
     0
  0
SCALE
  5
53
102
{ACAD_REACTORS
330
47
102
}
330
47
100
AcDbScale
 70
     0
300
1:100
140
1.0
141
100.0
290
     0
  0
SCALE
  5
54
102
{ACAD_REACTORS
330
47
102
}
330
47
100
AcDbScale
 70
     0
300
2:1
140
2.0
141
1.0
290
     0
  0
SCALE
  5
55
102
{ACAD_REACTORS
330
47
102
}
330
47
100
AcDbScale
 70
     0
300
4:1
140
4.0
141
1.0
290
     0
  0
SCALE
  5
56
102
{ACAD_REACTORS
330
47
102
}
330
47
100
AcDbScale
 70
     0
300
8:1
140
8.0
141
1.0
290
     0
  0
SCALE
  5
57
102
{ACAD_REACTORS
330
47
102
}
330
47
100
AcDbScale
 70
     0
300
10:1
140
10.0
141
1.0
290
     0
  0
SCALE
  5
58
102
{ACAD_REACTORS
330
47
102
}
330
47
100
AcDbScale
 70
     0
300
100:1
140
100.0
141
1.0
290
     0
  0
SCALE
  5
59
102
{ACAD_REACTORS
330
47
102
}
330
47
100
AcDbScale
 70
     0
300
1/128" = 1'-0"
140
0.0078125
141
12.0
290
     0
  0
SCALE
  5
5A
102
{ACAD_REACTORS
330
47
102
}
330
47
100
AcDbScale
 70
     0
300
1/64" = 1'-0"
140
0.015625
141
12.0
290
     0
  0
SCALE
  5
5B
102
{ACAD_REACTORS
330
47
102
}
330
47
100
AcDbScale
 70
     0
300
1/32" = 1'-0"
140
0.03125
141
12.0
290
     0
  0
SCALE
  5
5C
102
{ACAD_REACTORS
330
47
102
}
330
47
100
AcDbScale
 70
     0
300
1/16" = 1'-0"
140
0.0625
141
12.0
290
     0
  0
SCALE
  5
5D
102
{ACAD_REACTORS
330
47
102
}
330
47
100
AcDbScale
 70
     0
300
3/32" = 1'-0"
140
0.09375
141
12.0
290
     0
  0
SCALE
  5
5E
102
{ACAD_REACTORS
330
47
102
}
330
47
100
AcDbScale
 70
     0
300
1/8" = 1'-0"
140
0.125
141
12.0
290
     0
  0
SCALE
  5
5F
102
{ACAD_REACTORS
330
47
102
}
330
47
100
AcDbScale
 70
     0
300
3/16" = 1'-0"
140
0.1875
141
12.0
290
     0
  0
SCALE
  5
60
102
{ACAD_REACTORS
330
47
102
}
330
47
100
AcDbScale
 70
     0
300
1/4" = 1'-0"
140
0.25
141
12.0
290
     0
  0
SCALE
  5
61
102
{ACAD_REACTORS
330
47
102
}
330
47
100
AcDbScale
 70
     0
300
3/8" = 1'-0"
140
0.375
141
12.0
290
     0
  0
SCALE
  5
62
102
{ACAD_REACTORS
330
47
102
}
330
47
100
AcDbScale
 70
     0
300
1/2" = 1'-0"
140
0.5
141
12.0
290
     0
  0
SCALE
  5
63
102
{ACAD_REACTORS
330
47
102
}
330
47
100
AcDbScale
 70
     0
300
3/4" = 1'-0"
140
0.75
141
12.0
290
     0
  0
SCALE
  5
64
102
{ACAD_REACTORS
330
47
102
}
330
47
100
AcDbScale
 70
     0
300
1" = 1'-0"
140
1.0
141
12.0
290
     0
  0
SCALE
  5
65
102
{ACAD_REACTORS
330
47
102
}
330
47
100
AcDbScale
 70
     0
300
1-1/2" = 1'-0"
140
1.5
141
12.0
290
     0
  0
SCALE
  5
66
102
{ACAD_REACTORS
330
47
102
}
330
47
100
AcDbScale
 70
     0
300
3" = 1'-0"
140
3.0
141
12.0
290
     0
  0
SCALE
  5
67
102
{ACAD_REACTORS
330
47
102
}
330
47
100
AcDbScale
 70
     0
300
6" = 1'-0"
140
6.0
141
12.0
290
     0
  0
SCALE
  5
68
102
{ACAD_REACTORS
330
47
102
}
330
47
100
AcDbScale
 70
     0
300
1'-0" = 1'-0"
140
12.0
141
12.0
290
     0
  0
ENDSEC
  0
EOF
