  0
SECTION
  2
HEADER
  9
$ACADVER
  1
AC1015
  9
$ACADMAINTVER
 70
     6
  9
$DWGCODEPAGE
  3
ANSI_1252
  9
$INSBASE
 10
0.0
 20
0.0
 30
0.0
  9
$EXTMIN
 10
0.0
 20
0.0
 30
0.0
  9
$EXTMAX
 10
1000.0
 20
1200.0
 30
0.0
  9
$LIMMIN
 10
0.0
 20
0.0
  9
$LIMMAX
 10
1000.0
 20
1200.0
  9
$ORTHOMODE
 70
     0
  9
$REGENMODE
 70
     1
  9
$FILLMODE
 70
     1
  9
$QTEXTMODE
 70
     0
  9
$MIRRTEXT
 70
     1
  9
$LTSCALE
 40
1.0
  9
$ATTMODE
 70
     1
  9
$TEXTSIZE
 40
3.5
  9
$TRACEWID
 40
1.0
  9
$TEXTSTYLE
  7
Standard
  9
$CLAYER
  8
0
  9
$CELTYPE
  6
ByLayer
  9
$CECOLOR
 62
   256
  9
$CELTSCALE
 40
1.0
  9
$DISPSILH
 70
     0
  9
$DIMSCALE
 40
1.0
  9
$DIMASZ
 40
3.302
  9
$DIMEXO
 40
1.0
  9
$DIMDLI
 40
3.75
  9
$DIMRND
 40
0.0
  9
$DIMDLE
 40
0.0
  9
$DIMEXE
 40
1.0
  9
$DIMTP
 40
0.0
  9
$DIMTM
 40
0.0
  9
$DIMTXT
 40
3.5
  9
$DIMCEN
 40
2.5
  9
$DIMTSZ
 40
0.0
  9
$DIMTOL
 70
     0
  9
$DIMLIM
 70
     0
  9
$DIMTIH
 70
     1
  9
$DIMTOH
 70
     1
  9
$DIMSE1
 70
     0
  9
$DIMSE2
 70
     0
  9
$DIMTAD
 70
     1
  9
$DIMZIN
 70
     0
  9
$DIMBLK
  1

  9
$DIMASO
 70
     1
  9
$DIMSHO
 70
     1
  9
$DIMPOST
  1

  9
$DIMAPOST
  1

  9
$DIMALT
 70
     0
  9
$DIMALTD
 70
     3
  9
$DIMALTF
 40
0.0393700787
  9
$DIMLFAC
 40
1.0
  9
$DIMTOFL
 70
     1
  9
$DIMTVP
 40
0.0
  9
$DIMTIX
 70
     0
  9
$DIMSOXD
 70
     0
  9
$DIMSAH
 70
     0
  9
$DIMBLK1
  1

  9
$DIMBLK2
  1

  9
$DIMSTYLE
  2
ISO-25
  9
$DIMCLRD
 70
     0
  9
$DIMCLRE
 70
     0
  9
$DIMCLRT
 70
     0
  9
$DIMTFAC
 40
1.0
  9
$DIMGAP
 40
1.524
  9
$DIMJUST
 70
     0
  9
$DIMSD1
 70
     0
  9
$DIMSD2
 70
     0
  9
$DIMTOLJ
 70
     0
  9
$DIMTZIN
 70
     0
  9
$DIMALTZ
 70
     0
  9
$DIMALTTZ
 70
     0
  9
$DIMUPT
 70
     0
  9
$DIMDEC
 70
     1
  9
$DIMTDEC
 70
     1
  9
$DIMALTU
 70
     2
  9
$DIMALTTD
 70
     3
  9
$DIMTXSTY
  7
Standard
  9
$DIMAUNIT
 70
     0
  9
$DIMADEC
 70
     1
  9
$DIMALTRND
 40
0.0
  9
$DIMAZIN
 70
     0
  9
$DIMDSEP
 70
    44
  9
$DIMATFIT
 70
     3
  9
$DIMFRAC
 70
     0
  9
$DIMLDRBLK
  1

  9
$DIMLUNIT
 70
     2
  9
$DIMLWD
 70
    -2
  9
$DIMLWE
 70
    -2
  9
$DIMTMOVE
 70
     0
  9
$LUNITS
 70
     2
  9
$LUPREC
 70
     1
  9
$SKETCHINC
 40
1.0
  9
$FILLETRAD
 40
10.0
  9
$AUNITS
 70
     0
  9
$AUPREC
 70
     1
  9
$MENU
  1
.
  9
$ELEVATION
 40
0.0
  9
$PELEVATION
 40
0.0
  9
$THICKNESS
 40
0.0
  9
$LIMCHECK
 70
     0
  9
$CHAMFERA
 40
10.0
  9
$CHAMFERB
 40
10.0
  9
$CHAMFERC
 40
20.0
  9
$CHAMFERD
 40
0.0
  9
$SKPOLY
 70
     0
  9
$TDCREATE
 40
2455713.649026308
  9
$TDUCREATE
 40
2455713.607359641
  9
$TDUPDATE
 40
2455713.649026319
  9
$TDUUPDATE
 40
2455713.607359653
  9
$TDINDWG
 40
0.0000000116
  9
$TDUSRTIMER
 40
0.0000000116
  9
$USRTIMER
 70
     1
  9
$ANGBASE
 50
0.0
  9
$ANGDIR
 70
     0
  9
$PDMODE
 70
     0
  9
$PDSIZE
 40
-1.0
  9
$PLINEWID
 40
0.0
  9
$SPLFRAME
 70
     0
  9
$SPLINETYPE
 70
     6
  9
$SPLINESEGS
 70
     8
  9
$HANDSEED
  5
321
  9
$SURFTAB1
 70
     6
  9
$SURFTAB2
 70
     6
  9
$SURFTYPE
 70
     6
  9
$SURFU
 70
     6
  9
$SURFV
 70
     6
  9
$UCSBASE
  2

  9
$UCSNAME
  2

  9
$UCSORG
 10
0.0
 20
0.0
 30
0.0
  9
$UCSXDIR
 10
1.0
 20
0.0
 30
0.0
  9
$UCSYDIR
 10
0.0
 20
1.0
 30
0.0
  9
$UCSORTHOREF
  2

  9
$UCSORTHOVIEW
 70
     0
  9
$UCSORGTOP
 10
0.0
 20
0.0
 30
0.0
  9
$UCSORGBOTTOM
 10
0.0
 20
0.0
 30
0.0
  9
$UCSORGLEFT
 10
0.0
 20
0.0
 30
0.0
  9
$UCSORGRIGHT
 10
0.0
 20
0.0
 30
0.0
  9
$UCSORGFRONT
 10
0.0
 20
0.0
 30
0.0
  9
$UCSORGBACK
 10
0.0
 20
0.0
 30
0.0
  9
$PUCSBASE
  2

  9
$PUCSNAME
  2

  9
$PUCSORG
 10
0.0
 20
0.0
 30
0.0
  9
$PUCSXDIR
 10
1.0
 20
0.0
 30
0.0
  9
$PUCSYDIR
 10
0.0
 20
1.0
 30
0.0
  9
$PUCSORTHOREF
  2

  9
$PUCSORTHOVIEW
 70
     0
  9
$PUCSORGTOP
 10
0.0
 20
0.0
 30
0.0
  9
$PUCSORGBOTTOM
 10
0.0
 20
0.0
 30
0.0
  9
$PUCSORGLEFT
 10
0.0
 20
0.0
 30
0.0
  9
$PUCSORGRIGHT
 10
0.0
 20
0.0
 30
0.0
  9
$PUCSORGFRONT
 10
0.0
 20
0.0
 30
0.0
  9
$PUCSORGBACK
 10
0.0
 20
0.0
 30
0.0
  9
$USERI1
 70
     0
  9
$USERI2
 70
     0
  9
$USERI3
 70
     0
  9
$USERI4
 70
     0
  9
$USERI5
 70
     0
  9
$USERR1
 40
0.0
  9
$USERR2
 40
0.0
  9
$USERR3
 40
0.0
  9
$USERR4
 40
0.0
  9
$USERR5
 40
0.0
  9
$WORLDVIEW
 70
     1
  9
$SHADEDGE
 70
     3
  9
$SHADEDIF
 70
    70
  9
$TILEMODE
 70
     1
  9
$MAXACTVP
 70
    64
  9
$PINSBASE
 10
0.0
 20
0.0
 30
0.0
  9
$PLIMCHECK
 70
     0
  9
$PEXTMIN
 10
1.0000000000E+20
 20
1.0000000000E+20
 30
1.0000000000E+20
  9
$PEXTMAX
 10
-1.0000000000E+20
 20
-1.0000000000E+20
 30
-1.0000000000E+20
  9
$PLIMMIN
 10
0.0
 20
0.0
  9
$PLIMMAX
 10
420.0
 20
297.0
  9
$UNITMODE
 70
     0
  9
$VISRETAIN
 70
     1
  9
$PLINEGEN
 70
     0
  9
$PSLTSCALE
 70
     1
  9
$TREEDEPTH
 70
  3020
  9
$CMLSTYLE
  2
Standard
  9
$CMLJUST
 70
     0
  9
$CMLSCALE
 40
20.0
  9
$PROXYGRAPHICS
 70
     1
  9
$MEASUREMENT
 70
     1
  9
$CELWEIGHT
370
    -1
  9
$ENDCAPS
280
     0
  9
$JOINSTYLE
280
     0
  9
$LWDISPLAY
290
     1
  9
$INSUNITS
 70
     4
  9
$HYPERLINKBASE
  1

  9
$STYLESHEET
  1

  9
$XEDIT
290
     1
  9
$CEPSNTYPE
380
     0
  9
$PSTYLEMODE
290
     1
  9
$FINGERPRINTGUID
  2
{FB045C14-6AAF-43A4-B605-B41C0938F831}
  9
$VERSIONGUID
  2
{FAEB1C32-E019-11D5-929B-00C0DF256EC4}
  9
$EXTNAMES
290
     1
  9
$PSVPSCALE
 40
0.0
  9
$OLESTARTUP
290
     0
  0
ENDSEC
  0
SECTION
  2
CLASSES
  0
CLASS
  1
ACDBDICTIONARYWDFLT
  2
AcDbDictionaryWithDefault
  3
ObjectDBX Classes
 90
        0
280
     0
281
     0
  0
CLASS
  1
VISUALSTYLE
  2
AcDbVisualStyle
  3
ObjectDBX Classes
 90
     4095
280
     0
281
     0
  0
CLASS
  1
MATERIAL
  2
AcDbMaterial
  3
ObjectDBX Classes
 90
     1153
280
     0
281
     0
  0
CLASS
  1
ACDBPLACEHOLDER
  2
AcDbPlaceHolder
  3
ObjectDBX Classes
 90
        0
280
     0
281
     0
  0
CLASS
  1
LAYOUT
  2
AcDbLayout
  3
ObjectDBX Classes
 90
        0
280
     0
281
     0
  0
ENDSEC
  0
SECTION
  2
TABLES
  0
TABLE
  2
VPORT
  5
8
330
0
100
AcDbSymbolTable
 70
     1
  0
VPORT
  5
29
330
8
100
AcDbSymbolTableRecord
100
AcDbViewportTableRecord
  2
*Active
 70
     0
 10
0.0
 20
0.0
 11
1.0
 21
1.0
 12
500.0
 22
600.0
 13
0.0
 23
0.0
 14
10.0
 24
10.0
 15
10.0
 25
10.0
 16
0.0
 26
0.0
 36
1.0
 17
0.0
 27
0.0
 37
0.0
 40
1200.0
 41
0.8333333333
 42
50.0
 43
0.0
 44
0.0
 50
0.0
 51
0.0
 71
     0
 72
  2000
 73
     1
 74
     3
 75
     0
 76
     0
 77
     0
 78
     0
281
     0
 65
     1
110
0.0
120
0.0
130
0.0
111
1.0
121
0.0
131
0.0
112
0.0
122
1.0
132
0.0
 79
     0
146
0.0
  0
ENDTAB
  0
TABLE
  2
LTYPE
  5
5
330
0
100
AcDbSymbolTable
 70
     6
  0
LTYPE
  5
14
330
5
100
AcDbSymbolTableRecord
100
AcDbLinetypeTableRecord
  2
ByBlock
 70
     0
  3

 72
    65
 73
     0
 40
0.0
  0
LTYPE
  5
15
330
5
100
AcDbSymbolTableRecord
100
AcDbLinetypeTableRecord
  2
ByLayer
 70
     0
  3

 72
    65
 73
     0
 40
0.0
  0
LTYPE
  5
16
330
5
100
AcDbSymbolTableRecord
100
AcDbLinetypeTableRecord
  2
Continuous
 70
     0
  3
Solid line
 72
    65
 73
     0
 40
0.0
  0
LTYPE
  5
3F
330
5
100
AcDbSymbolTableRecord
100
AcDbLinetypeTableRecord
  2
HIDDEN
 70
     0
  3
Hidden __ __ __ __ __ __ __ __ __ __ __ __ __ __
 72
    65
 73
     2
 40
1.905
 49
1.27
 74
     0
 49
-0.635
 74
     0
  0
LTYPE
  5
40
330
5
100
AcDbSymbolTableRecord
100
AcDbLinetypeTableRecord
  2
PHANTOM
 70
     0
  3
Phantom ______  __  __  ______  __  __  ______
 72
    65
 73
     6
 40
12.7
 49
6.35
 74
     0
 49
-1.27
 74
     0
 49
1.27
 74
     0
 49
-1.27
 74
     0
 49
1.27
 74
     0
 49
-1.27
 74
     0
  0
LTYPE
  5
41
330
5
100
AcDbSymbolTableRecord
100
AcDbLinetypeTableRecord
  2
CENTER
 70
     0
  3
Center ____ _ ____ _ ____ _ ____ _ ____ _ ____
 72
    65
 73
     4
 40
10.16
 49
6.35
 74
     0
 49
-1.27
 74
     0
 49
1.27
 74
     0
 49
-1.27
 74
     0
  0
LTYPE
  5
42
330
5
100
AcDbSymbolTableRecord
100
AcDbLinetypeTableRecord
  2
CENTERX2
 70
     0
  3
Center (2x) ________  __  ________  __  _____
 72
    65
 73
     4
 40
20.32
 49
12.7
 74
     0
 49
-2.54
 74
     0
 49
2.54
 74
     0
 49
-2.54
 74
     0
  0
LTYPE
  5
43
330
5
100
AcDbSymbolTableRecord
100
AcDbLinetypeTableRecord
  2
DOT2
 70
     0
  3
Dot (.5x) ........................................
 72
    65
 73
     2
 40
0.635
 49
0.0
 74
     0
 49
-0.635
 74
     0
  0
ENDTAB
  0
TABLE
  2
LAYER
  5
2
330
0
100
AcDbSymbolTable
 70
     4
  0
LAYER
  5
10
330
2
100
AcDbSymbolTableRecord
100
AcDbLayerTableRecord
  2
0
 70
     0
 62
     7
  6
Continuous
370
    -3
390
F
  0
LAYER
  5
44
330
2
100
AcDbSymbolTableRecord
100
AcDbLayerTableRecord
  2
FORMAT
 70
     0
 62
     7
  6
Continuous
370
    -3
390
F
  0
LAYER
  5
45
330
2
100
AcDbSymbolTableRecord
100
AcDbLayerTableRecord
  2
SLD-0
 70
     0
 62
     1
  6
Continuous
370
    -3
390
F
  0
LAYER
  5
46
330
2
100
AcDbSymbolTableRecord
100
AcDbLayerTableRecord
  2
WATERMARK
 70
     0
 62
    20
  6
Continuous
370
    -3
390
F
  0
ENDTAB
  0
TABLE
  2
STYLE
  5
3
330
0
100
AcDbSymbolTable
 70
     1
  0
STYLE
  5
11
330
3
100
AcDbSymbolTableRecord
100
AcDbTextStyleTableRecord
  2
Standard
 70
     0
 40
0.0
 41
1.0
 50
0.0
 71
     0
 42
2.5
  3
txt
  4

  0
ENDTAB
  0
TABLE
  2
VIEW
  5
6
330
0
100
AcDbSymbolTable
 70
     0
  0
ENDTAB
  0
TABLE
  2
UCS
  5
7
330
0
100
AcDbSymbolTable
 70
     0
  0
ENDTAB
  0
TABLE
  2
APPID
  5
9
330
0
100
AcDbSymbolTable
 70
     1
  0
APPID
  5
12
330
9
100
AcDbSymbolTableRecord
100
AcDbRegAppTableRecord
  2
ACAD
 70
     0
  0
ENDTAB
  0
TABLE
  2
DIMSTYLE
  5
A
330
0
100
AcDbSymbolTable
 70
     1
100
AcDbDimStyleTable
  0
DIMSTYLE
105
27
330
A
100
AcDbSymbolTableRecord
100
AcDbDimStyleTableRecord
  2
ISO-25
 70
     0
 41
2.5
 42
0.625
 43
3.75
 44
1.25
 73
     0
 74
     0
 77
     1
 78
     8
140
2.5
141
2.5
143
0.0393700787
147
0.625
171
     3
172
     1
271
     2
272
     2
274
     3
278
    44
283
     0
284
     8
340
11
  0
ENDTAB
  0
TABLE
  2
BLOCK_RECORD
  5
1
330
0
100
AcDbSymbolTable
 70
     1
  0
BLOCK_RECORD
  5
1F
330
1
100
AcDbSymbolTableRecord
100
AcDbBlockTableRecord
  2
*Model_Space
340
22
  0
BLOCK_RECORD
  5
1B
330
1
100
AcDbSymbolTableRecord
100
AcDbBlockTableRecord
  2
*Paper_Space
340
1E
  0
BLOCK_RECORD
  5
23
330
1
100
AcDbSymbolTableRecord
100
AcDbBlockTableRecord
  2
*Paper_Space0
340
26
  0
ENDTAB
  0
ENDSEC
  0
SECTION
  2
BLOCKS
  0
BLOCK
  5
20
330
1F
100
AcDbEntity
  8
0
100
AcDbBlockBegin
  2
*Model_Space
 70
     0
 10
0.0
 20
0.0
 30
0.0
  3
*Model_Space
  1

  0
ENDBLK
  5
21
330
1F
100
AcDbEntity
  8
0
100
AcDbBlockEnd
  0
BLOCK
  5
1C
330
1B
100
AcDbEntity
 67
     1
  8
0
100
AcDbBlockBegin
  2
*Paper_Space
 70
     0
 10
0.0
 20
0.0
 30
0.0
  3
*Paper_Space
  1

  0
ENDBLK
  5
1D
330
1B
100
AcDbEntity
 67
     1
  8
0
100
AcDbBlockEnd
  0
BLOCK
  5
24
330
23
100
AcDbEntity
  8
0
100
AcDbBlockBegin
  2
*Paper_Space0
 70
     0
 10
0.0
 20
0.0
 30
0.0
  3
*Paper_Space0
  1

  0
ENDBLK
  5
25
330
23
100
AcDbEntity
  8
0
100
AcDbBlockEnd
  0
ENDSEC
  0
SECTION
  2
ENTITIES
  0
LINE
  5
47
330
1F
100
AcDbEntity
  8
0
  6
Continuous
 62
     7
370
    15
100
AcDbLine
 10
820.3403801147
 20
496.5385975937
 30
0.0
 11
813.7403803833
 21
496.5385975937
 31
0.0
  0
LINE
  5
48
330
1F
100
AcDbEntity
  8
0
  6
Continuous
 62
     7
370
    15
100
AcDbLine
 10
813.7403803833
 20
476.5385868648
 30
0.0
 11
820.3403801147
 21
476.5385868648
 31
0.0
  0
LINE
  5
49
330
1F
100
AcDbEntity
  8
0
  6
Continuous
 62
     7
370
    15
100
AcDbLine
 10
820.3403801147
 20
701.2385907272
 30
0.0
 11
813.8553090815
 21
699.617314587
 31
0.0
  0
LINE
  5
4A
330
1F
100
AcDbEntity
  8
0
  6
Continuous
 62
     7
370
    15
100
AcDbLine
 10
813.8553090815
 20
691.8598594765
 30
0.0
 11
820.3403801147
 21
690.2385833362
 31
0.0
  0
ARC
  5
4B
330
1F
100
AcDbEntity
  8
0
  6
Continuous
 62
     7
370
    15
100
AcDbCircle
 10
814.3403804202
 20
693.8001403929
 30
0.0
 40
2.000000000005842
100
AcDbArc
 50
233.1301023542
 51
255.9637565331
  0
ARC
  5
4C
330
1F
100
AcDbEntity
  8
0
  6
Continuous
 62
     7
370
    15
100
AcDbCircle
 10
814.3403804202
 20
697.6770347673
 30
0.0
 40
2.000000000005953
100
AcDbArc
 50
104.0362434669
 51
126.8698976458
  0
LINE
  5
4D
330
1F
100
AcDbEntity
  8
0
  6
Continuous
 62
     7
370
    15
100
AcDbLine
 10
820.3403801147
 20
282.8385862211
 30
0.0
 11
813.8553090815
 21
281.2173212568
 31
0.0
  0
LINE
  5
4E
330
1F
100
AcDbEntity
  8
0
  6
Continuous
 62
     7
370
    15
100
AcDbLine
 10
813.8553090815
 20
273.4598549703
 30
0.0
 11
820.3403801147
 21
271.8385862807
 31
0.0
  0
ARC
  5
4F
330
1F
100
AcDbEntity
  8
0
  6
Continuous
 62
     7
370
    15
100
AcDbCircle
 10
814.3403804202
 20
275.4001403929
 30
0.0
 40
2.000000000005842
100
AcDbArc
 50
233.1301023542
 51
255.9637565331
  0
ARC
  5
50
330
1F
100
AcDbEntity
  8
0
  6
Continuous
 62
     7
370
    15
100
AcDbCircle
 10
814.3403804202
 20
279.2770347673
 30
0.0
 40
2.000000000005842
100
AcDbArc
 50
104.0362434669
 51
126.8698976458
  0
LINE
  5
51
330
1F
100
AcDbEntity
  8
0
  6
Continuous
 62
     7
370
    15
100
AcDbLine
 10
169.8398711581
 20
1089.7355856995
 30
0.0
 11
169.3403842349
 21
1089.2360987762
 31
0.0
  0
LINE
  5
52
330
1F
100
AcDbEntity
  8
0
  6
Continuous
 62
     7
370
    15
100
AcDbLine
 10
169.3403842349
 20
1070.2411117653
 30
0.0
 11
169.4423081775
 21
1070.1391878227
 31
0.0
  0
LINE
  5
53
330
1F
100
AcDbEntity
  8
0
  6
Continuous
 62
     7
370
    15
100
AcDbLine
 10
173.2384087939
 20
1070.1391878227
 30
0.0
 11
173.3403923411
 21
1070.2411117653
 31
0.0
  0
LINE
  5
54
330
1F
100
AcDbEntity
  8
0
  6
Continuous
 62
     7
370
    15
100
AcDbLine
 10
173.3403923411
 20
1089.2360987762
 30
0.0
 11
172.8403093715
 21
1089.7361221413
 31
0.0
  0
ARC
  5
55
330
1F
100
AcDbEntity
  8
0
  6
Continuous
 62
     7
370
    15
100
AcDbCircle
 10
168.9403804202
 20
1085.1385875801
 30
0.0
 40
0.4000000000000909
100
AcDbArc
 50
270.0
 51
0.0
  0
ARC
  5
56
330
1F
100
AcDbEntity
  8
0
  6
Continuous
 62
     7
370
    15
100
AcDbCircle
 10
168.9403804202
 20
1074.3385875801
 30
0.0
 40
0.3999999999999488
100
AcDbArc
 50
0.0
 51
90.0
  0
ARC
  5
57
330
1F
100
AcDbEntity
  8
0
  6
Continuous
 62
     7
370
    15
100
AcDbCircle
 10
162.0403804202
 20
1074.9385875801
 30
0.0
 40
0.2000000000000455
100
AcDbArc
 50
180.0
 51
270.0
  0
ARC
  5
58
330
1F
100
AcDbEntity
  8
0
  6
Continuous
 62
     7
370
    15
100
AcDbCircle
 10
162.0403804202
 20
1084.5385875801
 30
0.0
 40
0.1999999999999886
100
AcDbArc
 50
90.0
 51
180.0
  0
LINE
  5
59
330
1F
100
AcDbEntity
  8
0
  6
Continuous
 62
     7
370
    15
100
AcDbLine
 10
168.9403774638
 20
1084.7385707001
 30
0.0
 11
162.0403649707
 21
1084.7385707001
 31
0.0
  0
LINE
  5
5A
330
1F
100
AcDbEntity
  8
0
  6
Continuous
 62
     7
370
    15
100
AcDbLine
 10
162.0403649707
 20
1074.7385802368
 30
0.0
 11
168.9403774638
 21
1074.7385802368
 31
0.0
  0
ARC
  5
5B
330
1F
100
AcDbEntity
  8
0
  6
Continuous
 62
     7
370
    15
100
AcDbCircle
 10
833.1403804202
 20
994.5357826383
 30
0.0
 40
3.000000000000038
100
AcDbArc
 50
285.61372709
 51
105.61372709
  0
LWPOLYLINE
  5
5C
330
1F
100
AcDbEntity
  8
0
  6
Continuous
 62
     7
370
    15
100
AcDbPolyline
 90
       11
 70
   128
 43
0.0
 10
832.3329287071
 20
997.4250974754
 10
832.1550684471
 20
997.3753872017
 10
831.6258686085
 20
997.227508078
 10
830.758358394
 20
996.985036383
 10
829.5738986183
 20
996.6540517906
 10
828.1016545792
 20
996.2426009277
 10
826.3778798704
 20
995.7608761886
 10
824.4450176556
 20
995.220679293
 10
822.3506622438
 20
994.635421286
 10
820.1463828285
 20
994.0194072822
 10
817.8864568893
 20
993.3878364662
  0
LWPOLYLINE
  5
5D
330
1F
100
AcDbEntity
  8
0
  6
Continuous
 62
     7
370
    15
100
AcDbPolyline
 90
       11
 70
   128
 43
0.0
 10
819.5013609205
 20
987.6092257599
 10
821.7612868596
 20
988.2407965759
 10
823.9655653436
 20
988.8568105797
 10
826.0599216868
 20
989.4421281914
 10
827.9927829702
 20
989.9822654823
 10
829.7165586103
 20
990.4639902214
 10
831.1888007869
 20
990.8754410843
 10
832.3732605625
 20
991.2064256767
 10
833.240770777
 20
991.4488973717
 10
833.7699724783
 20
991.5967764954
 10
833.9478327383
 20
991.6464867691
  0
LINE
  5
5E
330
1F
100
AcDbEntity
  8
0
  6
Continuous
 62
     7
370
    15
100
AcDbLine
 10
817.8864568893
 20
993.3878364662
 30
0.0
 11
625.1984360118
 21
939.5386161903
 31
0.0
  0
LINE
  5
5F
330
1F
100
AcDbEntity
  8
0
  6
Continuous
 62
     7
370
    15
100
AcDbLine
 10
647.490781774
 20
939.5386161903
 30
0.0
 11
819.5013609205
 21
987.6092257599
 31
0.0
  0
LINE
  5
60
330
1F
100
AcDbEntity
  8
0
  6
Continuous
 62
     7
370
    15
100
AcDbLine
 10
858.4738793273
 20
811.9445624451
 30
0.0
 11
866.748374929
 21
818.8389124969
 31
0.0
  0
LINE
  5
61
330
1F
100
AcDbEntity
  8
0
  6
Continuous
 62
     7
370
    15
100
AcDbLine
 10
840.8824345518
 20
873.5974612335
 30
0.0
 11
838.3877734144
 21
873.7632217506
 31
0.0
  0
LINE
  5
62
330
1F
100
AcDbEntity
  8
0
  6
Continuous
 62
     7
370
    15
100
AcDbLine
 10
849.1344051857
 20
873.0491581062
 30
0.0
 11
845.8712706764
 21
873.2659998039
 31
0.0
  0
LINE
  5
63
330
1F
100
AcDbEntity
  8
0
  6
Continuous
 62
     7
370
    15
100
AcDbLine
 10
866.748374929
 20
818.8389124969
 30
0.0
 11
882.5095715423
 21
833.144206057
 31
0.0
  0
LINE
  5
64
330
1F
100
AcDbEntity
  8
0
  6
Continuous
 62
     7
370
    15
100
AcDbLine
 10
849.6314557691
 20
872.9949178795
 30
0.0
 11
849.1344051857
 21
873.0491581062
 31
0.0
  0
ARC
  5
65
330
1F
100
AcDbEntity
  8
0
  6
Continuous
 62
     7
370
    15
100
AcDbCircle
 10
881.8374897042
 20
833.8847114436
 30
0.0
 40
0.9999999999999672
100
AcDbArc
 50
312.227745318
 51
18.0
  0
LINE
  5
66
330
1F
100
AcDbEntity
  8
0
  6
Continuous
 62
     7
370
    15
100
AcDbLine
 10
848.7263815899
 20
835.4721250633
 30
0.0
 11
850.6392846305
 21
836.0569658378
 31
0.0
  0
LINE
  5
67
330
1F
100
AcDbEntity
  8
0
  6
Continuous
 62
     7
370
    15
100
AcDbLine
 10
845.8747612734
 20
873.2757749657
 30
0.0
 11
840.8803148617
 21
873.6076536278
 31
0.0
  0
LINE
  5
68
330
1F
100
AcDbEntity
  8
0
  6
Continuous
 62
     7
370
    15
100
AcDbLine
 10
160.6403710742
 20
1083.7385835747
 30
0.0
 11
160.1404073138
 21
1083.7385835747
 31
0.0
  0
LINE
  5
69
330
1F
100
AcDbEntity
  8
0
  6
Continuous
 62
     7
370
    15
100
AcDbLine
 10
160.1404073138
 20
1075.7385673622
 30
0.0
 11
160.6403710742
 21
1075.7385673622
 31
0.0
  0
LINE
  5
6A
330
1F
100
AcDbEntity
  8
0
  6
Continuous
 62
     7
370
    15
100
AcDbLine
 10
870.6403794189
 20
224.0385873864
 30
0.0
 11
870.1403821309
 21
224.5385874683
 31
0.0
  0
LINE
  5
6B
330
1F
100
AcDbEntity
  8
0
  6
Continuous
 62
     7
370
    15
100
AcDbLine
 10
854.1403795083
 20
224.5385874683
 30
0.0
 11
853.6403822203
 21
224.0385873864
 31
0.0
  0
LINE
  5
6C
330
1F
100
AcDbEntity
  8
0
  6
Continuous
 62
     7
370
    15
100
AcDbLine
 10
853.6403822203
 20
224.0385873864
 30
0.0
 11
853.6403822203
 21
222.5385876062
 31
0.0
  0
LINE
  5
6D
330
1F
100
AcDbEntity
  8
0
  6
Continuous
 62
     7
370
    15
100
AcDbLine
 10
870.6403794189
 20
222.5385876062
 30
0.0
 11
870.6403794189
 21
224.0385873864
 31
0.0
  0
LINE
  5
6E
330
1F
100
AcDbEntity
  8
0
  6
Continuous
 62
     7
370
    15
100
AcDbLine
 10
853.6403822203
 20
222.5385876062
 30
0.0
 11
854.1403795083
 21
222.0385875242
 31
0.0
  0
LINE
  5
6F
330
1F
100
AcDbEntity
  8
0
  6
Continuous
 62
     7
370
    15
100
AcDbLine
 10
870.1403821309
 20
222.0385875242
 30
0.0
 11
870.6403794189
 21
222.5385876062
 31
0.0
  0
LINE
  5
70
330
1F
100
AcDbEntity
  8
0
  6
Continuous
 62
     7
370
    15
100
AcDbLine
 10
855.6403788228
 20
225.8092984246
 30
0.0
 11
855.6403788228
 21
225.7385877582
 31
0.0
  0
LINE
  5
71
330
1F
100
AcDbEntity
  8
0
  6
Continuous
 62
     7
370
    15
100
AcDbLine
 10
868.640379091
 20
225.7385877582
 30
0.0
 11
868.640379091
 21
225.8092984246
 31
0.0
  0
LINE
  5
72
330
1F
100
AcDbEntity
  8
0
  6
Continuous
 62
     7
370
    15
100
AcDbLine
 10
853.6403822203
 20
749.0385952095
 30
0.0
 11
853.940379848
 21
748.7386050323
 31
0.0
  0
LINE
  5
73
330
1F
100
AcDbEntity
  8
0
  6
Continuous
 62
     7
370
    15
100
AcDbLine
 10
870.1403821309
 20
748.5385718445
 30
0.0
 11
870.6403794189
 21
749.0385952095
 31
0.0
  0
LINE
  5
74
330
1F
100
AcDbEntity
  8
0
  6
Continuous
 62
     7
370
    15
100
AcDbLine
 10
870.6403794189
 20
750.5386056999
 30
0.0
 11
870.1403821309
 21
751.0385694603
 31
0.0
  0
LINE
  5
75
330
1F
100
AcDbEntity
  8
0
  6
Continuous
 62
     7
370
    15
100
AcDbLine
 10
854.1403795083
 20
751.0385694603
 30
0.0
 11
853.6403822203
 21
750.5386056999
 31
0.0
  0
LINE
  5
76
330
1F
100
AcDbEntity
  8
0
  6
Continuous
 62
     7
370
    15
100
AcDbLine
 10
870.6403794189
 20
749.0385952095
 30
0.0
 11
870.6403794189
 21
750.5386056999
 31
0.0
  0
LINE
  5
77
330
1F
100
AcDbEntity
  8
0
  6
Continuous
 62
     7
370
    15
100
AcDbLine
 10
853.6403822203
 20
750.5386056999
 30
0.0
 11
853.6403822203
 21
749.0385952095
 31
0.0
  0
LINE
  5
78
330
1F
100
AcDbEntity
  8
0
  6
Continuous
 62
     7
370
    15
100
AcDbLine
 10
868.640379091
 20
747.2678604225
 30
0.0
 11
868.640379091
 21
747.3386111359
 31
0.0
  0
LINE
  5
79
330
1F
100
AcDbEntity
  8
0
  6
Continuous
 62
     7
370
    15
100
AcDbLine
 10
855.6403788228
 20
747.3386111359
 30
0.0
 11
855.6403788228
 21
747.2678604225
 31
0.0
  0
LINE
  5
7A
330
1F
100
AcDbEntity
  8
0
  6
Continuous
 62
     7
370
    15
100
AcDbLine
 10
870.1403821309
 20
752.0386161903
 30
0.0
 11
870.1403821309
 21
754.5386138061
 31
0.0
  0
LINE
  5
7B
330
1F
100
AcDbEntity
  8
0
  6
Continuous
 62
     7
370
    15
100
AcDbLine
 10
866.0403797824
 20
219.0385875563
 30
0.0
 11
866.0403797824
 21
219.5385875801
 31
0.0
  0
LINE
  5
7C
330
1F
100
AcDbEntity
  8
0
  6
Continuous
 62
     7
370
    15
100
AcDbLine
 10
858.2403818567
 20
219.5385875801
 30
0.0
 11
858.2403818567
 21
219.0385875563
 31
0.0
  0
LINE
  5
7D
330
1F
100
AcDbEntity
  8
0
  6
Continuous
 62
     7
370
    15
100
AcDbLine
 10
857.1403818626
 20
752.0386161903
 30
0.0
 11
857.1403818626
 21
751.0385694603
 31
0.0
  0
LINE
  5
7E
330
1F
100
AcDbEntity
  8
0
  6
Continuous
 62
     7
370
    15
100
AcDbLine
 10
867.1403797765
 20
751.0385694603
 30
0.0
 11
867.1403797765
 21
752.0386161903
 31
0.0
  0
LINE
  5
7F
330
1F
100
AcDbEntity
  8
0
  6
Continuous
 62
     7
370
    15
100
AcDbLine
 10
858.2403818567
 20
755.0385775665
 30
0.0
 11
858.2403818567
 21
754.5386138061
 31
0.0
  0
LINE
  5
80
330
1F
100
AcDbEntity
  8
0
  6
Continuous
 62
     7
370
    15
100
AcDbLine
 10
866.0403797824
 20
754.5386138061
 30
0.0
 11
866.0403797824
 21
755.0385775665
 31
0.0
  0
LINE
  5
81
330
1F
100
AcDbEntity
  8
0
  6
Continuous
 62
     7
370
    15
100
AcDbLine
 10
870.1403821309
 20
219.5385875801
 30
0.0
 11
870.1403821309
 21
222.0385875242
 31
0.0
  0
ARC
  5
82
330
1F
100
AcDbEntity
  8
0
  6
Continuous
 62
     7
370
    15
100
AcDbCircle
 10
205.6403804202
 20
51.5385875801
 30
0.0
 40
2.000000000000007
100
AcDbArc
 50
270.0
 51
0.0
  0
ARC
  5
83
330
1F
100
AcDbEntity
  8
0
  6
Continuous
 62
     7
370
    15
100
AcDbCircle
 10
152.6403804202
 20
51.5385875801
 30
0.0
 40
2.000000000000007
100
AcDbArc
 50
180.0
 51
270.0
  0
LINE
  5
84
330
1F
100
AcDbEntity
  8
0
  6
Continuous
 62
     7
370
    15
100
AcDbLine
 10
207.6403620143
 20
51.5385898451
 30
0.0
 11
207.6403620143
 21
55.5385830501
 31
0.0
  0
LINE
  5
85
330
1F
100
AcDbEntity
  8
0
  6
Continuous
 62
     7
370
    15
100
AcDbLine
 10
150.6403806109
 20
55.5385830501
 30
0.0
 11
150.6403806109
 21
51.5385898451
 31
0.0
  0
LINE
  5
86
330
1F
100
AcDbEntity
  8
0
  6
Continuous
 62
     7
370
    15
100
AcDbLine
 10
792.6403796722
 20
51.5385898451
 30
0.0
 11
792.6403796722
 21
55.5385830501
 31
0.0
  0
LINE
  5
87
330
1F
100
AcDbEntity
  8
0
  6
Continuous
 62
     7
370
    15
100
AcDbLine
 10
735.640381505
 20
55.5385830501
 30
0.0
 11
735.640381505
 21
51.5385898451
 31
0.0
  0
ARC
  5
88
330
1F
100
AcDbEntity
  8
0
  6
Continuous
 62
     7
370
    15
100
AcDbCircle
 10
790.6403804202
 20
51.5385875801
 30
0.0
 40
2.000000000000007
100
AcDbArc
 50
270.0
 51
0.0
  0
ARC
  5
89
330
1F
100
AcDbEntity
  8
0
  6
Continuous
 62
     7
370
    15
100
AcDbCircle
 10
737.6403804202
 20
51.5385875801
 30
0.0
 40
2.000000000000007
100
AcDbArc
 50
180.0
 51
270.0
  0
LINE
  5
8A
330
1F
100
AcDbEntity
  8
0
  6
Continuous
 62
     7
370
    15
100
AcDbLine
 10
207.4403884311
 20
55.5385830501
 30
0.0
 11
207.4403884311
 21
123.5385867456
 31
0.0
  0
LINE
  5
8B
330
1F
100
AcDbEntity
  8
0
  6
Continuous
 62
     7
370
    15
100
AcDbLine
 10
150.8403541942
 20
123.5385867456
 30
0.0
 11
150.8403541942
 21
55.5385830501
 31
0.0
  0
LINE
  5
8C
330
1F
100
AcDbEntity
  8
0
  6
Continuous
 62
     7
370
    15
100
AcDbLine
 10
792.4403800119
 20
55.5385830501
 30
0.0
 11
792.4403800119
 21
123.5385867456
 31
0.0
  0
LINE
  5
8D
330
1F
100
AcDbEntity
  8
0
  6
Continuous
 62
     7
370
    15
100
AcDbLine
 10
735.84037744
 20
123.5385867456
 30
0.0
 11
735.84037744
 21
55.5385830501
 31
0.0
  0
ARC
  5
8E
330
1F
100
AcDbEntity
  8
0
  6
Continuous
 62
     7
370
    15
100
AcDbCircle
 10
212.5403804202
 20
216.0385875801
 30
0.0
 40
1.5
100
AcDbArc
 50
90.0
 51
180.0
  0
ARC
  5
8F
330
1F
100
AcDbEntity
  8
0
  6
Continuous
 62
     7
370
    15
100
AcDbCircle
 10
145.7403804202
 20
216.0385875801
 30
0.0
 40
1.5
100
AcDbArc
 50
0.0
 51
90.0
  0
ARC
  5
90
330
1F
100
AcDbEntity
  8
0
  6
Continuous
 62
     7
370
    15
100
AcDbCircle
 10
206.3403804202
 20
129.5711535258
 30
0.0
 40
4.700000000000017
100
AcDbArc
 50
350.5402980318
 51
0.0
  0
ARC
  5
91
330
1F
100
AcDbEntity
  8
0
  6
Continuous
 62
     7
370
    15
100
AcDbCircle
 10
151.9403804202
 20
129.5711535258
 30
0.0
 40
4.700000000000045
100
AcDbArc
 50
180.0
 51
189.4597019682
  0
LINE
  5
92
330
1F
100
AcDbEntity
  8
0
  6
Continuous
 62
     7
370
    15
100
AcDbLine
 10
211.0403897662
 20
129.5711504916
 30
0.0
 11
211.0403897662
 21
216.0385874721
 31
0.0
  0
LINE
  5
93
330
1F
100
AcDbEntity
  8
0
  6
Continuous
 62
     7
370
    15
100
AcDbLine
 10
147.240352859
 20
216.0385874721
 30
0.0
 11
147.240352859
 21
129.5711504916
 31
0.0
  0
LINE
  5
94
330
1F
100
AcDbEntity
  8
0
  6
Continuous
 62
     7
370
    15
100
AcDbLine
 10
147.3043086429
 20
128.7986891965
 30
0.0
 11
148.1807353396
 21
123.5385867456
 31
0.0
  0
LINE
  5
95
330
1F
100
AcDbEntity
  8
0
  6
Continuous
 62
     7
370
    15
100
AcDbLine
 10
210.1000072856
 20
123.5385867456
 30
0.0
 11
210.976493587
 21
128.7986891965
 31
0.0
  0
ARC
  5
96
330
1F
100
AcDbEntity
  8
0
  6
Continuous
 62
     7
370
    15
100
AcDbCircle
 10
797.5403804202
 20
216.0385875801
 30
0.0
 40
1.499999999999943
100
AcDbArc
 50
90.0
 51
180.0
  0
ARC
  5
97
330
1F
100
AcDbEntity
  8
0
  6
Continuous
 62
     7
370
    15
100
AcDbCircle
 10
730.7403804202
 20
216.0385875801
 30
0.0
 40
1.499999999999943
100
AcDbArc
 50
0.0
 51
90.0
  0
ARC
  5
98
330
1F
100
AcDbEntity
  8
0
  6
Continuous
 62
     7
370
    15
100
AcDbCircle
 10
791.3403804202
 20
129.5711535258
 30
0.0
 40
4.700000000000045
100
AcDbArc
 50
350.5402980318
 51
0.0
  0
ARC
  5
99
330
1F
100
AcDbEntity
  8
0
  6
Continuous
 62
     7
370
    15
100
AcDbCircle
 10
736.9403804202
 20
129.5711535258
 30
0.0
 40
4.700000000000045
100
AcDbArc
 50
180.0
 51
189.4597019682
  0
LINE
  5
9A
330
1F
100
AcDbEntity
  8
0
  6
Continuous
 62
     7
370
    15
100
AcDbLine
 10
796.0403804157
 20
129.5711504916
 30
0.0
 11
796.0403804157
 21
216.0385874721
 31
0.0
  0
LINE
  5
9B
330
1F
100
AcDbEntity
  8
0
  6
Continuous
 62
     7
370
    15
100
AcDbLine
 10
732.2403835554
 20
216.0385874721
 30
0.0
 11
732.2403835554
 21
129.5711504916
 31
0.0
  0
LINE
  5
9C
330
1F
100
AcDbEntity
  8
0
  6
Continuous
 62
     7
370
    15
100
AcDbLine
 10
732.3042946358
 20
128.7986891965
 30
0.0
 11
733.1807287831
 21
123.5385867456
 31
0.0
  0
LINE
  5
9D
330
1F
100
AcDbEntity
  8
0
  6
Continuous
 62
     7
370
    15
100
AcDbLine
 10
795.1000305314
 20
123.5385867456
 30
0.0
 11
795.9764674727
 21
128.7986891965
 31
0.0
  0
ARC
  5
9E
330
1F
100
AcDbEntity
  8
0
  6
Continuous
 62
     7
370
    15
100
AcDbCircle
 10
93.7484773144
 20
351.2422314699
 30
0.0
 40
0.6630428656463359
100
AcDbArc
 50
67.6962429873
 51
95.0244461925
  0
ARC
  5
9F
330
1F
100
AcDbEntity
  8
0
  6
Continuous
 62
     7
370
    15
100
AcDbCircle
 10
88.5903804202
 20
352.1541602759
 30
0.0
 40
0.2500000000000568
100
AcDbArc
 50
180.0
 51
270.0
  0
LINE
  5
A0
330
1F
100
AcDbEntity
  8
0
  6
Continuous
 62
     7
370
    15
100
AcDbLine
 10
88.590395679
 20
351.9041570524
 30
0.0
 11
93.6904075046
 21
351.9041570524
 31
0.0
  0
LWPOLYLINE
  5
A1
330
1F
100
AcDbEntity
  8
0
  6
Continuous
 62
     7
370
    15
100
AcDbPolyline
 90
        8
 70
   128
 43
0.0
 10
95.138561954
 20
357.7069672445
 10
95.1402904887
 20
357.7136131624
 10
95.0763347049
 20
357.9185637335
 10
94.9428203006
 20
358.0590518812
 10
94.6644666095
 20
358.2011940578
 10
94.235670795
 20
358.3035948376
 10
93.7767150302
 20
358.3416375021
 10
93.6075570483
 20
358.334604154
  0
ARC
  5
A2
330
1F
100
AcDbEntity
  8
0
  6
Continuous
 62
     7
370
    15
100
AcDbCircle
 10
88.5903804202
 20
358.0925748254
 30
0.0
 40
0.25
100
AcDbArc
 50
90.0
 51
180.0
  0
LINE
  5
A3
330
1F
100
AcDbEntity
  8
0
  6
Continuous
 62
     7
370
    15
100
AcDbLine
 10
93.6904075046
 20
358.3425762752
 30
0.0
 11
88.590395679
 21
358.3425762752
 31
0.0
  0
ARC
  5
A4
330
1F
100
AcDbEntity
  8
0
  6
Continuous
 62
     7
370
    15
100
AcDbCircle
 10
94.8903804202
 20
360.7885875801
 30
0.0
 40
0.25
100
AcDbArc
 50
0.0
 51
90.0
  0
ARC
  5
A5
330
1F
100
AcDbEntity
  8
0
  6
Continuous
 62
     7
370
    15
100
AcDbCircle
 10
94.1903804202
 20
360.7885875801
 30
0.0
 40
0.25
100
AcDbArc
 50
90.0
 51
180.0
  0
LINE
  5
A6
330
1F
100
AcDbEntity
  8
0
  6
Continuous
 62
     7
370
    15
100
AcDbLine
 10
94.8903682132
 20
361.0385837654
 30
0.0
 11
94.1903712649
 21
361.0385837654
 31
0.0
  0
LINE
  5
A7
330
1F
100
AcDbEntity
  8
0
  6
Continuous
 62
     7
370
    15
100
AcDbLine
 10
88.590395679
 20
346.3345947365
 30
0.0
 11
92.7403690715
 21
346.3345947365
 31
0.0
  0
ARC
  5
A8
330
1F
100
AcDbEntity
  8
0
  6
Continuous
 62
     7
370
    15
100
AcDbCircle
 10
88.5903804202
 20
346.5846003347
 30
0.0
 40
0.2500000000000568
100
AcDbArc
 50
180.0
 51
270.0
  0
ARC
  5
A9
330
1F
100
AcDbEntity
  8
0
  6
Continuous
 62
     7
370
    15
100
AcDbCircle
 10
93.6903804202
 20
360.7885875801
 30
0.0
 40
0.2500000000000018
100
AcDbArc
 50
0.0
 51
43.4670535275
  0
ARC
  5
AA
330
1F
100
AcDbEntity
  8
0
  6
Continuous
 62
     7
370
    15
100
AcDbCircle
 10
94.1695362923
 20
345.784237437
 30
0.0
 40
0.2271538619562702
100
AcDbArc
 50
176.3899367305
 51
275.2475739321
  0
LINE
  5
AB
330
1F
100
AcDbEntity
  8
0
  6
Continuous
 62
     7
370
    15
100
AcDbLine
 10
99.2903830905
 20
345.5553385118
 30
0.0
 11
94.1903712649
 21
345.5553385118
 31
0.0
  0
ARC
  5
AC
330
1F
100
AcDbEntity
  8
0
  6
Continuous
 62
     7
370
    15
100
AcDbCircle
 10
99.2903804202
 20
345.3053430853
 30
0.0
 40
0.2500000000000568
100
AcDbArc
 50
0.0
 51
90.0
  0
ARC
  5
AD
330
1F
100
AcDbEntity
  8
0
  6
Continuous
 62
     7
370
    15
100
AcDbCircle
 10
99.2903804202
 20
342.4132151355
 30
0.0
 40
0.2500000000000853
100
AcDbArc
 50
270.0
 51
0.0
  0
LINE
  5
AE
330
1F
100
AcDbEntity
  8
0
  6
Continuous
 62
     7
370
    15
100
AcDbLine
 10
94.1903712649
 20
342.1632158259
 30
0.0
 11
99.2903830905
 21
342.1632158259
 31
0.0
  0
LINE
  5
AF
330
1F
100
AcDbEntity
  8
0
  6
Continuous
 62
     7
370
    15
100
AcDbLine
 10
99.2903830905
 20
362.5139626364
 30
0.0
 11
94.1903712649
 21
362.5139626364
 31
0.0
  0
ARC
  5
B0
330
1F
100
AcDbEntity
  8
0
  6
Continuous
 62
     7
370
    15
100
AcDbCircle
 10
99.2903804202
 20
362.2639600247
 30
0.0
 40
0.2500000000000568
100
AcDbArc
 50
0.0
 51
90.0
  0
LINE
  5
B1
330
1F
100
AcDbEntity
  8
0
  6
Continuous
 62
     7
370
    15
100
AcDbLine
 10
95.140409698
 20
359.1218324999
 30
0.0
 11
99.2903830905
 21
359.1218324999
 31
0.0
  0
ARC
  5
B2
330
1F
100
AcDbEntity
  8
0
  6
Continuous
 62
     7
370
    15
100
AcDbCircle
 10
99.2903804202
 20
359.3718320749
 30
0.0
 40
0.2500000000000568
100
AcDbArc
 50
270.0
 51
0.0
  0
LINE
  5
B3
330
1F
100
AcDbEntity
  8
0
  6
Continuous
 62
     7
370
    15
100
AcDbLine
 10
95.3266146083
 20
357.6611014704
 30
0.0
 11
95.140409698
 21
357.3385807375
 31
0.0
  0
LINE
  5
B4
330
1F
100
AcDbEntity
  8
0
  6
Continuous
 62
     7
370
    15
100
AcDbLine
 10
100.3403785129
 20
357.3385807375
 30
0.0
 11
100.1541736026
 21
357.6611014704
 31
0.0
  0
LINE
  5
B5
330
1F
100
AcDbEntity
  8
0
  6
Continuous
 62
     7
370
    15
100
AcDbLine
 10
95.140409698
 20
347.3385902742
 30
0.0
 11
95.3266146083
 21
347.0160695413
 31
0.0
  0
LINE
  5
B6
330
1F
100
AcDbEntity
  8
0
  6
Continuous
 62
     7
370
    15
100
AcDbLine
 10
100.1541736026
 20
347.0160695413
 30
0.0
 11
100.3403785129
 21
347.3385902742
 31
0.0
  0
LINE
  5
B7
330
1F
100
AcDbEntity
  8
0
  6
Continuous
 62
     7
370
    15
100
AcDbLine
 10
100.5903603931
 20
347.3385902742
 30
0.0
 11
100.6516339679
 21
347.2324642042
 31
0.0
  0
LINE
  5
B8
330
1F
100
AcDbEntity
  8
0
  6
Continuous
 62
     7
370
    15
100
AcDbLine
 10
100.6516339679
 20
357.4447217087
 30
0.0
 11
100.5903603931
 21
357.3385807375
 31
0.0
  0
LINE
  5
B9
330
1F
100
AcDbEntity
  8
0
  6
Continuous
 62
     7
370
    15
100
AcDbLine
 10
100.5903603931
 20
355.3385915855
 30
0.0
 11
100.3403785129
 21
355.3385915855
 31
0.0
  0
LINE
  5
BA
330
1F
100
AcDbEntity
  8
0
  6
Continuous
 62
     7
370
    15
100
AcDbLine
 10
100.3403785129
 20
349.3385943273
 30
0.0
 11
100.5903603931
 21
349.3385943273
 31
0.0
  0
LINE
  5
BB
330
1F
100
AcDbEntity
  8
0
  6
Continuous
 62
     7
370
    15
100
AcDbLine
 10
813.7403803833
 20
482.7080848316
 30
0.0
 11
813.7403803833
 21
476.5385868648
 31
0.0
  0
LINE
  5
BC
330
1F
100
AcDbEntity
  8
0
  6
Continuous
 62
     7
370
    15
100
AcDbLine
 10
813.7403803833
 20
496.5385975937
 30
0.0
 11
813.7403803833
 21
482.7080848316
 31
0.0
  0
LINE
  5
BD
330
1F
100
AcDbEntity
  8
0
  6
Continuous
 62
     7
370
    15
100
AcDbLine
 10
169.8413612742
 20
1089.7370162109
 30
0.0
 11
169.3723323245
 21
1089.2564835647
 31
0.0
  0
LINE
  5
BE
330
1F
100
AcDbEntity
  8
0
  6
Continuous
 62
     7
370
    15
100
AcDbLine
 10
169.3723323245
 20
1089.2564835647
 30
0.0
 11
169.8413612742
 21
1089.6872463325
 31
0.0
  0
LINE
  5
BF
330
1F
100
AcDbEntity
  8
0
  6
Continuous
 62
     7
370
    15
100
AcDbLine
 10
169.8413612742
 20
1089.6869483093
 30
0.0
 11
169.3723323245
 21
1089.1620102028
 31
0.0
  0
LINE
  5
C0
330
1F
100
AcDbEntity
  8
0
  6
Continuous
 62
     7
370
    15
100
AcDbLine
 10
169.3723323245
 20
1089.1620102028
 30
0.0
 11
169.8413612742
 21
1089.5380559067
 31
0.0
  0
LINE
  5
C1
330
1F
100
AcDbEntity
  8
0
  6
Continuous
 62
     7
370
    15
100
AcDbLine
 10
169.8413612742
 20
1089.5374002556
 30
0.0
 11
169.3723323245
 21
1088.9734211067
 31
0.0
  0
LINE
  5
C2
330
1F
100
AcDbEntity
  8
0
  6
Continuous
 62
     7
370
    15
100
AcDbLine
 10
169.3723323245
 20
1088.9734211067
 30
0.0
 11
169.8413612742
 21
1089.2909350494
 31
0.0
  0
LINE
  5
C3
330
1F
100
AcDbEntity
  8
0
  6
Continuous
 62
     7
370
    15
100
AcDbLine
 10
169.8413612742
 20
1089.2900409798
 30
0.0
 11
169.3723323245
 21
1088.6925044159
 31
0.0
  0
LINE
  5
C4
330
1F
100
AcDbEntity
  8
0
  6
Continuous
 62
     7
370
    15
100
AcDbLine
 10
169.3723323245
 20
1088.6925044159
 30
0.0
 11
169.8413612742
 21
1088.9483871559
 31
0.0
  0
LINE
  5
C5
330
1F
100
AcDbEntity
  8
0
  6
Continuous
 62
     7
370
    15
100
AcDbLine
 10
169.8413612742
 20
1088.947195063
 30
0.0
 11
169.3723323245
 21
1088.3221807579
 31
0.0
  0
LINE
  5
C6
330
1F
100
AcDbEntity
  8
0
  6
Continuous
 62
     7
370
    15
100
AcDbLine
 10
169.3723323245
 20
1088.3221807579
 30
0.0
 11
169.8413612742
 21
1088.5138096908
 31
0.0
  0
LINE
  5
C7
330
1F
100
AcDbEntity
  8
0
  6
Continuous
 62
     7
370
    15
100
AcDbLine
 10
169.8413612742
 20
1088.5123195747
 30
0.0
 11
169.3723323245
 21
1087.8660860161
 31
0.0
  0
LINE
  5
C8
330
1F
100
AcDbEntity
  8
0
  6
Continuous
 62
     7
370
    15
100
AcDbLine
 10
169.3723323245
 20
1087.8660860161
 30
0.0
 11
169.8413612742
 21
1087.9915537933
 31
0.0
  0
LINE
  5
C9
330
1F
100
AcDbEntity
  8
0
  6
Continuous
 62
     7
370
    15
100
AcDbLine
 10
169.8413612742
 20
1087.9898252586
 30
0.0
 11
169.3723323245
 21
1087.3287501434
 31
0.0
  0
LINE
  5
CA
330
1F
100
AcDbEntity
  8
0
  6
Continuous
 62
     7
370
    15
100
AcDbLine
 10
169.3723323245
 20
1087.3287501434
 30
0.0
 11
169.8413612742
 21
1087.3868050674
 31
0.0
  0
LINE
  5
CB
330
1F
100
AcDbEntity
  8
0
  6
Continuous
 62
     7
370
    15
100
AcDbLine
 10
169.8413612742
 20
1087.3848381142
 30
0.0
 11
169.3723323245
 21
1086.7155971626
 31
0.0
  0
LINE
  5
CC
330
1F
100
AcDbEntity
  8
0
  6
Continuous
 62
     7
370
    15
100
AcDbLine
 10
169.3723323245
 20
1086.7155971626
 30
0.0
 11
169.8413612742
 21
1086.7057027916
 31
0.0
  0
LINE
  5
CD
330
1F
100
AcDbEntity
  8
0
  6
Continuous
 62
     7
370
    15
100
AcDbLine
 10
169.8413612742
 20
1086.7034974197
 30
0.0
 11
169.3723323245
 21
1086.0327663521
 31
0.0
  0
LINE
  5
CE
330
1F
100
AcDbEntity
  8
0
  6
Continuous
 62
     7
370
    15
100
AcDbLine
 10
169.3723323245
 20
1086.0327663521
 30
0.0
 11
169.8413612742
 21
1085.954922686
 31
0.0
  0
LINE
  5
CF
330
1F
100
AcDbEntity
  8
0
  6
Continuous
 62
     7
370
    15
100
AcDbLine
 10
169.8413612742
 20
1085.9525385002
 30
0.0
 11
169.3723323245
 21
1085.2869930366
 31
0.0
  0
LINE
  5
D0
330
1F
100
AcDbEntity
  8
0
  6
Continuous
 62
     7
370
    15
100
AcDbLine
 10
169.3723323245
 20
1085.2869930366
 30
0.0
 11
169.8413612742
 21
1085.1420941452
 31
0.0
  0
LINE
  5
D1
330
1F
100
AcDbEntity
  8
0
  6
Continuous
 62
     7
370
    15
100
AcDbLine
 10
169.8413612742
 20
1085.1394715408
 30
0.0
 11
169.3723323245
 21
1084.4858470062
 31
0.0
  0
LINE
  5
D2
330
1F
100
AcDbEntity
  8
0
  6
Continuous
 62
     7
370
    15
100
AcDbLine
 10
169.3723323245
 20
1084.4858470062
 30
0.0
 11
169.8413612742
 21
1084.2752041916
 31
0.0
  0
LINE
  5
D3
330
1F
100
AcDbEntity
  8
0
  6
Continuous
 62
     7
370
    15
100
AcDbLine
 10
169.8413612742
 20
1084.2725219826
 30
0.0
 11
169.3723323245
 21
1083.6371960739
 31
0.0
  0
LINE
  5
D4
330
1F
100
AcDbEntity
  8
0
  6
Continuous
 62
     7
370
    15
100
AcDbLine
 10
169.3723323245
 20
1083.6371960739
 30
0.0
 11
169.8413612742
 21
1083.3630743126
 31
0.0
  0
LINE
  5
D5
330
1F
100
AcDbEntity
  8
0
  6
Continuous
 62
     7
370
    15
100
AcDbLine
 10
169.8413612742
 20
1083.3602132896
 30
0.0
 11
169.3723323245
 21
1082.7496233086
 31
0.0
  0
LINE
  5
D6
330
1F
100
AcDbEntity
  8
0
  6
Continuous
 62
     7
370
    15
100
AcDbLine
 10
169.3723323245
 20
1082.7496233086
 30
0.0
 11
169.8413612742
 21
1082.4146452049
 31
0.0
  0
LINE
  5
D7
330
1F
100
AcDbEntity
  8
0
  6
Continuous
 62
     7
370
    15
100
AcDbLine
 10
169.8413612742
 20
1082.4117245773
 30
0.0
 11
169.3723323245
 21
1081.8319501976
 31
0.0
  0
LINE
  5
D8
330
1F
100
AcDbEntity
  8
0
  6
Continuous
 62
     7
370
    15
100
AcDbLine
 10
169.3723323245
 20
1081.8319501976
 30
0.0
 11
169.8413612742
 21
1081.4395132164
 31
0.0
  0
LINE
  5
D9
330
1F
100
AcDbEntity
  8
0
  6
Continuous
 62
     7
370
    15
100
AcDbLine
 10
169.8413612742
 20
1081.4364733795
 30
0.0
 11
169.3723323245
 21
1080.8933558563
 31
0.0
  0
LINE
  5
DA
330
1F
100
AcDbEntity
  8
0
  6
Continuous
 62
     7
370
    15
100
AcDbLine
 10
169.3723323245
 20
1080.8933558563
 30
0.0
 11
169.8413612742
 21
1080.4473939041
 31
0.0
  0
LINE
  5
DB
330
1F
100
AcDbEntity
  8
0
  6
Continuous
 62
     7
370
    15
100
AcDbLine
 10
169.8413612742
 20
1080.4443540672
 30
0.0
 11
169.3723323245
 21
1079.9432578186
 31
0.0
  0
LWPOLYLINE
  5
DC
330
1F
100
AcDbEntity
  8
0
  6
Continuous
 62
     7
370
    15
100
AcDbPolyline
 90
        3
 70
   128
 43
0.0
 10
169.3723323245
 20
1079.9432578186
 10
169.5631863971
 20
1079.7385754684
 10
169.8413612742
 20
1079.4481816391
  0
LINE
  5
DD
330
1F
100
AcDbEntity
  8
0
  6
Continuous
 62
     7
370
    15
100
AcDbLine
 10
169.8413612742
 20
1079.4451418022
 30
0.0
 11
169.3723323245
 21
1078.991133223
 31
0.0
  0
LINE
  5
DE
330
1F
100
AcDbEntity
  8
0
  6
Continuous
 62
     7
370
    15
100
AcDbLine
 10
169.3723323245
 20
1078.991133223
 30
0.0
 11
169.8413612742
 21
1078.4518900017
 31
0.0
  0
LINE
  5
DF
330
1F
100
AcDbEntity
  8
0
  6
Continuous
 62
     7
370
    15
100
AcDbLine
 10
169.8413612742
 20
1078.4488501648
 30
0.0
 11
169.3723323245
 21
1078.0463996033
 31
0.0
  0
LINE
  5
E0
330
1F
100
AcDbEntity
  8
0
  6
Continuous
 62
     7
370
    15
100
AcDbLine
 10
169.3723323245
 20
1078.0463996033
 30
0.0
 11
169.8413612742
 21
1077.4684133629
 31
0.0
  0
LINE
  5
E1
330
1F
100
AcDbEntity
  8
0
  6
Continuous
 62
     7
370
    15
100
AcDbLine
 10
169.8413612742
 20
1077.4654331306
 30
0.0
 11
169.3723323245
 21
1077.1186533073
 31
0.0
  0
LINE
  5
E2
330
1F
100
AcDbEntity
  8
0
  6
Continuous
 62
     7
370
    15
100
AcDbLine
 10
169.3723323245
 20
1077.1186533073
 30
0.0
 11
169.8413612742
 21
1076.5076460937
 31
0.0
  0
LINE
  5
E3
330
1F
100
AcDbEntity
  8
0
  6
Continuous
 62
     7
370
    15
100
AcDbLine
 10
169.8413612742
 20
1076.5047850708
 30
0.0
 11
169.3723323245
 21
1076.2170138458
 31
0.0
  0
LINE
  5
E4
330
1F
100
AcDbEntity
  8
0
  6
Continuous
 62
     7
370
    15
100
AcDbLine
 10
169.3723323245
 20
1076.2170138458
 30
0.0
 11
169.8413612742
 21
1075.5791845421
 31
0.0
  0
LINE
  5
E5
330
1F
100
AcDbEntity
  8
0
  6
Continuous
 62
     7
370
    15
100
AcDbLine
 10
169.8413612742
 20
1075.5763831238
 30
0.0
 11
169.3723323245
 21
1075.3506007294
 31
0.0
  0
LINE
  5
E6
330
1F
100
AcDbEntity
  8
0
  6
Continuous
 62
     7
370
    15
100
AcDbLine
 10
169.3723323245
 20
1075.3506007294
 30
0.0
 11
169.8413612742
 21
1074.6922674278
 31
0.0
  0
LINE
  5
E7
330
1F
100
AcDbEntity
  8
0
  6
Continuous
 62
     7
370
    15
100
AcDbLine
 10
169.8413612742
 20
1074.6895852188
 30
0.0
 11
169.3723323245
 21
1074.5279970268
 31
0.0
  0
LINE
  5
E8
330
1F
100
AcDbEntity
  8
0
  6
Continuous
 62
     7
370
    15
100
AcDbLine
 10
169.3723323245
 20
1074.5279970268
 30
0.0
 11
169.8413612742
 21
1073.8557162384
 31
0.0
  0
LINE
  5
E9
330
1F
100
AcDbEntity
  8
0
  6
Continuous
 62
     7
370
    15
100
AcDbLine
 10
169.8413612742
 20
1073.853272448
 30
0.0
 11
169.3723323245
 21
1073.7574877838
 31
0.0
  0
LINE
  5
EA
330
1F
100
AcDbEntity
  8
0
  6
Continuous
 62
     7
370
    15
100
AcDbLine
 10
169.3723323245
 20
1073.7574877838
 30
0.0
 11
169.8413612742
 21
1073.0779948334
 31
0.0
  0
LINE
  5
EB
330
1F
100
AcDbEntity
  8
0
  6
Continuous
 62
     7
370
    15
100
AcDbLine
 10
169.8413612742
 20
1073.0757298569
 30
0.0
 11
169.3723323245
 21
1073.0467619995
 31
0.0
  0
LINE
  5
EC
330
1F
100
AcDbEntity
  8
0
  6
Continuous
 62
     7
370
    15
100
AcDbLine
 10
169.3723323245
 20
1073.0467619995
 30
0.0
 11
169.8413612742
 21
1072.3668518165
 31
0.0
  0
LINE
  5
ED
330
1F
100
AcDbEntity
  8
0
  6
Continuous
 62
     7
370
    15
100
AcDbLine
 10
169.8413612742
 20
1072.364765654
 30
0.0
 11
169.3723323245
 21
1072.402853022
 31
0.0
  0
LINE
  5
EE
330
1F
100
AcDbEntity
  8
0
  6
Continuous
 62
     7
370
    15
100
AcDbLine
 10
169.3723323245
 20
1072.402853022
 30
0.0
 11
169.8413612742
 21
1071.729320536
 31
0.0
  0
LINE
  5
EF
330
1F
100
AcDbEntity
  8
0
  6
Continuous
 62
     7
370
    15
100
AcDbLine
 10
169.8413612742
 20
1071.727472792
 30
0.0
 11
169.3723323245
 21
1071.8322577576
 31
0.0
  0
LINE
  5
F0
330
1F
100
AcDbEntity
  8
0
  6
Continuous
 62
     7
370
    15
100
AcDbLine
 10
169.3723323245
 20
1071.8322577576
 30
0.0
 11
169.8413612742
 21
1071.1718382934
 31
0.0
  0
LINE
  5
F1
330
1F
100
AcDbEntity
  8
0
  6
Continuous
 62
     7
370
    15
100
AcDbLine
 10
169.8413612742
 20
1071.170228968
 30
0.0
 11
169.3723323245
 21
1071.3406982521
 31
0.0
  0
LINE
  5
F2
330
1F
100
AcDbEntity
  8
0
  6
Continuous
 62
     7
370
    15
100
AcDbLine
 10
169.3723323245
 20
1071.3406982521
 30
0.0
 11
169.8413612742
 21
1070.6999483208
 31
0.0
  0
LINE
  5
F3
330
1F
100
AcDbEntity
  8
0
  6
Continuous
 62
     7
370
    15
100
AcDbLine
 10
169.8413612742
 20
1070.6986370186
 30
0.0
 11
169.3723323245
 21
1070.9330024818
 31
0.0
  0
LINE
  5
F4
330
1F
100
AcDbEntity
  8
0
  6
Continuous
 62
     7
370
    15
100
AcDbLine
 10
169.3723323245
 20
1070.9330024818
 30
0.0
 11
169.8413612742
 21
1070.3183593849
 31
0.0
  0
LINE
  5
F5
330
1F
100
AcDbEntity
  8
0
  6
Continuous
 62
     7
370
    15
100
AcDbLine
 10
169.8413612742
 20
1070.3173461059
 30
0.0
 11
169.3723323245
 21
1070.6132831673
 31
0.0
  0
LINE
  5
F6
330
1F
100
AcDbEntity
  8
0
  6
Continuous
 62
     7
370
    15
100
AcDbLine
 10
169.3723323245
 20
1070.6132831673
 30
0.0
 11
169.8413612742
 21
1070.0308861832
 31
0.0
  0
LINE
  5
F7
330
1F
100
AcDbEntity
  8
0
  6
Continuous
 62
     7
370
    15
100
AcDbLine
 10
169.8413612742
 20
1070.0301709274
 30
0.0
 11
169.3723323245
 21
1070.3847589592
 31
0.0
  0
LINE
  5
F8
330
1F
100
AcDbEntity
  8
0
  6
Continuous
 62
     7
370
    15
100
AcDbLine
 10
169.3723323245
 20
1070.3847589592
 30
0.0
 11
169.8413612742
 21
1069.8403897385
 31
0.0
  0
LINE
  5
F9
330
1F
100
AcDbEntity
  8
0
  6
Continuous
 62
     7
370
    15
100
AcDbLine
 10
169.8413612742
 20
1069.8399725059
 30
0.0
 11
169.3723323245
 21
1070.2496948341
 31
0.0
  0
LINE
  5
FA
330
1F
100
AcDbEntity
  8
0
  6
Continuous
 62
     7
370
    15
100
AcDbLine
 10
169.3723323245
 20
1070.2496948341
 30
0.0
 11
169.8413612742
 21
1069.7488370041
 31
0.0
  0
LINE
  5
FB
330
1F
100
AcDbEntity
  8
0
  6
Continuous
 62
     7
370
    15
100
AcDbLine
 10
169.8413612742
 20
1069.7487177948
 30
0.0
 11
169.4430830379
 21
1070.1399030784
 31
0.0
  0
LINE
  5
FC
330
1F
100
AcDbEntity
  8
0
  6
Continuous
 62
     7
370
    15
100
AcDbLine
 10
169.3403842349
 20
1070.2411117653
 30
0.0
 11
169.3403842349
 21
1089.2360987762
 31
0.0
  0
LINE
  5
FD
330
1F
100
AcDbEntity
  8
0
  6
Continuous
 62
     7
370
    15
100
AcDbLine
 10
173.3083846469
 20
1079.9432578186
 30
0.0
 11
169.3723323245
 21
1079.9432578186
 31
0.0
  0
LWPOLYLINE
  5
FE
330
1F
100
AcDbEntity
  8
0
  6
Continuous
 62
     7
370
    15
100
AcDbPolyline
 90
        3
 70
   128
 43
0.0
 10
172.8394153018
 20
1079.4481816391
 10
173.1175305743
 20
1079.7385754684
 10
173.3083846469
 20
1079.9432578186
  0
LINE
  5
FF
330
1F
100
AcDbEntity
  8
0
  6
Continuous
 62
     7
370
    15
100
AcDbLine
 10
169.8404075999
 20
1079.4465723137
 30
0.0
 11
172.8403689761
 21
1079.4465723137
 31
0.0
  0
LINE
  5
100
330
1F
100
AcDbEntity
  8
0
  6
Continuous
 62
     7
370
    15
100
AcDbLine
 10
172.8394153018
 20
1080.4473939041
 30
0.0
 11
173.3083846469
 21
1080.8933558563
 31
0.0
  0
LINE
  5
101
330
1F
100
AcDbEntity
  8
0
  6
Continuous
 62
     7
370
    15
100
AcDbLine
 10
173.3083846469
 20
1080.8933558563
 30
0.0
 11
172.8394153018
 21
1081.4364733795
 31
0.0
  0
LINE
  5
102
330
1F
100
AcDbEntity
  8
0
  6
Continuous
 62
     7
370
    15
100
AcDbLine
 10
172.8394153018
 20
1081.4395132164
 30
0.0
 11
173.3083846469
 21
1081.8319501976
 31
0.0
  0
LINE
  5
103
330
1F
100
AcDbEntity
  8
0
  6
Continuous
 62
     7
370
    15
100
AcDbLine
 10
173.3083846469
 20
1081.8319501976
 30
0.0
 11
172.8394153018
 21
1082.4117245773
 31
0.0
  0
LINE
  5
104
330
1F
100
AcDbEntity
  8
0
  6
Continuous
 62
     7
370
    15
100
AcDbLine
 10
172.8394153018
 20
1082.4146452049
 30
0.0
 11
173.3083846469
 21
1082.7496233086
 31
0.0
  0
LINE
  5
105
330
1F
100
AcDbEntity
  8
0
  6
Continuous
 62
     7
370
    15
100
AcDbLine
 10
173.3083846469
 20
1082.7496233086
 30
0.0
 11
172.8394153018
 21
1083.3602132896
 31
0.0
  0
LINE
  5
106
330
1F
100
AcDbEntity
  8
0
  6
Continuous
 62
     7
370
    15
100
AcDbLine
 10
172.8394153018
 20
1083.3630743126
 30
0.0
 11
173.3083846469
 21
1083.6371960739
 31
0.0
  0
LINE
  5
107
330
1F
100
AcDbEntity
  8
0
  6
Continuous
 62
     7
370
    15
100
AcDbLine
 10
173.3083846469
 20
1083.6371960739
 30
0.0
 11
172.8394153018
 21
1084.2725219826
 31
0.0
  0
LINE
  5
108
330
1F
100
AcDbEntity
  8
0
  6
Continuous
 62
     7
370
    15
100
AcDbLine
 10
172.8394153018
 20
1084.2752041916
 30
0.0
 11
173.3083846469
 21
1084.4858470062
 31
0.0
  0
LINE
  5
109
330
1F
100
AcDbEntity
  8
0
  6
Continuous
 62
     7
370
    15
100
AcDbLine
 10
173.3083846469
 20
1084.4858470062
 30
0.0
 11
172.8394153018
 21
1085.1394715408
 31
0.0
  0
LINE
  5
10A
330
1F
100
AcDbEntity
  8
0
  6
Continuous
 62
     7
370
    15
100
AcDbLine
 10
172.8394153018
 20
1085.1420941452
 30
0.0
 11
173.3083846469
 21
1085.2869930366
 31
0.0
  0
LINE
  5
10B
330
1F
100
AcDbEntity
  8
0
  6
Continuous
 62
     7
370
    15
100
AcDbLine
 10
173.3083846469
 20
1085.2869930366
 30
0.0
 11
172.8394153018
 21
1085.9525385002
 31
0.0
  0
LINE
  5
10C
330
1F
100
AcDbEntity
  8
0
  6
Continuous
 62
     7
370
    15
100
AcDbLine
 10
172.8394153018
 20
1085.954922686
 30
0.0
 11
173.3083846469
 21
1086.0327663521
 31
0.0
  0
LINE
  5
10D
330
1F
100
AcDbEntity
  8
0
  6
Continuous
 62
     7
370
    15
100
AcDbLine
 10
173.3083846469
 20
1086.0327663521
 30
0.0
 11
172.8394153018
 21
1086.7034974197
 31
0.0
  0
LINE
  5
10E
330
1F
100
AcDbEntity
  8
0
  6
Continuous
 62
     7
370
    15
100
AcDbLine
 10
172.8394153018
 20
1086.7057027916
 30
0.0
 11
173.3083846469
 21
1086.7155971626
 31
0.0
  0
LINE
  5
10F
330
1F
100
AcDbEntity
  8
0
  6
Continuous
 62
     7
370
    15
100
AcDbLine
 10
173.3083846469
 20
1086.7155971626
 30
0.0
 11
172.8394153018
 21
1087.3848381142
 31
0.0
  0
LINE
  5
110
330
1F
100
AcDbEntity
  8
0
  6
Continuous
 62
     7
370
    15
100
AcDbLine
 10
172.8394153018
 20
1087.3868050674
 30
0.0
 11
173.3083846469
 21
1087.3287501434
 31
0.0
  0
LINE
  5
111
330
1F
100
AcDbEntity
  8
0
  6
Continuous
 62
     7
370
    15
100
AcDbLine
 10
173.3083846469
 20
1087.3287501434
 30
0.0
 11
172.8394153018
 21
1087.9898252586
 31
0.0
  0
LINE
  5
112
330
1F
100
AcDbEntity
  8
0
  6
Continuous
 62
     7
370
    15
100
AcDbLine
 10
172.8394153018
 20
1087.9915537933
 30
0.0
 11
173.3083846469
 21
1087.8660860161
 31
0.0
  0
LINE
  5
113
330
1F
100
AcDbEntity
  8
0
  6
Continuous
 62
     7
370
    15
100
AcDbLine
 10
173.3083846469
 20
1087.8660860161
 30
0.0
 11
172.8394153018
 21
1088.5123195747
 31
0.0
  0
LINE
  5
114
330
1F
100
AcDbEntity
  8
0
  6
Continuous
 62
     7
370
    15
100
AcDbLine
 10
172.8394153018
 20
1088.5138096908
 30
0.0
 11
173.3083846469
 21
1088.3221807579
 31
0.0
  0
LINE
  5
115
330
1F
100
AcDbEntity
  8
0
  6
Continuous
 62
     7
370
    15
100
AcDbLine
 10
173.3083846469
 20
1088.3221807579
 30
0.0
 11
172.8394153018
 21
1088.947195063
 31
0.0
  0
LINE
  5
116
330
1F
100
AcDbEntity
  8
0
  6
Continuous
 62
     7
370
    15
100
AcDbLine
 10
172.8394153018
 20
1088.9483871559
 30
0.0
 11
173.3083846469
 21
1088.6925044159
 31
0.0
  0
LINE
  5
117
330
1F
100
AcDbEntity
  8
0
  6
Continuous
 62
     7
370
    15
100
AcDbLine
 10
173.3083846469
 20
1088.6925044159
 30
0.0
 11
172.8394153018
 21
1089.2900409798
 31
0.0
  0
LINE
  5
118
330
1F
100
AcDbEntity
  8
0
  6
Continuous
 62
     7
370
    15
100
AcDbLine
 10
172.8394153018
 20
1089.2909350494
 30
0.0
 11
173.3083846469
 21
1088.9734211067
 31
0.0
  0
LINE
  5
119
330
1F
100
AcDbEntity
  8
0
  6
Continuous
 62
     7
370
    15
100
AcDbLine
 10
173.3083846469
 20
1088.9734211067
 30
0.0
 11
172.8394153018
 21
1089.5374002556
 31
0.0
  0
LINE
  5
11A
330
1F
100
AcDbEntity
  8
0
  6
Continuous
 62
     7
370
    15
100
AcDbLine
 10
172.8394153018
 20
1089.5380559067
 30
0.0
 11
173.3083846469
 21
1089.1620102028
 31
0.0
  0
LINE
  5
11B
330
1F
100
AcDbEntity
  8
0
  6
Continuous
 62
     7
370
    15
100
AcDbLine
 10
173.3083846469
 20
1089.1620102028
 30
0.0
 11
172.8394153018
 21
1089.6869483093
 31
0.0
  0
LINE
  5
11C
330
1F
100
AcDbEntity
  8
0
  6
Continuous
 62
     7
370
    15
100
AcDbLine
 10
172.8394153018
 20
1089.6872463325
 30
0.0
 11
173.3083846469
 21
1089.2564835647
 31
0.0
  0
LINE
  5
11D
330
1F
100
AcDbEntity
  8
0
  6
Continuous
 62
     7
370
    15
100
AcDbLine
 10
173.3083846469
 20
1089.2564835647
 30
0.0
 11
172.8394153018
 21
1089.7370162109
 31
0.0
  0
LINE
  5
11E
330
1F
100
AcDbEntity
  8
0
  6
Continuous
 62
     7
370
    15
100
AcDbLine
 10
173.2376935382
 20
1070.1399030784
 30
0.0
 11
172.8394153018
 21
1069.7487177948
 31
0.0
  0
LINE
  5
11F
330
1F
100
AcDbEntity
  8
0
  6
Continuous
 62
     7
370
    15
100
AcDbLine
 10
172.8394153018
 20
1069.7488370041
 30
0.0
 11
173.3083846469
 21
1070.2496948341
 31
0.0
  0
LINE
  5
120
330
1F
100
AcDbEntity
  8
0
  6
Continuous
 62
     7
370
    15
100
AcDbLine
 10
173.3083846469
 20
1070.2496948341
 30
0.0
 11
172.8394153018
 21
1069.8399725059
 31
0.0
  0
LINE
  5
121
330
1F
100
AcDbEntity
  8
0
  6
Continuous
 62
     7
370
    15
100
AcDbLine
 10
172.8394153018
 20
1069.8403897385
 30
0.0
 11
173.3083846469
 21
1070.3847589592
 31
0.0
  0
LINE
  5
122
330
1F
100
AcDbEntity
  8
0
  6
Continuous
 62
     7
370
    15
100
AcDbLine
 10
173.3083846469
 20
1070.3847589592
 30
0.0
 11
172.8394153018
 21
1070.0301709274
 31
0.0
  0
LINE
  5
123
330
1F
100
AcDbEntity
  8
0
  6
Continuous
 62
     7
370
    15
100
AcDbLine
 10
172.8394153018
 20
1070.0308861832
 30
0.0
 11
173.3083846469
 21
1070.6132831673
 31
0.0
  0
LINE
  5
124
330
1F
100
AcDbEntity
  8
0
  6
Continuous
 62
     7
370
    15
100
AcDbLine
 10
173.3083846469
 20
1070.6132831673
 30
0.0
 11
172.8394153018
 21
1070.3173461059
 31
0.0
  0
LINE
  5
125
330
1F
100
AcDbEntity
  8
0
  6
Continuous
 62
     7
370
    15
100
AcDbLine
 10
172.8394153018
 20
1070.3183593849
 30
0.0
 11
173.3083846469
 21
1070.9330024818
 31
0.0
  0
LINE
  5
126
330
1F
100
AcDbEntity
  8
0
  6
Continuous
 62
     7
370
    15
100
AcDbLine
 10
173.3083846469
 20
1070.9330024818
 30
0.0
 11
172.8394153018
 21
1070.6986370186
 31
0.0
  0
LINE
  5
127
330
1F
100
AcDbEntity
  8
0
  6
Continuous
 62
     7
370
    15
100
AcDbLine
 10
172.8394153018
 20
1070.6999483208
 30
0.0
 11
173.3083846469
 21
1071.3406982521
 31
0.0
  0
LINE
  5
128
330
1F
100
AcDbEntity
  8
0
  6
Continuous
 62
     7
370
    15
100
AcDbLine
 10
173.3083846469
 20
1071.3406982521
 30
0.0
 11
172.8394153018
 21
1071.170228968
 31
0.0
  0
LINE
  5
129
330
1F
100
AcDbEntity
  8
0
  6
Continuous
 62
     7
370
    15
100
AcDbLine
 10
172.8394153018
 20
1071.1718382934
 30
0.0
 11
173.3083846469
 21
1071.8322577576
 31
0.0
  0
LINE
  5
12A
330
1F
100
AcDbEntity
  8
0
  6
Continuous
 62
     7
370
    15
100
AcDbLine
 10
173.3083846469
 20
1071.8322577576
 30
0.0
 11
172.8394153018
 21
1071.727472792
 31
0.0
  0
LINE
  5
12B
330
1F
100
AcDbEntity
  8
0
  6
Continuous
 62
     7
370
    15
100
AcDbLine
 10
172.8394153018
 20
1071.729320536
 30
0.0
 11
173.3083846469
 21
1072.402853022
 31
0.0
  0
LINE
  5
12C
330
1F
100
AcDbEntity
  8
0
  6
Continuous
 62
     7
370
    15
100
AcDbLine
 10
173.3083846469
 20
1072.402853022
 30
0.0
 11
172.8394153018
 21
1072.364765654
 31
0.0
  0
LINE
  5
12D
330
1F
100
AcDbEntity
  8
0
  6
Continuous
 62
     7
370
    15
100
AcDbLine
 10
172.8394153018
 20
1072.3668518165
 30
0.0
 11
173.3083846469
 21
1073.0467619995
 31
0.0
  0
LINE
  5
12E
330
1F
100
AcDbEntity
  8
0
  6
Continuous
 62
     7
370
    15
100
AcDbLine
 10
173.3083846469
 20
1073.0467619995
 30
0.0
 11
172.8394153018
 21
1073.0757298569
 31
0.0
  0
LINE
  5
12F
330
1F
100
AcDbEntity
  8
0
  6
Continuous
 62
     7
370
    15
100
AcDbLine
 10
172.8394153018
 20
1073.0779948334
 30
0.0
 11
173.3083846469
 21
1073.7574877838
 31
0.0
  0
LINE
  5
130
330
1F
100
AcDbEntity
  8
0
  6
Continuous
 62
     7
370
    15
100
AcDbLine
 10
173.3083846469
 20
1073.7574877838
 30
0.0
 11
172.8394153018
 21
1073.853272448
 31
0.0
  0
LINE
  5
131
330
1F
100
AcDbEntity
  8
0
  6
Continuous
 62
     7
370
    15
100
AcDbLine
 10
172.8394153018
 20
1073.8557162384
 30
0.0
 11
173.3083846469
 21
1074.5279970268
 31
0.0
  0
LINE
  5
132
330
1F
100
AcDbEntity
  8
0
  6
Continuous
 62
     7
370
    15
100
AcDbLine
 10
173.3083846469
 20
1074.5279970268
 30
0.0
 11
172.8394153018
 21
1074.6895852188
 31
0.0
  0
LINE
  5
133
330
1F
100
AcDbEntity
  8
0
  6
Continuous
 62
     7
370
    15
100
AcDbLine
 10
172.8394153018
 20
1074.6922674278
 30
0.0
 11
173.3083846469
 21
1075.3506007294
 31
0.0
  0
LINE
  5
134
330
1F
100
AcDbEntity
  8
0
  6
Continuous
 62
     7
370
    15
100
AcDbLine
 10
173.3083846469
 20
1075.3506007294
 30
0.0
 11
172.8394153018
 21
1075.5763831238
 31
0.0
  0
LINE
  5
135
330
1F
100
AcDbEntity
  8
0
  6
Continuous
 62
     7
370
    15
100
AcDbLine
 10
172.8394153018
 20
1075.5791845421
 30
0.0
 11
173.3083846469
 21
1076.2170138458
 31
0.0
  0
LINE
  5
136
330
1F
100
AcDbEntity
  8
0
  6
Continuous
 62
     7
370
    15
100
AcDbLine
 10
173.3083846469
 20
1076.2170138458
 30
0.0
 11
172.8394153018
 21
1076.5047850708
 31
0.0
  0
LINE
  5
137
330
1F
100
AcDbEntity
  8
0
  6
Continuous
 62
     7
370
    15
100
AcDbLine
 10
172.8394153018
 20
1076.5076460937
 30
0.0
 11
173.3083846469
 21
1077.1186533073
 31
0.0
  0
LINE
  5
138
330
1F
100
AcDbEntity
  8
0
  6
Continuous
 62
     7
370
    15
100
AcDbLine
 10
173.3083846469
 20
1077.1186533073
 30
0.0
 11
172.8394153018
 21
1077.4654331306
 31
0.0
  0
LINE
  5
139
330
1F
100
AcDbEntity
  8
0
  6
Continuous
 62
     7
370
    15
100
AcDbLine
 10
172.8394153018
 20
1077.4684133629
 30
0.0
 11
173.3083846469
 21
1078.0463996033
 31
0.0
  0
LINE
  5
13A
330
1F
100
AcDbEntity
  8
0
  6
Continuous
 62
     7
370
    15
100
AcDbLine
 10
173.3083846469
 20
1078.0463996033
 30
0.0
 11
172.8394153018
 21
1078.4488501648
 31
0.0
  0
LINE
  5
13B
330
1F
100
AcDbEntity
  8
0
  6
Continuous
 62
     7
370
    15
100
AcDbLine
 10
172.8394153018
 20
1078.4518900017
 30
0.0
 11
173.3083846469
 21
1078.991133223
 31
0.0
  0
LINE
  5
13C
330
1F
100
AcDbEntity
  8
0
  6
Continuous
 62
     7
370
    15
100
AcDbLine
 10
173.3083846469
 20
1078.991133223
 30
0.0
 11
172.8394153018
 21
1079.4451418022
 31
0.0
  0
LINE
  5
13D
330
1F
100
AcDbEntity
  8
0
  6
Continuous
 62
     7
370
    15
100
AcDbLine
 10
173.3083846469
 20
1079.9432578186
 30
0.0
 11
172.8394153018
 21
1080.4443540672
 31
0.0
  0
LINE
  5
13E
330
1F
100
AcDbEntity
  8
0
  6
Continuous
 62
     7
370
    15
100
AcDbLine
 10
173.3403923411
 20
1079.7385754684
 30
0.0
 11
173.3403923411
 21
1070.2411117653
 31
0.0
  0
LINE
  5
13F
330
1F
100
AcDbEntity
  8
0
  6
Continuous
 62
     7
370
    15
100
AcDbLine
 10
173.3403923411
 20
1089.2360987762
 30
0.0
 11
173.3403923411
 21
1079.7385754684
 31
0.0
  0
LINE
  5
140
330
1F
100
AcDbEntity
  8
0
  6
Continuous
 62
     7
370
    15
100
AcDbLine
 10
169.3723323245
 20
1078.991133223
 30
0.0
 11
173.3083846469
 21
1078.991133223
 31
0.0
  0
LINE
  5
141
330
1F
100
AcDbEntity
  8
0
  6
Continuous
 62
     7
370
    15
100
AcDbLine
 10
173.3083846469
 20
1080.8933558563
 30
0.0
 11
169.3723323245
 21
1080.8933558563
 31
0.0
  0
LINE
  5
142
330
1F
100
AcDbEntity
  8
0
  6
Continuous
 62
     7
370
    15
100
AcDbLine
 10
172.8403689761
 20
1080.4459633926
 30
0.0
 11
169.8404075999
 21
1080.4459633926
 31
0.0
  0
LINE
  5
143
330
1F
100
AcDbEntity
  8
0
  6
Continuous
 62
     7
370
    15
100
AcDbLine
 10
169.8404075999
 20
1078.450161467
 30
0.0
 11
172.8403689761
 21
1078.450161467
 31
0.0
  0
LINE
  5
144
330
1F
100
AcDbEntity
  8
0
  6
Continuous
 62
     7
370
    15
100
AcDbLine
 10
169.3723323245
 20
1078.0463996033
 30
0.0
 11
173.3083846469
 21
1078.0463996033
 31
0.0
  0
LINE
  5
145
330
1F
100
AcDbEntity
  8
0
  6
Continuous
 62
     7
370
    15
100
AcDbLine
 10
172.8403689761
 20
1081.4382615188
 30
0.0
 11
169.8404075999
 21
1081.4382615188
 31
0.0
  0
LINE
  5
146
330
1F
100
AcDbEntity
  8
0
  6
Continuous
 62
     7
370
    15
100
AcDbLine
 10
173.3083846469
 20
1081.8319501976
 30
0.0
 11
169.3723323245
 21
1081.8319501976
 31
0.0
  0
LINE
  5
147
330
1F
100
AcDbEntity
  8
0
  6
Continuous
 62
     7
370
    15
100
AcDbLine
 10
169.8404075999
 20
1077.4665656189
 30
0.0
 11
172.8403689761
 21
1077.4665656189
 31
0.0
  0
LINE
  5
148
330
1F
100
AcDbEntity
  8
0
  6
Continuous
 62
     7
370
    15
100
AcDbLine
 10
169.3723323245
 20
1077.1186533073
 30
0.0
 11
173.3083846469
 21
1077.1186533073
 31
0.0
  0
LINE
  5
149
330
1F
100
AcDbEntity
  8
0
  6
Continuous
 62
     7
370
    15
100
AcDbLine
 10
173.3083846469
 20
1082.7496233086
 30
0.0
 11
169.3723323245
 21
1082.7496233086
 31
0.0
  0
LINE
  5
14A
330
1F
100
AcDbEntity
  8
0
  6
Continuous
 62
     7
370
    15
100
AcDbLine
 10
172.8403689761
 20
1082.4135723213
 30
0.0
 11
169.8404075999
 21
1082.4135723213
 31
0.0
  0
LINE
  5
14B
330
1F
100
AcDbEntity
  8
0
  6
Continuous
 62
     7
370
    15
100
AcDbLine
 10
169.8404075999
 20
1076.5056791405
 30
0.0
 11
172.8403689761
 21
1076.5056791405
 31
0.0
  0
LINE
  5
14C
330
1F
100
AcDbEntity
  8
0
  6
Continuous
 62
     7
370
    15
100
AcDbLine
 10
169.3723323245
 20
1076.2170138458
 30
0.0
 11
173.3083846469
 21
1076.2170138458
 31
0.0
  0
LINE
  5
14D
330
1F
100
AcDbEntity
  8
0
  6
Continuous
 62
     7
370
    15
100
AcDbLine
 10
172.8403689761
 20
1083.3621802429
 30
0.0
 11
169.8404075999
 21
1083.3621802429
 31
0.0
  0
LINE
  5
14E
330
1F
100
AcDbEntity
  8
0
  6
Continuous
 62
     7
370
    15
100
AcDbLine
 10
173.3083846469
 20
1083.6371960739
 30
0.0
 11
169.3723323245
 21
1083.6371960739
 31
0.0
  0
LINE
  5
14F
330
1F
100
AcDbEntity
  8
0
  6
Continuous
 62
     7
370
    15
100
AcDbLine
 10
169.8404075999
 20
1075.5770983795
 30
0.0
 11
172.8403689761
 21
1075.5770983795
 31
0.0
  0
LINE
  5
150
330
1F
100
AcDbEntity
  8
0
  6
Continuous
 62
     7
370
    15
100
AcDbLine
 10
169.3723323245
 20
1075.3506007294
 30
0.0
 11
173.3083846469
 21
1075.3506007294
 31
0.0
  0
LINE
  5
151
330
1F
100
AcDbEntity
  8
0
  6
Continuous
 62
     7
370
    15
100
AcDbLine
 10
173.3083846469
 20
1084.4858470062
 30
0.0
 11
169.3723323245
 21
1084.4858470062
 31
0.0
  0
LINE
  5
152
330
1F
100
AcDbEntity
  8
0
  6
Continuous
 62
     7
370
    15
100
AcDbLine
 10
172.8403689761
 20
1084.2745485405
 30
0.0
 11
169.8404075999
 21
1084.2745485405
 31
0.0
  0
LINE
  5
153
330
1F
100
AcDbEntity
  8
0
  6
Continuous
 62
     7
370
    15
100
AcDbLine
 10
169.8404075999
 20
1074.6901216606
 30
0.0
 11
172.8403689761
 21
1074.6901216606
 31
0.0
  0
LINE
  5
154
330
1F
100
AcDbEntity
  8
0
  6
Continuous
 62
     7
370
    15
100
AcDbLine
 10
169.3723323245
 20
1074.5279970268
 30
0.0
 11
173.3083846469
 21
1074.5279970268
 31
0.0
  0
LINE
  5
155
330
1F
100
AcDbEntity
  8
0
  6
Continuous
 62
     7
370
    15
100
AcDbLine
 10
172.8403689761
 20
1085.141617308
 30
0.0
 11
169.8404075999
 21
1085.141617308
 31
0.0
  0
LINE
  5
156
330
1F
100
AcDbEntity
  8
0
  6
Continuous
 62
     7
370
    15
100
AcDbLine
 10
173.3083846469
 20
1085.2869930366
 30
0.0
 11
169.3723323245
 21
1085.2869930366
 31
0.0
  0
LINE
  5
157
330
1F
100
AcDbEntity
  8
0
  6
Continuous
 62
     7
370
    15
100
AcDbLine
 10
169.8404075999
 20
1073.8535704712
 30
0.0
 11
172.8403689761
 21
1073.8535704712
 31
0.0
  0
LINE
  5
158
330
1F
100
AcDbEntity
  8
0
  6
Continuous
 62
     7
370
    15
100
AcDbLine
 10
169.3723323245
 20
1073.7574877838
 30
0.0
 11
173.3083846469
 21
1073.7574877838
 31
0.0
  0
LINE
  5
159
330
1F
100
AcDbEntity
  8
0
  6
Continuous
 62
     7
370
    15
100
AcDbLine
 10
172.8403689761
 20
1085.9546842674
 30
0.0
 11
169.8404075999
 21
1085.9546842674
 31
0.0
  0
LINE
  5
15A
330
1F
100
AcDbEntity
  8
0
  6
Continuous
 62
     7
370
    15
100
AcDbLine
 10
173.3083846469
 20
1086.0327663521
 30
0.0
 11
169.3723323245
 21
1086.0327663521
 31
0.0
  0
LINE
  5
15B
330
1F
100
AcDbEntity
  8
0
  6
Continuous
 62
     7
370
    15
100
AcDbLine
 10
169.8404075999
 20
1073.0758490662
 30
0.0
 11
172.8403689761
 21
1073.0758490662
 31
0.0
  0
LINE
  5
15C
330
1F
100
AcDbEntity
  8
0
  6
Continuous
 62
     7
370
    15
100
AcDbLine
 10
169.3723323245
 20
1073.0467619995
 30
0.0
 11
173.3083846469
 21
1073.0467619995
 31
0.0
  0
LINE
  5
15D
330
1F
100
AcDbEntity
  8
0
  6
Continuous
 62
     7
370
    15
100
AcDbLine
 10
172.8403689761
 20
1086.7056431869
 30
0.0
 11
169.8404075999
 21
1086.7056431869
 31
0.0
  0
LINE
  5
15E
330
1F
100
AcDbEntity
  8
0
  6
Continuous
 62
     7
370
    15
100
AcDbLine
 10
173.3083846469
 20
1086.7155971626
 30
0.0
 11
169.3723323245
 21
1086.7155971626
 31
0.0
  0
LINE
  5
15F
330
1F
100
AcDbEntity
  8
0
  6
Continuous
 62
     7
370
    15
100
AcDbLine
 10
169.8404075999
 20
1072.3646464447
 30
0.0
 11
172.8403689761
 21
1072.3646464447
 31
0.0
  0
LINE
  5
160
330
1F
100
AcDbEntity
  8
0
  6
Continuous
 62
     7
370
    15
100
AcDbLine
 10
172.8403689761
 20
1087.3869838814
 30
0.0
 11
169.8404075999
 21
1087.3869838814
 31
0.0
  0
LINE
  5
161
330
1F
100
AcDbEntity
  8
0
  6
Continuous
 62
     7
370
    15
100
AcDbLine
 10
169.8404075999
 20
1071.7271747688
 30
0.0
 11
172.8403689761
 21
1071.7271747688
 31
0.0
  0
LINE
  5
162
330
1F
100
AcDbEntity
  8
0
  6
Continuous
 62
     7
370
    15
100
AcDbLine
 10
172.8403689761
 20
1087.9919710258
 30
0.0
 11
169.8404075999
 21
1087.9919710258
 31
0.0
  0
LINE
  5
163
330
1F
100
AcDbEntity
  8
0
  6
Continuous
 62
     7
370
    15
100
AcDbLine
 10
169.8404075999
 20
1071.1696925262
 30
0.0
 11
172.8403689761
 21
1071.1696925262
 31
0.0
  0
LINE
  5
164
330
1F
100
AcDbEntity
  8
0
  6
Continuous
 62
     7
370
    15
100
AcDbLine
 10
172.8403689761
 20
1088.5144057373
 30
0.0
 11
169.8404075999
 21
1088.5144057373
 31
0.0
  0
LINE
  5
165
330
1F
100
AcDbEntity
  8
0
  6
Continuous
 62
     7
370
    15
100
AcDbLine
 10
169.8404075999
 20
1070.6978621582
 30
0.0
 11
172.8403689761
 21
1070.6978621582
 31
0.0
  0
LINE
  5
166
330
1F
100
AcDbEntity
  8
0
  6
Continuous
 62
     7
370
    15
100
AcDbLine
 10
172.8403689761
 20
1088.9492216209
 30
0.0
 11
169.8404075999
 21
1088.9492216209
 31
0.0
  0
LINE
  5
167
330
1F
100
AcDbEntity
  8
0
  6
Continuous
 62
     7
370
    15
100
AcDbLine
 10
169.8404075999
 20
1070.3163924316
 30
0.0
 11
172.8403689761
 21
1070.3163924316
 31
0.0
  0
LINE
  5
168
330
1F
100
AcDbEntity
  8
0
  6
Continuous
 62
     7
370
    15
100
AcDbLine
 10
172.8403689761
 20
1089.2919483284
 30
0.0
 11
169.8404075999
 21
1089.2919483284
 31
0.0
  0
LINE
  5
169
330
1F
100
AcDbEntity
  8
0
  6
Continuous
 62
     7
370
    15
100
AcDbLine
 10
169.8404075999
 20
1070.0289788345
 30
0.0
 11
172.8403689761
 21
1070.0289788345
 31
0.0
  0
LINE
  5
16A
330
1F
100
AcDbEntity
  8
0
  6
Continuous
 62
     7
370
    15
100
AcDbLine
 10
172.8403689761
 20
1089.5392479996
 30
0.0
 11
169.8404075999
 21
1089.5392479996
 31
0.0
  0
LINE
  5
16B
330
1F
100
AcDbEntity
  8
0
  6
Continuous
 62
     7
370
    15
100
AcDbLine
 10
169.8404075999
 20
1069.8386612038
 30
0.0
 11
172.8403689761
 21
1069.8386612038
 31
0.0
  0
LINE
  5
16C
330
1F
100
AcDbEntity
  8
0
  6
Continuous
 62
     7
370
    15
100
AcDbLine
 10
172.8403689761
 20
1089.6886172394
 30
0.0
 11
169.8404075999
 21
1089.6886172394
 31
0.0
  0
LINE
  5
16D
330
1F
100
AcDbEntity
  8
0
  6
Continuous
 62
     7
370
    15
100
AcDbLine
 10
169.8404075999
 20
1069.7472276787
 30
0.0
 11
172.8403689761
 21
1069.7472276787
 31
0.0
  0
LINE
  5
16E
330
1F
100
AcDbEntity
  8
0
  6
Continuous
 62
     7
370
    15
100
AcDbLine
 10
172.8403689761
 20
1089.7385659317
 30
0.0
 11
169.8404075999
 21
1089.7385659317
 31
0.0
  0
LWPOLYLINE
  5
16F
330
1F
100
AcDbEntity
  8
0
  6
Continuous
 62
     7
370
    15
100
AcDbPolyline
 90
       31
 70
   128
 43
0.0
 10
858.4738793273
 20
811.9445624451
 10
858.4188605149
 20
812.1138396362
 10
858.2544112999
 20
812.6200022797
 10
857.982334723
 20
813.4573283295
 10
857.6056110163
 20
814.6168174843
 10
857.1283640761
 20
816.0855951408
 10
856.5558242102
 20
817.8476872543
 10
855.8942685325
 20
819.8837819198
 10
855.1509390075
 20
822.1715273956
 10
854.3339828451
 20
824.6858301262
 10
853.4523519177
 20
827.3992123703
 10
852.515702178
 20
830.2819314102
 10
851.5343005259
 20
833.3023967842
 10
850.518894424
 20
836.4274683098
 10
849.4806113143
 20
839.6229925255
 10
848.4308245082
 20
842.8538622955
 10
847.3810414274
 20
846.0847916702
 10
846.3427583177
 20
849.2803158859
 10
845.3273522158
 20
852.4053874115
 10
844.3459468384
 20
855.4258527855
 10
843.4093008239
 20
858.3085718254
 10
842.5276661713
 20
861.0219540695
 10
841.7107118715
 20
863.5362568001
 10
840.9673823465
 20
865.8240022758
 10
840.3058248062
 20
867.8600373367
 10
839.7332868029
 20
869.6221294502
 10
839.2560398628
 20
871.0909667114
 10
838.8793142934
 20
872.2503962616
 10
838.6072377164
 20
873.087781916
 10
838.4427903641
 20
873.5938849548
 10
838.3877734144
 20
873.7632217506
  0
LWPOLYLINE
  5
170
330
1F
100
AcDbEntity
  8
0
  6
Continuous
 62
     7
370
    15
100
AcDbPolyline
 90
        6
 70
   128
 43
0.0
 10
850.6177561779
 20
868.4838595489
 10
850.0937270422
 20
870.0967016319
 10
849.6784205039
 20
871.3748636345
 10
849.3775921364
 20
872.3007025818
 10
849.1954142649
 20
872.8614034752
 10
849.1344051857
 20
873.0491581062
  0
LWPOLYLINE
  5
171
330
1F
100
AcDbEntity
  8
0
  6
Continuous
 62
     7
370
    15
100
AcDbPolyline
 90
        6
 70
   128
 43
0.0
 10
866.748374929
 20
818.8389124969
 10
866.6873658497
 20
819.0267267326
 10
866.5051879783
 20
819.5873680214
 10
866.2043596108
 20
820.5132665733
 10
865.7890567977
 20
821.7914285759
 10
865.2650239368
 20
823.4042110542
  0
LINE
  5
172
330
1F
100
AcDbEntity
  8
0
  6
Continuous
 62
     7
370
    15
100
AcDbLine
 10
844.2440936763
 20
870.2770056824
 30
0.0
 11
843.1895198722
 21
870.2898802856
 31
0.0
  0
LWPOLYLINE
  5
173
330
1F
100
AcDbEntity
  8
0
  6
Continuous
 62
     7
370
    15
100
AcDbPolyline
 90
        3
 70
   128
 43
0.0
 10
842.4376035531
 20
870.2027978996
 10
842.3873419364
 20
870.4256000618
 10
842.3935966988
 20
870.4558196167
  0
LINE
  5
174
330
1F
100
AcDbEntity
  8
0
  6
Continuous
 62
     7
370
    15
100
AcDbLine
 10
842.8961607118
 20
868.9316692451
 30
0.0
 11
842.4376035531
 21
870.2027978996
 31
0.0
  0
LWPOLYLINE
  5
175
330
1F
100
AcDbEntity
  8
0
  6
Continuous
 62
     7
370
    15
100
AcDbPolyline
 90
        7
 70
   128
 43
0.0
 10
844.2704016764
 20
868.2768526176
 10
843.7722819347
 20
868.3080258469
 10
843.5256528158
 20
868.3531465629
 10
843.3015319009
 20
868.4324803451
 10
843.1349853475
 20
868.5460867981
 10
843.0235432882
 20
868.6731042961
 10
842.8961607118
 20
868.9316692451
  0
LINE
  5
176
330
1F
100
AcDbEntity
  8
0
  6
Continuous
 62
     7
370
    15
100
AcDbLine
 10
846.8398796816
 20
868.2481827835
 30
0.0
 11
844.2704016764
 21
868.2768526176
 31
0.0
  0
LWPOLYLINE
  5
177
330
1F
100
AcDbEntity
  8
0
  6
Continuous
 62
     7
370
    15
100
AcDbPolyline
 90
        6
 70
   128
 43
0.0
 10
847.8587354023
 20
868.6193409065
 10
847.8245744903
 20
868.4911909202
 10
847.7266179819
 20
868.3823528389
 10
847.547245254
 20
868.3077874283
 10
847.3247001369
 20
868.2683887581
 10
846.8398796816
 20
868.2481827835
  0
LINE
  5
178
330
1F
100
AcDbEntity
  8
0
  6
Continuous
 62
     7
370
    15
100
AcDbLine
 10
845.2986637552
 20
870.2640118698
 30
0.0
 11
845.3115048308
 21
870.7084241012
 31
0.0
  0
LINE
  5
179
330
1F
100
AcDbEntity
  8
0
  6
Continuous
 62
     7
370
    15
100
AcDbLine
 10
846.528963228
 20
870.2485742668
 30
0.0
 11
845.2986637552
 21
870.2640118698
 31
0.0
  0
LINE
  5
17A
330
1F
100
AcDbEntity
  8
0
  6
Continuous
 62
     7
370
    15
100
AcDbLine
 10
847.0524112184
 20
868.8113274673
 30
0.0
 11
846.528963228
 21
870.2485742668
 31
0.0
  0
LWPOLYLINE
  5
17B
330
1F
100
AcDbEntity
  8
0
  6
Continuous
 62
     7
370
    15
100
AcDbPolyline
 90
       10
 70
   128
 43
0.0
 10
840.8824345518
 20
873.5974612335
 10
840.8823451449
 20
873.5974612335
 10
841.0716979255
 20
873.5713543991
 10
841.6103749026
 20
873.5026302437
 10
842.4172858198
 20
873.4154286484
 10
843.3706025083
 20
873.3372869591
 10
844.3257185121
 20
873.2868018249
 10
845.1370718379
 20
873.2662978271
 10
845.679764678
 20
873.2643904785
 10
845.8712706764
 20
873.2659998039
  0
LWPOLYLINE
  5
17C
330
1F
100
AcDbEntity
  8
0
  6
Continuous
 62
     7
370
    15
100
AcDbPolyline
 90
       11
 70
   128
 43
0.0
 10
844.2400405605
 20
867.266673098
 10
844.1880355079
 20
867.4578251938
 10
844.0212095578
 20
867.6372947792
 10
843.9004691739
 20
867.7129330734
 10
843.7589602966
 20
867.7746238808
 10
843.438033988
 20
867.8509774307
 10
843.111892273
 20
867.8576531509
 10
842.8313257594
 20
867.7904191116
 10
842.6348166962
 20
867.6620903114
 10
842.5793098707
 20
867.5803723434
 10
842.5567457874
 20
867.489832888
  0
LWPOLYLINE
  5
17D
330
1F
100
AcDbEntity
  8
0
  6
Continuous
 62
     7
370
    15
100
AcDbPolyline
 90
       17
 70
   128
 43
0.0
 10
851.1846112509
 20
866.739291201
 10
851.8272983332
 20
864.7613110641
 10
852.5479967196
 20
862.5432434181
 10
853.3375049431
 20
860.1133408646
 10
854.1857498188
 20
857.502717028
 10
855.0819131036
 20
854.7446313003
 10
856.0145618815
 20
851.8742504219
 10
856.9717901249
 20
848.9281716446
 10
857.9413900573
 20
845.9440651039
 10
858.9109899898
 20
842.9598989586
 10
859.8682219584
 20
840.0138797859
 10
860.8008670111
 20
837.1434989075
 10
861.6970302959
 20
834.3853535751
 10
862.5452788968
 20
831.7747297386
 10
863.3347871203
 20
829.3448867897
 10
864.0554817815
 20
827.1268191437
 10
864.6981688638
 20
825.1488390068
  0
LWPOLYLINE
  5
17E
330
1F
100
AcDbEntity
  8
0
  6
Continuous
 62
     7
370
    15
100
AcDbPolyline
 90
       21
 70
   128
 43
0.0
 10
844.2413108845
 20
867.2747793297
 10
844.1892834802
 20
867.4659910301
 10
844.0224426289
 20
867.6455202202
 10
843.901676168
 20
867.7211585144
 10
843.7601821919
 20
867.7829089264
 10
843.4392447073
 20
867.8592624763
 10
843.1131029923
 20
867.8659381966
 10
842.8325439293
 20
867.7987041572
 10
842.636046042
 20
867.6703157524
 10
842.5805429418
 20
867.5885977844
 10
842.5579937596
 20
867.4979987244
 10
842.6088476975
 20
867.3054757217
 10
842.7771116097
 20
867.123204718
 10
843.0435145695
 20
866.9809284309
 10
843.3634536762
 20
866.8993296722
 10
843.5273627241
 20
866.8871703247
 10
843.6868908305
 20
866.8959918121
 10
843.9680049617
 20
866.9695439438
 10
844.1646257837
 20
867.1021642784
 10
844.21924599
 20
867.1846571068
 10
844.2413108845
 20
867.2747793297
  0
LWPOLYLINE
  5
17F
330
1F
100
AcDbEntity
  8
0
  6
Continuous
 62
     7
370
    15
100
AcDbPolyline
 90
       17
 70
   128
 43
0.0
 10
843.7908711333
 20
867.3356952766
 10
843.7689068217
 20
867.4251022438
 10
843.6906384726
 20
867.5084295372
 10
843.567912509
 20
867.5731005768
 10
843.4195379217
 20
867.6096978287
 10
843.268104871
 20
867.6127376655
 10
843.1366542776
 20
867.5819220642
 10
843.0452542801
 20
867.5216617683
 10
843.0076698263
 20
867.44083787
 10
843.0296527643
 20
867.3515501121
 10
843.107787003
 20
867.2673287491
 10
843.2302708228
 20
867.201227198
 10
843.378477772
 20
867.1635570625
 10
843.5298996468
 20
867.1603384117
 10
843.6614731748
 20
867.1920480827
 10
843.7531413932
 20
867.2537388901
 10
843.7908711333
 20
867.3356952766
  0
LWPOLYLINE
  5
180
330
1F
100
AcDbEntity
  8
0
  6
Continuous
 62
     7
370
    15
100
AcDbPolyline
 90
       17
 70
   128
 43
0.0
 10
843.7896082599
 20
867.3275294403
 10
843.7676439483
 20
867.4169960121
 10
843.6893569727
 20
867.5002637009
 10
843.5666235585
 20
867.5649347404
 10
843.4182564218
 20
867.6014723877
 10
843.2668382723
 20
867.6045122246
 10
843.13540258
 20
867.5736966232
 10
843.0440025826
 20
867.5134363274
 10
843.0064144034
 20
867.4326720337
 10
843.0284159679
 20
867.3433842758
 10
843.1065762837
 20
867.2591629127
 10
843.2290824552
 20
867.1930613617
 10
843.3772894044
 20
867.1554508308
 10
843.5286889274
 20
867.15223218
 10
843.660243829
 20
867.1840014557
 10
843.7518971462
 20
867.245692263
 10
843.7896082599
 20
867.3275294403
  0
LWPOLYLINE
  5
181
330
1F
100
AcDbEntity
  8
0
  6
Continuous
 62
     7
370
    15
100
AcDbPolyline
 90
        7
 70
   128
 43
0.0
 10
844.2715714176
 20
868.2853164772
 10
843.7734516759
 20
868.3164301018
 10
843.5268188317
 20
868.3615508179
 10
843.3026867409
 20
868.4409442047
 10
843.1361290116
 20
868.5545506576
 10
843.0246757765
 20
868.6816277603
 10
842.8972708483
 20
868.940252314
  0
LINE
  5
182
330
1F
100
AcDbEntity
  8
0
  6
Continuous
 62
     7
370
    15
100
AcDbLine
 10
843.1904958982
 20
870.2989401916
 30
0.0
 11
843.713485678
 21
868.8559713463
 31
0.0
  0
LINE
  5
183
330
1F
100
AcDbEntity
  8
0
  6
Continuous
 62
     7
370
    15
100
AcDbLine
 10
843.713485678
 20
868.8559713463
 30
0.0
 11
847.0535288055
 21
868.8199105362
 31
0.0
  0
LINE
  5
184
330
1F
100
AcDbEntity
  8
0
  6
Continuous
 62
     7
370
    15
100
AcDbLine
 10
847.0535288055
 20
868.8199105362
 30
0.0
 11
846.5299318035
 21
870.2575745682
 31
0.0
  0
LINE
  5
185
330
1F
100
AcDbEntity
  8
0
  6
Continuous
 62
     7
370
    15
100
AcDbLine
 10
846.5299318035
 20
870.2575745682
 30
0.0
 11
845.2996360559
 21
870.2730717758
 31
0.0
  0
LINE
  5
186
330
1F
100
AcDbEntity
  8
0
  6
Continuous
 62
     7
370
    15
100
AcDbLine
 10
845.2996360559
 20
870.2730717758
 30
0.0
 11
845.3124324281
 21
870.7176032165
 31
0.0
  0
LINE
  5
187
330
1F
100
AcDbEntity
  8
0
  6
Continuous
 62
     7
370
    15
100
AcDbLine
 10
845.3124324281
 20
870.7176032165
 30
0.0
 11
845.9480787118
 21
870.7086625198
 31
0.0
  0
LWPOLYLINE
  5
188
330
1F
100
AcDbEntity
  8
0
  6
Continuous
 62
     7
370
    15
100
AcDbPolyline
 90
        7
 70
   128
 43
0.0
 10
845.9480787118
 20
870.7086625198
 10
846.4643294413
 20
870.6798138718
 10
846.7194335957
 20
870.6403555969
 10
846.948050936
 20
870.5731811623
 10
847.1150258977
 20
870.479423056
 10
847.2267808814
 20
870.3739824394
 10
847.3599711854
 20
870.1518359283
  0
LINE
  5
189
330
1F
100
AcDbEntity
  8
0
  6
Continuous
 62
     7
370
    15
100
AcDbLine
 10
847.3599711854
 20
870.1518359283
 30
0.0
 11
847.8194186885
 21
868.8868465523
 31
0.0
  0
LWPOLYLINE
  5
18A
330
1F
100
AcDbEntity
  8
0
  6
Continuous
 62
     7
370
    15
100
AcDbPolyline
 90
        7
 70
   128
 43
0.0
 10
847.8194186885
 20
868.8868465523
 10
847.8598716159
 20
868.6278643707
 10
847.8260832329
 20
868.5004892448
 10
847.7277765472
 20
868.3908166984
 10
847.5484112699
 20
868.3162512878
 10
847.3258736033
 20
868.276793013
 10
846.841053148
 20
868.2565870384
  0
LINE
  5
18B
330
1F
100
AcDbEntity
  8
0
  6
Continuous
 62
     7
370
    15
100
AcDbLine
 10
846.841053148
 20
868.2565870384
 30
0.0
 11
844.2715714176
 21
868.2853164772
 31
0.0
  0
LINE
  5
18C
330
1F
100
AcDbEntity
  8
0
  6
Continuous
 62
     7
370
    15
100
AcDbLine
 10
842.8972708483
 20
868.940252314
 30
0.0
 11
842.438590755
 21
870.2117385963
 31
0.0
  0
LWPOLYLINE
  5
18D
330
1F
100
AcDbEntity
  8
0
  6
Continuous
 62
     7
370
    15
100
AcDbPolyline
 90
        7
 70
   128
 43
0.0
 10
842.438590755
 20
870.211798201
 10
842.3883067865
 20
870.4346599678
 10
842.4099768002
 20
870.5394449333
 10
842.4951592882
 20
870.631116877
 10
842.6618474026
 20
870.6935825447
 10
842.885525008
 20
870.7281532387
 10
843.3793494899
 20
870.7441868881
  0
LINE
  5
18E
330
1F
100
AcDbEntity
  8
0
  6
Continuous
 62
     7
370
    15
100
AcDbLine
 10
843.3793494899
 20
870.7441868881
 30
0.0
 11
843.8790934582
 21
870.7372727493
 31
0.0
  0
LINE
  5
18F
330
1F
100
AcDbEntity
  8
0
  6
Continuous
 62
     7
370
    15
100
AcDbLine
 10
843.8790934582
 20
870.7372727493
 30
0.0
 11
844.2450697024
 21
870.2860059837
 31
0.0
  0
LINE
  5
190
330
1F
100
AcDbEntity
  8
0
  6
Continuous
 62
     7
370
    15
100
AcDbLine
 10
844.2450697024
 20
870.2860059837
 30
0.0
 11
843.1904996235
 21
870.2989401916
 31
0.0
  0
ARC
  5
191
330
1F
100
AcDbEntity
  8
0
  6
Continuous
 62
     7
370
    15
100
AcDbCircle
 10
850.2110917139
 20
867.3448767516
 30
0.0
 40
1.195724952038995
100
AcDbArc
 50
16.751412518
 51
69.0435849863
  0
ARC
  5
192
330
1F
100
AcDbEntity
  8
0
  6
Continuous
 62
     7
370
    15
100
AcDbCircle
 10
850.6505346071
 20
868.4936125518
 30
0.0
 40
0.0341986327781973
100
AcDbArc
 50
196.5700221831
 51
249.8464671999
  0
ARC
  5
193
330
1F
100
AcDbEntity
  8
0
  6
Continuous
 62
     7
370
    15
100
AcDbCircle
 10
864.2667628436
 20
824.0866374291
 30
0.0
 40
1.195521203977324
100
AcDbArc
 50
326.951934914
 51
19.2530542964
  0
ARC
  5
194
330
1F
100
AcDbEntity
  8
0
  6
Continuous
 62
     7
370
    15
100
AcDbCircle
 10
865.2970900459
 20
823.4156386418
 30
0.0
 40
0.0340415204458276
100
AcDbArc
 50
146.0109436627
 51
199.6148407196
  0
ARC
  5
195
330
1F
100
AcDbEntity
  8
0
  6
Continuous
 62
     7
370
    15
100
AcDbCircle
 10
853.0772065775
 20
902.1500000037
 30
0.0
 40
29.35799741642304
100
AcDbArc
 50
263.259652806
 51
263.7160808047
  0
LINE
  5
196
330
1F
100
AcDbEntity
  8
0
  6
Continuous
 62
     7
370
    15
100
AcDbLine
 10
849.8638170261
 20
872.9683938125
 30
0.0
 11
868.8416788776
 21
870.84789897
 31
0.0
  0
LINE
  5
197
330
1F
100
AcDbEntity
  8
0
  6
Continuous
 62
     7
370
    15
100
AcDbLine
 10
868.8416788776
 20
870.84789897
 30
0.0
 11
870.311533143
 21
870.6859531502
 31
0.0
  0
LINE
  5
198
330
1F
100
AcDbEntity
  8
0
  6
Continuous
 62
     7
370
    15
100
AcDbLine
 10
846.5299318035
 20
870.2575745682
 30
0.0
 11
846.528963228
 21
870.2485742668
 31
0.0
  0
LINE
  5
199
330
1F
100
AcDbEntity
  8
0
  6
Continuous
 62
     7
370
    15
100
AcDbLine
 10
844.2450697024
 20
870.2860059837
 30
0.0
 11
844.2440936763
 21
870.2770056824
 31
0.0
  0
LINE
  5
19A
330
1F
100
AcDbEntity
  8
0
  6
Continuous
 62
     7
370
    15
100
AcDbLine
 10
845.2996360559
 20
870.2730717758
 30
0.0
 11
845.2986637552
 21
870.2640118698
 31
0.0
  0
LINE
  5
19B
330
1F
100
AcDbEntity
  8
0
  6
Continuous
 62
     7
370
    15
100
AcDbLine
 10
845.3124324281
 20
870.7176032165
 30
0.0
 11
845.3115048308
 21
870.7084241012
 31
0.0
  0
LWPOLYLINE
  5
19C
330
1F
100
AcDbEntity
  8
0
  6
Continuous
 62
     7
370
    15
100
AcDbPolyline
 90
        9
 70
   128
 43
0.0
 10
872.1518489022
 20
866.9301452736
 10
873.3377689917
 20
863.2802548508
 10
874.5380239983
 20
859.5861973862
 10
875.7478716273
 20
855.862695227
 10
876.9625174303
 20
852.124411116
 10
878.1771706839
 20
848.3860674003
 10
879.3870183129
 20
844.6625652412
 10
880.5872770448
 20
840.9685673813
 10
881.773193409
 20
837.3186769585
  0
LWPOLYLINE
  5
19D
330
1F
100
AcDbEntity
  8
0
  6
Continuous
 62
     7
370
    15
100
AcDbPolyline
 90
        9
 70
   128
 43
0.0
 10
871.1549649437
 20
869.9982347587
 10
871.1973028679
 20
869.8679390053
 10
871.2639594872
 20
869.662779818
 10
871.3546516795
 20
869.3836512665
 10
871.4689994652
 20
869.0316858391
 10
871.6065222819
 20
868.6084332565
 10
871.7666352589
 20
868.1156816582
 10
871.9486678441
 20
867.5554576019
 10
872.1518489022
 20
866.9301452736
  0
ARC
  5
19E
330
1F
100
AcDbEntity
  8
0
  6
Continuous
 62
     7
370
    15
100
AcDbCircle
 10
870.2004504093
 20
869.6886588902
 30
0.0
 40
1.003461615937368
100
AcDbArc
 50
17.9693345674
 51
83.6443577745
  0
LWPOLYLINE
  5
19F
330
1F
100
AcDbEntity
  8
0
  6
Continuous
 62
     7
370
    15
100
AcDbPolyline
 90
        5
 70
   128
 43
0.0
 10
881.773193409
 20
837.3186769585
 10
882.209849586
 20
835.9747710327
 10
882.5289207001
 20
834.99278451
 10
882.7232765455
 20
834.3945922951
 10
882.7885436316
 20
834.1937246422
  0
LWPOLYLINE
  5
1A0
330
1F
100
AcDbEntity
  8
0
  6
Continuous
 62
     7
370
    15
100
AcDbPolyline
 90
        9
 70
   128
 43
0.0
 10
846.1424420078
 20
843.4246959785
 10
846.1428108115
 20
843.4248151878
 10
846.1443270047
 20
843.425292025
 10
846.1479330857
 20
843.4264245132
 10
846.1548248727
 20
843.4286894897
 10
846.1690703828
 20
843.433338652
 10
846.2257506747
 20
843.4517564873
 10
846.341722687
 20
843.4894266228
 10
848.0445528824
 20
844.0426769356
  0
LINE
  5
1A1
330
1F
100
AcDbEntity
  8
0
  6
Continuous
 62
     7
370
    15
100
AcDbLine
 10
848.8278845747
 20
841.6318478683
 30
0.0
 11
846.9149852593
 21
841.0470070938
 31
0.0
  0
LINE
  5
1A2
330
1F
100
AcDbEntity
  8
0
  6
Continuous
 62
     7
370
    15
100
AcDbLine
 10
849.7475581665
 20
838.8014021019
 30
0.0
 11
847.8443036277
 21
838.1868782143
 31
0.0
  0
LWPOLYLINE
  5
1A3
330
1F
100
AcDbEntity
  8
0
  6
Continuous
 62
     7
370
    15
100
AcDbPolyline
 90
       10
 70
   128
 43
0.0
 10
840.8830212851
 20
873.6074152092
 10
840.8830063839
 20
873.6074748138
 10
841.0725826819
 20
873.5813083748
 10
841.6117458094
 20
873.5125246147
 10
842.4192751248
 20
873.4252634148
 10
843.3731468816
 20
873.3471217255
 10
844.3285422821
 20
873.2966365913
 10
845.1396497388
 20
873.2761921982
 10
845.68184339
 20
873.2743444542
 10
845.8719337781
 20
873.2759537796
  0
ARC
  5
1A4
330
1F
100
AcDbEntity
  8
0
  6
Continuous
 62
     7
370
    15
100
AcDbCircle
 10
814.1403804202
 20
882.4762621072
 30
0.0
 40
1.000000000000114
100
AcDbArc
 50
90.0
 51
180.0
  0
LINE
  5
1A5
330
1F
100
AcDbEntity
  8
0
  6
Continuous
 62
     7
370
    15
100
AcDbLine
 10
813.1403804712
 20
763.7885990242
 30
0.0
 11
813.1403804712
 21
882.4762883285
 31
0.0
  0
ARC
  5
1A6
330
1F
100
AcDbEntity
  8
0
  6
Continuous
 62
     7
370
    15
100
AcDbCircle
 10
814.1403804202
 20
763.7885875801
 30
0.0
 40
1.0
100
AcDbArc
 50
180.0
 51
270.0
  0
LINE
  5
1A7
330
1F
100
AcDbEntity
  8
0
  6
Continuous
 62
     7
370
    15
100
AcDbLine
 10
813.1403804712
 20
883.4762754539
 30
0.0
 11
831.3795412381
 21
883.4762754539
 31
0.0
  0
LINE
  5
1A8
330
1F
100
AcDbEntity
  8
0
  6
Continuous
 62
     7
370
    15
100
AcDbLine
 10
813.1403804712
 20
884.2762889961
 30
0.0
 11
813.1403804712
 21
883.4762754539
 31
0.0
  0
LINE
  5
1A9
330
1F
100
AcDbEntity
  8
0
  6
Continuous
 62
     7
370
    15
100
AcDbLine
 10
813.1403804712
 20
884.2762889961
 30
0.0
 11
831.3795412381
 21
884.2762889961
 31
0.0
  0
LINE
  5
1AA
330
1F
100
AcDbEntity
  8
0
  6
Continuous
 62
     7
370
    15
100
AcDbLine
 10
813.1403804712
 20
762.7886118988
 30
0.0
 11
813.1403804712
 21
761.9885983566
 31
0.0
  0
LINE
  5
1AB
330
1F
100
AcDbEntity
  8
0
  6
Continuous
 62
     7
370
    15
100
AcDbLine
 10
813.1403804712
 20
762.7886118988
 30
0.0
 11
873.7844499249
 21
762.7886118988
 31
0.0
  0
LINE
  5
1AC
330
1F
100
AcDbEntity
  8
0
  6
Continuous
 62
     7
370
    15
100
AcDbLine
 10
813.1403804712
 20
761.9885983566
 30
0.0
 11
873.7844499249
 21
761.9885983566
 31
0.0
  0
LINE
  5
1AD
330
1F
100
AcDbEntity
  8
0
  6
Continuous
 62
     7
370
    15
100
AcDbLine
 10
856.8924786944
 20
807.7506008247
 30
0.0
 11
832.5683614661
 21
882.6125445465
 31
0.0
  0
LINE
  5
1AE
330
1F
100
AcDbEntity
  8
0
  6
Continuous
 62
     7
370
    15
100
AcDbLine
 10
857.6533245344
 20
807.9978408913
 30
0.0
 11
833.329207306
 21
882.8597250084
 31
0.0
  0
ARC
  5
1AF
330
1F
100
AcDbEntity
  8
0
  6
Continuous
 62
     7
370
    15
100
AcDbCircle
 10
831.3795412361
 20
882.2262621072
 30
0.0
 40
1.249999999999996
100
AcDbArc
 50
18.0
 51
90.0
  0
ARC
  5
1B0
330
1F
100
AcDbEntity
  8
0
  6
Continuous
 62
     7
370
    15
100
AcDbCircle
 10
831.3795412361
 20
882.2262621072
 30
0.0
 40
2.049999999999984
100
AcDbArc
 50
18.0
 51
90.0
  0
LINE
  5
1B1
330
1F
100
AcDbEntity
  8
0
  6
Continuous
 62
     7
370
    15
100
AcDbLine
 10
882.9204636116
 20
793.8599171738
 30
0.0
 11
863.4700710375
 21
800.939280043
 31
0.0
  0
LINE
  5
1B2
330
1F
100
AcDbEntity
  8
0
  6
Continuous
 62
     7
370
    15
100
AcDbLine
 10
883.1940787334
 20
794.6117105583
 30
0.0
 11
863.7436861594
 21
801.6910734276
 31
0.0
  0
ARC
  5
1B3
330
1F
100
AcDbEntity
  8
0
  6
Continuous
 62
     7
370
    15
100
AcDbCircle
 10
867.163889211
 20
811.0879825852
 30
0.0
 40
9.99999999999996
100
AcDbArc
 50
198.0
 51
250.0
  0
ARC
  5
1B4
330
1F
100
AcDbEntity
  8
0
  6
Continuous
 62
     7
370
    15
100
AcDbCircle
 10
867.163889211
 20
811.0879825852
 30
0.0
 40
10.79999999999996
100
AcDbArc
 50
198.0
 51
250.0
  0
ARC
  5
1B5
330
1F
100
AcDbEntity
  8
0
  6
Continuous
 62
     7
370
    15
100
AcDbCircle
 10
879.5002629902
 20
784.4630120633
 30
0.0
 40
10.00000000000013
100
AcDbArc
 50
320.0
 51
70.0
  0
ARC
  5
1B6
330
1F
100
AcDbEntity
  8
0
  6
Continuous
 62
     7
370
    15
100
AcDbCircle
 10
879.5002629902
 20
784.4630120633
 30
0.0
 40
10.80000000000006
100
AcDbArc
 50
320.0
 51
70.0
  0
LINE
  5
1B7
330
1F
100
AcDbEntity
  8
0
  6
Continuous
 62
     7
370
    15
100
AcDbLine
 10
874.7420059938
 20
763.2351102928
 30
0.0
 11
887.1607082386
 21
778.0351224045
 31
0.0
  0
LINE
  5
1B8
330
1F
100
AcDbEntity
  8
0
  6
Continuous
 62
     7
370
    15
100
AcDbLine
 10
875.3548385997
 20
762.7209010223
 30
0.0
 11
887.7735408444
 21
777.520913134
 31
0.0
  0
ARC
  5
1B9
330
1F
100
AcDbEntity
  8
0
  6
Continuous
 62
     7
370
    15
100
AcDbCircle
 10
873.784449721
 20
764.0385875801
 30
0.0
 40
1.25
100
AcDbArc
 50
270.0
 51
320.0
  0
ARC
  5
1BA
330
1F
100
AcDbEntity
  8
0
  6
Continuous
 62
     7
370
    15
100
AcDbCircle
 10
873.784449721
 20
764.0385875801
 30
0.0
 40
2.049999999999955
100
AcDbArc
 50
270.0
 51
320.0
  0
LINE
  5
1BB
330
1F
100
AcDbEntity
  8
0
  6
Continuous
 62
     7
370
    15
100
AcDbLine
 10
833.4353184749
 20
886.4043536285
 30
0.0
 11
833.6853189815
 21
886.5156355003
 31
0.0
  0
LINE
  5
1BC
330
1F
100
AcDbEntity
  8
0
  6
Continuous
 62
     7
370
    15
100
AcDbLine
 10
833.6132383395
 20
885.6078567604
 30
0.0
 11
833.9068917979
 21
885.7385697464
 31
0.0
  0
LWPOLYLINE
  5
1BD
330
1F
100
AcDbEntity
  8
0
  6
Continuous
 62
     7
370
    15
100
AcDbPolyline
 90
        3
 70
   128
 43
0.0
 10
832.0729481478
 20
884.5386090378
 10
832.0891978641
 20
884.1983261207
 10
832.0966596205
 20
884.146768103
  0
LINE
  5
1BE
330
1F
100
AcDbEntity
  8
0
  6
Continuous
 62
     7
370
    15
100
AcDbLine
 10
833.6132383395
 20
885.6078567604
 30
0.0
 11
833.4353184749
 21
885.5106415848
 31
0.0
  0
ARC
  5
1BF
330
1F
100
AcDbEntity
  8
0
  6
Continuous
 62
     7
370
    15
100
AcDbCircle
 10
834.1216599523
 20
884.4659128031
 30
0.0
 40
1.250000000000149
100
AcDbArc
 50
176.6669540513
 51
198.0
  0
LINE
  5
1C0
330
1F
100
AcDbEntity
  8
0
  6
Continuous
 62
     7
370
    15
100
AcDbLine
 10
832.9328401436
 20
884.079653273
 30
0.0
 11
833.329207306
 21
882.8597250084
 31
0.0
  0
LINE
  5
1C1
330
1F
100
AcDbEntity
  8
0
  6
Continuous
 62
     7
370
    15
100
AcDbLine
 10
105.1404001613
 20
939.6470966438
 30
0.0
 11
104.3403866191
 21
939.6470966438
 31
0.0
  0
LINE
  5
1C2
330
1F
100
AcDbEntity
  8
0
  6
Continuous
 62
     7
370
    15
100
AcDbLine
 10
104.3403866191
 20
944.6470918754
 30
0.0
 11
104.3403866191
 21
939.6470966438
 31
0.0
  0
LINE
  5
1C3
330
1F
100
AcDbEntity
  8
0
  6
Continuous
 62
     7
370
    15
100
AcDbLine
 10
104.3403866191
 20
1133.1470790008
 30
0.0
 11
104.3403866191
 21
944.6470918754
 31
0.0
  0
LINE
  5
1C4
330
1F
100
AcDbEntity
  8
0
  6
Continuous
 62
     7
370
    15
100
AcDbLine
 10
105.1404001613
 20
1127.1470966438
 30
0.0
 11
105.1404001613
 21
1127.0470800499
 31
0.0
  0
LINE
  5
1C5
330
1F
100
AcDbEntity
  8
0
  6
Continuous
 62
     7
370
    15
100
AcDbLine
 10
105.1404001613
 20
1138.1470742325
 30
0.0
 11
104.3403866191
 21
1138.1470742325
 31
0.0
  0
LINE
  5
1C6
330
1F
100
AcDbEntity
  8
0
  6
Continuous
 62
     7
370
    15
100
AcDbLine
 10
104.3403866191
 20
1138.1470742325
 30
0.0
 11
104.3403866191
 21
1133.1470790008
 31
0.0
  0
LINE
  5
1C7
330
1F
100
AcDbEntity
  8
0
  6
Continuous
 62
     7
370
    15
100
AcDbLine
 10
105.1404001613
 20
1138.1470742325
 30
0.0
 11
105.1404001613
 21
1137.5180664162
 31
0.0
  0
LINE
  5
1C8
330
1F
100
AcDbEntity
  8
0
  6
Continuous
 62
     7
370
    15
100
AcDbLine
 10
104.3403866191
 20
939.6470966438
 30
0.0
 11
104.3403866191
 21
937.6470627884
 31
0.0
  0
LINE
  5
1C9
330
1F
100
AcDbEntity
  8
0
  6
Continuous
 62
     7
370
    15
100
AcDbLine
 10
105.1404001613
 20
939.5386161903
 30
0.0
 11
105.1404001613
 21
938.3315029243
 31
0.0
  0
LINE
  5
1CA
330
1F
100
AcDbEntity
  8
0
  6
Continuous
 62
     7
370
    15
100
AcDbLine
 10
105.1404001613
 20
924.6470513443
 30
0.0
 11
104.3403866191
 21
924.6470513443
 31
0.0
  0
LINE
  5
1CB
330
1F
100
AcDbEntity
  8
0
  6
Continuous
 62
     7
370
    15
100
AcDbLine
 10
104.3403866191
 20
926.6470851997
 30
0.0
 11
104.3403866191
 21
924.6470513443
 31
0.0
  0
LINE
  5
1CC
330
1F
100
AcDbEntity
  8
0
  6
Continuous
 62
     7
370
    15
100
AcDbLine
 10
104.3403866191
 20
937.6470627884
 30
0.0
 11
104.3403866191
 21
926.6470851997
 31
0.0
  0
LINE
  5
1CD
330
1F
100
AcDbEntity
  8
0
  6
Continuous
 62
     7
370
    15
100
AcDbLine
 10
158.0403568645
 20
1105.5385651688
 30
0.0
 11
159.3403937717
 21
1105.5385651688
 31
0.0
  0
LINE
  5
1CE
330
1F
100
AcDbEntity
  8
0
  6
Continuous
 62
     7
370
    15
100
AcDbLine
 10
208.2444550891
 20
1005.4897251228
 30
0.0
 11
162.7668859859
 21
993.3040323357
 31
0.0
  0
LINE
  5
1CF
330
1F
100
AcDbEntity
  8
0
  6
Continuous
 62
     7
370
    15
100
AcDbLine
 10
207.9339148898
 20
1006.6488566498
 30
0.0
 11
162.4562861819
 21
994.4631638626
 31
0.0
  0
LINE
  5
1D0
330
1F
100
AcDbEntity
  8
0
  6
Continuous
 62
     7
370
    15
100
AcDbLine
 10
161.8403913875
 20
992.0966210464
 30
0.0
 11
161.8403913875
 21
946.0555496315
 31
0.0
  0
LINE
  5
1D1
330
1F
100
AcDbEntity
  8
0
  6
Continuous
 62
     7
370
    15
100
AcDbLine
 10
160.6403710742
 20
992.0966210464
 30
0.0
 11
160.6403710742
 21
946.0555496315
 31
0.0
  0
ARC
  5
1D2
330
1F
100
AcDbEntity
  8
0
  6
Continuous
 62
     7
370
    15
100
AcDbCircle
 10
163.0903804202
 20
992.0966253584
 30
0.0
 40
1.249999999999972
100
AcDbArc
 50
105.0
 51
180.0
  0
ARC
  5
1D3
330
1F
100
AcDbEntity
  8
0
  6
Continuous
 62
     7
370
    15
100
AcDbCircle
 10
163.0903804202
 20
992.0966253584
 30
0.0
 40
2.44999999999996
100
AcDbArc
 50
105.0
 51
180.0
  0
ARC
  5
1D4
330
1F
100
AcDbEntity
  8
0
  6
Continuous
 62
     7
370
    15
100
AcDbCircle
 10
163.0903804202
 20
1041.6975387006
 30
0.0
 40
1.249999999999972
100
AcDbArc
 50
180.0
 51
255.0
  0
ARC
  5
1D5
330
1F
100
AcDbEntity
  8
0
  6
Continuous
 62
     7
370
    15
100
AcDbCircle
 10
163.0903804202
 20
1041.6975387006
 30
0.0
 40
2.44999999999996
100
AcDbArc
 50
180.0
 51
255.0
  0
LINE
  5
1D6
330
1F
100
AcDbEntity
  8
0
  6
Continuous
 62
     7
370
    15
100
AcDbLine
 10
161.8403913875
 20
944.0555753807
 30
0.0
 11
160.6403710742
 21
944.0555753807
 31
0.0
  0
LINE
  5
1D7
330
1F
100
AcDbEntity
  8
0
  6
Continuous
 62
     7
370
    15
100
AcDbLine
 10
161.8403913875
 20
946.0555496315
 30
0.0
 11
161.8403913875
 21
944.0555753807
 31
0.0
  0
LINE
  5
1D8
330
1F
100
AcDbEntity
  8
0
  6
Continuous
 62
     7
370
    15
100
AcDbLine
 10
160.6403710742
 20
944.0555753807
 30
0.0
 11
160.6403710742
 21
946.0555496315
 31
0.0
  0
LINE
  5
1D9
330
1F
100
AcDbEntity
  8
0
  6
Continuous
 62
     7
370
    15
100
AcDbLine
 10
162.4562861819
 20
1039.3310370544
 30
0.0
 11
207.9339148898
 21
1027.1453442673
 31
0.0
  0
LINE
  5
1DA
330
1F
100
AcDbEntity
  8
0
  6
Continuous
 62
     7
370
    15
100
AcDbLine
 10
162.7668859859
 20
1040.4901089767
 30
0.0
 11
208.2444550891
 21
1028.3044161896
 31
0.0
  0
LINE
  5
1DB
330
1F
100
AcDbEntity
  8
0
  6
Continuous
 62
     7
370
    15
100
AcDbLine
 10
161.8403913875
 20
1099.7386159996
 30
0.0
 11
161.8403913875
 21
1041.6975202659
 31
0.0
  0
LINE
  5
1DC
330
1F
100
AcDbEntity
  8
0
  6
Continuous
 62
     7
370
    15
100
AcDbLine
 10
160.6403710742
 20
1099.7386159996
 30
0.0
 11
160.6403710742
 21
1041.6975202659
 31
0.0
  0
LINE
  5
1DD
330
1F
100
AcDbEntity
  8
0
  6
Continuous
 62
     7
370
    15
100
AcDbLine
 10
160.6403710742
 20
1104.7386112312
 30
0.0
 11
161.8403913875
 21
1104.7386112312
 31
0.0
  0
LINE
  5
1DE
330
1F
100
AcDbEntity
  8
0
  6
Continuous
 62
     7
370
    15
100
AcDbLine
 10
161.8403913875
 20
1104.7386112312
 30
0.0
 11
161.8403913875
 21
1099.7386159996
 31
0.0
  0
LINE
  5
1DF
330
1F
100
AcDbEntity
  8
0
  6
Continuous
 62
     7
370
    15
100
AcDbLine
 10
160.6403710742
 20
1099.7386159996
 30
0.0
 11
160.6403710742
 21
1104.7386112312
 31
0.0
  0
LINE
  5
1E0
330
1F
100
AcDbEntity
  8
0
  6
Continuous
 62
     7
370
    15
100
AcDbLine
 10
210.0603701968
 20
1025.937932978
 30
0.0
 11
210.0603701968
 21
1007.856267939
 31
0.0
  0
LINE
  5
1E1
330
1F
100
AcDbEntity
  8
0
  6
Continuous
 62
     7
370
    15
100
AcDbLine
 10
208.8603498836
 20
1025.937932978
 30
0.0
 11
208.8603498836
 21
1007.856267939
 31
0.0
  0
ARC
  5
1E2
330
1F
100
AcDbEntity
  8
0
  6
Continuous
 62
     7
370
    15
100
AcDbCircle
 10
207.6103635944
 20
1025.9379232946
 30
0.0
 40
1.250000000000031
100
AcDbArc
 50
0.0
 51
75.0
  0
ARC
  5
1E3
330
1F
100
AcDbEntity
  8
0
  6
Continuous
 62
     7
370
    15
100
AcDbCircle
 10
207.6103635944
 20
1025.9379232946
 30
0.0
 40
2.45000000000001
100
AcDbArc
 50
0.0
 51
75.0
  0
ARC
  5
1E4
330
1F
100
AcDbEntity
  8
0
  6
Continuous
 62
     7
370
    15
100
AcDbCircle
 10
207.6103635944
 20
1007.8562407645
 30
0.0
 40
2.44999999999996
100
AcDbArc
 50
285.0
 51
0.0
  0
ARC
  5
1E5
330
1F
100
AcDbEntity
  8
0
  6
Continuous
 62
     7
370
    15
100
AcDbCircle
 10
207.6103635944
 20
1007.8562407645
 30
0.0
 40
1.250000000000031
100
AcDbArc
 50
285.0
 51
0.0
  0
LINE
  5
1E6
330
1F
100
AcDbEntity
  8
0
  6
Continuous
 62
     7
370
    15
100
AcDbLine
 10
107.190382709
 20
1127.0470800499
 30
0.0
 11
107.5903894801
 21
1127.0470800499
 31
0.0
  0
LINE
  5
1E7
330
1F
100
AcDbEntity
  8
0
  6
Continuous
 62
     7
370
    15
100
AcDbLine
 10
107.5903894801
 20
1127.0470800499
 30
0.0
 11
107.5903894801
 21
1127.447086821
 31
0.0
  0
LINE
  5
1E8
330
1F
100
AcDbEntity
  8
0
  6
Continuous
 62
     7
370
    15
100
AcDbLine
 10
107.5903894801
 20
1127.447086821
 30
0.0
 11
106.0403706927
 21
1127.447086821
 31
0.0
  0
LINE
  5
1E9
330
1F
100
AcDbEntity
  8
0
  6
Continuous
 62
     7
370
    15
100
AcDbLine
 10
106.0403706927
 20
1127.447086821
 30
0.0
 11
106.0403706927
 21
1137.5180664162
 31
0.0
  0
ARC
  5
1EA
330
1F
100
AcDbEntity
  8
0
  6
Continuous
 62
     7
370
    15
100
AcDbCircle
 10
107.1903804202
 20
1137.5180427399
 30
0.0
 40
1.150000000000155
100
AcDbArc
 50
75.0
 51
180.0
  0
LINE
  5
1EB
330
1F
100
AcDbEntity
  8
0
  6
Continuous
 62
     7
370
    15
100
AcDbLine
 10
107.488048305
 20
1138.6288585762
 30
0.0
 11
140.7849910159
 21
1129.706937323
 31
0.0
  0
ARC
  5
1EC
330
1F
100
AcDbEntity
  8
0
  6
Continuous
 62
     7
370
    15
100
AcDbCircle
 10
134.3403804202
 20
1105.6554128806
 30
0.0
 40
24.90000000000013
100
AcDbArc
 50
0.0
 51
75.0
  0
LINE
  5
1ED
330
1F
100
AcDbEntity
  8
0
  6
Continuous
 62
     7
370
    15
100
AcDbLine
 10
159.2403771777
 20
1105.6553902725
 30
0.0
 11
158.0403568645
 21
1105.6553902725
 31
0.0
  0
LINE
  5
1EE
330
1F
100
AcDbEntity
  8
0
  6
Continuous
 62
     7
370
    15
100
AcDbLine
 10
158.0403568645
 20
1105.6553902725
 30
0.0
 11
158.0403568645
 21
1105.1554265121
 31
0.0
  0
LINE
  5
1EF
330
1F
100
AcDbEntity
  8
0
  6
Continuous
 62
     7
370
    15
100
AcDbLine
 10
158.0403568645
 20
1105.1554265121
 30
0.0
 11
158.0903651614
 21
1105.1554265121
 31
0.0
  0
LINE
  5
1F0
330
1F
100
AcDbEntity
  8
0
  6
Continuous
 62
     7
370
    15
100
AcDbLine
 10
107.190382709
 20
939.5386161903
 30
0.0
 11
158.0903651614
 21
939.5386161903
 31
0.0
  0
LINE
  5
1F1
330
1F
100
AcDbEntity
  8
0
  6
Continuous
 62
     7
370
    15
100
AcDbLine
 10
105.1404001613
 20
939.5386161903
 30
0.0
 11
105.1404001613
 21
1127.0470800499
 31
0.0
  0
LINE
  5
1F2
330
1F
100
AcDbEntity
  8
0
  6
Continuous
 62
     7
370
    15
100
AcDbLine
 10
105.1404001613
 20
1127.0470800499
 30
0.0
 11
107.190382709
 21
1127.0470800499
 31
0.0
  0
LINE
  5
1F3
330
1F
100
AcDbEntity
  8
0
  6
Continuous
 62
     7
370
    15
100
AcDbLine
 10
107.190382709
 20
939.5386161903
 30
0.0
 11
105.1404001613
 21
939.5386161903
 31
0.0
  0
LINE
  5
1F4
330
1F
100
AcDbEntity
  8
0
  6
Continuous
 62
     7
370
    15
100
AcDbLine
 10
160.1404073138
 20
1105.1554265121
 30
0.0
 11
160.1404073138
 21
939.5386161903
 31
0.0
  0
LINE
  5
1F5
330
1F
100
AcDbEntity
  8
0
  6
Continuous
 62
     7
370
    15
100
AcDbLine
 10
158.0903651614
 20
1105.1554265121
 30
0.0
 11
160.1404073138
 21
1105.1554265121
 31
0.0
  0
LINE
  5
1F6
330
1F
100
AcDbEntity
  8
0
  6
Continuous
 62
     7
370
    15
100
AcDbLine
 10
160.1404073138
 20
939.5386161903
 30
0.0
 11
158.0903651614
 21
939.5386161903
 31
0.0
  0
LINE
  5
1F7
330
1F
100
AcDbEntity
  8
0
  6
Continuous
 62
     7
370
    15
100
AcDbLine
 10
105.1404001613
 20
1127.1470966438
 30
0.0
 11
105.9403540988
 21
1127.1470966438
 31
0.0
  0
LINE
  5
1F8
330
1F
100
AcDbEntity
  8
0
  6
Continuous
 62
     7
370
    15
100
AcDbLine
 10
105.1404001613
 20
1127.1470966438
 30
0.0
 11
105.1404001613
 21
1137.5180664162
 31
0.0
  0
LINE
  5
1F9
330
1F
100
AcDbEntity
  8
0
  6
Continuous
 62
     7
370
    15
100
AcDbLine
 10
105.9403540988
 20
1127.1470966438
 30
0.0
 11
105.9403540988
 21
1137.5180664162
 31
0.0
  0
LINE
  5
1FA
330
1F
100
AcDbEntity
  8
0
  6
Continuous
 62
     7
370
    15
100
AcDbLine
 10
107.7209832568
 20
1139.4981923202
 30
0.0
 11
141.0179259677
 21
1130.576271067
 31
0.0
  0
LINE
  5
1FB
330
1F
100
AcDbEntity
  8
0
  6
Continuous
 62
     7
370
    15
100
AcDbLine
 10
107.5139167209
 20
1138.7254777054
 30
0.0
 11
140.8108594317
 21
1129.8035564522
 31
0.0
  0
ARC
  5
1FC
330
1F
100
AcDbEntity
  8
0
  6
Continuous
 62
     7
370
    15
100
AcDbCircle
 10
107.1903804202
 20
1137.5180427399
 30
0.0
 40
2.049999999999997
100
AcDbArc
 50
75.0
 51
180.0
  0
ARC
  5
1FD
330
1F
100
AcDbEntity
  8
0
  6
Continuous
 62
     7
370
    15
100
AcDbCircle
 10
107.1903804202
 20
1137.5180427399
 30
0.0
 40
1.250000000000085
100
AcDbArc
 50
75.0
 51
180.0
  0
ARC
  5
1FE
330
1F
100
AcDbEntity
  8
0
  6
Continuous
 62
     7
370
    15
100
AcDbCircle
 10
134.3403804202
 20
1105.6554128806
 30
0.0
 40
25.80000000000028
100
AcDbArc
 50
0.0
 51
75.0
  0
ARC
  5
1FF
330
1F
100
AcDbEntity
  8
0
  6
Continuous
 62
     7
370
    15
100
AcDbCircle
 10
134.3403804202
 20
1105.6554128806
 30
0.0
 40
25.00000000000022
100
AcDbArc
 50
0.0
 51
75.0
  0
LINE
  5
200
330
1F
100
AcDbEntity
  8
0
  6
Continuous
 62
     7
370
    15
100
AcDbLine
 10
159.3403937717
 20
1105.6553902725
 30
0.0
 11
159.3403937717
 21
1105.5554332832
 31
0.0
  0
LINE
  5
201
330
1F
100
AcDbEntity
  8
0
  6
Continuous
 62
     7
370
    15
100
AcDbLine
 10
160.1404073138
 20
1105.6553902725
 30
0.0
 11
160.1404073138
 21
1105.5554332832
 31
0.0
  0
LINE
  5
202
330
1F
100
AcDbEntity
  8
0
  6
Continuous
 62
     7
370
    15
100
AcDbLine
 10
159.3403937717
 20
1105.5554332832
 30
0.0
 11
160.1404073138
 21
1105.5554332832
 31
0.0
  0
LINE
  5
203
330
1F
100
AcDbEntity
  8
0
  6
Continuous
 62
     7
370
    15
100
AcDbLine
 10
159.3403937717
 20
1105.5554332832
 30
0.0
 11
159.3403937717
 21
1105.1554265121
 31
0.0
  0
LINE
  5
204
330
1F
100
AcDbEntity
  8
0
  6
Continuous
 62
     7
370
    15
100
AcDbLine
 10
160.1404073138
 20
1105.1554265121
 30
0.0
 11
160.1404073138
 21
1105.5554332832
 31
0.0
  0
LINE
  5
205
330
1F
100
AcDbEntity
  8
0
  6
Continuous
 62
     7
370
    15
100
AcDbLine
 10
872.1403787334
 20
314.538586388
 30
0.0
 11
873.7403797407
 21
314.538586388
 31
0.0
  0
LINE
  5
206
330
1F
100
AcDbEntity
  8
0
  6
Continuous
 62
     7
370
    15
100
AcDbLine
 10
873.7403797407
 20
312.5442075232
 30
0.0
 11
873.7403797407
 21
314.538586388
 31
0.0
  0
LINE
  5
207
330
1F
100
AcDbEntity
  8
0
  6
Continuous
 62
     7
370
    15
100
AcDbLine
 10
873.7403797407
 20
256.5325717131
 30
0.0
 11
873.7403797407
 21
312.5442075232
 31
0.0
  0
LINE
  5
208
330
1F
100
AcDbEntity
  8
0
  6
Continuous
 62
     7
370
    15
100
AcDbLine
 10
872.1403787334
 20
254.5385877291
 30
0.0
 11
873.7403797407
 21
254.5385877291
 31
0.0
  0
LINE
  5
209
330
1F
100
AcDbEntity
  8
0
  6
Continuous
 62
     7
370
    15
100
AcDbLine
 10
873.7403797407
 20
254.5385877291
 30
0.0
 11
873.7403797407
 21
256.5325717131
 31
0.0
  0
LINE
  5
20A
330
1F
100
AcDbEntity
  8
0
  6
Continuous
 62
     7
370
    15
100
AcDbLine
 10
875.1403810878
 20
312.0008739332
 30
0.0
 11
875.1403810878
 21
257.0763039092
 31
0.0
  0
ARC
  5
20B
330
1F
100
AcDbEntity
  8
0
  6
Continuous
 62
     7
370
    15
100
AcDbCircle
 10
872.1403842901
 20
312.0008717973
 30
0.0
 40
2.999996797663439
100
AcDbArc
 50
0.0000407936
 51
57.7691115188
  0
ARC
  5
20C
330
1F
100
AcDbEntity
  8
0
  6
Continuous
 62
     7
370
    15
100
AcDbCircle
 10
872.1403783728
 20
257.0763055843
 30
0.0
 40
3.000002714990138
100
AcDbArc
 50
302.2309508277
 51
359.9999680078
  0
ARC
  5
20D
330
1F
100
AcDbEntity
  8
0
  6
Continuous
 62
     7
370
    15
100
AcDbCircle
 10
822.6394842636
 20
742.7107627556
 30
0.0
 40
2.906310144069979
100
AcDbArc
 50
99.8884770024
 51
142.2859197743
  0
ARC
  5
20E
330
1F
100
AcDbEntity
  8
0
  6
Continuous
 62
     7
370
    15
100
AcDbCircle
 10
822.4118299409
 20
229.9878264544
 30
0.0
 40
2.499754492975186
100
AcDbArc
 50
214.0385335174
 51
263.7659395058
  0
LINE
  5
20F
330
1F
100
AcDbEntity
  8
0
  6
Continuous
 62
     7
370
    15
100
AcDbLine
 10
820.3403801147
 20
228.5885880391
 30
0.0
 11
820.3403801147
 21
744.4886150459
 31
0.0
  0
ARC
  5
210
330
1F
100
AcDbEntity
  8
0
  6
Continuous
 62
     7
370
    15
100
AcDbCircle
 10
822.1663656405
 20
744.849505381
 30
0.0
 40
0.8395917869965392
100
AcDbArc
 50
91.7735529516
 51
146.701350601
  0
ARC
  5
211
330
1F
100
AcDbEntity
  8
0
  6
Continuous
 62
     7
370
    15
100
AcDbCircle
 10
822.3133743985
 20
744.5274006433
 30
0.0
 40
1.973375475235142
100
AcDbArc
 50
95.0292220591
 51
181.1261891943
  0
ARC
  5
212
330
1F
100
AcDbEntity
  8
0
  6
Continuous
 62
     7
370
    15
100
AcDbCircle
 10
822.3000807878
 20
228.5420527407
 30
0.0
 40
1.960253111694078
100
AcDbArc
 50
178.6397028653
 51
265.3269868598
  0
ARC
  5
213
330
1F
100
AcDbEntity
  8
0
  6
Continuous
 62
     7
370
    15
100
AcDbCircle
 10
822.1673370261
 20
228.228233951
 30
0.0
 40
0.8403510675090008
100
AcDbArc
 50
213.3043629594
 51
268.1617873149
  0
LINE
  5
214
330
1F
100
AcDbEntity
  8
0
  6
Continuous
 62
     7
370
    15
100
AcDbLine
 10
869.690381964
 20
225.8092984246
 30
0.0
 11
822.1403807823
 21
225.8092984246
 31
0.0
  0
LINE
  5
215
330
1F
100
AcDbEntity
  8
0
  6
Continuous
 62
     7
370
    15
100
AcDbLine
 10
822.1403807823
 20
747.2678604225
 30
0.0
 11
822.1403807823
 21
225.8092984246
 31
0.0
  0
CIRCLE
  5
216
330
1F
100
AcDbEntity
  8
0
  6
Continuous
 62
     7
370
    15
100
AcDbCircle
 10
842.1403804202
 20
486.5385875801
 30
0.0
 40
1.599999999999909
  0
CIRCLE
  5
217
330
1F
100
AcDbEntity
  8
0
  6
Continuous
 62
     7
370
    15
100
AcDbCircle
 10
842.1403804202
 20
254.5385875801
 30
0.0
 40
1.600000000000023
  0
CIRCLE
  5
218
330
1F
100
AcDbEntity
  8
0
  6
Continuous
 62
     7
370
    15
100
AcDbCircle
 10
842.1403804202
 20
718.5385875801
 30
0.0
 40
1.599999999999909
  0
LINE
  5
219
330
1F
100
AcDbEntity
  8
0
  6
Continuous
 62
     7
370
    15
100
AcDbLine
 10
869.690381964
 20
747.2678604225
 30
0.0
 11
822.1403807823
 21
747.2678604225
 31
0.0
  0
LWPOLYLINE
  5
21A
330
1F
100
AcDbEntity
  8
0
  6
Continuous
 62
     7
370
    15
100
AcDbPolyline
 90
        6
 70
   128
 43
0.0
 10
869.690381964
 20
225.8092984246
 10
870.4691054721
 20
225.8713994796
 10
871.1572075684
 20
226.0215622062
 10
871.6826411386
 20
226.2759762505
 10
872.023698916
 20
226.6151164348
 10
872.1403787334
 20
226.9885874974
  0
LWPOLYLINE
  5
21B
330
1F
100
AcDbEntity
  8
0
  6
Continuous
 62
     7
370
    15
100
AcDbPolyline
 90
        6
 70
   128
 43
0.0
 10
872.1403787334
 20
746.0885825256
 10
871.9137059946
 20
746.6061892609
 10
871.4674981732
 20
746.9287695984
 10
870.768540581
 20
747.140246878
 10
870.2734904785
 20
747.2145142654
 10
869.690381964
 20
747.2678604225
  0
LINE
  5
21C
330
1F
100
AcDbEntity
  8
0
  6
Continuous
 62
     7
370
    15
100
AcDbLine
 10
872.1403787334
 20
746.0885825256
 30
0.0
 11
872.1403787334
 21
226.9885874974
 31
0.0
  0
ARC
  5
21D
330
1F
100
AcDbEntity
  8
0
  6
Continuous
 62
     7
370
    15
100
AcDbCircle
 10
869.706563217
 20
746.1670731585
 30
0.0
 40
1.171649719564858
100
AcDbArc
 50
63.8973453442
 51
90.7913175447
  0
LINE
  5
21E
330
1F
100
AcDbEntity
  8
0
  6
Continuous
 62
     7
370
    15
100
AcDbLine
 10
869.690381964
 20
747.3386111359
 30
0.0
 11
869.690381964
 21
748.5385718445
 31
0.0
  0
ARC
  5
21F
330
1F
100
AcDbEntity
  8
0
  6
Continuous
 62
     7
370
    15
100
AcDbCircle
 10
869.6904100158
 20
746.088603127
 30
0.0
 40
2.449968717642365
100
AcDbArc
 50
359.9995182096
 51
90.0006560304
  0
LINE
  5
220
330
1F
100
AcDbEntity
  8
0
  6
Continuous
 62
     7
370
    15
100
AcDbLine
 10
869.690381964
 20
747.3386111359
 30
0.0
 11
822.1403807823
 21
747.3386111359
 31
0.0
  0
LINE
  5
221
330
1F
100
AcDbEntity
  8
0
  6
Continuous
 62
     7
370
    15
100
AcDbLine
 10
822.1403807823
 20
748.5385718445
 30
0.0
 11
822.1403807823
 21
747.3386111359
 31
0.0
  0
LINE
  5
222
330
1F
100
AcDbEntity
  8
0
  6
Continuous
 62
     7
370
    15
100
AcDbLine
 10
869.690381964
 20
748.5385718445
 30
0.0
 11
822.1403807823
 21
748.5385718445
 31
0.0
  0
LINE
  5
223
330
1F
100
AcDbEntity
  8
0
  6
Continuous
 62
     7
370
    15
100
AcDbLine
 10
869.690381964
 20
225.7385877582
 30
0.0
 11
869.690381964
 21
224.5385874683
 31
0.0
  0
LINE
  5
224
330
1F
100
AcDbEntity
  8
0
  6
Continuous
 62
     7
370
    15
100
AcDbLine
 10
822.1403807823
 20
224.5385874683
 30
0.0
 11
822.1403807823
 21
225.7385877582
 31
0.0
  0
LINE
  5
225
330
1F
100
AcDbEntity
  8
0
  6
Continuous
 62
     7
370
    15
100
AcDbLine
 10
869.690381964
 20
225.7385877582
 30
0.0
 11
822.1403807823
 21
225.7385877582
 31
0.0
  0
LINE
  5
226
330
1F
100
AcDbEntity
  8
0
  6
Continuous
 62
     7
370
    15
100
AcDbLine
 10
869.690381964
 20
224.5385874683
 30
0.0
 11
822.1403807823
 21
224.5385874683
 31
0.0
  0
ARC
  5
227
330
1F
100
AcDbEntity
  8
0
  6
Continuous
 62
     7
370
    15
100
AcDbCircle
 10
869.6903830257
 20
226.9885831761
 30
0.0
 40
2.449995707721203
100
AcDbArc
 50
269.9999751707
 51
0.0001010591
  0
LWPOLYLINE
  5
228
330
1F
100
AcDbEntity
  8
0
  6
Continuous
 62
     7
370
    15
100
AcDbPolyline
 90
        3
 70
   128
 43
0.0
 10
870.1920295556
 20
225.8493033858
 10
870.1687353153
 20
225.8337381916
 10
869.690381964
 20
225.7385877582
  0
LINE
  5
229
330
1F
100
AcDbEntity
  8
0
  6
Continuous
 62
     7
370
    15
100
AcDbLine
 10
873.9403831263
 20
681.2572958568
 30
0.0
 11
873.9403831263
 21
718.2572963337
 31
0.0
  0
LINE
  5
22A
330
1F
100
AcDbEntity
  8
0
  6
Continuous
 62
     7
370
    15
100
AcDbLine
 10
872.1403787334
 20
719.7573366264
 30
0.0
 11
873.9403831263
 21
719.7573366264
 31
0.0
  0
LINE
  5
22B
330
1F
100
AcDbEntity
  8
0
  6
Continuous
 62
     7
370
    15
100
AcDbLine
 10
873.9403831263
 20
719.7573366264
 30
0.0
 11
873.9403831263
 21
718.2572963337
 31
0.0
  0
LINE
  5
22C
330
1F
100
AcDbEntity
  8
0
  6
Continuous
 62
     7
370
    15
100
AcDbLine
 10
873.9403831263
 20
679.7573151688
 30
0.0
 11
872.1403787334
 21
679.7573151688
 31
0.0
  0
LINE
  5
22D
330
1F
100
AcDbEntity
  8
0
  6
Continuous
 62
     7
370
    15
100
AcDbLine
 10
873.9403831263
 20
681.2572958568
 30
0.0
 11
873.9403831263
 21
679.7573151688
 31
0.0
  0
LINE
  5
22E
330
1F
100
AcDbEntity
  8
0
  6
Continuous
 62
     7
370
    15
100
AcDbLine
 10
853.6403822203
 20
224.0385873864
 30
0.0
 11
870.6403794189
 21
224.0385873864
 31
0.0
  0
LINE
  5
22F
330
1F
100
AcDbEntity
  8
0
  6
Continuous
 62
     7
370
    15
100
AcDbLine
 10
869.690381964
 20
224.5385874683
 30
0.0
 11
870.1403821309
 21
224.5385874683
 31
0.0
  0
LWPOLYLINE
  5
230
330
1F
100
AcDbEntity
  8
0
  6
Continuous
 62
     7
370
    15
100
AcDbPolyline
 90
        3
 70
   128
 43
0.0
 10
868.7262507577
 20
224.5385874683
 10
868.8861141403
 20
224.3476910206
 10
868.8937360842
 20
224.3385878081
  0
LINE
  5
231
330
1F
100
AcDbEntity
  8
0
  6
Continuous
 62
     7
370
    15
100
AcDbLine
 10
869.1125149329
 20
224.3385878081
 30
0.0
 11
868.8937360842
 21
224.3385878081
 31
0.0
  0
LWPOLYLINE
  5
232
330
1F
100
AcDbEntity
  8
0
  6
Continuous
 62
     7
370
    15
100
AcDbPolyline
 90
        3
 70
   128
 43
0.0
 10
869.1125149329
 20
224.3385878081
 10
869.1048892636
 20
224.3476910206
 10
868.9450296063
 20
224.5385874683
  0
LINE
  5
233
330
1F
100
AcDbEntity
  8
0
  6
Continuous
 62
     7
370
    15
100
AcDbLine
 10
853.6403822203
 20
222.5385876062
 30
0.0
 11
870.6403794189
 21
222.5385876062
 31
0.0
  0
LINE
  5
234
330
1F
100
AcDbEntity
  8
0
  6
Continuous
 62
     7
370
    15
100
AcDbLine
 10
862.1403808196
 20
222.0385875242
 30
0.0
 11
870.1403821309
 21
222.0385875242
 31
0.0
  0
LINE
  5
235
330
1F
100
AcDbEntity
  8
0
  6
Continuous
 62
     7
370
    15
100
AcDbLine
 10
868.9450296063
 20
224.3385878081
 30
0.0
 11
868.9450296063
 21
224.5385874683
 31
0.0
  0
LINE
  5
236
330
1F
100
AcDbEntity
  8
0
  6
Continuous
 62
     7
370
    15
100
AcDbLine
 10
870.6403794189
 20
749.0385952095
 30
0.0
 11
853.6403822203
 21
749.0385952095
 31
0.0
  0
LINE
  5
237
330
1F
100
AcDbEntity
  8
0
  6
Continuous
 62
     7
370
    15
100
AcDbLine
 10
870.1403821309
 20
748.5385718445
 30
0.0
 11
869.690381964
 21
748.5385718445
 31
0.0
  0
LWPOLYLINE
  5
238
330
1F
100
AcDbEntity
  8
0
  6
Continuous
 62
     7
370
    15
100
AcDbPolyline
 90
        3
 70
   128
 43
0.0
 10
854.142879178
 20
748.5385718445
 10
853.9519245226
 20
748.7294855217
 10
853.9428199132
 20
748.7386050323
  0
LINE
  5
239
330
1F
100
AcDbEntity
  8
0
  6
Continuous
 62
     7
370
    15
100
AcDbLine
 10
853.940379848
 20
748.7386050323
 30
0.0
 11
853.9428199132
 21
748.7386050323
 31
0.0
  0
LINE
  5
23A
330
1F
100
AcDbEntity
  8
0
  6
Continuous
 62
     7
370
    15
100
AcDbLine
 10
870.6403794189
 20
750.5386056999
 30
0.0
 11
853.6403822203
 21
750.5386056999
 31
0.0
  0
LINE
  5
23B
330
1F
100
AcDbEntity
  8
0
  6
Continuous
 62
     7
370
    15
100
AcDbLine
 10
870.1403821309
 20
751.0385694603
 30
0.0
 11
854.1403795083
 21
751.0385694603
 31
0.0
  0
LINE
  5
23C
330
1F
100
AcDbEntity
  8
0
  6
Continuous
 62
     7
370
    15
100
AcDbLine
 10
818.6403802086
 20
754.5386138061
 30
0.0
 11
862.1403808196
 21
754.5386138061
 31
0.0
  0
LINE
  5
23D
330
1F
100
AcDbEntity
  8
0
  6
Continuous
 62
     7
370
    15
100
AcDbLine
 10
818.6403802086
 20
752.0386161903
 30
0.0
 11
862.1403808196
 21
752.0386161903
 31
0.0
  0
ARC
  5
23E
330
1F
100
AcDbEntity
  8
0
  6
Continuous
 62
     7
370
    15
100
AcDbCircle
 10
818.6403804202
 20
757.5385875801
 30
0.0
 40
5.5
100
AcDbArc
 50
180.0
 51
270.0
  0
ARC
  5
23F
330
1F
100
AcDbEntity
  8
0
  6
Continuous
 62
     7
370
    15
100
AcDbCircle
 10
818.6403804202
 20
757.5385875801
 30
0.0
 40
3.0
100
AcDbArc
 50
180.0
 51
270.0
  0
LINE
  5
240
330
1F
100
AcDbEntity
  8
0
  6
Continuous
 62
     7
370
    15
100
AcDbLine
 10
815.6403806482
 20
757.5385751823
 30
0.0
 11
815.6403806482
 21
761.9885983566
 31
0.0
  0
LINE
  5
241
330
1F
100
AcDbEntity
  8
0
  6
Continuous
 62
     7
370
    15
100
AcDbLine
 10
862.1403808196
 20
752.0386161903
 30
0.0
 11
870.1403821309
 21
752.0386161903
 31
0.0
  0
LINE
  5
242
330
1F
100
AcDbEntity
  8
0
  6
Continuous
 62
     7
370
    15
100
AcDbLine
 10
862.1403808196
 20
754.5386138061
 30
0.0
 11
870.1403821309
 21
754.5386138061
 31
0.0
  0
LINE
  5
243
330
1F
100
AcDbEntity
  8
0
  6
Continuous
 62
     7
370
    15
100
AcDbLine
 10
858.2403818567
 20
219.0385875563
 30
0.0
 11
866.0403797824
 21
219.0385875563
 31
0.0
  0
LINE
  5
244
330
1F
100
AcDbEntity
  8
0
  6
Continuous
 62
     7
370
    15
100
AcDbLine
 10
866.0403797824
 20
755.0385775665
 30
0.0
 11
858.2403818567
 21
755.0385775665
 31
0.0
  0
LINE
  5
245
330
1F
100
AcDbEntity
  8
0
  6
Continuous
 62
     7
370
    15
100
AcDbLine
 10
818.6403802086
 20
219.5385875801
 30
0.0
 11
862.1403808196
 21
219.5385875801
 31
0.0
  0
LINE
  5
246
330
1F
100
AcDbEntity
  8
0
  6
Continuous
 62
     7
370
    15
100
AcDbLine
 10
818.6403802086
 20
222.0385875242
 30
0.0
 11
862.1403808196
 21
222.0385875242
 31
0.0
  0
LINE
  5
247
330
1F
100
AcDbEntity
  8
0
  6
Continuous
 62
     7
370
    15
100
AcDbLine
 10
813.1403804712
 20
240.0385881463
 30
0.0
 11
815.6403806482
 21
240.0385881463
 31
0.0
  0
LINE
  5
248
330
1F
100
AcDbEntity
  8
0
  6
Continuous
 62
     7
370
    15
100
AcDbLine
 10
815.6403806482
 20
235.0385873268
 30
0.0
 11
815.6403806482
 21
240.0385881463
 31
0.0
  0
LINE
  5
249
330
1F
100
AcDbEntity
  8
0
  6
Continuous
 62
     7
370
    15
100
AcDbLine
 10
862.1403808196
 20
219.5385875801
 30
0.0
 11
870.1403821309
 21
219.5385875801
 31
0.0
  0
ARC
  5
24A
330
1F
100
AcDbEntity
  8
0
  6
Continuous
 62
     7
370
    15
100
AcDbCircle
 10
818.6403804202
 20
225.0385875801
 30
0.0
 40
5.500000000000028
100
AcDbArc
 50
180.0
 51
270.0
  0
ARC
  5
24B
330
1F
100
AcDbEntity
  8
0
  6
Continuous
 62
     7
370
    15
100
AcDbCircle
 10
818.6403804202
 20
225.0385875801
 30
0.0
 40
3.000000000000114
100
AcDbArc
 50
180.0
 51
270.0
  0
LINE
  5
24C
330
1F
100
AcDbEntity
  8
0
  6
Continuous
 62
     7
370
    15
100
AcDbLine
 10
815.6403806482
 20
225.0385875503
 30
0.0
 11
815.6403806482
 21
235.0385873268
 31
0.0
  0
LINE
  5
24D
330
1F
100
AcDbEntity
  8
0
  6
Continuous
 62
     7
370
    15
100
AcDbLine
 10
756.6403793592
 20
915.3385939697
 30
0.0
 11
756.6403793592
 21
911.8386092285
 31
0.0
  0
LINE
  5
24E
330
1F
100
AcDbEntity
  8
0
  6
Continuous
 62
     7
370
    15
100
AcDbLine
 10
756.6303806801
 20
915.3385939697
 30
0.0
 11
756.6403793592
 21
915.3385939697
 31
0.0
  0
ARC
  5
24F
330
1F
100
AcDbEntity
  8
0
  6
Continuous
 62
     7
370
    15
100
AcDbCircle
 10
813.0821889187
 20
904.3885875801
 30
0.0
 40
0.1250000000001137
100
AcDbArc
 50
0.0
 51
180.0
  0
LINE
  5
250
330
1F
100
AcDbEntity
  8
0
  6
Continuous
 62
     7
370
    15
100
AcDbLine
 10
757.107188036
 20
939.2385664085
 30
0.0
 11
757.107188036
 21
904.3885650734
 31
0.0
  0
LINE
  5
251
330
1F
100
AcDbEntity
  8
0
  6
Continuous
 62
     7
370
    15
100
AcDbLine
 10
848.4071875412
 20
939.2385664085
 30
0.0
 11
757.107188036
 21
939.2385664085
 31
0.0
  0
ARC
  5
252
330
1F
100
AcDbEntity
  8
0
  6
Continuous
 62
     7
370
    15
100
AcDbCircle
 10
848.4071889187
 20
916.2385875801
 30
0.0
 40
23.0
100
AcDbArc
 50
293.5
 51
90.0
  0
LINE
  5
253
330
1F
100
AcDbEntity
  8
0
  6
Continuous
 62
     7
370
    15
100
AcDbLine
 10
835.9423773785
 20
885.7385697464
 30
0.0
 11
857.5784163971
 21
895.1462092499
 31
0.0
  0
LINE
  5
254
330
1F
100
AcDbEntity
  8
0
  6
Continuous
 62
     7
370
    15
100
AcDbLine
 10
833.6853189815
 20
885.7385697464
 30
0.0
 11
835.9423773785
 21
885.7385697464
 31
0.0
  0
LINE
  5
255
330
1F
100
AcDbEntity
  8
0
  6
Continuous
 62
     7
370
    15
100
AcDbLine
 10
833.6853189815
 20
886.9885983566
 30
0.0
 11
833.6853189815
 21
885.7385697464
 31
0.0
  0
ARC
  5
256
330
1F
100
AcDbEntity
  8
0
  6
Continuous
 62
     7
370
    15
100
AcDbCircle
 10
833.5603181327
 20
886.9885875801
 30
0.0
 40
0.1250000000001137
100
AcDbArc
 50
0.0
 51
180.0
  0
LINE
  5
257
330
1F
100
AcDbEntity
  8
0
  6
Continuous
 62
     7
370
    15
100
AcDbLine
 10
813.2071888961
 20
904.3885650734
 30
0.0
 11
813.2071888961
 21
886.9885983566
 31
0.0
  0
ARC
  5
258
330
1F
100
AcDbEntity
  8
0
  6
Continuous
 62
     7
370
    15
100
AcDbCircle
 10
836.4071889187
 20
906.5440285164
 30
0.0
 40
0.2503511010933301
100
AcDbArc
 50
79.8945592916
 51
263.994223505
  0
ARC
  5
259
330
1F
100
AcDbEntity
  8
0
  6
Continuous
 62
     7
370
    15
100
AcDbCircle
 10
836.4071889187
 20
900.9331466438
 30
0.0
 40
0.2503511010932536
100
AcDbArc
 50
96.005776495
 51
280.1054407084
  0
ARC
  5
25A
330
1F
100
AcDbEntity
  8
0
  6
Continuous
 62
     7
370
    15
100
AcDbCircle
 10
835.9071889187
 20
903.7385875801
 30
0.0
 40
3.100000000000077
100
AcDbArc
 50
280.1054407084
 51
79.8945592916
  0
ARC
  5
25B
330
1F
100
AcDbEntity
  8
0
  6
Continuous
 62
     7
370
    15
100
AcDbCircle
 10
835.9071889187
 20
903.7385875801
 30
0.0
 40
3.100000000000021
100
AcDbArc
 50
100.8891073053
 51
259.1110070997
  0
ARC
  5
25C
330
1F
100
AcDbEntity
  8
0
  6
Continuous
 62
     7
370
    15
100
AcDbCircle
 10
835.3688762417
 20
900.9402744322
 30
0.0
 40
0.2503794968157122
100
AcDbArc
 50
259.1110070997
 51
83.3730607602
  0
ARC
  5
25D
330
1F
100
AcDbEntity
  8
0
  6
Continuous
 62
     7
370
    15
100
AcDbCircle
 10
835.9071889187
 20
903.7385875801
 30
0.0
 40
2.600000000000097
100
AcDbArc
 50
101.3148497955
 51
258.700947069
  0
ARC
  5
25E
330
1F
100
AcDbEntity
  8
0
  6
Continuous
 62
     7
370
    15
100
AcDbCircle
 10
835.3688762417
 20
906.5368706079
 30
0.0
 40
0.2504090746769058
100
AcDbArc
 50
276.4642622073
 51
100.8891073053
  0
ARC
  5
25F
330
1F
100
AcDbEntity
  8
0
  6
Continuous
 62
     7
370
    15
100
AcDbCircle
 10
835.9071889187
 20
903.7385875801
 30
0.0
 40
2.600000000000053
100
AcDbArc
 50
280.4998591652
 51
79.5001408348
  0
LINE
  5
260
330
1F
100
AcDbEntity
  8
0
  6
Continuous
 62
     7
370
    15
100
AcDbLine
 10
812.9571888552
 20
904.3885650734
 30
0.0
 11
812.9571888552
 21
901.9385757545
 31
0.0
  0
LINE
  5
261
330
1F
100
AcDbEntity
  8
0
  6
Continuous
 62
     7
370
    15
100
AcDbLine
 10
757.107188036
 20
901.9385757545
 30
0.0
 11
812.9571888552
 21
901.9385757545
 31
0.0
  0
LINE
  5
262
330
1F
100
AcDbEntity
  8
0
  6
Continuous
 62
     7
370
    15
100
AcDbLine
 10
757.107188036
 20
901.9385757545
 30
0.0
 11
757.107188036
 21
904.3885650734
 31
0.0
  0
LINE
  5
263
330
1F
100
AcDbEntity
  8
0
  6
Continuous
 62
     7
370
    15
100
AcDbLine
 10
833.4353184749
 20
886.9885983566
 30
0.0
 11
833.4353184749
 21
884.5386090378
 31
0.0
  0
LINE
  5
264
330
1F
100
AcDbEntity
  8
0
  6
Continuous
 62
     7
370
    15
100
AcDbLine
 10
813.2071888961
 20
884.5386090378
 30
0.0
 11
833.4353184749
 21
884.5386090378
 31
0.0
  0
LINE
  5
265
330
1F
100
AcDbEntity
  8
0
  6
Continuous
 62
     7
370
    15
100
AcDbLine
 10
813.2071888961
 20
884.5386090378
 30
0.0
 11
813.2071888961
 21
886.9885983566
 31
0.0
  0
ARC
  5
266
330
1F
100
AcDbEntity
  8
0
  6
Continuous
 62
     7
370
    15
100
AcDbCircle
 10
212.8991868534
 20
1147.7021219758
 30
0.0
 40
235.4740160429243
100
AcDbArc
 50
242.766043747
 51
243.4345092003
  0
LINE
  5
267
330
1F
100
AcDbEntity
  8
0
  6
Continuous
 62
     7
370
    15
100
AcDbLine
 10
105.1404001613
 20
938.3315029243
 30
0.0
 11
106.3403608699
 21
938.3315029243
 31
0.0
  0
ARC
  5
268
330
1F
100
AcDbEntity
  8
0
  6
Continuous
 62
     7
370
    15
100
AcDbCircle
 10
193.5892761458
 20
1024.8282651421
 30
0.0
 40
122.8578979593335
100
AcDbArc
 50
224.7519654751
 51
225.5740682064
  0
LWPOLYLINE
  5
269
330
1F
100
AcDbEntity
  8
0
  6
Continuous
 62
     7
370
    15
100
AcDbPolyline
 90
       18
 70
   128
 43
0.0
 10
106.3474538226
 20
939.5386161903
 10
106.4509870906
 20
939.5176353554
 10
106.5211417575
 20
939.4797864059
 10
106.6280128856
 20
939.3862071136
 10
106.7316057582
 20
939.2554941276
 10
106.8017604251
 20
939.1457619766
 10
106.8728687663
 20
939.0179696182
 10
106.9086315532
 20
938.9478149513
 10
107.0122244258
 20
938.7236418823
 10
107.0823790927
 20
938.5556759933
 10
107.1535470386
 20
938.3735241989
 10
107.1892502208
 20
938.278037558
 10
107.2928430934
 20
937.9882993797
 10
107.3629977603
 20
937.7830209831
 10
107.4341657062
 20
937.5692191223
 10
107.4698688884
 20
937.4602618317
 10
107.5299503703
 20
937.2754278282
 10
107.5903894801
 20
937.0885672668
  0
ARC
  5
26A
330
1F
100
AcDbEntity
  8
0
  6
Continuous
 62
     7
370
    15
100
AcDbCircle
 10
105.622559968
 20
936.3748594575
 30
0.0
 40
2.093258661992813
100
AcDbArc
 50
19.9350918631
 51
69.7388744554
  0
LINE
  5
26B
330
1F
100
AcDbEntity
  8
0
  6
Continuous
 62
     7
370
    15
100
AcDbLine
 10
106.3474538226
 20
938.3385958771
 30
0.0
 11
106.3474538226
 21
939.5386161903
 31
0.0
  0
LINE
  5
26C
330
1F
100
AcDbEntity
  8
0
  6
Continuous
 62
     7
370
    15
100
AcDbLine
 10
105.1404001613
 20
901.9385757545
 30
0.0
 11
107.5903894801
 21
901.9385757545
 31
0.0
  0
LINE
  5
26D
330
1F
100
AcDbEntity
  8
0
  6
Continuous
 62
     7
370
    15
100
AcDbLine
 10
105.1404001613
 20
938.3315029243
 30
0.0
 11
105.1404001613
 21
901.9385757545
 31
0.0
  0
LINE
  5
26E
330
1F
100
AcDbEntity
  8
0
  6
Continuous
 62
     7
370
    15
100
AcDbLine
 10
160.1404073138
 20
939.5386161903
 30
0.0
 11
756.6303806801
 21
939.5386161903
 31
0.0
  0
LINE
  5
26F
330
1F
100
AcDbEntity
  8
0
  6
Continuous
 62
     7
370
    15
100
AcDbLine
 10
756.6303806801
 20
937.0885672668
 30
0.0
 11
756.6303806801
 21
939.5386161903
 31
0.0
  0
LINE
  5
270
330
1F
100
AcDbEntity
  8
0
  6
Continuous
 62
     7
370
    15
100
AcDbLine
 10
756.6303806801
 20
901.9385757545
 30
0.0
 11
756.6303806801
 21
937.0885672668
 31
0.0
  0
LINE
  5
271
330
1F
100
AcDbEntity
  8
0
  6
Continuous
 62
     7
370
    15
100
AcDbLine
 10
107.5903894801
 20
901.9385757545
 30
0.0
 11
756.6303806801
 21
901.9385757545
 31
0.0
  0
LINE
  5
272
330
1F
100
AcDbEntity
  8
0
  6
Continuous
 62
     7
370
    15
100
AcDbLine
 10
757.107188036
 20
938.3385958771
 30
0.0
 11
757.0903795261
 21
938.3385958771
 31
0.0
  0
LINE
  5
273
330
1F
100
AcDbEntity
  8
0
  6
Continuous
 62
     7
370
    15
100
AcDbLine
 10
757.0903795261
 20
939.5386161903
 30
0.0
 11
757.0903795261
 21
938.3385958771
 31
0.0
  0
LINE
  5
274
330
1F
100
AcDbEntity
  8
0
  6
Continuous
 62
     7
370
    15
100
AcDbLine
 10
848.4071875412
 20
939.5386161903
 30
0.0
 11
757.0903795261
 21
939.5386161903
 31
0.0
  0
LINE
  5
275
330
1F
100
AcDbEntity
  8
0
  6
Continuous
 62
     7
370
    15
100
AcDbLine
 10
836.3610590298
 20
885.593492041
 30
0.0
 11
857.6980429192
 21
894.8710742096
 31
0.0
  0
LINE
  5
276
330
1F
100
AcDbEntity
  8
0
  6
Continuous
 62
     7
370
    15
100
AcDbLine
 10
834.526940291
 20
884.7959818939
 30
0.0
 11
834.1170931656
 21
885.7385697464
 31
0.0
  0
LWPOLYLINE
  5
277
330
1F
100
AcDbEntity
  8
0
  6
Continuous
 62
     7
370
    15
100
AcDbPolyline
 90
        9
 70
   128
 43
0.0
 10
836.3610590298
 20
885.593492041
 10
836.0032411714
 20
885.4379239181
 10
835.6591714968
 20
885.2883162598
 10
835.3420766492
 20
885.1504507164
 10
835.0641401906
 20
885.0295724968
 10
834.8360443909
 20
884.9303903679
 10
834.6665529956
 20
884.8567190269
 10
834.5621815373
 20
884.8113002876
 10
834.526940291
 20
884.7959818939
  0
ARC
  5
278
330
1F
100
AcDbEntity
  8
0
  6
Continuous
 62
     7
370
    15
100
AcDbCircle
 10
848.4071889187
 20
916.2385875801
 30
0.0
 40
23.30000000000005
100
AcDbArc
 50
293.5
 51
90.0
  0
LWPOLYLINE
  5
279
330
1F
100
AcDbEntity
  8
0
  6
Continuous
 62
     7
370
    15
100
AcDbPolyline
 90
        3
 70
   128
 43
0.0
 10
757.0903795261
 20
938.3385958771
 10
756.8465182979
 20
938.3145752052
 10
756.6303806801
 20
938.25085784
  0
LINE
  5
27A
330
1F
100
AcDbEntity
  8
0
  6
Continuous
 62
     7
370
    15
100
AcDbLine
 10
757.0903795261
 20
939.5386161903
 30
0.0
 11
756.6303806801
 21
939.495045195
 31
0.0
  0
ARC
  5
27B
330
1F
100
AcDbEntity
  8
0
  6
Continuous
 62
     7
370
    15
100
AcDbCircle
 10
108.1172854499
 20
218.6063413837
 30
0.0
 40
2.370938006496676
100
AcDbArc
 50
113.0132178524
 51
156.6604371554
  0
LINE
  5
27C
330
1F
100
AcDbEntity
  8
0
  6
Continuous
 62
     7
370
    15
100
AcDbLine
 10
105.1404001613
 20
219.5456586481
 30
0.0
 11
105.9403540988
 21
219.5456586481
 31
0.0
  0
LWPOLYLINE
  5
27D
330
1F
100
AcDbEntity
  8
0
  6
Continuous
 62
     7
370
    15
100
AcDbPolyline
 90
       18
 70
   128
 43
0.0
 10
107.190382709
 20
220.7885875522
 10
106.945407619
 20
220.6938006837
 10
106.7023994823
 20
220.5984149749
 10
106.4649941821
 20
220.5024099365
 10
106.2712790866
 20
220.4207232843
 10
106.0871007342
 20
220.3389335462
 10
105.9146644969
 20
220.2571085926
 10
105.8333041568
 20
220.2161279546
 10
105.6822063823
 20
220.1344411277
 10
105.5469634433
 20
220.0526496434
 10
105.4292442699
 20
219.9708249808
 10
105.3773286243
 20
219.9298451868
 10
105.2883388896
 20
219.8481585636
 10
105.2196147342
 20
219.766366148
 10
105.1718714137
 20
219.6845411071
 10
105.1560761828
 20
219.6435621498
 10
105.1443340678
 20
219.5946923365
 10
105.1404001613
 20
219.5456586481
  0
LINE
  5
27E
330
1F
100
AcDbEntity
  8
0
  6
Continuous
 62
     7
370
    15
100
AcDbLine
 10
809.3403804072
 20
220.7885875522
 30
0.0
 11
809.3403804072
 21
218.7385876003
 31
0.0
  0
LINE
  5
27F
330
1F
100
AcDbEntity
  8
0
  6
Continuous
 62
     7
370
    15
100
AcDbLine
 10
105.9474470515
 20
218.7385876003
 30
0.0
 11
809.3403804072
 21
218.7385876003
 31
0.0
  0
ARC
  5
280
330
1F
100
AcDbEntity
  8
0
  6
Continuous
 62
     7
370
    15
100
AcDbCircle
 10
104.0081762356
 20
221.3161892571
 30
0.0
 40
3.225647469644024
100
AcDbArc
 50
306.956146641
 51
350.5861412867
  0
ARC
  5
281
330
1F
100
AcDbEntity
  8
0
  6
Continuous
 62
     7
370
    15
100
AcDbCircle
 10
105.1355475223
 20
221.5888543176
 30
0.0
 40
2.205169957229784
100
AcDbArc
 50
291.6034183984
 51
338.7213026423
  0
LINE
  5
282
330
1F
100
AcDbEntity
  8
0
  6
Continuous
 62
     7
370
    15
100
AcDbLine
 10
105.9474470515
 20
219.5385875801
 30
0.0
 11
105.9474470515
 21
218.7385876003
 31
0.0
  0
LINE
  5
283
330
1F
100
AcDbEntity
  8
0
  6
Continuous
 62
     7
370
    15
100
AcDbLine
 10
105.1404001613
 20
219.5456586481
 30
0.0
 11
105.1404001613
 21
901.0315122703
 31
0.0
  0
ARC
  5
284
330
1F
100
AcDbEntity
  8
0
  6
Continuous
 62
     7
370
    15
100
AcDbCircle
 10
107.6630766974
 20
902.8801873094
 30
0.0
 40
3.127538378011092
100
AcDbArc
 50
216.2348135498
 51
261.3070430727
  0
ARC
  5
285
330
1F
100
AcDbEntity
  8
0
  6
Continuous
 62
     7
370
    15
100
AcDbCircle
 10
809.5903804202
 20
222.2885875801
 30
0.0
 40
1.5
100
AcDbArc
 50
270.0
 51
0.0
  0
LINE
  5
286
330
1F
100
AcDbEntity
  8
0
  6
Continuous
 62
     7
370
    15
100
AcDbLine
 10
809.5903804482
 20
220.7885875522
 30
0.0
 11
809.3403804072
 21
220.7885875522
 31
0.0
  0
LINE
  5
287
330
1F
100
AcDbEntity
  8
0
  6
Continuous
 62
     7
370
    15
100
AcDbLine
 10
811.0903804321
 20
222.5385876062
 30
0.0
 11
811.0903804321
 21
222.2885875652
 31
0.0
  0
ARC
  5
288
330
1F
100
AcDbEntity
  8
0
  6
Continuous
 62
     7
370
    15
100
AcDbCircle
 10
105.1354614691
 20
898.9882712545
 30
0.0
 40
2.205264149430557
100
AcDbArc
 50
21.2788203224
 51
68.3951459961
  0
LINE
  5
289
330
1F
100
AcDbEntity
  8
0
  6
Continuous
 62
     7
370
    15
100
AcDbLine
 10
105.9474470515
 20
901.8385591606
 30
0.0
 11
105.9474470515
 21
901.0386052231
 31
0.0
  0
ARC
  5
28A
330
1F
100
AcDbEntity
  8
0
  6
Continuous
 62
     7
370
    15
100
AcDbCircle
 10
104.0083725298
 20
899.2610720406
 30
0.0
 40
3.225437932239904
100
AcDbArc
 50
9.4127268481
 51
53.0454165294
  0
ARC
  5
28B
330
1F
100
AcDbEntity
  8
0
  6
Continuous
 62
     7
370
    15
100
AcDbCircle
 10
107.9367811285
 20
901.7892832878
 30
0.0
 40
2.135401086394823
100
AcDbArc
 50
200.7849386218
 51
249.5410950597
  0
LINE
  5
28C
330
1F
100
AcDbEntity
  8
0
  6
Continuous
 62
     7
370
    15
100
AcDbLine
 10
105.1404001613
 20
901.0315122703
 30
0.0
 11
105.9403540988
 21
901.0315122703
 31
0.0
  0
LINE
  5
28D
330
1F
100
AcDbEntity
  8
0
  6
Continuous
 62
     7
370
    15
100
AcDbLine
 10
812.3333093666
 20
901.8385591606
 30
0.0
 11
105.9474470515
 21
901.8385591606
 31
0.0
  0
ARC
  5
28E
330
1F
100
AcDbEntity
  8
0
  6
Continuous
 62
     7
370
    15
100
AcDbCircle
 10
814.2725890901
 20
899.2609580598
 30
0.0
 40
3.22565238065046
100
AcDbArc
 50
126.956279013
 51
170.5858523992
  0
ARC
  5
28F
330
1F
100
AcDbEntity
  8
0
  6
Continuous
 62
     7
370
    15
100
AcDbCircle
 10
810.5208569633
 20
903.0399257182
 30
0.0
 40
3.300852615060295
100
AcDbArc
 50
279.935433569
 51
322.5222763395
  0
LINE
  5
290
330
1F
100
AcDbEntity
  8
0
  6
Continuous
 62
     7
370
    15
100
AcDbLine
 10
813.1403804712
 20
222.5385876062
 30
0.0
 11
813.1403804712
 21
761.9885983566
 31
0.0
  0
LINE
  5
291
330
1F
100
AcDbEntity
  8
0
  6
Continuous
 62
     7
370
    15
100
AcDbLine
 10
813.1403804712
 20
762.7886118988
 30
0.0
 11
813.1403804712
 21
763.7885990242
 31
0.0
  0
LINE
  5
292
330
1F
100
AcDbEntity
  8
0
  6
Continuous
 62
     7
370
    15
100
AcDbLine
 10
813.1403804712
 20
882.4762883285
 30
0.0
 11
813.1403804712
 21
883.4762754539
 31
0.0
  0
LINE
  5
293
330
1F
100
AcDbEntity
  8
0
  6
Continuous
 62
     7
370
    15
100
AcDbLine
 10
813.1403804712
 20
884.2762889961
 30
0.0
 11
813.1403804712
 21
901.0315122703
 31
0.0
  0
LINE
  5
294
330
1F
100
AcDbEntity
  8
0
  6
Continuous
 62
     7
370
    15
100
AcDbLine
 10
813.1403804712
 20
222.5385876062
 30
0.0
 11
811.0903804321
 21
222.5385876062
 31
0.0
  0
ARC
  5
295
330
1F
100
AcDbEntity
  8
0
  6
Continuous
 62
     7
370
    15
100
AcDbCircle
 10
813.1454061805
 20
898.9881717066
 30
0.0
 40
2.205397660402786
100
AcDbArc
 50
111.606588496
 51
158.7197550917
  0
LINE
  5
296
330
1F
100
AcDbEntity
  8
0
  6
Continuous
 62
     7
370
    15
100
AcDbLine
 10
812.3333093666
 20
901.0386052231
 30
0.0
 11
812.3333093666
 21
901.8385591606
 31
0.0
  0
ARC
  5
297
330
1F
100
AcDbEntity
  8
0
  6
Continuous
 62
     7
370
    15
100
AcDbCircle
 10
810.1969784973
 20
901.9370763595
 30
0.0
 40
2.326847261540139
100
AcDbArc
 50
292.5788085455
 51
337.0964690798
  0
LINE
  5
298
330
1F
100
AcDbEntity
  8
0
  6
Continuous
 62
     7
370
    15
100
AcDbLine
 10
813.1403804712
 20
901.0315122703
 30
0.0
 11
812.3403804332
 21
901.0315122703
 31
0.0
  0
LINE
  5
299
330
1F
100
AcDbEntity
  8
0
  6
Continuous
 62
     7
370
    15
100
AcDbLine
 10
133.9403512378
 20
901.9385757545
 30
0.0
 11
133.9403512378
 21
901.8385591606
 31
0.0
  0
LINE
  5
29A
330
1F
100
AcDbEntity
  8
0
  6
Continuous
 62
     7
370
    15
100
AcDbLine
 10
812.3333093666
 20
901.8385591606
 30
0.0
 11
812.3333093666
 21
901.9385757545
 31
0.0
  0
LINE
  5
29B
330
1F
100
AcDbEntity
  8
0
  6
Continuous
 62
     7
370
    15
100
AcDbLine
 10
756.6303806801
 20
911.8386092285
 30
0.0
 11
757.107188036
 21
911.8386092285
 31
0.0
  0
LINE
  5
29C
330
1F
100
AcDbEntity
  8
0
  6
Continuous
 62
     7
370
    15
100
AcDbLine
 10
205.6403877635
 20
49.538585792
 30
0.0
 11
152.6403548617
 21
49.538585792
 31
0.0
  0
LINE
  5
29D
330
1F
100
AcDbEntity
  8
0
  6
Continuous
 62
     7
370
    15
100
AcDbLine
 10
207.6403620143
 20
55.5385830501
 30
0.0
 11
150.6403806109
 21
55.5385830501
 31
0.0
  0
LINE
  5
29E
330
1F
100
AcDbEntity
  8
0
  6
Continuous
 62
     7
370
    15
100
AcDbLine
 10
792.6403796722
 20
55.5385830501
 30
0.0
 11
735.640381505
 21
55.5385830501
 31
0.0
  0
LINE
  5
29F
330
1F
100
AcDbEntity
  8
0
  6
Continuous
 62
     7
370
    15
100
AcDbLine
 10
790.640381207
 20
49.538585792
 30
0.0
 11
737.6403781076
 21
49.538585792
 31
0.0
  0
LINE
  5
2A0
330
1F
100
AcDbEntity
  8
0
  6
Continuous
 62
     7
370
    15
100
AcDbLine
 10
224.1403581996
 20
217.5385874851
 30
0.0
 11
224.1403581996
 21
218.7385876003
 31
0.0
  0
LINE
  5
2A1
330
1F
100
AcDbEntity
  8
0
  6
Continuous
 62
     7
370
    15
100
AcDbLine
 10
134.1403844256
 20
217.5385874851
 30
0.0
 11
224.1403581996
 21
217.5385874851
 31
0.0
  0
LINE
  5
2A2
330
1F
100
AcDbEntity
  8
0
  6
Continuous
 62
     7
370
    15
100
AcDbLine
 10
134.1403844256
 20
217.5385874851
 30
0.0
 11
134.1403844256
 21
218.7385876003
 31
0.0
  0
LINE
  5
2A3
330
1F
100
AcDbEntity
  8
0
  6
Continuous
 62
     7
370
    15
100
AcDbLine
 10
210.1000072856
 20
123.5385867456
 30
0.0
 11
148.1807353396
 21
123.5385867456
 31
0.0
  0
LINE
  5
2A4
330
1F
100
AcDbEntity
  8
0
  6
Continuous
 62
     7
370
    15
100
AcDbLine
 10
809.1403803977
 20
217.5385874851
 30
0.0
 11
809.1403803977
 21
218.7385876003
 31
0.0
  0
LINE
  5
2A5
330
1F
100
AcDbEntity
  8
0
  6
Continuous
 62
     7
370
    15
100
AcDbLine
 10
719.1403778691
 20
217.5385874851
 30
0.0
 11
719.1403778691
 21
218.7385876003
 31
0.0
  0
LINE
  5
2A6
330
1F
100
AcDbEntity
  8
0
  6
Continuous
 62
     7
370
    15
100
AcDbLine
 10
719.1403778691
 20
217.5385874851
 30
0.0
 11
809.1403803977
 21
217.5385874851
 31
0.0
  0
LINE
  5
2A7
330
1F
100
AcDbEntity
  8
0
  6
Continuous
 62
     7
370
    15
100
AcDbLine
 10
795.1000305314
 20
123.5385867456
 30
0.0
 11
733.1807287831
 21
123.5385867456
 31
0.0
  0
LINE
  5
2A8
330
1F
100
AcDbEntity
  8
0
  6
Continuous
 62
     7
370
    15
100
AcDbLine
 10
95.140409698
 20
357.705536733
 30
0.0
 11
95.140409698
 21
351.9921931127
 31
0.0
  0
LINE
  5
2A9
330
1F
100
AcDbEntity
  8
0
  6
Continuous
 62
     7
370
    15
100
AcDbLine
 10
88.3403541942
 20
352.3792358736
 30
0.0
 11
88.3403541942
 21
358.0925794939
 31
0.0
  0
ARC
  5
2AA
330
1F
100
AcDbEntity
  8
0
  6
Continuous
 62
     7
370
    15
100
AcDbCircle
 10
94.9210669295
 20
351.9282817627
 30
0.0
 40
0.2219401327704399
100
AcDbArc
 50
262.0493676316
 51
351.22573802
  0
LINE
  5
2AB
330
1F
100
AcDbEntity
  8
0
  6
Continuous
 62
     7
370
    15
100
AcDbLine
 10
95.140409698
 20
351.8944265942
 30
0.0
 11
95.140409698
 21
345.5553385118
 31
0.0
  0
ARC
  5
2AC
330
1F
100
AcDbEntity
  8
0
  6
Continuous
 62
     7
370
    15
100
AcDbCircle
 10
94.1582265086
 20
351.9262674973
 30
0.0
 40
0.2201518922198643
100
AcDbArc
 50
188.3159419969
 51
278.3958700033
  0
LINE
  5
2AD
330
1F
100
AcDbEntity
  8
0
  6
Continuous
 62
     7
370
    15
100
AcDbLine
 10
93.9403893847
 20
346.0661205152
 30
0.0
 11
93.9403893847
 21
351.8944265942
 31
0.0
  0
LINE
  5
2AE
330
1F
100
AcDbEntity
  8
0
  6
Continuous
 62
     7
370
    15
100
AcDbLine
 10
94.1903712649
 20
351.7084750036
 30
0.0
 11
94.8903682132
 21
351.7084750036
 31
0.0
  0
LINE
  5
2AF
330
1F
100
AcDbEntity
  8
0
  6
Continuous
 62
     7
370
    15
100
AcDbLine
 10
88.3403541942
 20
352.1541538338
 30
0.0
 11
88.3403541942
 21
352.3792358736
 31
0.0
  0
LINE
  5
2B0
330
1F
100
AcDbEntity
  8
0
  6
Continuous
 62
     7
370
    15
100
AcDbLine
 10
95.140409698
 20
351.9921931127
 30
0.0
 11
95.140409698
 21
351.8944265942
 31
0.0
  0
LINE
  5
2B1
330
1F
100
AcDbEntity
  8
0
  6
Continuous
 62
     7
370
    15
100
AcDbLine
 10
95.140409698
 20
360.7885869841
 30
0.0
 11
95.140409698
 21
357.6077702145
 31
0.0
  0
LINE
  5
2B2
330
1F
100
AcDbEntity
  8
0
  6
Continuous
 62
     7
370
    15
100
AcDbLine
 10
93.9403893847
 20
358.4411027531
 30
0.0
 11
93.9403893847
 21
360.7885869841
 31
0.0
  0
LINE
  5
2B3
330
1F
100
AcDbEntity
  8
0
  6
Continuous
 62
     7
370
    15
100
AcDbLine
 10
88.3403541942
 20
346.8096735577
 30
0.0
 11
88.3403541942
 21
347.3137500385
 31
0.0
  0
LINE
  5
2B4
330
1F
100
AcDbEntity
  8
0
  6
Continuous
 62
     7
370
    15
100
AcDbLine
 10
88.3403541942
 20
346.584606419
 30
0.0
 11
88.3403541942
 21
346.8096735577
 31
0.0
  0
ARC
  5
2B5
330
1F
100
AcDbEntity
  8
0
  6
Continuous
 62
     7
370
    15
100
AcDbCircle
 10
93.6932831804
 20
360.7993890473
 30
0.0
 40
0.2390481026626254
100
AcDbArc
 50
42.0996950499
 51
90.6892673879
  0
LWPOLYLINE
  5
2B6
330
1F
100
AcDbEntity
  8
0
  6
Continuous
 62
     7
370
    15
100
AcDbPolyline
 90
        7
 70
   128
 43
0.0
 10
93.6904075046
 20
346.0294785599
 10
93.7627079387
 20
346.032265077
 10
93.8266637225
 20
346.040028582
 10
93.8801886935
 20
346.0523816446
 10
93.9212562938
 20
346.0701885322
 10
93.9403893847
 20
346.0954609016
 10
93.9403893847
 20
346.0962059597
  0
LINE
  5
2B7
330
1F
100
AcDbEntity
  8
0
  6
Continuous
 62
     7
370
    15
100
AcDbLine
 10
93.9403893847
 20
360.7877972225
 30
0.0
 11
93.9403893847
 21
358.3359750608
 31
0.0
  0
LINE
  5
2B8
330
1F
100
AcDbEntity
  8
0
  6
Continuous
 62
     7
370
    15
100
AcDbLine
 10
93.9403893847
 20
351.9921931127
 30
0.0
 11
93.9403893847
 21
346.0962059597
 31
0.0
  0
LWPOLYLINE
  5
2B9
330
1F
100
AcDbEntity
  8
0
  6
Continuous
 62
     7
370
    15
100
AcDbPolyline
 90
        7
 70
   128
 43
0.0
 10
92.7403690715
 20
346.0962059597
 10
92.7403690715
 20
346.0954609016
 10
92.7595021625
 20
346.0701885322
 10
92.8005697627
 20
346.0523816446
 10
92.8540947337
 20
346.040028582
 10
92.9180505176
 20
346.032265077
 10
92.9903509517
 20
346.0294785599
  0
LINE
  5
2BA
330
1F
100
AcDbEntity
  8
0
  6
Continuous
 62
     7
370
    15
100
AcDbLine
 10
92.7403690715
 20
346.0962059597
 30
0.0
 11
92.7403690715
 21
351.9041570524
 31
0.0
  0
LINE
  5
2BB
330
1F
100
AcDbEntity
  8
0
  6
Continuous
 62
     7
370
    15
100
AcDbLine
 10
92.7403690715
 20
358.3425762752
 30
0.0
 11
92.7403690715
 21
360.7877972225
 31
0.0
  0
LINE
  5
2BC
330
1F
100
AcDbEntity
  8
0
  6
Continuous
 62
     7
370
    15
100
AcDbLine
 10
93.6904075046
 20
361.0384198526
 30
0.0
 11
92.9903509517
 21
361.0384198526
 31
0.0
  0
LINE
  5
2BD
330
1F
100
AcDbEntity
  8
0
  6
Continuous
 62
     7
370
    15
100
AcDbLine
 10
93.6904075046
 20
346.0294785599
 30
0.0
 11
92.9903509517
 21
346.0294785599
 31
0.0
  0
ARC
  5
2BE
330
1F
100
AcDbEntity
  8
0
  6
Continuous
 62
     7
370
    15
100
AcDbCircle
 10
94.1755495061
 20
343.5989564631
 30
0.0
 40
1.435198775571072
100
AcDbArc
 50
180.2896629651
 51
270.5917224405
  0
ARC
  5
2BF
330
1F
100
AcDbEntity
  8
0
  6
Continuous
 62
     7
370
    15
100
AcDbCircle
 10
94.1535204965
 20
345.8393672965
 30
0.0
 40
1.41374149175974
100
AcDbArc
 50
181.6554584763
 51
271.4936483664
  0
LINE
  5
2C0
330
1F
100
AcDbEntity
  8
0
  6
Continuous
 62
     7
370
    15
100
AcDbLine
 10
92.7403690715
 20
343.5917007426
 30
0.0
 11
92.7403690715
 21
345.7985254625
 31
0.0
  0
LINE
  5
2C1
330
1F
100
AcDbEntity
  8
0
  6
Continuous
 62
     7
370
    15
100
AcDbLine
 10
99.5403649707
 20
344.6200373272
 30
0.0
 11
99.5403649707
 21
342.4132126073
 31
0.0
  0
LINE
  5
2C2
330
1F
100
AcDbEntity
  8
0
  6
Continuous
 62
     7
370
    15
100
AcDbLine
 10
99.5403649707
 20
345.3053417305
 30
0.0
 11
99.5403649707
 21
344.6200373272
 31
0.0
  0
LINE
  5
2C3
330
1F
100
AcDbEntity
  8
0
  6
Continuous
 62
     7
370
    15
100
AcDbLine
 10
93.9403893847
 20
346.0962059597
 30
0.0
 11
93.9403893847
 21
345.7985254625
 31
0.0
  0
LINE
  5
2C4
330
1F
100
AcDbEntity
  8
0
  6
Continuous
 62
     7
370
    15
100
AcDbLine
 10
92.7403690715
 20
345.7985254625
 30
0.0
 11
92.7403690715
 21
346.0962059597
 31
0.0
  0
LINE
  5
2C5
330
1F
100
AcDbEntity
  8
0
  6
Continuous
 62
     7
370
    15
100
AcDbLine
 10
94.1903712649
 20
342.1638342241
 30
0.0
 11
94.1903712649
 21
342.1632158259
 31
0.0
  0
LINE
  5
2C6
330
1F
100
AcDbEntity
  8
0
  6
Continuous
 62
     7
370
    15
100
AcDbLine
 10
93.9403893847
 20
361.0854777197
 30
0.0
 11
93.9403893847
 21
360.7885869841
 31
0.0
  0
LINE
  5
2C7
330
1F
100
AcDbEntity
  8
0
  6
Continuous
 62
     7
370
    15
100
AcDbLine
 10
92.7403690715
 20
360.7877972225
 30
0.0
 11
92.7403690715
 21
361.0854777197
 31
0.0
  0
ARC
  5
2C8
330
1F
100
AcDbEntity
  8
0
  6
Continuous
 62
     7
370
    15
100
AcDbCircle
 10
94.1765506525
 20
361.0771978387
 30
0.0
 40
1.436205448383997
100
AcDbArc
 50
89.4486339069
 51
179.6696817537
  0
ARC
  5
2C9
330
1F
100
AcDbEntity
  8
0
  6
Continuous
 62
     7
370
    15
100
AcDbCircle
 10
94.1866261376
 20
361.082693983
 30
0.0
 40
0.2462524875952335
100
AcDbArc
 50
89.1285843858
 51
179.3522917837
  0
LINE
  5
2CA
330
1F
100
AcDbEntity
  8
0
  6
Continuous
 62
     7
370
    15
100
AcDbLine
 10
99.5403649707
 20
362.263965855
 30
0.0
 11
99.5403649707
 21
361.5786465505
 31
0.0
  0
LINE
  5
2CB
330
1F
100
AcDbEntity
  8
0
  6
Continuous
 62
     7
370
    15
100
AcDbLine
 10
99.5403649707
 20
361.5786465505
 30
0.0
 11
99.5403649707
 21
359.3718292812
 31
0.0
  0
ARC
  5
2CC
330
1F
100
AcDbEntity
  8
0
  6
Continuous
 62
     7
370
    15
100
AcDbCircle
 10
90.3192270562
 20
351.3421535377
 30
0.0
 40
10.0218532996614
100
AcDbArc
 50
0.6780881019
 51
17.1819361237
  0
ARC
  5
2CD
330
1F
100
AcDbEntity
  8
0
  6
Continuous
 62
     7
370
    15
100
AcDbCircle
 10
90.4154610526
 20
351.5642566155
 30
0.0
 40
9.925457094541647
100
AcDbArc
 50
342.7373508915
 51
359.4025327454
  0
LINE
  5
2CE
330
1F
100
AcDbEntity
  8
0
  6
Continuous
 62
     7
370
    15
100
AcDbLine
 10
99.8938205142
 20
348.6188533405
 30
0.0
 11
95.5869676967
 21
348.6188533405
 31
0.0
  0
ARC
  5
2CF
330
1F
100
AcDbEntity
  8
0
  6
Continuous
 62
     7
370
    15
100
AcDbCircle
 10
105.0567091484
 20
351.5629024388
 30
0.0
 40
9.916825513043905
100
AcDbArc
 50
180.5901629508
 51
197.2699534123
  0
ARC
  5
2D0
330
1F
100
AcDbEntity
  8
0
  6
Continuous
 62
     7
370
    15
100
AcDbCircle
 10
105.1748121811
 20
351.3400713706
 30
0.0
 40
10.03512822433093
100
AcDbArc
 50
162.8290558518
 51
179.3109199226
  0
LINE
  5
2D1
330
1F
100
AcDbEntity
  8
0
  6
Continuous
 62
     7
370
    15
100
AcDbLine
 10
99.8938205142
 20
354.3026777605
 30
0.0
 11
95.5869676967
 21
354.3026777605
 31
0.0
  0
ARC
  5
2D2
330
1F
100
AcDbEntity
  8
0
  6
Continuous
 62
     7
370
    15
100
AcDbCircle
 10
95.7415600311
 20
356.2831871168
 30
0.0
 40
4.600400464058279
100
AcDbArc
 50
334.5001944684
 51
358.4973664855
  0
LINE
  5
2D3
330
1F
100
AcDbEntity
  8
0
  6
Continuous
 62
     7
370
    15
100
AcDbLine
 10
100.3403785129
 20
356.1625512937
 30
0.0
 11
100.3403785129
 21
351.4607580999
 31
0.0
  0
ARC
  5
2D4
330
1F
100
AcDbEntity
  8
0
  6
Continuous
 62
     7
370
    15
100
AcDbCircle
 10
99.7361792638
 20
356.2824550682
 30
0.0
 40
4.59733344633495
100
AcDbArc
 50
181.4945096762
 51
205.5079293699
  0
ARC
  5
2D5
330
1F
100
AcDbEntity
  8
0
  6
Continuous
 62
     7
370
    15
100
AcDbCircle
 10
96.7088515543
 20
347.5161551054
 30
0.0
 40
1.57307558231109
100
AcDbArc
 50
135.494127841
 51
175.6011953511
  0
LWPOLYLINE
  5
2D6
330
1F
100
AcDbEntity
  8
0
  6
Continuous
 62
     7
370
    15
100
AcDbPolyline
 90
        3
 70
   128
 43
0.0
 10
99.8938205142
 20
348.6188533405
 10
100.2178313632
 20
348.1377246479
 10
100.3403785129
 20
347.6368072132
  0
LINE
  5
2D7
330
1F
100
AcDbEntity
  8
0
  6
Continuous
 62
     7
370
    15
100
AcDbLine
 10
100.3403785129
 20
351.4607580999
 30
0.0
 11
100.3403785129
 21
347.6368072132
 31
0.0
  0
ARC
  5
2D8
330
1F
100
AcDbEntity
  8
0
  6
Continuous
 62
     7
370
    15
100
AcDbCircle
 10
99.617065392
 20
356.0712312785
 30
0.0
 40
4.477587022921841
100
AcDbArc
 50
154.1659762177
 51
178.8313763132
  0
LINE
  5
2D9
330
1F
100
AcDbEntity
  8
0
  6
Continuous
 62
     7
370
    15
100
AcDbLine
 10
99.8938205142
 20
358.0224099258
 30
0.0
 11
95.5869676967
 21
358.0224099258
 31
0.0
  0
ARC
  5
2DA
330
1F
100
AcDbEntity
  8
0
  6
Continuous
 62
     7
370
    15
100
AcDbCircle
 10
95.8623229322
 20
356.0708951612
 30
0.0
 40
4.478993484008969
100
AcDbArc
 50
1.1725572194
 51
25.8300902497
  0
ARC
  5
2DB
330
1F
100
AcDbEntity
  8
0
  6
Continuous
 62
     7
370
    15
100
AcDbCircle
 10
98.8886961115
 20
347.7043662258
 30
0.0
 40
1.453253596079121
100
AcDbArc
 50
313.7598560024
 51
357.3354671897
  0
LINE
  5
2DC
330
1F
100
AcDbEntity
  8
0
  6
Continuous
 62
     7
370
    15
100
AcDbLine
 10
99.8938205142
 20
346.6547610859
 30
0.0
 11
95.5869676967
 21
346.6547610859
 31
0.0
  0
LINE
  5
2DD
330
1F
100
AcDbEntity
  8
0
  6
Continuous
 62
     7
370
    15
100
AcDbLine
 10
95.3361513515
 20
347.021582971
 30
0.0
 11
95.5869676967
 21
346.6547610859
 31
0.0
  0
LINE
  5
2DE
330
1F
100
AcDbEntity
  8
0
  6
Continuous
 62
     7
370
    15
100
AcDbLine
 10
95.3361513515
 20
357.6555880407
 30
0.0
 11
95.5869676967
 21
358.0224099258
 31
0.0
  0
LINE
  5
2DF
330
1F
100
AcDbEntity
  8
0
  6
Continuous
 62
     7
370
    15
100
AcDbLine
 10
100.1446368594
 20
357.6555880407
 30
0.0
 11
99.8938205142
 21
358.0224099258
 31
0.0
  0
LINE
  5
2E0
330
1F
100
AcDbEntity
  8
0
  6
Continuous
 62
     7
370
    15
100
AcDbLine
 10
100.3403785129
 20
356.1625512937
 30
0.0
 11
100.3403785129
 21
357.3385807375
 31
0.0
  0
LINE
  5
2E1
330
1F
100
AcDbEntity
  8
0
  6
Continuous
 62
     7
370
    15
100
AcDbLine
 10
100.3403785129
 20
347.6368072132
 30
0.0
 11
100.3403785129
 21
347.3385902742
 31
0.0
  0
ARC
  5
2E2
330
1F
100
AcDbEntity
  8
0
  6
Continuous
 62
     7
370
    15
100
AcDbCircle
 10
85.8798328015
 20
349.8745727246
 30
0.0
 40
6.860536466132156
100
AcDbArc
 50
0.0137014522
 51
17.2075927122
  0
ARC
  5
2E3
330
1F
100
AcDbEntity
  8
0
  6
Continuous
 62
     7
370
    15
100
AcDbCircle
 10
84.8978577749
 20
349.9742417029
 30
0.0
 40
7.843123931264943
100
AcDbArc
 50
340.5591584505
 51
359.2838620443
  0
LINE
  5
2E4
330
1F
100
AcDbEntity
  8
0
  6
Continuous
 62
     7
370
    15
100
AcDbLine
 10
92.2938110728
 20
347.3637881378
 30
0.0
 11
87.9869582553
 21
347.3637881378
 31
0.0
  0
ARC
  5
2E5
330
1F
100
AcDbEntity
  8
0
  6
Continuous
 62
     7
370
    15
100
AcDbCircle
 10
95.3761262699
 20
349.9730356878
 30
0.0
 40
7.836324184510881
100
AcDbArc
 50
180.7079408596
 51
199.4490386456
  0
ARC
  5
2E6
330
1F
100
AcDbEntity
  8
0
  6
Continuous
 62
     7
370
    15
100
AcDbCircle
 10
95.4767733398
 20
349.7614863827
 30
0.0
 40
7.937202277010168
100
AcDbArc
 50
160.6711043281
 51
179.1717990662
  0
LINE
  5
2E7
330
1F
100
AcDbEntity
  8
0
  6
Continuous
 62
     7
370
    15
100
AcDbLine
 10
88.3403541942
 20
352.3886236051
 30
0.0
 11
87.9869582553
 21
352.3886236051
 31
0.0
  0
ARC
  5
2E8
330
1F
100
AcDbEntity
  8
0
  6
Continuous
 62
     7
370
    15
100
AcDbCircle
 10
95.4088436692
 20
355.0048452941
 30
0.0
 40
7.869498015945098
100
AcDbArc
 50
180.9380231255
 51
199.4176027611
  0
LINE
  5
2E9
330
1F
100
AcDbEntity
  8
0
  6
Continuous
 62
     7
370
    15
100
AcDbLine
 10
87.5404002566
 20
349.8762133221
 30
0.0
 11
87.5404002566
 21
354.8760148386
 31
0.0
  0
ARC
  5
2EA
330
1F
100
AcDbEntity
  8
0
  6
Continuous
 62
     7
370
    15
100
AcDbCircle
 10
95.2399823759
 20
354.7775153149
 30
0.0
 40
7.70021213781953
100
AcDbArc
 50
160.3774292773
 51
179.2670642303
  0
LINE
  5
2EB
330
1F
100
AcDbEntity
  8
0
  6
Continuous
 62
     7
370
    15
100
AcDbLine
 10
88.3403541942
 20
357.3634209732
 30
0.0
 11
87.9869582553
 21
357.3634209732
 31
0.0
  0
ARC
  5
2EC
330
1F
100
AcDbEntity
  8
0
  6
Continuous
 62
     7
370
    15
100
AcDbCircle
 10
87.9612434675
 20
343.8250104223
 30
0.0
 40
3.538871143435034
100
AcDbArc
 50
89.5836633445
 51
96.829787493
  0
LINE
  5
2ED
330
1F
100
AcDbEntity
  8
0
  6
Continuous
 62
     7
370
    15
100
AcDbLine
 10
87.5404002566
 20
347.3387690882
 30
0.0
 11
87.5404002566
 21
349.8762133221
 31
0.0
  0
LWPOLYLINE
  5
2EE
330
1F
100
AcDbEntity
  8
0
  6
Continuous
 62
     7
370
    15
100
AcDbPolyline
 90
        3
 70
   128
 43
0.0
 10
92.2938110728
 20
347.3637881378
 10
92.6178219218
 20
347.3515393833
 10
92.7403690715
 20
347.3387690882
  0
ARC
  5
2EF
330
1F
100
AcDbEntity
  8
0
  6
Continuous
 62
     7
370
    15
100
AcDbCircle
 10
87.8744542696
 20
355.3737193058
 30
0.0
 40
1.99287979365575
100
AcDbArc
 50
86.7637625025
 51
99.649688335
  0
LINE
  5
2F0
330
1F
100
AcDbEntity
  8
0
  6
Continuous
 62
     7
370
    15
100
AcDbLine
 10
87.5404002566
 20
354.8760148386
 30
0.0
 11
87.5404002566
 21
357.3384019235
 31
0.0
  0
ARC
  5
2F1
330
1F
100
AcDbEntity
  8
0
  6
Continuous
 62
     7
370
    15
100
AcDbCircle
 10
92.4060705053
 20
349.3078166682
 30
0.0
 40
1.997224049507266
100
AcDbArc
 50
266.7778360707
 51
279.6356147668
  0
LINE
  5
2F2
330
1F
100
AcDbEntity
  8
0
  6
Continuous
 62
     7
370
    15
100
AcDbLine
 10
92.2938110728
 20
347.3137500385
 30
0.0
 11
87.9869582553
 21
347.3137500385
 31
0.0
  0
ARC
  5
2F3
330
1F
100
AcDbEntity
  8
0
  6
Continuous
 62
     7
370
    15
100
AcDbCircle
 10
87.8744542696
 20
349.3034517059
 30
0.0
 40
1.992879793655637
100
AcDbArc
 50
260.350311665
 51
273.2362374975
  0
LINE
  5
2F4
330
1F
100
AcDbEntity
  8
0
  6
Continuous
 62
     7
370
    15
100
AcDbLine
 10
105.1404001613
 20
351.1675926546
 30
0.0
 11
101.0369779964
 21
351.1675926546
 31
0.0
  0
ARC
  5
2F5
330
1F
100
AcDbEntity
  8
0
  6
Continuous
 62
     7
370
    15
100
AcDbCircle
 10
109.8478606543
 20
354.0101286787
 30
0.0
 40
9.258059421924147
100
AcDbArc
 50
180.6297209676
 51
197.8805566907
  0
ARC
  5
2F6
330
1F
100
AcDbEntity
  8
0
  6
Continuous
 62
     7
370
    15
100
AcDbCircle
 10
109.9536555453
 20
353.789388057
 30
0.0
 40
9.364051193046658
100
AcDbArc
 50
162.2178060068
 51
179.2719163349
  0
LINE
  5
2F7
330
1F
100
AcDbEntity
  8
0
  6
Continuous
 62
     7
370
    15
100
AcDbLine
 10
105.1404001613
 20
356.6491636137
 30
0.0
 11
101.0369779964
 21
356.6491636137
 31
0.0
  0
ARC
  5
2F8
330
1F
100
AcDbEntity
  8
0
  6
Continuous
 62
     7
370
    15
100
AcDbCircle
 10
106.5410371283
 20
348.90312665
 30
0.0
 40
5.951678184630871
100
AcDbArc
 50
157.6368786657
 51
178.9489133696
  0
LINE
  5
2F9
330
1F
100
AcDbEntity
  8
0
  6
Continuous
 62
     7
370
    15
100
AcDbLine
 10
100.5903603931
 20
349.0123036007
 30
0.0
 11
100.5903603931
 21
353.9083781341
 31
0.0
  0
LINE
  5
2FA
330
1F
100
AcDbEntity
  8
0
  6
Continuous
 62
     7
370
    15
100
AcDbLine
 10
105.1404001613
 20
346.8570145468
 30
0.0
 11
101.0369779964
 21
346.8570145468
 31
0.0
  0
ARC
  5
2FB
330
1F
100
AcDbEntity
  8
0
  6
Continuous
 62
     7
370
    15
100
AcDbCircle
 10
106.3105809194
 20
349.0737255649
 30
0.0
 40
5.720550281851328
100
AcDbArc
 50
180.6152007701
 51
202.7990071945
  0
ARC
  5
2FC
330
1F
100
AcDbEntity
  8
0
  6
Continuous
 62
     7
370
    15
100
AcDbCircle
 10
101.4480995184
 20
357.425856285
 30
0.0
 40
0.8787903115065201
100
AcDbArc
 50
192.5662029324
 51
242.1066884764
  0
LINE
  5
2FD
330
1F
100
AcDbEntity
  8
0
  6
Continuous
 62
     7
370
    15
100
AcDbLine
 10
100.5903603931
 20
353.9083781341
 30
0.0
 11
100.5903603931
 21
357.2346600393
 31
0.0
  0
ARC
  5
2FE
330
1F
100
AcDbEntity
  8
0
  6
Continuous
 62
     7
370
    15
100
AcDbCircle
 10
101.3885852951
 20
357.0888799493
 30
0.0
 40
0.811427648566519
100
AcDbArc
 50
115.6783994363
 51
169.6501154722
  0
LINE
  5
2FF
330
1F
100
AcDbEntity
  8
0
  6
Continuous
 62
     7
370
    15
100
AcDbLine
 10
105.1404001613
 20
357.8201713661
 30
0.0
 11
101.0369779964
 21
357.8201713661
 31
0.0
  0
ARC
  5
300
330
1F
100
AcDbEntity
  8
0
  6
Continuous
 62
     7
370
    15
100
AcDbCircle
 10
101.4480995184
 20
347.6337072181
 30
0.0
 40
0.8787903115065201
100
AcDbArc
 50
192.5662029324
 51
242.1066884764
  0
LINE
  5
301
330
1F
100
AcDbEntity
  8
0
  6
Continuous
 62
     7
370
    15
100
AcDbLine
 10
100.5903603931
 20
349.0123036007
 30
0.0
 11
100.5903603931
 21
347.3468753199
 31
0.0
  0
LINE
  5
302
330
1F
100
AcDbEntity
  8
0
  6
Continuous
 62
     7
370
    15
100
AcDbLine
 10
127.5403621097
 20
901.8385591606
 30
0.0
 11
127.5403621097
 21
901.9385757545
 31
0.0
  0
LINE
  5
303
330
1F
100
AcDbEntity
  8
0
  6
Continuous
 62
     7
370
    15
100
AcDbLine
 10
106.3403608699
 20
900.3815832237
 30
0.0
 11
106.3403608699
 21
900.8717718223
 31
0.0
  0
LINE
  5
304
330
1F
100
AcDbEntity
  8
0
  6
Continuous
 62
     7
370
    15
100
AcDbLine
 10
106.3403608699
 20
901.8385591606
 30
0.0
 11
106.3403608699
 21
901.9385757545
 31
0.0
  0
LINE
  5
305
330
1F
100
AcDbEntity
  8
0
  6
Continuous
 62
     7
370
    15
100
AcDbLine
 10
809.5903804482
 20
220.7885875522
 30
0.0
 11
809.5903804482
 21
219.5385875801
 31
0.0
  0
LINE
  5
306
330
1F
100
AcDbEntity
  8
0
  6
Continuous
 62
     7
370
    15
100
AcDbLine
 10
809.5903804482
 20
219.5385875801
 30
0.0
 11
809.3403804072
 21
219.5385875801
 31
0.0
  0
LINE
  5
307
330
1F
100
AcDbEntity
  8
0
  6
Continuous
 62
     7
370
    15
100
AcDbLine
 10
812.3403804332
 20
222.5385876062
 30
0.0
 11
812.3403804332
 21
222.2885875652
 31
0.0
  0
LINE
  5
308
330
1F
100
AcDbEntity
  8
0
  6
Continuous
 62
     7
370
    15
100
AcDbLine
 10
812.3403804332
 20
222.2885875652
 30
0.0
 11
811.0903804321
 21
222.2885875652
 31
0.0
  0
ARC
  5
309
330
1F
100
AcDbEntity
  8
0
  6
Continuous
 62
     7
370
    15
100
AcDbCircle
 10
809.5903804202
 20
222.2885875801
 30
0.0
 40
2.75
100
AcDbArc
 50
270.0
 51
0.0
  0
LINE
  5
30A
330
1F
100
AcDbEntity
  8
0
  6
Continuous
 62
     7
370
    15
100
AcDbLine
 10
261.7904069324
 20
218.7385876003
 30
0.0
 11
261.7904069324
 21
218.288587608
 31
0.0
  0
LINE
  5
30B
330
1F
100
AcDbEntity
  8
0
  6
Continuous
 62
     7
370
    15
100
AcDbLine
 10
608.0903830428
 20
218.288587608
 30
0.0
 11
608.0903830428
 21
218.7385876003
 31
0.0
  0
LINE
  5
30C
330
1F
100
AcDbEntity
  8
0
  6
Continuous
 62
     7
370
    15
100
AcDbLine
 10
597.5903841157
 20
207.5385874758
 30
0.0
 11
272.290361156
 21
207.5385874758
 31
0.0
  0
LINE
  5
30D
330
1F
100
AcDbEntity
  8
0
  6
Continuous
 62
     7
370
    15
100
AcDbLine
 10
261.7904069324
 20
218.0385875671
 30
0.0
 11
261.7904069324
 21
218.288587608
 31
0.0
  0
LINE
  5
30E
330
1F
100
AcDbEntity
  8
0
  6
Continuous
 62
     7
370
    15
100
AcDbLine
 10
608.0903830428
 20
218.288587608
 30
0.0
 11
608.0903830428
 21
218.0385875671
 31
0.0
  0
LINE
  5
30F
330
1F
100
AcDbEntity
  8
0
  6
Continuous
 62
     7
370
    15
100
AcDbLine
 10
272.290361156
 20
207.5385874758
 30
0.0
 11
261.7904069324
 21
218.0385875671
 31
0.0
  0
LINE
  5
310
330
1F
100
AcDbEntity
  8
0
  6
Continuous
 62
     7
370
    15
100
AcDbLine
 10
608.0903830428
 20
218.0385875671
 30
0.0
 11
597.5903841157
 21
207.5385874758
 31
0.0
  0
LINE
  5
311
330
1F
100
AcDbEntity
  8
0
  6
Continuous
 62
     7
370
    15
100
AcDbLine
 10
260.5403783221
 20
218.288587608
 30
0.0
 11
260.5403783221
 21
218.0385875671
 31
0.0
  0
LINE
  5
312
330
1F
100
AcDbEntity
  8
0
  6
Continuous
 62
     7
370
    15
100
AcDbLine
 10
260.5403783221
 20
218.0385875671
 30
0.0
 11
259.0403678317
 21
218.0385875671
 31
0.0
  0
LINE
  5
313
330
1F
100
AcDbEntity
  8
0
  6
Continuous
 62
     7
370
    15
100
AcDbLine
 10
259.0403678317
 20
218.288587608
 30
0.0
 11
259.0403678317
 21
218.0385875671
 31
0.0
  0
LINE
  5
314
330
1F
100
AcDbEntity
  8
0
  6
Continuous
 62
     7
370
    15
100
AcDbLine
 10
260.5403783221
 20
207.5385874758
 30
0.0
 11
259.0403678317
 21
207.5385874758
 31
0.0
  0
LINE
  5
315
330
1F
100
AcDbEntity
  8
0
  6
Continuous
 62
     7
370
    15
100
AcDbLine
 10
260.5403783221
 20
218.0385875671
 30
0.0
 11
260.5403783221
 21
207.5385874758
 31
0.0
  0
LINE
  5
316
330
1F
100
AcDbEntity
  8
0
  6
Continuous
 62
     7
370
    15
100
AcDbLine
 10
259.0403678317
 20
218.0385875671
 30
0.0
 11
259.0403678317
 21
207.5385874758
 31
0.0
  0
LWPOLYLINE
  5
317
330
1F
100
AcDbEntity
  8
0
  6
Continuous
 62
     7
370
    15
100
AcDbPolyline
 90
        3
 70
   128
 43
0.0
 10
610.9241964717
 20
218.7385876003
 10
610.8643981118
 20
218.5324504661
 10
610.84037744
 20
218.288587608
  0
LINE
  5
318
330
1F
100
AcDbEntity
  8
0
  6
Continuous
 62
     7
370
    15
100
AcDbLine
 10
609.3774410386
 20
218.7385876003
 30
0.0
 11
609.3403818507
 21
218.288587608
 31
0.0
  0
LINE
  5
319
330
1F
100
AcDbEntity
  8
0
  6
Continuous
 62
     7
370
    15
100
AcDbLine
 10
609.3403818507
 20
207.5385874758
 30
0.0
 11
610.84037744
 21
207.5385874758
 31
0.0
  0
LINE
  5
31A
330
1F
100
AcDbEntity
  8
0
  6
Continuous
 62
     7
370
    15
100
AcDbLine
 10
609.3403818507
 20
207.5385874758
 30
0.0
 11
609.3403818507
 21
218.0385875671
 31
0.0
  0
LINE
  5
31B
330
1F
100
AcDbEntity
  8
0
  6
Continuous
 62
     7
370
    15
100
AcDbLine
 10
609.3403818507
 20
218.0385875671
 30
0.0
 11
610.84037744
 21
218.0385875671
 31
0.0
  0
LINE
  5
31C
330
1F
100
AcDbEntity
  8
0
  6
Continuous
 62
     7
370
    15
100
AcDbLine
 10
610.84037744
 20
207.5385874758
 30
0.0
 11
610.84037744
 21
218.0385875671
 31
0.0
  0
LINE
  5
31D
330
1F
100
AcDbEntity
  8
0
  6
Continuous
 62
     7
370
    15
100
AcDbLine
 10
610.84037744
 20
218.0385875671
 30
0.0
 11
610.84037744
 21
218.288587608
 31
0.0
  0
LINE
  5
31E
330
1F
100
AcDbEntity
  8
0
  6
Continuous
 62
     7
370
    15
100
AcDbLine
 10
609.3403818507
 20
218.0385875671
 30
0.0
 11
609.3403818507
 21
218.288587608
 31
0.0
  0
LWPOLYLINE
  5
31F
330
1F
100
AcDbEntity
  8
0
  6
Continuous
 62
     7
370
    15
100
AcDbPolyline
 90
        3
 70
   128
 43
0.0
 10
259.0403678317
 20
218.288587608
 10
259.0163471599
 20
218.5324504661
 10
258.9565637012
 20
218.7385876003
  0
LINE
  5
320
330
1F
100
AcDbEntity
  8
0
  6
Continuous
 62
     7
370
    15
100
AcDbLine
 10
260.5403783221
 20
218.288587608
 30
0.0
 11
260.5033042331
 21
218.7385876003
 31
0.0
  0
ENDSEC
  0
SECTION
  2
OBJECTS
  0
DICTIONARY
  5
C
330
0
100
AcDbDictionary
281
     1
  3
ACAD_GROUP
350
D
  3
ACAD_LAYOUT
350
1A
  3
ACAD_MLINESTYLE
350
17
  3
ACAD_PLOTSETTINGS
350
19
  3
ACAD_PLOTSTYLENAME
350
E
  0
DICTIONARY
  5
D
102
{ACAD_REACTORS
330
C
102
}
330
C
100
AcDbDictionary
281
     1
  0
DICTIONARY
  5
1A
102
{ACAD_REACTORS
330
C
102
}
330
C
100
AcDbDictionary
281
     1
  3
Layout1
350
1E
  3
Layout2
350
26
  3
Model
350
22
  0
DICTIONARY
  5
17
102
{ACAD_REACTORS
330
C
102
}
330
C
100
AcDbDictionary
281
     1
  3
Standard
350
18
  0
DICTIONARY
  5
19
102
{ACAD_REACTORS
330
C
102
}
330
C
100
AcDbDictionary
281
     1
  0
ACDBDICTIONARYWDFLT
  5
E
102
{ACAD_REACTORS
330
C
102
}
330
C
100
AcDbDictionary
281
     1
  3
Normal
350
F
100
AcDbDictionaryWithDefault
340
F
  0
LAYOUT
  5
1E
102
{ACAD_REACTORS
330
1A
102
}
330
1A
100
AcDbPlotSettings
  1

  2
none_device
  4

  6

 40
0.0
 41
0.0
 42
0.0
 43
0.0
 44
0.0
 45
0.0
 46
0.0
 47
0.0
 48
0.0
 49
0.0
140
0.0
141
0.0
142
1.0
143
1.0
 70
   688
 72
     0
 73
     0
 74
     5
  7

 75
    16
147
1.0
148
0.0
149
0.0
100
AcDbLayout
  1
Layout1
 70
     1
 71
     1
 10
0.0
 20
0.0
 11
420.0
 21
297.0
 12
0.0
 22
0.0
 32
0.0
 14
1.0000000000E+20
 24
1.0000000000E+20
 34
1.0000000000E+20
 15
-1.0000000000E+20
 25
-1.0000000000E+20
 35
-1.0000000000E+20
146
0.0
 13
0.0
 23
0.0
 33
0.0
 16
1.0
 26
0.0
 36
0.0
 17
0.0
 27
1.0
 37
0.0
 76
     0
330
1B
  0
LAYOUT
  5
26
102
{ACAD_REACTORS
330
1A
102
}
330
1A
100
AcDbPlotSettings
  1

  2
none_device
  4

  6

 40
0.0
 41
0.0
 42
0.0
 43
0.0
 44
0.0
 45
0.0
 46
0.0
 47
0.0
 48
0.0
 49
0.0
140
0.0
141
0.0
142
1.0
143
1.0
 70
   688
 72
     0
 73
     0
 74
     5
  7

 75
    16
147
1.0
148
0.0
149
0.0
100
AcDbLayout
  1
Layout2
 70
     1
 71
     2
 10
0.0
 20
0.0
 11
0.0
 21
0.0
 12
0.0
 22
0.0
 32
0.0
 14
0.0
 24
0.0
 34
0.0
 15
0.0
 25
0.0
 35
0.0
146
0.0
 13
0.0
 23
0.0
 33
0.0
 16
1.0
 26
0.0
 36
0.0
 17
0.0
 27
1.0
 37
0.0
 76
     0
330
23
  0
LAYOUT
  5
22
102
{ACAD_REACTORS
330
1A
102
}
330
1A
100
AcDbPlotSettings
  1

  2
none_device
  4

  6

 40
0.0
 41
0.0
 42
0.0
 43
0.0
 44
0.0
 45
0.0
 46
0.0
 47
0.0
 48
0.0
 49
0.0
140
0.0
141
0.0
142
1.0
143
1.0
 70
  1712
 72
     0
 73
     0
 74
     0
  7

 75
     0
147
1.0
148
0.0
149
0.0
100
AcDbLayout
  1
Model
 70
     1
 71
     0
 10
0.0
 20
0.0
 11
1000.0
 21
1200.0
 12
0.0
 22
0.0
 32
0.0
 14
0.0
 24
0.0
 34
0.0
 15
1000.0
 25
1200.0
 35
0.0
146
0.0
 13
0.0
 23
0.0
 33
0.0
 16
1.0
 26
0.0
 36
0.0
 17
0.0
 27
1.0
 37
0.0
 76
     0
330
1F
331
29
  0
MLINESTYLE
  5
18
102
{ACAD_REACTORS
330
17
102
}
330
17
100
AcDbMlineStyle
  2
Standard
 70
     0
  3

 62
   256
 51
90.0
 52
90.0
 71
     2
 49
0.5
 62
   256
  6
BYLAYER
 49
-0.5
 62
   256
  6
BYLAYER
  0
ACDBPLACEHOLDER
  5
F
102
{ACAD_REACTORS
330
E
102
}
330
E
  0
ENDSEC
  0
EOF
