  0
SECTION
  2
HEADER
  9
$ACADVER
  1
AC1015
  9
$ACADMAINTVER
 70
     6
  9
$DWGCODEPAGE
  3
ANSI_1252
  9
$INSBASE
 10
0.0
 20
0.0
 30
0.0
  9
$EXTMIN
 10
0.0
 20
0.0
 30
0.0
  9
$EXTMAX
 10
800.0
 20
1200.0
 30
0.0
  9
$LIMMIN
 10
0.0
 20
0.0
  9
$LIMMAX
 10
800.0
 20
1200.0
  9
$ORTHOMODE
 70
     0
  9
$REGENMODE
 70
     1
  9
$FILLMODE
 70
     1
  9
$QTEXTMODE
 70
     0
  9
$MIRRTEXT
 70
     1
  9
$LTSCALE
 40
1.0
  9
$ATTMODE
 70
     1
  9
$TEXTSIZE
 40
3.5
  9
$TRACEWID
 40
1.0
  9
$TEXTSTYLE
  7
Standard
  9
$CLAYER
  8
0
  9
$CELTYPE
  6
ByLayer
  9
$CECOLOR
 62
   256
  9
$CELTSCALE
 40
1.0
  9
$DISPSILH
 70
     0
  9
$DIMSCALE
 40
1.0
  9
$DIMASZ
 40
3.302
  9
$DIMEXO
 40
1.0
  9
$DIMDLI
 40
3.75
  9
$DIMRND
 40
0.0
  9
$DIMDLE
 40
0.0
  9
$DIMEXE
 40
1.0
  9
$DIMTP
 40
0.0
  9
$DIMTM
 40
0.0
  9
$DIMTXT
 40
3.5
  9
$DIMCEN
 40
2.5
  9
$DIMTSZ
 40
0.0
  9
$DIMTOL
 70
     0
  9
$DIMLIM
 70
     0
  9
$DIMTIH
 70
     1
  9
$DIMTOH
 70
     1
  9
$DIMSE1
 70
     0
  9
$DIMSE2
 70
     0
  9
$DIMTAD
 70
     1
  9
$DIMZIN
 70
     0
  9
$DIMBLK
  1

  9
$DIMASO
 70
     1
  9
$DIMSHO
 70
     1
  9
$DIMPOST
  1

  9
$DIMAPOST
  1

  9
$DIMALT
 70
     0
  9
$DIMALTD
 70
     3
  9
$DIMALTF
 40
0.0393700787
  9
$DIMLFAC
 40
1.0
  9
$DIMTOFL
 70
     1
  9
$DIMTVP
 40
0.0
  9
$DIMTIX
 70
     0
  9
$DIMSOXD
 70
     0
  9
$DIMSAH
 70
     0
  9
$DIMBLK1
  1

  9
$DIMBLK2
  1

  9
$DIMSTYLE
  2
ISO-25
  9
$DIMCLRD
 70
     0
  9
$DIMCLRE
 70
     0
  9
$DIMCLRT
 70
     0
  9
$DIMTFAC
 40
1.0
  9
$DIMGAP
 40
1.524
  9
$DIMJUST
 70
     0
  9
$DIMSD1
 70
     0
  9
$DIMSD2
 70
     0
  9
$DIMTOLJ
 70
     0
  9
$DIMTZIN
 70
     0
  9
$DIMALTZ
 70
     0
  9
$DIMALTTZ
 70
     0
  9
$DIMUPT
 70
     0
  9
$DIMDEC
 70
     1
  9
$DIMTDEC
 70
     1
  9
$DIMALTU
 70
     2
  9
$DIMALTTD
 70
     3
  9
$DIMTXSTY
  7
Standard
  9
$DIMAUNIT
 70
     0
  9
$DIMADEC
 70
     1
  9
$DIMALTRND
 40
0.0
  9
$DIMAZIN
 70
     0
  9
$DIMDSEP
 70
    44
  9
$DIMATFIT
 70
     3
  9
$DIMFRAC
 70
     0
  9
$DIMLDRBLK
  1

  9
$DIMLUNIT
 70
     2
  9
$DIMLWD
 70
    -2
  9
$DIMLWE
 70
    -2
  9
$DIMTMOVE
 70
     0
  9
$LUNITS
 70
     2
  9
$LUPREC
 70
     1
  9
$SKETCHINC
 40
1.0
  9
$FILLETRAD
 40
10.0
  9
$AUNITS
 70
     0
  9
$AUPREC
 70
     1
  9
$MENU
  1
.
  9
$ELEVATION
 40
0.0
  9
$PELEVATION
 40
0.0
  9
$THICKNESS
 40
0.0
  9
$LIMCHECK
 70
     0
  9
$CHAMFERA
 40
10.0
  9
$CHAMFERB
 40
10.0
  9
$CHAMFERC
 40
20.0
  9
$CHAMFERD
 40
0.0
  9
$SKPOLY
 70
     0
  9
$TDCREATE
 40
2455713.642649722
  9
$TDUCREATE
 40
2455713.600983056
  9
$TDUPDATE
 40
2455713.642649734
  9
$TDUUPDATE
 40
2455713.600983067
  9
$TDINDWG
 40
0.0000000116
  9
$TDUSRTIMER
 40
0.0000000116
  9
$USRTIMER
 70
     1
  9
$ANGBASE
 50
0.0
  9
$ANGDIR
 70
     0
  9
$PDMODE
 70
     0
  9
$PDSIZE
 40
-1.0
  9
$PLINEWID
 40
0.0
  9
$SPLFRAME
 70
     0
  9
$SPLINETYPE
 70
     6
  9
$SPLINESEGS
 70
     8
  9
$HANDSEED
  5
5A5
  9
$SURFTAB1
 70
     6
  9
$SURFTAB2
 70
     6
  9
$SURFTYPE
 70
     6
  9
$SURFU
 70
     6
  9
$SURFV
 70
     6
  9
$UCSBASE
  2

  9
$UCSNAME
  2

  9
$UCSORG
 10
0.0
 20
0.0
 30
0.0
  9
$UCSXDIR
 10
1.0
 20
0.0
 30
0.0
  9
$UCSYDIR
 10
0.0
 20
1.0
 30
0.0
  9
$UCSORTHOREF
  2

  9
$UCSORTHOVIEW
 70
     0
  9
$UCSORGTOP
 10
0.0
 20
0.0
 30
0.0
  9
$UCSORGBOTTOM
 10
0.0
 20
0.0
 30
0.0
  9
$UCSORGLEFT
 10
0.0
 20
0.0
 30
0.0
  9
$UCSORGRIGHT
 10
0.0
 20
0.0
 30
0.0
  9
$UCSORGFRONT
 10
0.0
 20
0.0
 30
0.0
  9
$UCSORGBACK
 10
0.0
 20
0.0
 30
0.0
  9
$PUCSBASE
  2

  9
$PUCSNAME
  2

  9
$PUCSORG
 10
0.0
 20
0.0
 30
0.0
  9
$PUCSXDIR
 10
1.0
 20
0.0
 30
0.0
  9
$PUCSYDIR
 10
0.0
 20
1.0
 30
0.0
  9
$PUCSORTHOREF
  2

  9
$PUCSORTHOVIEW
 70
     0
  9
$PUCSORGTOP
 10
0.0
 20
0.0
 30
0.0
  9
$PUCSORGBOTTOM
 10
0.0
 20
0.0
 30
0.0
  9
$PUCSORGLEFT
 10
0.0
 20
0.0
 30
0.0
  9
$PUCSORGRIGHT
 10
0.0
 20
0.0
 30
0.0
  9
$PUCSORGFRONT
 10
0.0
 20
0.0
 30
0.0
  9
$PUCSORGBACK
 10
0.0
 20
0.0
 30
0.0
  9
$USERI1
 70
     0
  9
$USERI2
 70
     0
  9
$USERI3
 70
     0
  9
$USERI4
 70
     0
  9
$USERI5
 70
     0
  9
$USERR1
 40
0.0
  9
$USERR2
 40
0.0
  9
$USERR3
 40
0.0
  9
$USERR4
 40
0.0
  9
$USERR5
 40
0.0
  9
$WORLDVIEW
 70
     1
  9
$SHADEDGE
 70
     3
  9
$SHADEDIF
 70
    70
  9
$TILEMODE
 70
     1
  9
$MAXACTVP
 70
    64
  9
$PINSBASE
 10
0.0
 20
0.0
 30
0.0
  9
$PLIMCHECK
 70
     0
  9
$PEXTMIN
 10
1.0000000000E+20
 20
1.0000000000E+20
 30
1.0000000000E+20
  9
$PEXTMAX
 10
-1.0000000000E+20
 20
-1.0000000000E+20
 30
-1.0000000000E+20
  9
$PLIMMIN
 10
0.0
 20
0.0
  9
$PLIMMAX
 10
420.0
 20
297.0
  9
$UNITMODE
 70
     0
  9
$VISRETAIN
 70
     1
  9
$PLINEGEN
 70
     0
  9
$PSLTSCALE
 70
     1
  9
$TREEDEPTH
 70
  3020
  9
$CMLSTYLE
  2
Standard
  9
$CMLJUST
 70
     0
  9
$CMLSCALE
 40
20.0
  9
$PROXYGRAPHICS
 70
     1
  9
$MEASUREMENT
 70
     1
  9
$CELWEIGHT
370
    -1
  9
$ENDCAPS
280
     0
  9
$JOINSTYLE
280
     0
  9
$LWDISPLAY
290
     1
  9
$INSUNITS
 70
     4
  9
$HYPERLINKBASE
  1

  9
$STYLESHEET
  1

  9
$XEDIT
290
     1
  9
$CEPSNTYPE
380
     0
  9
$PSTYLEMODE
290
     1
  9
$FINGERPRINTGUID
  2
{292C8375-045A-44B5-88BF-353795674133}
  9
$VERSIONGUID
  2
{FAEB1C32-E019-11D5-929B-00C0DF256EC4}
  9
$EXTNAMES
290
     1
  9
$PSVPSCALE
 40
0.0
  9
$OLESTARTUP
290
     0
  0
ENDSEC
  0
SECTION
  2
CLASSES
  0
CLASS
  1
ACDBDICTIONARYWDFLT
  2
AcDbDictionaryWithDefault
  3
ObjectDBX Classes
 90
        0
280
     0
281
     0
  0
CLASS
  1
VISUALSTYLE
  2
AcDbVisualStyle
  3
ObjectDBX Classes
 90
     4095
280
     0
281
     0
  0
CLASS
  1
MATERIAL
  2
AcDbMaterial
  3
ObjectDBX Classes
 90
     1153
280
     0
281
     0
  0
CLASS
  1
ACDBPLACEHOLDER
  2
AcDbPlaceHolder
  3
ObjectDBX Classes
 90
        0
280
     0
281
     0
  0
CLASS
  1
LAYOUT
  2
AcDbLayout
  3
ObjectDBX Classes
 90
        0
280
     0
281
     0
  0
ENDSEC
  0
SECTION
  2
TABLES
  0
TABLE
  2
VPORT
  5
8
330
0
100
AcDbSymbolTable
 70
     1
  0
VPORT
  5
29
330
8
100
AcDbSymbolTableRecord
100
AcDbViewportTableRecord
  2
*Active
 70
     0
 10
0.0
 20
0.0
 11
1.0
 21
1.0
 12
400.0
 22
600.0
 13
0.0
 23
0.0
 14
10.0
 24
10.0
 15
10.0
 25
10.0
 16
0.0
 26
0.0
 36
1.0
 17
0.0
 27
0.0
 37
0.0
 40
1200.0
 41
0.6666666667
 42
50.0
 43
0.0
 44
0.0
 50
0.0
 51
0.0
 71
     0
 72
  2000
 73
     1
 74
     3
 75
     0
 76
     0
 77
     0
 78
     0
281
     0
 65
     1
110
0.0
120
0.0
130
0.0
111
1.0
121
0.0
131
0.0
112
0.0
122
1.0
132
0.0
 79
     0
146
0.0
  0
ENDTAB
  0
TABLE
  2
LTYPE
  5
5
330
0
100
AcDbSymbolTable
 70
     6
  0
LTYPE
  5
14
330
5
100
AcDbSymbolTableRecord
100
AcDbLinetypeTableRecord
  2
ByBlock
 70
     0
  3

 72
    65
 73
     0
 40
0.0
  0
LTYPE
  5
15
330
5
100
AcDbSymbolTableRecord
100
AcDbLinetypeTableRecord
  2
ByLayer
 70
     0
  3

 72
    65
 73
     0
 40
0.0
  0
LTYPE
  5
16
330
5
100
AcDbSymbolTableRecord
100
AcDbLinetypeTableRecord
  2
Continuous
 70
     0
  3
Solid line
 72
    65
 73
     0
 40
0.0
  0
LTYPE
  5
3F
330
5
100
AcDbSymbolTableRecord
100
AcDbLinetypeTableRecord
  2
HIDDEN
 70
     0
  3
Hidden __ __ __ __ __ __ __ __ __ __ __ __ __ __
 72
    65
 73
     2
 40
1.905
 49
1.27
 74
     0
 49
-0.635
 74
     0
  0
LTYPE
  5
40
330
5
100
AcDbSymbolTableRecord
100
AcDbLinetypeTableRecord
  2
PHANTOM
 70
     0
  3
Phantom ______  __  __  ______  __  __  ______
 72
    65
 73
     6
 40
12.7
 49
6.35
 74
     0
 49
-1.27
 74
     0
 49
1.27
 74
     0
 49
-1.27
 74
     0
 49
1.27
 74
     0
 49
-1.27
 74
     0
  0
LTYPE
  5
41
330
5
100
AcDbSymbolTableRecord
100
AcDbLinetypeTableRecord
  2
CENTER
 70
     0
  3
Center ____ _ ____ _ ____ _ ____ _ ____ _ ____
 72
    65
 73
     4
 40
10.16
 49
6.35
 74
     0
 49
-1.27
 74
     0
 49
1.27
 74
     0
 49
-1.27
 74
     0
  0
LTYPE
  5
42
330
5
100
AcDbSymbolTableRecord
100
AcDbLinetypeTableRecord
  2
CENTERX2
 70
     0
  3
Center (2x) ________  __  ________  __  _____
 72
    65
 73
     4
 40
20.32
 49
12.7
 74
     0
 49
-2.54
 74
     0
 49
2.54
 74
     0
 49
-2.54
 74
     0
  0
LTYPE
  5
43
330
5
100
AcDbSymbolTableRecord
100
AcDbLinetypeTableRecord
  2
DOT2
 70
     0
  3
Dot (.5x) ........................................
 72
    65
 73
     2
 40
0.635
 49
0.0
 74
     0
 49
-0.635
 74
     0
  0
ENDTAB
  0
TABLE
  2
LAYER
  5
2
330
0
100
AcDbSymbolTable
 70
     4
  0
LAYER
  5
10
330
2
100
AcDbSymbolTableRecord
100
AcDbLayerTableRecord
  2
0
 70
     0
 62
     7
  6
Continuous
370
    -3
390
F
  0
LAYER
  5
44
330
2
100
AcDbSymbolTableRecord
100
AcDbLayerTableRecord
  2
FORMAT
 70
     0
 62
     7
  6
Continuous
370
    -3
390
F
  0
LAYER
  5
45
330
2
100
AcDbSymbolTableRecord
100
AcDbLayerTableRecord
  2
SLD-0
 70
     0
 62
     1
  6
Continuous
370
    -3
390
F
  0
LAYER
  5
46
330
2
100
AcDbSymbolTableRecord
100
AcDbLayerTableRecord
  2
WATERMARK
 70
     0
 62
    20
  6
Continuous
370
    -3
390
F
  0
ENDTAB
  0
TABLE
  2
STYLE
  5
3
330
0
100
AcDbSymbolTable
 70
     1
  0
STYLE
  5
11
330
3
100
AcDbSymbolTableRecord
100
AcDbTextStyleTableRecord
  2
Standard
 70
     0
 40
0.0
 41
1.0
 50
0.0
 71
     0
 42
2.5
  3
txt
  4

  0
ENDTAB
  0
TABLE
  2
VIEW
  5
6
330
0
100
AcDbSymbolTable
 70
     0
  0
ENDTAB
  0
TABLE
  2
UCS
  5
7
330
0
100
AcDbSymbolTable
 70
     0
  0
ENDTAB
  0
TABLE
  2
APPID
  5
9
330
0
100
AcDbSymbolTable
 70
     1
  0
APPID
  5
12
330
9
100
AcDbSymbolTableRecord
100
AcDbRegAppTableRecord
  2
ACAD
 70
     0
  0
ENDTAB
  0
TABLE
  2
DIMSTYLE
  5
A
330
0
100
AcDbSymbolTable
 70
     1
100
AcDbDimStyleTable
  0
DIMSTYLE
105
27
330
A
100
AcDbSymbolTableRecord
100
AcDbDimStyleTableRecord
  2
ISO-25
 70
     0
 41
2.5
 42
0.625
 43
3.75
 44
1.25
 73
     0
 74
     0
 77
     1
 78
     8
140
2.5
141
2.5
143
0.0393700787
147
0.625
171
     3
172
     1
271
     2
272
     2
274
     3
278
    44
283
     0
284
     8
340
11
  0
ENDTAB
  0
TABLE
  2
BLOCK_RECORD
  5
1
330
0
100
AcDbSymbolTable
 70
     1
  0
BLOCK_RECORD
  5
1F
330
1
100
AcDbSymbolTableRecord
100
AcDbBlockTableRecord
  2
*Model_Space
340
22
  0
BLOCK_RECORD
  5
1B
330
1
100
AcDbSymbolTableRecord
100
AcDbBlockTableRecord
  2
*Paper_Space
340
1E
  0
BLOCK_RECORD
  5
23
330
1
100
AcDbSymbolTableRecord
100
AcDbBlockTableRecord
  2
*Paper_Space0
340
26
  0
ENDTAB
  0
ENDSEC
  0
SECTION
  2
BLOCKS
  0
BLOCK
  5
20
330
1F
100
AcDbEntity
  8
0
100
AcDbBlockBegin
  2
*Model_Space
 70
     0
 10
0.0
 20
0.0
 30
0.0
  3
*Model_Space
  1

  0
ENDBLK
  5
21
330
1F
100
AcDbEntity
  8
0
100
AcDbBlockEnd
  0
BLOCK
  5
1C
330
1B
100
AcDbEntity
 67
     1
  8
0
100
AcDbBlockBegin
  2
*Paper_Space
 70
     0
 10
0.0
 20
0.0
 30
0.0
  3
*Paper_Space
  1

  0
ENDBLK
  5
1D
330
1B
100
AcDbEntity
 67
     1
  8
0
100
AcDbBlockEnd
  0
BLOCK
  5
24
330
23
100
AcDbEntity
  8
0
100
AcDbBlockBegin
  2
*Paper_Space0
 70
     0
 10
0.0
 20
0.0
 30
0.0
  3
*Paper_Space0
  1

  0
ENDBLK
  5
25
330
23
100
AcDbEntity
  8
0
100
AcDbBlockEnd
  0
ENDSEC
  0
SECTION
  2
ENTITIES
  0
LWPOLYLINE
  5
47
330
1F
100
AcDbEntity
  8
0
  6
Continuous
 62
     7
370
    15
100
AcDbPolyline
 90
       17
 70
   128
 43
0.0
 10
278.4719106211
 20
1004.0593883217
 10
276.1330318107
 20
1004.0125986756
 10
275.206879939
 20
1003.967716378
 10
273.7038892164
 20
1003.8614412964
 10
272.2085874929
 20
1003.7119528473
 10
270.6858154787
 20
1003.5096546829
 10
269.1980239405
 20
1003.2555600823
 10
267.776766087
 20
1002.9496690453
 10
266.4444085612
 20
1002.5915643395
 10
265.2121272339
 20
1002.1775504769
 10
264.0806671633
 20
1001.6967198074
 10
263.0436655535
 20
1001.1242171944
 10
262.1147420658
 20
1000.427438897
 10
261.3731261744
 20
999.6271869362
 10
260.8424809231
 20
998.7331172646
 10
260.533892776
 20
997.7318784416
 10
260.5051186337
 20
997.0190664948
  0
LWPOLYLINE
  5
48
330
1F
100
AcDbEntity
  8
0
  6
Continuous
 62
     7
370
    15
100
AcDbPolyline
 90
       16
 70
   128
 43
0.0
 10
296.4387994661
 20
997.0275303543
 10
296.4540135516
 20
997.4042913139
 10
296.1844589962
 20
998.5348126114
 10
295.6726339115
 20
999.4866391838
 10
294.9167203559
 20
1000.3477474869
 10
293.8749801769
 20
1001.1401912392
 10
292.6790874853
 20
1001.7833253563
 10
291.4650228276
 20
1002.2754213036
 10
290.1225399627
 20
1002.7010580719
 10
288.638913299
 20
1003.0714413345
 10
287.0460536732
 20
1003.3826371849
 10
285.3968453063
 20
1003.6306521118
 10
283.5349750175
 20
1003.8355728806
 10
282.1152221813
 20
1003.9449474037
 10
280.8239024534
 20
1004.0120622337
 10
278.4719106211
 20
1004.0593883217
  0
LWPOLYLINE
  5
49
330
1F
100
AcDbEntity
  8
0
  6
Continuous
 62
     7
370
    15
100
AcDbPolyline
 90
       14
 70
   128
 43
0.0
 10
278.4719106211
 20
998.0594059647
 10
280.573533143
 20
998.0172654808
 10
281.4035278215
 20
997.976972741
 10
282.7399831666
 20
997.882320565
 10
284.0519335522
 20
997.7510115326
 10
285.3591304674
 20
997.5773832024
 10
286.5946229948
 20
997.3669788063
 10
287.7175297989
 20
997.1271297157
 10
288.6943009152
 20
996.868683976
 10
289.5000365033
 20
996.6058274925
 10
290.118218626
 20
996.356739682
 10
290.5417394294
 20
996.1444279373
 10
290.7750245585
 20
995.9970852554
 10
290.8306058897
 20
995.9532758415
  0
LWPOLYLINE
  5
4A
330
1F
100
AcDbEntity
  8
0
  6
Continuous
 62
     7
370
    15
100
AcDbPolyline
 90
       14
 70
   128
 43
0.0
 10
266.1281239642
 20
995.9678193749
 10
266.1331009521
 20
995.970143956
 10
266.342194046
 20
996.1097380341
 10
266.7832460656
 20
996.3374873818
 10
267.4653541698
 20
996.613635701
 10
268.3796223654
 20
996.9064137161
 10
269.5031103148
 20
997.1912643135
 10
270.798848237
 20
997.4493524254
 10
272.2094592108
 20
997.6660749138
 10
273.8607909932
 20
997.8518029869
 10
275.1418363704
 20
997.9526540459
 10
276.2899037852
 20
998.0139276207
 10
277.7496140851
 20
998.0544587792
 10
278.4719106211
 20
998.0594059647
  0
LINE
  5
4B
330
1F
100
AcDbEntity
  8
0
  6
Continuous
 62
     7
370
    15
100
AcDbLine
 10
260.4719039454
 20
997.0221063316
 30
0.0
 11
260.4719039454
 21
946.0622212113
 31
0.0
  0
LINE
  5
4C
330
1F
100
AcDbEntity
  8
0
  6
Continuous
 62
     7
370
    15
100
AcDbLine
 10
266.4719086542
 20
946.0622212113
 30
0.0
 11
266.4719086542
 21
996.1767336548
 31
0.0
  0
LINE
  5
4D
330
1F
100
AcDbEntity
  8
0
  6
Continuous
 62
     7
370
    15
100
AcDbLine
 10
296.4719098462
 20
946.0622212113
 30
0.0
 11
296.4719098462
 21
997.0221063316
 31
0.0
  0
LINE
  5
4E
330
1F
100
AcDbEntity
  8
0
  6
Continuous
 62
     7
370
    15
100
AcDbLine
 10
290.4719125881
 20
996.1794754685
 30
0.0
 11
290.4719125881
 21
946.0622212113
 31
0.0
  0
LWPOLYLINE
  5
4F
330
1F
100
AcDbEntity
  8
0
  6
Continuous
 62
     7
370
    15
100
AcDbPolyline
 90
       17
 70
   128
 43
0.0
 10
498.471909429
 20
1004.0593883217
 10
496.1330306186
 20
1004.0125986756
 10
495.2068787469
 20
1003.967716378
 10
493.7038880243
 20
1003.8614412964
 10
492.2085863008
 20
1003.7119528473
 10
490.6858142866
 20
1003.5096546829
 10
489.198030199
 20
1003.2555600823
 10
487.7767723455
 20
1002.9496690453
 10
486.4444148197
 20
1002.5915643395
 10
485.2121260418
 20
1002.1775504769
 10
484.0806659712
 20
1001.6967198074
 10
483.043671812
 20
1001.1242171944
 10
482.1147334232
 20
1000.427438897
 10
481.3731324329
 20
999.6271869362
 10
480.842479731
 20
998.7331172646
 10
480.5338990344
 20
997.7318784416
 10
480.5051174416
 20
997.0190664948
  0
LWPOLYLINE
  5
50
330
1F
100
AcDbEntity
  8
0
  6
Continuous
 62
     7
370
    15
100
AcDbPolyline
 90
       16
 70
   128
 43
0.0
 10
516.4388057246
 20
997.0275303543
 10
516.4540198101
 20
997.4042913139
 10
516.1844578041
 20
998.5348126114
 10
515.6726327195
 20
999.4866391838
 10
514.9167266144
 20
1000.3477474869
 10
513.8749864354
 20
1001.1401912392
 10
512.6790862932
 20
1001.7833253563
 10
511.4650216355
 20
1002.2754213036
 10
510.1225387706
 20
1002.7010580719
 10
508.6389121069
 20
1003.0714413345
 10
507.0460524811
 20
1003.3826371849
 10
505.3968441142
 20
1003.6306521118
 10
503.5349738254
 20
1003.8355728806
 10
502.1152209892
 20
1003.9449474037
 10
500.8239012613
 20
1004.0120622337
 10
498.471909429
 20
1004.0593883217
  0
LWPOLYLINE
  5
51
330
1F
100
AcDbEntity
  8
0
  6
Continuous
 62
     7
370
    15
100
AcDbPolyline
 90
       14
 70
   128
 43
0.0
 10
498.471909429
 20
998.0594059647
 10
500.5735319509
 20
998.0172654808
 10
501.4035266294
 20
997.976972741
 10
502.7399819745
 20
997.882320565
 10
504.0519323601
 20
997.7510115326
 10
505.3591292753
 20
997.5773832024
 10
506.5946218027
 20
997.3669788063
 10
507.7175286068
 20
997.1271297157
 10
508.6943071737
 20
996.868683976
 10
509.5000353112
 20
996.6058274925
 10
510.1182248844
 20
996.356739682
 10
510.5417382373
 20
996.1444279373
 10
510.775030817
 20
995.9970852554
 10
510.8306046976
 20
995.9532758415
  0
LWPOLYLINE
  5
52
330
1F
100
AcDbEntity
  8
0
  6
Continuous
 62
     7
370
    15
100
AcDbPolyline
 90
       14
 70
   128
 43
0.0
 10
486.1281227722
 20
995.9678193749
 10
486.1331072106
 20
995.970143956
 10
486.3421928539
 20
996.1097380341
 10
486.7832448735
 20
996.3374873818
 10
487.4653529777
 20
996.613635701
 10
488.3796211733
 20
996.9064137161
 10
489.5031091227
 20
997.1912643135
 10
490.7988470449
 20
997.4493524254
 10
492.2094654693
 20
997.6660749138
 10
493.8607898011
 20
997.8518029869
 10
495.1418351783
 20
997.9526540459
 10
496.2899025931
 20
998.0139276207
 10
497.749612893
 20
998.0544587792
 10
498.471909429
 20
998.0594059647
  0
LINE
  5
53
330
1F
100
AcDbEntity
  8
0
  6
Continuous
 62
     7
370
    15
100
AcDbLine
 10
480.4719102039
 20
997.0221063316
 30
0.0
 11
480.4719102039
 21
946.0622212113
 31
0.0
  0
LINE
  5
54
330
1F
100
AcDbEntity
  8
0
  6
Continuous
 62
     7
370
    15
100
AcDbLine
 10
486.4719074621
 20
946.0622212113
 30
0.0
 11
486.4719074621
 21
996.1767336548
 31
0.0
  0
LINE
  5
55
330
1F
100
AcDbEntity
  8
0
  6
Continuous
 62
     7
370
    15
100
AcDbLine
 10
516.4719161047
 20
946.0622212113
 30
0.0
 11
516.4719161047
 21
997.0221063316
 31
0.0
  0
LINE
  5
56
330
1F
100
AcDbEntity
  8
0
  6
Continuous
 62
     7
370
    15
100
AcDbLine
 10
510.471911396
 20
996.1794754685
 30
0.0
 11
510.471911396
 21
946.0622212113
 31
0.0
  0
ARC
  5
57
330
1F
100
AcDbEntity
  8
0
  6
Continuous
 62
     7
370
    15
100
AcDbCircle
 10
399.1067132855
 20
843.5332498261
 30
0.0
 40
0.9999999999999936
100
AcDbArc
 50
10.3016237991
 51
15.1243958777
  0
ARC
  5
58
330
1F
100
AcDbEntity
  8
0
  6
Continuous
 62
     7
370
    15
100
AcDbCircle
 10
377.8371067646
 20
843.5332498261
 30
0.0
 40
0.9999999999999936
100
AcDbArc
 50
164.8756041223
 51
169.6983762009
  0
ARC
  5
59
330
1F
100
AcDbEntity
  8
0
  6
Continuous
 62
     7
370
    15
100
AcDbCircle
 10
388.9719100251
 20
876.9165030671
 30
0.0
 40
1.000000000000018
100
AcDbArc
 50
306.6480530193
 51
0.0
  0
ARC
  5
5A
330
1F
100
AcDbEntity
  8
0
  6
Continuous
 62
     7
370
    15
100
AcDbCircle
 10
387.9719100251
 20
876.9165030671
 30
0.0
 40
1.0
100
AcDbArc
 50
180.0
 51
229.7562252183
  0
LINE
  5
5B
330
1F
100
AcDbEntity
  8
0
  6
Continuous
 62
     7
370
    15
100
AcDbLine
 10
410.9698731853
 20
803.3068916023
 30
0.0
 11
410.9698731853
 21
803.2975336731
 31
0.0
  0
LINE
  5
5C
330
1F
100
AcDbEntity
  8
0
  6
Continuous
 62
     7
370
    15
100
AcDbLine
 10
415.9698740049
 20
803.2975336731
 30
0.0
 11
415.9698740049
 21
803.3068916023
 31
0.0
  0
LINE
  5
5D
330
1F
100
AcDbEntity
  8
0
  6
Continuous
 62
     7
370
    15
100
AcDbLine
 10
687.6719084038
 20
1146.0916539848
 30
0.0
 11
89.2719116463
 21
1146.0916539848
 31
0.0
  0
LINE
  5
5E
330
1F
100
AcDbEntity
  8
0
  6
Continuous
 62
     7
370
    15
100
AcDbLine
 10
89.2719116463
 20
1145.1916238487
 30
0.0
 11
88.4718981041
 21
1145.1916238487
 31
0.0
  0
LINE
  5
5F
330
1F
100
AcDbEntity
  8
0
  6
Continuous
 62
     7
370
    15
100
AcDbLine
 10
688.471921946
 20
1145.1916238487
 30
0.0
 11
687.6719084038
 21
1145.1916238487
 31
0.0
  0
LINE
  5
60
330
1F
100
AcDbEntity
  8
0
  6
Continuous
 62
     7
370
    15
100
AcDbLine
 10
112.9719105019
 20
230.5621924073
 30
0.0
 11
112.4719169392
 21
231.0621924893
 31
0.0
  0
LINE
  5
61
330
1F
100
AcDbEntity
  8
0
  6
Continuous
 62
     7
370
    15
100
AcDbLine
 10
96.4719143166
 20
231.0621924893
 30
0.0
 11
95.9719207539
 21
230.5621924073
 31
0.0
  0
LINE
  5
62
330
1F
100
AcDbEntity
  8
0
  6
Continuous
 62
     7
370
    15
100
AcDbLine
 10
95.9719207539
 20
229.0621926271
 30
0.0
 11
96.4719143166
 21
228.5621925451
 31
0.0
  0
LINE
  5
63
330
1F
100
AcDbEntity
  8
0
  6
Continuous
 62
     7
370
    15
100
AcDbLine
 10
112.4719169392
 20
228.5621925451
 30
0.0
 11
112.9719105019
 21
229.0621926271
 31
0.0
  0
LINE
  5
64
330
1F
100
AcDbEntity
  8
0
  6
Continuous
 62
     7
370
    15
100
AcDbLine
 10
95.9719207539
 20
230.5621924073
 30
0.0
 11
95.9719207539
 21
229.0621926271
 31
0.0
  0
LINE
  5
65
330
1F
100
AcDbEntity
  8
0
  6
Continuous
 62
     7
370
    15
100
AcDbLine
 10
112.9719105019
 20
229.0621926271
 30
0.0
 11
112.9719105019
 21
230.5621924073
 31
0.0
  0
LINE
  5
66
330
1F
100
AcDbEntity
  8
0
  6
Continuous
 62
     7
370
    15
100
AcDbLine
 10
112.9719105019
 20
757.0622107208
 30
0.0
 11
112.4719169392
 21
757.5621744812
 31
0.0
  0
LINE
  5
67
330
1F
100
AcDbEntity
  8
0
  6
Continuous
 62
     7
370
    15
100
AcDbLine
 10
96.4719143166
 20
757.5621744812
 30
0.0
 11
95.9719207539
 21
757.0622107208
 31
0.0
  0
LINE
  5
68
330
1F
100
AcDbEntity
  8
0
  6
Continuous
 62
     7
370
    15
100
AcDbLine
 10
95.9719207539
 20
755.5622002304
 30
0.0
 11
96.4719143166
 21
755.0621768654
 31
0.0
  0
LINE
  5
69
330
1F
100
AcDbEntity
  8
0
  6
Continuous
 62
     7
370
    15
100
AcDbLine
 10
112.4719169392
 20
755.0621768654
 30
0.0
 11
112.9719105019
 21
755.5622002304
 31
0.0
  0
LINE
  5
6A
330
1F
100
AcDbEntity
  8
0
  6
Continuous
 62
     7
370
    15
100
AcDbLine
 10
112.9719105019
 20
755.5622002304
 30
0.0
 11
112.9719105019
 21
757.0622107208
 31
0.0
  0
LINE
  5
6B
330
1F
100
AcDbEntity
  8
0
  6
Continuous
 62
     7
370
    15
100
AcDbLine
 10
95.9719207539
 20
757.0622107208
 30
0.0
 11
95.9719207539
 21
755.5622002304
 31
0.0
  0
LINE
  5
6C
330
1F
100
AcDbEntity
  8
0
  6
Continuous
 62
     7
370
    15
100
AcDbLine
 10
108.3719220414
 20
225.5621925773
 30
0.0
 11
108.3719220414
 21
226.062192601
 31
0.0
  0
LINE
  5
6D
330
1F
100
AcDbEntity
  8
0
  6
Continuous
 62
     7
370
    15
100
AcDbLine
 10
100.5719092144
 20
226.062192601
 30
0.0
 11
100.5719092144
 21
225.5621925773
 31
0.0
  0
LINE
  5
6E
330
1F
100
AcDbEntity
  8
0
  6
Continuous
 62
     7
370
    15
100
AcDbLine
 10
99.4719054951
 20
758.5622212113
 30
0.0
 11
99.4719054951
 21
757.5621744812
 31
0.0
  0
LINE
  5
6F
330
1F
100
AcDbEntity
  8
0
  6
Continuous
 62
     7
370
    15
100
AcDbLine
 10
109.4718959584
 20
757.5621744812
 30
0.0
 11
109.4718959584
 21
758.5622212113
 31
0.0
  0
LINE
  5
70
330
1F
100
AcDbEntity
  8
0
  6
Continuous
 62
     7
370
    15
100
AcDbLine
 10
100.5719092144
 20
761.5621825874
 30
0.0
 11
100.5719092144
 21
761.0622188271
 31
0.0
  0
LINE
  5
71
330
1F
100
AcDbEntity
  8
0
  6
Continuous
 62
     7
370
    15
100
AcDbLine
 10
108.3719220414
 20
761.0622188271
 30
0.0
 11
108.3719220414
 21
761.5621825874
 31
0.0
  0
LINE
  5
72
330
1F
100
AcDbEntity
  8
0
  6
Continuous
 62
     7
370
    15
100
AcDbLine
 10
666.9719007267
 20
58.062194866
 30
0.0
 11
666.9719007267
 21
62.0621880711
 31
0.0
  0
LINE
  5
73
330
1F
100
AcDbEntity
  8
0
  6
Continuous
 62
     7
370
    15
100
AcDbLine
 10
609.9719044222
 20
62.0621880711
 30
0.0
 11
609.9719044222
 21
58.062194866
 31
0.0
  0
ARC
  5
74
330
1F
100
AcDbEntity
  8
0
  6
Continuous
 62
     7
370
    15
100
AcDbCircle
 10
664.9719100251
 20
58.062192601
 30
0.0
 40
2.0
100
AcDbArc
 50
270.0
 51
0.0
  0
ARC
  5
75
330
1F
100
AcDbEntity
  8
0
  6
Continuous
 62
     7
370
    15
100
AcDbCircle
 10
611.9719100251
 20
58.062192601
 30
0.0
 40
2.0
100
AcDbArc
 50
180.0
 51
270.0
  0
LINE
  5
76
330
1F
100
AcDbEntity
  8
0
  6
Continuous
 62
     7
370
    15
100
AcDbLine
 10
166.9719156279
 20
58.062194866
 30
0.0
 11
166.9719156279
 21
62.0621880711
 31
0.0
  0
LINE
  5
77
330
1F
100
AcDbEntity
  8
0
  6
Continuous
 62
     7
370
    15
100
AcDbLine
 10
109.9719193234
 20
62.0621880711
 30
0.0
 11
109.9719193234
 21
58.062194866
 31
0.0
  0
ARC
  5
78
330
1F
100
AcDbEntity
  8
0
  6
Continuous
 62
     7
370
    15
100
AcDbCircle
 10
164.9719100251
 20
58.062192601
 30
0.0
 40
2.0
100
AcDbArc
 50
270.0
 51
0.0
  0
ARC
  5
79
330
1F
100
AcDbEntity
  8
0
  6
Continuous
 62
     7
370
    15
100
AcDbCircle
 10
111.9719100251
 20
58.062192601
 30
0.0
 40
2.0
100
AcDbArc
 50
180.0
 51
270.0
  0
LINE
  5
7A
330
1F
100
AcDbEntity
  8
0
  6
Continuous
 62
     7
370
    15
100
AcDbLine
 10
166.7719122424
 20
62.0621880711
 30
0.0
 11
166.7719122424
 21
130.0621917666
 31
0.0
  0
LINE
  5
7B
330
1F
100
AcDbEntity
  8
0
  6
Continuous
 62
     7
370
    15
100
AcDbLine
 10
110.1719227089
 20
130.0621917666
 30
0.0
 11
110.1719227089
 21
62.0621880711
 31
0.0
  0
LINE
  5
7C
330
1F
100
AcDbEntity
  8
0
  6
Continuous
 62
     7
370
    15
100
AcDbLine
 10
666.7718973412
 20
62.0621880711
 30
0.0
 11
666.7718973412
 21
130.0621917666
 31
0.0
  0
LINE
  5
7D
330
1F
100
AcDbEntity
  8
0
  6
Continuous
 62
     7
370
    15
100
AcDbLine
 10
610.1719078078
 20
130.0621917666
 30
0.0
 11
610.1719078078
 21
62.0621880711
 31
0.0
  0
ARC
  5
7E
330
1F
100
AcDbEntity
  8
0
  6
Continuous
 62
     7
370
    15
100
AcDbCircle
 10
671.8719100251
 20
222.562192601
 30
0.0
 40
1.500000000000114
100
AcDbArc
 50
90.0
 51
180.0
  0
ARC
  5
7F
330
1F
100
AcDbEntity
  8
0
  6
Continuous
 62
     7
370
    15
100
AcDbCircle
 10
605.0719100251
 20
222.562192601
 30
0.0
 40
1.499999999999943
100
AcDbArc
 50
0.0
 51
90.0
  0
LINE
  5
80
330
1F
100
AcDbEntity
  8
0
  6
Continuous
 62
     7
370
    15
100
AcDbLine
 10
670.3718986763
 20
136.0947555125
 30
0.0
 11
670.3718986763
 21
222.562192493
 31
0.0
  0
LINE
  5
81
330
1F
100
AcDbEntity
  8
0
  6
Continuous
 62
     7
370
    15
100
AcDbLine
 10
606.5719064726
 20
222.562192493
 30
0.0
 11
606.5719064726
 21
136.0947555125
 31
0.0
  0
ARC
  5
82
330
1F
100
AcDbEntity
  8
0
  6
Continuous
 62
     7
370
    15
100
AcDbCircle
 10
665.6719100251
 20
136.0947585467
 30
0.0
 40
4.700000000000006
100
AcDbArc
 50
350.5402980318
 51
0.0
  0
ARC
  5
83
330
1F
100
AcDbEntity
  8
0
  6
Continuous
 62
     7
370
    15
100
AcDbCircle
 10
611.2719100251
 20
136.0947585467
 30
0.0
 40
4.700000000000045
100
AcDbArc
 50
180.0
 51
189.4597019682
  0
LINE
  5
84
330
1F
100
AcDbEntity
  8
0
  6
Continuous
 62
     7
370
    15
100
AcDbLine
 10
606.635817553
 20
135.3222942174
 30
0.0
 11
607.5122591509
 21
130.0621917666
 31
0.0
  0
LINE
  5
85
330
1F
100
AcDbEntity
  8
0
  6
Continuous
 62
     7
370
    15
100
AcDbLine
 10
669.431545998
 20
130.0621917666
 30
0.0
 11
670.3080024971
 21
135.3222942174
 31
0.0
  0
ARC
  5
86
330
1F
100
AcDbEntity
  8
0
  6
Continuous
 62
     7
370
    15
100
AcDbCircle
 10
171.8719100251
 20
222.562192601
 30
0.0
 40
1.5
100
AcDbArc
 50
90.0
 51
180.0
  0
ARC
  5
87
330
1F
100
AcDbEntity
  8
0
  6
Continuous
 62
     7
370
    15
100
AcDbCircle
 10
105.0719100251
 20
222.562192601
 30
0.0
 40
1.500000000000014
100
AcDbArc
 50
0.0
 51
90.0
  0
ARC
  5
88
330
1F
100
AcDbEntity
  8
0
  6
Continuous
 62
     7
370
    15
100
AcDbCircle
 10
165.6719100251
 20
136.0947585467
 30
0.0
 40
4.699999999999989
100
AcDbArc
 50
350.5402980318
 51
0.0
  0
ARC
  5
89
330
1F
100
AcDbEntity
  8
0
  6
Continuous
 62
     7
370
    15
100
AcDbCircle
 10
111.2719100251
 20
136.0947585467
 30
0.0
 40
4.700000000000031
100
AcDbArc
 50
180.0
 51
189.4597019682
  0
LINE
  5
8A
330
1F
100
AcDbEntity
  8
0
  6
Continuous
 62
     7
370
    15
100
AcDbLine
 10
170.3719135775
 20
136.0947555125
 30
0.0
 11
170.3719135775
 21
222.562192493
 31
0.0
  0
LINE
  5
8B
330
1F
100
AcDbEntity
  8
0
  6
Continuous
 62
     7
370
    15
100
AcDbLine
 10
106.5719213738
 20
222.562192493
 30
0.0
 11
106.5719213738
 21
136.0947555125
 31
0.0
  0
LINE
  5
8C
330
1F
100
AcDbEntity
  8
0
  6
Continuous
 62
     7
370
    15
100
AcDbLine
 10
106.635817553
 20
135.3222942174
 30
0.0
 11
107.5122740521
 21
130.0621917666
 31
0.0
  0
LINE
  5
8D
330
1F
100
AcDbEntity
  8
0
  6
Continuous
 62
     7
370
    15
100
AcDbLine
 10
169.4315608992
 20
130.0621917666
 30
0.0
 11
170.3080024971
 21
135.3222942174
 31
0.0
  0
ARC
  5
8E
330
1F
100
AcDbEntity
  8
0
  6
Continuous
 62
     7
370
    15
100
AcDbCircle
 10
671.8719100251
 20
228.062192601
 30
0.0
 40
0.5
100
AcDbArc
 50
270.0
 51
0.0
  0
ARC
  5
8F
330
1F
100
AcDbEntity
  8
0
  6
Continuous
 62
     7
370
    15
100
AcDbCircle
 10
660.0719100251
 20
228.062192601
 30
0.0
 40
0.5
100
AcDbArc
 50
180.0
 51
270.0
  0
LINE
  5
90
330
1F
100
AcDbEntity
  8
0
  6
Continuous
 62
     7
370
    15
100
AcDbLine
 10
672.3719027294
 20
228.062192696
 30
0.0
 11
672.3719027294
 21
228.3121925042
 31
0.0
  0
LINE
  5
91
330
1F
100
AcDbEntity
  8
0
  6
Continuous
 62
     7
370
    15
100
AcDbLine
 10
659.5719244732
 20
228.3121925042
 30
0.0
 11
659.5719244732
 21
228.062192696
 31
0.0
  0
ARC
  5
92
330
1F
100
AcDbEntity
  8
0
  6
Continuous
 62
     7
370
    15
100
AcDbCircle
 10
671.8719100251
 20
228.312192601
 30
0.0
 40
0.5
100
AcDbArc
 50
0.0
 51
90.0
  0
ARC
  5
93
330
1F
100
AcDbEntity
  8
0
  6
Continuous
 62
     7
370
    15
100
AcDbCircle
 10
660.0719100251
 20
228.312192601
 30
0.0
 40
0.5
100
AcDbArc
 50
90.0
 51
180.0
  0
LINE
  5
94
330
1F
100
AcDbEntity
  8
0
  6
Continuous
 62
     7
370
    15
100
AcDbLine
 10
660.8384933724
 20
228.816647102
 30
0.0
 11
660.7719149842
 21
228.8121925861
 31
0.0
  0
LINE
  5
95
330
1F
100
AcDbEntity
  8
0
  6
Continuous
 62
     7
370
    15
100
AcDbLine
 10
242.4719121708
 20
225.5621925773
 30
0.0
 11
242.4719121708
 21
226.062192601
 31
0.0
  0
LINE
  5
96
330
1F
100
AcDbEntity
  8
0
  6
Continuous
 62
     7
370
    15
100
AcDbLine
 10
234.4719108595
 20
226.062192601
 30
0.0
 11
234.4719108595
 21
225.5621925773
 31
0.0
  0
LINE
  5
97
330
1F
100
AcDbEntity
  8
0
  6
Continuous
 62
     7
370
    15
100
AcDbLine
 10
542.4719091906
 20
225.5621925773
 30
0.0
 11
542.4719091906
 21
226.062192601
 31
0.0
  0
LINE
  5
98
330
1F
100
AcDbEntity
  8
0
  6
Continuous
 62
     7
370
    15
100
AcDbLine
 10
534.4719078793
 20
226.062192601
 30
0.0
 11
534.4719078793
 21
225.5621925773
 31
0.0
  0
CIRCLE
  5
99
330
1F
100
AcDbEntity
  8
0
  6
Continuous
 62
     7
370
    15
100
AcDbCircle
 10
656.471910025
 20
1086.262192601
 30
0.0
 40
9.497484303028045
  0
LINE
  5
9A
330
1F
100
AcDbEntity
  8
0
  6
Continuous
 62
     7
370
    15
100
AcDbLine
 10
646.4986291184
 20
1086.970998925
 30
0.0
 11
647.0126893772
 21
1087.4169608772
 31
0.0
  0
LINE
  5
9B
330
1F
100
AcDbEntity
  8
0
  6
Continuous
 62
     7
370
    15
100
AcDbLine
 10
647.0126893772
 20
1087.4169608772
 30
0.0
 11
646.618672873
 21
1087.9600784004
 31
0.0
  0
LINE
  5
9C
330
1F
100
AcDbEntity
  8
0
  6
Continuous
 62
     7
370
    15
100
AcDbLine
 10
646.6192093148
 20
1087.9631182373
 30
0.0
 11
647.1752312435
 21
1088.3555552185
 31
0.0
  0
LINE
  5
9D
330
1F
100
AcDbEntity
  8
0
  6
Continuous
 62
     7
370
    15
100
AcDbLine
 10
647.1752312435
 20
1088.3555552185
 30
0.0
 11
646.8374219193
 21
1088.9353295982
 31
0.0
  0
LINE
  5
9E
330
1F
100
AcDbEntity
  8
0
  6
Continuous
 62
     7
370
    15
100
AcDbLine
 10
646.838226582
 20
1088.9382502258
 30
0.0
 11
647.4306669487
 21
1089.2732283295
 31
0.0
  0
LINE
  5
9F
330
1F
100
AcDbEntity
  8
0
  6
Continuous
 62
     7
370
    15
100
AcDbLine
 10
647.4306669487
 20
1089.2732283295
 30
0.0
 11
647.1524324669
 21
1089.8838183106
 31
0.0
  0
LINE
  5
A0
330
1F
100
AcDbEntity
  8
0
  6
Continuous
 62
     7
370
    15
100
AcDbLine
 10
647.1535351529
 20
1089.8866793335
 30
0.0
 11
647.7764334931
 21
1090.1608010948
 31
0.0
  0
LINE
  5
A1
330
1F
100
AcDbEntity
  8
0
  6
Continuous
 62
     7
370
    15
100
AcDbLine
 10
647.7764334931
 20
1090.1608010948
 30
0.0
 11
647.5605454697
 21
1090.7961270035
 31
0.0
  0
LINE
  5
A2
330
1F
100
AcDbEntity
  8
0
  6
Continuous
 62
     7
370
    15
100
AcDbLine
 10
647.5619163765
 20
1090.7988092125
 30
0.0
 11
648.2090738072
 21
1091.0094520271
 31
0.0
  0
LINE
  5
A3
330
1F
100
AcDbEntity
  8
0
  6
Continuous
 62
     7
370
    15
100
AcDbLine
 10
648.2090738072
 20
1091.0094520271
 30
0.0
 11
648.0576780094
 21
1091.6630765618
 31
0.0
  0
LINE
  5
A4
330
1F
100
AcDbEntity
  8
0
  6
Continuous
 62
     7
370
    15
100
AcDbLine
 10
648.0593469395
 20
1091.6656991661
 30
0.0
 11
648.7242963566
 21
1091.8105980576
 31
0.0
  0
LINE
  5
A5
330
1F
100
AcDbEntity
  8
0
  6
Continuous
 62
     7
370
    15
100
AcDbLine
 10
648.7242963566
 20
1091.8105980576
 30
0.0
 11
648.638912703
 21
1092.4761435211
 31
0.0
  0
LINE
  5
A6
330
1F
100
AcDbEntity
  8
0
  6
Continuous
 62
     7
370
    15
100
AcDbLine
 10
648.6408200516
 20
1092.4785277069
 30
0.0
 11
649.3169155373
 21
1092.556371373
 31
0.0
  0
LINE
  5
A7
330
1F
100
AcDbEntity
  8
0
  6
Continuous
 62
     7
370
    15
100
AcDbLine
 10
649.3169155373
 20
1092.556371373
 30
0.0
 11
649.2984082951
 21
1093.2271024407
 31
0.0
  0
LINE
  5
A8
330
1F
100
AcDbEntity
  8
0
  6
Continuous
 62
     7
370
    15
100
AcDbLine
 10
649.3005540623
 20
1093.2293078125
 30
0.0
 11
649.9810304894
 21
1093.2392021835
 31
0.0
  0
LINE
  5
A9
330
1F
100
AcDbEntity
  8
0
  6
Continuous
 62
     7
370
    15
100
AcDbLine
 10
649.9810304894
 20
1093.2392021835
 30
0.0
 11
650.0295784726
 21
1093.9084431351
 31
0.0
  0
LINE
  5
AA
330
1F
100
AcDbEntity
  8
0
  6
Continuous
 62
     7
370
    15
100
AcDbLine
 10
650.0319030537
 20
1093.9104100884
 30
0.0
 11
650.709995295
 21
1093.8523551644
 31
0.0
  0
LINE
  5
AB
330
1F
100
AcDbEntity
  8
0
  6
Continuous
 62
     7
370
    15
100
AcDbLine
 10
650.709995295
 20
1093.8523551644
 30
0.0
 11
650.8251216664
 21
1094.5134302796
 31
0.0
  0
LINE
  5
AC
330
1F
100
AcDbEntity
  8
0
  6
Continuous
 62
     7
370
    15
100
AcDbLine
 10
650.8276250614
 20
1094.5151588143
 30
0.0
 11
651.4965381874
 21
1094.389691037
 31
0.0
  0
LINE
  5
AD
330
1F
100
AcDbEntity
  8
0
  6
Continuous
 62
     7
370
    15
100
AcDbLine
 10
651.4965381874
 20
1094.389691037
 30
0.0
 11
651.6770806565
 21
1095.0359245957
 31
0.0
  0
LINE
  5
AE
330
1F
100
AcDbEntity
  8
0
  6
Continuous
 62
     7
370
    15
100
AcDbLine
 10
651.6797628655
 20
1095.0374147118
 30
0.0
 11
652.3327913536
 21
1094.8457857788
 31
0.0
  0
LINE
  5
AF
330
1F
100
AcDbEntity
  8
0
  6
Continuous
 62
     7
370
    15
100
AcDbLine
 10
652.3327913536
 20
1094.8457857788
 30
0.0
 11
652.5769319786
 21
1095.4708000839
 31
0.0
  0
LINE
  5
B0
330
1F
100
AcDbEntity
  8
0
  6
Continuous
 62
     7
370
    15
100
AcDbLine
 10
652.5797631993
 20
1095.4719921768
 30
0.0
 11
653.2104101433
 21
1095.2161094368
 31
0.0
  0
LINE
  5
B1
330
1F
100
AcDbEntity
  8
0
  6
Continuous
 62
     7
370
    15
100
AcDbLine
 10
653.2104101433
 20
1095.2161094368
 30
0.0
 11
653.5157349362
 21
1095.8136460007
 31
0.0
  0
LINE
  5
B2
330
1F
100
AcDbEntity
  8
0
  6
Continuous
 62
     7
370
    15
100
AcDbLine
 10
653.5186555638
 20
1095.8145400704
 30
0.0
 11
654.1206028714
 21
1095.4970261276
 31
0.0
  0
LINE
  5
B3
330
1F
100
AcDbEntity
  8
0
  6
Continuous
 62
     7
370
    15
100
AcDbLine
 10
654.1206028714
 20
1095.4970261276
 30
0.0
 11
654.4840421929
 21
1096.0610052765
 31
0.0
  0
LINE
  5
B4
330
1F
100
AcDbEntity
  8
0
  6
Continuous
 62
     7
370
    15
100
AcDbLine
 10
654.4870522274
 20
1096.0616609276
 30
0.0
 11
655.0542798294
 21
1095.6856152237
 31
0.0
  0
LINE
  5
B5
330
1F
100
AcDbEntity
  8
0
  6
Continuous
 62
     7
370
    15
100
AcDbLine
 10
655.0542798294
 20
1095.6856152237
 30
0.0
 11
655.4722275986
 21
1096.2105533302
 31
0.0
  0
LINE
  5
B6
330
1F
100
AcDbEntity
  8
0
  6
Continuous
 62
     7
370
    15
100
AcDbLine
 10
655.4752674355
 20
1096.2108513535
 30
0.0
 11
656.002142693
 21
1095.7800885857
 31
0.0
  0
LINE
  5
B7
330
1F
100
AcDbEntity
  8
0
  6
Continuous
 62
     7
370
    15
100
AcDbLine
 10
656.002142693
 20
1095.7800885857
 30
0.0
 11
656.4703967823
 21
1096.2606212319
 31
0.0
  0
LINE
  5
B8
330
1F
100
AcDbEntity
  8
0
  6
Continuous
 62
     7
370
    15
100
AcDbLine
 10
656.4734664215
 20
1096.2606212319
 30
0.0
 11
656.8766620411
 21
1095.8574554146
 31
0.0
  0
LINE
  5
B9
330
1F
100
AcDbEntity
  8
0
  6
Continuous
 62
     7
370
    15
100
AcDbLine
 10
656.8766620411
 20
1095.8574554146
 30
0.0
 11
657.3011663212
 21
1096.2261697472
 31
0.0
  0
LINE
  5
BA
330
1F
100
AcDbEntity
  8
0
  6
Continuous
 62
     7
370
    15
100
AcDbLine
 10
657.3042061581
 20
1096.2259313286
 30
0.0
 11
657.7438202156
 21
1095.7063576401
 31
0.0
  0
LINE
  5
BB
330
1F
100
AcDbEntity
  8
0
  6
Continuous
 62
     7
370
    15
100
AcDbLine
 10
657.7438202156
 20
1095.7063576401
 30
0.0
 11
658.2917657151
 21
1096.0936090172
 31
0.0
  0
LINE
  5
BC
330
1F
100
AcDbEntity
  8
0
  6
Continuous
 62
     7
370
    15
100
AcDbLine
 10
658.2947757496
 20
1096.0930725754
 30
0.0
 11
658.680298592
 21
1095.5322524727
 31
0.0
  0
LINE
  5
BD
330
1F
100
AcDbEntity
  8
0
  6
Continuous
 62
     7
370
    15
100
AcDbLine
 10
658.680298592
 20
1095.5322524727
 30
0.0
 11
659.2641856922
 21
1095.8628198326
 31
0.0
  0
LINE
  5
BE
330
1F
100
AcDbEntity
  8
0
  6
Continuous
 62
     7
370
    15
100
AcDbLine
 10
659.2671063198
 20
1095.8619853676
 30
0.0
 11
659.5947232499
 21
1095.2654620827
 31
0.0
  0
LINE
  5
BF
330
1F
100
AcDbEntity
  8
0
  6
Continuous
 62
     7
370
    15
100
AcDbLine
 10
659.5947232499
 20
1095.2654620827
 30
0.0
 11
660.2086808934
 21
1095.5361267746
 31
0.0
  0
LINE
  5
C0
330
1F
100
AcDbEntity
  8
0
  6
Continuous
 62
     7
370
    15
100
AcDbLine
 10
660.2115419163
 20
1095.5349346817
 30
0.0
 11
660.4779448761
 21
1094.9087282837
 31
0.0
  0
LINE
  5
C1
330
1F
100
AcDbEntity
  8
0
  6
Continuous
 62
     7
370
    15
100
AcDbLine
 10
660.4779448761
 20
1094.9087282837
 30
0.0
 11
661.1158635868
 21
1095.1166888893
 31
0.0
  0
LINE
  5
C2
330
1F
100
AcDbEntity
  8
0
  6
Continuous
 62
     7
370
    15
100
AcDbLine
 10
661.1185755982
 20
1095.1153179825
 30
0.0
 11
661.3211419834
 21
1094.4655677498
 31
0.0
  0
LINE
  5
C3
330
1F
100
AcDbEntity
  8
0
  6
Continuous
 62
     7
370
    15
100
AcDbLine
 10
661.3211419834
 20
1094.4655677498
 30
0.0
 11
661.9766440644
 21
1094.6088573158
 31
0.0
  0
LINE
  5
C4
330
1F
100
AcDbEntity
  8
0
  6
Continuous
 62
     7
370
    15
100
AcDbLine
 10
661.9792070641
 20
1094.6071883858
 30
0.0
 11
662.1158805146
 21
1093.9404508293
 31
0.0
  0
LINE
  5
C5
330
1F
100
AcDbEntity
  8
0
  6
Continuous
 62
     7
370
    15
100
AcDbLine
 10
662.1158805146
 20
1093.9404508293
 30
0.0
 11
662.7824094548
 21
1094.0175792397
 31
0.0
  0
LINE
  5
C6
330
1F
100
AcDbEntity
  8
0
  6
Continuous
 62
     7
370
    15
100
AcDbLine
 10
662.7847936406
 20
1094.015671891
 30
0.0
 11
662.8542330517
 21
1093.3386823357
 31
0.0
  0
LINE
  5
C7
330
1F
100
AcDbEntity
  8
0
  6
Continuous
 62
     7
370
    15
100
AcDbLine
 10
662.8542330517
 20
1093.3386823357
 30
0.0
 11
663.5251429333
 21
1093.3488747299
 31
0.0
  0
LINE
  5
C8
330
1F
100
AcDbEntity
  8
0
  6
Continuous
 62
     7
370
    15
100
AcDbLine
 10
663.5273185028
 20
1093.3467289627
 30
0.0
 11
663.5288384213
 21
1092.666103524
 31
0.0
  0
LINE
  5
C9
330
1F
100
AcDbEntity
  8
0
  6
Continuous
 62
     7
370
    15
100
AcDbLine
 10
663.5288384213
 20
1092.666103524
 30
0.0
 11
664.1973939194
 21
1092.6093002976
 31
0.0
  0
LINE
  5
CA
330
1F
100
AcDbEntity
  8
0
  6
Continuous
 62
     7
370
    15
100
AcDbLine
 10
664.1993310704
 20
1092.6069161118
 30
0.0
 11
664.1329016938
 21
1091.9296285332
 31
0.0
  0
LINE
  5
CB
330
1F
100
AcDbEntity
  8
0
  6
Continuous
 62
     7
370
    15
100
AcDbLine
 10
664.1329016938
 20
1091.9296285332
 30
0.0
 11
664.7924568905
 21
1091.8063065231
 31
0.0
  0
LINE
  5
CC
330
1F
100
AcDbEntity
  8
0
  6
Continuous
 62
     7
370
    15
100
AcDbLine
 10
664.7941556229
 20
1091.8038031281
 30
0.0
 11
664.6604326023
 21
1091.1364695252
 31
0.0
  0
LINE
  5
CD
330
1F
100
AcDbEntity
  8
0
  6
Continuous
 62
     7
370
    15
100
AcDbLine
 10
664.6604326023
 20
1091.1364695252
 30
0.0
 11
665.3043713822
 21
1090.9479400337
 31
0.0
  0
LINE
  5
CE
330
1F
100
AcDbEntity
  8
0
  6
Continuous
 62
     7
370
    15
100
AcDbLine
 10
665.3058018936
 20
1090.9452578247
 30
0.0
 11
665.1061263337
 21
1090.294673127
 31
0.0
  0
LINE
  5
CF
330
1F
100
AcDbEntity
  8
0
  6
Continuous
 62
     7
370
    15
100
AcDbLine
 10
665.1061263337
 20
1090.294673127
 30
0.0
 11
665.7280411972
 21
1090.0427838982
 31
0.0
  0
LINE
  5
D0
330
1F
100
AcDbEntity
  8
0
  6
Continuous
 62
     7
370
    15
100
AcDbLine
 10
665.7292034878
 20
1090.0399228752
 30
0.0
 11
665.465572144
 21
1089.4125243843
 31
0.0
  0
LINE
  5
D1
330
1F
100
AcDbEntity
  8
0
  6
Continuous
 62
     7
370
    15
100
AcDbLine
 10
665.465572144
 20
1089.4125243843
 30
0.0
 11
666.0592344059
 21
1089.0998384178
 31
0.0
  0
LINE
  5
D2
330
1F
100
AcDbEntity
  8
0
  6
Continuous
 62
     7
370
    15
100
AcDbLine
 10
666.0600986733
 20
1089.0969177902
 30
0.0
 11
665.73513415
 21
1088.4989043892
 31
0.0
  0
LINE
  5
D3
330
1F
100
AcDbEntity
  8
0
  6
Continuous
 62
     7
370
    15
100
AcDbLine
 10
665.73513415
 20
1088.4989043892
 30
0.0
 11
666.2946131482
 21
1088.1285211266
 31
0.0
  0
LINE
  5
D4
330
1F
100
AcDbEntity
  8
0
  6
Continuous
 62
     7
370
    15
100
AcDbLine
 10
666.2952091946
 20
1088.1254812897
 30
0.0
 11
665.9121599449
 21
1087.5629326523
 31
0.0
  0
LINE
  5
D5
330
1F
100
AcDbEntity
  8
0
  6
Continuous
 62
     7
370
    15
100
AcDbLine
 10
665.9121599449
 20
1087.5629326523
 30
0.0
 11
666.4318826451
 21
1087.1385475815
 31
0.0
  0
LINE
  5
D6
330
1F
100
AcDbEntity
  8
0
  6
Continuous
 62
     7
370
    15
100
AcDbLine
 10
666.432150866
 20
1087.1355077446
 30
0.0
 11
665.9948613896
 21
1086.6140267075
 31
0.0
  0
LWPOLYLINE
  5
D7
330
1F
100
AcDbEntity
  8
0
  6
Continuous
 62
     7
370
    15
100
AcDbPolyline
 90
        3
 70
   128
 43
0.0
 10
665.9948613896
 20
1086.6140267075
 10
666.3470950379
 20
1086.2621804894
 10
666.4686587109
 20
1086.140765828
  0
LINE
  5
D8
330
1F
100
AcDbEntity
  8
0
  6
Continuous
 62
     7
370
    15
100
AcDbLine
 10
666.4685956101
 20
1086.135821316
 30
0.0
 11
666.4686571663
 21
1086.1407883893
 31
0.0
  0
LINE
  5
D9
330
1F
100
AcDbEntity
  8
0
  6
Continuous
 62
     7
370
    15
100
AcDbLine
 10
666.4685991062
 20
1086.1358186424
 30
0.0
 11
665.9824040188
 21
1085.661544484
 31
0.0
  0
LINE
  5
DA
330
1F
100
AcDbEntity
  8
0
  6
Continuous
 62
     7
370
    15
100
AcDbLine
 10
665.9824040188
 20
1085.661544484
 30
0.0
 11
666.4074447407
 21
1085.1423284233
 31
0.0
  0
LINE
  5
DB
330
1F
100
AcDbEntity
  8
0
  6
Continuous
 62
     7
370
    15
100
AcDbLine
 10
666.4071169152
 20
1085.1392885864
 30
0.0
 11
665.8749368443
 21
1084.7150823296
 31
0.0
  0
LINE
  5
DC
330
1F
100
AcDbEntity
  8
0
  6
Continuous
 62
     7
370
    15
100
AcDbLine
 10
665.8749368443
 20
1084.7150823296
 30
0.0
 11
666.2460055603
 21
1084.1560503662
 31
0.0
  0
LINE
  5
DD
330
1F
100
AcDbEntity
  8
0
  6
Continuous
 62
     7
370
    15
100
AcDbLine
 10
666.2453797116
 20
1084.153070134
 30
0.0
 11
665.6735029473
 21
1083.7840577782
 31
0.0
  0
LINE
  5
DE
330
1F
100
AcDbEntity
  8
0
  6
Continuous
 62
     7
370
    15
100
AcDbLine
 10
665.6735029473
 20
1083.7840577782
 30
0.0
 11
665.9869041695
 21
1083.1907531441
 31
0.0
  0
LINE
  5
DF
330
1F
100
AcDbEntity
  8
0
  6
Continuous
 62
     7
370
    15
100
AcDbLine
 10
665.9859802975
 20
1083.1878921211
 30
0.0
 11
665.3801288857
 21
1082.877828759
 31
0.0
  0
LINE
  5
E0
330
1F
100
AcDbEntity
  8
0
  6
Continuous
 62
     7
370
    15
100
AcDbLine
 10
665.3801288857
 20
1082.877828759
 30
0.0
 11
665.6327631726
 21
1082.2562119187
 31
0.0
  0
LINE
  5
E1
330
1F
100
AcDbEntity
  8
0
  6
Continuous
 62
     7
370
    15
100
AcDbLine
 10
665.6315412773
 20
1082.2534105003
 30
0.0
 11
664.9977650894
 21
1082.0053955734
 31
0.0
  0
LINE
  5
E2
330
1F
100
AcDbEntity
  8
0
  6
Continuous
 62
     7
370
    15
100
AcDbLine
 10
664.9977650894
 20
1082.0053955734
 30
0.0
 11
665.1870694413
 21
1081.3616654099
 31
0.0
  0
LINE
  5
E3
330
1F
100
AcDbEntity
  8
0
  6
Continuous
 62
     7
370
    15
100
AcDbLine
 10
665.1855495228
 20
1081.3589832008
 30
0.0
 11
664.5301964535
 21
1081.1755201042
 31
0.0
  0
LINE
  5
E4
330
1F
100
AcDbEntity
  8
0
  6
Continuous
 62
     7
370
    15
100
AcDbLine
 10
664.5301964535
 20
1081.1755201042
 30
0.0
 11
664.6542933239
 21
1080.5161139191
 31
0.0
  0
LINE
  5
E5
330
1F
100
AcDbEntity
  8
0
  6
Continuous
 62
     7
370
    15
100
AcDbLine
 10
664.6525349869
 20
1080.5135509194
 30
0.0
 11
663.9821019425
 21
1080.3964277924
 31
0.0
  0
LINE
  5
E6
330
1F
100
AcDbEntity
  8
0
  6
Continuous
 62
     7
370
    15
100
AcDbLine
 10
663.9821019425
 20
1080.3964277924
 30
0.0
 11
664.039739634
 21
1079.7279020966
 31
0.0
  0
LINE
  5
E7
330
1F
100
AcDbEntity
  8
0
  6
Continuous
 62
     7
370
    15
100
AcDbLine
 10
664.0377428784
 20
1079.7255775154
 30
0.0
 11
663.358994986
 21
1079.6759268463
 31
0.0
  0
LINE
  5
E8
330
1F
100
AcDbEntity
  8
0
  6
Continuous
 62
     7
370
    15
100
AcDbLine
 10
663.358994986
 20
1079.6759268463
 30
0.0
 11
663.3496072544
 21
1079.0050169647
 31
0.0
  0
LINE
  5
E9
330
1F
100
AcDbEntity
  8
0
  6
Continuous
 62
     7
370
    15
100
AcDbLine
 10
663.3473720803
 20
1079.0029308022
 30
0.0
 11
662.6670446648
 21
1079.0212890328
 31
0.0
  0
LINE
  5
EA
330
1F
100
AcDbEntity
  8
0
  6
Continuous
 62
     7
370
    15
100
AcDbLine
 10
662.6670446648
 20
1079.0212890328
 30
0.0
 11
662.5907209172
 21
1078.3546706856
 31
0.0
  0
LINE
  5
EB
330
1F
100
AcDbEntity
  8
0
  6
Continuous
 62
     7
370
    15
100
AcDbLine
 10
662.588306929
 20
1078.352763337
 30
0.0
 11
661.9132247223
 21
1078.4390112579
 31
0.0
  0
LINE
  5
EC
330
1F
100
AcDbEntity
  8
0
  6
Continuous
 62
     7
370
    15
100
AcDbLine
 10
661.9132247223
 20
1078.4390112579
 30
0.0
 11
661.770739819
 21
1077.7833005608
 31
0.0
  0
LINE
  5
ED
330
1F
100
AcDbEntity
  8
0
  6
Continuous
 62
     7
370
    15
100
AcDbLine
 10
661.7681470169
 20
1077.7816912354
 30
0.0
 11
661.1050155415
 21
1077.9348751724
 31
0.0
  0
LINE
  5
EE
330
1F
100
AcDbEntity
  8
0
  6
Continuous
 62
     7
370
    15
100
AcDbLine
 10
661.1050155415
 20
1077.9348751724
 30
0.0
 11
660.8977701916
 21
1077.2966882408
 31
0.0
  0
LINE
  5
EF
330
1F
100
AcDbEntity
  8
0
  6
Continuous
 62
     7
370
    15
100
AcDbLine
 10
660.8950283779
 20
1077.295317334
 30
0.0
 11
660.250523354
 21
1077.5138875664
 31
0.0
  0
LINE
  5
F0
330
1F
100
AcDbEntity
  8
0
  6
Continuous
 62
     7
370
    15
100
AcDbLine
 10
660.250523354
 20
1077.5138875664
 30
0.0
 11
659.9806037201
 21
1076.8996020973
 31
0.0
  0
LINE
  5
F1
330
1F
100
AcDbEntity
  8
0
  6
Continuous
 62
     7
370
    15
100
AcDbLine
 10
659.9777426972
 20
1076.8985292137
 30
0.0
 11
659.358271624
 21
1077.1803995789
 31
0.0
  0
LINE
  5
F2
330
1F
100
AcDbEntity
  8
0
  6
Continuous
 62
     7
370
    15
100
AcDbLine
 10
659.358271624
 20
1077.1803995789
 30
0.0
 11
659.0283897175
 21
1076.5960952461
 31
0.0
  0
LINE
  5
F3
330
1F
100
AcDbEntity
  8
0
  6
Continuous
 62
     7
370
    15
100
AcDbLine
 10
659.0254392876
 20
1076.5953203858
 30
0.0
 11
658.4372010483
 21
1076.9375702561
 31
0.0
  0
LINE
  5
F4
330
1F
100
AcDbEntity
  8
0
  6
Continuous
 62
     7
370
    15
100
AcDbLine
 10
658.4372010483
 20
1076.9375702561
 30
0.0
 11
658.0506053223
 21
1076.3891479195
 31
0.0
  0
LINE
  5
F5
330
1F
100
AcDbEntity
  8
0
  6
Continuous
 62
     7
370
    15
100
AcDbLine
 10
658.0475952877
 20
1076.3886710823
 30
0.0
 11
657.4964609398
 21
1076.7879625977
 31
0.0
  0
LINE
  5
F6
330
1F
100
AcDbEntity
  8
0
  6
Continuous
 62
     7
370
    15
100
AcDbLine
 10
657.4964609398
 20
1076.7879625977
 30
0.0
 11
657.0570853009
 21
1076.2809058846
 31
0.0
  0
LINE
  5
F7
330
1F
100
AcDbEntity
  8
0
  6
Continuous
 62
     7
370
    15
100
AcDbLine
 10
657.0540156617
 20
1076.2807270706
 30
0.0
 11
656.5454986348
 21
1076.7330071152
 31
0.0
  0
LINE
  5
F8
330
1F
100
AcDbEntity
  8
0
  6
Continuous
 62
     7
370
    15
100
AcDbLine
 10
656.5454986348
 20
1076.7330071152
 30
0.0
 11
656.0576942219
 21
1076.2723228157
 31
0.0
  0
LINE
  5
F9
330
1F
100
AcDbEntity
  8
0
  6
Continuous
 62
     7
370
    15
100
AcDbLine
 10
656.0546245827
 20
1076.272442025
 30
0.0
 11
655.5938210739
 21
1076.7732998551
 31
0.0
  0
LINE
  5
FA
330
1F
100
AcDbEntity
  8
0
  6
Continuous
 62
     7
370
    15
100
AcDbLine
 10
655.5938210739
 20
1076.7732998551
 30
0.0
 11
655.0624158635
 21
1076.3635775269
 31
0.0
  0
LINE
  5
FB
330
1F
100
AcDbEntity
  8
0
  6
Continuous
 62
     7
370
    15
100
AcDbLine
 10
655.0594058289
 20
1076.3639947594
 30
0.0
 11
654.6508755936
 21
1076.9083639801
 31
0.0
  0
LINE
  5
FC
330
1F
100
AcDbEntity
  8
0
  6
Continuous
 62
     7
370
    15
100
AcDbLine
 10
654.6508755936
 20
1076.9083639801
 30
0.0
 11
654.0812638058
 21
1076.5537759483
 31
0.0
  0
LINE
  5
FD
330
1F
100
AcDbEntity
  8
0
  6
Continuous
 62
     7
370
    15
100
AcDbLine
 10
654.0782835736
 20
1076.5544912041
 30
0.0
 11
653.7261691346
 21
1077.1368881882
 31
0.0
  0
LINE
  5
FE
330
1F
100
AcDbEntity
  8
0
  6
Continuous
 62
     7
370
    15
100
AcDbLine
 10
653.7261691346
 20
1077.1368881882
 30
0.0
 11
653.1239834084
 21
1076.8409511269
 31
0.0
  0
LINE
  5
FF
330
1F
100
AcDbEntity
  8
0
  6
Continuous
 62
     7
370
    15
100
AcDbLine
 10
653.1210925831
 20
1076.8419644058
 30
0.0
 11
652.8288510098
 21
1077.4566075028
 31
0.0
  0
LINE
  5
100
330
1F
100
AcDbEntity
  8
0
  6
Continuous
 62
     7
370
    15
100
AcDbLine
 10
652.8288510098
 20
1077.4566075028
 30
0.0
 11
652.2001412167
 21
1077.2222420395
 31
0.0
  0
LINE
  5
101
330
1F
100
AcDbEntity
  8
0
  6
Continuous
 62
     7
370
    15
100
AcDbLine
 10
652.1973696007
 20
1077.2235533417
 30
0.0
 11
651.9679811253
 21
1077.864303273
 31
0.0
  0
LINE
  5
102
330
1F
100
AcDbEntity
  8
0
  6
Continuous
 62
     7
370
    15
100
AcDbLine
 10
651.9679811253
 20
1077.864303273
 30
0.0
 11
651.319005753
 21
1077.693833989
 31
0.0
  0
LINE
  5
103
330
1F
100
AcDbEntity
  8
0
  6
Continuous
 62
     7
370
    15
100
AcDbLine
 10
651.3163533463
 20
1077.6954433144
 30
0.0
 11
651.1520829453
 21
1078.3558627785
 31
0.0
  0
LINE
  5
104
330
1F
100
AcDbEntity
  8
0
  6
Continuous
 62
     7
370
    15
100
AcDbLine
 10
651.1520829453
 20
1078.3558627785
 30
0.0
 11
650.4893389
 21
1078.251077813
 31
0.0
  0
LINE
  5
105
330
1F
100
AcDbEntity
  8
0
  6
Continuous
 62
     7
370
    15
100
AcDbLine
 10
650.4868653073
 20
1078.252925557
 30
0.0
 11
650.3893521084
 21
1078.9264580429
 31
0.0
  0
LINE
  5
106
330
1F
100
AcDbEntity
  8
0
  6
Continuous
 62
     7
370
    15
100
AcDbLine
 10
650.3893521084
 20
1078.9264580429
 30
0.0
 11
649.7194555058
 21
1078.8883706749
 31
0.0
  0
LINE
  5
107
330
1F
100
AcDbEntity
  8
0
  6
Continuous
 62
     7
370
    15
100
AcDbLine
 10
649.7171905293
 20
1078.8904568375
 30
0.0
 11
649.6873882069
 21
1079.5703670204
 31
0.0
  0
LINE
  5
108
330
1F
100
AcDbEntity
  8
0
  6
Continuous
 62
     7
370
    15
100
AcDbLine
 10
649.6873882069
 20
1079.5703670204
 30
0.0
 11
649.0170147671
 21
1079.5993348778
 31
0.0
  0
LINE
  5
109
330
1F
100
AcDbEntity
  8
0
  6
Continuous
 62
     7
370
    15
100
AcDbLine
 10
649.0149882092
 20
1079.6015998543
 30
0.0
 11
649.0531947865
 21
1080.2810928047
 31
0.0
  0
LINE
  5
10A
330
1F
100
AcDbEntity
  8
0
  6
Continuous
 62
     7
370
    15
100
AcDbLine
 10
649.0531947865
 20
1080.2810928047
 30
0.0
 11
648.3890798344
 21
1080.3768774689
 31
0.0
  0
LINE
  5
10B
330
1F
100
AcDbEntity
  8
0
  6
Continuous
 62
     7
370
    15
100
AcDbLine
 10
648.3872916951
 20
1080.3793212593
 30
0.0
 11
648.4931495442
 21
1081.0516020477
 31
0.0
  0
LINE
  5
10C
330
1F
100
AcDbEntity
  8
0
  6
Continuous
 62
     7
370
    15
100
AcDbLine
 10
648.4931495442
 20
1081.0516020477
 30
0.0
 11
647.8419091954
 21
1081.2131902397
 31
0.0
  0
LINE
  5
10D
330
1F
100
AcDbEntity
  8
0
  6
Continuous
 62
     7
370
    15
100
AcDbLine
 10
647.8403594746
 20
1081.2158724487
 30
0.0
 11
648.0128255143
 21
1081.8742057503
 31
0.0
  0
LINE
  5
10E
330
1F
100
AcDbEntity
  8
0
  6
Continuous
 62
     7
370
    15
100
AcDbLine
 10
648.0128255143
 20
1081.8742057503
 30
0.0
 11
647.3809864773
 21
1082.0999881447
 31
0.0
  0
LINE
  5
10F
330
1F
100
AcDbEntity
  8
0
  6
Continuous
 62
     7
370
    15
100
AcDbLine
 10
647.3797049775
 20
1082.102789563
 30
0.0
 11
647.6170208706
 21
1082.7406188667
 31
0.0
  0
LINE
  5
110
330
1F
100
AcDbEntity
  8
0
  6
Continuous
 62
     7
370
    15
100
AcDbLine
 10
647.6170208706
 20
1082.7406188667
 30
0.0
 11
647.0108714356
 21
1083.0283900917
 31
0.0
  0
LINE
  5
111
330
1F
100
AcDbEntity
  8
0
  6
Continuous
 62
     7
370
    15
100
AcDbLine
 10
647.0098879589
 20
1083.0312511147
 30
0.0
 11
647.3096993222
 21
1083.6422583283
 31
0.0
  0
LINE
  5
112
330
1F
100
AcDbEntity
  8
0
  6
Continuous
 62
     7
370
    15
100
AcDbLine
 10
647.3096993222
 20
1083.6422583283
 30
0.0
 11
646.7352893605
 21
1083.9890381516
 31
0.0
  0
LINE
  5
113
330
1F
100
AcDbEntity
  8
0
  6
Continuous
 62
     7
370
    15
100
AcDbLine
 10
646.734603907
 20
1083.9920183838
 30
0.0
 11
647.0939007058
 21
1084.5700046242
 31
0.0
  0
LINE
  5
114
330
1F
100
AcDbEntity
  8
0
  6
Continuous
 62
     7
370
    15
100
AcDbLine
 10
647.0939007058
 20
1084.5700046242
 30
0.0
 11
646.5570118679
 21
1084.9724551857
 31
0.0
  0
LINE
  5
115
330
1F
100
AcDbEntity
  8
0
  6
Continuous
 62
     7
370
    15
100
AcDbLine
 10
646.5565946354
 20
1084.9754950226
 30
0.0
 11
646.9718303933
 21
1085.5147382439
 31
0.0
  0
LINE
  5
116
330
1F
100
AcDbEntity
  8
0
  6
Continuous
 62
     7
370
    15
100
AcDbLine
 10
646.9718303933
 20
1085.5147382439
 30
0.0
 11
646.4777674927
 21
1085.9687468231
 31
0.0
  0
LWPOLYLINE
  5
117
330
1F
100
AcDbEntity
  8
0
  6
Continuous
 62
     7
370
    15
100
AcDbPolyline
 90
        3
 70
   128
 43
0.0
 10
646.4776780857
 20
1085.97178666
 10
646.7515912308
 20
1086.2621804894
 10
646.9446506752
 20
1086.4668628395
  0
LINE
  5
118
330
1F
100
AcDbEntity
  8
0
  6
Continuous
 62
     7
370
    15
100
AcDbLine
 10
646.9446506752
 20
1086.4668628395
 30
0.0
 11
646.4983906998
 21
1086.9679590881
 31
0.0
  0
LINE
  5
119
330
1F
100
AcDbEntity
  8
0
  6
Continuous
 62
     7
370
    15
100
AcDbLine
 10
666.469403769
 20
1086.1400505722
 30
0.0
 11
666.469403769
 21
1086.1365935028
 31
0.0
  0
LINE
  5
11A
330
1F
100
AcDbEntity
  8
0
  6
Continuous
 62
     7
370
    15
100
AcDbLine
 10
666.4686587109
 20
1086.140765828
 30
0.0
 11
666.469403769
 21
1086.1400505722
 31
0.0
  0
LINE
  5
11B
330
1F
100
AcDbEntity
  8
0
  6
Continuous
 62
     7
370
    15
100
AcDbLine
 10
666.469403769
 20
1086.1365935028
 30
0.0
 11
666.4685991062
 21
1086.1358186424
 31
0.0
  0
CIRCLE
  5
11C
330
1F
100
AcDbEntity
  8
0
  6
Continuous
 62
     7
370
    15
100
AcDbCircle
 10
120.471910025
 20
1086.262192601
 30
0.0
 40
9.497484303028045
  0
LINE
  5
11D
330
1F
100
AcDbEntity
  8
0
  6
Continuous
 62
     7
370
    15
100
AcDbLine
 10
110.4986157669
 20
1086.970998925
 30
0.0
 11
111.0126760258
 21
1087.4169608772
 31
0.0
  0
LINE
  5
11E
330
1F
100
AcDbEntity
  8
0
  6
Continuous
 62
     7
370
    15
100
AcDbLine
 10
111.0126760258
 20
1087.4169608772
 30
0.0
 11
110.6186893238
 21
1087.9600784004
 31
0.0
  0
LINE
  5
11F
330
1F
100
AcDbEntity
  8
0
  6
Continuous
 62
     7
370
    15
100
AcDbLine
 10
110.6191959633
 20
1087.9631182373
 30
0.0
 11
111.1752178921
 21
1088.3555552185
 31
0.0
  0
LINE
  5
120
330
1F
100
AcDbEntity
  8
0
  6
Continuous
 62
     7
370
    15
100
AcDbLine
 10
111.1752178921
 20
1088.3555552185
 30
0.0
 11
110.8374085678
 21
1088.9353295982
 31
0.0
  0
LINE
  5
121
330
1F
100
AcDbEntity
  8
0
  6
Continuous
 62
     7
370
    15
100
AcDbLine
 10
110.8382430329
 20
1088.9382502258
 30
0.0
 11
111.4306535973
 21
1089.2732283295
 31
0.0
  0
LINE
  5
122
330
1F
100
AcDbEntity
  8
0
  6
Continuous
 62
     7
370
    15
100
AcDbLine
 10
111.4306535973
 20
1089.2732283295
 30
0.0
 11
111.1524191155
 21
1089.8838183106
 31
0.0
  0
LINE
  5
123
330
1F
100
AcDbEntity
  8
0
  6
Continuous
 62
     7
370
    15
100
AcDbLine
 10
111.1535218014
 20
1089.8866793335
 30
0.0
 11
111.7764201416
 21
1090.1608010948
 31
0.0
  0
LINE
  5
124
330
1F
100
AcDbEntity
  8
0
  6
Continuous
 62
     7
370
    15
100
AcDbLine
 10
111.7764201416
 20
1090.1608010948
 30
0.0
 11
111.5605321183
 21
1090.7961270035
 31
0.0
  0
LINE
  5
125
330
1F
100
AcDbEntity
  8
0
  6
Continuous
 62
     7
370
    15
100
AcDbLine
 10
111.5619328274
 20
1090.7988092125
 30
0.0
 11
112.2090902581
 21
1091.0094520271
 31
0.0
  0
LINE
  5
126
330
1F
100
AcDbEntity
  8
0
  6
Continuous
 62
     7
370
    15
100
AcDbLine
 10
112.2090902581
 20
1091.0094520271
 30
0.0
 11
112.0576944603
 21
1091.6630765618
 31
0.0
  0
LINE
  5
127
330
1F
100
AcDbEntity
  8
0
  6
Continuous
 62
     7
370
    15
100
AcDbLine
 10
112.0593335881
 20
1091.6656991661
 30
0.0
 11
112.7243128075
 21
1091.8105980576
 31
0.0
  0
LINE
  5
128
330
1F
100
AcDbEntity
  8
0
  6
Continuous
 62
     7
370
    15
100
AcDbLine
 10
112.7243128075
 20
1091.8105980576
 30
0.0
 11
112.6389291539
 21
1092.4761435211
 31
0.0
  0
LINE
  5
129
330
1F
100
AcDbEntity
  8
0
  6
Continuous
 62
     7
370
    15
100
AcDbLine
 10
112.6408067002
 20
1092.4785277069
 30
0.0
 11
113.3169319882
 21
1092.556371373
 31
0.0
  0
LINE
  5
12A
330
1F
100
AcDbEntity
  8
0
  6
Continuous
 62
     7
370
    15
100
AcDbLine
 10
113.3169319882
 20
1092.556371373
 30
0.0
 11
113.2983949437
 21
1093.2271024407
 31
0.0
  0
LINE
  5
12B
330
1F
100
AcDbEntity
  8
0
  6
Continuous
 62
     7
370
    15
100
AcDbLine
 10
113.3005407109
 20
1093.2293078125
 30
0.0
 11
113.9810469403
 21
1093.2392021835
 31
0.0
  0
LINE
  5
12C
330
1F
100
AcDbEntity
  8
0
  6
Continuous
 62
     7
370
    15
100
AcDbLine
 10
113.9810469403
 20
1093.2392021835
 30
0.0
 11
114.0295651211
 21
1093.9084431351
 31
0.0
  0
LINE
  5
12D
330
1F
100
AcDbEntity
  8
0
  6
Continuous
 62
     7
370
    15
100
AcDbLine
 10
114.0319195046
 20
1093.9104100884
 30
0.0
 11
114.7100117459
 21
1093.8523551644
 31
0.0
  0
LINE
  5
12E
330
1F
100
AcDbEntity
  8
0
  6
Continuous
 62
     7
370
    15
100
AcDbLine
 10
114.7100117459
 20
1093.8523551644
 30
0.0
 11
114.8251083149
 21
1094.5134302796
 31
0.0
  0
LINE
  5
12F
330
1F
100
AcDbEntity
  8
0
  6
Continuous
 62
     7
370
    15
100
AcDbLine
 10
114.8276415123
 20
1094.5151588143
 30
0.0
 11
115.4965546383
 21
1094.389691037
 31
0.0
  0
LINE
  5
130
330
1F
100
AcDbEntity
  8
0
  6
Continuous
 62
     7
370
    15
100
AcDbLine
 10
115.4965546383
 20
1094.389691037
 30
0.0
 11
115.677067305
 21
1095.0359245957
 31
0.0
  0
LINE
  5
131
330
1F
100
AcDbEntity
  8
0
  6
Continuous
 62
     7
370
    15
100
AcDbLine
 10
115.679749514
 20
1095.0374147118
 30
0.0
 11
116.3328078045
 21
1094.8457857788
 31
0.0
  0
LINE
  5
132
330
1F
100
AcDbEntity
  8
0
  6
Continuous
 62
     7
370
    15
100
AcDbLine
 10
116.3328078045
 20
1094.8457857788
 30
0.0
 11
116.5769484295
 21
1095.4708000839
 31
0.0
  0
LINE
  5
133
330
1F
100
AcDbEntity
  8
0
  6
Continuous
 62
     7
370
    15
100
AcDbLine
 10
116.5797498478
 20
1095.4719921768
 30
0.0
 11
117.2103967919
 21
1095.2161094368
 31
0.0
  0
LINE
  5
134
330
1F
100
AcDbEntity
  8
0
  6
Continuous
 62
     7
370
    15
100
AcDbLine
 10
117.2103967919
 20
1095.2161094368
 30
0.0
 11
117.5157215847
 21
1095.8136460007
 31
0.0
  0
LINE
  5
135
330
1F
100
AcDbEntity
  8
0
  6
Continuous
 62
     7
370
    15
100
AcDbLine
 10
117.5186422123
 20
1095.8145400704
 30
0.0
 11
118.1205895199
 21
1095.4970261276
 31
0.0
  0
LINE
  5
136
330
1F
100
AcDbEntity
  8
0
  6
Continuous
 62
     7
370
    15
100
AcDbLine
 10
118.1205895199
 20
1095.4970261276
 30
0.0
 11
118.4840288414
 21
1096.0610052765
 31
0.0
  0
LINE
  5
137
330
1F
100
AcDbEntity
  8
0
  6
Continuous
 62
     7
370
    15
100
AcDbLine
 10
118.487038876
 20
1096.0616609276
 30
0.0
 11
119.0542962803
 21
1095.6856152237
 31
0.0
  0
LINE
  5
138
330
1F
100
AcDbEntity
  8
0
  6
Continuous
 62
     7
370
    15
100
AcDbLine
 10
119.0542962803
 20
1095.6856152237
 30
0.0
 11
119.4722142472
 21
1096.2105533302
 31
0.0
  0
LINE
  5
139
330
1F
100
AcDbEntity
  8
0
  6
Continuous
 62
     7
370
    15
100
AcDbLine
 10
119.4752838864
 20
1096.2108513535
 30
0.0
 11
120.0021591439
 21
1095.7800885857
 31
0.0
  0
LINE
  5
13A
330
1F
100
AcDbEntity
  8
0
  6
Continuous
 62
     7
370
    15
100
AcDbLine
 10
120.0021591439
 20
1095.7800885857
 30
0.0
 11
120.4703834309
 21
1096.2606212319
 31
0.0
  0
LINE
  5
13B
330
1F
100
AcDbEntity
  8
0
  6
Continuous
 62
     7
370
    15
100
AcDbLine
 10
120.4734530701
 20
1096.2606212319
 30
0.0
 11
120.8766486897
 21
1095.8574554146
 31
0.0
  0
LINE
  5
13C
330
1F
100
AcDbEntity
  8
0
  6
Continuous
 62
     7
370
    15
100
AcDbLine
 10
120.8766486897
 20
1095.8574554146
 30
0.0
 11
121.3011529698
 21
1096.2261697472
 31
0.0
  0
LINE
  5
13D
330
1F
100
AcDbEntity
  8
0
  6
Continuous
 62
     7
370
    15
100
AcDbLine
 10
121.304222609
 20
1096.2259313286
 30
0.0
 11
121.7438068642
 21
1095.7063576401
 31
0.0
  0
LINE
  5
13E
330
1F
100
AcDbEntity
  8
0
  6
Continuous
 62
     7
370
    15
100
AcDbLine
 10
121.7438068642
 20
1095.7063576401
 30
0.0
 11
122.2917523636
 21
1096.0936090172
 31
0.0
  0
LINE
  5
13F
330
1F
100
AcDbEntity
  8
0
  6
Continuous
 62
     7
370
    15
100
AcDbLine
 10
122.2947623982
 20
1096.0930725754
 30
0.0
 11
122.6802852406
 21
1095.5322524727
 31
0.0
  0
LINE
  5
140
330
1F
100
AcDbEntity
  8
0
  6
Continuous
 62
     7
370
    15
100
AcDbLine
 10
122.6802852406
 20
1095.5322524727
 30
0.0
 11
123.2641723408
 21
1095.8628198326
 31
0.0
  0
LINE
  5
141
330
1F
100
AcDbEntity
  8
0
  6
Continuous
 62
     7
370
    15
100
AcDbLine
 10
123.2671227707
 20
1095.8619853676
 30
0.0
 11
123.5947098984
 21
1095.2654620827
 31
0.0
  0
LINE
  5
142
330
1F
100
AcDbEntity
  8
0
  6
Continuous
 62
     7
370
    15
100
AcDbLine
 10
123.5947098984
 20
1095.2654620827
 30
0.0
 11
124.2086973442
 21
1095.5361267746
 31
0.0
  0
LINE
  5
143
330
1F
100
AcDbEntity
  8
0
  6
Continuous
 62
     7
370
    15
100
AcDbLine
 10
124.2115285649
 20
1095.5349346817
 30
0.0
 11
124.477961327
 21
1094.9087282837
 31
0.0
  0
LINE
  5
144
330
1F
100
AcDbEntity
  8
0
  6
Continuous
 62
     7
370
    15
100
AcDbLine
 10
124.477961327
 20
1094.9087282837
 30
0.0
 11
125.1158800377
 21
1095.1166888893
 31
0.0
  0
LINE
  5
145
330
1F
100
AcDbEntity
  8
0
  6
Continuous
 62
     7
370
    15
100
AcDbLine
 10
125.1185920491
 20
1095.1153179825
 30
0.0
 11
125.3211584343
 21
1094.4655677498
 31
0.0
  0
LINE
  5
146
330
1F
100
AcDbEntity
  8
0
  6
Continuous
 62
     7
370
    15
100
AcDbLine
 10
125.3211584343
 20
1094.4655677498
 30
0.0
 11
125.9766605152
 21
1094.6088573158
 31
0.0
  0
LINE
  5
147
330
1F
100
AcDbEntity
  8
0
  6
Continuous
 62
     7
370
    15
100
AcDbLine
 10
125.9791937126
 20
1094.6071883858
 30
0.0
 11
126.1158969654
 21
1093.9404508293
 31
0.0
  0
LINE
  5
148
330
1F
100
AcDbEntity
  8
0
  6
Continuous
 62
     7
370
    15
100
AcDbLine
 10
126.1158969654
 20
1093.9404508293
 30
0.0
 11
126.7824259056
 21
1094.0175792397
 31
0.0
  0
LINE
  5
149
330
1F
100
AcDbEntity
  8
0
  6
Continuous
 62
     7
370
    15
100
AcDbLine
 10
126.7848100914
 20
1094.015671891
 30
0.0
 11
126.8542495026
 21
1093.3386823357
 31
0.0
  0
LINE
  5
14A
330
1F
100
AcDbEntity
  8
0
  6
Continuous
 62
     7
370
    15
100
AcDbLine
 10
126.8542495026
 20
1093.3386823357
 30
0.0
 11
127.5251295819
 21
1093.3488747299
 31
0.0
  0
LINE
  5
14B
330
1F
100
AcDbEntity
  8
0
  6
Continuous
 62
     7
370
    15
100
AcDbLine
 10
127.5273051514
 20
1093.3467289627
 30
0.0
 11
127.5288250698
 21
1092.666103524
 31
0.0
  0
LINE
  5
14C
330
1F
100
AcDbEntity
  8
0
  6
Continuous
 62
     7
370
    15
100
AcDbLine
 10
127.5288250698
 20
1092.666103524
 30
0.0
 11
128.197380568
 21
1092.6093002976
 31
0.0
  0
LINE
  5
14D
330
1F
100
AcDbEntity
  8
0
  6
Continuous
 62
     7
370
    15
100
AcDbLine
 10
128.1993475212
 20
1092.6069161118
 30
0.0
 11
128.1328883423
 21
1091.9296285332
 31
0.0
  0
LINE
  5
14E
330
1F
100
AcDbEntity
  8
0
  6
Continuous
 62
     7
370
    15
100
AcDbLine
 10
128.1328883423
 20
1091.9296285332
 30
0.0
 11
128.7924435391
 21
1091.8063065231
 31
0.0
  0
LINE
  5
14F
330
1F
100
AcDbEntity
  8
0
  6
Continuous
 62
     7
370
    15
100
AcDbLine
 10
128.7941422715
 20
1091.8038031281
 30
0.0
 11
128.6604192509
 21
1091.1364695252
 31
0.0
  0
LINE
  5
150
330
1F
100
AcDbEntity
  8
0
  6
Continuous
 62
     7
370
    15
100
AcDbLine
 10
128.6604192509
 20
1091.1364695252
 30
0.0
 11
129.3043878331
 21
1090.9479400337
 31
0.0
  0
LINE
  5
151
330
1F
100
AcDbEntity
  8
0
  6
Continuous
 62
     7
370
    15
100
AcDbLine
 10
129.3058183445
 20
1090.9452578247
 30
0.0
 11
129.1061427845
 21
1090.294673127
 31
0.0
  0
LINE
  5
152
330
1F
100
AcDbEntity
  8
0
  6
Continuous
 62
     7
370
    15
100
AcDbLine
 10
129.1061427845
 20
1090.294673127
 30
0.0
 11
129.7280576481
 21
1090.0427838982
 31
0.0
  0
LINE
  5
153
330
1F
100
AcDbEntity
  8
0
  6
Continuous
 62
     7
370
    15
100
AcDbLine
 10
129.7292199387
 20
1090.0399228752
 30
0.0
 11
129.4655587925
 21
1089.4125243843
 31
0.0
  0
LINE
  5
154
330
1F
100
AcDbEntity
  8
0
  6
Continuous
 62
     7
370
    15
100
AcDbLine
 10
129.4655587925
 20
1089.4125243843
 30
0.0
 11
130.0592210545
 21
1089.0998384178
 31
0.0
  0
LINE
  5
155
330
1F
100
AcDbEntity
  8
0
  6
Continuous
 62
     7
370
    15
100
AcDbLine
 10
130.0601151242
 20
1089.0969177902
 30
0.0
 11
129.7351506008
 21
1088.4989043892
 31
0.0
  0
LINE
  5
156
330
1F
100
AcDbEntity
  8
0
  6
Continuous
 62
     7
370
    15
100
AcDbLine
 10
129.7351506008
 20
1088.4989043892
 30
0.0
 11
130.294629599
 21
1088.1285211266
 31
0.0
  0
LINE
  5
157
330
1F
100
AcDbEntity
  8
0
  6
Continuous
 62
     7
370
    15
100
AcDbLine
 10
130.2951958432
 20
1088.1254812897
 30
0.0
 11
129.9121763958
 21
1087.5629326523
 31
0.0
  0
LINE
  5
158
330
1F
100
AcDbEntity
  8
0
  6
Continuous
 62
     7
370
    15
100
AcDbLine
 10
129.9121763958
 20
1087.5629326523
 30
0.0
 11
130.4318692936
 21
1087.1385475815
 31
0.0
  0
LINE
  5
159
330
1F
100
AcDbEntity
  8
0
  6
Continuous
 62
     7
370
    15
100
AcDbLine
 10
130.4321375145
 20
1087.1355077446
 30
0.0
 11
129.9948778405
 21
1086.6140267075
 31
0.0
  0
LWPOLYLINE
  5
15A
330
1F
100
AcDbEntity
  8
0
  6
Continuous
 62
     7
370
    15
100
AcDbPolyline
 90
        3
 70
   128
 43
0.0
 10
129.9948778405
 20
1086.6140267075
 10
130.3471114888
 20
1086.2621804894
 10
130.4686453595
 20
1086.140765828
  0
LINE
  5
15B
330
1F
100
AcDbEntity
  8
0
  6
Continuous
 62
     7
370
    15
100
AcDbLine
 10
130.4685956101
 20
1086.1358213159
 30
0.0
 11
130.4686571663
 21
1086.1407883893
 31
0.0
  0
LINE
  5
15C
330
1F
100
AcDbEntity
  8
0
  6
Continuous
 62
     7
370
    15
100
AcDbLine
 10
130.4685857548
 20
1086.1358186424
 30
0.0
 11
129.9824204697
 21
1085.661544484
 31
0.0
  0
LINE
  5
15D
330
1F
100
AcDbEntity
  8
0
  6
Continuous
 62
     7
370
    15
100
AcDbLine
 10
129.9824204697
 20
1085.661544484
 30
0.0
 11
130.4074313893
 21
1085.1423284233
 31
0.0
  0
LINE
  5
15E
330
1F
100
AcDbEntity
  8
0
  6
Continuous
 62
     7
370
    15
100
AcDbLine
 10
130.4071035637
 20
1085.1392885864
 30
0.0
 11
129.8749234928
 21
1084.7150823296
 31
0.0
  0
LINE
  5
15F
330
1F
100
AcDbEntity
  8
0
  6
Continuous
 62
     7
370
    15
100
AcDbLine
 10
129.8749234928
 20
1084.7150823296
 30
0.0
 11
130.2460220112
 21
1084.1560503662
 31
0.0
  0
LINE
  5
160
330
1F
100
AcDbEntity
  8
0
  6
Continuous
 62
     7
370
    15
100
AcDbLine
 10
130.2453663601
 20
1084.153070134
 30
0.0
 11
129.6735193982
 21
1083.7840577782
 31
0.0
  0
LINE
  5
161
330
1F
100
AcDbEntity
  8
0
  6
Continuous
 62
     7
370
    15
100
AcDbLine
 10
129.6735193982
 20
1083.7840577782
 30
0.0
 11
129.9869206204
 21
1083.1907531441
 31
0.0
  0
LINE
  5
162
330
1F
100
AcDbEntity
  8
0
  6
Continuous
 62
     7
370
    15
100
AcDbLine
 10
129.9859669461
 20
1083.1878921211
 30
0.0
 11
129.3801453366
 21
1082.877828759
 31
0.0
  0
LINE
  5
163
330
1F
100
AcDbEntity
  8
0
  6
Continuous
 62
     7
370
    15
100
AcDbLine
 10
129.3801453366
 20
1082.877828759
 30
0.0
 11
129.6327498211
 21
1082.2562119187
 31
0.0
  0
LINE
  5
164
330
1F
100
AcDbEntity
  8
0
  6
Continuous
 62
     7
370
    15
100
AcDbLine
 10
129.6315279259
 20
1082.2534105003
 30
0.0
 11
128.997751738
 21
1082.0053955734
 31
0.0
  0
LINE
  5
165
330
1F
100
AcDbEntity
  8
0
  6
Continuous
 62
     7
370
    15
100
AcDbLine
 10
128.997751738
 20
1082.0053955734
 30
0.0
 11
129.1870560898
 21
1081.3616654099
 31
0.0
  0
LINE
  5
166
330
1F
100
AcDbEntity
  8
0
  6
Continuous
 62
     7
370
    15
100
AcDbLine
 10
129.1855659737
 20
1081.3589832008
 30
0.0
 11
128.5301831021
 21
1081.1755201042
 31
0.0
  0
LINE
  5
167
330
1F
100
AcDbEntity
  8
0
  6
Continuous
 62
     7
370
    15
100
AcDbLine
 10
128.5301831021
 20
1081.1755201042
 30
0.0
 11
128.6542799725
 21
1080.5161139191
 31
0.0
  0
LINE
  5
168
330
1F
100
AcDbEntity
  8
0
  6
Continuous
 62
     7
370
    15
100
AcDbLine
 10
128.6525216355
 20
1080.5135509194
 30
0.0
 11
127.9821183934
 21
1080.3964277924
 31
0.0
  0
LINE
  5
169
330
1F
100
AcDbEntity
  8
0
  6
Continuous
 62
     7
370
    15
100
AcDbLine
 10
127.9821183934
 20
1080.3964277924
 30
0.0
 11
128.0397560849
 21
1079.7279020966
 31
0.0
  0
LINE
  5
16A
330
1F
100
AcDbEntity
  8
0
  6
Continuous
 62
     7
370
    15
100
AcDbLine
 10
128.0377593293
 20
1079.7255775154
 30
0.0
 11
127.3589816346
 21
1079.6759268463
 31
0.0
  0
LINE
  5
16B
330
1F
100
AcDbEntity
  8
0
  6
Continuous
 62
     7
370
    15
100
AcDbLine
 10
127.3589816346
 20
1079.6759268463
 30
0.0
 11
127.349593903
 21
1079.0050169647
 31
0.0
  0
LINE
  5
16C
330
1F
100
AcDbEntity
  8
0
  6
Continuous
 62
     7
370
    15
100
AcDbLine
 10
127.3473885311
 20
1079.0029308022
 30
0.0
 11
126.6670611157
 21
1079.0212890328
 31
0.0
  0
LINE
  5
16D
330
1F
100
AcDbEntity
  8
0
  6
Continuous
 62
     7
370
    15
100
AcDbLine
 10
126.6670611157
 20
1079.0212890328
 30
0.0
 11
126.590737368
 21
1078.3546706856
 31
0.0
  0
LINE
  5
16E
330
1F
100
AcDbEntity
  8
0
  6
Continuous
 62
     7
370
    15
100
AcDbLine
 10
126.5883233799
 20
1078.352763337
 30
0.0
 11
125.9132113709
 21
1078.4390112579
 31
0.0
  0
LINE
  5
16F
330
1F
100
AcDbEntity
  8
0
  6
Continuous
 62
     7
370
    15
100
AcDbLine
 10
125.9132113709
 20
1078.4390112579
 30
0.0
 11
125.7707264675
 21
1077.7833005608
 31
0.0
  0
LINE
  5
170
330
1F
100
AcDbEntity
  8
0
  6
Continuous
 62
     7
370
    15
100
AcDbLine
 10
125.7681336655
 20
1077.7816912354
 30
0.0
 11
125.1050319924
 21
1077.9348751724
 31
0.0
  0
LINE
  5
171
330
1F
100
AcDbEntity
  8
0
  6
Continuous
 62
     7
370
    15
100
AcDbLine
 10
125.1050319924
 20
1077.9348751724
 30
0.0
 11
124.8977866425
 21
1077.2966882408
 31
0.0
  0
LINE
  5
172
330
1F
100
AcDbEntity
  8
0
  6
Continuous
 62
     7
370
    15
100
AcDbLine
 10
124.8950448288
 20
1077.295317334
 30
0.0
 11
124.2505398049
 21
1077.5138875664
 31
0.0
  0
LINE
  5
173
330
1F
100
AcDbEntity
  8
0
  6
Continuous
 62
     7
370
    15
100
AcDbLine
 10
124.2505398049
 20
1077.5138875664
 30
0.0
 11
123.980620171
 21
1076.8996020973
 31
0.0
  0
LINE
  5
174
330
1F
100
AcDbEntity
  8
0
  6
Continuous
 62
     7
370
    15
100
AcDbLine
 10
123.9777591481
 20
1076.8985292137
 30
0.0
 11
123.3582880749
 21
1077.1803995789
 31
0.0
  0
LINE
  5
175
330
1F
100
AcDbEntity
  8
0
  6
Continuous
 62
     7
370
    15
100
AcDbLine
 10
123.3582880749
 20
1077.1803995789
 30
0.0
 11
123.0283763661
 21
1076.5960952461
 31
0.0
  0
LINE
  5
176
330
1F
100
AcDbEntity
  8
0
  6
Continuous
 62
     7
370
    15
100
AcDbLine
 10
123.0254259362
 20
1076.5953203858
 30
0.0
 11
122.4371876969
 21
1076.9375702561
 31
0.0
  0
LINE
  5
177
330
1F
100
AcDbEntity
  8
0
  6
Continuous
 62
     7
370
    15
100
AcDbLine
 10
122.4371876969
 20
1076.9375702561
 30
0.0
 11
122.0506217732
 21
1076.3891479195
 31
0.0
  0
LINE
  5
178
330
1F
100
AcDbEntity
  8
0
  6
Continuous
 62
     7
370
    15
100
AcDbLine
 10
122.0475819363
 20
1076.3886710823
 30
0.0
 11
121.4964773907
 21
1076.7879625977
 31
0.0
  0
LINE
  5
179
330
1F
100
AcDbEntity
  8
0
  6
Continuous
 62
     7
370
    15
100
AcDbLine
 10
121.4964773907
 20
1076.7879625977
 30
0.0
 11
121.0570719494
 21
1076.2809058846
 31
0.0
  0
LINE
  5
17A
330
1F
100
AcDbEntity
  8
0
  6
Continuous
 62
     7
370
    15
100
AcDbLine
 10
121.0540023102
 20
1076.2807270706
 30
0.0
 11
120.5455150856
 21
1076.7330071152
 31
0.0
  0
LINE
  5
17B
330
1F
100
AcDbEntity
  8
0
  6
Continuous
 62
     7
370
    15
100
AcDbLine
 10
120.5455150856
 20
1076.7330071152
 30
0.0
 11
120.0576808705
 21
1076.2723228157
 31
0.0
  0
LINE
  5
17C
330
1F
100
AcDbEntity
  8
0
  6
Continuous
 62
     7
370
    15
100
AcDbLine
 10
120.0546112313
 20
1076.272442025
 30
0.0
 11
119.5938077225
 21
1076.7732998551
 31
0.0
  0
LINE
  5
17D
330
1F
100
AcDbEntity
  8
0
  6
Continuous
 62
     7
370
    15
100
AcDbLine
 10
119.5938077225
 20
1076.7732998551
 30
0.0
 11
119.0624323143
 21
1076.3635775269
 31
0.0
  0
LINE
  5
17E
330
1F
100
AcDbEntity
  8
0
  6
Continuous
 62
     7
370
    15
100
AcDbLine
 10
119.0593924775
 20
1076.3639947594
 30
0.0
 11
118.6508920445
 21
1076.9083639801
 31
0.0
  0
LINE
  5
17F
330
1F
100
AcDbEntity
  8
0
  6
Continuous
 62
     7
370
    15
100
AcDbLine
 10
118.6508920445
 20
1076.9083639801
 30
0.0
 11
118.0812504544
 21
1076.5537759483
 31
0.0
  0
LINE
  5
180
330
1F
100
AcDbEntity
  8
0
  6
Continuous
 62
     7
370
    15
100
AcDbLine
 10
118.0782702221
 20
1076.5544912041
 30
0.0
 11
117.7261557831
 21
1077.1368881882
 31
0.0
  0
LINE
  5
181
330
1F
100
AcDbEntity
  8
0
  6
Continuous
 62
     7
370
    15
100
AcDbLine
 10
117.7261557831
 20
1077.1368881882
 30
0.0
 11
117.1239700569
 21
1076.8409511269
 31
0.0
  0
LINE
  5
182
330
1F
100
AcDbEntity
  8
0
  6
Continuous
 62
     7
370
    15
100
AcDbLine
 10
117.1210792317
 20
1076.8419644058
 30
0.0
 11
116.8288674607
 21
1077.4566075028
 31
0.0
  0
LINE
  5
183
330
1F
100
AcDbEntity
  8
0
  6
Continuous
 62
     7
370
    15
100
AcDbLine
 10
116.8288674607
 20
1077.4566075028
 30
0.0
 11
116.2001576676
 21
1077.2222420395
 31
0.0
  0
LINE
  5
184
330
1F
100
AcDbEntity
  8
0
  6
Continuous
 62
     7
370
    15
100
AcDbLine
 10
116.1973860516
 20
1077.2235533417
 30
0.0
 11
115.9679677739
 21
1077.864303273
 31
0.0
  0
LINE
  5
185
330
1F
100
AcDbEntity
  8
0
  6
Continuous
 62
     7
370
    15
100
AcDbLine
 10
115.9679677739
 20
1077.864303273
 30
0.0
 11
115.3189924015
 21
1077.693833989
 31
0.0
  0
LINE
  5
186
330
1F
100
AcDbEntity
  8
0
  6
Continuous
 62
     7
370
    15
100
AcDbLine
 10
115.3163697972
 20
1077.6954433144
 30
0.0
 11
115.1520695938
 21
1078.3558627785
 31
0.0
  0
LINE
  5
187
330
1F
100
AcDbEntity
  8
0
  6
Continuous
 62
     7
370
    15
100
AcDbLine
 10
115.1520695938
 20
1078.3558627785
 30
0.0
 11
114.4893255486
 21
1078.251077813
 31
0.0
  0
LINE
  5
188
330
1F
100
AcDbEntity
  8
0
  6
Continuous
 62
     7
370
    15
100
AcDbLine
 10
114.4868817582
 20
1078.252925557
 30
0.0
 11
114.389338757
 21
1078.9264580429
 31
0.0
  0
LINE
  5
189
330
1F
100
AcDbEntity
  8
0
  6
Continuous
 62
     7
370
    15
100
AcDbLine
 10
114.389338757
 20
1078.9264580429
 30
0.0
 11
113.7194421543
 21
1078.8883706749
 31
0.0
  0
LINE
  5
18A
330
1F
100
AcDbEntity
  8
0
  6
Continuous
 62
     7
370
    15
100
AcDbLine
 10
113.7171771778
 20
1078.8904568375
 30
0.0
 11
113.6873748555
 21
1079.5703670204
 31
0.0
  0
LINE
  5
18B
330
1F
100
AcDbEntity
  8
0
  6
Continuous
 62
     7
370
    15
100
AcDbLine
 10
113.6873748555
 20
1079.5703670204
 30
0.0
 11
113.017031218
 21
1079.5993348778
 31
0.0
  0
LINE
  5
18C
330
1F
100
AcDbEntity
  8
0
  6
Continuous
 62
     7
370
    15
100
AcDbLine
 10
113.0149748577
 20
1079.6015998543
 30
0.0
 11
113.0532112374
 21
1080.2810928047
 31
0.0
  0
LINE
  5
18D
330
1F
100
AcDbEntity
  8
0
  6
Continuous
 62
     7
370
    15
100
AcDbLine
 10
113.0532112374
 20
1080.2810928047
 30
0.0
 11
112.3890962853
 21
1080.3768774689
 31
0.0
  0
LINE
  5
18E
330
1F
100
AcDbEntity
  8
0
  6
Continuous
 62
     7
370
    15
100
AcDbLine
 10
112.3872783436
 20
1080.3793212593
 30
0.0
 11
112.4931659951
 21
1081.0516020477
 31
0.0
  0
LINE
  5
18F
330
1F
100
AcDbEntity
  8
0
  6
Continuous
 62
     7
370
    15
100
AcDbLine
 10
112.4931659951
 20
1081.0516020477
 30
0.0
 11
111.8419256462
 21
1081.2131902397
 31
0.0
  0
LINE
  5
190
330
1F
100
AcDbEntity
  8
0
  6
Continuous
 62
     7
370
    15
100
AcDbLine
 10
111.8403759255
 20
1081.2158724487
 30
0.0
 11
112.0128419651
 21
1081.8742057503
 31
0.0
  0
LINE
  5
191
330
1F
100
AcDbEntity
  8
0
  6
Continuous
 62
     7
370
    15
100
AcDbLine
 10
112.0128419651
 20
1081.8742057503
 30
0.0
 11
111.3809731259
 21
1082.0999881447
 31
0.0
  0
LINE
  5
192
330
1F
100
AcDbEntity
  8
0
  6
Continuous
 62
     7
370
    15
100
AcDbLine
 10
111.379691626
 20
1082.102789563
 30
0.0
 11
111.6170075192
 21
1082.7406188667
 31
0.0
  0
LINE
  5
193
330
1F
100
AcDbEntity
  8
0
  6
Continuous
 62
     7
370
    15
100
AcDbLine
 10
111.6170075192
 20
1082.7406188667
 30
0.0
 11
111.0108580841
 21
1083.0283900917
 31
0.0
  0
LINE
  5
194
330
1F
100
AcDbEntity
  8
0
  6
Continuous
 62
     7
370
    15
100
AcDbLine
 10
111.0098746075
 20
1083.0312511147
 30
0.0
 11
111.3096859707
 21
1083.6422583283
 31
0.0
  0
LINE
  5
195
330
1F
100
AcDbEntity
  8
0
  6
Continuous
 62
     7
370
    15
100
AcDbLine
 10
111.3096859707
 20
1083.6422583283
 30
0.0
 11
110.7353058113
 21
1083.9890381516
 31
0.0
  0
LINE
  5
196
330
1F
100
AcDbEntity
  8
0
  6
Continuous
 62
     7
370
    15
100
AcDbLine
 10
110.7345905556
 20
1083.9920183838
 30
0.0
 11
111.0939171566
 21
1084.5700046242
 31
0.0
  0
LINE
  5
197
330
1F
100
AcDbEntity
  8
0
  6
Continuous
 62
     7
370
    15
100
AcDbLine
 10
111.0939171566
 20
1084.5700046242
 30
0.0
 11
110.5569985165
 21
1084.9724551857
 31
0.0
  0
LINE
  5
198
330
1F
100
AcDbEntity
  8
0
  6
Continuous
 62
     7
370
    15
100
AcDbLine
 10
110.5566110863
 20
1084.9754950226
 30
0.0
 11
110.9718170418
 21
1085.5147382439
 31
0.0
  0
LINE
  5
199
330
1F
100
AcDbEntity
  8
0
  6
Continuous
 62
     7
370
    15
100
AcDbLine
 10
110.9718170418
 20
1085.5147382439
 30
0.0
 11
110.4777839436
 21
1085.9687468231
 31
0.0
  0
LWPOLYLINE
  5
19A
330
1F
100
AcDbEntity
  8
0
  6
Continuous
 62
     7
370
    15
100
AcDbPolyline
 90
        3
 70
   128
 43
0.0
 10
110.4776647343
 20
1085.97178666
 10
110.7516076817
 20
1086.2621804894
 10
110.9446671261
 20
1086.4668628395
  0
LINE
  5
19B
330
1F
100
AcDbEntity
  8
0
  6
Continuous
 62
     7
370
    15
100
AcDbLine
 10
110.9446671261
 20
1086.4668628395
 30
0.0
 11
110.4984071507
 21
1086.9679590881
 31
0.0
  0
LINE
  5
19C
330
1F
100
AcDbEntity
  8
0
  6
Continuous
 62
     7
370
    15
100
AcDbLine
 10
130.4693904175
 20
1086.1400505722
 30
0.0
 11
130.4693904175
 21
1086.1365935028
 31
0.0
  0
LINE
  5
19D
330
1F
100
AcDbEntity
  8
0
  6
Continuous
 62
     7
370
    15
100
AcDbLine
 10
130.4686453595
 20
1086.140765828
 30
0.0
 11
130.4693904175
 21
1086.1400505722
 31
0.0
  0
LINE
  5
19E
330
1F
100
AcDbEntity
  8
0
  6
Continuous
 62
     7
370
    15
100
AcDbLine
 10
130.4693904175
 20
1086.1365935028
 30
0.0
 11
130.4685857548
 21
1086.1358186424
 31
0.0
  0
LINE
  5
19F
330
1F
100
AcDbEntity
  8
0
  6
Continuous
 62
     7
370
    15
100
AcDbLine
 10
377.3227112769
 20
842.9439207733
 30
0.0
 11
374.8489899962
 21
831.3331743897
 31
0.0
  0
ARC
  5
1A0
330
1F
100
AcDbEntity
  8
0
  6
Continuous
 62
     7
370
    15
100
AcDbCircle
 10
388.4719100251
 20
860.2404252083
 30
0.0
 40
20.57847658102336
100
AcDbArc
 50
237.194471406
 51
302.805528594
  0
LINE
  5
1A1
330
1F
100
AcDbEntity
  8
0
  6
Continuous
 62
     7
370
    15
100
AcDbLine
 10
402.0948300539
 20
831.3331743897
 30
0.0
 11
399.6211087732
 21
842.9439207733
 31
0.0
  0
ARC
  5
1A2
330
1F
100
AcDbEntity
  8
0
  6
Continuous
 62
     7
370
    15
100
AcDbCircle
 10
403.9632178847
 20
831.8656979207
 30
0.0
 40
1.942795510932514
100
AcDbArc
 50
195.9084878586
 51
280.9499668298
  0
ARC
  5
1A3
330
1F
100
AcDbEntity
  8
0
  6
Continuous
 62
     7
370
    15
100
AcDbCircle
 10
404.2724217067
 20
829.988096929
 30
0.0
 40
0.0668539891454108
100
AcDbArc
 50
295.6203191792
 51
333.506917199
  0
ARC
  5
1A4
330
1F
100
AcDbEntity
  8
0
  6
Continuous
 62
     7
370
    15
100
AcDbCircle
 10
388.4719100251
 20
855.0295009216
 30
0.0
 40
29.67600226972748
100
AcDbArc
 50
237.7639836595
 51
302.2360163405
  0
ARC
  5
1A5
330
1F
100
AcDbEntity
  8
0
  6
Continuous
 62
     7
370
    15
100
AcDbCircle
 10
372.6727113207
 20
829.9894300602
 30
0.0
 40
0.0686264728241053
100
AcDbArc
 50
207.000229474
 51
243.8725341479
  0
ARC
  5
1A6
330
1F
100
AcDbEntity
  8
0
  6
Continuous
 62
     7
370
    15
100
AcDbCircle
 10
372.981527314
 20
831.8641923929
 30
0.0
 40
1.941493494445337
100
AcDbArc
 50
259.0147884743
 51
344.1267568373
  0
LINE
  5
1A7
330
1F
100
AcDbEntity
  8
0
  6
Continuous
 62
     7
370
    15
100
AcDbLine
 10
400.0905931397
 20
843.7121054352
 30
0.0
 11
400.0857269793
 21
843.7358280838
 31
0.0
  0
LINE
  5
1A8
330
1F
100
AcDbEntity
  8
0
  6
Continuous
 62
     7
370
    15
100
AcDbLine
 10
400.0750810309
 20
843.7754055679
 30
0.0
 11
402.5667898758
 21
832.3045512856
 31
0.0
  0
ARC
  5
1A9
330
1F
100
AcDbEntity
  8
0
  6
Continuous
 62
     7
370
    15
100
AcDbCircle
 10
401.8305647072
 20
832.0619154197
 30
0.0
 40
0.7751771812089786
100
AcDbArc
 50
289.9323018078
 51
18.2405386462
  0
ARC
  5
1AA
330
1F
100
AcDbEntity
  8
0
  6
Continuous
 62
     7
370
    15
100
AcDbCircle
 10
375.1132553429
 20
832.0619154197
 30
0.0
 40
0.7751771812089245
100
AcDbArc
 50
161.7594613538
 51
250.0676981922
  0
LINE
  5
1AB
330
1F
100
AcDbEntity
  8
0
  6
Continuous
 62
     7
370
    15
100
AcDbLine
 10
374.3770301743
 20
832.3045512856
 30
0.0
 11
376.8687390192
 21
843.7754055679
 31
0.0
  0
LINE
  5
1AC
330
1F
100
AcDbEntity
  8
0
  6
Continuous
 62
     7
370
    15
100
AcDbLine
 10
376.8532269104
 20
843.7121054352
 30
0.0
 11
376.8580930709
 21
843.7358280838
 31
0.0
  0
ARC
  5
1AD
330
1F
100
AcDbEntity
  8
0
  6
Continuous
 62
     7
370
    15
100
AcDbCircle
 10
381.4514368677
 20
841.1762907967
 30
0.0
 40
4.491201480485153
100
AcDbArc
 50
143.586884828
 51
156.8227956456
  0
ARC
  5
1AE
330
1F
100
AcDbEntity
  8
0
  6
Continuous
 62
     7
370
    15
100
AcDbCircle
 10
388.4719100251
 20
860.3479101432
 30
0.0
 40
19.63504011875731
100
AcDbArc
 50
237.2057598452
 51
302.7942401548
  0
ARC
  5
1AF
330
1F
100
AcDbEntity
  8
0
  6
Continuous
 62
     7
370
    15
100
AcDbCircle
 10
395.4923831824
 20
841.1762907967
 30
0.0
 40
4.491201480485206
100
AcDbArc
 50
23.1772043544
 51
36.413115172
  0
ARC
  5
1B0
330
1F
100
AcDbEntity
  8
0
  6
Continuous
 62
     7
370
    15
100
AcDbCircle
 10
453.9017978351
 20
858.3443900765
 30
0.0
 40
55.76352527890118
100
AcDbArc
 50
164.8549416147
 51
195.1450583853
  0
LINE
  5
1B1
330
1F
100
AcDbEntity
  8
0
  6
Continuous
 62
     7
370
    15
100
AcDbLine
 10
402.5667898758
 20
874.452545327
 30
0.0
 11
400.0750810309
 21
872.913374585
 31
0.0
  0
ARC
  5
1B2
330
1F
100
AcDbEntity
  8
0
  6
Continuous
 62
     7
370
    15
100
AcDbCircle
 10
454.0755885605
 20
853.3592149081
 30
0.0
 40
55.65711286233941
100
AcDbArc
 50
162.3212547004
 51
180.6531029115
  0
LINE
  5
1B3
330
1F
100
AcDbEntity
  8
0
  6
Continuous
 62
     7
370
    15
100
AcDbLine
 10
376.8687390192
 20
872.913374585
 30
0.0
 11
374.3770301743
 21
874.452545327
 31
0.0
  0
ARC
  5
1B4
330
1F
100
AcDbEntity
  8
0
  6
Continuous
 62
     7
370
    15
100
AcDbCircle
 10
323.042022215
 20
858.3443900765
 30
0.0
 40
55.76352527890113
100
AcDbArc
 50
344.8549416147
 51
15.1450583853
  0
ARC
  5
1B5
330
1F
100
AcDbEntity
  8
0
  6
Continuous
 62
     7
370
    15
100
AcDbCircle
 10
322.9370870462
 20
853.3683265795
 30
0.0
 40
55.58836651971244
100
AcDbArc
 50
359.336697199
 51
16.8657405322
  0
ARC
  5
1B6
330
1F
100
AcDbEntity
  8
0
  6
Continuous
 62
     7
370
    15
100
AcDbCircle
 10
388.4719100251
 20
842.5406197453
 30
0.0
 40
1.501223711540994
100
AcDbArc
 50
182.3135646608
 51
357.6864353392
  0
LINE
  5
1B7
330
1F
100
AcDbEntity
  8
0
  6
Continuous
 62
     7
370
    15
100
AcDbLine
 10
389.9719100381
 20
842.480017823
 30
0.0
 11
389.9719100381
 21
876.5218397797
 31
0.0
  0
ARC
  5
1B8
330
1F
100
AcDbEntity
  8
0
  6
Continuous
 62
     7
370
    15
100
AcDbCircle
 10
388.529373226
 20
857.0940520724
 30
0.0
 40
19.48126914896382
100
AcDbArc
 50
57.1153679592
 51
85.7535113787
  0
ARC
  5
1B9
330
1F
100
AcDbEntity
  8
0
  6
Continuous
 62
     7
370
    15
100
AcDbCircle
 10
453.8082516927
 20
858.6480161369
 30
0.0
 40
56.66981624493241
100
AcDbArc
 50
164.8549743729
 51
195.1450256271
  0
ARC
  5
1BA
330
1F
100
AcDbEntity
  8
0
  6
Continuous
 62
     7
370
    15
100
AcDbCircle
 10
323.1355683574
 20
858.6480161369
 30
0.0
 40
56.66981624493241
100
AcDbArc
 50
344.8549743729
 51
15.1450256271
  0
ARC
  5
1BB
330
1F
100
AcDbEntity
  8
0
  6
Continuous
 62
     7
370
    15
100
AcDbCircle
 10
388.4144468241
 20
857.0940520724
 30
0.0
 40
19.48126914896383
100
AcDbArc
 50
94.2464886213
 51
122.8846320408
  0
LINE
  5
1BC
330
1F
100
AcDbEntity
  8
0
  6
Continuous
 62
     7
370
    15
100
AcDbLine
 10
386.971910012
 20
876.5218397797
 30
0.0
 11
386.971910012
 21
842.480017823
 31
0.0
  0
ARC
  5
1BD
330
1F
100
AcDbEntity
  8
0
  6
Continuous
 62
     7
370
    15
100
AcDbCircle
 10
388.4719100251
 20
842.0367048709
 30
0.0
 40
0.5004067987364218
100
AcDbArc
 50
182.3103755163
 51
357.6896244837
  0
ARC
  5
1BE
330
1F
100
AcDbEntity
  8
0
  6
Continuous
 62
     7
370
    15
100
AcDbCircle
 10
398.9911271297
 20
872.1087584738
 30
0.0
 40
1.349949312462302
100
AcDbArc
 50
36.5864011069
 51
85.088174872
  0
ARC
  5
1BF
330
1F
100
AcDbEntity
  8
0
  6
Continuous
 62
     7
370
    15
100
AcDbCircle
 10
377.9526929204
 20
872.1087584738
 30
0.0
 40
1.349949312462302
100
AcDbArc
 50
94.911825128
 51
143.4135988931
  0
LINE
  5
1C0
330
1F
100
AcDbEntity
  8
0
  6
Continuous
 62
     7
370
    15
100
AcDbLine
 10
387.9719100013
 20
875.2254983605
 30
0.0
 11
387.9719100013
 21
842.0165321053
 31
0.0
  0
LWPOLYLINE
  5
1C1
330
1F
100
AcDbEntity
  8
0
  6
Continuous
 62
     7
370
    15
100
AcDbPolyline
 90
        9
 70
   128
 43
0.0
 10
387.9719100013
 20
875.2254983605
 10
387.7768196916
 20
875.2314588249
 10
387.5892265868
 20
875.2490421951
 10
387.4163398222
 20
875.27759282
 10
387.2648032783
 20
875.3160378159
 10
387.1404403989
 20
875.362827462
 10
387.0480304985
 20
875.4162928284
 10
386.9911247101
 20
875.4742285431
 10
386.971910012
 20
875.5345484436
  0
LINE
  5
1C2
330
1F
100
AcDbEntity
  8
0
  6
Continuous
 62
     7
370
    15
100
AcDbLine
 10
388.9719100488
 20
842.0165321053
 30
0.0
 11
388.9719100488
 21
875.2254983605
 31
0.0
  0
LWPOLYLINE
  5
1C3
330
1F
100
AcDbEntity
  8
0
  6
Continuous
 62
     7
370
    15
100
AcDbPolyline
 90
        9
 70
   128
 43
0.0
 10
389.9719100381
 20
875.5345484436
 10
389.95269534
 20
875.4742285431
 10
389.8957895516
 20
875.4162928284
 10
389.8033796512
 20
875.362827462
 10
389.6790167718
 20
875.3160378159
 10
389.5274802279
 20
875.27759282
 10
389.3545934633
 20
875.2490421951
 10
389.1670003585
 20
875.2314588249
 10
388.9719100488
 20
875.2254983605
  0
LINE
  5
1C4
330
1F
100
AcDbEntity
  8
0
  6
Continuous
 62
     7
370
    15
100
AcDbLine
 10
388.9719100488
 20
875.2254983605
 30
0.0
 11
387.9719100013
 21
875.2254983605
 31
0.0
  0
ARC
  5
1C5
330
1F
100
AcDbEntity
  8
0
  6
Continuous
 62
     7
370
    15
100
AcDbCircle
 10
377.8517238713
 20
873.1310221993
 30
0.0
 40
1.006791787545345
100
AcDbArc
 50
121.6981305943
 51
192.4847275436
  0
ARC
  5
1C6
330
1F
100
AcDbEntity
  8
0
  6
Continuous
 62
     7
370
    15
100
AcDbCircle
 10
376.4947493678
 20
872.6751316238
 30
0.0
 40
1.551828129060894
100
AcDbArc
 50
30.1153732794
 51
57.7550686673
  0
ARC
  5
1C7
330
1F
100
AcDbEntity
  8
0
  6
Continuous
 62
     7
370
    15
100
AcDbCircle
 10
400.4490706823
 20
872.6751316238
 30
0.0
 40
1.551828129060928
100
AcDbArc
 50
122.2449313327
 51
149.8846267206
  0
ARC
  5
1C8
330
1F
100
AcDbEntity
  8
0
  6
Continuous
 62
     7
370
    15
100
AcDbCircle
 10
399.0920961788
 20
873.1310221993
 30
0.0
 40
1.006791787545375
100
AcDbArc
 50
347.5152724564
 51
58.3018694057
  0
ARC
  5
1C9
330
1F
100
AcDbEntity
  8
0
  6
Continuous
 62
     7
370
    15
100
AcDbCircle
 10
388.5311570947
 20
856.8347946127
 30
0.0
 40
20.42563974774284
100
AcDbArc
 50
57.1158142915
 51
85.9551979717
  0
LINE
  5
1CA
330
1F
100
AcDbEntity
  8
0
  6
Continuous
 62
     7
370
    15
100
AcDbLine
 10
389.9719100381
 20
876.5218397797
 30
0.0
 11
389.9719100381
 21
877.2095581711
 31
0.0
  0
ARC
  5
1CB
330
1F
100
AcDbEntity
  8
0
  6
Continuous
 62
     7
370
    15
100
AcDbCircle
 10
388.4126629554
 20
856.8347946127
 30
0.0
 40
20.42563974774285
100
AcDbArc
 50
94.0448020283
 51
122.8841857085
  0
LINE
  5
1CC
330
1F
100
AcDbEntity
  8
0
  6
Continuous
 62
     7
370
    15
100
AcDbLine
 10
386.971910012
 20
877.2095581711
 30
0.0
 11
386.971910012
 21
876.5218397797
 31
0.0
  0
LINE
  5
1CD
330
1F
100
AcDbEntity
  8
0
  6
Continuous
 62
     7
370
    15
100
AcDbLine
 10
399.6211087732
 20
873.9876290978
 30
0.0
 11
402.0948300539
 21
875.6666919411
 31
0.0
  0
ARC
  5
1CE
330
1F
100
AcDbEntity
  8
0
  6
Continuous
 62
     7
370
    15
100
AcDbCircle
 10
401.6088251042
 20
874.7789706116
 30
0.0
 40
1.012052355381164
100
AcDbArc
 50
341.183521466
 51
61.3004112641
  0
ARC
  5
1CF
330
1F
100
AcDbEntity
  8
0
  6
Continuous
 62
     7
370
    15
100
AcDbCircle
 10
375.3349949459
 20
874.7789706116
 30
0.0
 40
1.012052355381137
100
AcDbArc
 50
118.6995887359
 51
198.816478534
  0
LINE
  5
1D0
330
1F
100
AcDbEntity
  8
0
  6
Continuous
 62
     7
370
    15
100
AcDbLine
 10
374.8489899962
 20
875.6666919411
 30
0.0
 11
377.3227112769
 21
873.9876290978
 31
0.0
  0
ARC
  5
1D1
330
1F
100
AcDbEntity
  8
0
  6
Continuous
 62
     7
370
    15
100
AcDbCircle
 10
404.2214892361
 20
874.8644287039
 30
0.0
 40
0.1638101504005486
100
AcDbArc
 50
47.4537424202
 51
60.8303908755
  0
ARC
  5
1D2
330
1F
100
AcDbEntity
  8
0
  6
Continuous
 62
     7
370
    15
100
AcDbCircle
 10
402.0292705246
 20
871.4382828517
 30
0.0
 40
4.228917293904684
100
AcDbArc
 50
57.0040179197
 51
89.1117265838
  0
LINE
  5
1D3
330
1F
100
AcDbEntity
  8
0
  6
Continuous
 62
     7
370
    15
100
AcDbLine
 10
388.7370335223
 20
879.4919988335
 30
0.0
 11
389.9719100381
 21
877.371503991
 31
0.0
  0
ARC
  5
1D4
330
1F
100
AcDbEntity
  8
0
  6
Continuous
 62
     7
370
    15
100
AcDbCircle
 10
388.5548355062
 20
878.9648196327
 30
0.0
 40
0.5577759646915279
100
AcDbArc
 50
70.9343762129
 51
96.9280879717
  0
ELLIPSE
  5
1D5
330
1F
100
AcDbEntity
  8
0
  6
Continuous
 62
     7
370
    15
100
AcDbEllipse
 10
388.4719100251
 20
840.8419353023
 30
0.0
 11
5.684341886080801E-14
 21
38.67659121471877
 31
0.0
210
0.0
220
0.0
230
1.0
 40
0.8983300055
 41
6.282735029799743
 42
6.283635584559463
  0
ARC
  5
1D6
330
1F
100
AcDbEntity
  8
0
  6
Continuous
 62
     7
370
    15
100
AcDbCircle
 10
388.4120777228
 20
878.747610823
 30
0.0
 40
0.7721774309808951
100
AcDbArc
 50
86.7194674793
 51
105.418068336
  0
LINE
  5
1D7
330
1F
100
AcDbEntity
  8
0
  6
Continuous
 62
     7
370
    15
100
AcDbLine
 10
388.2067865278
 20
879.4919988335
 30
0.0
 11
386.971910012
 21
877.371503991
 31
0.0
  0
ARC
  5
1D8
330
1F
100
AcDbEntity
  8
0
  6
Continuous
 62
     7
370
    15
100
AcDbCircle
 10
374.9229236945
 20
871.4107929003
 30
0.0
 40
4.256541182375213
100
AcDbArc
 50
90.9952451365
 51
122.88901036
  0
ARC
  5
1D9
330
1F
100
AcDbEntity
  8
0
  6
Continuous
 62
     7
370
    15
100
AcDbCircle
 10
372.717512985
 20
874.8710945718
 30
0.0
 40
0.155644397438374
100
AcDbArc
 50
118.816979731
 51
132.8988869733
  0
ARC
  5
1DA
330
1F
100
AcDbEntity
  8
0
  6
Continuous
 62
     7
370
    15
100
AcDbCircle
 10
388.4719100251
 20
849.9061640756
 30
0.0
 40
29.67567716305717
100
AcDbArc
 50
57.7635878275
 51
122.2364121725
  0
LINE
  5
1DB
330
1F
100
AcDbEntity
  8
0
  6
Continuous
 62
     7
370
    15
100
AcDbLine
 10
389.9719100381
 20
877.2095581711
 30
0.0
 11
389.9719100381
 21
877.371503991
 31
0.0
  0
LINE
  5
1DC
330
1F
100
AcDbEntity
  8
0
  6
Continuous
 62
     7
370
    15
100
AcDbLine
 10
388.9719100488
 20
875.9040972412
 30
0.0
 11
388.9719100488
 21
875.2254983605
 31
0.0
  0
LWPOLYLINE
  5
1DD
330
1F
100
AcDbEntity
  8
0
  6
Continuous
 62
     7
370
    15
100
AcDbPolyline
 90
        3
 70
   128
 43
0.0
 10
388.9719100488
 20
875.9040972412
 10
388.9763821434
 20
875.904812497
 10
389.004505815
 20
875.9092232407
  0
ARC
  5
1DE
330
1F
100
AcDbEntity
  8
0
  6
Continuous
 62
     7
370
    15
100
AcDbCircle
 10
388.9224537182
 20
876.9651649972
 30
0.0
 40
1.059124893359563
100
AcDbArc
 50
274.443247737
 51
307.236838357
  0
LINE
  5
1DF
330
1F
100
AcDbEntity
  8
0
  6
Continuous
 62
     7
370
    15
100
AcDbLine
 10
387.9719100013
 20
875.2254983605
 30
0.0
 11
387.9719100013
 21
875.9040972412
 31
0.0
  0
ARC
  5
1E0
330
1F
100
AcDbEntity
  8
0
  6
Continuous
 62
     7
370
    15
100
AcDbCircle
 10
387.9781487543
 20
876.874835838
 30
0.0
 40
0.9663931952957224
100
AcDbArc
 50
227.8754921315
 51
267.6969484619
  0
LWPOLYLINE
  5
1E1
330
1F
100
AcDbEntity
  8
0
  6
Continuous
 62
     7
370
    15
100
AcDbPolyline
 90
        3
 70
   128
 43
0.0
 10
387.9393142351
 20
875.9092232407
 10
387.9674379067
 20
875.904812497
 10
387.9719100013
 20
875.9040972412
  0
LINE
  5
1E2
330
1F
100
AcDbEntity
  8
0
  6
Continuous
 62
     7
370
    15
100
AcDbLine
 10
387.9719100013
 20
875.9040972412
 30
0.0
 11
388.9719100488
 21
875.9040972412
 31
0.0
  0
LWPOLYLINE
  5
1E3
330
1F
100
AcDbEntity
  8
0
  6
Continuous
 62
     7
370
    15
100
AcDbPolyline
 90
        3
 70
   128
 43
0.0
 10
386.971910012
 20
876.9779345215
 10
387.6634229609
 20
878.2464405716
 10
388.2067865278
 20
879.2330762566
  0
ARC
  5
1E4
330
1F
100
AcDbEntity
  8
0
  6
Continuous
 62
     7
370
    15
100
AcDbCircle
 10
388.458318329
 20
879.2356466213
 30
0.0
 40
0.2515449338927831
100
AcDbArc
 50
180.5854763558
 51
269.6053206282
  0
LWPOLYLINE
  5
1E5
330
1F
100
AcDbEntity
  8
0
  6
Continuous
 62
     7
370
    15
100
AcDbPolyline
 90
        4
 70
   128
 43
0.0
 10
388.4565854304
 20
878.9841076553
 10
388.2708922837
 20
878.1235953987
 10
388.2357149495
 20
877.2614738167
 10
387.9393142351
 20
875.9092232407
  0
LWPOLYLINE
  5
1E6
330
1F
100
AcDbEntity
  8
0
  6
Continuous
 62
     7
370
    15
100
AcDbPolyline
 90
        3
 70
   128
 43
0.0
 10
389.004505815
 20
875.9092232407
 10
388.6966362269
 20
877.6310226143
 10
388.4872344633
 20
878.9841076553
  0
ARC
  5
1E7
330
1F
100
AcDbEntity
  8
0
  6
Continuous
 62
     7
370
    15
100
AcDbCircle
 10
388.4855017211
 20
879.2356466213
 30
0.0
 40
0.2515449338927391
100
AcDbArc
 50
270.3946793718
 51
359.4145236442
  0
LWPOLYLINE
  5
1E8
330
1F
100
AcDbEntity
  8
0
  6
Continuous
 62
     7
370
    15
100
AcDbPolyline
 90
        4
 70
   128
 43
0.0
 10
388.7370333477
 20
879.2330762566
 10
389.0826489013
 20
878.5545369805
 10
389.4287325028
 20
878.0231019676
 10
389.9719100381
 20
876.9779345215
  0
LINE
  5
1E9
330
1F
100
AcDbEntity
  8
0
  6
Continuous
 62
     7
370
    15
100
AcDbLine
 10
388.4872344633
 20
878.9841076553
 30
0.0
 11
388.4565855868
 21
878.9841076553
 31
0.0
  0
LINE
  5
1EA
330
1F
100
AcDbEntity
  8
0
  6
Continuous
 62
     7
370
    15
100
AcDbLine
 10
388.2067865278
 20
879.2330762566
 30
0.0
 11
388.2067865278
 21
879.4919988335
 31
0.0
  0
LINE
  5
1EB
330
1F
100
AcDbEntity
  8
0
  6
Continuous
 62
     7
370
    15
100
AcDbLine
 10
388.7370335223
 20
879.4919988335
 30
0.0
 11
388.7370335223
 21
879.2330762566
 31
0.0
  0
ARC
  5
1EC
330
1F
100
AcDbEntity
  8
0
  6
Continuous
 62
     7
370
    15
100
AcDbCircle
 10
404.189120603
 20
832.6614880742
 30
0.0
 40
1.661132402732438
100
AcDbArc
 50
192.4082279674
 51
274.0259578948
  0
ARC
  5
1ED
330
1F
100
AcDbEntity
  8
0
  6
Continuous
 62
     7
370
    15
100
AcDbCircle
 10
402.8285393238
 20
830.4435976223
 30
0.0
 40
1.580095100538158
100
AcDbArc
 50
342.1125405378
 51
20.7904729397
  0
ARC
  5
1EE
330
1F
100
AcDbEntity
  8
0
  6
Continuous
 62
     7
370
    15
100
AcDbCircle
 10
374.1146314999
 20
830.4436140731
 30
0.0
 40
1.579482324115014
100
AcDbArc
 50
159.201725593
 51
197.8952609295
  0
ARC
  5
1EF
330
1F
100
AcDbEntity
  8
0
  6
Continuous
 62
     7
370
    15
100
AcDbCircle
 10
372.7572236805
 20
832.6581117624
 30
0.0
 40
1.657943933978831
100
AcDbArc
 50
265.8788321279
 51
347.6869820099
  0
LWPOLYLINE
  5
1F0
330
1F
100
AcDbEntity
  8
0
  6
Continuous
 62
     7
370
    15
100
AcDbPolyline
 90
       61
 70
   128
 43
0.0
 10
388.4719100251
 20
880.2868267716
 10
391.8690851359
 20
880.1174899758
 10
395.2290399401
 20
879.611386937
 10
398.5149620502
 20
878.7740012825
 10
401.6908511921
 20
877.6145717323
 10
404.721909429
 20
876.1457344711
 10
407.5749304547
 20
874.3836423576
 10
410.2186553581
 20
872.3476072968
 10
412.624116282
 20
870.059861821
 10
414.7649623855
 20
867.5455590904
 10
416.6177355154
 20
864.8321768463
 10
418.162136565
 20
861.9494578064
 10
419.3812471284
 20
858.9289924324
 10
420.2617083146
 20
855.8039209068
 10
420.7938734843
 20
852.6083966911
 10
420.971908833
 20
849.3774673165
 10
420.7938734843
 20
846.1465975464
 10
420.2617083146
 20
842.9510733307
 10
419.3812471284
 20
839.8260018051
 10
418.162136565
 20
836.8055364311
 10
416.6177355154
 20
833.9228173912
 10
414.7649623855
 20
831.2094351471
 10
412.624116282
 20
828.6951324165
 10
410.2186553581
 20
826.4073869408
 10
407.5749304547
 20
824.3712922753
 10
404.721909429
 20
822.6092001618
 10
401.6908511921
 20
821.1404225052
 10
398.5149620502
 20
819.9809333504
 10
395.2290399401
 20
819.1436073006
 10
391.8690851359
 20
818.6374446571
 10
388.4719100251
 20
818.468167466
 10
385.0747349142
 20
818.6374446571
 10
381.71478011
 20
819.1436073006
 10
378.4288579999
 20
819.9809333504
 10
375.2529688581
 20
821.1404225052
 10
372.2219106211
 20
822.6092001618
 10
369.3688895954
 20
824.3712922753
 10
366.725164692
 20
826.4073869408
 10
364.3197037681
 20
828.6951324165
 10
362.1788576646
 20
831.2094351471
 10
360.3260845347
 20
833.9228173912
 10
358.7816834851
 20
836.8055364311
 10
357.5625729217
 20
839.8260018051
 10
356.6821117355
 20
842.9510733307
 10
356.1499465658
 20
846.1465975464
 10
355.9719112172
 20
849.3774673165
 10
356.1499465658
 20
852.6083966911
 10
356.6821117355
 20
855.8039209068
 10
357.5625729217
 20
858.9289924324
 10
358.7816834851
 20
861.9494578064
 10
360.3260845347
 20
864.8321768463
 10
362.1788576646
 20
867.5455590904
 10
364.3197037681
 20
870.059861821
 10
366.725164692
 20
872.3476072968
 10
369.3688895954
 20
874.3836423576
 10
372.2219106211
 20
876.1457344711
 10
375.2529688581
 20
877.6145717323
 10
378.4288579999
 20
878.7740012825
 10
381.71478011
 20
879.611386937
 10
385.0747349142
 20
880.1174899758
 10
388.4719100251
 20
880.2868267716
  0
ARC
  5
1F1
330
1F
100
AcDbEntity
  8
0
  6
Continuous
 62
     7
370
    15
100
AcDbCircle
 10
403.5738782603
 20
834.232517079
 30
0.0
 40
4.365734347245488
100
AcDbArc
 50
279.5917934084
 51
307.8279435118
  0
ARC
  5
1F2
330
1F
100
AcDbEntity
  8
0
  6
Continuous
 62
     7
370
    15
100
AcDbCircle
 10
390.1846399022
 20
851.9611855834
 30
0.0
 40
27.08208219490776
100
AcDbArc
 50
12.3489844932
 51
53.6113258888
  0
ARC
  5
1F3
330
1F
100
AcDbEntity
  8
0
  6
Continuous
 62
     7
370
    15
100
AcDbCircle
 10
396.8529483656
 20
861.1905824447
 30
0.0
 40
15.69664348813059
100
AcDbArc
 50
53.2194103173
 51
61.6718562033
  0
ARC
  5
1F4
330
1F
100
AcDbEntity
  8
0
  6
Continuous
 62
     7
370
    15
100
AcDbCircle
 10
380.0876451271
 20
861.1956365359
 30
0.0
 40
15.69066359090496
100
AcDbArc
 50
118.3265302041
 51
126.7822032753
  0
ARC
  5
1F5
330
1F
100
AcDbEntity
  8
0
  6
Continuous
 62
     7
370
    15
100
AcDbCircle
 10
386.837240095
 20
851.9215286072
 30
0.0
 40
27.16034477705587
100
AcDbArc
 50
126.4716047922
 51
170.1537384208
  0
ARC
  5
1F6
330
1F
100
AcDbEntity
  8
0
  6
Continuous
 62
     7
370
    15
100
AcDbCircle
 10
373.3689446291
 20
834.2302465461
 30
0.0
 40
4.363329444109091
100
AcDbArc
 50
232.1641135912
 51
260.4161494885
  0
LWPOLYLINE
  5
1F7
330
1F
100
AcDbEntity
  8
0
  6
Continuous
 62
     7
370
    15
100
AcDbPolyline
 90
        3
 70
   128
 43
0.0
 10
418.6349019809
 20
848.3770033539
 10
418.5272653057
 20
848.3809968651
 10
418.3498669817
 20
848.4932324112
  0
LWPOLYLINE
  5
1F8
330
1F
100
AcDbEntity
  8
0
  6
Continuous
 62
     7
370
    15
100
AcDbPolyline
 90
        6
 70
   128
 43
0.0
 10
417.908762808
 20
849.777056855
 10
417.9317050083
 20
849.9899646462
 10
417.9741397901
 20
850.1713415802
 10
418.034688796
 20
850.2971669853
 10
418.1133855535
 20
850.3684541405
 10
418.1776486738
 20
850.3671428383
  0
ARC
  5
1F9
330
1F
100
AcDbEntity
  8
0
  6
Continuous
 62
     7
370
    15
100
AcDbCircle
 10
419.3383269273
 20
849.5505443056
 30
0.0
 40
1.447398185112728
100
AcDbArc
 50
170.9964093788
 51
226.9276038152
  0
LINE
  5
1FA
330
1F
100
AcDbEntity
  8
0
  6
Continuous
 62
     7
370
    15
100
AcDbLine
 10
417.9677304282
 20
851.7919918717
 30
0.0
 11
418.044147308
 21
852.1302482308
 31
0.0
  0
LINE
  5
1FB
330
1F
100
AcDbEntity
  8
0
  6
Continuous
 62
     7
370
    15
100
AcDbLine
 10
418.4491739078
 20
850.7585665405
 30
0.0
 11
417.9677304282
 21
851.7919918717
 31
0.0
  0
LWPOLYLINE
  5
1FC
330
1F
100
AcDbEntity
  8
0
  6
Continuous
 62
     7
370
    15
100
AcDbPolyline
 90
        3
 70
   128
 43
0.0
 10
418.6742112442
 20
850.3778120697
 10
418.5565554007
 20
850.5354067505
 10
418.4491739078
 20
850.7585665405
  0
LINE
  5
1FD
330
1F
100
AcDbEntity
  8
0
  6
Continuous
 62
     7
370
    15
100
AcDbLine
 10
418.7924333318
 20
850.3442546547
 30
0.0
 11
418.6742112442
 21
850.3778120697
 31
0.0
  0
LWPOLYLINE
  5
1FE
330
1F
100
AcDbEntity
  8
0
  6
Continuous
 62
     7
370
    15
100
AcDbPolyline
 90
        7
 70
   128
 43
0.0
 10
418.3767225994
 20
851.4297744454
 10
418.3994189306
 20
851.7080685318
 10
418.427231948
 20
851.8147012413
 10
418.4658371313
 20
851.8991014183
 10
418.5121015115
 20
851.9558450401
 10
418.5635626717
 20
851.9802829445
 10
418.5639817669
 20
851.9801041306
  0
LINE
  5
1FF
330
1F
100
AcDbEntity
  8
0
  6
Continuous
 62
     7
370
    15
100
AcDbLine
 10
418.7076997413
 20
853.265001458
 30
0.0
 11
418.6652463331
 21
853.7761708916
 31
0.0
  0
LINE
  5
200
330
1F
100
AcDbEntity
  8
0
  6
Continuous
 62
     7
370
    15
100
AcDbLine
 10
417.9359816416
 20
853.3890387238
 30
0.0
 11
417.9039162053
 21
853.8599750221
 31
0.0
  0
LINE
  5
201
330
1F
100
AcDbEntity
  8
0
  6
Continuous
 62
     7
370
    15
100
AcDbLine
 10
418.9143807097
 20
852.6640674294
 30
0.0
 11
417.9359816416
 21
853.3890387238
 31
0.0
  0
LINE
  5
202
330
1F
100
AcDbEntity
  8
0
  6
Continuous
 62
     7
370
    15
100
AcDbLine
 10
402.83281565
 20
825.9272119225
 30
0.0
 11
402.7249442815
 21
826.1964461029
 31
0.0
  0
LWPOLYLINE
  5
203
330
1F
100
AcDbEntity
  8
0
  6
Continuous
 62
     7
370
    15
100
AcDbPolyline
 90
        6
 70
   128
 43
0.0
 10
403.2869145675
 20
827.4445673645
 10
403.4919592022
 20
827.5392195404
 10
403.6941353633
 20
827.5935193718
 10
403.8752142741
 20
827.5928637207
 10
404.0223036363
 20
827.5420805634
 10
404.1526496811
 20
827.4075528801
  0
ARC
  5
204
330
1F
100
AcDbEntity
  8
0
  6
Continuous
 62
     7
370
    15
100
AcDbCircle
 10
403.6861825804
 20
826.5142207402
 30
0.0
 40
1.012402976787709
100
AcDbArc
 50
113.227097966
 51
198.2933084884
  0
LINE
  5
205
330
1F
100
AcDbEntity
  8
0
  6
Continuous
 62
     7
370
    15
100
AcDbLine
 10
405.5366676702
 20
827.9983541191
 30
0.0
 11
405.8881264581
 21
828.1620284737
 31
0.0
  0
ARC
  5
206
330
1F
100
AcDbEntity
  8
0
  6
Continuous
 62
     7
370
    15
100
AcDbCircle
 10
404.9429977189
 20
828.2846035924
 30
0.0
 40
0.6590772124355921
100
AcDbArc
 50
303.4549779299
 51
334.2580585655
  0
LWPOLYLINE
  5
207
330
1F
100
AcDbEntity
  8
0
  6
Continuous
 62
     7
370
    15
100
AcDbPolyline
 90
        7
 70
   128
 43
0.0
 10
404.9181707605
 20
827.7853271187
 10
404.9669385357
 20
827.7076622666
 10
405.0067712023
 20
827.6823898972
 10
405.0560251279
 20
827.6682039917
 10
405.1145252241
 20
827.6658198059
 10
405.1753443136
 20
827.6756545723
 10
405.3063348337
 20
827.7347227753
  0
LWPOLYLINE
  5
208
330
1F
100
AcDbEntity
  8
0
  6
Continuous
 62
     7
370
    15
100
AcDbPolyline
 90
        5
 70
   128
 43
0.0
 10
405.083493556
 20
828.5201331795
 10
405.3446196421
 20
828.6548992813
 10
405.5961326166
 20
828.7139674843
 10
405.8072261913
 20
828.686668557
 10
405.9547830774
 20
828.5783669174
  0
ARC
  5
209
330
1F
100
AcDbEntity
  8
0
  6
Continuous
 62
     7
370
    15
100
AcDbCircle
 10
405.533073136
 20
827.6009197984
 30
0.0
 40
1.023266846328585
100
AcDbArc
 50
116.0628704016
 51
184.3299754244
  0
LINE
  5
20A
330
1F
100
AcDbEntity
  8
0
  6
Continuous
 62
     7
370
    15
100
AcDbLine
 10
404.6224460407
 20
827.3577830017
 30
0.0
 11
404.5127269282
 21
827.5236627281
 31
0.0
  0
LINE
  5
20B
330
1F
100
AcDbEntity
  8
0
  6
Continuous
 62
     7
370
    15
100
AcDbLine
 10
405.515992309
 20
827.2115728081
 30
0.0
 11
405.5109315022
 21
827.5479218186
 31
0.0
  0
LINE
  5
20C
330
1F
100
AcDbEntity
  8
0
  6
Continuous
 62
     7
370
    15
100
AcDbLine
 10
404.8011817439
 20
826.7690083206
 30
0.0
 11
405.515992309
 21
827.2115728081
 31
0.0
  0
LINE
  5
20D
330
1F
100
AcDbEntity
  8
0
  6
Continuous
 62
     7
370
    15
100
AcDbLine
 10
404.8914716049
 20
826.4998337448
 30
0.0
 11
404.8011873319
 21
826.7690083206
 31
0.0
  0
LINE
  5
20E
330
1F
100
AcDbEntity
  8
0
  6
Continuous
 62
     7
370
    15
100
AcDbLine
 10
407.3289495363
 20
828.4649988831
 30
0.0
 11
407.751922722
 21
828.7881156624
 31
0.0
  0
LINE
  5
20F
330
1F
100
AcDbEntity
  8
0
  6
Continuous
 62
     7
370
    15
100
AcDbLine
 10
406.4411327644
 20
829.3956658066
 30
0.0
 11
406.8333778931
 21
829.6871325195
 31
0.0
  0
LINE
  5
210
330
1F
100
AcDbEntity
  8
0
  6
Continuous
 62
     7
370
    15
100
AcDbLine
 10
407.0445925398
 20
827.9078742684
 30
0.0
 11
406.4411327644
 21
829.3956658066
 31
0.0
  0
LWPOLYLINE
  5
211
330
1F
100
AcDbEntity
  8
0
  6
Continuous
 62
     7
370
    15
100
AcDbPolyline
 90
        3
 70
   128
 43
0.0
 10
413.7462929292
 20
835.2533122719
 10
413.6293244018
 20
835.3102943123
 10
413.4628579422
 20
835.5102678955
  0
LWPOLYLINE
  5
212
330
1F
100
AcDbEntity
  8
0
  6
Continuous
 62
     7
370
    15
100
AcDbPolyline
 90
        6
 70
   128
 43
0.0
 10
413.5211736365
 20
836.9073411644
 10
413.6511341138
 20
837.0845457733
 10
413.7909274949
 20
837.2224709213
 10
413.9261890604
 20
837.2996589363
 10
414.0596773877
 20
837.3189708412
 10
414.1464561625
 20
837.2784396828
  0
ARC
  5
213
330
1F
100
AcDbEntity
  8
0
  6
Continuous
 62
     7
370
    15
100
AcDbCircle
 10
414.4699069359
 20
836.1679860543
 30
0.0
 40
1.202805409111244
100
AcDbArc
 50
142.0704411804
 51
213.149129991
  0
LINE
  5
214
330
1F
100
AcDbEntity
  8
0
  6
Continuous
 62
     7
370
    15
100
AcDbLine
 10
415.1459571375
 20
837.3652836502
 30
0.0
 11
415.6532802089
 21
838.2945200623
 31
0.0
  0
LINE
  5
215
330
1F
100
AcDbEntity
  8
0
  6
Continuous
 62
     7
370
    15
100
AcDbLine
 10
414.677835296
 20
838.8463994682
 30
0.0
 11
414.9381045653
 21
839.1123553932
 31
0.0
  0
LINE
  5
216
330
1F
100
AcDbEntity
  8
0
  6
Continuous
 62
     7
370
    15
100
AcDbLine
 10
414.9129812075
 20
836.7495676697
 30
0.0
 11
414.677835296
 21
838.8463994682
 31
0.0
  0
LINE
  5
217
330
1F
100
AcDbEntity
  8
0
  6
Continuous
 62
     7
370
    15
100
AcDbLine
 10
414.9995308771
 20
836.6304775894
 30
0.0
 11
414.9129793449
 21
836.7495676697
 31
0.0
  0
LINE
  5
218
330
1F
100
AcDbEntity
  8
0
  6
Continuous
 62
     7
370
    15
100
AcDbLine
 10
416.2658781214
 20
839.5505687416
 30
0.0
 11
416.478867869
 21
840.0239488304
 31
0.0
  0
LINE
  5
219
330
1F
100
AcDbEntity
  8
0
  6
Continuous
 62
     7
370
    15
100
AcDbLine
 10
415.3283361747
 20
840.0482079209
 30
0.0
 11
415.5310292198
 21
840.4811164559
 31
0.0
  0
LINE
  5
21A
330
1F
100
AcDbEntity
  8
0
  6
Continuous
 62
     7
370
    15
100
AcDbLine
 10
416.2233073665
 20
838.9147659958
 30
0.0
 11
415.3283361747
 21
840.0482079209
 31
0.0
  0
LINE
  5
21B
330
1F
100
AcDbEntity
  8
0
  6
Continuous
 62
     7
370
    15
100
AcDbLine
 10
374.3520260258
 20
876.8134853066
 30
0.0
 11
371.7168525262
 21
875.3709932984
 31
0.0
  0
LINE
  5
21C
330
1F
100
AcDbEntity
  8
0
  6
Continuous
 62
     7
370
    15
100
AcDbLine
 10
374.5685622497
 20
876.8006107033
 30
0.0
 11
374.3520260258
 21
876.8134853066
 31
0.0
  0
LINE
  5
21D
330
1F
100
AcDbEntity
  8
0
  6
Continuous
 62
     7
370
    15
100
AcDbLine
 10
375.4927574127
 20
877.2517582596
 30
0.0
 11
374.5685622497
 21
876.8006107033
 31
0.0
  0
LINE
  5
21E
330
1F
100
AcDbEntity
  8
0
  6
Continuous
 62
     7
370
    15
100
AcDbLine
 10
370.8972979738
 20
874.8004576386
 30
0.0
 11
370.8476864203
 21
874.8259088219
 31
0.0
  0
LINE
  5
21F
330
1F
100
AcDbEntity
  8
0
  6
Continuous
 62
     7
370
    15
100
AcDbLine
 10
371.4219790353
 20
874.7717878044
 30
0.0
 11
370.8972979738
 21
874.8004576386
 31
0.0
  0
ARC
  5
220
330
1F
100
AcDbEntity
  8
0
  6
Continuous
 62
     7
370
    15
100
AcDbCircle
 10
370.4157548017
 20
878.371822113
 30
0.0
 40
3.738012069418946
100
AcDbArc
 50
285.6158940125
 51
307.3893447528
  0
LINE
  5
221
330
1F
100
AcDbEntity
  8
0
  6
Continuous
 62
     7
370
    15
100
AcDbLine
 10
375.0027047871
 20
876.6664406479
 30
0.0
 11
372.6855807407
 21
875.4018685043
 31
0.0
  0
ARC
  5
222
330
1F
100
AcDbEntity
  8
0
  6
Continuous
 62
     7
370
    15
100
AcDbCircle
 10
373.365847589
 20
880.8318253087
 30
0.0
 40
4.475458731734614
100
AcDbArc
 50
291.4531708472
 51
305.6310714575
  0
LINE
  5
223
330
1F
100
AcDbEntity
  8
0
  6
Continuous
 62
     7
370
    15
100
AcDbLine
 10
375.0371702417
 20
876.7721792877
 30
0.0
 11
374.7851180314
 21
876.7876168907
 31
0.0
  0
ARC
  5
224
330
1F
100
AcDbEntity
  8
0
  6
Continuous
 62
     7
370
    15
100
AcDbCircle
 10
389.3093407414
 20
894.2376509807
 30
0.0
 40
14.47229518519579
100
AcDbArc
 50
266.6827610039
 51
276.5870668294
  0
ARC
  5
225
330
1F
100
AcDbEntity
  8
0
  6
Continuous
 62
     7
370
    15
100
AcDbCircle
 10
387.6342751171
 20
894.3100382024
 30
0.0
 40
14.54457347982305
100
AcDbArc
 50
263.4577731921
 51
273.3015416041
  0
ARC
  5
226
330
1F
100
AcDbEntity
  8
0
  6
Continuous
 62
     7
370
    15
100
AcDbCircle
 10
419.3112215986
 20
842.4453412568
 30
0.0
 40
1.054734905602748
100
AcDbArc
 50
169.6678169352
 51
235.1861896394
  0
LWPOLYLINE
  5
227
330
1F
100
AcDbEntity
  8
0
  6
Continuous
 62
     7
370
    15
100
AcDbPolyline
 90
        7
 70
   128
 43
0.0
 10
419.0554444148
 20
844.5371529282
 10
418.8592631771
 20
844.4928070725
 10
418.6271980806
 20
844.2192217529
 10
418.4359062864
 20
843.7700411499
 10
418.3120571478
 20
843.2130953491
 10
418.2804853125
 20
842.9184099854
 10
418.2735898002
 20
842.6345130623
  0
LWPOLYLINE
  5
228
330
1F
100
AcDbEntity
  8
0
  6
Continuous
 62
     7
370
    15
100
AcDbPolyline
 90
        5
 70
   128
 43
0.0
 10
419.3834785773
 20
849.8531719864
 10
419.5255909516
 20
849.3391415299
 10
419.7173726215
 20
848.9660760582
 10
419.9347246839
 20
848.7956067742
 10
420.0045291736
 20
848.8143226326
  0
LWPOLYLINE
  5
229
330
1F
100
AcDbEntity
  8
0
  6
Continuous
 62
     7
370
    15
100
AcDbPolyline
 90
        7
 70
   128
 43
0.0
 10
419.6397338464
 20
851.7359635056
 10
419.5268556877
 20
851.7052075089
 10
419.3847749783
 20
851.4351388634
 10
419.3097234173
 20
850.9887596787
 10
419.3099022313
 20
850.4327675522
 10
419.3376314296
 20
850.1377245606
 10
419.3834785773
 20
849.8531719864
  0
LWPOLYLINE
  5
22A
330
1F
100
AcDbEntity
  8
0
  6
Continuous
 62
     7
370
    15
100
AcDbPolyline
 90
        4
 70
   128
 43
0.0
 10
410.7836366101
 20
830.0206801117
 10
410.7243057741
 20
829.5555254639
 10
410.8317003055
 20
829.1999241532
 10
410.9522618754
 20
829.1134378136
  0
LWPOLYLINE
  5
22B
330
1F
100
AcDbEntity
  8
0
  6
Continuous
 62
     7
370
    15
100
AcDbPolyline
 90
        8
 70
   128
 43
0.0
 10
412.6217879756
 20
831.5346976936
 10
412.5178020849
 20
831.6094419182
 10
412.1595744445
 20
831.5929314316
 10
411.7478292837
 20
831.3800832451
 10
411.3420073344
 20
831.0066005409
 10
411.00345854
 20
830.5292269409
 10
410.87413695
 20
830.2720925034
 10
410.7836366101
 20
830.0206801117
  0
LWPOLYLINE
  5
22C
330
1F
100
AcDbEntity
  8
0
  6
Continuous
 62
     7
370
    15
100
AcDbPolyline
 90
        3
 70
   128
 43
0.0
 10
404.8567910148
 20
825.3923198403
 10
404.7633104427
 20
824.9606630028
 10
404.8653610452
 20
824.6101280869
  0
LWPOLYLINE
  5
22D
330
1F
100
AcDbEntity
  8
0
  6
Continuous
 62
     7
370
    15
100
AcDbPolyline
 90
        8
 70
   128
 43
0.0
 10
407.1543265535
 20
826.5116354645
 10
406.9380399241
 20
826.6692897499
 10
406.5258980198
 20
826.6978999794
 10
406.0397979273
 20
826.5492459953
 10
405.5517625465
 20
826.2493154228
 10
405.1364876731
 20
825.8433481873
 10
404.9741711869
 20
825.6177446068
 10
404.8567910148
 20
825.3923198403
  0
LWPOLYLINE
  5
22E
330
1F
100
AcDbEntity
  8
0
  6
Continuous
 62
     7
370
    15
100
AcDbPolyline
 90
        4
 70
   128
 43
0.0
 10
415.3490357502
 20
835.8858367623
 10
415.3411325468
 20
835.3917738617
 10
415.464096929
 20
835.0274106682
 10
415.7048866554
 20
834.8516961754
  0
LWPOLYLINE
  5
22F
330
1F
100
AcDbEntity
  8
0
  6
Continuous
 62
     7
370
    15
100
AcDbPolyline
 90
        8
 70
   128
 43
0.0
 10
416.6757271095
 20
837.6764795006
 10
416.6549865558
 20
837.6918574989
 10
416.3554322376
 20
837.6479288757
 10
416.0309650405
 20
837.3931190193
 10
415.7266162737
 20
836.9686147392
 10
415.4872589214
 20
836.4390870751
 10
415.402236621
 20
836.1578127564
 10
415.3490357502
 20
835.8858367623
  0
LWPOLYLINE
  5
230
330
1F
100
AcDbEntity
  8
0
  6
Continuous
 62
     7
370
    15
100
AcDbPolyline
 90
        3
 70
   128
 43
0.0
 10
397.9296304687
 20
822.2757717789
 10
397.8176789759
 20
821.8765994728
 10
397.8823183506
 20
821.6552278221
  0
LWPOLYLINE
  5
231
330
1F
100
AcDbEntity
  8
0
  6
Continuous
 62
     7
370
    15
100
AcDbPolyline
 90
        9
 70
   128
 43
0.0
 10
400.5747644632
 20
822.8625795067
 10
400.5534511461
 20
822.9341050804
 10
400.2514521061
 20
823.170437497
 10
399.7969918354
 20
823.2611557663
 10
399.2565574526
 20
823.1951138199
 10
398.7116536527
 20
822.9855438889
 10
398.2460938795
 20
822.6632019699
 10
398.0631672247
 20
822.4730631531
 10
397.9296304687
 20
822.2757717789
  0
ARC
  5
232
330
1F
100
AcDbEntity
  8
0
  6
Continuous
 62
     7
370
    15
100
AcDbCircle
 10
368.3159535291
 20
874.9333658822
 30
0.0
 40
1.555021246178299
100
AcDbArc
 50
282.4561435491
 51
312.6847874135
  0
ARC
  5
233
330
1F
100
AcDbEntity
  8
0
  6
Continuous
 62
     7
370
    15
100
AcDbCircle
 10
322.5902840715
 20
852.4676701248
 30
0.0
 40
52.93229265741196
100
AcDbArc
 50
336.8671364918
 51
23.1328635082
  0
LWPOLYLINE
  5
234
330
1F
100
AcDbEntity
  8
0
  6
Continuous
 62
     7
370
    15
100
AcDbPolyline
 90
        3
 70
   128
 43
0.0
 10
372.6380739762
 20
874.2131134689
 10
371.9794389262
 20
873.819126767
 10
371.2666251166
 20
873.2628962219
  0
ARC
  5
235
330
1F
100
AcDbEntity
  8
0
  6
Continuous
 62
     7
370
    15
100
AcDbCircle
 10
373.7965590876
 20
872.2338165954
 30
0.0
 40
2.293404427219802
100
AcDbArc
 50
75.3387004099
 51
120.3404957599
  0
LWPOLYLINE
  5
236
330
1F
100
AcDbEntity
  8
0
  6
Continuous
 62
     7
370
    15
100
AcDbPolyline
 90
        3
 70
   128
 43
0.0
 10
371.2666251166
 20
831.6724440277
 10
371.9794389262
 20
831.1949512184
 10
372.6380739762
 20
831.0044547737
  0
ARC
  5
237
330
1F
100
AcDbEntity
  8
0
  6
Continuous
 62
     7
370
    15
100
AcDbCircle
 10
454.3535247937
 20
852.4676701248
 30
0.0
 40
52.93228237185107
100
AcDbArc
 50
156.8671317355
 51
203.1328682645
  0
LWPOLYLINE
  5
238
330
1F
100
AcDbEntity
  8
0
  6
Continuous
 62
     7
370
    15
100
AcDbPolyline
 90
        3
 70
   128
 43
0.0
 10
404.3057460739
 20
831.0044547737
 10
404.964381124
 20
831.1949512184
 10
405.6771949335
 20
831.6724440277
  0
ARC
  5
239
330
1F
100
AcDbEntity
  8
0
  6
Continuous
 62
     7
370
    15
100
AcDbCircle
 10
403.2029615696
 20
872.6383614068
 30
0.0
 40
1.922492580005335
100
AcDbArc
 50
54.9967960369
 51
109.3240077934
  0
LWPOLYLINE
  5
23A
330
1F
100
AcDbEntity
  8
0
  6
Continuous
 62
     7
370
    15
100
AcDbPolyline
 90
        3
 70
   128
 43
0.0
 10
405.6771949335
 20
873.2628962219
 10
404.964381124
 20
873.819126767
 10
404.3057460739
 20
874.2131134689
  0
ARC
  5
23B
330
1F
100
AcDbEntity
  8
0
  6
Continuous
 62
     7
370
    15
100
AcDbCircle
 10
402.6892723376
 20
829.1113553351
 30
0.0
 40
3.935334386124695
100
AcDbArc
 50
25.1561830275
 51
40.6014293068
  0
ARC
  5
23C
330
1F
100
AcDbEntity
  8
0
  6
Continuous
 62
     7
370
    15
100
AcDbCircle
 10
374.2545477125
 20
829.1113553351
 30
0.0
 40
3.935334386124769
100
AcDbArc
 50
139.3985706932
 51
154.8438169725
  0
ARC
  5
23D
330
1F
100
AcDbEntity
  8
0
  6
Continuous
 62
     7
370
    15
100
AcDbCircle
 10
390.5328797294
 20
852.4676701248
 30
0.0
 40
25.72531265951643
100
AcDbArc
 50
306.0643245192
 51
53.9356754808
  0
ARC
  5
23E
330
1F
100
AcDbEntity
  8
0
  6
Continuous
 62
     7
370
    15
100
AcDbCircle
 10
406.8347516389
 20
872.5124806799
 30
0.0
 40
1.379514774103886
100
AcDbArc
 50
115.0180475138
 51
147.0456508227
  0
ARC
  5
23F
330
1F
100
AcDbEntity
  8
0
  6
Continuous
 62
     7
370
    15
100
AcDbCircle
 10
386.4109403207
 20
852.4676701248
 30
0.0
 40
25.72531265951649
100
AcDbArc
 50
126.0643245192
 51
233.9356754808
  0
ARC
  5
240
330
1F
100
AcDbEntity
  8
0
  6
Continuous
 62
     7
370
    15
100
AcDbCircle
 10
370.1090684112
 20
872.5124806799
 30
0.0
 40
1.379514774103886
100
AcDbArc
 50
32.9543491773
 51
64.9819524862
  0
LWPOLYLINE
  5
241
330
1F
100
AcDbEntity
  8
0
  6
Continuous
 62
     7
370
    15
100
AcDbPolyline
 90
        7
 70
   128
 43
0.0
 10
403.7836093857
 20
825.7896444023
 10
403.5751160635
 20
825.6964823425
 10
403.3690749137
 20
825.648083371
 10
403.1858902826
 20
825.6539842308
 10
403.0341042607
 20
825.7113835037
 10
402.8372338443
 20
825.9205958069
 10
402.7293550252
 20
826.1898299873
  0
ARC
  5
242
330
1F
100
AcDbEntity
  8
0
  6
Continuous
 62
     7
370
    15
100
AcDbCircle
 10
403.6907506657
 20
826.5075416092
 30
0.0
 40
1.012532593193498
100
AcDbArc
 50
113.2180404783
 51
198.2871282429
  0
LWPOLYLINE
  5
243
330
1F
100
AcDbEntity
  8
0
  6
Continuous
 62
     7
370
    15
100
AcDbPolyline
 90
        7
 70
   128
 43
0.0
 10
403.291578631
 20
827.4380704582
 10
403.4966856642
 20
827.5327226341
 10
403.6989204987
 20
827.5871416748
 10
403.8800469069
 20
827.5864264191
 10
404.027170728
 20
827.5357028664
 10
404.2213477595
 20
827.3354312599
 10
404.3275855883
 20
827.0701905907
  0
LWPOLYLINE
  5
244
330
1F
100
AcDbEntity
  8
0
  6
Continuous
 62
     7
370
    15
100
AcDbPolyline
 90
        3
 70
   128
 43
0.0
 10
404.3275855883
 20
827.0701905907
 10
404.3874118878
 20
826.7257353485
 10
404.3182723625
 20
826.3324639023
  0
ARC
  5
245
330
1F
100
AcDbEntity
  8
0
  6
Continuous
 62
     7
370
    15
100
AcDbCircle
 10
403.2369057604
 20
826.8628536879
 30
0.0
 40
1.204434732351053
100
AcDbArc
 50
296.9947518627
 51
333.8728872067
  0
ARC
  5
246
330
1F
100
AcDbEntity
  8
0
  6
Continuous
 62
     7
370
    15
100
AcDbCircle
 10
403.5884752938
 20
826.7441521455
 30
0.0
 40
0.4683780231274428
100
AcDbArc
 50
117.2491997307
 51
158.3116287264
  0
LWPOLYLINE
  5
247
330
1F
100
AcDbEntity
  8
0
  6
Continuous
 62
     7
370
    15
100
AcDbPolyline
 90
        3
 70
   128
 43
0.0
 10
403.1532548769
 20
826.9172450722
 10
403.1209109752
 20
826.6541501701
 10
403.1659879191
 20
826.4200827301
  0
LWPOLYLINE
  5
248
330
1F
100
AcDbEntity
  8
0
  6
Continuous
 62
     7
370
    15
100
AcDbPolyline
 90
        7
 70
   128
 43
0.0
 10
403.1659879191
 20
826.4200827301
 10
403.3080658345
 20
826.1139532745
 10
403.3714060141
 20
826.0572096527
 10
403.4584585978
 20
826.0238310516
 10
403.5680696769
 20
826.0237118424
 10
403.628951165
 20
826.0407587708
 10
403.6900645523
 20
826.0687133492
  0
LWPOLYLINE
  5
249
330
1F
100
AcDbEntity
  8
0
  6
Continuous
 62
     7
370
    15
100
AcDbPolyline
 90
        7
 70
   128
 43
0.0
 10
403.6900645523
 20
826.0687133492
 10
403.8065245776
 20
826.15162341
 10
403.8543014257
 20
826.2018701256
 10
403.8928470044
 20
826.2562295616
 10
403.9368650346
 20
826.365067643
 10
403.9526919304
 20
826.4685413063
 10
403.8962249114
 20
826.8354078949
  0
LWPOLYLINE
  5
24A
330
1F
100
AcDbEntity
  8
0
  6
Continuous
 62
     7
370
    15
100
AcDbPolyline
 90
        6
 70
   128
 43
0.0
 10
403.8962249114
 20
826.8354078949
 10
403.7542522355
 20
827.1316429794
 10
403.6898261337
 20
827.1839162529
 10
403.6020694702
 20
827.2118708313
 10
403.4932360454
 20
827.2064468086
 10
403.3740230306
 20
827.1605512322
  0
LWPOLYLINE
  5
24B
330
1F
100
AcDbEntity
  8
0
  6
Continuous
 62
     7
370
    15
100
AcDbPolyline
 90
        3
 70
   128
 43
0.0
 10
403.291578631
 20
827.4380704582
 10
403.2892465993
 20
827.4413487137
 10
403.2869145675
 20
827.4445673645
  0
LWPOLYLINE
  5
24C
330
1F
100
AcDbEntity
  8
0
  6
Continuous
 62
     7
370
    15
100
AcDbPolyline
 90
        3
 70
   128
 43
0.0
 10
402.7293550252
 20
826.1898299873
 10
402.7271496533
 20
826.1931082428
 10
402.7249442815
 20
826.1964461029
  0
LINE
  5
24D
330
1F
100
AcDbEntity
  8
0
  6
Continuous
 62
     7
370
    15
100
AcDbLine
 10
405.9188843175
 20
827.1328350723
 30
0.0
 11
404.8964746698
 21
826.4935752571
 31
0.0
  0
LINE
  5
24E
330
1F
100
AcDbEntity
  8
0
  6
Continuous
 62
     7
370
    15
100
AcDbLine
 10
404.8964746698
 20
826.4935752571
 30
0.0
 11
404.8061810835
 21
826.7626902283
 31
0.0
  0
LINE
  5
24F
330
1F
100
AcDbEntity
  8
0
  6
Continuous
 62
     7
370
    15
100
AcDbLine
 10
404.8061810835
 20
826.7626902283
 30
0.0
 11
405.5212133034
 21
827.2054335297
 31
0.0
  0
LINE
  5
250
330
1F
100
AcDbEntity
  8
0
  6
Continuous
 62
     7
370
    15
100
AcDbLine
 10
405.5212133034
 20
827.2054335297
 30
0.0
 11
405.5161785735
 21
827.5417825401
 31
0.0
  0
LINE
  5
251
330
1F
100
AcDbEntity
  8
0
  6
Continuous
 62
     7
370
    15
100
AcDbLine
 10
405.5161785735
 20
827.5417825401
 30
0.0
 11
405.3804047807
 21
827.4378916443
 31
0.0
  0
LWPOLYLINE
  5
252
330
1F
100
AcDbEntity
  8
0
  6
Continuous
 62
     7
370
    15
100
AcDbPolyline
 90
        7
 70
   128
 43
0.0
 10
405.3804047807
 20
827.4378916443
 10
405.0954629137
 20
827.3029467285
 10
404.959042783
 20
827.2746941269
 10
404.8294231697
 20
827.2739788712
 10
404.7177780821
 20
827.2997280777
 10
404.6274528308
 20
827.351524514
 10
404.5177206798
 20
827.5174042404
  0
ARC
  5
253
330
1F
100
AcDbEntity
  8
0
  6
Continuous
 62
     7
370
    15
100
AcDbCircle
 10
405.5382091854
 20
827.5945289045
 30
0.0
 40
1.023398751110668
100
AcDbArc
 50
116.0535005396
 51
184.3219822312
  0
LWPOLYLINE
  5
254
330
1F
100
AcDbEntity
  8
0
  6
Continuous
 62
     7
370
    15
100
AcDbPolyline
 90
        5
 70
   128
 43
0.0
 10
405.0887220009
 20
828.5139342964
 10
405.3499281808
 20
828.6487600029
 10
405.6015082105
 20
828.7079474152
 10
405.8126539393
 20
828.6806484879
 10
405.9602369024
 20
828.5723468483
  0
LINE
  5
255
330
1F
100
AcDbEntity
  8
0
  6
Continuous
 62
     7
370
    15
100
AcDbLine
 10
405.9602369024
 20
828.5723468483
 30
0.0
 11
405.531204532
 21
828.2902380646
 31
0.0
  0
ARC
  5
256
330
1F
100
AcDbEntity
  8
0
  6
Continuous
 62
     7
370
    15
100
AcDbCircle
 10
405.3965053948
 20
827.9554661182
 30
0.0
 40
0.3608546987763995
100
AcDbArc
 50
68.0820744557
 51
128.8404253417
  0
ARC
  5
257
330
1F
100
AcDbEntity
  8
0
  6
Continuous
 62
     7
370
    15
100
AcDbCircle
 10
405.367975114
 20
827.8344365971
 30
0.0
 40
0.4481102800900489
100
AcDbArc
 50
116.1921845356
 51
187.0898557216
  0
LWPOLYLINE
  5
258
330
1F
100
AcDbEntity
  8
0
  6
Continuous
 62
     7
370
    15
100
AcDbPolyline
 90
        8
 70
   128
 43
0.0
 10
404.923291172
 20
827.7791282356
 10
404.9720645352
 20
827.7014633835
 10
405.0119046523
 20
827.6761314095
 10
405.0611697538
 20
827.661945504
 10
405.1196717127
 20
827.6596209229
 10
405.1805206044
 20
827.6694556893
 10
405.2461304172
 20
827.6930591286
 10
405.3115446522
 20
827.7285834969
  0
ARC
  5
259
330
1F
100
AcDbEntity
  8
0
  6
Continuous
 62
     7
370
    15
100
AcDbCircle
 10
404.9484211164
 20
828.2784007736
 30
0.0
 40
0.658908525964957
100
AcDbArc
 50
303.442799248
 51
334.2628738019
  0
LINE
  5
25A
330
1F
100
AcDbEntity
  8
0
  6
Continuous
 62
     7
370
    15
100
AcDbLine
 10
405.5419631703
 20
827.9922744454
 30
0.0
 11
405.8935244037
 21
828.1560084046
 31
0.0
  0
LINE
  5
25B
330
1F
100
AcDbEntity
  8
0
  6
Continuous
 62
     7
370
    15
100
AcDbLine
 10
405.8935244037
 20
828.1560084046
 30
0.0
 11
405.9188843175
 21
827.1328350723
 31
0.0
  0
LWPOLYLINE
  5
25C
330
1F
100
AcDbEntity
  8
0
  6
Continuous
 62
     7
370
    15
100
AcDbPolyline
 90
        3
 70
   128
 43
0.0
 10
405.0887220009
 20
828.5139342964
 10
405.0861068471
 20
828.517033738
 10
405.083493556
 20
828.5201331795
  0
LWPOLYLINE
  5
25D
330
1F
100
AcDbEntity
  8
0
  6
Continuous
 62
     7
370
    15
100
AcDbPolyline
 90
        3
 70
   128
 43
0.0
 10
404.5177206798
 20
827.5174042404
 10
404.5152247353
 20
827.5205632866
 10
404.5127269282
 20
827.5236627281
  0
ARC
  5
25E
330
1F
100
AcDbEntity
  8
0
  6
Continuous
 62
     7
370
    15
100
AcDbCircle
 10
403.5213437084
 20
826.324522962
 30
0.0
 40
0.2984530166212523
100
AcDbArc
 50
223.1231566678
 51
303.3477071121
  0
LINE
  5
25F
330
1F
100
AcDbEntity
  8
0
  6
Continuous
 62
     7
370
    15
100
AcDbLine
 10
403.8914518832
 20
826.8418451965
 30
0.0
 11
403.7650369509
 21
827.1056553543
 31
0.0
  0
LWPOLYLINE
  5
260
330
1F
100
AcDbEntity
  8
0
  6
Continuous
 62
     7
370
    15
100
AcDbPolyline
 90
        7
 70
   128
 43
0.0
 10
403.6854088708
 20
826.0752102554
 10
403.8018325745
 20
826.1581203163
 10
403.8495926588
 20
826.2083074272
 10
403.8881233363
 20
826.2626668633
 10
403.9321218087
 20
826.3715049446
 10
403.9479347347
 20
826.474978608
 10
403.8914518832
 20
826.8418451965
  0
LWPOLYLINE
  5
261
330
1F
100
AcDbEntity
  8
0
  6
Continuous
 62
     7
370
    15
100
AcDbPolyline
 90
        3
 70
   128
 43
0.0
 10
403.8914518832
 20
826.8418451965
 10
403.8938379316
 20
826.8386265457
 10
403.8962249114
 20
826.8354078949
  0
LWPOLYLINE
  5
262
330
1F
100
AcDbEntity
  8
0
  6
Continuous
 62
     7
370
    15
100
AcDbPolyline
 90
        3
 70
   128
 43
0.0
 10
405.9602369024
 20
828.5723468483
 10
405.9575099899
 20
828.5753270805
 10
405.9547830774
 20
828.5783669174
  0
LINE
  5
263
330
1F
100
AcDbEntity
  8
0
  6
Continuous
 62
     7
370
    15
100
AcDbLine
 10
407.6400448038
 20
828.3432861984
 30
0.0
 11
407.0502456679
 21
827.9019734085
 31
0.0
  0
LINE
  5
264
330
1F
100
AcDbEntity
  8
0
  6
Continuous
 62
     7
370
    15
100
AcDbLine
 10
407.0502456679
 20
827.9019734085
 30
0.0
 11
406.4467821671
 21
829.3898245514
 31
0.0
  0
LINE
  5
265
330
1F
100
AcDbEntity
  8
0
  6
Continuous
 62
     7
370
    15
100
AcDbLine
 10
406.4467821671
 20
829.3898245514
 30
0.0
 11
406.8391520931
 21
829.681350869
 31
0.0
  0
LINE
  5
266
330
1F
100
AcDbEntity
  8
0
  6
Continuous
 62
     7
370
    15
100
AcDbLine
 10
406.8391520931
 20
829.681350869
 30
0.0
 11
407.3347237362
 21
828.4592768372
 31
0.0
  0
LINE
  5
267
330
1F
100
AcDbEntity
  8
0
  6
Continuous
 62
     7
370
    15
100
AcDbLine
 10
407.3347237362
 20
828.4592768372
 30
0.0
 11
407.7578235819
 21
828.7824532211
 31
0.0
  0
LINE
  5
268
330
1F
100
AcDbEntity
  8
0
  6
Continuous
 62
     7
370
    15
100
AcDbLine
 10
407.7578235819
 20
828.7824532211
 30
0.0
 11
407.6400448038
 21
828.3432861984
 31
0.0
  0
LINE
  5
269
330
1F
100
AcDbEntity
  8
0
  6
Continuous
 62
     7
370
    15
100
AcDbLine
 10
406.4467821671
 20
829.3898245514
 30
0.0
 11
406.4411327644
 21
829.3956658066
 31
0.0
  0
LINE
  5
26A
330
1F
100
AcDbEntity
  8
0
  6
Continuous
 62
     7
370
    15
100
AcDbLine
 10
407.0502456679
 20
827.9019734085
 30
0.0
 11
407.0445925398
 21
827.9078742684
 31
0.0
  0
LINE
  5
26B
330
1F
100
AcDbEntity
  8
0
  6
Continuous
 62
     7
370
    15
100
AcDbLine
 10
406.8391520931
 20
829.681350869
 30
0.0
 11
406.8333778931
 21
829.6871325195
 31
0.0
  0
LWPOLYLINE
  5
26C
330
1F
100
AcDbEntity
  8
0
  6
Continuous
 62
     7
370
    15
100
AcDbPolyline
 90
        3
 70
   128
 43
0.0
 10
403.6854088708
 20
826.0752102554
 10
403.6877371772
 20
826.0719916046
 10
403.6900645523
 20
826.0687133492
  0
LWPOLYLINE
  5
26D
330
1F
100
AcDbEntity
  8
0
  6
Continuous
 62
     7
370
    15
100
AcDbPolyline
 90
        3
 70
   128
 43
0.0
 10
405.3115483775
 20
827.7285834969
 10
405.3089406742
 20
827.7316829384
 10
405.3063348337
 20
827.7347227753
  0
LWPOLYLINE
  5
26E
330
1F
100
AcDbEntity
  8
0
  6
Continuous
 62
     7
370
    15
100
AcDbPolyline
 90
        3
 70
   128
 43
0.0
 10
405.5419631703
 20
827.9922744454
 10
405.5393163516
 20
827.9953142822
 10
405.5366676702
 20
827.9983541191
  0
LINE
  5
26F
330
1F
100
AcDbEntity
  8
0
  6
Continuous
 62
     7
370
    15
100
AcDbLine
 10
405.8935244037
 20
828.1560084046
 30
0.0
 11
405.8881264581
 21
828.1620284737
 31
0.0
  0
LWPOLYLINE
  5
270
330
1F
100
AcDbEntity
  8
0
  6
Continuous
 62
     7
370
    15
100
AcDbPolyline
 90
       17
 70
   128
 43
0.0
 10
397.9324542387
 20
822.2685000122
 10
397.8204701497
 20
821.8704601944
 10
397.9234828083
 20
821.5165278137
 10
398.2324984326
 20
821.2657710732
 10
398.6960353731
 20
821.1583038986
 10
399.242267239
 20
821.2129613579
 10
399.7863654448
 20
821.4253923119
 10
400.246734026
 20
821.7614432991
 10
400.5527265771
 20
822.1680661858
 10
400.6613234459
 20
822.5785633743
 10
400.5559731676
 20
822.9286810578
 10
400.2529729559
 20
823.1642386139
 10
399.7973550512
 20
823.2541820229
 10
399.2561793356
 20
823.1870671929
 10
398.7106608628
 20
822.9762455643
 10
398.2444547518
 20
822.6518174828
 10
397.9324542387
 20
822.2685000122
  0
LINE
  5
271
330
1F
100
AcDbEntity
  8
0
  6
Continuous
 62
     7
370
    15
100
AcDbLine
 10
405.5212133034
 20
827.2054335297
 30
0.0
 11
405.515992309
 21
827.2115728081
 31
0.0
  0
LINE
  5
272
330
1F
100
AcDbEntity
  8
0
  6
Continuous
 62
     7
370
    15
100
AcDbLine
 10
404.8061810835
 20
826.7626902283
 30
0.0
 11
404.8011817439
 21
826.7690083206
 31
0.0
  0
LINE
  5
273
330
1F
100
AcDbEntity
  8
0
  6
Continuous
 62
     7
370
    15
100
AcDbLine
 10
404.8964746698
 20
826.4935752571
 30
0.0
 11
404.8914734675
 21
826.4998337448
 31
0.0
  0
LINE
  5
274
330
1F
100
AcDbEntity
  8
0
  6
Continuous
 62
     7
370
    15
100
AcDbLine
 10
407.7578235819
 20
828.7824532211
 30
0.0
 11
407.751922722
 21
828.7881156624
 31
0.0
  0
LWPOLYLINE
  5
275
330
1F
100
AcDbEntity
  8
0
  6
Continuous
 62
     7
370
    15
100
AcDbPolyline
 90
       17
 70
   128
 43
0.0
 10
404.8616897716
 20
825.3860017479
 10
404.7681421443
 20
824.9555370033
 10
404.8702001973
 20
824.6037503899
 10
405.1586568757
 20
824.3898889244
 10
405.5848915531
 20
824.3471523941
 10
406.0816627397
 20
824.4840642632
 10
406.5706946357
 20
824.7838756264
 10
406.978332664
 20
825.199737233
 10
407.2425600542
 20
825.6671568573
 10
407.3276270582
 20
826.1109134377
 10
407.221722643
 20
826.4613887489
 10
406.9416944339
 20
826.6639253319
 10
406.5285280748
 20
826.6915222824
 10
406.0417760565
 20
826.5415569962
 10
405.5532079591
 20
826.2401959122
 10
405.1373836054
 20
825.8320233048
 10
404.8616897716
 20
825.3860017479
  0
LWPOLYLINE
  5
276
330
1F
100
AcDbEntity
  8
0
  6
Continuous
 62
     7
370
    15
100
AcDbPolyline
 90
        7
 70
   128
 43
0.0
 10
414.4140083744
 20
835.6030127228
 10
414.2807826801
 20
835.4250928581
 10
414.1351778461
 20
835.2896711052
 10
413.9949504687
 20
835.2161785782
 10
413.854572217
 20
835.2006813706
 10
413.6370636924
 20
835.3065392197
 10
413.4705916448
 20
835.5065724075
  0
ARC
  5
277
330
1F
100
AcDbEntity
  8
0
  6
Continuous
 62
     7
370
    15
100
AcDbCircle
 10
414.4777911697
 20
836.1642739334
 30
0.0
 40
1.20292234996653
100
AcDbArc
 50
142.0629792515
 51
213.1445460619
  0
LWPOLYLINE
  5
278
330
1F
100
AcDbEntity
  8
0
  6
Continuous
 62
     7
370
    15
100
AcDbPolyline
 90
        7
 70
   128
 43
0.0
 10
413.5290619387
 20
836.9038244904
 10
413.659059669
 20
837.0810887039
 10
413.7988884403
 20
837.2190734566
 10
413.9341704949
 20
837.2963210762
 10
414.0676886244
 20
837.3156329811
 10
414.2786108358
 20
837.2172257126
 10
414.4415904238
 20
837.0200535477
  0
LWPOLYLINE
  5
279
330
1F
100
AcDbEntity
  8
0
  6
Continuous
 62
     7
370
    15
100
AcDbPolyline
 90
        3
 70
   128
 43
0.0
 10
414.4415904238
 20
837.0200535477
 10
414.5933177723
 20
836.7297789276
 10
414.6607995434
 20
836.3378187836
  0
ARC
  5
27A
330
1F
100
AcDbEntity
  8
0
  6
Continuous
 62
     7
370
    15
100
AcDbCircle
 10
413.2044082011
 20
836.4181142671
 30
0.0
 40
1.458603135389002
100
AcDbArc
 50
326.025533896
 51
356.8442964175
  0
ARC
  5
27B
330
1F
100
AcDbEntity
  8
0
  6
Continuous
 62
     7
370
    15
100
AcDbCircle
 10
414.1611512728
 20
836.3623315834
 30
0.0
 40
0.580945113879913
100
AcDbArc
 50
146.3785818947
 51
179.9427229017
  0
LWPOLYLINE
  5
27C
330
1F
100
AcDbEntity
  8
0
  6
Continuous
 62
     7
370
    15
100
AcDbPolyline
 90
        3
 70
   128
 43
0.0
 10
413.5802064492
 20
836.362912339
 10
413.6352476134
 20
836.1069699944
 10
413.7416772945
 20
835.9118243874
  0
LWPOLYLINE
  5
27D
330
1F
100
AcDbEntity
  8
0
  6
Continuous
 62
     7
370
    15
100
AcDbPolyline
 90
        7
 70
   128
 43
0.0
 10
413.7416772945
 20
835.9118243874
 10
413.9455251797
 20
835.6923600853
 10
414.0119582816
 20
835.6676837624
 10
414.0898745908
 20
835.6752535523
 10
414.1751110955
 20
835.7235333145
 10
414.2172292276
 20
835.765912217
 10
414.2561119451
 20
835.8185431183
  0
ARC
  5
27E
330
1F
100
AcDbEntity
  8
0
  6
Continuous
 62
     7
370
    15
100
AcDbCircle
 10
413.7084718917
 20
836.1685206377
 30
0.0
 40
0.649918373441929
100
AcDbArc
 50
327.4187831565
 51
43.3672646911
  0
LWPOLYLINE
  5
27F
330
1F
100
AcDbEntity
  8
0
  6
Continuous
 62
     7
370
    15
100
AcDbPolyline
 90
        6
 70
   128
 43
0.0
 10
414.1809411748
 20
836.6148015679
 10
413.9808372064
 20
836.8253251732
 10
413.914879079
 20
836.8447562874
 10
413.8383876933
 20
836.8316432655
 10
413.7557197763
 20
836.7788931549
 10
413.6773899599
 20
836.6840025604
  0
LWPOLYLINE
  5
280
330
1F
100
AcDbEntity
  8
0
  6
Continuous
 62
     7
370
    15
100
AcDbPolyline
 90
        3
 70
   128
 43
0.0
 10
413.5290619387
 20
836.9038244904
 10
413.5251187189
 20
836.9056126297
 10
413.5211736365
 20
836.9073411644
  0
LINE
  5
281
330
1F
100
AcDbEntity
  8
0
  6
Continuous
 62
     7
370
    15
100
AcDbLine
 10
413.4705916448
 20
835.5065724075
 30
0.0
 11
413.4628579422
 21
835.5102678955
 31
0.0
  0
LINE
  5
282
330
1F
100
AcDbEntity
  8
0
  6
Continuous
 62
     7
370
    15
100
AcDbLine
 10
415.8160921587
 20
838.0786916435
 30
0.0
 11
415.0076073064
 21
836.6272589386
 31
0.0
  0
LINE
  5
283
330
1F
100
AcDbEntity
  8
0
  6
Continuous
 62
     7
370
    15
100
AcDbLine
 10
415.0076073064
 20
836.6272589386
 30
0.0
 11
414.9210594996
 21
836.7464086235
 31
0.0
  0
LINE
  5
284
330
1F
100
AcDbEntity
  8
0
  6
Continuous
 62
     7
370
    15
100
AcDbLine
 10
414.9210594996
 20
836.7464086235
 30
0.0
 11
414.686086814
 21
838.8435384453
 31
0.0
  0
LINE
  5
285
330
1F
100
AcDbEntity
  8
0
  6
Continuous
 62
     7
370
    15
100
AcDbLine
 10
414.686086814
 20
838.8435384453
 30
0.0
 11
414.946415688
 21
839.1095539749
 31
0.0
  0
LINE
  5
286
330
1F
100
AcDbEntity
  8
0
  6
Continuous
 62
     7
370
    15
100
AcDbLine
 10
414.946415688
 20
839.1095539749
 30
0.0
 11
415.1541266991
 21
837.3622438133
 31
0.0
  0
LINE
  5
287
330
1F
100
AcDbEntity
  8
0
  6
Continuous
 62
     7
370
    15
100
AcDbLine
 10
415.1541266991
 20
837.3622438133
 30
0.0
 11
415.6616062327
 21
838.2917782486
 31
0.0
  0
LINE
  5
288
330
1F
100
AcDbEntity
  8
0
  6
Continuous
 62
     7
370
    15
100
AcDbLine
 10
415.6616062327
 20
838.2917782486
 30
0.0
 11
415.8160921587
 21
838.0786916435
 31
0.0
  0
ARC
  5
289
330
1F
100
AcDbEntity
  8
0
  6
Continuous
 62
     7
370
    15
100
AcDbCircle
 10
414.0008262403
 20
835.9495632139
 30
0.0
 40
0.2783226884773976
100
AcDbArc
 50
270.6785116173
 51
332.7345486491
  0
LINE
  5
28A
330
1F
100
AcDbEntity
  8
0
  6
Continuous
 62
     7
370
    15
100
AcDbLine
 10
414.1729839547
 20
836.6181990326
 30
0.0
 11
413.9728892996
 21
836.8287822426
 31
0.0
  0
ARC
  5
28B
330
1F
100
AcDbEntity
  8
0
  6
Continuous
 62
     7
370
    15
100
AcDbCircle
 10
413.700651168
 20
836.1719347062
 30
0.0
 40
0.6498077488455156
100
AcDbArc
 50
327.4232862395
 51
43.3744647468
  0
LINE
  5
28C
330
1F
100
AcDbEntity
  8
0
  6
Continuous
 62
     7
370
    15
100
AcDbLine
 10
414.686086814
 20
838.8435384453
 30
0.0
 11
414.677835296
 21
838.8463994682
 31
0.0
  0
LINE
  5
28D
330
1F
100
AcDbEntity
  8
0
  6
Continuous
 62
     7
370
    15
100
AcDbLine
 10
414.9210594996
 20
836.7464086235
 30
0.0
 11
414.9129812075
 21
836.7495676697
 31
0.0
  0
LWPOLYLINE
  5
28E
330
1F
100
AcDbEntity
  8
0
  6
Continuous
 62
     7
370
    15
100
AcDbPolyline
 90
        3
 70
   128
 43
0.0
 10
414.1729839547
 20
836.6181990326
 10
414.1769625648
 20
836.6164704979
 10
414.1809411748
 20
836.6148015679
  0
LINE
  5
28F
330
1F
100
AcDbEntity
  8
0
  6
Continuous
 62
     7
370
    15
100
AcDbLine
 10
414.946415688
 20
839.1095539749
 30
0.0
 11
414.9381045653
 21
839.1123553932
 31
0.0
  0
LINE
  5
290
330
1F
100
AcDbEntity
  8
0
  6
Continuous
 62
     7
370
    15
100
AcDbLine
 10
416.5345516457
 20
839.5652314842
 30
0.0
 11
416.2317581876
 21
838.9122626007
 31
0.0
  0
LINE
  5
291
330
1F
100
AcDbEntity
  8
0
  6
Continuous
 62
     7
370
    15
100
AcDbLine
 10
416.2317581876
 20
838.9122626007
 30
0.0
 11
415.3367851331
 21
840.0457045258
 31
0.0
  0
LINE
  5
292
330
1F
100
AcDbEntity
  8
0
  6
Continuous
 62
     7
370
    15
100
AcDbLine
 10
415.3367851331
 20
840.0457045258
 30
0.0
 11
415.5395415081
 21
840.4787322701
 31
0.0
  0
LINE
  5
293
330
1F
100
AcDbEntity
  8
0
  6
Continuous
 62
     7
370
    15
100
AcDbLine
 10
415.5395415081
 20
840.4787322701
 30
0.0
 11
416.2743904098
 21
839.5481845558
 31
0.0
  0
LINE
  5
294
330
1F
100
AcDbEntity
  8
0
  6
Continuous
 62
     7
370
    15
100
AcDbLine
 10
416.2743904098
 20
839.5481845558
 30
0.0
 11
416.4874453499
 21
840.0216838539
 31
0.0
  0
LINE
  5
295
330
1F
100
AcDbEntity
  8
0
  6
Continuous
 62
     7
370
    15
100
AcDbLine
 10
416.4874453499
 20
840.0216838539
 30
0.0
 11
416.5345516457
 21
839.5652314842
 31
0.0
  0
LINE
  5
296
330
1F
100
AcDbEntity
  8
0
  6
Continuous
 62
     7
370
    15
100
AcDbLine
 10
415.3367851331
 20
840.0457045258
 30
0.0
 11
415.3283361747
 21
840.0482079209
 31
0.0
  0
LINE
  5
297
330
1F
100
AcDbEntity
  8
0
  6
Continuous
 62
     7
370
    15
100
AcDbLine
 10
416.2317581876
 20
838.9122626007
 30
0.0
 11
416.2233073665
 21
838.9147659958
 31
0.0
  0
LWPOLYLINE
  5
298
330
1F
100
AcDbEntity
  8
0
  6
Continuous
 62
     7
370
    15
100
AcDbPolyline
 90
        3
 70
   128
 43
0.0
 10
414.2482255055
 20
835.8220597923
 10
414.2521687253
 20
835.8203312576
 10
414.2561119451
 20
835.8185431183
  0
LWPOLYLINE
  5
299
330
1F
100
AcDbEntity
  8
0
  6
Continuous
 62
     7
370
    15
100
AcDbPolyline
 90
       17
 70
   128
 43
0.0
 10
410.7903160556
 20
830.0156733215
 10
410.7308566971
 20
829.5517703713
 10
410.8383089705
 20
829.1948577583
 10
411.1022774531
 20
829.0056726158
 10
411.4781871839
 20
829.0122291268
 10
411.9056381686
 20
829.2147657097
 10
412.3158391966
 20
829.5863410652
 10
412.6463804795
 20
830.0695559204
 10
412.8471922531
 20
830.5904409111
 10
412.8927711799
 20
831.0664436043
 10
412.7785090758
 20
831.4234754265
 10
412.523334141
 20
831.605448407
 10
412.1643074258
 20
831.5876862229
 10
411.7520872905
 20
831.3734671295
 10
411.3458872243
 20
830.9983751
 10
411.0069584503
 20
830.5185577095
 10
410.7903160556
 20
830.0156733215
  0
LINE
  5
29A
330
1F
100
AcDbEntity
  8
0
  6
Continuous
 62
     7
370
    15
100
AcDbLine
 10
415.5395415081
 20
840.4787322701
 30
0.0
 11
415.5310292198
 21
840.4811164559
 31
0.0
  0
LINE
  5
29B
330
1F
100
AcDbEntity
  8
0
  6
Continuous
 62
     7
370
    15
100
AcDbLine
 10
415.0076073064
 20
836.6272589386
 30
0.0
 11
414.9995290144
 21
836.6304775894
 31
0.0
  0
LINE
  5
29C
330
1F
100
AcDbEntity
  8
0
  6
Continuous
 62
     7
370
    15
100
AcDbLine
 10
415.6616062327
 20
838.2917782486
 30
0.0
 11
415.6532802089
 21
838.2945200623
 31
0.0
  0
LWPOLYLINE
  5
29D
330
1F
100
AcDbEntity
  8
0
  6
Continuous
 62
     7
370
    15
100
AcDbPolyline
 90
       17
 70
   128
 43
0.0
 10
415.3570879652
 20
835.8825585068
 10
415.348963107
 20
835.3897473038
 10
415.4720765008
 20
835.0240728081
 10
415.7131828769
 20
834.8482987106
 10
416.0320621385
 20
834.887160939
 10
416.3765937491
 20
835.134997052
 10
416.6896112664
 20
835.5574747742
 10
416.9225834711
 20
836.0894462288
 10
417.0401014789
 20
836.6500279129
 10
417.0295440062
 20
837.1518394173
 10
416.8958638265
 20
837.517513913
 10
416.6619528486
 20
837.6895329178
 10
416.361854638
 20
837.6442929924
 10
416.037124808
 20
837.3879334152
 10
415.7326102658
 20
836.9617006004
 10
415.4931486054
 20
836.4295503319
 10
415.3570879652
 20
835.8825585068
  0
LINE
  5
29E
330
1F
100
AcDbEntity
  8
0
  6
Continuous
 62
     7
370
    15
100
AcDbLine
 10
416.4874453499
 20
840.0216838539
 30
0.0
 11
416.478867869
 21
840.0239488304
 31
0.0
  0
LWPOLYLINE
  5
29F
330
1F
100
AcDbEntity
  8
0
  6
Continuous
 62
     7
370
    15
100
AcDbPolyline
 90
        7
 70
   128
 43
0.0
 10
418.9413257344
 20
848.9657184303
 10
418.916168849
 20
848.7509628952
 10
418.8680027081
 20
848.5692879379
 10
418.801418732
 20
848.4454890907
 10
418.7151540472
 20
848.3746191681
 10
418.5365058883
 20
848.3812948883
 10
418.3591075643
 20
848.4935304344
  0
ARC
  5
2A0
330
1F
100
AcDbEntity
  8
0
  6
Continuous
 62
     7
370
    15
100
AcDbCircle
 10
419.3478329063
 20
849.5509506894
 30
0.0
 40
1.447658591518072
100
AcDbArc
 50
170.9928307169
 51
226.9228596514
  0
LWPOLYLINE
  5
2A1
330
1F
100
AcDbEntity
  8
0
  6
Continuous
 62
     7
370
    15
100
AcDbPolyline
 90
        7
 70
   128
 43
0.0
 10
417.9180257423
 20
849.7775932968
 10
417.9409735306
 20
849.9905606926
 10
417.9834120377
 20
850.172056836
 10
418.0456765397
 20
850.3002068222
 10
418.1226615264
 20
850.3692290009
 10
418.2924881979
 20
850.3658911408
 10
418.46601222
 20
850.2549668968
  0
LWPOLYLINE
  5
2A2
330
1F
100
AcDbEntity
  8
0
  6
Continuous
 62
     7
370
    15
100
AcDbPolyline
 90
        3
 70
   128
 43
0.0
 10
418.46601222
 20
850.2549668968
 10
418.6650153651
 20
850.0551721275
 10
418.8455131306
 20
849.7296711624
  0
ARC
  5
2A3
330
1F
100
AcDbEntity
  8
0
  6
Continuous
 62
     7
370
    15
100
AcDbCircle
 10
417.0080877979
 20
849.1112467768
 30
0.0
 40
1.93870766718417
100
AcDbArc
 50
355.6950650076
 51
18.601731472
  0
ARC
  5
2A4
330
1F
100
AcDbEntity
  8
0
  6
Continuous
 62
     7
370
    15
100
AcDbCircle
 10
418.8608601146
 20
849.5835016254
 30
0.0
 40
0.7728348336952564
100
AcDbArc
 50
175.7569747201
 51
200.6174552445
  0
LWPOLYLINE
  5
2A5
330
1F
100
AcDbEntity
  8
0
  6
Continuous
 62
     7
370
    15
100
AcDbPolyline
 90
        3
 70
   128
 43
0.0
 10
418.137523572
 20
849.3113657654
 10
418.2614639803
 20
849.1023322762
 10
418.3980778261
 20
848.9695331276
  0
LWPOLYLINE
  5
2A6
330
1F
100
AcDbEntity
  8
0
  6
Continuous
 62
     7
370
    15
100
AcDbPolyline
 90
        7
 70
   128
 43
0.0
 10
418.3980778261
 20
848.9695331276
 10
418.6062507732
 20
848.8549730003
 10
418.6579894676
 20
848.8602182091
 10
418.7060438498
 20
848.8990208328
 10
418.7447682424
 20
848.9774009407
 10
418.7573355092
 20
849.0330120743
 10
418.7644657149
 20
849.096312207
  0
ARC
  5
2A7
330
1F
100
AcDbEntity
  8
0
  6
Continuous
 62
     7
370
    15
100
AcDbCircle
 10
418.0105725016
 20
849.1605311721
 30
0.0
 40
0.7566234549010615
100
AcDbArc
 50
355.1311213304
 51
55.3893706506
  0
LWPOLYLINE
  5
2A8
330
1F
100
AcDbEntity
  8
0
  6
Continuous
 62
     7
370
    15
100
AcDbPolyline
 90
        6
 70
   128
 43
0.0
 10
418.4403319313
 20
849.7832557381
 10
418.2379182829
 20
849.8914381683
 10
418.1885246589
 20
849.882437867
 10
418.1435641302
 20
849.8394629181
 10
418.1083079829
 20
849.758102578
 10
418.0901434674
 20
849.6406814278
  0
LWPOLYLINE
  5
2A9
330
1F
100
AcDbEntity
  8
0
  6
Continuous
 62
     7
370
    15
100
AcDbPolyline
 90
        3
 70
   128
 43
0.0
 10
417.9180257423
 20
849.7775932968
 10
417.9133933439
 20
849.7772952736
 10
417.908762808
 20
849.777056855
  0
LWPOLYLINE
  5
2AA
330
1F
100
AcDbEntity
  8
0
  6
Continuous
 62
     7
370
    15
100
AcDbPolyline
 90
        3
 70
   128
 43
0.0
 10
418.3591075643
 20
848.4935304344
 10
418.3544882043
 20
848.4933516205
 10
418.3498669817
 20
848.4932324112
  0
ARC
  5
2AB
330
1F
100
AcDbEntity
  8
0
  6
Continuous
 62
     7
370
    15
100
AcDbCircle
 10
418.4775622092
 20
849.0789799954
 30
0.0
 40
0.2781462752541218
100
AcDbArc
 50
307.9811362653
 51
3.4618925219
  0
LINE
  5
2AC
330
1F
100
AcDbEntity
  8
0
  6
Continuous
 62
     7
370
    15
100
AcDbLine
 10
418.4310596837
 20
849.782600087
 30
0.0
 11
418.228647898
 21
849.8907825173
 31
0.0
  0
ARC
  5
2AD
330
1F
100
AcDbEntity
  8
0
  6
Continuous
 62
     7
370
    15
100
AcDbCircle
 10
418.0014191692
 20
849.1599345998
 30
0.0
 40
0.7565072905798234
100
AcDbArc
 50
355.1349424946
 51
55.3942416423
  0
LINE
  5
2AE
330
1F
100
AcDbEntity
  8
0
  6
Continuous
 62
     7
370
    15
100
AcDbLine
 10
417.9770157142
 20
851.7931839646
 30
0.0
 11
418.0534307315
 21
852.1315595329
 31
0.0
  0
LINE
  5
2AF
330
1F
100
AcDbEntity
  8
0
  6
Continuous
 62
     7
370
    15
100
AcDbLine
 10
418.0534307315
 20
852.1315595329
 30
0.0
 11
418.3860078855
 21
851.4309069336
 31
0.0
  0
LWPOLYLINE
  5
2B0
330
1F
100
AcDbEntity
  8
0
  6
Continuous
 62
     7
370
    15
100
AcDbPolyline
 90
        7
 70
   128
 43
0.0
 10
418.3860078855
 20
851.4309069336
 10
418.4087042167
 20
851.7093202294
 10
418.4365116461
 20
851.8159529389
 10
418.4751186921
 20
851.9004127205
 10
418.5213756217
 20
851.957215947
 10
418.5728442325
 20
851.9816538513
 10
418.689203675
 20
851.9382616699
  0
ARC
  5
2B1
330
1F
100
AcDbEntity
  8
0
  6
Continuous
 62
     7
370
    15
100
AcDbCircle
 10
417.5229580624
 20
851.026388852
 30
0.0
 40
1.480419151793122
100
AcDbArc
 50
355.8294380982
 51
38.0214059908
  0
LWPOLYLINE
  5
2B2
330
1F
100
AcDbEntity
  8
0
  6
Continuous
 62
     7
370
    15
100
AcDbPolyline
 90
        6
 70
   128
 43
0.0
 10
418.9994570269
 20
850.9187242211
 10
418.9750098093
 20
850.6373306931
 10
418.9448312326
 20
850.5249759377
 10
418.9040448918
 20
850.438847226
 10
418.8017148926
 20
850.3451487244
 10
418.6834909423
 20
850.3787061394
  0
LWPOLYLINE
  5
2B3
330
1F
100
AcDbEntity
  8
0
  6
Continuous
 62
     7
370
    15
100
AcDbPolyline
 90
        3
 70
   128
 43
0.0
 10
418.6834909423
 20
850.3787061394
 10
418.5658369614
 20
850.5363604248
 10
418.4584573312
 20
850.7595798195
  0
LINE
  5
2B4
330
1F
100
AcDbEntity
  8
0
  6
Continuous
 62
     7
370
    15
100
AcDbLine
 10
418.4584573312
 20
850.7595798195
 30
0.0
 11
417.9770157142
 21
851.7931839646
 31
0.0
  0
ARC
  5
2B5
330
1F
100
AcDbEntity
  8
0
  6
Continuous
 62
     7
370
    15
100
AcDbCircle
 10
418.2381901081
 20
851.1025917919
 30
0.0
 40
0.5899046351465479
100
AcDbArc
 50
354.9290438413
 51
39.5748789149
  0
LWPOLYLINE
  5
2B6
330
1F
100
AcDbEntity
  8
0
  6
Continuous
 62
     7
370
    15
100
AcDbPolyline
 90
        7
 70
   128
 43
0.0
 10
418.6928842618
 20
851.4784118355
 10
418.6428945913
 20
851.4976641358
 10
418.6001617863
 20
851.4638683022
 10
418.5833830788
 20
851.4282843292
 10
418.5711380495
 20
851.3817927063
 10
418.5636930569
 20
851.3255855263
 10
418.5612846567
 20
851.2625834168
  0
ARC
  5
2B7
330
1F
100
AcDbEntity
  8
0
  6
Continuous
 62
     7
370
    15
100
AcDbCircle
 10
419.1292314113
 20
851.2090721749
 30
0.0
 40
0.5704620662592961
100
AcDbArc
 50
174.6175518639
 51
219.534727147
  0
LWPOLYLINE
  5
2B8
330
1F
100
AcDbEntity
  8
0
  6
Continuous
 62
     7
370
    15
100
AcDbPolyline
 90
        6
 70
   128
 43
0.0
 10
418.6892688675
 20
850.8459469498
 10
418.7389865919
 20
850.8266350449
 10
418.7826674833
 20
850.857987088
 10
418.8139822735
 20
850.935175103
 10
418.8228764041
 20
850.9887596787
 10
418.8257858558
 20
851.050450486
  0
LWPOLYLINE
  5
2B9
330
1F
100
AcDbEntity
  8
0
  6
Continuous
 62
     7
370
    15
100
AcDbPolyline
 90
        3
 70
   128
 43
0.0
 10
418.4310596837
 20
849.782600087
 10
418.4356958075
 20
849.7828981102
 10
418.4403319313
 20
849.7832557381
  0
LINE
  5
2BA
330
1F
100
AcDbEntity
  8
0
  6
Continuous
 62
     7
370
    15
100
AcDbLine
 10
417.9770157142
 20
851.7931839646
 30
0.0
 11
417.9677304282
 21
851.7919918717
 31
0.0
  0
LWPOLYLINE
  5
2BB
330
1F
100
AcDbEntity
  8
0
  6
Continuous
 62
     7
370
    15
100
AcDbPolyline
 90
        3
 70
   128
 43
0.0
 10
418.4584573312
 20
850.7595798195
 10
418.4538156195
 20
850.7590433777
 10
418.4491739078
 20
850.7585665405
  0
LINE
  5
2BC
330
1F
100
AcDbEntity
  8
0
  6
Continuous
 62
     7
370
    15
100
AcDbLine
 10
418.0534307315
 20
852.1315595329
 30
0.0
 11
418.044147308
 21
852.1302482308
 31
0.0
  0
LWPOLYLINE
  5
2BD
330
1F
100
AcDbEntity
  8
0
  6
Continuous
 62
     7
370
    15
100
AcDbPolyline
 90
       17
 70
   128
 43
0.0
 10
418.2825304969
 20
842.6332613648
 10
418.3423791482
 20
842.1222707451
 10
418.4936892642
 20
841.7489072502
 10
418.7182553514
 20
841.577961129
 10
418.9796980872
 20
841.6326781929
 10
419.2347184225
 20
841.9039985359
 10
419.438994716
 20
842.3529407204
 10
419.5596624567
 20
842.9101249397
 10
419.5778716757
 20
843.4912106217
 10
419.495926465
 20
844.006611985
 10
419.3303130968
 20
844.3780085266
 10
419.1098113014
 20
844.5474049271
 10
418.8668962969
 20
844.4911381424
 10
418.6348423763
 20
844.2160031021
 10
418.4436679288
 20
843.7650343598
 10
418.3200795605
 20
843.2053467453
 10
418.2825304969
 20
842.6332613648
  0
LWPOLYLINE
  5
2BE
330
1F
100
AcDbEntity
  8
0
  6
Continuous
 62
     7
370
    15
100
AcDbPolyline
 90
        3
 70
   128
 43
0.0
 10
418.7552009179
 20
849.0957757652
 10
418.7598333164
 20
849.0960141838
 10
418.7644657149
 20
849.096312207
  0
LINE
  5
2BF
330
1F
100
AcDbEntity
  8
0
  6
Continuous
 62
     7
370
    15
100
AcDbLine
 10
417.9452501639
 20
853.3907076538
 30
0.0
 11
417.9359816416
 21
853.3890387238
 31
0.0
  0
LINE
  5
2C0
330
1F
100
AcDbEntity
  8
0
  6
Continuous
 62
     7
370
    15
100
AcDbLine
 10
418.923649232
 20
852.6657363594
 30
0.0
 11
417.9452501639
 21
853.3907076538
 31
0.0
  0
LINE
  5
2C1
330
1F
100
AcDbEntity
  8
0
  6
Continuous
 62
     7
370
    15
100
AcDbLine
 10
418.923649232
 20
852.6657363594
 30
0.0
 11
418.9143807097
 21
852.6640674294
 31
0.0
  0
LINE
  5
2C2
330
1F
100
AcDbEntity
  8
0
  6
Continuous
 62
     7
370
    15
100
AcDbLine
 10
418.8734509452
 20
853.3753892601
 30
0.0
 11
418.923649232
 21
852.6657363594
 31
0.0
  0
LINE
  5
2C3
330
1F
100
AcDbEntity
  8
0
  6
Continuous
 62
     7
370
    15
100
AcDbLine
 10
417.9452501639
 20
853.3907076538
 30
0.0
 11
417.9131735517
 21
853.8618227661
 31
0.0
  0
LINE
  5
2C4
330
1F
100
AcDbEntity
  8
0
  6
Continuous
 62
     7
370
    15
100
AcDbLine
 10
417.9131735517
 20
853.8618227661
 30
0.0
 11
418.7169570877
 21
853.266849202
 31
0.0
  0
LINE
  5
2C5
330
1F
100
AcDbEntity
  8
0
  6
Continuous
 62
     7
370
    15
100
AcDbLine
 10
418.7169570877
 20
853.266849202
 30
0.0
 11
418.6744906409
 21
853.7781378449
 31
0.0
  0
LINE
  5
2C6
330
1F
100
AcDbEntity
  8
0
  6
Continuous
 62
     7
370
    15
100
AcDbLine
 10
418.6744906409
 20
853.7781378449
 30
0.0
 11
418.8734509452
 21
853.3753892601
 31
0.0
  0
LINE
  5
2C7
330
1F
100
AcDbEntity
  8
0
  6
Continuous
 62
     7
370
    15
100
AcDbLine
 10
417.9131735517
 20
853.8618227661
 30
0.0
 11
417.9039162053
 21
853.8599750221
 31
0.0
  0
LWPOLYLINE
  5
2C8
330
1F
100
AcDbEntity
  8
0
  6
Continuous
 62
     7
370
    15
100
AcDbPolyline
 90
        3
 70
   128
 43
0.0
 10
418.6834909423
 20
850.3787061394
 10
418.6788510932
 20
850.3782293022
 10
418.6742112442
 20
850.3778120697
  0
ARC
  5
2C9
330
1F
100
AcDbEntity
  8
0
  6
Continuous
 62
     7
370
    15
100
AcDbCircle
 10
403.4381279572
 20
874.6293608425
 30
0.0
 40
0.962300926151918
100
AcDbArc
 50
334.3702299839
 51
21.6964331646
  0
ARC
  5
2CA
330
1F
100
AcDbEntity
  8
0
  6
Continuous
 62
     7
370
    15
100
AcDbCircle
 10
373.5056920929
 20
874.6293608425
 30
0.0
 40
0.962300926151918
100
AcDbArc
 50
158.3035668354
 51
205.6297700161
  0
ARC
  5
2CB
330
1F
100
AcDbEntity
  8
0
  6
Continuous
 62
     7
370
    15
100
AcDbCircle
 10
418.2291180709
 20
851.1014228265
 30
0.0
 40
0.589688996995045
100
AcDbArc
 50
354.9307427788
 51
39.5817679391
  0
LWPOLYLINE
  5
2CC
330
1F
100
AcDbEntity
  8
0
  6
Continuous
 62
     7
370
    15
100
AcDbPolyline
 90
        6
 70
   128
 43
0.0
 10
418.6799854441
 20
850.8448740662
 10
418.7297031684
 20
850.8255621613
 10
418.7733840598
 20
850.8569142044
 10
418.8046969874
 20
850.9340426148
 10
418.813591118
 20
850.9876271904
 10
418.8165005698
 20
851.0493179978
  0
LWPOLYLINE
  5
2CD
330
1F
100
AcDbEntity
  8
0
  6
Continuous
 62
     7
370
    15
100
AcDbPolyline
 90
        3
 70
   128
 43
0.0
 10
418.6836008384
 20
851.477160138
 10
418.6882425501
 20
851.477815789
 10
418.6928842618
 20
851.4784118355
  0
LWPOLYLINE
  5
2CE
330
1F
100
AcDbEntity
  8
0
  6
Continuous
 62
     7
370
    15
100
AcDbPolyline
 90
        3
 70
   128
 43
0.0
 10
418.8165005698
 20
851.0493179978
 10
418.8211441441
 20
851.0499140442
 10
418.8257858558
 20
851.050450486
  0
LINE
  5
2CF
330
1F
100
AcDbEntity
  8
0
  6
Continuous
 62
     7
370
    15
100
AcDbLine
 10
418.6744906409
 20
853.7781378449
 30
0.0
 11
418.6652463331
 21
853.7761708916
 31
0.0
  0
LWPOLYLINE
  5
2D0
330
1F
100
AcDbEntity
  8
0
  6
Continuous
 62
     7
370
    15
100
AcDbPolyline
 90
       17
 70
   128
 43
0.0
 10
419.3927601381
 20
849.8540660561
 10
419.534354697
 20
849.3412872971
 10
419.7266560449
 20
848.9667913139
 10
419.9442651524
 20
848.7962624252
 10
420.1534402027
 20
848.8528272331
 10
420.3193907096
 20
849.1260549248
 10
420.410906191
 20
849.5757719696
 10
420.4116065456
 20
850.1315852821
 10
420.3201469435
 20
850.7095119179
 10
420.1549899234
 20
851.2213370026
 10
419.9455056741
 20
851.5902897537
 10
419.7280046
 20
851.7596861542
 10
419.5350885792
 20
851.7057439507
 10
419.3933226569
 20
851.4340659798
 10
419.3187144055
 20
850.9858986557
 10
419.3196140631
 20
850.4271647156
 10
419.3927601381
 20
849.8540660561
  0
ARC
  5
2D1
330
1F
100
AcDbEntity
  8
0
  6
Continuous
 62
     7
370
    15
100
AcDbCircle
 10
388.5443358109
 20
878.5699853393
 30
0.0
 40
0.6905229703368091
100
AcDbArc
 50
73.7958573254
 51
94.7167153744
  0
LINE
  5
2D2
330
1F
100
AcDbEntity
  8
0
  6
Continuous
 62
     7
370
    15
100
AcDbLine
 10
388.4875546163
 20
879.258169812
 30
0.0
 11
388.4875546163
 21
879.5185229004
 31
0.0
  0
LINE
  5
2D3
330
1F
100
AcDbEntity
  8
0
  6
Continuous
 62
     7
370
    15
100
AcDbLine
 10
388.4562654338
 20
879.5185229004
 30
0.0
 11
388.4562654338
 21
879.258169812
 31
0.0
  0
ARC
  5
2D4
330
1F
100
AcDbEntity
  8
0
  6
Continuous
 62
     7
370
    15
100
AcDbCircle
 10
388.3994842392
 20
878.5699853393
 30
0.0
 40
0.6905229703368138
100
AcDbArc
 50
85.2832846256
 51
106.2041426746
  0
ARC
  5
2D5
330
1F
100
AcDbEntity
  8
0
  6
Continuous
 62
     7
370
    15
100
AcDbCircle
 10
205.7492137762
 20
879.3346092341
 30
0.0
 40
182.7383568274615
100
AcDbArc
 50
359.890103677
 51
359.9760331849
  0
ARC
  5
2D6
330
1F
100
AcDbEntity
  8
0
  6
Continuous
 62
     7
370
    15
100
AcDbCircle
 10
571.194606274
 20
879.3346092341
 30
0.0
 40
182.7383568274614
100
AcDbArc
 50
180.0239668151
 51
180.109896323
  0
LINE
  5
2D7
330
1F
100
AcDbEntity
  8
0
  6
Continuous
 62
     7
370
    15
100
AcDbLine
 10
388.4562654338
 20
879.258169812
 30
0.0
 11
388.4875546163
 21
879.258169812
 31
0.0
  0
LWPOLYLINE
  5
2D8
330
1F
100
AcDbEntity
  8
0
  6
Continuous
 62
     7
370
    15
100
AcDbPolyline
 90
        3
 70
   128
 43
0.0
 10
371.4166965737
 20
874.7801920593
 10
371.4193378045
 20
874.7760197342
 10
371.4219790353
 20
874.7717878044
  0
ARC
  5
2D9
330
1F
100
AcDbEntity
  8
0
  6
Continuous
 62
     7
370
    15
100
AcDbCircle
 10
370.4094130944
 20
878.3826484443
 30
0.0
 40
3.7406298952892
100
AcDbArc
 50
285.6215331006
 51
307.3852246662
  0
LINE
  5
2DA
330
1F
100
AcDbEntity
  8
0
  6
Continuous
 62
     7
370
    15
100
AcDbLine
 10
372.6806149288
 20
875.4104515732
 30
0.0
 11
372.6855807407
 21
875.4018685043
 31
0.0
  0
LINE
  5
2DB
330
1F
100
AcDbEntity
  8
0
  6
Continuous
 62
     7
370
    15
100
AcDbLine
 10
374.3478108599
 20
876.8225452126
 30
0.0
 11
371.7118475987
 21
875.3795763672
 31
0.0
  0
LINE
  5
2DC
330
1F
100
AcDbEntity
  8
0
  6
Continuous
 62
     7
370
    15
100
AcDbLine
 10
371.7118475987
 20
875.3795763672
 30
0.0
 11
372.3943561717
 21
875.3435155571
 31
0.0
  0
LINE
  5
2DD
330
1F
100
AcDbEntity
  8
0
  6
Continuous
 62
     7
370
    15
100
AcDbLine
 10
372.3943561717
 20
875.3435155571
 30
0.0
 11
375.0329895346
 21
876.7811795891
 31
0.0
  0
LINE
  5
2DE
330
1F
100
AcDbEntity
  8
0
  6
Continuous
 62
     7
370
    15
100
AcDbLine
 10
375.0329895346
 20
876.7811795891
 30
0.0
 11
374.7809242858
 21
876.7966767967
 31
0.0
  0
LINE
  5
2DF
330
1F
100
AcDbEntity
  8
0
  6
Continuous
 62
     7
370
    15
100
AcDbLine
 10
374.7809242858
 20
876.7966767967
 30
0.0
 11
375.7837202801
 21
877.2412082375
 31
0.0
  0
LINE
  5
2E0
330
1F
100
AcDbEntity
  8
0
  6
Continuous
 62
     7
370
    15
100
AcDbLine
 10
375.7837202801
 20
877.2412082375
 30
0.0
 11
375.9140849515
 21
877.2322675408
 31
0.0
  0
LWPOLYLINE
  5
2E1
330
1F
100
AcDbEntity
  8
0
  6
Continuous
 62
     7
370
    15
100
AcDbPolyline
 90
        7
 70
   128
 43
0.0
 10
375.9140849515
 20
877.2322675408
 10
375.9691950335
 20
877.2034188927
 10
375.9372236608
 20
877.1639606178
 10
375.8354757382
 20
877.0967861832
 10
375.6603656738
 20
877.0030280769
 10
375.4501475422
 20
876.8975874603
 10
374.9984709947
 20
876.6754409493
  0
LINE
  5
2E2
330
1F
100
AcDbEntity
  8
0
  6
Continuous
 62
     7
370
    15
100
AcDbLine
 10
374.9984709947
 20
876.6754409493
 30
0.0
 11
372.6806149288
 21
875.4104515732
 31
0.0
  0
LINE
  5
2E3
330
1F
100
AcDbEntity
  8
0
  6
Continuous
 62
     7
370
    15
100
AcDbLine
 10
371.4166965737
 20
874.7801920593
 30
0.0
 11
370.8920229627
 21
874.8089214981
 31
0.0
  0
LWPOLYLINE
  5
2E4
330
1F
100
AcDbEntity
  8
0
  6
Continuous
 62
     7
370
    15
100
AcDbPolyline
 90
        7
 70
   128
 43
0.0
 10
370.8920229627
 20
874.8089214981
 10
370.8312280877
 20
874.8400351227
 10
370.8489083155
 20
874.8851558388
 10
370.927552919
 20
874.9645492256
 10
371.0765440418
 20
875.0781556786
 10
371.2628886505
 20
875.2052327812
 10
371.6751125111
 20
875.4638573349
  0
LINE
  5
2E5
330
1F
100
AcDbEntity
  8
0
  6
Continuous
 62
     7
370
    15
100
AcDbLine
 10
371.6751125111
 20
875.4638573349
 30
0.0
 11
373.989570181
 21
876.7353436173
 31
0.0
  0
ARC
  5
2E6
330
1F
100
AcDbEntity
  8
0
  6
Continuous
 62
     7
370
    15
100
AcDbCircle
 10
376.152706796
 20
873.1589609777
 30
0.0
 40
4.179720912686461
100
AcDbArc
 50
100.5674975629
 51
121.1666853143
  0
LINE
  5
2E7
330
1F
100
AcDbEntity
  8
0
  6
Continuous
 62
     7
370
    15
100
AcDbLine
 10
375.3861722006
 20
877.267791909
 30
0.0
 11
375.4888430639
 21
877.2608777702
 31
0.0
  0
LINE
  5
2E8
330
1F
100
AcDbEntity
  8
0
  6
Continuous
 62
     7
370
    15
100
AcDbLine
 10
375.4888430639
 20
877.2608777702
 30
0.0
 11
374.5643573283
 21
876.8096110047
 31
0.0
  0
LINE
  5
2E9
330
1F
100
AcDbEntity
  8
0
  6
Continuous
 62
     7
370
    15
100
AcDbLine
 10
374.5643573283
 20
876.8096110047
 30
0.0
 11
374.3478117912
 21
876.8225452126
 31
0.0
  0
LWPOLYLINE
  5
2EA
330
1F
100
AcDbEntity
  8
0
  6
Continuous
 62
     7
370
    15
100
AcDbPolyline
 90
        3
 70
   128
 43
0.0
 10
374.9984709947
 20
876.6754409493
 10
375.0005878909
 20
876.6709109963
 10
375.0027047871
 20
876.6664406479
  0
LINE
  5
2EB
330
1F
100
AcDbEntity
  8
0
  6
Continuous
 62
     7
370
    15
100
AcDbLine
 10
370.8920229627
 20
874.8089214981
 30
0.0
 11
370.8972979738
 21
874.8004576386
 31
0.0
  0
LINE
  5
2EC
330
1F
100
AcDbEntity
  8
0
  6
Continuous
 62
     7
370
    15
100
AcDbLine
 10
374.7809242858
 20
876.7966767967
 30
0.0
 11
374.7851180314
 21
876.7876168907
 31
0.0
  0
LWPOLYLINE
  5
2ED
330
1F
100
AcDbEntity
  8
0
  6
Continuous
 62
     7
370
    15
100
AcDbPolyline
 90
       17
 70
   128
 43
0.0
 10
388.4719100251
 20
879.7995588005
 10
389.4289301178
 20
879.7979494751
 10
390.239605208
 20
879.7998568237
 10
390.7805690477
 20
879.8203608215
 10
390.9702571044
 20
879.8709055603
 10
390.7801115355
 20
879.9491068543
 10
390.2386632916
 20
880.0363680542
 10
389.4276828441
 20
880.105032605
 10
388.4705683432
 20
880.1310798348
 10
387.5136715295
 20
880.1049133957
 10
386.7033041251
 20
880.0361296356
 10
386.1627629894
 20
879.9488684357
 10
385.9736563108
 20
879.8707267464
 10
386.1644160869
 20
879.8202416123
 10
386.706061422
 20
879.7997972191
 10
387.5179369869
 20
879.7979494751
 10
388.4719100251
 20
879.7995588005
  0
LWPOLYLINE
  5
2EE
330
1F
100
AcDbEntity
  8
0
  6
Continuous
 62
     7
370
    15
100
AcDbPolyline
 90
       21
 70
   128
 43
0.0
 10
369.3644956155
 20
873.7983843506
 10
369.6275663032
 20
873.989596051
 10
369.8537249519
 20
874.1691252411
 10
369.9393954529
 20
874.2447635353
 10
370.0004790379
 20
874.3065139473
 10
370.0445976509
 20
874.3828674973
 10
369.9824318691
 20
874.3895432175
 10
369.8184371396
 20
874.3223091782
 10
369.5827734126
 20
874.1939207733
 10
369.4495570316
 20
874.1122028053
 10
369.3118609889
 20
874.0216037453
 10
369.0452736272
 20
873.8290807427
 10
368.8249059423
 20
873.6468097389
 10
368.6863288684
 20
873.5045334519
 10
368.645509
 20
873.4229346932
 10
368.6654281272
 20
873.4107753456
 10
368.7130354746
 20
873.4195968331
 10
368.8766669883
 20
873.4931489647
 10
369.1042635991
 20
873.6257692993
 10
369.2320857598
 20
873.7082621277
 10
369.3644956155
 20
873.7983843506
  0
LWPOLYLINE
  5
2EF
330
1F
100
AcDbEntity
  8
0
  6
Continuous
 62
     7
370
    15
100
AcDbPolyline
 90
       17
 70
   128
 43
0.0
 10
369.3512373074
 20
873.8593002976
 10
369.4749933137
 20
873.9487072647
 10
369.578561972
 20
874.0320345581
 10
369.6459860011
 20
874.0967055977
 10
369.6668997808
 20
874.1333028496
 10
369.6377847745
 20
874.1363426865
 10
369.5632044627
 20
874.1055270851
 10
369.4545526459
 20
874.0452667893
 10
369.3286527349
 20
873.9644428909
 10
369.2048147722
 20
873.8751551331
 10
369.1018868639
 20
873.79093377
 10
369.0354369982
 20
873.7248322189
 10
369.0153204306
 20
873.6871620834
 10
369.0444931789
 20
873.6839434326
 10
369.1184569551
 20
873.7156531037
 10
369.2260880424
 20
873.777343911
 10
369.3512373074
 20
873.8593002976
  0
LINE
  5
2F0
330
1F
100
AcDbEntity
  8
0
  6
Continuous
 62
     7
370
    15
100
AcDbLine
 10
374.3478108599
 20
876.8225452126
 30
0.0
 11
374.3520260258
 21
876.8134853066
 31
0.0
  0
LINE
  5
2F1
330
1F
100
AcDbEntity
  8
0
  6
Continuous
 62
     7
370
    15
100
AcDbLine
 10
374.5643573283
 20
876.8096110047
 30
0.0
 11
374.5685622497
 21
876.8006107033
 31
0.0
  0
LINE
  5
2F2
330
1F
100
AcDbEntity
  8
0
  6
Continuous
 62
     7
370
    15
100
AcDbLine
 10
375.4888430639
 20
877.2608777702
 30
0.0
 11
375.4927574127
 21
877.2517582596
 31
0.0
  0
LWPOLYLINE
  5
2F3
330
1F
100
AcDbEntity
  8
0
  6
Continuous
 62
     7
370
    15
100
AcDbPolyline
 90
       10
 70
   128
 43
0.0
 10
369.643341045
 20
874.1281172455
 10
369.5687719091
 20
874.0973016441
 10
369.4601387187
 20
874.0370413483
 10
369.3342537089
 20
873.9562770546
 10
369.2104343726
 20
873.8669892967
 10
369.1075418546
 20
873.7827679337
 10
369.0411422803
 20
873.7166663826
 10
369.0210722788
 20
873.6790558518
 10
369.0502692415
 20
873.6758372009
 10
369.0502692415
 20
873.6758372009
  0
LINE
  5
2F4
330
1F
100
AcDbEntity
  8
0
  6
Continuous
 62
     7
370
    15
100
AcDbLine
 10
673.4719064488
 20
228.062192696
 30
0.0
 11
672.3719027294
 21
228.062192696
 31
0.0
  0
LINE
  5
2F5
330
1F
100
AcDbEntity
  8
0
  6
Continuous
 62
     7
370
    15
100
AcDbLine
 10
659.5719244732
 20
228.062192696
 30
0.0
 11
657.4719038262
 21
228.062192696
 31
0.0
  0
LINE
  5
2F6
330
1F
100
AcDbEntity
  8
0
  6
Continuous
 62
     7
370
    15
100
AcDbLine
 10
673.4719064488
 20
228.8121925861
 30
0.0
 11
673.4719064488
 21
228.062192696
 31
0.0
  0
ARC
  5
2F7
330
1F
100
AcDbEntity
  8
0
  6
Continuous
 62
     7
370
    15
100
AcDbCircle
 10
111.8889939643
 20
898.346986929
 30
0.0
 40
4.910762217814892
100
AcDbArc
 50
265.1277320312
 51
304.5204465536
  0
ARC
  5
2F8
330
1F
100
AcDbEntity
  8
0
  6
Continuous
 62
     7
370
    15
100
AcDbCircle
 10
111.0548169161
 20
898.3469300246
 30
0.0
 40
4.910704596842724
100
AcDbArc
 50
235.4793593151
 51
274.8721981382
  0
LWPOLYLINE
  5
2F9
330
1F
100
AcDbEntity
  8
0
  6
Continuous
 62
     7
370
    15
100
AcDbPolyline
 90
        9
 70
   128
 43
0.0
 10
111.4719000115
 20
893.840326947
 10
112.4477472557
 20
893.9193031014
 10
113.2750299229
 20
894.1441318215
 10
113.8278033985
 20
894.4806000412
 10
114.0219059243
 20
894.8775073708
 10
113.8278033985
 20
895.2744147003
 10
113.2750299229
 20
895.6109425247
 10
112.4477472557
 20
895.8357712448
 10
112.1916260971
 20
895.8725473107
  0
LWPOLYLINE
  5
2FA
330
1F
100
AcDbEntity
  8
0
  6
Continuous
 62
     7
370
    15
100
AcDbPolyline
 90
        9
 70
   128
 43
0.0
 10
110.7522037281
 20
895.8725473107
 10
110.4960527672
 20
895.8357712448
 10
109.6687999024
 20
895.6109425247
 10
109.1160264267
 20
895.2744147003
 10
108.921923901
 20
894.8775073708
 10
109.1160264267
 20
894.4806000412
 10
109.6687999024
 20
894.1441318215
 10
110.4960527672
 20
893.9193031014
 10
111.4719000115
 20
893.840326947
  0
ARC
  5
2FB
330
1F
100
AcDbEntity
  8
0
  6
Continuous
 62
     7
370
    15
100
AcDbCircle
 10
111.6762240188
 20
899.2153217395
 30
0.0
 40
4.192354305276498
100
AcDbArc
 50
267.2064520326
 51
296.7412181946
  0
ARC
  5
2FC
330
1F
100
AcDbEntity
  8
0
  6
Continuous
 62
     7
370
    15
100
AcDbCircle
 10
111.2676369026
 20
899.2156088888
 30
0.0
 40
4.192638145944895
100
AcDbArc
 50
243.2598042936
 51
272.7925254791
  0
ARC
  5
2FD
330
1F
100
AcDbEntity
  8
0
  6
Continuous
 62
     7
370
    15
100
AcDbCircle
 10
111.6557044981
 20
898.5821507532
 30
0.0
 40
3.386339758570229
100
AcDbArc
 50
266.8885581467
 51
298.6243341745
  0
ARC
  5
2FE
330
1F
100
AcDbEntity
  8
0
  6
Continuous
 62
     7
370
    15
100
AcDbCircle
 10
111.2881156103
 20
898.5822394716
 30
0.0
 40
3.386427256046034
100
AcDbArc
 50
241.3760866286
 51
273.1110210502
  0
LWPOLYLINE
  5
2FF
330
1F
100
AcDbEntity
  8
0
  6
Continuous
 62
     7
370
    15
100
AcDbPolyline
 90
        3
 70
   128
 43
0.0
 10
111.4719000115
 20
895.8279630364
 10
112.1033516182
 20
895.8790442169
 10
112.1077623619
 20
895.8797594727
  0
LWPOLYLINE
  5
300
330
1F
100
AcDbEntity
  8
0
  6
Continuous
 62
     7
370
    15
100
AcDbPolyline
 90
        3
 70
   128
 43
0.0
 10
110.8360674633
 20
895.8797594727
 10
110.840478207
 20
895.8790442169
 10
111.4719000115
 20
895.8279630364
  0
ARC
  5
301
330
1F
100
AcDbEntity
  8
0
  6
Continuous
 62
     7
370
    15
100
AcDbCircle
 10
665.8890031341
 20
898.3469300246
 30
0.0
 40
4.910704596842983
100
AcDbArc
 50
265.1278018618
 51
304.5206406849
  0
ARC
  5
302
330
1F
100
AcDbEntity
  8
0
  6
Continuous
 62
     7
370
    15
100
AcDbCircle
 10
665.0548260858
 20
898.346986929
 30
0.0
 40
4.910762217814904
100
AcDbArc
 50
235.4795534464
 51
274.8722679688
  0
LWPOLYLINE
  5
303
330
1F
100
AcDbEntity
  8
0
  6
Continuous
 62
     7
370
    15
100
AcDbPolyline
 90
        9
 70
   128
 43
0.0
 10
665.4719200386
 20
893.840326947
 10
666.4477672829
 20
893.9193031014
 10
667.2750201477
 20
894.1441318215
 10
667.8277936234
 20
894.4806000412
 10
668.0218961491
 20
894.8775073708
 10
667.8277936234
 20
895.2744147003
 10
667.2750201477
 20
895.6109425247
 10
666.4477672829
 20
895.8357712448
 10
666.191616322
 20
895.8725473107
  0
LWPOLYLINE
  5
304
330
1F
100
AcDbEntity
  8
0
  6
Continuous
 62
     7
370
    15
100
AcDbPolyline
 90
        9
 70
   128
 43
0.0
 10
664.752193953
 20
895.8725473107
 10
664.4960727944
 20
895.8357712448
 10
663.6687901272
 20
895.6109425247
 10
663.1160166516
 20
895.2744147003
 10
662.9219141259
 20
894.8775073708
 10
663.1160166516
 20
894.4806000412
 10
663.6687901272
 20
894.1441318215
 10
664.4960727944
 20
893.9193031014
 10
665.4719200386
 20
893.840326947
  0
ARC
  5
305
330
1F
100
AcDbEntity
  8
0
  6
Continuous
 62
     7
370
    15
100
AcDbCircle
 10
665.6761831475
 20
899.2156088888
 30
0.0
 40
4.192638145944986
100
AcDbArc
 50
267.2074745209
 51
296.7401957064
  0
ARC
  5
306
330
1F
100
AcDbEntity
  8
0
  6
Continuous
 62
     7
370
    15
100
AcDbCircle
 10
665.2675960313
 20
899.2153217395
 30
0.0
 40
4.1923543052765
100
AcDbArc
 50
243.2587818054
 51
272.7935479674
  0
ARC
  5
307
330
1F
100
AcDbEntity
  8
0
  6
Continuous
 62
     7
370
    15
100
AcDbCircle
 10
665.6557044398
 20
898.5822394716
 30
0.0
 40
3.386427256046022
100
AcDbArc
 50
266.8889789498
 51
298.6239133714
  0
ARC
  5
308
330
1F
100
AcDbEntity
  8
0
  6
Continuous
 62
     7
370
    15
100
AcDbCircle
 10
665.288115552
 20
898.5821507532
 30
0.0
 40
3.38633975857022
100
AcDbArc
 50
241.3756658255
 51
273.1114418533
  0
LWPOLYLINE
  5
309
330
1F
100
AcDbEntity
  8
0
  6
Continuous
 62
     7
370
    15
100
AcDbPolyline
 90
        3
 70
   128
 43
0.0
 10
665.4719200386
 20
895.8279630364
 10
666.1033418431
 20
895.8790442169
 10
666.1077525868
 20
895.8797594727
  0
LWPOLYLINE
  5
30A
330
1F
100
AcDbEntity
  8
0
  6
Continuous
 62
     7
370
    15
100
AcDbPolyline
 90
        3
 70
   128
 43
0.0
 10
664.8360576882
 20
895.8797594727
 10
664.8404684319
 20
895.8790442169
 10
665.4719200386
 20
895.8279630364
  0
LINE
  5
30B
330
1F
100
AcDbEntity
  8
0
  6
Continuous
 62
     7
370
    15
100
AcDbLine
 10
688.471921946
 20
801.1353155792
 30
0.0
 11
88.4718981041
 21
801.1353155792
 31
0.0
  0
LINE
  5
30C
330
1F
100
AcDbEntity
  8
0
  6
Continuous
 62
     7
370
    15
100
AcDbLine
 10
688.471921946
 20
784.0445181549
 30
0.0
 11
688.471921946
 21
801.1353155792
 31
0.0
  0
LINE
  5
30D
330
1F
100
AcDbEntity
  8
0
  6
Continuous
 62
     7
370
    15
100
AcDbLine
 10
688.471921946
 20
784.0445181549
 30
0.0
 11
88.4718981041
 21
784.0445181549
 31
0.0
  0
LINE
  5
30E
330
1F
100
AcDbEntity
  8
0
  6
Continuous
 62
     7
370
    15
100
AcDbLine
 10
88.4718981041
 20
784.0445181549
 30
0.0
 11
88.4718981041
 21
801.1353155792
 31
0.0
  0
LINE
  5
30F
330
1F
100
AcDbEntity
  8
0
  6
Continuous
 62
     7
370
    15
100
AcDbLine
 10
688.471921946
 20
769.2445060433
 30
0.0
 11
88.4718981041
 21
769.2445060433
 31
0.0
  0
LINE
  5
310
330
1F
100
AcDbEntity
  8
0
  6
Continuous
 62
     7
370
    15
100
AcDbLine
 10
88.4718981041
 20
769.2445060433
 30
0.0
 11
88.4718981041
 21
784.0445181549
 31
0.0
  0
LINE
  5
311
330
1F
100
AcDbEntity
  8
0
  6
Continuous
 62
     7
370
    15
100
AcDbLine
 10
688.471921946
 20
769.2445060433
 30
0.0
 11
688.471921946
 21
784.0445181549
 31
0.0
  0
LWPOLYLINE
  5
312
330
1F
100
AcDbEntity
  8
0
  6
Continuous
 62
     7
370
    15
100
AcDbPolyline
 90
       17
 70
   128
 43
0.0
 10
414.9680335476
 20
804.3887755097
 10
415.9305163129
 20
804.1582247437
 10
416.6156363143
 20
803.8316508949
 10
416.9461645587
 20
803.4460088432
 10
416.8848462804
 20
803.0446311653
 10
416.4385918929
 20
802.6728769959
 10
415.6577039911
 20
802.3725291908
 10
414.6302037342
 20
802.1775027931
 10
413.4719103976
 20
802.1098515213
 10
412.3133879556
 20
802.1770855606
 10
411.285224597
 20
802.3716351212
 10
410.5033141031
 20
802.671684903
 10
410.0557949795
 20
803.0432602585
 10
409.9931113823
 20
803.4446379364
 10
410.3223283245
 20
803.8303991974
 10
411.0063363268
 20
804.1572114647
 10
411.9680330558
 20
804.3881794632
  0
LINE
  5
313
330
1F
100
AcDbEntity
  8
0
  6
Continuous
 62
     7
370
    15
100
AcDbLine
 10
414.9680335476
 20
804.3887755097
 30
0.0
 11
414.9640549375
 21
806.7273637474
 31
0.0
  0
LWPOLYLINE
  5
314
330
1F
100
AcDbEntity
  8
0
  6
Continuous
 62
     7
370
    15
100
AcDbPolyline
 90
        9
 70
   128
 43
0.0
 10
411.9640451326
 20
806.7327877701
 10
412.0837461604
 20
806.9279929817
 10
412.412037368
 20
807.0927998245
 10
412.8993034764
 20
807.2024127663
 10
413.4719103976
 20
807.2401425064
 10
414.0433215006
 20
807.2003266037
 10
414.5271845563
 20
807.0889851273
 10
414.8503758414
 20
806.9229861916
 10
414.9640549375
 20
806.7273637474
  0
LINE
  5
315
330
1F
100
AcDbEntity
  8
0
  6
Continuous
 62
     7
370
    15
100
AcDbLine
 10
411.9680330558
 20
804.3881794632
 30
0.0
 11
411.9640451326
 21
806.7327877701
 31
0.0
  0
LINE
  5
316
330
1F
100
AcDbEntity
  8
0
  6
Continuous
 62
     7
370
    15
100
AcDbLine
 10
688.471921946
 20
808.2146784485
 30
0.0
 11
88.4718981041
 21
808.2146784485
 31
0.0
  0
LINE
  5
317
330
1F
100
AcDbEntity
  8
0
  6
Continuous
 62
     7
370
    15
100
AcDbLine
 10
688.471921946
 20
801.1353155792
 30
0.0
 11
688.471921946
 21
808.2146784485
 31
0.0
  0
LINE
  5
318
330
1F
100
AcDbEntity
  8
0
  6
Continuous
 62
     7
370
    15
100
AcDbLine
 10
88.4718981041
 20
801.1353155792
 30
0.0
 11
88.4718981041
 21
808.2146784485
 31
0.0
  0
LINE
  5
319
330
1F
100
AcDbEntity
  8
0
  6
Continuous
 62
     7
370
    15
100
AcDbLine
 10
411.9680330558
 20
804.3787619293
 30
0.0
 11
411.9680330558
 21
804.3881794632
 31
0.0
  0
LWPOLYLINE
  5
31A
330
1F
100
AcDbEntity
  8
0
  6
Continuous
 62
     7
370
    15
100
AcDbPolyline
 90
        5
 70
   128
 43
0.0
 10
414.9680335476
 20
804.3793579758
 10
415.9305163129
 20
804.1488072098
 10
416.6156363143
 20
803.8222929657
 10
416.9461645587
 20
803.4365913094
 10
416.9698741688
 20
803.2975336731
  0
LWPOLYLINE
  5
31B
330
1F
100
AcDbEntity
  8
0
  6
Continuous
 62
     7
370
    15
100
AcDbPolyline
 90
        5
 70
   128
 43
0.0
 10
409.9698730214
 20
803.2975336731
 10
409.9931113823
 20
803.4352204025
 10
410.3223283245
 20
803.8210412682
 10
411.0063363268
 20
804.1477939308
 10
411.9680330558
 20
804.3787619293
  0
LINE
  5
31C
330
1F
100
AcDbEntity
  8
0
  6
Continuous
 62
     7
370
    15
100
AcDbLine
 10
414.9680335476
 20
804.3793579758
 30
0.0
 11
414.9680335476
 21
804.3887755097
 31
0.0
  0
LINE
  5
31D
330
1F
100
AcDbEntity
  8
0
  6
Continuous
 62
     7
370
    15
100
AcDbLine
 10
414.9680335476
 20
804.3793579758
 30
0.0
 11
414.9640549375
 21
806.7180058182
 31
0.0
  0
LWPOLYLINE
  5
31E
330
1F
100
AcDbEntity
  8
0
  6
Continuous
 62
     7
370
    15
100
AcDbPolyline
 90
        9
 70
   128
 43
0.0
 10
411.9640451326
 20
806.7233702362
 10
412.0837461604
 20
806.9185754479
 10
412.412037368
 20
807.0834418953
 10
412.8993034764
 20
807.1929952324
 10
413.4719103976
 20
807.2307249725
 10
414.0433215006
 20
807.1909090698
 10
414.5271845563
 20
807.079627198
 10
414.8503758414
 20
806.9136282623
 10
414.9640549375
 20
806.7180058182
  0
LINE
  5
31F
330
1F
100
AcDbEntity
  8
0
  6
Continuous
 62
     7
370
    15
100
AcDbLine
 10
412.5666164263
 20
805.2117368401
 30
0.0
 11
412.9666176094
 21
805.2117964447
 31
0.0
  0
LINE
  5
320
330
1F
100
AcDbEntity
  8
0
  6
Continuous
 62
     7
370
    15
100
AcDbLine
 10
412.9684318258
 20
804.14457528
 30
0.0
 11
412.9666176094
 21
805.2117964447
 31
0.0
  0
LWPOLYLINE
  5
321
330
1F
100
AcDbEntity
  8
0
  6
Continuous
 62
     7
370
    15
100
AcDbPolyline
 90
       10
 70
   128
 43
0.0
 10
415.9698740049
 20
803.2975336731
 10
415.9209777071
 20
803.1292101563
 10
415.5470349296
 20
802.8217097939
 10
414.8579270049
 20
802.5863310516
 10
413.9582079305
 20
802.4589559258
 10
412.9843928321
 20
802.4587175072
 10
412.0842416241
 20
802.5857946098
 10
411.3943308993
 20
802.8208753288
 10
411.0193450405
 20
803.1282564819
 10
410.9698731853
 20
803.2975336731
  0
LINE
  5
322
330
1F
100
AcDbEntity
  8
0
  6
Continuous
 62
     7
370
    15
100
AcDbLine
 10
413.9666159107
 20
805.2119752587
 30
0.0
 11
414.3666170939
 21
805.2120944679
 31
0.0
  0
LINE
  5
323
330
1F
100
AcDbEntity
  8
0
  6
Continuous
 62
     7
370
    15
100
AcDbLine
 10
412.5666164263
 20
805.2117368401
 30
0.0
 11
412.5640478386
 21
806.7221781433
 31
0.0
  0
LWPOLYLINE
  5
324
330
1F
100
AcDbEntity
  8
0
  6
Continuous
 62
     7
370
    15
100
AcDbPolyline
 90
        9
 70
   128
 43
0.0
 10
412.5640478386
 20
806.7315360726
 10
412.6368847145
 20
806.8484803856
 10
412.8344498976
 20
806.9470664681
 10
413.1269522412
 20
807.012512368
 10
413.4702805831
 20
807.0349237145
 10
413.8126627012
 20
807.0109030426
 10
414.102466072
 20
806.9440862358
 10
414.2959930404
 20
806.844546479
 10
414.3640540941
 20
806.7272445381
  0
LINE
  5
325
330
1F
100
AcDbEntity
  8
0
  6
Continuous
 62
     7
370
    15
100
AcDbLine
 10
414.3666170939
 20
805.2214523972
 30
0.0
 11
414.3640540941
 21
806.7272445381
 31
0.0
  0
LINE
  5
326
330
1F
100
AcDbEntity
  8
0
  6
Continuous
 62
     7
370
    15
100
AcDbLine
 10
413.9666159107
 20
805.2213927925
 30
0.0
 11
414.3666170939
 21
805.2214523972
 31
0.0
  0
LINE
  5
327
330
1F
100
AcDbEntity
  8
0
  6
Continuous
 62
     7
370
    15
100
AcDbLine
 10
413.9684487535
 20
804.1447540939
 30
0.0
 11
413.9666159107
 21
805.2213927925
 31
0.0
  0
LWPOLYLINE
  5
328
330
1F
100
AcDbEntity
  8
0
  6
Continuous
 62
     7
370
    15
100
AcDbPolyline
 90
       16
 70
   128
 43
0.0
 10
413.9684487535
 20
804.1447540939
 10
414.866603206
 20
804.0160676659
 10
415.5528314813
 20
803.7797352493
 10
415.9230117156
 20
803.4716984451
 10
415.9209777071
 20
803.1386276901
 10
415.5470349296
 20
802.8310677231
 10
414.8579270049
 20
802.5957485855
 10
413.9582079305
 20
802.468313855
 10
412.9843928321
 20
802.4681350411
 10
412.0842416241
 20
802.5952121437
 10
411.3943308993
 20
802.8302332581
 10
411.0193450405
 20
803.1376144112
 10
411.0161766811
 20
803.4706851662
 10
411.3853082462
 20
803.7789007843
 10
412.0707318588
 20
804.0155312241
 10
412.9684485896
 20
804.14457528
  0
LINE
  5
329
330
1F
100
AcDbEntity
  8
0
  6
Continuous
 62
     7
370
    15
100
AcDbLine
 10
412.9684485896
 20
804.14457528
 30
0.0
 11
412.9666176094
 21
805.2212139786
 31
0.0
  0
LINE
  5
32A
330
1F
100
AcDbEntity
  8
0
  6
Continuous
 62
     7
370
    15
100
AcDbLine
 10
412.5666164263
 20
805.2210947693
 30
0.0
 11
412.9666176094
 21
805.2212139786
 31
0.0
  0
LINE
  5
32B
330
1F
100
AcDbEntity
  8
0
  6
Continuous
 62
     7
370
    15
100
AcDbLine
 10
412.5666164263
 20
805.2210947693
 30
0.0
 11
412.5640478386
 21
806.7315360726
 31
0.0
  0
LINE
  5
32C
330
1F
100
AcDbEntity
  8
0
  6
Continuous
 62
     7
370
    15
100
AcDbLine
 10
688.471921946
 20
768.5122033775
 30
0.0
 11
88.4718981041
 21
768.5122033775
 31
0.0
  0
LINE
  5
32D
330
1F
100
AcDbEntity
  8
0
  6
Continuous
 62
     7
370
    15
100
AcDbLine
 10
88.4718981041
 20
768.5122033775
 30
0.0
 11
88.4718981041
 21
769.2445060433
 31
0.0
  0
LINE
  5
32E
330
1F
100
AcDbEntity
  8
0
  6
Continuous
 62
     7
370
    15
100
AcDbLine
 10
688.471921946
 20
768.5122033775
 30
0.0
 11
688.471921946
 21
769.2445060433
 31
0.0
  0
LINE
  5
32F
330
1F
100
AcDbEntity
  8
0
  6
Continuous
 62
     7
370
    15
100
AcDbLine
 10
412.9666176094
 20
805.2117964447
 30
0.0
 11
412.9666176094
 21
805.2212139786
 31
0.0
  0
LINE
  5
330
330
1F
100
AcDbEntity
  8
0
  6
Continuous
 62
     7
370
    15
100
AcDbLine
 10
414.9640549375
 20
806.7180058182
 30
0.0
 11
414.9640549375
 21
806.7273637474
 31
0.0
  0
LINE
  5
331
330
1F
100
AcDbEntity
  8
0
  6
Continuous
 62
     7
370
    15
100
AcDbLine
 10
412.5666164263
 20
805.2117368401
 30
0.0
 11
412.5666164263
 21
805.2210947693
 31
0.0
  0
LINE
  5
332
330
1F
100
AcDbEntity
  8
0
  6
Continuous
 62
     7
370
    15
100
AcDbLine
 10
412.5640478386
 20
806.7221781433
 30
0.0
 11
412.5640478386
 21
806.7315360726
 31
0.0
  0
LINE
  5
333
330
1F
100
AcDbEntity
  8
0
  6
Continuous
 62
     7
370
    15
100
AcDbLine
 10
414.3666170939
 20
805.2120944679
 30
0.0
 11
414.3666170939
 21
805.2214523972
 31
0.0
  0
LINE
  5
334
330
1F
100
AcDbEntity
  8
0
  6
Continuous
 62
     7
370
    15
100
AcDbLine
 10
411.9640451326
 20
806.7233702362
 30
0.0
 11
411.9640451326
 21
806.7327877701
 31
0.0
  0
LINE
  5
335
330
1F
100
AcDbEntity
  8
0
  6
Continuous
 62
     7
370
    15
100
AcDbLine
 10
688.471921946
 20
814.5214459122
 30
0.0
 11
88.4718981041
 21
814.5214459122
 31
0.0
  0
LINE
  5
336
330
1F
100
AcDbEntity
  8
0
  6
Continuous
 62
     7
370
    15
100
AcDbLine
 10
88.4718981041
 20
808.2146784485
 30
0.0
 11
88.4718981041
 21
814.5214459122
 31
0.0
  0
LINE
  5
337
330
1F
100
AcDbEntity
  8
0
  6
Continuous
 62
     7
370
    15
100
AcDbLine
 10
688.471921946
 20
808.2146784485
 30
0.0
 11
688.471921946
 21
814.5214459122
 31
0.0
  0
LINE
  5
338
330
1F
100
AcDbEntity
  8
0
  6
Continuous
 62
     7
370
    15
100
AcDbLine
 10
88.4718981041
 20
814.5214459122
 30
0.0
 11
88.4718981041
 21
889.3833300293
 31
0.0
  0
LINE
  5
339
330
1F
100
AcDbEntity
  8
0
  6
Continuous
 62
     7
370
    15
100
AcDbLine
 10
103.4719136013
 20
889.3833300293
 30
0.0
 11
88.4718981041
 21
889.3833300293
 31
0.0
  0
LINE
  5
33A
330
1F
100
AcDbEntity
  8
0
  6
Continuous
 62
     7
370
    15
100
AcDbLine
 10
103.971907164
 20
889.3833300293
 30
0.0
 11
103.4719136013
 21
889.3833300293
 31
0.0
  0
LINE
  5
33B
330
1F
100
AcDbEntity
  8
0
  6
Continuous
 62
     7
370
    15
100
AcDbLine
 10
103.971907164
 20
890.6032582939
 30
0.0
 11
103.971907164
 21
889.3833300293
 31
0.0
  0
LINE
  5
33C
330
1F
100
AcDbEntity
  8
0
  6
Continuous
 62
     7
370
    15
100
AcDbLine
 10
103.971907164
 20
890.6032582939
 30
0.0
 11
118.9719226612
 21
890.6032582939
 31
0.0
  0
LINE
  5
33D
330
1F
100
AcDbEntity
  8
0
  6
Continuous
 62
     7
370
    15
100
AcDbLine
 10
118.9719226612
 20
890.6032582939
 30
0.0
 11
118.9719226612
 21
890.2470609368
 31
0.0
  0
LINE
  5
33E
330
1F
100
AcDbEntity
  8
0
  6
Continuous
 62
     7
370
    15
100
AcDbLine
 10
138.4719100251
 20
890.2470609368
 30
0.0
 11
118.9719226612
 21
890.2470609368
 31
0.0
  0
LINE
  5
33F
330
1F
100
AcDbEntity
  8
0
  6
Continuous
 62
     7
370
    15
100
AcDbLine
 10
138.4719100251
 20
889.3833300293
 30
0.0
 11
138.4719100251
 21
890.2470609368
 31
0.0
  0
LINE
  5
340
330
1F
100
AcDbEntity
  8
0
  6
Continuous
 62
     7
370
    15
100
AcDbLine
 10
138.9719035878
 20
889.3833300293
 30
0.0
 11
138.4719100251
 21
889.3833300293
 31
0.0
  0
LINE
  5
341
330
1F
100
AcDbEntity
  8
0
  6
Continuous
 62
     7
370
    15
100
AcDbLine
 10
637.9719164624
 20
889.3833300293
 30
0.0
 11
138.9719035878
 21
889.3833300293
 31
0.0
  0
LINE
  5
342
330
1F
100
AcDbEntity
  8
0
  6
Continuous
 62
     7
370
    15
100
AcDbLine
 10
638.4719100251
 20
889.3833300293
 30
0.0
 11
637.9719164624
 21
889.3833300293
 31
0.0
  0
LINE
  5
343
330
1F
100
AcDbEntity
  8
0
  6
Continuous
 62
     7
370
    15
100
AcDbLine
 10
638.4719100251
 20
890.2470609368
 30
0.0
 11
638.4719100251
 21
889.3833300293
 31
0.0
  0
LINE
  5
344
330
1F
100
AcDbEntity
  8
0
  6
Continuous
 62
     7
370
    15
100
AcDbLine
 10
657.9718973889
 20
890.2470609368
 30
0.0
 11
638.4719100251
 21
890.2470609368
 31
0.0
  0
LINE
  5
345
330
1F
100
AcDbEntity
  8
0
  6
Continuous
 62
     7
370
    15
100
AcDbLine
 10
657.9718973889
 20
890.6032582939
 30
0.0
 11
657.9718973889
 21
890.2470609368
 31
0.0
  0
LINE
  5
346
330
1F
100
AcDbEntity
  8
0
  6
Continuous
 62
     7
370
    15
100
AcDbLine
 10
657.9718973889
 20
890.6032582939
 30
0.0
 11
672.9719128861
 21
890.6032582939
 31
0.0
  0
LINE
  5
347
330
1F
100
AcDbEntity
  8
0
  6
Continuous
 62
     7
370
    15
100
AcDbLine
 10
672.9719128861
 20
890.6032582939
 30
0.0
 11
672.9719128861
 21
889.3833300293
 31
0.0
  0
LINE
  5
348
330
1F
100
AcDbEntity
  8
0
  6
Continuous
 62
     7
370
    15
100
AcDbLine
 10
673.4719064488
 20
889.3833300293
 30
0.0
 11
672.9719128861
 21
889.3833300293
 31
0.0
  0
LINE
  5
349
330
1F
100
AcDbEntity
  8
0
  6
Continuous
 62
     7
370
    15
100
AcDbLine
 10
688.471921946
 20
889.3833300293
 30
0.0
 11
673.4719064488
 21
889.3833300293
 31
0.0
  0
LINE
  5
34A
330
1F
100
AcDbEntity
  8
0
  6
Continuous
 62
     7
370
    15
100
AcDbLine
 10
389.4719100726
 20
882.521941346
 30
0.0
 11
389.4719100726
 21
883.472993058
 31
0.0
  0
ARC
  5
34B
330
1F
100
AcDbEntity
  8
0
  6
Continuous
 62
     7
370
    15
100
AcDbCircle
 10
388.4719100251
 20
883.4326056961
 30
0.0
 40
1.000815284654618
100
AcDbArc
 50
2.3127683386
 51
177.6872316614
  0
LINE
  5
34C
330
1F
100
AcDbEntity
  8
0
  6
Continuous
 62
     7
370
    15
100
AcDbLine
 10
387.4719099776
 20
883.472993058
 30
0.0
 11
387.4719099776
 21
882.521941346
 31
0.0
  0
ARC
  5
34D
330
1F
100
AcDbEntity
  8
0
  6
Continuous
 62
     7
370
    15
100
AcDbCircle
 10
388.4719100251
 20
882.5623705425
 30
0.0
 40
1.000816973739174
100
AcDbArc
 50
182.3151613754
 51
357.6848386246
  0
LINE
  5
34E
330
1F
100
AcDbEntity
  8
0
  6
Continuous
 62
     7
370
    15
100
AcDbLine
 10
688.471921946
 20
814.5214459122
 30
0.0
 11
688.471921946
 21
889.3833300293
 31
0.0
  0
ARC
  5
34F
330
1F
100
AcDbEntity
  8
0
  6
Continuous
 62
     7
370
    15
100
AcDbCircle
 10
388.4719100251
 20
883.1853833996
 30
0.0
 40
1.000816973739188
100
AcDbArc
 50
2.3151613755
 51
177.6848386245
  0
LINE
  5
350
330
1F
100
AcDbEntity
  8
0
  6
Continuous
 62
     7
370
    15
100
AcDbLine
 10
657.9718973889
 20
891.3195869148
 30
0.0
 11
657.9718973889
 21
890.6032582939
 31
0.0
  0
LINE
  5
351
330
1F
100
AcDbEntity
  8
0
  6
Continuous
 62
     7
370
    15
100
AcDbLine
 10
672.9719128861
 20
890.6032582939
 30
0.0
 11
672.9719128861
 21
891.3195869148
 31
0.0
  0
LINE
  5
352
330
1F
100
AcDbEntity
  8
0
  6
Continuous
 62
     7
370
    15
100
AcDbLine
 10
103.971907164
 20
891.3195869148
 30
0.0
 11
103.971907164
 21
890.6032582939
 31
0.0
  0
LINE
  5
353
330
1F
100
AcDbEntity
  8
0
  6
Continuous
 62
     7
370
    15
100
AcDbLine
 10
118.9719226612
 20
890.6032582939
 30
0.0
 11
118.9719226612
 21
891.3195869148
 31
0.0
  0
LINE
  5
354
330
1F
100
AcDbEntity
  8
0
  6
Continuous
 62
     7
370
    15
100
AcDbLine
 10
673.4719064488
 20
889.3833300293
 30
0.0
 11
673.4719064488
 21
890.799894017
 31
0.0
  0
LINE
  5
355
330
1F
100
AcDbEntity
  8
0
  6
Continuous
 62
     7
370
    15
100
AcDbLine
 10
688.471921946
 20
890.799894017
 30
0.0
 11
673.4719064488
 21
890.799894017
 31
0.0
  0
LINE
  5
356
330
1F
100
AcDbEntity
  8
0
  6
Continuous
 62
     7
370
    15
100
AcDbLine
 10
688.471921946
 20
890.799894017
 30
0.0
 11
688.471921946
 21
889.3833300293
 31
0.0
  0
LINE
  5
357
330
1F
100
AcDbEntity
  8
0
  6
Continuous
 62
     7
370
    15
100
AcDbLine
 10
138.9719035878
 20
889.3833300293
 30
0.0
 11
138.9719035878
 21
890.799894017
 31
0.0
  0
LINE
  5
358
330
1F
100
AcDbEntity
  8
0
  6
Continuous
 62
     7
370
    15
100
AcDbLine
 10
637.9719164624
 20
890.799894017
 30
0.0
 11
138.9719035878
 21
890.799894017
 31
0.0
  0
LINE
  5
359
330
1F
100
AcDbEntity
  8
0
  6
Continuous
 62
     7
370
    15
100
AcDbLine
 10
637.9719164624
 20
890.799894017
 30
0.0
 11
637.9719164624
 21
889.3833300293
 31
0.0
  0
LINE
  5
35A
330
1F
100
AcDbEntity
  8
0
  6
Continuous
 62
     7
370
    15
100
AcDbLine
 10
103.4719136013
 20
890.799894017
 30
0.0
 11
88.4718981041
 21
890.799894017
 31
0.0
  0
LINE
  5
35B
330
1F
100
AcDbEntity
  8
0
  6
Continuous
 62
     7
370
    15
100
AcDbLine
 10
103.4719136013
 20
890.799894017
 30
0.0
 11
103.4719136013
 21
889.3833300293
 31
0.0
  0
LINE
  5
35C
330
1F
100
AcDbEntity
  8
0
  6
Continuous
 62
     7
370
    15
100
AcDbLine
 10
88.4718981041
 20
889.3833300293
 30
0.0
 11
88.4718981041
 21
890.799894017
 31
0.0
  0
LINE
  5
35D
330
1F
100
AcDbEntity
  8
0
  6
Continuous
 62
     7
370
    15
100
AcDbLine
 10
686.4719178929
 20
1014.3798729599
 30
0.0
 11
90.4719021572
 21
1014.3798729599
 31
0.0
  0
LINE
  5
35E
330
1F
100
AcDbEntity
  8
0
  6
Continuous
 62
     7
370
    15
100
AcDbLine
 10
686.4719178929
 20
1014.3798729599
 30
0.0
 11
686.4719178929
 21
1012.0133301438
 31
0.0
  0
LINE
  5
35F
330
1F
100
AcDbEntity
  8
0
  6
Continuous
 62
     7
370
    15
100
AcDbLine
 10
686.4719178929
 20
1012.0133301438
 30
0.0
 11
90.4719021572
 21
1012.0133301438
 31
0.0
  0
LINE
  5
360
330
1F
100
AcDbEntity
  8
0
  6
Continuous
 62
     7
370
    15
100
AcDbLine
 10
90.4719021572
 20
1014.3798729599
 30
0.0
 11
90.4719021572
 21
1012.0133301438
 31
0.0
  0
LINE
  5
361
330
1F
100
AcDbEntity
  8
0
  6
Continuous
 62
     7
370
    15
100
AcDbLine
 10
686.4719178929
 20
1034.8280212105
 30
0.0
 11
90.4719021572
 21
1034.8280212105
 31
0.0
  0
LINE
  5
362
330
1F
100
AcDbEntity
  8
0
  6
Continuous
 62
     7
370
    15
100
AcDbLine
 10
686.4719178929
 20
1034.8280212105
 30
0.0
 11
686.4719178929
 21
1032.461537999
 31
0.0
  0
LINE
  5
363
330
1F
100
AcDbEntity
  8
0
  6
Continuous
 62
     7
370
    15
100
AcDbLine
 10
686.4719178929
 20
1032.461537999
 30
0.0
 11
90.4719021572
 21
1032.461537999
 31
0.0
  0
LINE
  5
364
330
1F
100
AcDbEntity
  8
0
  6
Continuous
 62
     7
370
    15
100
AcDbLine
 10
90.4719021572
 20
1034.8280212105
 30
0.0
 11
90.4719021572
 21
1032.461537999
 31
0.0
  0
LINE
  5
365
330
1F
100
AcDbEntity
  8
0
  6
Continuous
 62
     7
370
    15
100
AcDbLine
 10
686.4719178929
 20
1032.461537999
 30
0.0
 11
686.4719178929
 21
1014.3798729599
 31
0.0
  0
LINE
  5
366
330
1F
100
AcDbEntity
  8
0
  6
Continuous
 62
     7
370
    15
100
AcDbLine
 10
90.4719021572
 20
1032.461537999
 30
0.0
 11
90.4719021572
 21
1014.3798729599
 31
0.0
  0
LINE
  5
367
330
1F
100
AcDbEntity
  8
0
  6
Continuous
 62
     7
370
    15
100
AcDbLine
 10
686.4719178929
 20
1047.0137139977
 30
0.0
 11
90.4719021572
 21
1047.0137139977
 31
0.0
  0
LINE
  5
368
330
1F
100
AcDbEntity
  8
0
  6
Continuous
 62
     7
370
    15
100
AcDbLine
 10
686.4719178929
 20
1047.0137139977
 30
0.0
 11
686.4719178929
 21
1034.8280212105
 31
0.0
  0
LWPOLYLINE
  5
369
330
1F
100
AcDbEntity
  8
0
  6
Continuous
 62
     7
370
    15
100
AcDbPolyline
 90
       17
 70
   128
 43
0.0
 10
431.4719114854
 20
1043.5090800942
 10
429.5210067584
 20
1043.4593698204
 10
427.645077224
 20
1043.3120867432
 10
425.9162072493
 20
1043.0728933037
 10
424.4008411123
 20
1042.7510282219
 10
423.1572125508
 20
1042.3588296593
 10
422.2331133141
 20
1041.911377591
 10
421.6640565945
 20
1041.4258381546
 10
421.4719098462
 20
1040.9208676041
 10
421.6640565945
 20
1040.4159566582
 10
422.2331133141
 20
1039.9304172218
 10
423.1572125508
 20
1039.4829651535
 10
424.4008411123
 20
1039.0907665909
 10
425.9162072493
 20
1038.7689015091
 10
427.645077224
 20
1038.5297080696
 10
429.5210067584
 20
1038.3824249924
 10
431.4719114854
 20
1038.3327147186
  0
LINE
  5
36A
330
1F
100
AcDbEntity
  8
0
  6
Continuous
 62
     7
370
    15
100
AcDbLine
 10
431.4719114854
 20
1038.3327147186
 30
0.0
 11
561.4719029917
 21
1038.3327147186
 31
0.0
  0
LWPOLYLINE
  5
36B
330
1F
100
AcDbEntity
  8
0
  6
Continuous
 62
     7
370
    15
100
AcDbPolyline
 90
       17
 70
   128
 43
0.0
 10
561.4719029917
 20
1038.3327147186
 10
563.4228077187
 20
1038.3824249924
 10
565.2987447037
 20
1038.5297080696
 10
567.0276072277
 20
1038.7689015091
 10
568.5429808153
 20
1039.0907665909
 10
569.7866019263
 20
1039.4829651535
 10
570.7107123389
 20
1039.9304172218
 10
571.2797578825
 20
1040.4159566582
 10
571.4719083561
 20
1040.9208676041
 10
571.2797578825
 20
1041.4258381546
 10
570.7107123389
 20
1041.911377591
 10
569.7866019263
 20
1042.3588296593
 10
568.5429808153
 20
1042.7510282219
 10
567.0276072277
 20
1043.0728933037
 10
565.2987447037
 20
1043.3120867432
 10
563.4228077187
 20
1043.4593698204
 10
561.4719029917
 20
1043.5090800942
  0
LINE
  5
36C
330
1F
100
AcDbEntity
  8
0
  6
Continuous
 62
     7
370
    15
100
AcDbLine
 10
561.4719029917
 20
1043.5090800942
 30
0.0
 11
431.4719114854
 21
1043.5090800942
 31
0.0
  0
LWPOLYLINE
  5
36D
330
1F
100
AcDbEntity
  8
0
  6
Continuous
 62
     7
370
    15
100
AcDbPolyline
 90
       17
 70
   128
 43
0.0
 10
215.4719170584
 20
1043.5090800942
 10
213.5210123314
 20
1043.4593698204
 10
211.6450753464
 20
1043.3120867432
 10
209.9162128224
 20
1043.0728933037
 10
208.4008392348
 20
1042.7510282219
 10
207.1572181239
 20
1042.3588296593
 10
206.2331077113
 20
1041.911377591
 10
205.6640621676
 20
1041.4258381546
 10
205.471911694
 20
1040.9208676041
 10
205.6640621676
 20
1040.4159566582
 10
206.2331077113
 20
1039.9304172218
 10
207.1572181239
 20
1039.4829651535
 10
208.4008392348
 20
1039.0907665909
 10
209.9162128224
 20
1038.7689015091
 10
211.6450753464
 20
1038.5297080696
 10
213.5210123314
 20
1038.3824249924
 10
215.4719170584
 20
1038.3327147186
  0
LINE
  5
36E
330
1F
100
AcDbEntity
  8
0
  6
Continuous
 62
     7
370
    15
100
AcDbLine
 10
215.4719170584
 20
1038.3327147186
 30
0.0
 11
345.4719085647
 21
1038.3327147186
 31
0.0
  0
LWPOLYLINE
  5
36F
330
1F
100
AcDbEntity
  8
0
  6
Continuous
 62
     7
370
    15
100
AcDbPolyline
 90
       17
 70
   128
 43
0.0
 10
345.4719085647
 20
1038.3327147186
 10
347.4228132917
 20
1038.3824249924
 10
349.2987428262
 20
1038.5297080696
 10
351.0276128008
 20
1038.7689015091
 10
352.5429789378
 20
1039.0907665909
 10
353.7866074993
 20
1039.4829651535
 10
354.710706736
 20
1039.9304172218
 10
355.2797634556
 20
1040.4159566582
 10
355.4719102039
 20
1040.9208676041
 10
355.2797634556
 20
1041.4258381546
 10
354.710706736
 20
1041.911377591
 10
353.7866074993
 20
1042.3588296593
 10
352.5429789378
 20
1042.7510282219
 10
351.0276128008
 20
1043.0728933037
 10
349.2987428262
 20
1043.3120867432
 10
347.4228132917
 20
1043.4593698204
 10
345.4719085647
 20
1043.5090800942
  0
LINE
  5
370
330
1F
100
AcDbEntity
  8
0
  6
Continuous
 62
     7
370
    15
100
AcDbLine
 10
345.4719085647
 20
1043.5090800942
 30
0.0
 11
215.4719170584
 21
1043.5090800942
 31
0.0
  0
LINE
  5
371
330
1F
100
AcDbEntity
  8
0
  6
Continuous
 62
     7
370
    15
100
AcDbLine
 10
90.4719021572
 20
1047.0137139977
 30
0.0
 11
90.4719021572
 21
1034.8280212105
 31
0.0
  0
LINE
  5
372
330
1F
100
AcDbEntity
  8
0
  6
Continuous
 62
     7
370
    15
100
AcDbLine
 10
686.4719178929
 20
1012.0133301438
 30
0.0
 11
686.4719178929
 21
999.8276373566
 31
0.0
  0
LINE
  5
373
330
1F
100
AcDbEntity
  8
0
  6
Continuous
 62
     7
370
    15
100
AcDbLine
 10
90.4719021572
 20
1012.0133301438
 30
0.0
 11
90.4719021572
 21
999.8276373566
 31
0.0
  0
LWPOLYLINE
  5
374
330
1F
100
AcDbEntity
  8
0
  6
Continuous
 62
     7
370
    15
100
AcDbPolyline
 90
       17
 70
   128
 43
0.0
 10
431.4719114854
 20
1008.5086962402
 10
429.5210067584
 20
1008.4589263619
 10
427.645077224
 20
1008.3116432846
 10
425.9162072493
 20
1008.0725094498
 10
424.4008411123
 20
1007.7505847633
 10
423.1572125508
 20
1007.3583862007
 10
422.2331133141
 20
1006.9109341324
 10
421.6640565945
 20
1006.4253946961
 10
421.4719098462
 20
1005.9204837502
 10
421.6640565945
 20
1005.4155728043
 10
422.2331133141
 20
1004.9300333679
 10
423.1572125508
 20
1004.4825812996
 10
424.4008411123
 20
1004.090382737
 10
425.9162072493
 20
1003.7684580506
 10
427.645077224
 20
1003.5293242157
 10
429.5210067584
 20
1003.3820411385
 10
431.4719114854
 20
1003.3322712601
  0
LINE
  5
375
330
1F
100
AcDbEntity
  8
0
  6
Continuous
 62
     7
370
    15
100
AcDbLine
 10
431.4719114854
 20
1003.3322712601
 30
0.0
 11
489.6473151101
 21
1003.3322712601
 31
0.0
  0
LINE
  5
376
330
1F
100
AcDbEntity
  8
0
  6
Continuous
 62
     7
370
    15
100
AcDbLine
 10
507.3038425698
 20
1003.3322712601
 30
0.0
 11
561.4719029917
 21
1003.3322712601
 31
0.0
  0
LWPOLYLINE
  5
377
330
1F
100
AcDbEntity
  8
0
  6
Continuous
 62
     7
370
    15
100
AcDbPolyline
 90
       17
 70
   128
 43
0.0
 10
561.4719029917
 20
1003.3322712601
 10
563.4228077187
 20
1003.3820411385
 10
565.2987447037
 20
1003.5293242157
 10
567.0276072277
 20
1003.7684580506
 10
568.5429808153
 20
1004.090382737
 10
569.7866019263
 20
1004.4825812996
 10
570.7107123389
 20
1004.9300333679
 10
571.2797578825
 20
1005.4155728043
 10
571.4719083561
 20
1005.9204837502
 10
571.2797578825
 20
1006.4253946961
 10
570.7107123389
 20
1006.9109341324
 10
569.7866019263
 20
1007.3583862007
 10
568.5429808153
 20
1007.7505847633
 10
567.0276072277
 20
1008.0725094498
 10
565.2987447037
 20
1008.3116432846
 10
563.4228077187
 20
1008.4589263619
 10
561.4719029917
 20
1008.5086962402
  0
LINE
  5
378
330
1F
100
AcDbEntity
  8
0
  6
Continuous
 62
     7
370
    15
100
AcDbLine
 10
561.4719029917
 20
1008.5086962402
 30
0.0
 11
431.4719114854
 21
1008.5086962402
 31
0.0
  0
LWPOLYLINE
  5
379
330
1F
100
AcDbEntity
  8
0
  6
Continuous
 62
     7
370
    15
100
AcDbPolyline
 90
       17
 70
   128
 43
0.0
 10
215.4719170584
 20
1008.5086962402
 10
213.5210123314
 20
1008.4589263619
 10
211.6450753464
 20
1008.3116432846
 10
209.9162128224
 20
1008.0725094498
 10
208.4008392348
 20
1007.7505847633
 10
207.1572181239
 20
1007.3583862007
 10
206.2331077113
 20
1006.9109341324
 10
205.6640621676
 20
1006.4253946961
 10
205.471911694
 20
1005.9204837502
 10
205.6640621676
 20
1005.4155728043
 10
206.2331077113
 20
1004.9300333679
 10
207.1572181239
 20
1004.4825812996
 10
208.4008392348
 20
1004.090382737
 10
209.9162128224
 20
1003.7684580506
 10
211.6450753464
 20
1003.5293242157
 10
213.5210123314
 20
1003.3820411385
 10
215.4719170584
 20
1003.3322712601
  0
LINE
  5
37A
330
1F
100
AcDbEntity
  8
0
  6
Continuous
 62
     7
370
    15
100
AcDbLine
 10
215.4719170584
 20
1003.3322712601
 30
0.0
 11
269.6473163022
 21
1003.3322712601
 31
0.0
  0
LINE
  5
37B
330
1F
100
AcDbEntity
  8
0
  6
Continuous
 62
     7
370
    15
100
AcDbLine
 10
287.3038363113
 20
1003.3322712601
 30
0.0
 11
345.4719085647
 21
1003.3322712601
 31
0.0
  0
LWPOLYLINE
  5
37C
330
1F
100
AcDbEntity
  8
0
  6
Continuous
 62
     7
370
    15
100
AcDbPolyline
 90
       17
 70
   128
 43
0.0
 10
345.4719085647
 20
1003.3322712601
 10
347.4228132917
 20
1003.3820411385
 10
349.2987428262
 20
1003.5293242157
 10
351.0276128008
 20
1003.7684580506
 10
352.5429789378
 20
1004.090382737
 10
353.7866074993
 20
1004.4825812996
 10
354.710706736
 20
1004.9300333679
 10
355.2797634556
 20
1005.4155728043
 10
355.4719102039
 20
1005.9204837502
 10
355.2797634556
 20
1006.4253946961
 10
354.710706736
 20
1006.9109341324
 10
353.7866074993
 20
1007.3583862007
 10
352.5429789378
 20
1007.7505847633
 10
351.0276128008
 20
1008.0725094498
 10
349.2987428262
 20
1008.3116432846
 10
347.4228132917
 20
1008.4589263619
 10
345.4719085647
 20
1008.5086962402
  0
LINE
  5
37D
330
1F
100
AcDbEntity
  8
0
  6
Continuous
 62
     7
370
    15
100
AcDbLine
 10
345.4719085647
 20
1008.5086962402
 30
0.0
 11
215.4719170584
 21
1008.5086962402
 31
0.0
  0
LINE
  5
37E
330
1F
100
AcDbEntity
  8
0
  6
Continuous
 62
     7
370
    15
100
AcDbLine
 10
561.4719029917
 20
1042.3499485672
 30
0.0
 11
561.4719029917
 21
1043.5090800942
 31
0.0
  0
LWPOLYLINE
  5
37F
330
1F
100
AcDbEntity
  8
0
  6
Continuous
 62
     7
370
    15
100
AcDbPolyline
 90
        8
 70
   128
 43
0.0
 10
571.2179776682
 20
1040.3413316429
 10
570.7107123389
 20
1040.752246064
 10
569.7866019263
 20
1041.1996981323
 10
568.5429808153
 20
1041.591896695
 10
567.0276072277
 20
1041.9137617767
 10
565.2987447037
 20
1042.1529552162
 10
563.4228077187
 20
1042.3002382935
 10
561.4719029917
 20
1042.3499485672
  0
LINE
  5
380
330
1F
100
AcDbEntity
  8
0
  6
Continuous
 62
     7
370
    15
100
AcDbLine
 10
431.4719114854
 20
1042.3499485672
 30
0.0
 11
431.4719114854
 21
1043.5090800942
 31
0.0
  0
LWPOLYLINE
  5
381
330
1F
100
AcDbEntity
  8
0
  6
Continuous
 62
     7
370
    15
100
AcDbPolyline
 90
        8
 70
   128
 43
0.0
 10
431.4719114854
 20
1042.3499485672
 10
429.5210067584
 20
1042.3002382935
 10
427.645077224
 20
1042.1529552162
 10
425.9162072493
 20
1041.9137617767
 10
424.4008411123
 20
1041.591896695
 10
423.1572125508
 20
1041.1996981323
 10
422.2331133141
 20
1040.752246064
 10
421.7258405341
 20
1040.3413316429
  0
LINE
  5
382
330
1F
100
AcDbEntity
  8
0
  6
Continuous
 62
     7
370
    15
100
AcDbLine
 10
215.4719170584
 20
1004.491402787
 30
0.0
 11
215.4719170584
 21
1003.3322712601
 31
0.0
  0
LWPOLYLINE
  5
383
330
1F
100
AcDbEntity
  8
0
  6
Continuous
 62
     7
370
    15
100
AcDbPolyline
 90
        8
 70
   128
 43
0.0
 10
205.7258423819
 20
1006.5000197113
 10
206.2331077113
 20
1006.0891648949
 10
207.1572181239
 20
1005.6416532219
 10
208.4008392348
 20
1005.2494546593
 10
209.9162128224
 20
1004.9275895775
 10
211.6450753464
 20
1004.688396138
 10
213.5210123314
 20
1004.5411130608
 10
215.4719170584
 20
1004.491402787
  0
LINE
  5
384
330
1F
100
AcDbEntity
  8
0
  6
Continuous
 62
     7
370
    15
100
AcDbLine
 10
345.4719085647
 20
1004.491402787
 30
0.0
 11
345.4719085647
 21
1003.3322712601
 31
0.0
  0
LWPOLYLINE
  5
385
330
1F
100
AcDbEntity
  8
0
  6
Continuous
 62
     7
370
    15
100
AcDbPolyline
 90
        8
 70
   128
 43
0.0
 10
345.4719085647
 20
1004.491402787
 10
347.4228132917
 20
1004.5411130608
 10
349.2987428262
 20
1004.688396138
 10
351.0276128008
 20
1004.9275895775
 10
352.5429789378
 20
1005.2494546593
 10
353.7866074993
 20
1005.6416532219
 10
354.710706736
 20
1006.0891648949
 10
355.217979516
 20
1006.5000197113
  0
LINE
  5
386
330
1F
100
AcDbEntity
  8
0
  6
Continuous
 62
     7
370
    15
100
AcDbLine
 10
345.4719085647
 20
1042.3499485672
 30
0.0
 11
345.4719085647
 21
1043.5090800942
 31
0.0
  0
LWPOLYLINE
  5
387
330
1F
100
AcDbEntity
  8
0
  6
Continuous
 62
     7
370
    15
100
AcDbPolyline
 90
        8
 70
   128
 43
0.0
 10
355.217979516
 20
1040.3413316429
 10
354.710706736
 20
1040.752246064
 10
353.7866074993
 20
1041.1996981323
 10
352.5429789378
 20
1041.591896695
 10
351.0276128008
 20
1041.9137617767
 10
349.2987428262
 20
1042.1529552162
 10
347.4228132917
 20
1042.3002382935
 10
345.4719085647
 20
1042.3499485672
  0
LINE
  5
388
330
1F
100
AcDbEntity
  8
0
  6
Continuous
 62
     7
370
    15
100
AcDbLine
 10
215.4719170584
 20
1042.3499485672
 30
0.0
 11
215.4719170584
 21
1043.5090800942
 31
0.0
  0
LWPOLYLINE
  5
389
330
1F
100
AcDbEntity
  8
0
  6
Continuous
 62
     7
370
    15
100
AcDbPolyline
 90
        8
 70
   128
 43
0.0
 10
215.4719170584
 20
1042.3499485672
 10
213.5210123314
 20
1042.3002382935
 10
211.6450753464
 20
1042.1529552162
 10
209.9162128224
 20
1041.9137617767
 10
208.4008392348
 20
1041.591896695
 10
207.1572181239
 20
1041.1996981323
 10
206.2331077113
 20
1040.752246064
 10
205.7258423819
 20
1040.3413316429
  0
LINE
  5
38A
330
1F
100
AcDbEntity
  8
0
  6
Continuous
 62
     7
370
    15
100
AcDbLine
 10
561.4719029917
 20
1004.491402787
 30
0.0
 11
561.4719029917
 21
1003.3322712601
 31
0.0
  0
LWPOLYLINE
  5
38B
330
1F
100
AcDbEntity
  8
0
  6
Continuous
 62
     7
370
    15
100
AcDbPolyline
 90
        8
 70
   128
 43
0.0
 10
561.4719029917
 20
1004.491402787
 10
563.4228077187
 20
1004.5411130608
 10
565.2987447037
 20
1004.688396138
 10
567.0276072277
 20
1004.9275895775
 10
568.5429808153
 20
1005.2494546593
 10
569.7866019263
 20
1005.6416532219
 10
570.7107123389
 20
1006.0891648949
 10
571.2179776682
 20
1006.5000197113
  0
LINE
  5
38C
330
1F
100
AcDbEntity
  8
0
  6
Continuous
 62
     7
370
    15
100
AcDbLine
 10
431.4719114854
 20
1004.491402787
 30
0.0
 11
431.4719114854
 21
1003.3322712601
 31
0.0
  0
LWPOLYLINE
  5
38D
330
1F
100
AcDbEntity
  8
0
  6
Continuous
 62
     7
370
    15
100
AcDbPolyline
 90
        8
 70
   128
 43
0.0
 10
421.7258405341
 20
1006.5000197113
 10
422.2331133141
 20
1006.0891648949
 10
423.1572125508
 20
1005.6416532219
 10
424.4008411123
 20
1005.2494546593
 10
425.9162072493
 20
1004.9275895775
 10
427.645077224
 20
1004.688396138
 10
429.5210067584
 20
1004.5411130608
 10
431.4719114854
 20
1004.491402787
  0
LINE
  5
38E
330
1F
100
AcDbEntity
  8
0
  6
Continuous
 62
     7
370
    15
100
AcDbLine
 10
215.4719170584
 20
1004.491402787
 30
0.0
 11
345.4719085647
 21
1004.491402787
 31
0.0
  0
LINE
  5
38F
330
1F
100
AcDbEntity
  8
0
  6
Continuous
 62
     7
370
    15
100
AcDbLine
 10
345.4719085647
 20
1042.3499485672
 30
0.0
 11
215.4719170584
 21
1042.3499485672
 31
0.0
  0
LINE
  5
390
330
1F
100
AcDbEntity
  8
0
  6
Continuous
 62
     7
370
    15
100
AcDbLine
 10
561.4719029917
 20
1042.3499485672
 30
0.0
 11
431.4719114854
 21
1042.3499485672
 31
0.0
  0
LINE
  5
391
330
1F
100
AcDbEntity
  8
0
  6
Continuous
 62
     7
370
    15
100
AcDbLine
 10
431.4719114854
 20
1004.491402787
 30
0.0
 11
561.4719029917
 21
1004.491402787
 31
0.0
  0
LINE
  5
392
330
1F
100
AcDbEntity
  8
0
  6
Continuous
 62
     7
370
    15
100
AcDbLine
 10
686.4719178929
 20
1048.2211252869
 30
0.0
 11
90.4719021572
 21
1048.2211252869
 31
0.0
  0
LINE
  5
393
330
1F
100
AcDbEntity
  8
0
  6
Continuous
 62
     7
370
    15
100
AcDbLine
 10
686.4719178929
 20
1048.2211252869
 30
0.0
 11
686.4719178929
 21
1047.0137139977
 31
0.0
  0
LINE
  5
394
330
1F
100
AcDbEntity
  8
0
  6
Continuous
 62
     7
370
    15
100
AcDbLine
 10
90.4719021572
 20
1048.2211252869
 30
0.0
 11
90.4719021572
 21
1047.0137139977
 31
0.0
  0
LINE
  5
395
330
1F
100
AcDbEntity
  8
0
  6
Continuous
 62
     7
370
    15
100
AcDbLine
 10
686.4719178929
 20
999.8276373566
 30
0.0
 11
686.4719178929
 21
998.6202260674
 31
0.0
  0
LINE
  5
396
330
1F
100
AcDbEntity
  8
0
  6
Continuous
 62
     7
370
    15
100
AcDbLine
 10
90.4719021572
 20
999.8276373566
 30
0.0
 11
90.4719021572
 21
998.6202260674
 31
0.0
  0
LINE
  5
397
330
1F
100
AcDbEntity
  8
0
  6
Continuous
 62
     7
370
    15
100
AcDbLine
 10
90.4719021572
 20
1106.2622210205
 30
0.0
 11
90.4719021572
 21
1048.2211252869
 31
0.0
  0
LINE
  5
398
330
1F
100
AcDbEntity
  8
0
  6
Continuous
 62
     7
370
    15
100
AcDbLine
 10
681.4719226612
 20
1111.2622162521
 30
0.0
 11
95.4718973889
 21
1111.2622162521
 31
0.0
  0
ARC
  5
399
330
1F
100
AcDbEntity
  8
0
  6
Continuous
 62
     7
370
    15
100
AcDbCircle
 10
681.4719100251
 20
1106.262192601
 30
0.0
 40
5.0
100
AcDbArc
 50
0.0
 51
90.0
  0
LINE
  5
39A
330
1F
100
AcDbEntity
  8
0
  6
Continuous
 62
     7
370
    15
100
AcDbLine
 10
686.4719178929
 20
1106.2622210205
 30
0.0
 11
686.4719178929
 21
1048.2211252869
 31
0.0
  0
ARC
  5
39B
330
1F
100
AcDbEntity
  8
0
  6
Continuous
 62
     7
370
    15
100
AcDbCircle
 10
120.4719100251
 20
1071.262192601
 30
0.0
 40
10.99999999999996
100
AcDbArc
 50
130.6384157153
 51
50.5084981756
  0
ARC
  5
39C
330
1F
100
AcDbEntity
  8
0
  6
Continuous
 62
     7
370
    15
100
AcDbCircle
 10
656.4719100251
 20
1071.262192601
 30
0.0
 40
10.99999999999996
100
AcDbArc
 50
130.6384157152
 51
50.5084981757
  0
ARC
  5
39D
330
1F
100
AcDbEntity
  8
0
  6
Continuous
 62
     7
370
    15
100
AcDbCircle
 10
95.4719100251
 20
1106.262192601
 30
0.0
 40
5.0
100
AcDbArc
 50
90.0
 51
180.0
  0
LINE
  5
39E
330
1F
100
AcDbEntity
  8
0
  6
Continuous
 62
     7
370
    15
100
AcDbLine
 10
686.4719178929
 20
998.6202260674
 30
0.0
 11
686.4719178929
 21
952.5791546524
 31
0.0
  0
ARC
  5
39F
330
1F
100
AcDbEntity
  8
0
  6
Continuous
 62
     7
370
    15
100
AcDbCircle
 10
684.4719100251
 20
952.5791814999
 30
0.0
 40
2.0
100
AcDbArc
 50
270.0
 51
0.0
  0
LINE
  5
3A0
330
1F
100
AcDbEntity
  8
0
  6
Continuous
 62
     7
370
    15
100
AcDbLine
 10
684.4719138398
 20
950.5791804016
 30
0.0
 11
516.4719161047
 21
950.5791804016
 31
0.0
  0
LINE
  5
3A1
330
1F
100
AcDbEntity
  8
0
  6
Continuous
 62
     7
370
    15
100
AcDbLine
 10
510.471911396
 20
950.5791804016
 30
0.0
 11
486.4719074621
 21
950.5791804016
 31
0.0
  0
LINE
  5
3A2
330
1F
100
AcDbEntity
  8
0
  6
Continuous
 62
     7
370
    15
100
AcDbLine
 10
480.4719102039
 20
950.5791804016
 30
0.0
 11
296.4719098462
 21
950.5791804016
 31
0.0
  0
LINE
  5
3A3
330
1F
100
AcDbEntity
  8
0
  6
Continuous
 62
     7
370
    15
100
AcDbLine
 10
290.4719125881
 20
950.5791804016
 30
0.0
 11
266.4719086542
 21
950.5791804016
 31
0.0
  0
LINE
  5
3A4
330
1F
100
AcDbEntity
  8
0
  6
Continuous
 62
     7
370
    15
100
AcDbLine
 10
260.4719039454
 20
950.5791804016
 30
0.0
 11
92.4719062104
 21
950.5791804016
 31
0.0
  0
LINE
  5
3A5
330
1F
100
AcDbEntity
  8
0
  6
Continuous
 62
     7
370
    15
100
AcDbLine
 10
90.4719021572
 20
998.6202260674
 30
0.0
 11
90.4719021572
 21
952.5791546524
 31
0.0
  0
ARC
  5
3A6
330
1F
100
AcDbEntity
  8
0
  6
Continuous
 62
     7
370
    15
100
AcDbCircle
 10
92.4719100251
 20
952.5791814999
 30
0.0
 40
2.0
100
AcDbArc
 50
180.0
 51
270.0
  0
LWPOLYLINE
  5
3A7
330
1F
100
AcDbEntity
  8
0
  6
Continuous
 62
     7
370
    15
100
AcDbPolyline
 90
        3
 70
   128
 43
0.0
 10
273.4377395763
 20
1137.099876088
 10
273.1721487297
 20
1137.0943924606
 10
272.9050379648
 20
1137.0925447167
  0
LINE
  5
3A8
330
1F
100
AcDbEntity
  8
0
  6
Continuous
 62
     7
370
    15
100
AcDbLine
 10
293.5908299341
 20
1137.099876088
 30
0.0
 11
273.4377395763
 21
1137.099876088
 31
0.0
  0
LWPOLYLINE
  5
3A9
330
1F
100
AcDbEntity
  8
0
  6
Continuous
 62
     7
370
    15
100
AcDbPolyline
 90
        3
 70
   128
 43
0.0
 10
294.1235315456
 20
1137.0925447167
 10
293.8571807398
 20
1137.0943924606
 10
293.5908299341
 20
1137.099876088
  0
LINE
  5
3AA
330
1F
100
AcDbEntity
  8
0
  6
Continuous
 62
     7
370
    15
100
AcDbLine
 10
372.9050347983
 20
1137.0925447167
 30
0.0
 11
294.1235315456
 21
1137.0925447167
 31
0.0
  0
LWPOLYLINE
  5
3AB
330
1F
100
AcDbEntity
  8
0
  6
Continuous
 62
     7
370
    15
100
AcDbPolyline
 90
        3
 70
   128
 43
0.0
 10
373.4377392037
 20
1137.099876088
 10
373.1721474259
 20
1137.0943924606
 10
372.9050347983
 20
1137.0925447167
  0
LINE
  5
3AC
330
1F
100
AcDbEntity
  8
0
  6
Continuous
 62
     7
370
    15
100
AcDbLine
 10
393.5908263019
 20
1137.099876088
 30
0.0
 11
373.4377392037
 21
1137.099876088
 31
0.0
  0
LWPOLYLINE
  5
3AD
330
1F
100
AcDbEntity
  8
0
  6
Continuous
 62
     7
370
    15
100
AcDbPolyline
 90
        3
 70
   128
 43
0.0
 10
394.1235307074
 20
1137.0925447167
 10
393.8571785046
 20
1137.0943924606
 10
393.5908263019
 20
1137.099876088
  0
LINE
  5
3AE
330
1F
100
AcDbEntity
  8
0
  6
Continuous
 62
     7
370
    15
100
AcDbLine
 10
472.9050334944
 20
1137.0925447167
 30
0.0
 11
394.1235307074
 21
1137.0925447167
 31
0.0
  0
LWPOLYLINE
  5
3AF
330
1F
100
AcDbEntity
  8
0
  6
Continuous
 62
     7
370
    15
100
AcDbPolyline
 90
        3
 70
   128
 43
0.0
 10
473.4377425565
 20
1137.099876088
 10
473.1721442594
 20
1137.0943924606
 10
472.9050334944
 20
1137.0925447167
  0
LINE
  5
3B0
330
1F
100
AcDbEntity
  8
0
  6
Continuous
 62
     7
370
    15
100
AcDbLine
 10
493.5908254637
 20
1137.099876088
 30
0.0
 11
473.4377425565
 21
1137.099876088
 31
0.0
  0
LWPOLYLINE
  5
3B1
330
1F
100
AcDbEntity
  8
0
  6
Continuous
 62
     7
370
    15
100
AcDbPolyline
 90
        3
 70
   128
 43
0.0
 10
494.1235270752
 20
1137.0925447167
 10
493.8571762695
 20
1137.0943924606
 10
493.5908254637
 20
1137.099876088
  0
LINE
  5
3B2
330
1F
100
AcDbEntity
  8
0
  6
Continuous
 62
     7
370
    15
100
AcDbLine
 10
572.9050424351
 20
1137.0925447167
 30
0.0
 11
494.1235270752
 21
1137.0925447167
 31
0.0
  0
LWPOLYLINE
  5
3B3
330
1F
100
AcDbEntity
  8
0
  6
Continuous
 62
     7
370
    15
100
AcDbPolyline
 90
        3
 70
   128
 43
0.0
 10
573.4377440466
 20
1137.099876088
 10
573.1721457495
 20
1137.0943924606
 10
572.9050424351
 20
1137.0925447167
  0
LINE
  5
3B4
330
1F
100
AcDbEntity
  8
0
  6
Continuous
 62
     7
370
    15
100
AcDbLine
 10
593.5908195032
 20
1137.099876088
 30
0.0
 11
573.4377440466
 21
1137.099876088
 31
0.0
  0
LWPOLYLINE
  5
3B5
330
1F
100
AcDbEntity
  8
0
  6
Continuous
 62
     7
370
    15
100
AcDbPolyline
 90
        3
 70
   128
 43
0.0
 10
594.1235360159
 20
1137.0925447167
 10
593.8571777596
 20
1137.0943924606
 10
593.5908195032
 20
1137.099876088
  0
LINE
  5
3B6
330
1F
100
AcDbEntity
  8
0
  6
Continuous
 62
     7
370
    15
100
AcDbLine
 10
663.4719159855
 20
1137.0925447167
 30
0.0
 11
594.1235360159
 21
1137.0925447167
 31
0.0
  0
LWPOLYLINE
  5
3B7
330
1F
100
AcDbEntity
  8
0
  6
Continuous
 62
     7
370
    15
100
AcDbPolyline
 90
        3
 70
   128
 43
0.0
 10
664.0046026959
 20
1137.099876088
 10
663.7390342011
 20
1137.0943924606
 10
663.4719159855
 20
1137.0925447167
  0
LINE
  5
3B8
330
1F
100
AcDbEntity
  8
0
  6
Continuous
 62
     7
370
    15
100
AcDbLine
 10
687.6719084038
 20
1137.099876088
 30
0.0
 11
664.0046026959
 21
1137.099876088
 31
0.0
  0
LINE
  5
3B9
330
1F
100
AcDbEntity
  8
0
  6
Continuous
 62
     7
370
    15
100
AcDbLine
 10
687.6719084038
 20
1137.099876088
 30
0.0
 11
687.6719084038
 21
1112.1789952934
 31
0.0
  0
LINE
  5
3BA
330
1F
100
AcDbEntity
  8
0
  6
Continuous
 62
     7
370
    15
100
AcDbLine
 10
687.6719084038
 20
1112.1789952934
 30
0.0
 11
89.2719116463
 21
1112.1789952934
 31
0.0
  0
LINE
  5
3BB
330
1F
100
AcDbEntity
  8
0
  6
Continuous
 62
     7
370
    15
100
AcDbLine
 10
112.9392173542
 20
1137.099876088
 30
0.0
 11
89.2719116463
 21
1137.099876088
 31
0.0
  0
LWPOLYLINE
  5
3BC
330
1F
100
AcDbEntity
  8
0
  6
Continuous
 62
     7
370
    15
100
AcDbPolyline
 90
        3
 70
   128
 43
0.0
 10
113.4719040646
 20
1137.0925447167
 10
113.2055607094
 20
1137.0943924606
 10
112.9392173542
 20
1137.099876088
  0
LINE
  5
3BD
330
1F
100
AcDbEntity
  8
0
  6
Continuous
 62
     7
370
    15
100
AcDbLine
 10
172.9050364746
 20
1137.0925447167
 30
0.0
 11
113.4719040646
 21
1137.0925447167
 31
0.0
  0
LWPOLYLINE
  5
3BE
330
1F
100
AcDbEntity
  8
0
  6
Continuous
 62
     7
370
    15
100
AcDbPolyline
 90
        3
 70
   128
 43
0.0
 10
173.4377380862
 20
1137.099876088
 10
173.172139789
 20
1137.0943924606
 10
172.9050364746
 20
1137.0925447167
  0
LINE
  5
3BF
330
1F
100
AcDbEntity
  8
0
  6
Continuous
 62
     7
370
    15
100
AcDbLine
 10
193.5908284439
 20
1137.099876088
 30
0.0
 11
173.4377380862
 21
1137.099876088
 31
0.0
  0
LWPOLYLINE
  5
3C0
330
1F
100
AcDbEntity
  8
0
  6
Continuous
 62
     7
370
    15
100
AcDbPolyline
 90
        3
 70
   128
 43
0.0
 10
194.1235300555
 20
1137.0925447167
 10
193.8571717991
 20
1137.0943924606
 10
193.5908284439
 20
1137.099876088
  0
LINE
  5
3C1
330
1F
100
AcDbEntity
  8
0
  6
Continuous
 62
     7
370
    15
100
AcDbLine
 10
272.9050379648
 20
1137.0925447167
 30
0.0
 11
194.1235300555
 21
1137.0925447167
 31
0.0
  0
LINE
  5
3C2
330
1F
100
AcDbEntity
  8
0
  6
Continuous
 62
     7
370
    15
100
AcDbLine
 10
89.2719116463
 20
1137.099876088
 30
0.0
 11
89.2719116463
 21
1112.1789952934
 31
0.0
  0
LINE
  5
3C3
330
1F
100
AcDbEntity
  8
0
  6
Continuous
 62
     7
370
    15
100
AcDbLine
 10
90.9219172253
 20
1111.6790315331
 30
0.0
 11
90.9219172253
 21
1112.0790383042
 31
0.0
  0
LINE
  5
3C4
330
1F
100
AcDbEntity
  8
0
  6
Continuous
 62
     7
370
    15
100
AcDbLine
 10
90.9219172253
 20
1112.0790383042
 30
0.0
 11
89.2719116463
 21
1112.0790383042
 31
0.0
  0
LINE
  5
3C5
330
1F
100
AcDbEntity
  8
0
  6
Continuous
 62
     7
370
    15
100
AcDbLine
 10
89.2719116463
 20
1112.1789952934
 30
0.0
 11
89.2719116463
 21
1112.0790383042
 31
0.0
  0
LINE
  5
3C6
330
1F
100
AcDbEntity
  8
0
  6
Continuous
 62
     7
370
    15
100
AcDbLine
 10
687.6719084038
 20
1112.1789952934
 30
0.0
 11
687.6719084038
 21
1112.0790383042
 31
0.0
  0
LINE
  5
3C7
330
1F
100
AcDbEntity
  8
0
  6
Continuous
 62
     7
370
    15
100
AcDbLine
 10
687.6719084038
 20
1112.0790383042
 30
0.0
 11
686.0219028248
 21
1112.0790383042
 31
0.0
  0
LINE
  5
3C8
330
1F
100
AcDbEntity
  8
0
  6
Continuous
 62
     7
370
    15
100
AcDbLine
 10
686.0219028248
 20
1112.0790383042
 30
0.0
 11
686.0219028248
 21
1111.6790315331
 31
0.0
  0
LINE
  5
3C9
330
1F
100
AcDbEntity
  8
0
  6
Continuous
 62
     7
370
    15
100
AcDbLine
 10
686.0219028248
 20
1111.6790315331
 30
0.0
 11
686.4219095959
 21
1111.6790315331
 31
0.0
  0
ARC
  5
3CA
330
1F
100
AcDbEntity
  8
0
  6
Continuous
 62
     7
370
    15
100
AcDbCircle
 10
388.4719100251
 20
946.062192601
 30
0.0
 40
3.600000000000023
100
AcDbArc
 50
0.0
 51
180.0
  0
LINE
  5
3CB
330
1F
100
AcDbEntity
  8
0
  6
Continuous
 62
     7
370
    15
100
AcDbLine
 10
90.5219104542
 20
1111.6790315331
 30
0.0
 11
90.9219172253
 21
1111.6790315331
 31
0.0
  0
LINE
  5
3CC
330
1F
100
AcDbEntity
  8
0
  6
Continuous
 62
     7
370
    15
100
AcDbLine
 10
88.4718981041
 20
1111.6790315331
 30
0.0
 11
88.4718981041
 21
946.0622212113
 31
0.0
  0
LINE
  5
3CD
330
1F
100
AcDbEntity
  8
0
  6
Continuous
 62
     7
370
    15
100
AcDbLine
 10
88.4718981041
 20
1111.6790315331
 30
0.0
 11
90.5219104542
 21
1111.6790315331
 31
0.0
  0
LINE
  5
3CE
330
1F
100
AcDbEntity
  8
0
  6
Continuous
 62
     7
370
    15
100
AcDbLine
 10
89.6719184174
 20
946.0622212113
 30
0.0
 11
88.4718981041
 21
946.0622212113
 31
0.0
  0
LINE
  5
3CF
330
1F
100
AcDbEntity
  8
0
  6
Continuous
 62
     7
370
    15
100
AcDbLine
 10
686.4219095959
 20
1111.6790315331
 30
0.0
 11
688.471921946
 21
1111.6790315331
 31
0.0
  0
LINE
  5
3D0
330
1F
100
AcDbEntity
  8
0
  6
Continuous
 62
     7
370
    15
100
AcDbLine
 10
688.471921946
 20
946.0622212113
 30
0.0
 11
688.471921946
 21
1111.6790315331
 31
0.0
  0
LINE
  5
3D1
330
1F
100
AcDbEntity
  8
0
  6
Continuous
 62
     7
370
    15
100
AcDbLine
 10
688.471921946
 20
946.0622212113
 30
0.0
 11
687.2719016327
 21
946.0622212113
 31
0.0
  0
LINE
  5
3D2
330
1F
100
AcDbEntity
  8
0
  6
Continuous
 62
     7
370
    15
100
AcDbLine
 10
88.4718981041
 20
1112.1789952934
 30
0.0
 11
89.2719116463
 21
1112.1789952934
 31
0.0
  0
LINE
  5
3D3
330
1F
100
AcDbEntity
  8
0
  6
Continuous
 62
     7
370
    15
100
AcDbLine
 10
88.4718981041
 20
1136.2305423439
 30
0.0
 11
88.4718981041
 21
1112.1789952934
 31
0.0
  0
LINE
  5
3D4
330
1F
100
AcDbEntity
  8
0
  6
Continuous
 62
     7
370
    15
100
AcDbLine
 10
88.4718981041
 20
1136.2305423439
 30
0.0
 11
89.2719116463
 21
1136.2305423439
 31
0.0
  0
LINE
  5
3D5
330
1F
100
AcDbEntity
  8
0
  6
Continuous
 62
     7
370
    15
100
AcDbLine
 10
688.471921946
 20
1136.2305423439
 30
0.0
 11
687.6719084038
 21
1136.2305423439
 31
0.0
  0
LINE
  5
3D6
330
1F
100
AcDbEntity
  8
0
  6
Continuous
 62
     7
370
    15
100
AcDbLine
 10
688.471921946
 20
1136.2305423439
 30
0.0
 11
688.471921946
 21
1112.1789952934
 31
0.0
  0
LINE
  5
3D7
330
1F
100
AcDbEntity
  8
0
  6
Continuous
 62
     7
370
    15
100
AcDbLine
 10
688.471921946
 20
1112.1789952934
 30
0.0
 11
687.6719084038
 21
1112.1789952934
 31
0.0
  0
LINE
  5
3D8
330
1F
100
AcDbEntity
  8
0
  6
Continuous
 62
     7
370
    15
100
AcDbLine
 10
688.471921946
 20
1112.1789952934
 30
0.0
 11
688.471921946
 21
1111.6790315331
 31
0.0
  0
LINE
  5
3D9
330
1F
100
AcDbEntity
  8
0
  6
Continuous
 62
     7
370
    15
100
AcDbLine
 10
687.6719084038
 20
1112.0790383042
 30
0.0
 11
687.6719084038
 21
1111.6790315331
 31
0.0
  0
LINE
  5
3DA
330
1F
100
AcDbEntity
  8
0
  6
Continuous
 62
     7
370
    15
100
AcDbLine
 10
88.4718981041
 20
1112.1789952934
 30
0.0
 11
88.4718981041
 21
1111.6790315331
 31
0.0
  0
LINE
  5
3DB
330
1F
100
AcDbEntity
  8
0
  6
Continuous
 62
     7
370
    15
100
AcDbLine
 10
89.2719116463
 20
1112.0790383042
 30
0.0
 11
89.2719116463
 21
1111.6790315331
 31
0.0
  0
LWPOLYLINE
  5
3DC
330
1F
100
AcDbEntity
  8
0
  6
Continuous
 62
     7
370
    15
100
AcDbPolyline
 90
        9
 70
   128
 43
0.0
 10
664.0046026959
 20
1137.099876088
 10
664.9004605069
 20
1137.1464869202
 10
665.748634602
 20
1137.2344633759
 10
666.5207233681
 20
1137.3609444321
 10
667.1910074009
 20
1137.521698159
 10
667.7371051564
 20
1137.7113005341
 10
668.1407180085
 20
1137.9234930695
 10
668.3884051098
 20
1138.1511232079
 10
668.4719112172
 20
1138.3866211594
  0
LWPOLYLINE
  5
3DD
330
1F
100
AcDbEntity
  8
0
  6
Continuous
 62
     7
370
    15
100
AcDbPolyline
 90
        9
 70
   128
 43
0.0
 10
189.6666076435
 20
1138.9731904686
 10
189.2536070599
 20
1138.6798760117
 10
189.1239669575
 20
1138.3695146263
 10
189.2852422251
 20
1138.0601665199
 10
189.72803023
 20
1137.7698322952
 10
190.4265817656
 20
1137.515320462
 10
191.3402464642
 20
1137.3115917862
 10
192.4158569826
 20
1137.1703287781
 10
193.5908284439
 20
1137.099876088
  0
LINE
  5
3DE
330
1F
100
AcDbEntity
  8
0
  6
Continuous
 62
     7
370
    15
100
AcDbLine
 10
189.6666076435
 20
1138.2004162491
 30
0.0
 11
189.6666076435
 21
1138.9731904686
 31
0.0
  0
LINE
  5
3DF
330
1F
100
AcDbEntity
  8
0
  6
Continuous
 62
     7
370
    15
100
AcDbLine
 10
189.6666076435
 20
1138.2004162491
 30
0.0
 11
189.3515821947
 21
1138.0002638519
 31
0.0
  0
LWPOLYLINE
  5
3E0
330
1F
100
AcDbEntity
  8
0
  6
Continuous
 62
     7
370
    15
100
AcDbPolyline
 90
        9
 70
   128
 43
0.0
 10
289.6666016831
 20
1138.9731904686
 10
289.2536010994
 20
1138.6798760117
 10
289.1239684476
 20
1138.3695146263
 10
289.2852362646
 20
1138.0601665199
 10
289.7280242695
 20
1137.7698322952
 10
290.4265758051
 20
1137.515320462
 10
291.3402405037
 20
1137.3115917862
 10
292.4158510222
 20
1137.1703287781
 10
293.5908299341
 20
1137.099876088
  0
LINE
  5
3E1
330
1F
100
AcDbEntity
  8
0
  6
Continuous
 62
     7
370
    15
100
AcDbLine
 10
289.6666016831
 20
1138.2004162491
 30
0.0
 11
289.6666016831
 21
1138.9731904686
 31
0.0
  0
LINE
  5
3E2
330
1F
100
AcDbEntity
  8
0
  6
Continuous
 62
     7
370
    15
100
AcDbLine
 10
289.6666016831
 20
1138.2004162491
 30
0.0
 11
289.3515836849
 21
1138.0002638519
 31
0.0
  0
LWPOLYLINE
  5
3E3
330
1F
100
AcDbEntity
  8
0
  6
Continuous
 62
     7
370
    15
100
AcDbPolyline
 90
        9
 70
   128
 43
0.0
 10
589.6665987028
 20
1138.9731904686
 10
589.2535981192
 20
1138.6798760117
 10
589.123972918
 20
1138.3695146263
 10
589.2852332844
 20
1138.0601665199
 10
589.7280212893
 20
1137.7698322952
 10
590.4265728249
 20
1137.515320462
 10
591.3402375235
 20
1137.3115917862
 10
592.4158480419
 20
1137.1703287781
 10
593.5908195032
 20
1137.099876088
  0
LINE
  5
3E4
330
1F
100
AcDbEntity
  8
0
  6
Continuous
 62
     7
370
    15
100
AcDbLine
 10
589.6665987028
 20
1138.2004162491
 30
0.0
 11
589.6665987028
 21
1138.9731904686
 31
0.0
  0
LINE
  5
3E5
330
1F
100
AcDbEntity
  8
0
  6
Continuous
 62
     7
370
    15
100
AcDbLine
 10
589.6665987028
 20
1138.2004162491
 30
0.0
 11
589.3515881552
 21
1138.0002638519
 31
0.0
  0
LWPOLYLINE
  5
3E6
330
1F
100
AcDbEntity
  8
0
  6
Continuous
 62
     7
370
    15
100
AcDbPolyline
 90
        9
 70
   128
 43
0.0
 10
489.6666046633
 20
1138.9731904686
 10
489.2536040797
 20
1138.6798760117
 10
489.1239639773
 20
1138.3695146263
 10
489.2852392449
 20
1138.0601665199
 10
489.7280272498
 20
1137.7698322952
 10
490.4265787854
 20
1137.515320462
 10
491.3402360334
 20
1137.3115917862
 10
492.4158540024
 20
1137.1703287781
 10
493.5908254637
 20
1137.099876088
  0
LINE
  5
3E7
330
1F
100
AcDbEntity
  8
0
  6
Continuous
 62
     7
370
    15
100
AcDbLine
 10
489.6666046633
 20
1138.2004162491
 30
0.0
 11
489.6666046633
 21
1138.9731904686
 31
0.0
  0
LINE
  5
3E8
330
1F
100
AcDbEntity
  8
0
  6
Continuous
 62
     7
370
    15
100
AcDbLine
 10
489.6666046633
 20
1138.2004162491
 30
0.0
 11
489.3515792145
 21
1138.0002638519
 31
0.0
  0
LWPOLYLINE
  5
3E9
330
1F
100
AcDbEntity
  8
0
  6
Continuous
 62
     7
370
    15
100
AcDbPolyline
 90
        9
 70
   128
 43
0.0
 10
389.6666049194
 20
1138.9731904686
 10
389.2536043358
 20
1138.6798760117
 10
389.1239668527
 20
1138.3695146263
 10
389.2852357757
 20
1138.0601665199
 10
389.7280273894
 20
1137.7698322952
 10
390.4265772952
 20
1137.515320462
 10
391.3402394327
 20
1137.3115917862
 10
392.4158511153
 20
1137.1703287781
 10
393.5908263019
 20
1137.099876088
  0
LINE
  5
3EA
330
1F
100
AcDbEntity
  8
0
  6
Continuous
 62
     7
370
    15
100
AcDbLine
 10
389.6666049194
 20
1138.2004162491
 30
0.0
 11
389.6666049194
 21
1138.9731904686
 31
0.0
  0
LINE
  5
3EB
330
1F
100
AcDbEntity
  8
0
  6
Continuous
 62
     7
370
    15
100
AcDbLine
 10
389.6666049194
 20
1138.2004162491
 30
0.0
 11
389.3515826138
 21
1138.0002638519
 31
0.0
  0
LWPOLYLINE
  5
3EC
330
1F
100
AcDbEntity
  8
0
  6
Continuous
 62
     7
370
    15
100
AcDbPolyline
 90
        9
 70
   128
 43
0.0
 10
108.471908833
 20
1138.3866211594
 10
108.5554149403
 20
1138.1511232079
 10
108.8031020417
 20
1137.9234930695
 10
109.2067148938
 20
1137.7113005341
 10
109.7528126492
 20
1137.521698159
 10
110.423096682
 20
1137.3609444321
 10
111.1951854481
 20
1137.2344633759
 10
112.0433595433
 20
1137.1464869202
 10
112.9392173542
 20
1137.099876088
  0
LINE
  5
3ED
330
1F
100
AcDbEntity
  8
0
  6
Continuous
 62
     7
370
    15
100
AcDbLine
 10
177.3619588866
 20
1137.8001114548
 30
0.0
 11
187.2772213473
 21
1142.8470751465
 31
0.0
  0
LWPOLYLINE
  5
3EE
330
1F
100
AcDbEntity
  8
0
  6
Continuous
 62
     7
370
    15
100
AcDbPolyline
 90
        9
 70
   128
 43
0.0
 10
187.2772213473
 20
1142.8470751465
 10
187.7048995747
 20
1143.1571981133
 10
187.8163155569
 20
1143.4852024735
 10
187.6042273297
 20
1143.8099285782
 10
187.0824035658
 20
1144.1102167786
 10
186.2845953955
 20
1144.3667551697
 10
185.2624800457
 20
1144.562854451
 10
184.0822484745
 20
1144.6858188332
 10
182.8202840342
 20
1144.7277208985
  0
LINE
  5
3EF
330
1F
100
AcDbEntity
  8
0
  6
Continuous
 62
     7
370
    15
100
AcDbLine
 10
182.8202840342
 20
1144.7277208985
 30
0.0
 11
113.4719040646
 21
1144.7277208985
 31
0.0
  0
LWPOLYLINE
  5
3F0
330
1F
100
AcDbEntity
  8
0
  6
Continuous
 62
     7
370
    15
100
AcDbPolyline
 90
        9
 70
   128
 43
0.0
 10
113.4719040646
 20
1144.7277208985
 10
112.4964442505
 20
1144.7028061569
 10
111.5585055603
 20
1144.6291944206
 10
110.6940593972
 20
1144.5096275032
 10
109.9363651528
 20
1144.3486949623
 10
109.3145694985
 20
1144.152595681
 10
108.8525142922
 20
1143.9288398445
 10
108.5679915203
 20
1143.6860701264
 10
108.471908833
 20
1143.4335848511
  0
LINE
  5
3F1
330
1F
100
AcDbEntity
  8
0
  6
Continuous
 62
     7
370
    15
100
AcDbLine
 10
108.471908833
 20
1143.4335848511
 30
0.0
 11
108.471908833
 21
1138.3866211594
 31
0.0
  0
LINE
  5
3F2
330
1F
100
AcDbEntity
  8
0
  6
Continuous
 62
     7
370
    15
100
AcDbLine
 10
687.6719084038
 20
1146.0217973412
 30
0.0
 11
89.2719116463
 21
1146.0217973412
 31
0.0
  0
LINE
  5
3F3
330
1F
100
AcDbEntity
  8
0
  6
Continuous
 62
     7
370
    15
100
AcDbLine
 10
687.6719084038
 20
1146.0217973412
 30
0.0
 11
687.6719084038
 21
1137.099876088
 31
0.0
  0
LINE
  5
3F4
330
1F
100
AcDbEntity
  8
0
  6
Continuous
 62
     7
370
    15
100
AcDbLine
 10
668.4719112172
 20
1138.3866211594
 30
0.0
 11
668.4719112172
 21
1143.4335848511
 31
0.0
  0
LWPOLYLINE
  5
3F5
330
1F
100
AcDbEntity
  8
0
  6
Continuous
 62
     7
370
    15
100
AcDbPolyline
 90
        9
 70
   128
 43
0.0
 10
668.4719112172
 20
1143.4335848511
 10
668.3758285298
 20
1143.6860701264
 10
668.0913057579
 20
1143.9288398445
 10
667.6292505516
 20
1144.152595681
 10
667.0074548973
 20
1144.3486949623
 10
666.249760653
 20
1144.5096275032
 10
665.3853144898
 20
1144.6291944206
 10
664.4473757996
 20
1144.7028061569
 10
663.4719159855
 20
1144.7277208985
  0
LINE
  5
3F6
330
1F
100
AcDbEntity
  8
0
  6
Continuous
 62
     7
370
    15
100
AcDbLine
 10
663.4719159855
 20
1144.7277208985
 30
0.0
 11
604.0387835755
 21
1144.7277208985
 31
0.0
  0
ARC
  5
3F7
330
1F
100
AcDbEntity
  8
0
  6
Continuous
 62
     7
370
    15
100
AcDbCircle
 10
603.5382558893
 20
1133.4897831231
 30
0.0
 40
11.24907878039779
100
AcDbArc
 50
87.4497827071
 51
110.5918399346
  0
LINE
  5
3F8
330
1F
100
AcDbEntity
  8
0
  6
Continuous
 62
     7
370
    15
100
AcDbLine
 10
599.5818611636
 20
1144.0201541603
 30
0.0
 11
589.6665987028
 21
1138.9731904686
 31
0.0
  0
LINE
  5
3F9
330
1F
100
AcDbEntity
  8
0
  6
Continuous
 62
     7
370
    15
100
AcDbLine
 10
577.361964847
 20
1137.8001114548
 30
0.0
 11
587.2772124066
 21
1142.8470751465
 31
0.0
  0
LWPOLYLINE
  5
3FA
330
1F
100
AcDbEntity
  8
0
  6
Continuous
 62
     7
370
    15
100
AcDbPolyline
 90
        9
 70
   128
 43
0.0
 10
587.2772124066
 20
1142.8470751465
 10
587.7049055352
 20
1143.1571981133
 10
587.8163066162
 20
1143.4852024735
 10
587.6042332901
 20
1143.8099285782
 10
587.0823946251
 20
1144.1102167786
 10
586.284601356
 20
1144.3667551697
 10
585.2624860062
 20
1144.562854451
 10
584.0822395338
 20
1144.6858188332
 10
582.8202899947
 20
1144.7277208985
  0
LINE
  5
3FB
330
1F
100
AcDbEntity
  8
0
  6
Continuous
 62
     7
370
    15
100
AcDbLine
 10
582.8202899947
 20
1144.7277208985
 30
0.0
 11
504.0387820854
 21
1144.7277208985
 31
0.0
  0
ARC
  5
3FC
330
1F
100
AcDbEntity
  8
0
  6
Continuous
 62
     7
370
    15
100
AcDbCircle
 10
503.5382608503
 20
1133.4897424878
 30
0.0
 40
11.24911908841782
100
AcDbArc
 50
87.4498247416
 51
110.5917979001
  0
LINE
  5
3FD
330
1F
100
AcDbEntity
  8
0
  6
Continuous
 62
     7
370
    15
100
AcDbLine
 10
499.5818596734
 20
1144.0201541603
 30
0.0
 11
489.6666046633
 21
1138.9731904686
 31
0.0
  0
LINE
  5
3FE
330
1F
100
AcDbEntity
  8
0
  6
Continuous
 62
     7
370
    15
100
AcDbLine
 10
477.3619633569
 20
1137.8001114548
 30
0.0
 11
487.277218367
 21
1142.8470751465
 31
0.0
  0
LWPOLYLINE
  5
3FF
330
1F
100
AcDbEntity
  8
0
  6
Continuous
 62
     7
370
    15
100
AcDbPolyline
 90
        9
 70
   128
 43
0.0
 10
487.277218367
 20
1142.8470751465
 10
487.7048965945
 20
1143.1571981133
 10
487.8163125767
 20
1143.4852024735
 10
487.6042318
 20
1143.8099285782
 10
487.0824005856
 20
1144.1102167786
 10
486.2845998659
 20
1144.3667551697
 10
485.2624845161
 20
1144.562854451
 10
484.0822454943
 20
1144.6858188332
 10
482.8202885045
 20
1144.7277208985
  0
LINE
  5
400
330
1F
100
AcDbEntity
  8
0
  6
Continuous
 62
     7
370
    15
100
AcDbLine
 10
482.8202885045
 20
1144.7277208985
 30
0.0
 11
404.0387852519
 21
1144.7277208985
 31
0.0
  0
ARC
  5
401
330
1F
100
AcDbEntity
  8
0
  6
Continuous
 62
     7
370
    15
100
AcDbCircle
 10
403.5382602505
 20
1133.4897453811
 30
0.0
 40
11.24911636550116
100
AcDbArc
 50
87.4498049219
 51
110.5918028878
  0
LINE
  5
402
330
1F
100
AcDbEntity
  8
0
  6
Continuous
 62
     7
370
    15
100
AcDbLine
 10
399.5818591146
 20
1144.0201541603
 30
0.0
 11
389.6666049194
 21
1138.9731904686
 31
0.0
  0
LINE
  5
403
330
1F
100
AcDbEntity
  8
0
  6
Continuous
 62
     7
370
    15
100
AcDbLine
 10
377.3619609355
 20
1137.8001114548
 30
0.0
 11
387.2772151307
 21
1142.8470751465
 31
0.0
  0
LWPOLYLINE
  5
404
330
1F
100
AcDbEntity
  8
0
  6
Continuous
 62
     7
370
    15
100
AcDbPolyline
 90
        9
 70
   128
 43
0.0
 10
387.2772151307
 20
1142.8470751465
 10
387.7049001102
 20
1143.1571981133
 10
387.8163107373
 20
1143.4852024735
 10
387.6042333367
 20
1143.8099285782
 10
387.0823996775
 20
1144.1102167786
 10
386.2845979101
 20
1144.3667551697
 10
385.2624853543
 20
1144.562854451
 10
384.0822426072
 20
1144.6858188332
 10
382.8202893427
 20
1144.7277208985
  0
LINE
  5
405
330
1F
100
AcDbEntity
  8
0
  6
Continuous
 62
     7
370
    15
100
AcDbLine
 10
382.8202893427
 20
1144.7277208985
 30
0.0
 11
304.0387865557
 21
1144.7277208985
 31
0.0
  0
ARC
  5
406
330
1F
100
AcDbEntity
  8
0
  6
Continuous
 62
     7
370
    15
100
AcDbCircle
 10
303.5382597421
 20
1133.4897359664
 30
0.0
 40
11.24912585151008
100
AcDbArc
 50
87.4497978341
 51
110.5917951437
  0
LINE
  5
407
330
1F
100
AcDbEntity
  8
0
  6
Continuous
 62
     7
370
    15
100
AcDbLine
 10
299.5818566932
 20
1144.0201541603
 30
0.0
 11
289.6666016831
 21
1138.9731904686
 31
0.0
  0
LINE
  5
408
330
1F
100
AcDbEntity
  8
0
  6
Continuous
 62
     7
370
    15
100
AcDbLine
 10
277.3619603767
 20
1137.8001114548
 30
0.0
 11
287.2772153868
 21
1142.8470751465
 31
0.0
  0
LWPOLYLINE
  5
409
330
1F
100
AcDbEntity
  8
0
  6
Continuous
 62
     7
370
    15
100
AcDbPolyline
 90
        9
 70
   128
 43
0.0
 10
287.2772153868
 20
1142.8470751465
 10
287.7049010648
 20
1143.1571981133
 10
287.8163095965
 20
1143.4852024735
 10
287.6042362704
 20
1143.8099285782
 10
287.0823976054
 20
1144.1102167786
 10
286.2845968856
 20
1144.3667551697
 10
285.2624889864
 20
1144.562854451
 10
284.0822425141
 20
1144.6858188332
 10
282.8202929749
 20
1144.7277208985
  0
LINE
  5
40A
330
1F
100
AcDbEntity
  8
0
  6
Continuous
 62
     7
370
    15
100
AcDbLine
 10
282.8202929749
 20
1144.7277208985
 30
0.0
 11
204.038777615
 21
1144.7277208985
 31
0.0
  0
ARC
  5
40B
330
1F
100
AcDbEntity
  8
0
  6
Continuous
 62
     7
370
    15
100
AcDbCircle
 10
203.5382628311
 20
1133.4897018522
 30
0.0
 40
11.24915939673932
100
AcDbArc
 50
87.4498667761
 51
110.5917558656
  0
LINE
  5
40C
330
1F
100
AcDbEntity
  8
0
  6
Continuous
 62
     7
370
    15
100
AcDbLine
 10
199.5818552031
 20
1144.0201541603
 30
0.0
 11
189.6666076435
 21
1138.9731904686
 31
0.0
  0
LINE
  5
40D
330
1F
100
AcDbEntity
  8
0
  6
Continuous
 62
     7
370
    15
100
AcDbLine
 10
89.2719116463
 20
1146.0217973412
 30
0.0
 11
89.2719116463
 21
1137.099876088
 31
0.0
  0
ARC
  5
40E
330
1F
100
AcDbEntity
  8
0
  6
Continuous
 62
     7
370
    15
100
AcDbCircle
 10
173.6074948321
 20
1147.4946042336
 30
0.0
 40
10.3961142055584
100
AcDbArc
 50
269.0643833674
 51
291.1702910384
  0
ARC
  5
40F
330
1F
100
AcDbEntity
  8
0
  6
Continuous
 62
     7
370
    15
100
AcDbCircle
 10
273.6074835495
 20
1147.4946758139
 30
0.0
 40
10.39618556777158
100
AcDbArc
 50
269.0644601932
 51
291.1702142125
  0
ARC
  5
410
330
1F
100
AcDbEntity
  8
0
  6
Continuous
 62
     7
370
    15
100
AcDbCircle
 10
373.6074896421
 20
1147.494644576
 30
0.0
 40
10.39615443954487
100
AcDbArc
 50
269.0644217562
 51
291.1702479466
  0
ARC
  5
411
330
1F
100
AcDbEntity
  8
0
  6
Continuous
 62
     7
370
    15
100
AcDbCircle
 10
573.6074752469
 20
1147.4947473953
 30
0.0
 40
10.39625693108154
100
AcDbArc
 50
269.0645370191
 51
291.1701373866
  0
ARC
  5
412
330
1F
100
AcDbEntity
  8
0
  6
Continuous
 62
     7
370
    15
100
AcDbCircle
 10
473.6074865297
 20
1147.4946758139
 30
0.0
 40
10.39618556777158
100
AcDbArc
 50
269.0644601932
 51
291.1702142125
  0
LINE
  5
413
330
1F
100
AcDbEntity
  8
0
  6
Continuous
 62
     7
370
    15
100
AcDbLine
 10
88.4718981041
 20
1145.1524635971
 30
0.0
 11
89.2719116463
 21
1145.1524635971
 31
0.0
  0
LINE
  5
414
330
1F
100
AcDbEntity
  8
0
  6
Continuous
 62
     7
370
    15
100
AcDbLine
 10
88.4718981041
 20
1145.1524635971
 30
0.0
 11
88.4718981041
 21
1136.2305423439
 31
0.0
  0
LINE
  5
415
330
1F
100
AcDbEntity
  8
0
  6
Continuous
 62
     7
370
    15
100
AcDbLine
 10
688.471921946
 20
1145.1524635971
 30
0.0
 11
687.6719084038
 21
1145.1524635971
 31
0.0
  0
LINE
  5
416
330
1F
100
AcDbEntity
  8
0
  6
Continuous
 62
     7
370
    15
100
AcDbLine
 10
688.471921946
 20
1145.1524635971
 30
0.0
 11
688.471921946
 21
1136.2305423439
 31
0.0
  0
LINE
  5
417
330
1F
100
AcDbEntity
  8
0
  6
Continuous
 62
     7
370
    15
100
AcDbLine
 10
199.5818552031
 20
1143.2473799408
 30
0.0
 11
199.5818552031
 21
1144.0201541603
 31
0.0
  0
LINE
  5
418
330
1F
100
AcDbEntity
  8
0
  6
Continuous
 62
     7
370
    15
100
AcDbLine
 10
199.5818552031
 20
1143.2473799408
 30
0.0
 11
189.6666076435
 21
1138.2004162491
 31
0.0
  0
LINE
  5
419
330
1F
100
AcDbEntity
  8
0
  6
Continuous
 62
     7
370
    15
100
AcDbLine
 10
399.5818591146
 20
1143.2473799408
 30
0.0
 11
399.5818591146
 21
1144.0201541603
 31
0.0
  0
LINE
  5
41A
330
1F
100
AcDbEntity
  8
0
  6
Continuous
 62
     7
370
    15
100
AcDbLine
 10
399.5818591146
 20
1143.2473799408
 30
0.0
 11
389.6666049194
 21
1138.2004162491
 31
0.0
  0
LINE
  5
41B
330
1F
100
AcDbEntity
  8
0
  6
Continuous
 62
     7
370
    15
100
AcDbLine
 10
499.5818596734
 20
1143.2473799408
 30
0.0
 11
499.5818596734
 21
1144.0201541603
 31
0.0
  0
LINE
  5
41C
330
1F
100
AcDbEntity
  8
0
  6
Continuous
 62
     7
370
    15
100
AcDbLine
 10
499.5818596734
 20
1143.2473799408
 30
0.0
 11
489.6666046633
 21
1138.2004162491
 31
0.0
  0
LINE
  5
41D
330
1F
100
AcDbEntity
  8
0
  6
Continuous
 62
     7
370
    15
100
AcDbLine
 10
299.5818566932
 20
1143.2473799408
 30
0.0
 11
299.5818566932
 21
1144.0201541603
 31
0.0
  0
LINE
  5
41E
330
1F
100
AcDbEntity
  8
0
  6
Continuous
 62
     7
370
    15
100
AcDbLine
 10
299.5818566932
 20
1143.2473799408
 30
0.0
 11
289.6666016831
 21
1138.2004162491
 31
0.0
  0
LINE
  5
41F
330
1F
100
AcDbEntity
  8
0
  6
Continuous
 62
     7
370
    15
100
AcDbLine
 10
599.5818611636
 20
1143.2473799408
 30
0.0
 11
599.5818611636
 21
1144.0201541603
 31
0.0
  0
LINE
  5
420
330
1F
100
AcDbEntity
  8
0
  6
Continuous
 62
     7
370
    15
100
AcDbLine
 10
599.5818611636
 20
1143.2473799408
 30
0.0
 11
589.6665987028
 21
1138.2004162491
 31
0.0
  0
LINE
  5
421
330
1F
100
AcDbEntity
  8
0
  6
Continuous
 62
     7
370
    15
100
AcDbLine
 10
182.8202840342
 20
1143.9549466789
 30
0.0
 11
182.8202840342
 21
1144.7277208985
 31
0.0
  0
ARC
  5
422
330
1F
100
AcDbEntity
  8
0
  6
Continuous
 62
     7
370
    15
100
AcDbCircle
 10
183.4910974461
 20
1134.4843590852
 30
0.0
 40
9.49431514135211
100
AcDbArc
 50
64.4081890816
 51
94.051564191
  0
LINE
  5
423
330
1F
100
AcDbEntity
  8
0
  6
Continuous
 62
     7
370
    15
100
AcDbLine
 10
282.8202929749
 20
1143.9549466789
 30
0.0
 11
282.8202929749
 21
1144.7277208985
 31
0.0
  0
ARC
  5
424
330
1F
100
AcDbEntity
  8
0
  6
Continuous
 62
     7
370
    15
100
AcDbCircle
 10
283.4910866972
 20
1134.4842555759
 30
0.0
 40
9.494417000953899
100
AcDbArc
 50
64.4083517387
 51
94.051401534
  0
LINE
  5
425
330
1F
100
AcDbEntity
  8
0
  6
Continuous
 62
     7
370
    15
100
AcDbLine
 10
482.8202885045
 20
1143.9549466789
 30
0.0
 11
482.8202885045
 21
1144.7277208985
 31
0.0
  0
ARC
  5
426
330
1F
100
AcDbEntity
  8
0
  6
Continuous
 62
     7
370
    15
100
AcDbCircle
 10
483.4910920717
 20
1134.4843073308
 30
0.0
 40
9.494366070865423
100
AcDbArc
 50
64.4082704101
 51
94.0514828625
  0
LINE
  5
427
330
1F
100
AcDbEntity
  8
0
  6
Continuous
 62
     7
370
    15
100
AcDbLine
 10
382.8202893427
 20
1143.9549466789
 30
0.0
 11
382.8202893427
 21
1144.7277208985
 31
0.0
  0
ARC
  5
428
330
1F
100
AcDbEntity
  8
0
  6
Continuous
 62
     7
370
    15
100
AcDbCircle
 10
383.4910897194
 20
1134.4842895059
 30
0.0
 40
9.494383625786588
100
AcDbArc
 50
64.4082982424
 51
94.0514560567
  0
LINE
  5
429
330
1F
100
AcDbEntity
  8
0
  6
Continuous
 62
     7
370
    15
100
AcDbLine
 10
582.8202899947
 20
1143.9549466789
 30
0.0
 11
582.8202899947
 21
1144.7277208985
 31
0.0
  0
ARC
  5
42A
330
1F
100
AcDbEntity
  8
0
  6
Continuous
 62
     7
370
    15
100
AcDbCircle
 10
583.491083717
 20
1134.4842555759
 30
0.0
 40
9.494417000953879
100
AcDbArc
 50
64.4083517387
 51
94.051401534
  0
LINE
  5
42B
330
1F
100
AcDbEntity
  8
0
  6
Continuous
 62
     7
370
    15
100
AcDbLine
 10
113.4719040646
 20
1143.9549466789
 30
0.0
 11
113.4719040646
 21
1144.7277208985
 31
0.0
  0
LWPOLYLINE
  5
42C
330
1F
100
AcDbEntity
  8
0
  6
Continuous
 62
     7
370
    15
100
AcDbPolyline
 90
        9
 70
   128
 43
0.0
 10
113.4719040646
 20
1143.9549466789
 10
112.4964442505
 20
1143.9300915421
 10
111.5585055603
 20
1143.8564798058
 10
110.6940593972
 20
1143.7368532837
 10
109.9363651528
 20
1143.5759207428
 10
109.3145694985
 20
1143.3798214615
 10
108.8525142922
 20
1143.156065625
 10
108.5679915203
 20
1142.9133555115
 10
108.471908833
 20
1142.6608702362
  0
LINE
  5
42D
330
1F
100
AcDbEntity
  8
0
  6
Continuous
 62
     7
370
    15
100
AcDbLine
 10
663.4719159855
 20
1143.9549466789
 30
0.0
 11
663.4719159855
 21
1144.7277208985
 31
0.0
  0
LWPOLYLINE
  5
42E
330
1F
100
AcDbEntity
  8
0
  6
Continuous
 62
     7
370
    15
100
AcDbPolyline
 90
        9
 70
   128
 43
0.0
 10
668.4719112172
 20
1142.6608702362
 10
668.3758285298
 20
1142.9133555115
 10
668.0913057579
 20
1143.156065625
 10
667.6292505516
 20
1143.3798214615
 10
667.0074548973
 20
1143.5759207428
 10
666.249760653
 20
1143.7368532837
 10
665.3853144898
 20
1143.8564798058
 10
664.4473757996
 20
1143.9300915421
 10
663.4719159855
 20
1143.9549466789
  0
LINE
  5
42F
330
1F
100
AcDbEntity
  8
0
  6
Continuous
 62
     7
370
    15
100
AcDbLine
 10
604.0387835755
 20
1143.9549466789
 30
0.0
 11
604.0387835755
 21
1144.7277208985
 31
0.0
  0
ARC
  5
430
330
1F
100
AcDbEntity
  8
0
  6
Continuous
 62
     7
370
    15
100
AcDbCircle
 10
603.5378417695
 20
1132.7196174206
 30
0.0
 40
11.24649128558876
100
AcDbArc
 50
87.4470837403
 51
110.5945389014
  0
LINE
  5
431
330
1F
100
AcDbEntity
  8
0
  6
Continuous
 62
     7
370
    15
100
AcDbLine
 10
204.038777615
 20
1143.9549466789
 30
0.0
 11
204.038777615
 21
1144.7277208985
 31
0.0
  0
ARC
  5
432
330
1F
100
AcDbEntity
  8
0
  6
Continuous
 62
     7
370
    15
100
AcDbCircle
 10
203.5378487059
 20
1132.7195361838
 30
0.0
 40
11.24657186732707
100
AcDbArc
 50
87.4471678127
 51
110.594454829
  0
LINE
  5
433
330
1F
100
AcDbEntity
  8
0
  6
Continuous
 62
     7
370
    15
100
AcDbLine
 10
304.0387865557
 20
1143.9549466789
 30
0.0
 11
304.0387865557
 21
1144.7277208985
 31
0.0
  0
ARC
  5
434
330
1F
100
AcDbEntity
  8
0
  6
Continuous
 62
     7
370
    15
100
AcDbCircle
 10
303.5378456214
 20
1132.7195702736
 30
0.0
 40
11.24653834696914
100
AcDbArc
 50
87.4470988756
 51
110.5944941022
  0
LINE
  5
435
330
1F
100
AcDbEntity
  8
0
  6
Continuous
 62
     7
370
    15
100
AcDbLine
 10
404.0387852519
 20
1143.9549466789
 30
0.0
 11
404.0387852519
 21
1144.7277208985
 31
0.0
  0
ARC
  5
436
330
1F
100
AcDbEntity
  8
0
  6
Continuous
 62
     7
370
    15
100
AcDbCircle
 10
403.537846129
 20
1132.7195796913
 30
0.0
 40
11.24652885794178
100
AcDbArc
 50
87.4471059579
 51
110.5945018518
  0
LINE
  5
437
330
1F
100
AcDbEntity
  8
0
  6
Continuous
 62
     7
370
    15
100
AcDbLine
 10
504.0387820854
 20
1143.9549466789
 30
0.0
 11
504.0387820854
 21
1144.7277208985
 31
0.0
  0
ARC
  5
438
330
1F
100
AcDbEntity
  8
0
  6
Continuous
 62
     7
370
    15
100
AcDbCircle
 10
503.5378467278
 20
1132.7195768023
 30
0.0
 40
11.2465315763074
100
AcDbArc
 50
87.4471257765
 51
110.5944968652
  0
LINE
  5
439
330
1F
100
AcDbEntity
  8
0
  6
Continuous
 62
     7
370
    15
100
AcDbLine
 10
282.8202929749
 20
1143.9549466789
 30
0.0
 11
204.038777615
 21
1143.9549466789
 31
0.0
  0
LINE
  5
43A
330
1F
100
AcDbEntity
  8
0
  6
Continuous
 62
     7
370
    15
100
AcDbLine
 10
582.8202899947
 20
1143.9549466789
 30
0.0
 11
504.0387820854
 21
1143.9549466789
 31
0.0
  0
LINE
  5
43B
330
1F
100
AcDbEntity
  8
0
  6
Continuous
 62
     7
370
    15
100
AcDbLine
 10
382.8202893427
 20
1143.9549466789
 30
0.0
 11
304.0387865557
 21
1143.9549466789
 31
0.0
  0
LINE
  5
43C
330
1F
100
AcDbEntity
  8
0
  6
Continuous
 62
     7
370
    15
100
AcDbLine
 10
663.4719159855
 20
1143.9549466789
 30
0.0
 11
604.0387835755
 21
1143.9549466789
 31
0.0
  0
LINE
  5
43D
330
1F
100
AcDbEntity
  8
0
  6
Continuous
 62
     7
370
    15
100
AcDbLine
 10
182.8202840342
 20
1143.9549466789
 30
0.0
 11
113.4719040646
 21
1143.9549466789
 31
0.0
  0
LINE
  5
43E
330
1F
100
AcDbEntity
  8
0
  6
Continuous
 62
     7
370
    15
100
AcDbLine
 10
482.8202885045
 20
1143.9549466789
 30
0.0
 11
404.0387852519
 21
1143.9549466789
 31
0.0
  0
LINE
  5
43F
330
1F
100
AcDbEntity
  8
0
  6
Continuous
 62
     7
370
    15
100
AcDbLine
 10
687.6719084038
 20
1146.0916539848
 30
0.0
 11
687.6719084038
 21
1146.0217973412
 31
0.0
  0
LINE
  5
440
330
1F
100
AcDbEntity
  8
0
  6
Continuous
 62
     7
370
    15
100
AcDbLine
 10
89.2719116463
 20
1146.0916539848
 30
0.0
 11
89.2719116463
 21
1146.0217973412
 31
0.0
  0
LINE
  5
441
330
1F
100
AcDbEntity
  8
0
  6
Continuous
 62
     7
370
    15
100
AcDbLine
 10
88.4718981041
 20
1145.1916238487
 30
0.0
 11
88.4718981041
 21
1145.1524635971
 31
0.0
  0
LINE
  5
442
330
1F
100
AcDbEntity
  8
0
  6
Continuous
 62
     7
370
    15
100
AcDbLine
 10
688.471921946
 20
1145.1916238487
 30
0.0
 11
688.471921946
 21
1145.1524635971
 31
0.0
  0
ARC
  5
443
330
1F
100
AcDbEntity
  8
0
  6
Continuous
 62
     7
370
    15
100
AcDbCircle
 10
388.4719100251
 20
1138.6706794768
 30
0.0
 40
2.200000000000065
100
AcDbArc
 50
328.9419533792
 51
1.074935656
  0
ARC
  5
444
330
1F
100
AcDbEntity
  8
0
  6
Continuous
 62
     7
370
    15
100
AcDbCircle
 10
110.4719100251
 20
1138.6706794768
 30
0.0
 40
2.200000000000085
100
AcDbArc
 50
316.1077336738
 51
155.3800226713
  0
ARC
  5
445
330
1F
100
AcDbEntity
  8
0
  6
Continuous
 62
     7
370
    15
100
AcDbCircle
 10
666.4719100251
 20
1138.6706794768
 30
0.0
 40
2.200000000000085
100
AcDbArc
 50
24.6199773287
 51
180.0
  0
LWPOLYLINE
  5
446
330
1F
100
AcDbEntity
  8
0
  6
Continuous
 62
     7
370
    15
100
AcDbPolyline
 90
        3
 70
   128
 43
0.0
 10
664.8864832177
 20
1137.1454140366
 10
664.4393887772
 20
1137.8287812889
 10
664.2718997254
 20
1138.6706968964
  0
LINE
  5
447
330
1F
100
AcDbEntity
  8
0
  6
Continuous
 62
     7
370
    15
100
AcDbLine
 10
122.4742319836
 20
321.0621914089
 30
0.0
 11
158.4735598816
 21
321.0621914089
 31
0.0
  0
ARC
  5
448
330
1F
100
AcDbEntity
  8
0
  6
Continuous
 62
     7
370
    15
100
AcDbCircle
 10
158.4696617746
 20
319.0599440088
 30
0.0
 40
2.002251194711883
100
AcDbArc
 50
0.1002263323
 51
89.888452945
  0
LINE
  5
449
330
1F
100
AcDbEntity
  8
0
  6
Continuous
 62
     7
370
    15
100
AcDbLine
 10
160.4719099058
 20
319.0634465039
 30
0.0
 11
160.4719099058
 21
263.0605464996
 31
0.0
  0
ARC
  5
44A
330
1F
100
AcDbEntity
  8
0
  6
Continuous
 62
     7
370
    15
100
AcDbCircle
 10
158.4699831558
 20
263.0641194934
 30
0.0
 40
2.001929938507284
100
AcDbArc
 50
270.1023669196
 51
359.8977398901
  0
LINE
  5
44B
330
1F
100
AcDbEntity
  8
0
  6
Continuous
 62
     7
370
    15
100
AcDbLine
 10
158.4735598816
 20
261.06219275
 30
0.0
 11
122.4742319836
 21
261.06219275
 31
0.0
  0
ARC
  5
44C
330
1F
100
AcDbEntity
  8
0
  6
Continuous
 62
     7
370
    15
100
AcDbCircle
 10
122.4737528348
 20
263.0640576911
 30
0.0
 40
2.001864998421387
100
AcDbArc
 50
180.2255630356
 51
270.0137138142
  0
LINE
  5
44D
330
1F
100
AcDbEntity
  8
0
  6
Continuous
 62
     7
370
    15
100
AcDbLine
 10
120.4719033493
 20
263.056176734
 30
0.0
 11
120.4719033493
 21
319.0678125442
 31
0.0
  0
ARC
  5
44E
330
1F
100
AcDbEntity
  8
0
  6
Continuous
 62
     7
370
    15
100
AcDbCircle
 10
122.4739998342
 20
319.0600800052
 30
0.0
 40
2.002111417160195
100
AcDbArc
 50
89.9933564223
 51
179.7787121418
  0
LINE
  5
44F
330
1F
100
AcDbEntity
  8
0
  6
Continuous
 62
     7
370
    15
100
AcDbLine
 10
157.9341974511
 20
263.5999089301
 30
0.0
 11
157.9341974511
 21
318.5244789541
 31
0.0
  0
LWPOLYLINE
  5
450
330
1F
100
AcDbEntity
  8
0
  6
Continuous
 62
     7
370
    15
100
AcDbPolyline
 90
        5
 70
   128
 43
0.0
 10
157.9341974511
 20
318.5244789541
 10
158.6824890627
 20
318.6833774865
 10
159.3833353772
 20
318.8322475374
 10
160.0171413674
 20
318.9666485608
 10
160.4719099058
 20
319.0634465039
  0
LWPOLYLINE
  5
451
330
1F
100
AcDbEntity
  8
0
  6
Continuous
 62
     7
370
    15
100
AcDbPolyline
 90
        5
 70
   128
 43
0.0
 10
157.9341974511
 20
263.5999089301
 10
158.6824890627
 20
263.4408911884
 10
159.3833353772
 20
263.2919131041
 10
160.0171264662
 20
263.1574152232
 10
160.4719099058
 20
263.0605464996
  0
LWPOLYLINE
  5
452
330
1F
100
AcDbEntity
  8
0
  6
Continuous
 62
     7
370
    15
100
AcDbPolyline
 90
        5
 70
   128
 43
0.0
 10
158.4735598816
 20
321.0621914089
 10
158.3766874327
 20
320.6074079693
 10
158.2421895518
 20
319.9736168802
 10
158.0932077422
 20
319.2727780164
 10
157.9341974511
 20
318.5244789541
  0
LINE
  5
453
330
1F
100
AcDbEntity
  8
0
  6
Continuous
 62
     7
370
    15
100
AcDbLine
 10
157.9341974511
 20
318.5244789541
 30
0.0
 11
123.0096307053
 21
318.5244789541
 31
0.0
  0
LWPOLYLINE
  5
454
330
1F
100
AcDbEntity
  8
0
  6
Continuous
 62
     7
370
    15
100
AcDbPolyline
 90
        5
 70
   128
 43
0.0
 10
122.4742319836
 20
321.0621914089
 10
122.5703742756
 20
320.6074228705
 10
122.7038886799
 20
319.9736168802
 10
122.8517678036
 20
319.2727780164
 10
123.0096307053
 20
318.5244789541
  0
LINE
  5
455
330
1F
100
AcDbEntity
  8
0
  6
Continuous
 62
     7
370
    15
100
AcDbLine
 10
123.0096307053
 20
263.5999089301
 30
0.0
 11
157.9341974511
 21
263.5999089301
 31
0.0
  0
LINE
  5
456
330
1F
100
AcDbEntity
  8
0
  6
Continuous
 62
     7
370
    15
100
AcDbLine
 10
123.0096307053
 20
318.5244789541
 30
0.0
 11
123.0096307053
 21
263.5999089301
 31
0.0
  0
LWPOLYLINE
  5
457
330
1F
100
AcDbEntity
  8
0
  6
Continuous
 62
     7
370
    15
100
AcDbPolyline
 90
        5
 70
   128
 43
0.0
 10
120.4719033493
 20
319.0678125442
 10
120.926686789
 20
318.9702322901
 10
121.5604927792
 20
318.8347434819
 10
122.2613241925
 20
318.684666437
 10
123.0096307053
 20
318.5244789541
  0
LWPOLYLINE
  5
458
330
1F
100
AcDbEntity
  8
0
  6
Continuous
 62
     7
370
    15
100
AcDbPolyline
 90
        5
 70
   128
 43
0.0
 10
120.4719033493
 20
263.056176734
 10
120.926686789
 20
263.1538277686
 10
121.5604927792
 20
263.2894134343
 10
122.2613241925
 20
263.439602238
 10
123.0096307053
 20
263.5999089301
  0
LWPOLYLINE
  5
459
330
1F
100
AcDbEntity
  8
0
  6
Continuous
 62
     7
370
    15
100
AcDbPolyline
 90
        5
 70
   128
 43
0.0
 10
157.9341974511
 20
263.5999089301
 10
158.0932077422
 20
262.8516098679
 10
158.2421895518
 20
262.150771004
 10
158.3766874327
 20
261.5169612885
 10
158.4735598816
 20
261.06219275
  0
LWPOLYLINE
  5
45A
330
1F
100
AcDbEntity
  8
0
  6
Continuous
 62
     7
370
    15
100
AcDbPolyline
 90
        5
 70
   128
 43
0.0
 10
123.0096307053
 20
263.5999089301
 10
122.8517678036
 20
262.8516098679
 10
122.7038886799
 20
262.150771004
 10
122.5704040779
 20
261.5169761897
 10
122.4742319836
 20
261.06219275
  0
ARC
  5
45B
330
1F
100
AcDbEntity
  8
0
  6
Continuous
 62
     7
370
    15
100
AcDbCircle
 10
158.4722308578
 20
319.0625125844
 30
0.0
 40
1.999679266166374
100
AcDbArc
 50
0.0267591158
 51
89.9619201615
  0
ARC
  5
45C
330
1F
100
AcDbEntity
  8
0
  6
Continuous
 62
     7
370
    15
100
AcDbCircle
 10
122.4714554474
 20
319.0626345341
 30
0.0
 40
1.999558802525025
100
AcDbArc
 50
89.9204405215
 51
179.8516280426
  0
ARC
  5
45D
330
1F
100
AcDbEntity
  8
0
  6
Continuous
 62
     7
370
    15
100
AcDbCircle
 10
158.4724998977
 20
263.0616027562
 30
0.0
 40
1.999410287154771
100
AcDbArc
 50
270.0303752605
 51
359.9697315492
  0
ARC
  5
45E
330
1F
100
AcDbEntity
  8
0
  6
Continuous
 62
     7
370
    15
100
AcDbCircle
 10
122.4711804335
 20
263.0614745245
 30
0.0
 40
1.999284103314283
100
AcDbArc
 50
180.1518250412
 51
270.0874518086
  0
LINE
  5
45F
330
1F
100
AcDbEntity
  8
0
  6
Continuous
 62
     7
370
    15
100
AcDbLine
 10
678.0219164147
 20
233.5121925183
 30
0.0
 11
678.0219164147
 21
752.6121875466
 31
0.0
  0
LINE
  5
460
330
1F
100
AcDbEntity
  8
0
  6
Continuous
 62
     7
370
    15
100
AcDbLine
 10
92.9219212784
 20
233.5121925183
 30
0.0
 11
678.0219164147
 21
233.5121925183
 31
0.0
  0
LINE
  5
461
330
1F
100
AcDbEntity
  8
0
  6
Continuous
 62
     7
370
    15
100
AcDbLine
 10
92.9219212784
 20
752.6121875466
 30
0.0
 11
92.9219212784
 21
233.5121925183
 31
0.0
  0
LINE
  5
462
330
1F
100
AcDbEntity
  8
0
  6
Continuous
 62
     7
370
    15
100
AcDbLine
 10
678.0219164147
 20
752.6121875466
 30
0.0
 11
92.9219212784
 21
752.6121875466
 31
0.0
  0
ARC
  5
463
330
1F
100
AcDbEntity
  8
0
  6
Continuous
 62
     7
370
    15
100
AcDbCircle
 10
89.0017203953
 20
752.2340161314
 30
0.0
 40
3.93839924117841
100
AcDbArc
 50
5.5101222759
 51
45.8977562777
  0
LINE
  5
464
330
1F
100
AcDbEntity
  8
0
  6
Continuous
 62
     7
370
    15
100
AcDbLine
 10
679.2011943116
 20
755.0621768654
 30
0.0
 11
107.1171846642
 21
755.0621768654
 31
0.0
  0
LINE
  5
465
330
1F
100
AcDbEntity
  8
0
  6
Continuous
 62
     7
370
    15
100
AcDbLine
 10
101.8266167893
 20
755.0621768654
 30
0.0
 11
91.7426135792
 21
755.0621768654
 31
0.0
  0
ARC
  5
466
330
1F
100
AcDbEntity
  8
0
  6
Continuous
 62
     7
370
    15
100
AcDbCircle
 10
682.1475734069
 20
752.1351552257
 30
0.0
 40
4.153144044240793
100
AcDbArc
 50
135.1888337855
 51
173.4044193724
  0
LINE
  5
467
330
1F
100
AcDbEntity
  8
0
  6
Continuous
 62
     7
370
    15
100
AcDbLine
 10
679.2011943116
 20
753.8622161568
 30
0.0
 11
679.2011943116
 21
755.0621768654
 31
0.0
  0
ARC
  5
468
330
1F
100
AcDbEntity
  8
0
  6
Continuous
 62
     7
370
    15
100
AcDbCircle
 10
680.111884488
 20
751.8217902678
 30
0.0
 40
2.234433799826122
100
AcDbArc
 50
114.0523330922
 51
159.2840690668
  0
ARC
  5
469
330
1F
100
AcDbEntity
  8
0
  6
Continuous
 62
     7
370
    15
100
AcDbCircle
 10
689.1374877448
 20
732.6538222761
 30
0.0
 40
22.8449615947169
100
AcDbArc
 50
112.2916527708
 51
119.1150940712
  0
ARC
  5
46A
330
1F
100
AcDbEntity
  8
0
  6
Continuous
 62
     7
370
    15
100
AcDbCircle
 10
688.0795201123
 20
743.2035519969
 30
0.0
 40
13.7723569168094
100
AcDbArc
 50
129.7555342007
 51
136.9094273487
  0
LINE
  5
46B
330
1F
100
AcDbEntity
  8
0
  6
Continuous
 62
     7
370
    15
100
AcDbLine
 10
680.4719057335
 20
753.7914654434
 30
0.0
 11
679.2719152226
 21
753.7914654434
 31
0.0
  0
LINE
  5
46C
330
1F
100
AcDbEntity
  8
0
  6
Continuous
 62
     7
370
    15
100
AcDbLine
 10
680.4719057335
 20
753.7914654434
 30
0.0
 11
680.4719057335
 21
232.3329034456
 31
0.0
  0
ARC
  5
46D
330
1F
100
AcDbEntity
  8
0
  6
Continuous
 62
     7
370
    15
100
AcDbCircle
 10
688.3870233965
 20
251.9112574343
 30
0.0
 40
21.11778948015359
100
AcDbArc
 50
240.60527891
 51
247.9875498549
  0
ARC
  5
46E
330
1F
100
AcDbEntity
  8
0
  6
Continuous
 62
     7
370
    15
100
AcDbCircle
 10
107.9519083755
 20
199.1521573746
 30
0.0
 40
37.50350019956783
100
AcDbArc
 50
113.6258390142
 51
117.7807874826
  0
LINE
  5
46F
330
1F
100
AcDbEntity
  8
0
  6
Continuous
 62
     7
370
    15
100
AcDbLine
 10
90.4719021572
 20
753.7914654434
 30
0.0
 11
90.4719021572
 21
232.3329034456
 31
0.0
  0
LWPOLYLINE
  5
470
330
1F
100
AcDbEntity
  8
0
  6
Continuous
 62
     7
370
    15
100
AcDbPolyline
 90
        6
 70
   128
 43
0.0
 10
92.9219212784
 20
752.6121875466
 10
91.8926682724
 20
753.1297942818
 10
91.2353780522
 20
753.4523746193
 10
90.7218840374
 20
753.663851899
 10
90.542325045
 20
753.7381192864
 10
90.4719021572
 20
753.7914654434
  0
ARC
  5
471
330
1F
100
AcDbEntity
  8
0
  6
Continuous
 62
     7
370
    15
100
AcDbCircle
 10
90.9297480307
 20
751.9140305971
 30
0.0
 40
2.110965981505317
100
AcDbArc
 50
19.3130081195
 51
67.3520352101
  0
LINE
  5
472
330
1F
100
AcDbEntity
  8
0
  6
Continuous
 62
     7
370
    15
100
AcDbLine
 10
91.7426135792
 20
753.8622161568
 30
0.0
 11
91.7426135792
 21
755.0621768654
 31
0.0
  0
LINE
  5
473
330
1F
100
AcDbEntity
  8
0
  6
Continuous
 62
     7
370
    15
100
AcDbLine
 10
90.4719021572
 20
753.7914654434
 30
0.0
 11
91.6719224705
 21
753.7914654434
 31
0.0
  0
ARC
  5
474
330
1F
100
AcDbEntity
  8
0
  6
Continuous
 62
     7
370
    15
100
AcDbCircle
 10
83.0510616778
 20
743.4014950765
 30
0.0
 40
13.50076757200575
100
AcDbArc
 50
43.0185202214
 51
50.3165182291
  0
LWPOLYLINE
  5
475
330
1F
100
AcDbEntity
  8
0
  6
Continuous
 62
     7
370
    15
100
AcDbPolyline
 90
       18
 70
   128
 43
0.0
 10
679.2011943116
 20
231.0621924893
 10
679.1133072628
 20
231.0789656088
 10
679.0263738884
 20
231.1283196517
 10
678.9362516655
 20
231.2131743141
 10
678.8504209771
 20
231.3247891337
 10
678.7739482178
 20
231.448323951
 10
678.7049260392
 20
231.5782327399
 10
678.6712792172
 20
231.6476064928
 10
678.5854187264
 20
231.8410957426
 10
678.5089757695
 20
232.0319172189
 10
678.4399535908
 20
232.2173826591
 10
678.4062769665
 20
232.3119281985
 10
678.320446278
 20
232.5634355851
 10
678.2439735188
 20
232.7980161839
 10
678.1749513401
 20
233.0161719777
 10
678.1413045182
 20
233.1242319391
 10
678.0817892804
 20
233.3170362011
 10
678.0219164147
 20
233.5121925183
  0
LINE
  5
476
330
1F
100
AcDbEntity
  8
0
  6
Continuous
 62
     7
370
    15
100
AcDbLine
 10
91.7426135792
 20
231.0621924893
 30
0.0
 11
101.8266167893
 21
231.0621924893
 31
0.0
  0
LINE
  5
477
330
1F
100
AcDbEntity
  8
0
  6
Continuous
 62
     7
370
    15
100
AcDbLine
 10
107.1171846642
 20
231.0621924893
 30
0.0
 11
679.2011943116
 21
231.0621924893
 31
0.0
  0
ARC
  5
478
330
1F
100
AcDbEntity
  8
0
  6
Continuous
 62
     7
370
    15
100
AcDbCircle
 10
88.9033823069
 20
233.9376866164
 30
0.0
 40
4.041002436649141
100
AcDbArc
 50
314.6364338605
 51
353.9558833545
  0
ARC
  5
479
330
1F
100
AcDbEntity
  8
0
  6
Continuous
 62
     7
370
    15
100
AcDbCircle
 10
679.9522418039
 20
234.1520264216
 30
0.0
 40
2.033603582777283
100
AcDbArc
 50
198.3385145383
 51
248.3264043947
  0
LINE
  5
47A
330
1F
100
AcDbEntity
  8
0
  6
Continuous
 62
     7
370
    15
100
AcDbLine
 10
679.2011943116
 20
232.2621927791
 30
0.0
 11
679.2011943116
 21
231.0621924893
 31
0.0
  0
LINE
  5
47B
330
1F
100
AcDbEntity
  8
0
  6
Continuous
 62
     7
370
    15
100
AcDbLine
 10
680.4719057335
 20
232.3329034456
 30
0.0
 11
679.2719152226
 21
232.3329034456
 31
0.0
  0
ARC
  5
47C
330
1F
100
AcDbEntity
  8
0
  6
Continuous
 62
     7
370
    15
100
AcDbCircle
 10
685.6343479034
 20
240.3289439014
 30
0.0
 40
10.21847408321727
100
AcDbArc
 50
221.843689161
 51
231.4908072265
  0
LWPOLYLINE
  5
47D
330
1F
100
AcDbEntity
  8
0
  6
Continuous
 62
     7
370
    15
100
AcDbPolyline
 90
        2
 70
   128
 43
0.0
 10
92.9219212784
 20
233.5121925183
 10
92.9219212784
 20
233.5121925183
  0
LWPOLYLINE
  5
47E
330
1F
100
AcDbEntity
  8
0
  6
Continuous
 62
     7
370
    15
100
AcDbPolyline
 90
        6
 70
   128
 43
0.0
 10
91.6719224705
 20
232.3329034456
 10
91.7263713135
 20
232.386621666
 10
91.8758299603
 20
232.5074384183
 10
92.0903768792
 20
232.6985560552
 10
92.4987879052
 20
233.0979504817
 10
92.9219212784
 20
233.5121925183
  0
LINE
  5
47F
330
1F
100
AcDbEntity
  8
0
  6
Continuous
 62
     7
370
    15
100
AcDbLine
 10
90.4719021572
 20
232.3329034456
 30
0.0
 11
91.6719224705
 21
232.3329034456
 31
0.0
  0
LINE
  5
480
330
1F
100
AcDbEntity
  8
0
  6
Continuous
 62
     7
370
    15
100
AcDbLine
 10
91.7426135792
 20
232.2621927791
 30
0.0
 11
91.7426135792
 21
231.0621924893
 31
0.0
  0
ARC
  5
481
330
1F
100
AcDbEntity
  8
0
  6
Continuous
 62
     7
370
    15
100
AcDbCircle
 10
90.9019544918
 20
234.2366161773
 30
0.0
 40
2.145939294732229
100
AcDbArc
 50
293.0630668699
 51
340.2705687065
  0
ELLIPSE
  5
482
330
1F
100
AcDbEntity
  8
0
  6
Continuous
 62
     7
370
    15
100
AcDbEllipse
 10
645.7719100251
 20
719.4711174293
 30
0.0
 11
0.0
 21
2.12132034355966
 31
0.0
210
0.0
220
0.0
230
1.0
 40
0.7071067812
 41
4.712388980384699
 42
6.283185307179586
  0
LINE
  5
483
330
1F
100
AcDbEntity
  8
0
  6
Continuous
 62
     7
370
    15
100
AcDbLine
 10
645.771899487
 20
721.5924402893
 30
0.0
 11
569.7719093813
 21
721.5924402893
 31
0.0
  0
ELLIPSE
  5
484
330
1F
100
AcDbEntity
  8
0
  6
Continuous
 62
     7
370
    15
100
AcDbEllipse
 10
569.7719100251
 20
719.4711174293
 30
0.0
 11
0.0
 21
-2.12132034355966
 31
0.0
210
0.0
220
0.0
230
1.0
 40
0.7071067812
 41
3.141592653589755
 42
4.712388980384699
  0
LINE
  5
485
330
1F
100
AcDbEntity
  8
0
  6
Continuous
 62
     7
370
    15
100
AcDbLine
 10
568.2719137921
 20
690.7809218586
 30
0.0
 11
568.2719137921
 21
719.4711109818
 31
0.0
  0
ARC
  5
486
330
1F
100
AcDbEntity
  8
0
  6
Continuous
 62
     7
370
    15
100
AcDbCircle
 10
569.7719100251
 20
690.7809154039
 30
0.0
 40
1.5
100
AcDbArc
 50
180.0
 51
270.0
  0
LINE
  5
487
330
1F
100
AcDbEntity
  8
0
  6
Continuous
 62
     7
370
    15
100
AcDbLine
 10
645.771899487
 20
689.2809113682
 30
0.0
 11
569.7719093813
 21
689.2809113682
 31
0.0
  0
ARC
  5
488
330
1F
100
AcDbEntity
  8
0
  6
Continuous
 62
     7
370
    15
100
AcDbCircle
 10
645.7719100251
 20
690.7809154039
 30
0.0
 40
1.5
100
AcDbArc
 50
270.0
 51
0.0
  0
ARC
  5
489
330
1F
100
AcDbEntity
  8
0
  6
Continuous
 62
     7
370
    15
100
AcDbCircle
 10
651.2719100251
 20
687.7809154039
 30
0.0
 40
1.5
100
AcDbArc
 50
270.0
 51
0.0
  0
LINE
  5
48A
330
1F
100
AcDbEntity
  8
0
  6
Continuous
 62
     7
370
    15
100
AcDbLine
 10
651.2719180836
 20
686.2809201897
 30
0.0
 11
564.2719056858
 21
686.2809201897
 31
0.0
  0
ARC
  5
48B
330
1F
100
AcDbEntity
  8
0
  6
Continuous
 62
     7
370
    15
100
AcDbCircle
 10
564.2719100251
 20
687.7809154039
 30
0.0
 40
1.5
100
AcDbArc
 50
180.0
 51
270.0
  0
LINE
  5
48C
330
1F
100
AcDbEntity
  8
0
  6
Continuous
 62
     7
370
    15
100
AcDbLine
 10
562.7719100966
 20
687.7809008778
 30
0.0
 11
562.7719100966
 21
724.7809013546
 31
0.0
  0
ARC
  5
48D
330
1F
100
AcDbEntity
  8
0
  6
Continuous
 62
     7
370
    15
100
AcDbCircle
 10
564.2719100251
 20
724.7809154039
 30
0.0
 40
1.5
100
AcDbArc
 50
90.0
 51
180.0
  0
ARC
  5
48E
330
1F
100
AcDbEntity
  8
0
  6
Continuous
 62
     7
370
    15
100
AcDbCircle
 10
651.2719100251
 20
724.7809154039
 30
0.0
 40
1.5
100
AcDbArc
 50
0.0
 51
90.0
  0
LINE
  5
48F
330
1F
100
AcDbEntity
  8
0
  6
Continuous
 62
     7
370
    15
100
AcDbLine
 10
652.7718987717
 20
724.7809013546
 30
0.0
 11
652.7718987717
 21
687.7809008778
 31
0.0
  0
LINE
  5
490
330
1F
100
AcDbEntity
  8
0
  6
Continuous
 62
     7
370
    15
100
AcDbLine
 10
564.2719056858
 20
726.2809416474
 30
0.0
 11
651.2719180836
 21
726.2809416474
 31
0.0
  0
LINE
  5
491
330
1F
100
AcDbEntity
  8
0
  6
Continuous
 62
     7
370
    15
100
AcDbLine
 10
647.2719099774
 20
719.4711109818
 30
0.0
 11
647.2719099774
 21
690.7809218586
 31
0.0
  0
LINE
  5
492
330
1F
100
AcDbEntity
  8
0
  6
Continuous
 62
     7
370
    15
100
AcDbLine
 10
568.2719137921
 20
716.6943988026
 30
0.0
 11
647.2719099774
 21
716.6943988026
 31
0.0
  0
LINE
  5
493
330
1F
100
AcDbEntity
  8
0
  6
Continuous
 62
     7
370
    15
100
AcDbLine
 10
111.5878608479
 20
230.5621924073
 30
0.0
 11
112.9719105019
 21
230.5621924073
 31
0.0
  0
LINE
  5
494
330
1F
100
AcDbEntity
  8
0
  6
Continuous
 62
     7
370
    15
100
AcDbLine
 10
95.9719207539
 20
230.5621924073
 30
0.0
 11
111.5878608479
 21
230.5621924073
 31
0.0
  0
LINE
  5
495
330
1F
100
AcDbEntity
  8
0
  6
Continuous
 62
     7
370
    15
100
AcDbLine
 10
101.8266167893
 20
231.0621924893
 30
0.0
 11
107.1171846642
 21
231.0621924893
 31
0.0
  0
LWPOLYLINE
  5
496
330
1F
100
AcDbEntity
  8
0
  6
Continuous
 62
     7
370
    15
100
AcDbPolyline
 90
        3
 70
   128
 43
0.0
 10
99.9302950157
 20
231.0621924893
 10
99.8258378758
 20
230.8712960415
 10
99.8208608879
 20
230.862192829
  0
LINE
  5
497
330
1F
100
AcDbEntity
  8
0
  6
Continuous
 62
     7
370
    15
100
AcDbLine
 10
100.1557495846
 20
230.862192829
 30
0.0
 11
99.8208608879
 21
230.862192829
 31
0.0
  0
LWPOLYLINE
  5
498
330
1F
100
AcDbEntity
  8
0
  6
Continuous
 62
     7
370
    15
100
AcDbPolyline
 90
        3
 70
   128
 43
0.0
 10
100.1557495846
 20
230.862192829
 10
100.1607265725
 20
230.8712960415
 10
100.2651539101
 20
231.0621924893
  0
LINE
  5
499
330
1F
100
AcDbEntity
  8
0
  6
Continuous
 62
     7
370
    15
100
AcDbLine
 10
111.5878608479
 20
229.0621926271
 30
0.0
 11
112.9719105019
 21
229.0621926271
 31
0.0
  0
LINE
  5
49A
330
1F
100
AcDbEntity
  8
0
  6
Continuous
 62
     7
370
    15
100
AcDbLine
 10
95.9719207539
 20
229.0621926271
 30
0.0
 11
111.5878608479
 21
229.0621926271
 31
0.0
  0
LINE
  5
49B
330
1F
100
AcDbEntity
  8
0
  6
Continuous
 62
     7
370
    15
100
AcDbLine
 10
96.4719143166
 20
228.5621925451
 30
0.0
 11
109.6378948941
 21
228.5621925451
 31
0.0
  0
LINE
  5
49C
330
1F
100
AcDbEntity
  8
0
  6
Continuous
 62
     7
370
    15
100
AcDbLine
 10
99.9302950157
 20
230.862192829
 30
0.0
 11
99.9302950157
 21
231.0621924893
 31
0.0
  0
LINE
  5
49D
330
1F
100
AcDbEntity
  8
0
  6
Continuous
 62
     7
370
    15
100
AcDbLine
 10
112.9719105019
 20
757.0622107208
 30
0.0
 11
95.9719207539
 21
757.0622107208
 31
0.0
  0
LINE
  5
49E
330
1F
100
AcDbEntity
  8
0
  6
Continuous
 62
     7
370
    15
100
AcDbLine
 10
112.4719169392
 20
757.5621744812
 30
0.0
 11
96.4719143166
 21
757.5621744812
 31
0.0
  0
LINE
  5
49F
330
1F
100
AcDbEntity
  8
0
  6
Continuous
 62
     7
370
    15
100
AcDbLine
 10
112.9719105019
 20
755.5622002304
 30
0.0
 11
95.9719207539
 21
755.5622002304
 31
0.0
  0
LINE
  5
4A0
330
1F
100
AcDbEntity
  8
0
  6
Continuous
 62
     7
370
    15
100
AcDbLine
 10
107.1171846642
 20
755.0621768654
 30
0.0
 11
101.8266167893
 21
755.0621768654
 31
0.0
  0
LINE
  5
4A1
330
1F
100
AcDbEntity
  8
0
  6
Continuous
 62
     7
370
    15
100
AcDbLine
 10
96.4719143166
 20
761.0622188271
 30
0.0
 11
96.4719143166
 21
758.5622212113
 31
0.0
  0
LINE
  5
4A2
330
1F
100
AcDbEntity
  8
0
  6
Continuous
 62
     7
370
    15
100
AcDbLine
 10
96.4719143166
 20
761.0622188271
 30
0.0
 11
109.6378948941
 21
761.0622188271
 31
0.0
  0
LINE
  5
4A3
330
1F
100
AcDbEntity
  8
0
  6
Continuous
 62
     7
370
    15
100
AcDbLine
 10
109.6378948941
 20
761.0622188271
 30
0.0
 11
109.6378948941
 21
758.5622212113
 31
0.0
  0
LINE
  5
4A4
330
1F
100
AcDbEntity
  8
0
  6
Continuous
 62
     7
370
    15
100
AcDbLine
 10
96.4719143166
 20
758.5622212113
 30
0.0
 11
109.6378948941
 21
758.5622212113
 31
0.0
  0
LINE
  5
4A5
330
1F
100
AcDbEntity
  8
0
  6
Continuous
 62
     7
370
    15
100
AcDbLine
 10
154.7006603731
 20
761.0622188271
 30
0.0
 11
154.7006603731
 21
758.5622212113
 31
0.0
  0
LINE
  5
4A6
330
1F
100
AcDbEntity
  8
0
  6
Continuous
 62
     7
370
    15
100
AcDbLine
 10
109.6378948941
 20
758.5622212113
 30
0.0
 11
154.7006603731
 21
758.5622212113
 31
0.0
  0
LINE
  5
4A7
330
1F
100
AcDbEntity
  8
0
  6
Continuous
 62
     7
370
    15
100
AcDbLine
 10
109.6378948941
 20
761.0622188271
 30
0.0
 11
154.7006603731
 21
761.0622188271
 31
0.0
  0
LINE
  5
4A8
330
1F
100
AcDbEntity
  8
0
  6
Continuous
 62
     7
370
    15
100
AcDbLine
 10
156.4719167008
 20
761.0622188271
 30
0.0
 11
156.4719167008
 21
758.5622212113
 31
0.0
  0
LINE
  5
4A9
330
1F
100
AcDbEntity
  8
0
  6
Continuous
 62
     7
370
    15
100
AcDbLine
 10
154.7006603731
 20
758.5622212113
 30
0.0
 11
156.4719167008
 21
758.5622212113
 31
0.0
  0
LINE
  5
4AA
330
1F
100
AcDbEntity
  8
0
  6
Continuous
 62
     7
370
    15
100
AcDbLine
 10
154.7006603731
 20
761.0622188271
 30
0.0
 11
156.4719167008
 21
761.0622188271
 31
0.0
  0
LINE
  5
4AB
330
1F
100
AcDbEntity
  8
0
  6
Continuous
 62
     7
370
    15
100
AcDbLine
 10
96.4719143166
 20
764.0621802033
 30
0.0
 11
96.4719143166
 21
761.0622188271
 31
0.0
  0
LINE
  5
4AC
330
1F
100
AcDbEntity
  8
0
  6
Continuous
 62
     7
370
    15
100
AcDbLine
 10
156.4719167008
 20
764.0621802033
 30
0.0
 11
96.4719143166
 21
764.0621802033
 31
0.0
  0
LINE
  5
4AD
330
1F
100
AcDbEntity
  8
0
  6
Continuous
 62
     7
370
    15
100
AcDbLine
 10
156.4719167008
 20
761.0622188271
 30
0.0
 11
156.4719167008
 21
764.0621802033
 31
0.0
  0
LINE
  5
4AE
330
1F
100
AcDbEntity
  8
0
  6
Continuous
 62
     7
370
    15
100
AcDbLine
 10
156.4719167008
 20
768.5122033775
 30
0.0
 11
156.4719167008
 21
764.0621802033
 31
0.0
  0
LINE
  5
4AF
330
1F
100
AcDbEntity
  8
0
  6
Continuous
 62
     7
370
    15
100
AcDbLine
 10
96.4719143166
 20
764.0621802033
 30
0.0
 11
96.4719143166
 21
768.5122033775
 31
0.0
  0
ARC
  5
4B0
330
1F
100
AcDbEntity
  8
0
  6
Continuous
 62
     7
370
    15
100
AcDbCircle
 10
106.4719100251
 20
769.112192601
 30
0.0
 40
2.8
100
AcDbArc
 50
192.3736251162
 51
347.6263748838
  0
ARC
  5
4B1
330
1F
100
AcDbEntity
  8
0
  6
Continuous
 62
     7
370
    15
100
AcDbCircle
 10
146.4719100251
 20
769.112192601
 30
0.0
 40
2.800000000000018
100
AcDbArc
 50
192.3736251162
 51
347.6263748838
  0
ARC
  5
4B2
330
1F
100
AcDbEntity
  8
0
  6
Continuous
 62
     7
370
    15
100
AcDbCircle
 10
126.4719100251
 20
769.112192601
 30
0.0
 40
2.79999999999999
100
AcDbArc
 50
192.3736251162
 51
347.6263748838
  0
LINE
  5
4B3
330
1F
100
AcDbEntity
  8
0
  6
Continuous
 62
     7
370
    15
100
AcDbLine
 10
100.5719092144
 20
225.5621925773
 30
0.0
 11
108.3719220414
 21
225.5621925773
 31
0.0
  0
LINE
  5
4B4
330
1F
100
AcDbEntity
  8
0
  6
Continuous
 62
     7
370
    15
100
AcDbLine
 10
108.3719220414
 20
761.5621825874
 30
0.0
 11
100.5719092144
 21
761.5621825874
 31
0.0
  0
LINE
  5
4B5
330
1F
100
AcDbEntity
  8
0
  6
Continuous
 62
     7
370
    15
100
AcDbLine
 10
96.4719143166
 20
228.5621925451
 30
0.0
 11
96.4719143166
 21
226.062192601
 31
0.0
  0
LINE
  5
4B6
330
1F
100
AcDbEntity
  8
0
  6
Continuous
 62
     7
370
    15
100
AcDbLine
 10
109.6378948941
 20
228.5621925451
 30
0.0
 11
109.6378948941
 21
226.062192601
 31
0.0
  0
LINE
  5
4B7
330
1F
100
AcDbEntity
  8
0
  6
Continuous
 62
     7
370
    15
100
AcDbLine
 10
96.4719143166
 20
226.062192601
 30
0.0
 11
109.6378948941
 21
226.062192601
 31
0.0
  0
LINE
  5
4B8
330
1F
100
AcDbEntity
  8
0
  6
Continuous
 62
     7
370
    15
100
AcDbLine
 10
156.4719167008
 20
228.5621925451
 30
0.0
 11
156.4719167008
 21
226.062192601
 31
0.0
  0
LINE
  5
4B9
330
1F
100
AcDbEntity
  8
0
  6
Continuous
 62
     7
370
    15
100
AcDbLine
 10
109.6378948941
 20
226.062192601
 30
0.0
 11
156.4719167008
 21
226.062192601
 31
0.0
  0
LINE
  5
4BA
330
1F
100
AcDbEntity
  8
0
  6
Continuous
 62
     7
370
    15
100
AcDbLine
 10
109.6378948941
 20
228.5621925451
 30
0.0
 11
156.4719167008
 21
228.5621925451
 31
0.0
  0
LINE
  5
4BB
330
1F
100
AcDbEntity
  8
0
  6
Continuous
 62
     7
370
    15
100
AcDbLine
 10
156.4719167008
 20
228.5621925451
 30
0.0
 11
156.4719167008
 21
231.0621924893
 31
0.0
  0
LINE
  5
4BC
330
1F
100
AcDbEntity
  8
0
  6
Continuous
 62
     7
370
    15
100
AcDbLine
 10
617.9719057335
 20
897.3008534134
 30
0.0
 11
617.9719057335
 21
890.799894017
 31
0.0
  0
LINE
  5
4BD
330
1F
100
AcDbEntity
  8
0
  6
Continuous
 62
     7
370
    15
100
AcDbLine
 10
158.9719143166
 20
897.3008534134
 30
0.0
 11
158.9719143166
 21
890.799894017
 31
0.0
  0
LINE
  5
4BE
330
1F
100
AcDbEntity
  8
0
  6
Continuous
 62
     7
370
    15
100
AcDbLine
 10
618.9719077601
 20
897.3008534134
 30
0.0
 11
618.9719077601
 21
890.799894017
 31
0.0
  0
LINE
  5
4BF
330
1F
100
AcDbEntity
  8
0
  6
Continuous
 62
     7
370
    15
100
AcDbLine
 10
157.97191229
 20
890.799894017
 30
0.0
 11
157.97191229
 21
897.3008534134
 31
0.0
  0
LINE
  5
4C0
330
1F
100
AcDbEntity
  8
0
  6
Continuous
 62
     7
370
    15
100
AcDbLine
 10
688.471921946
 20
945.7621714295
 30
0.0
 11
687.2719016327
 21
945.7621714295
 31
0.0
  0
LINE
  5
4C1
330
1F
100
AcDbEntity
  8
0
  6
Continuous
 62
     7
370
    15
100
AcDbLine
 10
688.471921946
 20
901.6698142708
 30
0.0
 11
688.471921946
 21
945.7621714295
 31
0.0
  0
LINE
  5
4C2
330
1F
100
AcDbEntity
  8
0
  6
Continuous
 62
     7
370
    15
100
AcDbLine
 10
688.471921946
 20
901.6698142708
 30
0.0
 11
687.2719016327
 21
901.6698142708
 31
0.0
  0
LINE
  5
4C3
330
1F
100
AcDbEntity
  8
0
  6
Continuous
 62
     7
370
    15
100
AcDbLine
 10
688.471921946
 20
892.2621747673
 30
0.0
 11
687.2719016327
 21
892.2621747673
 31
0.0
  0
LINE
  5
4C4
330
1F
100
AcDbEntity
  8
0
  6
Continuous
 62
     7
370
    15
100
AcDbLine
 10
688.471921946
 20
892.2621747673
 30
0.0
 11
688.471921946
 21
901.6698142708
 31
0.0
  0
ARC
  5
4C5
330
1F
100
AcDbEntity
  8
0
  6
Continuous
 62
     7
370
    15
100
AcDbCircle
 10
686.0219100251
 20
893.512192601
 30
0.0
 40
2.450000000000049
100
AcDbArc
 50
270.0
 51
329.3225755274
  0
LINE
  5
4C6
330
1F
100
AcDbEntity
  8
0
  6
Continuous
 62
     7
370
    15
100
AcDbLine
 10
680.4719057335
 20
891.0622140587
 30
0.0
 11
686.0219028248
 21
891.0622140587
 31
0.0
  0
LINE
  5
4C7
330
1F
100
AcDbEntity
  8
0
  6
Continuous
 62
     7
370
    15
100
AcDbLine
 10
678.4719016804
 20
891.0622140587
 30
0.0
 11
678.4719016804
 21
891.3195869148
 31
0.0
  0
LINE
  5
4C8
330
1F
100
AcDbEntity
  8
0
  6
Continuous
 62
     7
370
    15
100
AcDbLine
 10
678.4719016804
 20
891.0622140587
 30
0.0
 11
680.4719057335
 21
891.0622140587
 31
0.0
  0
LINE
  5
4C9
330
1F
100
AcDbEntity
  8
0
  6
Continuous
 62
     7
370
    15
100
AcDbLine
 10
89.6719184174
 20
945.7621714295
 30
0.0
 11
88.4718981041
 21
945.7621714295
 31
0.0
  0
LINE
  5
4CA
330
1F
100
AcDbEntity
  8
0
  6
Continuous
 62
     7
370
    15
100
AcDbLine
 10
89.6719184174
 20
901.6698142708
 30
0.0
 11
88.4718981041
 21
901.6698142708
 31
0.0
  0
LINE
  5
4CB
330
1F
100
AcDbEntity
  8
0
  6
Continuous
 62
     7
370
    15
100
AcDbLine
 10
88.4718981041
 20
901.6698142708
 30
0.0
 11
88.4718981041
 21
945.7621714295
 31
0.0
  0
LINE
  5
4CC
330
1F
100
AcDbEntity
  8
0
  6
Continuous
 62
     7
370
    15
100
AcDbLine
 10
89.6719184174
 20
892.2621747673
 30
0.0
 11
88.4718981041
 21
892.2621747673
 31
0.0
  0
LINE
  5
4CD
330
1F
100
AcDbEntity
  8
0
  6
Continuous
 62
     7
370
    15
100
AcDbLine
 10
88.4718981041
 20
892.2621747673
 30
0.0
 11
88.4718981041
 21
901.6698142708
 31
0.0
  0
LINE
  5
4CE
330
1F
100
AcDbEntity
  8
0
  6
Continuous
 62
     7
370
    15
100
AcDbLine
 10
96.4719143166
 20
891.0622140587
 30
0.0
 11
90.9219172253
 21
891.0622140587
 31
0.0
  0
LINE
  5
4CF
330
1F
100
AcDbEntity
  8
0
  6
Continuous
 62
     7
370
    15
100
AcDbLine
 10
98.4719183697
 20
891.0622140587
 30
0.0
 11
98.4719183697
 21
891.3195869148
 31
0.0
  0
LINE
  5
4D0
330
1F
100
AcDbEntity
  8
0
  6
Continuous
 62
     7
370
    15
100
AcDbLine
 10
98.4719183697
 20
891.0622140587
 30
0.0
 11
96.4719143166
 21
891.0622140587
 31
0.0
  0
ARC
  5
4D1
330
1F
100
AcDbEntity
  8
0
  6
Continuous
 62
     7
370
    15
100
AcDbCircle
 10
90.921910025
 20
893.512192601
 30
0.0
 40
2.450000000000012
100
AcDbArc
 50
210.6774244726
 51
270.0
  0
LINE
  5
4D2
330
1F
100
AcDbEntity
  8
0
  6
Continuous
 62
     7
370
    15
100
AcDbLine
 10
687.2719016327
 20
946.0622212113
 30
0.0
 11
89.6719184174
 21
946.0622212113
 31
0.0
  0
LINE
  5
4D3
330
1F
100
AcDbEntity
  8
0
  6
Continuous
 62
     7
370
    15
100
AcDbLine
 10
687.2719016327
 20
901.3946792305
 30
0.0
 11
687.2719016327
 21
946.0622212113
 31
0.0
  0
LINE
  5
4D4
330
1F
100
AcDbEntity
  8
0
  6
Continuous
 62
     7
370
    15
100
AcDbLine
 10
687.2719016327
 20
901.3946792305
 30
0.0
 11
89.6719184174
 21
901.3946792305
 31
0.0
  0
LINE
  5
4D5
330
1F
100
AcDbEntity
  8
0
  6
Continuous
 62
     7
370
    15
100
AcDbLine
 10
89.6719184174
 20
901.3946792305
 30
0.0
 11
89.6719184174
 21
946.0622212113
 31
0.0
  0
LINE
  5
4D6
330
1F
100
AcDbEntity
  8
0
  6
Continuous
 62
     7
370
    15
100
AcDbLine
 10
668.6719146027
 20
893.5924908341
 30
0.0
 11
668.6719146027
 21
894.6292540253
 31
0.0
  0
LWPOLYLINE
  5
4D7
330
1F
100
AcDbEntity
  8
0
  6
Continuous
 62
     7
370
    15
100
AcDbPolyline
 90
       10
 70
   128
 43
0.0
 10
668.6719146027
 20
894.6292540253
 10
668.4789147629
 20
895.0656196297
 10
667.923250462
 20
895.4494139374
 10
667.0719173207
 20
895.7342645348
 10
666.0275843396
 20
895.8858391464
 10
664.9162259354
 20
895.8858391464
 10
663.8719227566
 20
895.7342645348
 10
663.020559813
 20
895.4494139374
 10
662.464895512
 20
895.0656196297
 10
662.2718956723
 20
894.6292540253
  0
LINE
  5
4D8
330
1F
100
AcDbEntity
  8
0
  6
Continuous
 62
     7
370
    15
100
AcDbLine
 10
662.2718956723
 20
894.6292540253
 30
0.0
 11
662.2718956723
 21
893.5924908341
 31
0.0
  0
LWPOLYLINE
  5
4D9
330
1F
100
AcDbEntity
  8
0
  6
Continuous
 62
     7
370
    15
100
AcDbPolyline
 90
       10
 70
   128
 43
0.0
 10
662.2718956723
 20
893.5924908341
 10
662.464895512
 20
893.156065625
 10
663.020559813
 20
892.7722713173
 10
663.8719227566
 20
892.4874207199
 10
664.9162259354
 20
892.3358461083
 10
666.0275843396
 20
892.3358461083
 10
667.0719173207
 20
892.4874207199
 10
667.923250462
 20
892.7722713173
 10
668.4789147629
 20
893.156065625
 10
668.6719146027
 20
893.5924908341
  0
LINE
  5
4DA
330
1F
100
AcDbEntity
  8
0
  6
Continuous
 62
     7
370
    15
100
AcDbLine
 10
114.6719243779
 20
893.5924908341
 30
0.0
 11
114.6719243779
 21
894.6292540253
 31
0.0
  0
LWPOLYLINE
  5
4DB
330
1F
100
AcDbEntity
  8
0
  6
Continuous
 62
     7
370
    15
100
AcDbPolyline
 90
       10
 70
   128
 43
0.0
 10
114.6719243779
 20
894.6292540253
 10
114.4789245381
 20
895.0656196297
 10
113.9232602372
 20
895.4494139374
 10
113.0718972935
 20
895.7342645348
 10
112.0275941147
 20
895.8858391464
 10
110.9162357106
 20
895.8858391464
 10
109.8719027294
 20
895.7342645348
 10
109.0205695881
 20
895.4494139374
 10
108.4649052872
 20
895.0656196297
 10
108.2719054474
 20
894.6292540253
  0
LINE
  5
4DC
330
1F
100
AcDbEntity
  8
0
  6
Continuous
 62
     7
370
    15
100
AcDbLine
 10
108.2719054474
 20
894.6292540253
 30
0.0
 11
108.2719054474
 21
893.5924908341
 31
0.0
  0
LWPOLYLINE
  5
4DD
330
1F
100
AcDbEntity
  8
0
  6
Continuous
 62
     7
370
    15
100
AcDbPolyline
 90
       10
 70
   128
 43
0.0
 10
108.2719054474
 20
893.5924908341
 10
108.4649052872
 20
893.156065625
 10
109.0205695881
 20
892.7722713173
 10
109.8719027294
 20
892.4874207199
 10
110.9162357106
 20
892.3358461083
 10
112.0275941147
 20
892.3358461083
 10
113.0718972935
 20
892.4874207199
 10
113.9232602372
 20
892.7722713173
 10
114.4789245381
 20
893.156065625
 10
114.6719243779
 20
893.5924908341
  0
LWPOLYLINE
  5
4DE
330
1F
100
AcDbEntity
  8
0
  6
Continuous
 62
     7
370
    15
100
AcDbPolyline
 90
        9
 70
   128
 43
0.0
 10
640.4719140782
 20
896.5033432663
 10
640.4334690823
 20
896.6589113892
 10
640.3196838154
 20
896.8085190476
 10
640.134849812
 20
896.9464441956
 10
639.8861196293
 20
897.0672628105
 10
639.583059813
 20
897.1664449394
 10
639.2372634663
 20
897.2401162804
 10
638.8620820298
 20
897.2855350197
 10
638.4719100251
 20
897.3008534134
  0
LINE
  5
4DF
330
1F
100
AcDbEntity
  8
0
  6
Continuous
 62
     7
370
    15
100
AcDbLine
 10
638.4719100251
 20
897.3008534134
 30
0.0
 11
138.4719100251
 21
897.3008534134
 31
0.0
  0
LWPOLYLINE
  5
4E0
330
1F
100
AcDbEntity
  8
0
  6
Continuous
 62
     7
370
    15
100
AcDbPolyline
 90
        9
 70
   128
 43
0.0
 10
138.4719100251
 20
897.3008534134
 10
138.0817380204
 20
897.2855350197
 10
137.7065565838
 20
897.2401162804
 10
137.3607602372
 20
897.1664449394
 10
137.0577004208
 20
897.0672628105
 10
136.8089702381
 20
896.9464441956
 10
136.6241362347
 20
896.8085190476
 10
136.5103509678
 20
896.6589113892
 10
136.4719059719
 20
896.5033432663
  0
LINE
  5
4E1
330
1F
100
AcDbEntity
  8
0
  6
Continuous
 62
     7
370
    15
100
AcDbLine
 10
136.4719059719
 20
896.5033432663
 30
0.0
 11
136.4719059719
 21
892.1170970619
 31
0.0
  0
LWPOLYLINE
  5
4E2
330
1F
100
AcDbEntity
  8
0
  6
Continuous
 62
     7
370
    15
100
AcDbPolyline
 90
        9
 70
   128
 43
0.0
 10
134.4719019188
 20
891.3195869148
 10
134.8621037258
 20
891.3349053085
 10
135.2372851624
 20
891.3803240479
 10
135.5830517067
 20
891.4539953888
 10
135.8861115231
 20
891.5531775177
 10
136.1348417057
 20
891.6740557373
 10
136.3196757092
 20
891.8119212807
 10
136.4334907784
 20
891.9615289391
 10
136.4719059719
 20
892.1170970619
  0
LINE
  5
4E3
330
1F
100
AcDbEntity
  8
0
  6
Continuous
 62
     7
370
    15
100
AcDbLine
 10
134.4719019188
 20
891.3195869148
 30
0.0
 11
91.6719224705
 21
891.3195869148
 31
0.0
  0
LWPOLYLINE
  5
4E4
330
1F
100
AcDbEntity
  8
0
  6
Continuous
 62
     7
370
    15
100
AcDbPolyline
 90
        9
 70
   128
 43
0.0
 10
89.6719184174
 20
892.1170970619
 10
89.7103336109
 20
891.9615289391
 10
89.8241486801
 20
891.8119212807
 10
90.0089826836
 20
891.6740557373
 10
90.2576830639
 20
891.5531775177
 10
90.5607726826
 20
891.4539953888
 10
90.9065392269
 20
891.3803240479
 10
91.2817206635
 20
891.3349053085
 10
91.6719224705
 20
891.3195869148
  0
LINE
  5
4E5
330
1F
100
AcDbEntity
  8
0
  6
Continuous
 62
     7
370
    15
100
AcDbLine
 10
687.2719016327
 20
892.1170970619
 30
0.0
 11
687.2719016327
 21
901.3946792305
 31
0.0
  0
LWPOLYLINE
  5
4E6
330
1F
100
AcDbEntity
  8
0
  6
Continuous
 62
     7
370
    15
100
AcDbPolyline
 90
        9
 70
   128
 43
0.0
 10
685.2718975796
 20
891.3195869148
 10
685.6620993866
 20
891.3349053085
 10
686.0372808232
 20
891.3803240479
 10
686.3830473675
 20
891.4539953888
 10
686.6861369862
 20
891.5531775177
 10
686.9348373665
 20
891.6740557373
 10
687.11967137
 20
891.8119212807
 10
687.2334864392
 20
891.9615289391
 10
687.2719016327
 20
892.1170970619
  0
LINE
  5
4E7
330
1F
100
AcDbEntity
  8
0
  6
Continuous
 62
     7
370
    15
100
AcDbLine
 10
685.2718975796
 20
891.3195869148
 30
0.0
 11
642.4719181313
 21
891.3195869148
 31
0.0
  0
LWPOLYLINE
  5
4E8
330
1F
100
AcDbEntity
  8
0
  6
Continuous
 62
     7
370
    15
100
AcDbPolyline
 90
        9
 70
   128
 43
0.0
 10
640.4719140782
 20
892.1170970619
 10
640.5103292717
 20
891.9615289391
 10
640.6241443409
 20
891.8119212807
 10
640.8089783444
 20
891.6740557373
 10
641.057708527
 20
891.5531775177
 10
641.3607683434
 20
891.4539953888
 10
641.7065348877
 20
891.3803240479
 10
642.0817163243
 20
891.3349053085
 10
642.4719181313
 20
891.3195869148
  0
LINE
  5
4E9
330
1F
100
AcDbEntity
  8
0
  6
Continuous
 62
     7
370
    15
100
AcDbLine
 10
640.4719140782
 20
892.1170970619
 30
0.0
 11
640.4719140782
 21
896.5033432663
 31
0.0
  0
LINE
  5
4EA
330
1F
100
AcDbEntity
  8
0
  6
Continuous
 62
     7
370
    15
100
AcDbLine
 10
89.6719184174
 20
892.1170970619
 30
0.0
 11
89.6719184174
 21
901.3946792305
 31
0.0
  0
ARC
  5
4EB
330
1F
100
AcDbEntity
  8
0
  6
Continuous
 62
     7
370
    15
100
AcDbCircle
 10
146.4719100251
 20
770.312192601
 30
0.0
 40
2.950000000000045
100
AcDbArc
 50
270.0
 51
322.3982406855
  0
ARC
  5
4EC
330
1F
100
AcDbEntity
  8
0
  6
Continuous
 62
     7
370
    15
100
AcDbCircle
 10
146.4719100251
 20
770.312192601
 30
0.0
 40
2.950000000000045
100
AcDbArc
 50
217.6017593145
 51
270.0
  0
LWPOLYLINE
  5
4ED
330
1F
100
AcDbEntity
  8
0
  6
Continuous
 62
     7
370
    15
100
AcDbPolyline
 90
        3
 70
   128
 43
0.0
 10
146.4719113364
 20
767.7871724785
 10
147.4381920351
 20
767.9793974579
 10
148.2426759257
 20
768.5122033775
  0
LWPOLYLINE
  5
4EE
330
1F
100
AcDbEntity
  8
0
  6
Continuous
 62
     7
370
    15
100
AcDbPolyline
 90
        3
 70
   128
 43
0.0
 10
144.7011467471
 20
768.5122033775
 10
145.5056306376
 20
767.9793974579
 10
146.4719113364
 20
767.7871724785
  0
LWPOLYLINE
  5
4EF
330
1F
100
AcDbEntity
  8
0
  6
Continuous
 62
     7
370
    15
100
AcDbPolyline
 90
        3
 70
   128
 43
0.0
 10
146.4719113364
 20
768.2122132004
 10
147.2755458607
 20
768.3720728577
 10
147.5535717263
 20
768.5122033775
  0
LWPOLYLINE
  5
4F0
330
1F
100
AcDbEntity
  8
0
  6
Continuous
 62
     7
370
    15
100
AcDbPolyline
 90
        3
 70
   128
 43
0.0
 10
145.3902509465
 20
768.5122033775
 10
145.668276812
 20
768.3720728577
 10
146.4719113364
 20
768.2122132004
  0
ARC
  5
4F1
330
1F
100
AcDbEntity
  8
0
  6
Continuous
 62
     7
370
    15
100
AcDbCircle
 10
388.471910025
 20
946.062192601
 30
0.0
 40
2.950000000000045
100
AcDbArc
 50
0.0
 51
180.0
  0
ARC
  5
4F2
330
1F
100
AcDbEntity
  8
0
  6
Continuous
 62
     7
370
    15
100
AcDbCircle
 10
388.471910025
 20
946.062192601
 30
0.0
 40
2.525000000000034
100
AcDbArc
 50
0.0
 51
180.0
  0
ARC
  5
4F3
330
1F
100
AcDbEntity
  8
0
  6
Continuous
 62
     7
370
    15
100
AcDbCircle
 10
388.471910025
 20
946.062192601
 30
0.0
 40
2.100000000000023
100
AcDbArc
 50
0.0
 51
180.0
  0
ARC
  5
4F4
330
1F
100
AcDbEntity
  8
0
  6
Continuous
 62
     7
370
    15
100
AcDbCircle
 10
670.4719100251
 20
770.312192601
 30
0.0
 40
4.0
100
AcDbArc
 50
270.0
 51
333.2563160496
  0
ARC
  5
4F5
330
1F
100
AcDbEntity
  8
0
  6
Continuous
 62
     7
370
    15
100
AcDbCircle
 10
670.4719100251
 20
770.312192601
 30
0.0
 40
4.000000000000099
100
AcDbArc
 50
206.7436839504
 51
270.0
  0
ARC
  5
4F6
330
1F
100
AcDbEntity
  8
0
  6
Continuous
 62
     7
370
    15
100
AcDbCircle
 10
670.4719100251
 20
770.312192601
 30
0.0
 40
2.950000000000045
100
AcDbArc
 50
270.0
 51
322.3982406855
  0
ARC
  5
4F7
330
1F
100
AcDbEntity
  8
0
  6
Continuous
 62
     7
370
    15
100
AcDbCircle
 10
670.4719100251
 20
770.312192601
 30
0.0
 40
2.950000000000101
100
AcDbArc
 50
217.6017593145
 51
270.0
  0
LWPOLYLINE
  5
4F8
330
1F
100
AcDbEntity
  8
0
  6
Continuous
 62
     7
370
    15
100
AcDbPolyline
 90
        3
 70
   128
 43
0.0
 10
670.4719152703
 20
767.7871724785
 10
671.438195969
 20
767.9793974579
 10
672.2426798596
 20
768.5122033775
  0
LWPOLYLINE
  5
4F9
330
1F
100
AcDbEntity
  8
0
  6
Continuous
 62
     7
370
    15
100
AcDbPolyline
 90
        3
 70
   128
 43
0.0
 10
668.701150681
 20
768.5122033775
 10
669.5056345715
 20
767.9793974579
 10
670.4719152703
 20
767.7871724785
  0
LWPOLYLINE
  5
4FA
330
1F
100
AcDbEntity
  8
0
  6
Continuous
 62
     7
370
    15
100
AcDbPolyline
 90
        3
 70
   128
 43
0.0
 10
670.4719152703
 20
768.2122132004
 10
671.2755348935
 20
768.3720728577
 10
671.553560759
 20
768.5122033775
  0
LWPOLYLINE
  5
4FB
330
1F
100
AcDbEntity
  8
0
  6
Continuous
 62
     7
370
    15
100
AcDbPolyline
 90
        3
 70
   128
 43
0.0
 10
669.3902399792
 20
768.5122033775
 10
669.6682658448
 20
768.3720728577
 10
670.4719152703
 20
768.2122132004
  0
ARC
  5
4FC
330
1F
100
AcDbEntity
  8
0
  6
Continuous
 62
     7
370
    15
100
AcDbCircle
 10
630.4719100251
 20
770.312192601
 30
0.0
 40
4.000000000000149
100
AcDbArc
 50
270.0
 51
333.2563160496
  0
ARC
  5
4FD
330
1F
100
AcDbEntity
  8
0
  6
Continuous
 62
     7
370
    15
100
AcDbCircle
 10
630.4719100251
 20
770.312192601
 30
0.0
 40
4.0
100
AcDbArc
 50
206.7436839504
 51
270.0
  0
ARC
  5
4FE
330
1F
100
AcDbEntity
  8
0
  6
Continuous
 62
     7
370
    15
100
AcDbCircle
 10
630.4719100251
 20
770.312192601
 30
0.0
 40
2.950000000000045
100
AcDbArc
 50
270.0
 51
322.3982406855
  0
ARC
  5
4FF
330
1F
100
AcDbEntity
  8
0
  6
Continuous
 62
     7
370
    15
100
AcDbCircle
 10
630.4719100251
 20
770.312192601
 30
0.0
 40
2.950000000000045
100
AcDbArc
 50
217.6017593145
 51
270.0
  0
LWPOLYLINE
  5
500
330
1F
100
AcDbEntity
  8
0
  6
Continuous
 62
     7
370
    15
100
AcDbPolyline
 90
        3
 70
   128
 43
0.0
 10
630.4719087138
 20
767.7871724785
 10
631.4381894125
 20
767.9793974579
 10
632.2426733031
 20
768.5122033775
  0
LWPOLYLINE
  5
501
330
1F
100
AcDbEntity
  8
0
  6
Continuous
 62
     7
370
    15
100
AcDbPolyline
 90
        3
 70
   128
 43
0.0
 10
628.7011441244
 20
768.5122033775
 10
629.505628015
 20
767.9793974579
 10
630.4719087138
 20
767.7871724785
  0
LWPOLYLINE
  5
502
330
1F
100
AcDbEntity
  8
0
  6
Continuous
 62
     7
370
    15
100
AcDbPolyline
 90
        3
 70
   128
 43
0.0
 10
630.4719087138
 20
768.2122132004
 10
631.2755432381
 20
768.3720728577
 10
631.5535691037
 20
768.5122033775
  0
LWPOLYLINE
  5
503
330
1F
100
AcDbEntity
  8
0
  6
Continuous
 62
     7
370
    15
100
AcDbPolyline
 90
        3
 70
   128
 43
0.0
 10
629.3902483239
 20
768.5122033775
 10
629.6682741894
 20
768.3720728577
 10
630.4719087138
 20
768.2122132004
  0
ARC
  5
504
330
1F
100
AcDbEntity
  8
0
  6
Continuous
 62
     7
370
    15
100
AcDbCircle
 10
106.4719100251
 20
770.312192601
 30
0.0
 40
2.950000000000045
100
AcDbArc
 50
270.0
 51
322.3982406855
  0
ARC
  5
505
330
1F
100
AcDbEntity
  8
0
  6
Continuous
 62
     7
370
    15
100
AcDbCircle
 10
106.4719100251
 20
770.312192601
 30
0.0
 40
2.950000000000045
100
AcDbArc
 50
217.6017593145
 51
270.0
  0
LWPOLYLINE
  5
506
330
1F
100
AcDbEntity
  8
0
  6
Continuous
 62
     7
370
    15
100
AcDbPolyline
 90
        3
 70
   128
 43
0.0
 10
106.4719047798
 20
767.7871724785
 10
107.4381854786
 20
767.9793974579
 10
108.2426693692
 20
768.5122033775
  0
LWPOLYLINE
  5
507
330
1F
100
AcDbEntity
  8
0
  6
Continuous
 62
     7
370
    15
100
AcDbPolyline
 90
        3
 70
   128
 43
0.0
 10
104.7011401905
 20
768.5122033775
 10
105.5056240811
 20
767.9793974579
 10
106.4719047798
 20
767.7871724785
  0
LWPOLYLINE
  5
508
330
1F
100
AcDbEntity
  8
0
  6
Continuous
 62
     7
370
    15
100
AcDbPolyline
 90
        3
 70
   128
 43
0.0
 10
106.4719047798
 20
768.2122132004
 10
107.2755542054
 20
768.3720728577
 10
107.5535800709
 20
768.5122033775
  0
LWPOLYLINE
  5
509
330
1F
100
AcDbEntity
  8
0
  6
Continuous
 62
     7
370
    15
100
AcDbPolyline
 90
        3
 70
   128
 43
0.0
 10
105.3902592911
 20
768.5122033775
 10
105.6682851567
 20
768.3720728577
 10
106.4719047798
 20
768.2122132004
  0
LINE
  5
50A
330
1F
100
AcDbEntity
  8
0
  6
Continuous
 62
     7
370
    15
100
AcDbLine
 10
555.9719141974
 20
767.9621717156
 30
0.0
 11
555.9719141974
 21
768.5122033775
 31
0.0
  0
LINE
  5
50B
330
1F
100
AcDbEntity
  8
0
  6
Continuous
 62
     7
370
    15
100
AcDbLine
 10
570.9719147934
 20
768.5122033775
 30
0.0
 11
570.9719147934
 21
767.9621717156
 31
0.0
  0
LINE
  5
50C
330
1F
100
AcDbEntity
  8
0
  6
Continuous
 62
     7
370
    15
100
AcDbLine
 10
570.9719147934
 20
767.9621717156
 30
0.0
 11
571.5719100489
 21
767.9621717156
 31
0.0
  0
LINE
  5
50D
330
1F
100
AcDbEntity
  8
0
  6
Continuous
 62
     7
370
    15
100
AcDbLine
 10
571.5719100489
 20
767.9621717156
 30
0.0
 11
571.5719100489
 21
768.5122033775
 31
0.0
  0
LINE
  5
50E
330
1F
100
AcDbEntity
  8
0
  6
Continuous
 62
     7
370
    15
100
AcDbLine
 10
555.3719040408
 20
768.5122033775
 30
0.0
 11
555.3719040408
 21
767.9621717156
 31
0.0
  0
LINE
  5
50F
330
1F
100
AcDbEntity
  8
0
  6
Continuous
 62
     7
370
    15
100
AcDbLine
 10
555.3719040408
 20
767.9621717156
 30
0.0
 11
555.9719141974
 21
767.9621717156
 31
0.0
  0
LINE
  5
510
330
1F
100
AcDbEntity
  8
0
  6
Continuous
 62
     7
370
    15
100
AcDbLine
 10
205.9719052567
 20
767.9621717156
 30
0.0
 11
205.9719052567
 21
768.5122033775
 31
0.0
  0
LINE
  5
511
330
1F
100
AcDbEntity
  8
0
  6
Continuous
 62
     7
370
    15
100
AcDbLine
 10
220.9719058527
 20
768.5122033775
 30
0.0
 11
220.9719058527
 21
767.9621717156
 31
0.0
  0
LINE
  5
512
330
1F
100
AcDbEntity
  8
0
  6
Continuous
 62
     7
370
    15
100
AcDbLine
 10
220.9719058527
 20
767.9621717156
 30
0.0
 11
221.5719160094
 21
767.9621717156
 31
0.0
  0
LINE
  5
513
330
1F
100
AcDbEntity
  8
0
  6
Continuous
 62
     7
370
    15
100
AcDbLine
 10
221.5719160094
 20
767.9621717156
 30
0.0
 11
221.5719160094
 21
768.5122033775
 31
0.0
  0
LINE
  5
514
330
1F
100
AcDbEntity
  8
0
  6
Continuous
 62
     7
370
    15
100
AcDbLine
 10
205.3719100012
 20
768.5122033775
 30
0.0
 11
205.3719100012
 21
767.9621717156
 31
0.0
  0
LINE
  5
515
330
1F
100
AcDbEntity
  8
0
  6
Continuous
 62
     7
370
    15
100
AcDbLine
 10
205.3719100012
 20
767.9621717156
 30
0.0
 11
205.9719052567
 21
767.9621717156
 31
0.0
  0
LINE
  5
516
330
1F
100
AcDbEntity
  8
0
  6
Continuous
 62
     7
370
    15
100
AcDbLine
 10
619.6719047083
 20
768.5122033775
 30
0.0
 11
619.6719047083
 21
755.0621768654
 31
0.0
  0
LINE
  5
517
330
1F
100
AcDbEntity
  8
0
  6
Continuous
 62
     7
370
    15
100
AcDbLine
 10
678.4719016804
 20
891.0622140587
 30
0.0
 11
678.4719016804
 21
890.799894017
 31
0.0
  0
LINE
  5
518
330
1F
100
AcDbEntity
  8
0
  6
Continuous
 62
     7
370
    15
100
AcDbLine
 10
621.6719087614
 20
229.0621926271
 30
0.0
 11
686.4219095959
 21
229.0621926271
 31
0.0
  0
ARC
  5
519
330
1F
100
AcDbEntity
  8
0
  6
Continuous
 62
     7
370
    15
100
AcDbCircle
 10
621.6719100251
 20
231.062192601
 30
0.0
 40
2.0
100
AcDbArc
 50
180.0
 51
270.0
  0
ARC
  5
51A
330
1F
100
AcDbEntity
  8
0
  6
Continuous
 62
     7
370
    15
100
AcDbCircle
 10
670.4719100251
 20
770.312192601
 30
0.0
 40
5.000000000000072
100
AcDbArc
 50
201.1001960241
 51
338.8998039759
  0
ARC
  5
51B
330
1F
100
AcDbEntity
  8
0
  6
Continuous
 62
     7
370
    15
100
AcDbCircle
 10
630.4719100251
 20
770.312192601
 30
0.0
 40
5.000000000000137
100
AcDbArc
 50
201.1001960241
 51
338.8998039759
  0
LINE
  5
51C
330
1F
100
AcDbEntity
  8
0
  6
Continuous
 62
     7
370
    15
100
AcDbLine
 10
686.4219095959
 20
229.0621926271
 30
0.0
 11
688.471921946
 21
229.0621926271
 31
0.0
  0
LINE
  5
51D
330
1F
100
AcDbEntity
  8
0
  6
Continuous
 62
     7
370
    15
100
AcDbLine
 10
688.471921946
 20
892.2621747673
 30
0.0
 11
688.471921946
 21
890.799894017
 31
0.0
  0
LINE
  5
51E
330
1F
100
AcDbEntity
  8
0
  6
Continuous
 62
     7
370
    15
100
AcDbLine
 10
688.471921946
 20
768.5122033775
 30
0.0
 11
688.471921946
 21
229.0621926271
 31
0.0
  0
LINE
  5
51F
330
1F
100
AcDbEntity
  8
0
  6
Continuous
 62
     7
370
    15
100
AcDbLine
 10
687.6719084038
 20
227.3121925731
 30
0.0
 11
688.471921946
 21
227.3121925731
 31
0.0
  0
LINE
  5
520
330
1F
100
AcDbEntity
  8
0
  6
Continuous
 62
     7
370
    15
100
AcDbLine
 10
687.6719084038
 20
228.8121925861
 30
0.0
 11
688.471921946
 21
228.8121925861
 31
0.0
  0
LINE
  5
521
330
1F
100
AcDbEntity
  8
0
  6
Continuous
 62
     7
370
    15
100
AcDbLine
 10
688.471921946
 20
227.3121925731
 30
0.0
 11
688.471921946
 21
228.8121925861
 31
0.0
  0
LINE
  5
522
330
1F
100
AcDbEntity
  8
0
  6
Continuous
 62
     7
370
    15
100
AcDbLine
 10
687.6719084038
 20
227.3121925731
 30
0.0
 11
687.6719084038
 21
228.8121925861
 31
0.0
  0
LINE
  5
523
330
1F
100
AcDbEntity
  8
0
  6
Continuous
 62
     7
370
    15
100
AcDbLine
 10
688.471921946
 20
228.8121925861
 30
0.0
 11
688.471921946
 21
229.0621926271
 31
0.0
  0
LINE
  5
524
330
1F
100
AcDbEntity
  8
0
  6
Continuous
 62
     7
370
    15
100
AcDbLine
 10
687.6719084038
 20
228.8121925861
 30
0.0
 11
687.6719084038
 21
229.0621926271
 31
0.0
  0
LINE
  5
525
330
1F
100
AcDbEntity
  8
0
  6
Continuous
 62
     7
370
    15
100
AcDbLine
 10
679.6719219937
 20
225.2621926212
 30
0.0
 11
679.6719219937
 21
226.062192601
 31
0.0
  0
LINE
  5
526
330
1F
100
AcDbEntity
  8
0
  6
Continuous
 62
     7
370
    15
100
AcDbLine
 10
677.6719179406
 20
225.2621926212
 30
0.0
 11
677.6719179406
 21
226.062192601
 31
0.0
  0
LINE
  5
527
330
1F
100
AcDbEntity
  8
0
  6
Continuous
 62
     7
370
    15
100
AcDbLine
 10
679.6719219937
 20
226.062192601
 30
0.0
 11
677.6719179406
 21
226.062192601
 31
0.0
  0
LINE
  5
528
330
1F
100
AcDbEntity
  8
0
  6
Continuous
 62
     7
370
    15
100
AcDbLine
 10
679.6719219937
 20
225.2621926212
 30
0.0
 11
677.6719179406
 21
225.2621926212
 31
0.0
  0
LINE
  5
529
330
1F
100
AcDbEntity
  8
0
  6
Continuous
 62
     7
370
    15
100
AcDbLine
 10
686.4219095959
 20
226.062192601
 30
0.0
 11
686.4219095959
 21
225.2621926212
 31
0.0
  0
LINE
  5
52A
330
1F
100
AcDbEntity
  8
0
  6
Continuous
 62
     7
370
    15
100
AcDbLine
 10
686.4219095959
 20
226.062192601
 30
0.0
 11
679.6719219937
 21
226.062192601
 31
0.0
  0
LINE
  5
52B
330
1F
100
AcDbEntity
  8
0
  6
Continuous
 62
     7
370
    15
100
AcDbLine
 10
686.4219095959
 20
225.2621926212
 30
0.0
 11
679.6719219937
 21
225.2621926212
 31
0.0
  0
ARC
  5
52C
330
1F
100
AcDbEntity
  8
0
  6
Continuous
 62
     7
370
    15
100
AcDbCircle
 10
686.4219100251
 20
227.312192601
 30
0.0
 40
1.25
100
AcDbArc
 50
270.0
 51
0.0
  0
ARC
  5
52D
330
1F
100
AcDbEntity
  8
0
  6
Continuous
 62
     7
370
    15
100
AcDbCircle
 10
686.4219100251
 20
227.312192601
 30
0.0
 40
2.050000000000068
100
AcDbArc
 50
270.0
 51
0.0
  0
ARC
  5
52E
330
1F
100
AcDbEntity
  8
0
  6
Continuous
 62
     7
370
    15
100
AcDbCircle
 10
676.6771031213
 20
251.7388100134
 30
0.0
 40
27.45700025039208
100
AcDbArc
 50
290.7880234881
 51
292.746970247
  0
ARC
  5
52F
330
1F
100
AcDbEntity
  8
0
  6
Continuous
 62
     7
370
    15
100
AcDbCircle
 10
685.7354290187
 20
228.0096679315
 30
0.0
 40
2.058257584611334
100
AcDbArc
 50
289.4828752829
 51
340.1921457257
  0
LINE
  5
530
330
1F
100
AcDbEntity
  8
0
  6
Continuous
 62
     7
370
    15
100
AcDbLine
 10
686.4219095959
 20
226.069263669
 30
0.0
 11
673.9190008892
 21
226.069263669
 31
0.0
  0
LINE
  5
531
330
1F
100
AcDbEntity
  8
0
  6
Continuous
 62
     7
370
    15
100
AcDbLine
 10
90.5219104542
 20
229.0621926271
 30
0.0
 11
88.4718981041
 21
229.0621926271
 31
0.0
  0
LINE
  5
532
330
1F
100
AcDbEntity
  8
0
  6
Continuous
 62
     7
370
    15
100
AcDbLine
 10
88.4718981041
 20
229.0621926271
 30
0.0
 11
88.4718981041
 21
768.5122033775
 31
0.0
  0
LINE
  5
533
330
1F
100
AcDbEntity
  8
0
  6
Continuous
 62
     7
370
    15
100
AcDbLine
 10
88.4718981041
 20
890.799894017
 30
0.0
 11
88.4718981041
 21
892.2621747673
 31
0.0
  0
ARC
  5
534
330
1F
100
AcDbEntity
  8
0
  6
Continuous
 62
     7
370
    15
100
AcDbCircle
 10
155.2719100251
 20
231.062192601
 30
0.0
 40
2.0
100
AcDbArc
 50
306.8698976459
 51
0.0
  0
LINE
  5
535
330
1F
100
AcDbEntity
  8
0
  6
Continuous
 62
     7
370
    15
100
AcDbLine
 10
90.5219104542
 20
229.0621926271
 30
0.0
 11
95.9719207539
 21
229.0621926271
 31
0.0
  0
LINE
  5
536
330
1F
100
AcDbEntity
  8
0
  6
Continuous
 62
     7
370
    15
100
AcDbLine
 10
98.4719183697
 20
890.799894017
 30
0.0
 11
98.4719183697
 21
891.0622140587
 31
0.0
  0
LINE
  5
537
330
1F
100
AcDbEntity
  8
0
  6
Continuous
 62
     7
370
    15
100
AcDbLine
 10
157.2719153418
 20
755.0621768654
 30
0.0
 11
157.2719153418
 21
768.5122033775
 31
0.0
  0
LINE
  5
538
330
1F
100
AcDbEntity
  8
0
  6
Continuous
 62
     7
370
    15
100
AcDbLine
 10
89.2719116463
 20
228.8121925861
 30
0.0
 11
88.4718981041
 21
228.8121925861
 31
0.0
  0
LINE
  5
539
330
1F
100
AcDbEntity
  8
0
  6
Continuous
 62
     7
370
    15
100
AcDbLine
 10
88.4718981041
 20
229.0621926271
 30
0.0
 11
88.4718981041
 21
228.8121925861
 31
0.0
  0
LINE
  5
53A
330
1F
100
AcDbEntity
  8
0
  6
Continuous
 62
     7
370
    15
100
AcDbLine
 10
89.2719116463
 20
229.0621926271
 30
0.0
 11
89.2719116463
 21
228.8121925861
 31
0.0
  0
LINE
  5
53B
330
1F
100
AcDbEntity
  8
0
  6
Continuous
 62
     7
370
    15
100
AcDbLine
 10
89.2719116463
 20
227.3121925731
 30
0.0
 11
88.4718981041
 21
227.3121925731
 31
0.0
  0
LINE
  5
53C
330
1F
100
AcDbEntity
  8
0
  6
Continuous
 62
     7
370
    15
100
AcDbLine
 10
88.4718981041
 20
228.8121925861
 30
0.0
 11
88.4718981041
 21
227.3121925731
 31
0.0
  0
LINE
  5
53D
330
1F
100
AcDbEntity
  8
0
  6
Continuous
 62
     7
370
    15
100
AcDbLine
 10
89.2719116463
 20
228.8121925861
 30
0.0
 11
89.2719116463
 21
227.3121925731
 31
0.0
  0
LINE
  5
53E
330
1F
100
AcDbEntity
  8
0
  6
Continuous
 62
     7
370
    15
100
AcDbLine
 10
90.5219104542
 20
226.062192601
 30
0.0
 11
90.5219104542
 21
225.2621926212
 31
0.0
  0
ARC
  5
53F
330
1F
100
AcDbEntity
  8
0
  6
Continuous
 62
     7
370
    15
100
AcDbCircle
 10
90.5219100251
 20
227.312192601
 30
0.0
 40
1.249999999999801
100
AcDbArc
 50
180.0
 51
270.0
  0
ARC
  5
540
330
1F
100
AcDbEntity
  8
0
  6
Continuous
 62
     7
370
    15
100
AcDbCircle
 10
90.5219100251
 20
227.312192601
 30
0.0
 40
2.049999999999812
100
AcDbArc
 50
180.0
 51
270.0
  0
LINE
  5
541
330
1F
100
AcDbEntity
  8
0
  6
Continuous
 62
     7
370
    15
100
AcDbLine
 10
97.2718980564
 20
225.2621926212
 30
0.0
 11
97.2718980564
 21
226.062192601
 31
0.0
  0
LINE
  5
542
330
1F
100
AcDbEntity
  8
0
  6
Continuous
 62
     7
370
    15
100
AcDbLine
 10
97.2718980564
 20
225.2621926212
 30
0.0
 11
90.5219104542
 21
225.2621926212
 31
0.0
  0
LINE
  5
543
330
1F
100
AcDbEntity
  8
0
  6
Continuous
 62
     7
370
    15
100
AcDbLine
 10
96.4719143166
 20
226.062192601
 30
0.0
 11
90.5219104542
 21
226.062192601
 31
0.0
  0
LINE
  5
544
330
1F
100
AcDbEntity
  8
0
  6
Continuous
 62
     7
370
    15
100
AcDbLine
 10
99.2719021096
 20
225.2621926212
 30
0.0
 11
99.2719021096
 21
226.062192601
 31
0.0
  0
LINE
  5
545
330
1F
100
AcDbEntity
  8
0
  6
Continuous
 62
     7
370
    15
100
AcDbLine
 10
99.2719021096
 20
225.2621926212
 30
0.0
 11
97.2718980564
 21
225.2621926212
 31
0.0
  0
ARC
  5
546
330
1F
100
AcDbEntity
  8
0
  6
Continuous
 62
     7
370
    15
100
AcDbCircle
 10
100.2619626292
 20
251.7318932466
 30
0.0
 40
27.44884648229121
100
AcDbArc
 50
247.2567895665
 51
249.216130273
  0
ARC
  5
547
330
1F
100
AcDbEntity
  8
0
  6
Continuous
 62
     7
370
    15
100
AcDbCircle
 10
91.208367282
 20
228.009644047
 30
0.0
 40
2.058227146746931
100
AcDbArc
 50
199.807452762
 51
250.5175262294
  0
LINE
  5
548
330
1F
100
AcDbEntity
  8
0
  6
Continuous
 62
     7
370
    15
100
AcDbLine
 10
90.5219104542
 20
226.069263669
 30
0.0
 11
96.4719143166
 21
226.069263669
 31
0.0
  0
LINE
  5
549
330
1F
100
AcDbEntity
  8
0
  6
Continuous
 62
     7
370
    15
100
AcDbLine
 10
666.9719007267
 20
62.0621880711
 30
0.0
 11
609.9719044222
 21
62.0621880711
 31
0.0
  0
LINE
  5
54A
330
1F
100
AcDbEntity
  8
0
  6
Continuous
 62
     7
370
    15
100
AcDbLine
 10
664.9718966736
 20
56.0621908129
 30
0.0
 11
611.9719084753
 21
56.0621908129
 31
0.0
  0
LINE
  5
54B
330
1F
100
AcDbEntity
  8
0
  6
Continuous
 62
     7
370
    15
100
AcDbLine
 10
166.9719156279
 20
62.0621880711
 30
0.0
 11
109.9719193234
 21
62.0621880711
 31
0.0
  0
LINE
  5
54C
330
1F
100
AcDbEntity
  8
0
  6
Continuous
 62
     7
370
    15
100
AcDbLine
 10
164.9719115748
 20
56.0621908129
 30
0.0
 11
111.9719233765
 21
56.0621908129
 31
0.0
  0
LINE
  5
54D
330
1F
100
AcDbEntity
  8
0
  6
Continuous
 62
     7
370
    15
100
AcDbLine
 10
603.4719136013
 20
224.062192506
 30
0.0
 11
603.4719136013
 21
226.062192601
 31
0.0
  0
LINE
  5
54E
330
1F
100
AcDbEntity
  8
0
  6
Continuous
 62
     7
370
    15
100
AcDbLine
 10
603.4719136013
 20
224.062192506
 30
0.0
 11
673.4719064488
 21
224.062192506
 31
0.0
  0
LINE
  5
54F
330
1F
100
AcDbEntity
  8
0
  6
Continuous
 62
     7
370
    15
100
AcDbLine
 10
673.4719064488
 20
224.062192506
 30
0.0
 11
673.4719064488
 21
226.062192601
 31
0.0
  0
LINE
  5
550
330
1F
100
AcDbEntity
  8
0
  6
Continuous
 62
     7
370
    15
100
AcDbLine
 10
669.431545998
 20
130.0621917666
 30
0.0
 11
607.5122591509
 21
130.0621917666
 31
0.0
  0
LINE
  5
551
330
1F
100
AcDbEntity
  8
0
  6
Continuous
 62
     7
370
    15
100
AcDbLine
 10
173.4719064488
 20
224.062192506
 30
0.0
 11
173.4719064488
 21
226.062192601
 31
0.0
  0
LINE
  5
552
330
1F
100
AcDbEntity
  8
0
  6
Continuous
 62
     7
370
    15
100
AcDbLine
 10
103.4719136013
 20
224.062192506
 30
0.0
 11
173.4719064488
 21
224.062192506
 31
0.0
  0
LINE
  5
553
330
1F
100
AcDbEntity
  8
0
  6
Continuous
 62
     7
370
    15
100
AcDbLine
 10
103.4719136013
 20
224.062192506
 30
0.0
 11
103.4719136013
 21
225.5621925773
 31
0.0
  0
LINE
  5
554
330
1F
100
AcDbEntity
  8
0
  6
Continuous
 62
     7
370
    15
100
AcDbLine
 10
169.4315608992
 20
130.0621917666
 30
0.0
 11
107.5122740521
 21
130.0621917666
 31
0.0
  0
LINE
  5
555
330
1F
100
AcDbEntity
  8
0
  6
Continuous
 62
     7
370
    15
100
AcDbLine
 10
679.6719219937
 20
228.8621925012
 30
0.0
 11
678.4719016804
 21
228.8621925012
 31
0.0
  0
LINE
  5
556
330
1F
100
AcDbEntity
  8
0
  6
Continuous
 62
     7
370
    15
100
AcDbLine
 10
678.4719016804
 20
229.0621926271
 30
0.0
 11
678.4719016804
 21
228.8621925012
 31
0.0
  0
LINE
  5
557
330
1F
100
AcDbEntity
  8
0
  6
Continuous
 62
     7
370
    15
100
AcDbLine
 10
679.6719219937
 20
229.0621926271
 30
0.0
 11
679.6719219937
 21
228.8621925012
 31
0.0
  0
LINE
  5
558
330
1F
100
AcDbEntity
  8
0
  6
Continuous
 62
     7
370
    15
100
AcDbLine
 10
677.2219028725
 20
228.8621925012
 30
0.0
 11
678.4719016804
 21
228.8621925012
 31
0.0
  0
LINE
  5
559
330
1F
100
AcDbEntity
  8
0
  6
Continuous
 62
     7
370
    15
100
AcDbLine
 10
676.4718976273
 20
228.8621925012
 30
0.0
 11
677.2219028725
 21
228.8621925012
 31
0.0
  0
ARC
  5
55A
330
1F
100
AcDbEntity
  8
0
  6
Continuous
 62
     7
370
    15
100
AcDbCircle
 10
634.9719100251
 20
893.062192601
 30
0.0
 40
3.200000000000028
100
AcDbArc
 50
0.0
 51
224.9894615217
  0
ARC
  5
55B
330
1F
100
AcDbEntity
  8
0
  6
Continuous
 62
     7
370
    15
100
AcDbCircle
 10
634.9719100251
 20
893.062192601
 30
0.0
 40
3.200000000000028
100
AcDbArc
 50
315.0105384783
 51
0.0
  0
ARC
  5
55C
330
1F
100
AcDbEntity
  8
0
  6
Continuous
 62
     7
370
    15
100
AcDbCircle
 10
141.9719100251
 20
893.062192601
 30
0.0
 40
3.200000000000008
100
AcDbArc
 50
0.0
 51
224.9894615218
  0
ARC
  5
55D
330
1F
100
AcDbEntity
  8
0
  6
Continuous
 62
     7
370
    15
100
AcDbCircle
 10
141.9719100251
 20
893.062192601
 30
0.0
 40
3.200000000000028
100
AcDbArc
 50
315.0105384782
 51
0.0
  0
LINE
  5
55E
330
1F
100
AcDbEntity
  8
0
  6
Continuous
 62
     7
370
    15
100
AcDbLine
 10
242.4719121708
 20
225.5621925773
 30
0.0
 11
234.4719108595
 21
225.5621925773
 31
0.0
  0
LINE
  5
55F
330
1F
100
AcDbEntity
  8
0
  6
Continuous
 62
     7
370
    15
100
AcDbLine
 10
542.4719091906
 20
225.5621925773
 30
0.0
 11
534.4719078793
 21
225.5621925773
 31
0.0
  0
LINE
  5
560
330
1F
100
AcDbEntity
  8
0
  6
Continuous
 62
     7
370
    15
100
AcDbLine
 10
657.4719038262
 20
228.8121925861
 30
0.0
 11
657.4719038262
 21
226.062192601
 31
0.0
  0
LINE
  5
561
330
1F
100
AcDbEntity
  8
0
  6
Continuous
 62
     7
370
    15
100
AcDbLine
 10
657.4719038262
 20
226.062192601
 30
0.0
 11
156.4719167008
 21
226.062192601
 31
0.0
  0
LINE
  5
562
330
1F
100
AcDbEntity
  8
0
  6
Continuous
 62
     7
370
    15
100
AcDbLine
 10
657.4719038262
 20
228.8121925861
 30
0.0
 11
657.4719038262
 21
229.0621926271
 31
0.0
  0
ARC
  5
563
330
1F
100
AcDbEntity
  8
0
  6
Continuous
 62
     7
370
    15
100
AcDbCircle
 10
660.9719100251
 20
230.812192601
 30
0.0
 40
2.0
100
AcDbArc
 50
241.0449756281
 51
270.0
  0
LINE
  5
564
330
1F
100
AcDbEntity
  8
0
  6
Continuous
 62
     7
370
    15
100
AcDbLine
 10
673.7219181313
 20
228.8121925861
 30
0.0
 11
660.9719183697
 21
228.8121925861
 31
0.0
  0
LINE
  5
565
330
1F
100
AcDbEntity
  8
0
  6
Continuous
 62
     7
370
    15
100
AcDbLine
 10
676.4718976273
 20
228.8121925861
 30
0.0
 11
673.7219181313
 21
228.8121925861
 31
0.0
  0
LINE
  5
566
330
1F
100
AcDbEntity
  8
0
  6
Continuous
 62
     7
370
    15
100
AcDbLine
 10
676.4718976273
 20
229.0621926271
 30
0.0
 11
676.4718976273
 21
228.8121925861
 31
0.0
  0
LINE
  5
567
330
1F
100
AcDbEntity
  8
0
  6
Continuous
 62
     7
370
    15
100
AcDbLine
 10
657.4719038262
 20
227.5621926141
 30
0.0
 11
673.7219181313
 21
227.5621926141
 31
0.0
  0
LINE
  5
568
330
1F
100
AcDbEntity
  8
0
  6
Continuous
 62
     7
370
    15
100
AcDbLine
 10
673.7219181313
 20
227.5621926141
 30
0.0
 11
673.7219181313
 21
226.062192601
 31
0.0
  0
LINE
  5
569
330
1F
100
AcDbEntity
  8
0
  6
Continuous
 62
     7
370
    15
100
AcDbLine
 10
657.4719038262
 20
226.062192601
 30
0.0
 11
673.7219181313
 21
226.062192601
 31
0.0
  0
ARC
  5
56A
330
1F
100
AcDbEntity
  8
0
  6
Continuous
 62
     7
370
    15
100
AcDbCircle
 10
673.7219100251
 20
228.812192601
 30
0.0
 40
1.250000000000114
100
AcDbArc
 50
270.0
 51
0.0
  0
ARC
  5
56B
330
1F
100
AcDbEntity
  8
0
  6
Continuous
 62
     7
370
    15
100
AcDbCircle
 10
673.7219100251
 20
228.812192601
 30
0.0
 40
2.750000000000028
100
AcDbArc
 50
270.0
 51
0.0
  0
LINE
  5
56C
330
1F
100
AcDbEntity
  8
0
  6
Continuous
 62
     7
370
    15
100
AcDbLine
 10
606.5719064726
 20
214.0621924967
 30
0.0
 11
170.3719135775
 21
214.0621924967
 31
0.0
  0
LINE
  5
56D
330
1F
100
AcDbEntity
  8
0
  6
Continuous
 62
     7
370
    15
100
AcDbLine
 10
673.7219181313
 20
227.5621926141
 30
0.0
 11
673.7219181313
 21
228.8121925861
 31
0.0
  0
ARC
  5
56E
330
1F
100
AcDbEntity
  8
0
  6
Continuous
 62
     7
370
    15
100
AcDbCircle
 10
293.4595772793
 20
997.1304662452
 30
0.0
 40
3.014280903429362
100
AcDbArc
 50
203.1135527706
 51
357.9398390756
  0
ARC
  5
56F
330
1F
100
AcDbEntity
  8
0
  6
Continuous
 62
     7
370
    15
100
AcDbCircle
 10
263.4071513064
 20
997.0678206715
 30
0.0
 40
2.935704234102809
100
AcDbArc
 50
181.0271985886
 51
271.2639904941
  0
ARC
  5
570
330
1F
100
AcDbEntity
  8
0
  6
Continuous
 62
     7
370
    15
100
AcDbCircle
 10
263.5061504208
 20
997.1246161315
 30
0.0
 40
2.991981281563463
100
AcDbArc
 50
269.3442896854
 51
336.5537880168
  0
ARC
  5
571
330
1F
100
AcDbEntity
  8
0
  6
Continuous
 62
     7
370
    15
100
AcDbCircle
 10
513.4595832294
 20
997.1304679049
 30
0.0
 40
3.014281271313783
100
AcDbArc
 50
203.1135840882
 51
357.939807758
  0
ARC
  5
572
330
1F
100
AcDbEntity
  8
0
  6
Continuous
 62
     7
370
    15
100
AcDbCircle
 10
483.4071530666
 20
997.0678237443
 30
0.0
 40
2.935707241029077
100
AcDbArc
 50
181.0272575173
 51
271.2639315653
  0
ARC
  5
573
330
1F
100
AcDbEntity
  8
0
  6
Continuous
 62
     7
370
    15
100
AcDbCircle
 10
483.5061578604
 20
997.1246028138
 30
0.0
 40
2.991968063546284
100
AcDbArc
 50
269.3441214803
 51
336.5539562219
  0
ARC
  5
574
330
1F
100
AcDbEntity
  8
0
  6
Continuous
 62
     7
370
    15
100
AcDbCircle
 10
399.3346151827
 20
843.6465719862
 30
0.0
 40
0.7588130891989032
100
AcDbArc
 50
292.1823087628
 51
4.9544128897
  0
ARC
  5
575
330
1F
100
AcDbEntity
  8
0
  6
Continuous
 62
     7
370
    15
100
AcDbCircle
 10
377.6092048674
 20
843.6465719862
 30
0.0
 40
0.7588130891989032
100
AcDbArc
 50
175.0455871103
 51
247.8176912372
  0
LINE
  5
576
330
1F
100
AcDbEntity
  8
0
  6
Continuous
 62
     7
370
    15
100
AcDbLine
 10
401.0469273134
 20
870.2611467064
 30
0.0
 11
402.5667898758
 21
874.452545327
 31
0.0
  0
LWPOLYLINE
  5
577
330
1F
100
AcDbEntity
  8
0
  6
Continuous
 62
     7
370
    15
100
AcDbPolyline
 90
        3
 70
   128
 43
0.0
 10
374.3770301743
 20
874.452545327
 10
376.0045983298
 20
869.91907565
 10
376.1344442545
 20
869.4961806954
  0
ARC
  5
578
330
1F
100
AcDbEntity
  8
0
  6
Continuous
 62
     7
370
    15
100
AcDbCircle
 10
389.169591643
 20
843.2852947316
 30
0.0
 40
1.284070330857752
100
AcDbArc
 50
261.144141878
 51
307.7396593135
  0
ARC
  5
579
330
1F
100
AcDbEntity
  8
0
  6
Continuous
 62
     7
370
    15
100
AcDbCircle
 10
387.7742284071
 20
843.2852947316
 30
0.0
 40
1.284070330857752
100
AcDbArc
 50
232.2603406865
 51
278.855858122
  0
LWPOLYLINE
  5
57A
330
1F
100
AcDbEntity
  8
0
  6
Continuous
 62
     7
370
    15
100
AcDbPolyline
 90
        9
 70
   128
 43
0.0
 10
400.0720747216
 20
843.7941810311
 10
400.0536224275
 20
843.8296457947
 10
399.9965761258
 20
843.8727995575
 10
399.9060869618
 20
843.9031383217
 10
399.7855542629
 20
843.9195892037
 10
399.6395089133
 20
843.9215561569
 10
399.4734401284
 20
843.9089199722
 10
399.2935887008
 20
843.8821574867
 10
399.1067132382
 20
843.8422819794
  0
LWPOLYLINE
  5
57B
330
1F
100
AcDbEntity
  8
0
  6
Continuous
 62
     7
370
    15
100
AcDbPolyline
 90
        9
 70
   128
 43
0.0
 10
377.8371068119
 20
843.8422819794
 10
377.6502313493
 20
843.8821574867
 10
377.4703799217
 20
843.9089199722
 10
377.3043111368
 20
843.9215561569
 10
377.1582657872
 20
843.9195892037
 10
377.0377330883
 20
843.9031383217
 10
376.9472439243
 20
843.8727995575
 10
376.8901976227
 20
843.8296457947
 10
376.8717453285
 20
843.7941810311
  0
ARC
  5
57C
330
1F
100
AcDbEntity
  8
0
  6
Continuous
 62
     7
370
    15
100
AcDbCircle
 10
390.5249573837
 20
852.3276260519
 30
0.0
 40
26.67279417504297
100
AcDbArc
 50
306.1289283433
 51
11.7363782855
  0
ARC
  5
57D
330
1F
100
AcDbEntity
  8
0
  6
Continuous
 62
     7
370
    15
100
AcDbCircle
 10
386.4389074883
 20
852.3440684002
 30
0.0
 40
26.69789383508234
100
AcDbArc
 50
170.9010219239
 51
233.8571316522
  0
LINE
  5
57E
330
1F
100
AcDbEntity
  8
0
  6
Continuous
 62
     7
370
    15
100
AcDbLine
 10
686.4719178929
 20
999.8276373566
 30
0.0
 11
515.3732832922
 21
999.8276373566
 31
0.0
  0
LINE
  5
57F
330
1F
100
AcDbEntity
  8
0
  6
Continuous
 62
     7
370
    15
100
AcDbLine
 10
481.5589052095
 20
999.8276373566
 30
0.0
 11
295.3732844843
 21
999.8276373566
 31
0.0
  0
LINE
  5
580
330
1F
100
AcDbEntity
  8
0
  6
Continuous
 62
     7
370
    15
100
AcDbLine
 10
261.5589138522
 20
999.8276373566
 30
0.0
 11
90.4719021572
 21
999.8276373566
 31
0.0
  0
LINE
  5
581
330
1F
100
AcDbEntity
  8
0
  6
Continuous
 62
     7
370
    15
100
AcDbLine
 10
686.4719178929
 20
998.6202260674
 30
0.0
 11
516.1385175242
 21
998.6202260674
 31
0.0
  0
LINE
  5
582
330
1F
100
AcDbEntity
  8
0
  6
Continuous
 62
     7
370
    15
100
AcDbLine
 10
480.8076855196
 20
998.6202260674
 30
0.0
 11
296.1385187163
 21
998.6202260674
 31
0.0
  0
LINE
  5
583
330
1F
100
AcDbEntity
  8
0
  6
Continuous
 62
     7
370
    15
100
AcDbLine
 10
260.8076867117
 20
998.6202260674
 30
0.0
 11
90.4719021572
 21
998.6202260674
 31
0.0
  0
LINE
  5
584
330
1F
100
AcDbEntity
  8
0
  6
Continuous
 62
     7
370
    15
100
AcDbLine
 10
90.5219104542
 20
1111.6790315331
 30
0.0
 11
90.5219104542
 21
1106.9675227821
 31
0.0
  0
LINE
  5
585
330
1F
100
AcDbEntity
  8
0
  6
Continuous
 62
     7
370
    15
100
AcDbLine
 10
90.5219104542
 20
952.134742421
 30
0.0
 11
90.5219104542
 21
946.0622212113
 31
0.0
  0
LINE
  5
586
330
1F
100
AcDbEntity
  8
0
  6
Continuous
 62
     7
370
    15
100
AcDbLine
 10
686.4219095959
 20
946.0622212113
 30
0.0
 11
686.4219095959
 21
952.134742421
 31
0.0
  0
LINE
  5
587
330
1F
100
AcDbEntity
  8
0
  6
Continuous
 62
     7
370
    15
100
AcDbLine
 10
686.4219095959
 20
1106.9675227821
 30
0.0
 11
686.4219095959
 21
1111.6790315331
 31
0.0
  0
LINE
  5
588
330
1F
100
AcDbEntity
  8
0
  6
Continuous
 62
     7
370
    15
100
AcDbLine
 10
90.5219104542
 20
1111.6790315331
 30
0.0
 11
90.5219104542
 21
1112.0790383042
 31
0.0
  0
LINE
  5
589
330
1F
100
AcDbEntity
  8
0
  6
Continuous
 62
     7
370
    15
100
AcDbLine
 10
686.4219095959
 20
1112.0790383042
 30
0.0
 11
686.4219095959
 21
1111.6790315331
 31
0.0
  0
LINE
  5
58A
330
1F
100
AcDbEntity
  8
0
  6
Continuous
 62
     7
370
    15
100
AcDbLine
 10
686.0219028248
 20
891.3778206528
 30
0.0
 11
686.0219028248
 21
891.0622140587
 31
0.0
  0
LINE
  5
58B
330
1F
100
AcDbEntity
  8
0
  6
Continuous
 62
     7
370
    15
100
AcDbLine
 10
680.4719057335
 20
891.0622140587
 30
0.0
 11
680.4719057335
 21
891.3195869148
 31
0.0
  0
LINE
  5
58C
330
1F
100
AcDbEntity
  8
0
  6
Continuous
 62
     7
370
    15
100
AcDbLine
 10
96.4719143166
 20
891.0622140587
 30
0.0
 11
96.4719143166
 21
891.3195869148
 31
0.0
  0
LINE
  5
58D
330
1F
100
AcDbEntity
  8
0
  6
Continuous
 62
     7
370
    15
100
AcDbLine
 10
90.9219172253
 20
891.3778206528
 30
0.0
 11
90.9219172253
 21
891.0622140587
 31
0.0
  0
LINE
  5
58E
330
1F
100
AcDbEntity
  8
0
  6
Continuous
 62
     7
370
    15
100
AcDbLine
 10
686.4219095959
 20
891.095056218
 30
0.0
 11
686.4219095959
 21
890.799894017
 31
0.0
  0
LINE
  5
58F
330
1F
100
AcDbEntity
  8
0
  6
Continuous
 62
     7
370
    15
100
AcDbLine
 10
686.4219095959
 20
768.5122033775
 30
0.0
 11
686.4219095959
 21
229.0621926271
 31
0.0
  0
LINE
  5
590
330
1F
100
AcDbEntity
  8
0
  6
Continuous
 62
     7
370
    15
100
AcDbLine
 10
686.4219095959
 20
229.0621926271
 30
0.0
 11
686.4219095959
 21
226.069263669
 31
0.0
  0
LINE
  5
591
330
1F
100
AcDbEntity
  8
0
  6
Continuous
 62
     7
370
    15
100
AcDbLine
 10
90.5219104542
 20
229.0621926271
 30
0.0
 11
90.5219104542
 21
232.3329034456
 31
0.0
  0
LINE
  5
592
330
1F
100
AcDbEntity
  8
0
  6
Continuous
 62
     7
370
    15
100
AcDbLine
 10
90.5219104542
 20
753.7914654434
 30
0.0
 11
90.5219104542
 21
768.5122033775
 31
0.0
  0
LINE
  5
593
330
1F
100
AcDbEntity
  8
0
  6
Continuous
 62
     7
370
    15
100
AcDbLine
 10
90.5219104542
 20
890.799894017
 30
0.0
 11
90.5219104542
 21
891.095056218
 31
0.0
  0
LINE
  5
594
330
1F
100
AcDbEntity
  8
0
  6
Continuous
 62
     7
370
    15
100
AcDbLine
 10
90.5219104542
 20
226.069263669
 30
0.0
 11
90.5219104542
 21
229.0621926271
 31
0.0
  0
LINE
  5
595
330
1F
100
AcDbEntity
  8
0
  6
Continuous
 62
     7
370
    15
100
AcDbLine
 10
666.9719007267
 20
58.062194866
 30
0.0
 11
609.9719044222
 21
58.062194866
 31
0.0
  0
LINE
  5
596
330
1F
100
AcDbEntity
  8
0
  6
Continuous
 62
     7
370
    15
100
AcDbLine
 10
166.9719156279
 20
58.062194866
 30
0.0
 11
109.9719193234
 21
58.062194866
 31
0.0
  0
LINE
  5
597
330
1F
100
AcDbEntity
  8
0
  6
Continuous
 62
     7
370
    15
100
AcDbLine
 10
670.3718986763
 20
222.562192493
 30
0.0
 11
606.5719064726
 21
222.562192493
 31
0.0
  0
LINE
  5
598
330
1F
100
AcDbEntity
  8
0
  6
Continuous
 62
     7
370
    15
100
AcDbLine
 10
670.3718986763
 20
136.0947555125
 30
0.0
 11
606.5719064726
 21
136.0947555125
 31
0.0
  0
LINE
  5
599
330
1F
100
AcDbEntity
  8
0
  6
Continuous
 62
     7
370
    15
100
AcDbLine
 10
670.3080024971
 20
135.3222942174
 30
0.0
 11
606.635817553
 21
135.3222942174
 31
0.0
  0
LINE
  5
59A
330
1F
100
AcDbEntity
  8
0
  6
Continuous
 62
     7
370
    15
100
AcDbLine
 10
170.3719135775
 20
222.562192493
 30
0.0
 11
106.5719213738
 21
222.562192493
 31
0.0
  0
LINE
  5
59B
330
1F
100
AcDbEntity
  8
0
  6
Continuous
 62
     7
370
    15
100
AcDbLine
 10
170.3080024971
 20
135.3222942174
 30
0.0
 11
106.635817553
 21
135.3222942174
 31
0.0
  0
LINE
  5
59C
330
1F
100
AcDbEntity
  8
0
  6
Continuous
 62
     7
370
    15
100
AcDbLine
 10
170.3719135775
 20
136.0947555125
 30
0.0
 11
106.5719213738
 21
136.0947555125
 31
0.0
  0
LINE
  5
59D
330
1F
100
AcDbEntity
  8
0
  6
Continuous
 62
     7
370
    15
100
AcDbLine
 10
677.2219028725
 20
891.3195869148
 30
0.0
 11
677.2219028725
 21
890.799894017
 31
0.0
  0
LINE
  5
59E
330
1F
100
AcDbEntity
  8
0
  6
Continuous
 62
     7
370
    15
100
AcDbLine
 10
677.2219028725
 20
229.0621926271
 30
0.0
 11
677.2219028725
 21
228.8621925012
 31
0.0
  0
LINE
  5
59F
330
1F
100
AcDbEntity
  8
0
  6
Continuous
 62
     7
370
    15
100
AcDbLine
 10
99.7219171776
 20
890.799894017
 30
0.0
 11
99.7219171776
 21
891.3195869148
 31
0.0
  0
LINE
  5
5A0
330
1F
100
AcDbEntity
  8
0
  6
Continuous
 62
     7
370
    15
100
AcDbLine
 10
672.3719027294
 20
228.062192696
 30
0.0
 11
659.5719244732
 21
228.062192696
 31
0.0
  0
LINE
  5
5A1
330
1F
100
AcDbEntity
  8
0
  6
Continuous
 62
     7
370
    15
100
AcDbLine
 10
672.3719027294
 20
228.3121925042
 30
0.0
 11
659.5719244732
 21
228.3121925042
 31
0.0
  0
LINE
  5
5A2
330
1F
100
AcDbEntity
  8
0
  6
Continuous
 62
     7
370
    15
100
AcDbLine
 10
156.4719167008
 20
228.8121925861
 30
0.0
 11
657.4719038262
 21
228.8121925861
 31
0.0
  0
LINE
  5
5A3
330
1F
100
AcDbEntity
  8
0
  6
Continuous
 62
     7
370
    15
100
AcDbLine
 10
673.7219181313
 20
228.8121925861
 30
0.0
 11
673.7219181313
 21
229.0621926271
 31
0.0
  0
LINE
  5
5A4
330
1F
100
AcDbEntity
  8
0
  6
Continuous
 62
     7
370
    15
100
AcDbLine
 10
173.4719064488
 20
224.812192629
 30
0.0
 11
603.4719136013
 21
224.812192629
 31
0.0
  0
ENDSEC
  0
SECTION
  2
OBJECTS
  0
DICTIONARY
  5
C
330
0
100
AcDbDictionary
281
     1
  3
ACAD_GROUP
350
D
  3
ACAD_LAYOUT
350
1A
  3
ACAD_MLINESTYLE
350
17
  3
ACAD_PLOTSETTINGS
350
19
  3
ACAD_PLOTSTYLENAME
350
E
  0
DICTIONARY
  5
D
102
{ACAD_REACTORS
330
C
102
}
330
C
100
AcDbDictionary
281
     1
  0
DICTIONARY
  5
1A
102
{ACAD_REACTORS
330
C
102
}
330
C
100
AcDbDictionary
281
     1
  3
Layout1
350
1E
  3
Layout2
350
26
  3
Model
350
22
  0
DICTIONARY
  5
17
102
{ACAD_REACTORS
330
C
102
}
330
C
100
AcDbDictionary
281
     1
  3
Standard
350
18
  0
DICTIONARY
  5
19
102
{ACAD_REACTORS
330
C
102
}
330
C
100
AcDbDictionary
281
     1
  0
ACDBDICTIONARYWDFLT
  5
E
102
{ACAD_REACTORS
330
C
102
}
330
C
100
AcDbDictionary
281
     1
  3
Normal
350
F
100
AcDbDictionaryWithDefault
340
F
  0
LAYOUT
  5
1E
102
{ACAD_REACTORS
330
1A
102
}
330
1A
100
AcDbPlotSettings
  1

  2
none_device
  4

  6

 40
0.0
 41
0.0
 42
0.0
 43
0.0
 44
0.0
 45
0.0
 46
0.0
 47
0.0
 48
0.0
 49
0.0
140
0.0
141
0.0
142
1.0
143
1.0
 70
   688
 72
     0
 73
     0
 74
     5
  7

 75
    16
147
1.0
148
0.0
149
0.0
100
AcDbLayout
  1
Layout1
 70
     1
 71
     1
 10
0.0
 20
0.0
 11
420.0
 21
297.0
 12
0.0
 22
0.0
 32
0.0
 14
1.0000000000E+20
 24
1.0000000000E+20
 34
1.0000000000E+20
 15
-1.0000000000E+20
 25
-1.0000000000E+20
 35
-1.0000000000E+20
146
0.0
 13
0.0
 23
0.0
 33
0.0
 16
1.0
 26
0.0
 36
0.0
 17
0.0
 27
1.0
 37
0.0
 76
     0
330
1B
  0
LAYOUT
  5
26
102
{ACAD_REACTORS
330
1A
102
}
330
1A
100
AcDbPlotSettings
  1

  2
none_device
  4

  6

 40
0.0
 41
0.0
 42
0.0
 43
0.0
 44
0.0
 45
0.0
 46
0.0
 47
0.0
 48
0.0
 49
0.0
140
0.0
141
0.0
142
1.0
143
1.0
 70
   688
 72
     0
 73
     0
 74
     5
  7

 75
    16
147
1.0
148
0.0
149
0.0
100
AcDbLayout
  1
Layout2
 70
     1
 71
     2
 10
0.0
 20
0.0
 11
0.0
 21
0.0
 12
0.0
 22
0.0
 32
0.0
 14
0.0
 24
0.0
 34
0.0
 15
0.0
 25
0.0
 35
0.0
146
0.0
 13
0.0
 23
0.0
 33
0.0
 16
1.0
 26
0.0
 36
0.0
 17
0.0
 27
1.0
 37
0.0
 76
     0
330
23
  0
LAYOUT
  5
22
102
{ACAD_REACTORS
330
1A
102
}
330
1A
100
AcDbPlotSettings
  1

  2
none_device
  4

  6

 40
0.0
 41
0.0
 42
0.0
 43
0.0
 44
0.0
 45
0.0
 46
0.0
 47
0.0
 48
0.0
 49
0.0
140
0.0
141
0.0
142
1.0
143
1.0
 70
  1712
 72
     0
 73
     0
 74
     0
  7

 75
     0
147
1.0
148
0.0
149
0.0
100
AcDbLayout
  1
Model
 70
     1
 71
     0
 10
0.0
 20
0.0
 11
800.0
 21
1200.0
 12
0.0
 22
0.0
 32
0.0
 14
0.0
 24
0.0
 34
0.0
 15
800.0
 25
1200.0
 35
0.0
146
0.0
 13
0.0
 23
0.0
 33
0.0
 16
1.0
 26
0.0
 36
0.0
 17
0.0
 27
1.0
 37
0.0
 76
     0
330
1F
331
29
  0
MLINESTYLE
  5
18
102
{ACAD_REACTORS
330
17
102
}
330
17
100
AcDbMlineStyle
  2
Standard
 70
     0
  3

 62
   256
 51
90.0
 52
90.0
 71
     2
 49
0.5
 62
   256
  6
BYLAYER
 49
-0.5
 62
   256
  6
BYLAYER
  0
ACDBPLACEHOLDER
  5
F
102
{ACAD_REACTORS
330
E
102
}
330
E
  0
ENDSEC
  0
EOF
