  0
SECTION
  2
HEADER
  9
$ACADVER
  1
AC1021
  9
$ACADMAINTVER
 70
    25
  9
$DWGCODEPAGE
  3
ANSI_1252
  9
$INSBASE
 10
0.0
 20
0.0
 30
0.0
  9
$EXTMIN
 10
0.0
 20
0.0
 30
0.0
  9
$EXTMAX
 10
420.0
 20
297.0
 30
0.0
  9
$LIMMIN
 10
0.0
 20
0.0
  9
$LIMMAX
 10
420.0
 20
297.0
  9
$ORTHOMODE
 70
     0
  9
$REGENMODE
 70
     1
  9
$FILLMODE
 70
     1
  9
$QTEXTMODE
 70
     0
  9
$MIRRTEXT
 70
     1
  9
$LTSCALE
 40
1.0
  9
$ATTMODE
 70
     1
  9
$TEXTSIZE
 40
3.5
  9
$TRACEWID
 40
1.0
  9
$TEXTSTYLE
  7
Standard
  9
$CLAYER
  8
0
  9
$CELTYPE
  6
ByLayer
  9
$CECOLOR
 62
   256
  9
$CELTSCALE
 40
1.0
  9
$DISPSILH
 70
     0
  9
$DIMSCALE
 40
1.0
  9
$DIMASZ
 40
3.302
  9
$DIMEXO
 40
1.0
  9
$DIMDLI
 40
3.75
  9
$DIMRND
 40
0.0
  9
$DIMDLE
 40
0.0
  9
$DIMEXE
 40
1.0
  9
$DIMTP
 40
0.0
  9
$DIMTM
 40
0.0
  9
$DIMTXT
 40
3.5
  9
$DIMCEN
 40
2.5
  9
$DIMTSZ
 40
0.0
  9
$DIMTOL
 70
     0
  9
$DIMLIM
 70
     0
  9
$DIMTIH
 70
     1
  9
$DIMTOH
 70
     1
  9
$DIMSE1
 70
     0
  9
$DIMSE2
 70
     0
  9
$DIMTAD
 70
     1
  9
$DIMZIN
 70
     0
  9
$DIMBLK
  1

  9
$DIMASO
 70
     1
  9
$DIMSHO
 70
     1
  9
$DIMPOST
  1

  9
$DIMAPOST
  1

  9
$DIMALT
 70
     0
  9
$DIMALTD
 70
     3
  9
$DIMALTF
 40
0.0393700787
  9
$DIMLFAC
 40
1.0
  9
$DIMTOFL
 70
     1
  9
$DIMTVP
 40
0.0
  9
$DIMTIX
 70
     0
  9
$DIMSOXD
 70
     0
  9
$DIMSAH
 70
     0
  9
$DIMBLK1
  1

  9
$DIMBLK2
  1

  9
$DIMSTYLE
  2
ISO-25
  9
$DIMCLRD
 70
     0
  9
$DIMCLRE
 70
     0
  9
$DIMCLRT
 70
     0
  9
$DIMTFAC
 40
1.0
  9
$DIMGAP
 40
1.524
  9
$DIMJUST
 70
     0
  9
$DIMSD1
 70
     0
  9
$DIMSD2
 70
     0
  9
$DIMTOLJ
 70
     0
  9
$DIMTZIN
 70
     0
  9
$DIMALTZ
 70
     0
  9
$DIMALTTZ
 70
     0
  9
$DIMUPT
 70
     0
  9
$DIMDEC
 70
     1
  9
$DIMTDEC
 70
     1
  9
$DIMALTU
 70
     2
  9
$DIMALTTD
 70
     3
  9
$DIMTXSTY
  7
Standard
  9
$DIMAUNIT
 70
     0
  9
$DIMADEC
 70
     1
  9
$DIMALTRND
 40
0.0
  9
$DIMAZIN
 70
     0
  9
$DIMDSEP
 70
    44
  9
$DIMATFIT
 70
     3
  9
$DIMFRAC
 70
     0
  9
$DIMLDRBLK
  1

  9
$DIMLUNIT
 70
     2
  9
$DIMLWD
 70
    -2
  9
$DIMLWE
 70
    -2
  9
$DIMTMOVE
 70
     0
  9
$DIMFXL
 40
1.0
  9
$DIMFXLON
 70
     0
  9
$DIMJOGANG
 40
0.7853981634
  9
$DIMTFILL
 70
     0
  9
$DIMTFILLCLR
 70
     0
  9
$DIMARCSYM
 70
     0
  9
$DIMLTYPE
  6

  9
$DIMLTEX1
  6

  9
$DIMLTEX2
  6

  9
$LUNITS
 70
     2
  9
$LUPREC
 70
     1
  9
$SKETCHINC
 40
1.0
  9
$FILLETRAD
 40
10.0
  9
$AUNITS
 70
     0
  9
$AUPREC
 70
     1
  9
$MENU
  1
.
  9
$ELEVATION
 40
0.0
  9
$PELEVATION
 40
0.0
  9
$THICKNESS
 40
0.0
  9
$LIMCHECK
 70
     0
  9
$CHAMFERA
 40
10.0
  9
$CHAMFERB
 40
10.0
  9
$CHAMFERC
 40
20.0
  9
$CHAMFERD
 40
0.0
  9
$SKPOLY
 70
     0
  9
$TDCREATE
 40
2455747.468068692
  9
$TDUCREATE
 40
2455747.426402025
  9
$TDUPDATE
 40
2455747.468068704
  9
$TDUUPDATE
 40
2455747.426402037
  9
$TDINDWG
 40
0.0000000116
  9
$TDUSRTIMER
 40
0.0000000116
  9
$USRTIMER
 70
     1
  9
$ANGBASE
 50
0.0
  9
$ANGDIR
 70
     0
  9
$PDMODE
 70
     0
  9
$PDSIZE
 40
-1.0
  9
$PLINEWID
 40
0.0
  9
$SPLFRAME
 70
     0
  9
$SPLINETYPE
 70
     6
  9
$SPLINESEGS
 70
     8
  9
$HANDSEED
  5
28A
  9
$SURFTAB1
 70
     6
  9
$SURFTAB2
 70
     6
  9
$SURFTYPE
 70
     6
  9
$SURFU
 70
     6
  9
$SURFV
 70
     6
  9
$UCSBASE
  2

  9
$UCSNAME
  2

  9
$UCSORG
 10
0.0
 20
0.0
 30
0.0
  9
$UCSXDIR
 10
1.0
 20
0.0
 30
0.0
  9
$UCSYDIR
 10
0.0
 20
1.0
 30
0.0
  9
$UCSORTHOREF
  2

  9
$UCSORTHOVIEW
 70
     0
  9
$UCSORGTOP
 10
0.0
 20
0.0
 30
0.0
  9
$UCSORGBOTTOM
 10
0.0
 20
0.0
 30
0.0
  9
$UCSORGLEFT
 10
0.0
 20
0.0
 30
0.0
  9
$UCSORGRIGHT
 10
0.0
 20
0.0
 30
0.0
  9
$UCSORGFRONT
 10
0.0
 20
0.0
 30
0.0
  9
$UCSORGBACK
 10
0.0
 20
0.0
 30
0.0
  9
$PUCSBASE
  2

  9
$PUCSNAME
  2

  9
$PUCSORG
 10
0.0
 20
0.0
 30
0.0
  9
$PUCSXDIR
 10
1.0
 20
0.0
 30
0.0
  9
$PUCSYDIR
 10
0.0
 20
1.0
 30
0.0
  9
$PUCSORTHOREF
  2

  9
$PUCSORTHOVIEW
 70
     0
  9
$PUCSORGTOP
 10
0.0
 20
0.0
 30
0.0
  9
$PUCSORGBOTTOM
 10
0.0
 20
0.0
 30
0.0
  9
$PUCSORGLEFT
 10
0.0
 20
0.0
 30
0.0
  9
$PUCSORGRIGHT
 10
0.0
 20
0.0
 30
0.0
  9
$PUCSORGFRONT
 10
0.0
 20
0.0
 30
0.0
  9
$PUCSORGBACK
 10
0.0
 20
0.0
 30
0.0
  9
$USERI1
 70
     0
  9
$USERI2
 70
     0
  9
$USERI3
 70
     0
  9
$USERI4
 70
     0
  9
$USERI5
 70
     0
  9
$USERR1
 40
0.0
  9
$USERR2
 40
0.0
  9
$USERR3
 40
0.0
  9
$USERR4
 40
0.0
  9
$USERR5
 40
0.0
  9
$WORLDVIEW
 70
     1
  9
$SHADEDGE
 70
     3
  9
$SHADEDIF
 70
    70
  9
$TILEMODE
 70
     1
  9
$MAXACTVP
 70
    64
  9
$PINSBASE
 10
0.0
 20
0.0
 30
0.0
  9
$PLIMCHECK
 70
     0
  9
$PEXTMIN
 10
1.0000000000E+20
 20
1.0000000000E+20
 30
1.0000000000E+20
  9
$PEXTMAX
 10
-1.0000000000E+20
 20
-1.0000000000E+20
 30
-1.0000000000E+20
  9
$PLIMMIN
 10
0.0
 20
0.0
  9
$PLIMMAX
 10
420.0
 20
297.0
  9
$UNITMODE
 70
     0
  9
$VISRETAIN
 70
     1
  9
$PLINEGEN
 70
     0
  9
$PSLTSCALE
 70
     1
  9
$TREEDEPTH
 70
  3020
  9
$CMLSTYLE
  2
Standard
  9
$CMLJUST
 70
     0
  9
$CMLSCALE
 40
20.0
  9
$PROXYGRAPHICS
 70
     1
  9
$MEASUREMENT
 70
     1
  9
$CELWEIGHT
370
    -1
  9
$ENDCAPS
280
     0
  9
$JOINSTYLE
280
     0
  9
$LWDISPLAY
290
     1
  9
$INSUNITS
 70
     4
  9
$HYPERLINKBASE
  1

  9
$STYLESHEET
  1

  9
$XEDIT
290
     1
  9
$CEPSNTYPE
380
     0
  9
$PSTYLEMODE
290
     1
  9
$FINGERPRINTGUID
  2
{6EF3CEE9-B3F6-4CAF-8501-1CD791041F04}
  9
$VERSIONGUID
  2
{FAEB1C32-E019-11D5-929B-00C0DF256EC4}
  9
$EXTNAMES
290
     1
  9
$PSVPSCALE
 40
0.0
  9
$OLESTARTUP
290
     0
  9
$SORTENTS
280
   127
  9
$INDEXCTL
280
     0
  9
$HIDETEXT
280
     1
  9
$XCLIPFRAME
290
     0
  9
$HALOGAP
280
     0
  9
$OBSCOLOR
 70
   257
  9
$OBSLTYPE
280
     0
  9
$INTERSECTIONDISPLAY
280
     0
  9
$INTERSECTIONCOLOR
 70
   257
  9
$DIMASSOC
280
     2
  9
$PROJECTNAME
  1

  9
$CAMERADISPLAY
290
     0
  9
$LENSLENGTH
 40
50.0
  9
$CAMERAHEIGHT
 40
0.0
  9
$STEPSPERSEC
 40
2.0
  9
$STEPSIZE
 40
6.0
  9
$3DDWFPREC
 40
2.0
  9
$PSOLWIDTH
 40
5.0
  9
$PSOLHEIGHT
 40
80.0
  9
$LOFTANG1
 40
1.5707963268
  9
$LOFTANG2
 40
1.5707963268
  9
$LOFTMAG1
 40
0.0
  9
$LOFTMAG2
 40
0.0
  9
$LOFTPARAM
 70
     7
  9
$LOFTNORMALS
280
     1
  9
$LATITUDE
 40
37.795
  9
$LONGITUDE
 40
-122.394
  9
$NORTHDIRECTION
 40
0.0
  9
$TIMEZONE
 70
 -8000
  9
$LIGHTGLYPHDISPLAY
280
     1
  9
$TILEMODELIGHTSYNCH
280
     1
  9
$SOLIDHIST
280
     1
  9
$SHOWHIST
280
     1
  9
$DWFFRAME
280
     2
  9
$DGNFRAME
280
     2
  9
$REALWORLDSCALE
290
     1
  9
$INTERFERECOLOR
 62
   256
  9
$CSHADOW
280
     0
  9
$SHADOWPLANELOCATION
 40
0.0
  0
ENDSEC
  0
SECTION
  2
CLASSES
  0
CLASS
  1
ACDBDICTIONARYWDFLT
  2
AcDbDictionaryWithDefault
  3
ObjectDBX Classes
 90
        0
 91
        4
280
     0
281
     0
  0
CLASS
  1
VISUALSTYLE
  2
AcDbVisualStyle
  3
ObjectDBX Classes
 90
     4095
 91
        4
280
     0
281
     0
  0
CLASS
  1
MATERIAL
  2
AcDbMaterial
  3
ObjectDBX Classes
 90
     1153
 91
        4
280
     0
281
     0
  0
ENDSEC
  0
SECTION
  2
TABLES
  0
TABLE
  2
VPORT
  5
8
330
0
100
AcDbSymbolTable
 70
     1
  0
VPORT
  5
29
330
8
100
AcDbSymbolTableRecord
100
AcDbViewportTableRecord
  2
*Active
 70
     0
 10
0.0
 20
0.0
 11
1.0
 21
1.0
 12
210.0
 22
148.5
 13
0.0
 23
0.0
 14
10.0
 24
10.0
 15
10.0
 25
10.0
 16
0.0
 26
0.0
 36
1.0
 17
0.0
 27
0.0
 37
0.0
 40
297.0
 41
1.4141414141
 42
50.0
 43
0.0
 44
0.0
 50
0.0
 51
0.0
 71
     0
 72
  2000
 73
     1
 74
     3
 75
     0
 76
     0
 77
     0
 78
     0
281
     0
 65
     1
110
0.0
120
0.0
130
0.0
111
1.0
121
0.0
131
0.0
112
0.0
122
1.0
132
0.0
 79
     0
146
0.0
 60
     3
 61
     5
292
     1
282
     1
141
0.0
142
0.0
 63
   250
  0
ENDTAB
  0
TABLE
  2
LTYPE
  5
5
330
0
100
AcDbSymbolTable
 70
     6
  0
LTYPE
  5
14
330
5
100
AcDbSymbolTableRecord
100
AcDbLinetypeTableRecord
  2
ByBlock
 70
     0
  3

 72
    65
 73
     0
 40
0.0
  0
LTYPE
  5
15
330
5
100
AcDbSymbolTableRecord
100
AcDbLinetypeTableRecord
  2
ByLayer
 70
     0
  3

 72
    65
 73
     0
 40
0.0
  0
LTYPE
  5
16
330
5
100
AcDbSymbolTableRecord
100
AcDbLinetypeTableRecord
  2
Continuous
 70
     0
  3
Solid line
 72
    65
 73
     0
 40
0.0
  0
LTYPE
  5
3F
330
5
100
AcDbSymbolTableRecord
100
AcDbLinetypeTableRecord
  2
HIDDEN
 70
     0
  3
Hidden __ __ __ __ __ __ __ __ __ __ __ __ __ __
 72
    65
 73
     2
 40
1.905
 49
1.27
 74
     0
 49
-0.635
 74
     0
  0
LTYPE
  5
40
330
5
100
AcDbSymbolTableRecord
100
AcDbLinetypeTableRecord
  2
PHANTOM
 70
     0
  3
Phantom ______  __  __  ______  __  __  ______
 72
    65
 73
     6
 40
12.7
 49
6.35
 74
     0
 49
-1.27
 74
     0
 49
1.27
 74
     0
 49
-1.27
 74
     0
 49
1.27
 74
     0
 49
-1.27
 74
     0
  0
LTYPE
  5
41
330
5
100
AcDbSymbolTableRecord
100
AcDbLinetypeTableRecord
  2
CENTER
 70
     0
  3
Center ____ _ ____ _ ____ _ ____ _ ____ _ ____
 72
    65
 73
     4
 40
10.16
 49
6.35
 74
     0
 49
-1.27
 74
     0
 49
1.27
 74
     0
 49
-1.27
 74
     0
  0
LTYPE
  5
42
330
5
100
AcDbSymbolTableRecord
100
AcDbLinetypeTableRecord
  2
CENTERX2
 70
     0
  3
Center (2x) ________  __  ________  __  _____
 72
    65
 73
     4
 40
20.32
 49
12.7
 74
     0
 49
-2.54
 74
     0
 49
2.54
 74
     0
 49
-2.54
 74
     0
  0
LTYPE
  5
43
330
5
100
AcDbSymbolTableRecord
100
AcDbLinetypeTableRecord
  2
DOT2
 70
     0
  3
Dot (.5x) ........................................
 72
    65
 73
     2
 40
0.635
 49
0.0
 74
     0
 49
-0.635
 74
     0
  0
ENDTAB
  0
TABLE
  2
LAYER
  5
2
330
0
100
AcDbSymbolTable
 70
     1
  0
LAYER
  5
10
330
2
100
AcDbSymbolTableRecord
100
AcDbLayerTableRecord
  2
0
 70
     0
 62
     7
  6
Continuous
370
    -3
390
F
347
3E
  0
ENDTAB
  0
TABLE
  2
STYLE
  5
3
330
0
100
AcDbSymbolTable
 70
     1
  0
STYLE
  5
11
330
3
100
AcDbSymbolTableRecord
100
AcDbTextStyleTableRecord
  2
Standard
 70
     0
 40
0.0
 41
1.0
 50
0.0
 71
     0
 42
2.5
  3
txt
  4

  0
ENDTAB
  0
TABLE
  2
VIEW
  5
6
330
0
100
AcDbSymbolTable
 70
     0
  0
ENDTAB
  0
TABLE
  2
UCS
  5
7
330
0
100
AcDbSymbolTable
 70
     0
  0
ENDTAB
  0
TABLE
  2
APPID
  5
9
330
0
100
AcDbSymbolTable
 70
     1
  0
APPID
  5
12
330
9
100
AcDbSymbolTableRecord
100
AcDbRegAppTableRecord
  2
ACAD
 70
     0
  0
ENDTAB
  0
TABLE
  2
DIMSTYLE
  5
A
330
0
100
AcDbSymbolTable
 70
     1
100
AcDbDimStyleTable
  0
DIMSTYLE
105
27
330
A
100
AcDbSymbolTableRecord
100
AcDbDimStyleTableRecord
  2
ISO-25
 70
     0
 41
2.5
 42
0.625
 43
3.75
 44
1.25
 73
     0
 74
     0
 77
     1
 78
     8
140
2.5
141
2.5
143
0.0393700787
147
0.625
171
     3
172
     1
271
     2
272
     2
274
     3
278
    44
283
     0
284
     8
340
11
  0
ENDTAB
  0
TABLE
  2
BLOCK_RECORD
  5
1
330
0
100
AcDbSymbolTable
 70
     1
  0
BLOCK_RECORD
  5
1F
330
1
100
AcDbSymbolTableRecord
100
AcDbBlockTableRecord
  2
*Model_Space
340
22
 70
     0
280
     1
281
     0
  0
BLOCK_RECORD
  5
1B
330
1
100
AcDbSymbolTableRecord
100
AcDbBlockTableRecord
  2
*Paper_Space
340
1E
 70
     0
280
     1
281
     0
  0
BLOCK_RECORD
  5
23
330
1
100
AcDbSymbolTableRecord
100
AcDbBlockTableRecord
  2
*Paper_Space0
340
26
 70
     0
280
     1
281
     0
  0
ENDTAB
  0
ENDSEC
  0
SECTION
  2
BLOCKS
  0
BLOCK
  5
20
330
1F
100
AcDbEntity
  8
0
100
AcDbBlockBegin
  2
*Model_Space
 70
     0
 10
0.0
 20
0.0
 30
0.0
  3
*Model_Space
  1

  0
ENDBLK
  5
21
330
1F
100
AcDbEntity
  8
0
100
AcDbBlockEnd
  0
BLOCK
  5
1C
330
1B
100
AcDbEntity
 67
     1
  8
0
100
AcDbBlockBegin
  2
*Paper_Space
 70
     0
 10
0.0
 20
0.0
 30
0.0
  3
*Paper_Space
  1

  0
ENDBLK
  5
1D
330
1B
100
AcDbEntity
 67
     1
  8
0
100
AcDbBlockEnd
  0
BLOCK
  5
24
330
23
100
AcDbEntity
  8
0
100
AcDbBlockBegin
  2
*Paper_Space0
 70
     0
 10
0.0
 20
0.0
 30
0.0
  3
*Paper_Space0
  1

  0
ENDBLK
  5
25
330
23
100
AcDbEntity
  8
0
100
AcDbBlockEnd
  0
ENDSEC
  0
SECTION
  2
ENTITIES
  0
LINE
  5
44
330
1F
100
AcDbEntity
  8
0
  6
Continuous
 62
     7
370
    15
100
AcDbLine
 10
-165.4231111978
 20
53.3261281653
 30
0.0
 11
-167.4231152509
 21
51.3261390133
 31
0.0
  0
LINE
  5
45
330
1F
100
AcDbEntity
  8
0
  6
Continuous
 62
     7
370
    15
100
AcDbLine
 10
-167.4231152509
 20
33.3261323376
 30
0.0
 11
-165.4231111978
 21
31.3261282845
 31
0.0
  0
LINE
  5
46
330
1F
100
AcDbEntity
  8
0
  6
Continuous
 62
     7
370
    15
100
AcDbLine
 10
-165.4231111978
 20
31.3261282845
 30
0.0
 11
-163.4231071447
 21
33.3261323376
 31
0.0
  0
LINE
  5
47
330
1F
100
AcDbEntity
  8
0
  6
Continuous
 62
     7
370
    15
100
AcDbLine
 10
-163.4231071447
 20
51.3261390133
 30
0.0
 11
-165.4231111978
 21
53.3261281653
 31
0.0
  0
ARC
  5
48
330
1F
100
AcDbEntity
  8
0
  6
Continuous
 62
     7
370
    15
100
AcDbCircle
 10
390.7768892766
 20
257.7870539477
 30
0.0
 40
14.50000000000022
100
AcDbArc
 50
35.1072551646
 51
45.4827897802
  0
LINE
  5
49
330
1F
100
AcDbEntity
  8
0
  6
Continuous
 62
     7
370
    15
100
AcDbLine
 10
-169.423119304
 20
53.3261281653
 30
0.0
 11
-171.4231233571
 21
51.3261390133
 31
0.0
  0
LINE
  5
4A
330
1F
100
AcDbEntity
  8
0
  6
Continuous
 62
     7
370
    15
100
AcDbLine
 10
-171.4231233571
 20
33.3261323376
 30
0.0
 11
-169.423119304
 21
31.3261282845
 31
0.0
  0
LINE
  5
4B
330
1F
100
AcDbEntity
  8
0
  6
Continuous
 62
     7
370
    15
100
AcDbLine
 10
-169.423119304
 20
31.3261282845
 30
0.0
 11
-167.4231152509
 21
33.3261323376
 31
0.0
  0
LINE
  5
4C
330
1F
100
AcDbEntity
  8
0
  6
Continuous
 62
     7
370
    15
100
AcDbLine
 10
-167.4231152509
 20
51.3261390133
 30
0.0
 11
-169.423119304
 21
53.3261281653
 31
0.0
  0
LINE
  5
4D
330
1F
100
AcDbEntity
  8
0
  6
Continuous
 62
     7
370
    15
100
AcDbLine
 10
-173.4230976079
 20
31.3261282845
 30
0.0
 11
-171.4231233571
 21
33.3261323376
 31
0.0
  0
LINE
  5
4E
330
1F
100
AcDbEntity
  8
0
  6
Continuous
 62
     7
370
    15
100
AcDbLine
 10
-171.4231233571
 20
51.3261390133
 30
0.0
 11
-173.4230976079
 21
53.3261281653
 31
0.0
  0
LINE
  5
4F
330
1F
100
AcDbEntity
  8
0
  6
Continuous
 62
     7
370
    15
100
AcDbLine
 10
-173.4230976079
 20
53.3261281653
 30
0.0
 11
-175.423101661
 21
51.3261390133
 31
0.0
  0
LINE
  5
50
330
1F
100
AcDbEntity
  8
0
  6
Continuous
 62
     7
370
    15
100
AcDbLine
 10
-175.423101661
 20
33.3261323376
 30
0.0
 11
-173.4230976079
 21
31.3261282845
 31
0.0
  0
LINE
  5
51
330
1F
100
AcDbEntity
  8
0
  6
Continuous
 62
     7
370
    15
100
AcDbLine
 10
-177.4231057141
 20
53.3261281653
 30
0.0
 11
-179.4231097673
 21
51.3261390133
 31
0.0
  0
LINE
  5
52
330
1F
100
AcDbEntity
  8
0
  6
Continuous
 62
     7
370
    15
100
AcDbLine
 10
-179.4231097673
 20
33.3261323376
 30
0.0
 11
-177.4231057141
 21
31.3261282845
 31
0.0
  0
LINE
  5
53
330
1F
100
AcDbEntity
  8
0
  6
Continuous
 62
     7
370
    15
100
AcDbLine
 10
-177.4231057141
 20
31.3261282845
 30
0.0
 11
-175.423101661
 21
33.3261323376
 31
0.0
  0
LINE
  5
54
330
1F
100
AcDbEntity
  8
0
  6
Continuous
 62
     7
370
    15
100
AcDbLine
 10
-175.423101661
 20
51.3261390133
 30
0.0
 11
-177.4231057141
 21
53.3261281653
 31
0.0
  0
LINE
  5
55
330
1F
100
AcDbEntity
  8
0
  6
Continuous
 62
     7
370
    15
100
AcDbLine
 10
-163.4231071447
 20
31.3261282845
 30
0.0
 11
-144.8231201146
 21
31.3261282845
 31
0.0
  0
LINE
  5
56
330
1F
100
AcDbEntity
  8
0
  6
Continuous
 62
     7
370
    15
100
AcDbLine
 10
-144.8231201146
 20
53.3261281653
 30
0.0
 11
-163.4231071447
 21
53.3261281653
 31
0.0
  0
LWPOLYLINE
  5
57
330
1F
100
AcDbEntity
  8
0
  6
Continuous
 62
     7
370
    15
100
AcDbPolyline
 90
        3
 70
   128
 43
0.0
 10
403.8957346703
 20
266.1261326848
 10
403.316645744
 20
266.9817554979
 10
402.3994494702
 20
268.1261320813
  0
SPLINE
  5
58
330
1F
100
AcDbEntity
  8
0
  6
Continuous
 62
     7
370
    15
100
AcDbSpline
210
0.0
220
0.0
230
1.0
 70
     8
 71
     3
 72
    10
 73
     6
 74
     0
 42
0.00000001
 43
0.00000001
 40
0.0
 40
0.0
 40
0.0
 40
0.0
 40
0.1290620356930178
 40
0.8436514669311359
 40
1.0
 40
1.0
 40
1.0
 40
1.0
 10
443.9538110520273
 20
268.1261320813114
 30
0.0
 10
443.982690713538
 20
268.0610437615738
 30
0.0
 10
444.1714710056446
 20
267.6355750624956
 30
0.0
 10
444.2727879950187
 20
267.069612976169
 30
0.0
 10
444.2277354789974
 20
266.5910416397432
 30
0.0
 10
444.2196477677255
 20
266.5051297499353
 30
0.0
  0
LINE
  5
59
330
1F
100
AcDbEntity
  8
0
  6
Continuous
 62
     7
370
    15
100
AcDbLine
 10
610.4768950965
 20
109.6949410839
 30
0.0
 11
610.4768950965
 21
110.1949495478
 31
0.0
  0
LINE
  5
5A
330
1F
100
AcDbEntity
  8
0
  6
Continuous
 62
     7
370
    15
100
AcDbLine
 10
602.476878884
 20
110.1949495478
 30
0.0
 11
602.476878884
 21
109.6949410839
 31
0.0
  0
LINE
  5
5B
330
1F
100
AcDbEntity
  8
0
  6
Continuous
 62
     7
370
    15
100
AcDbLine
 10
-38.723112223
 20
-109.1738658742
 30
0.0
 11
-38.723112223
 21
-80.1738816099
 31
0.0
  0
LINE
  5
5C
330
1F
100
AcDbEntity
  8
0
  6
Continuous
 62
     7
370
    15
100
AcDbLine
 10
-95.3231017564
 20
-80.1738816099
 30
0.0
 11
-95.3231017564
 21
-109.1738658742
 31
0.0
  0
LINE
  5
5D
330
1F
100
AcDbEntity
  8
0
  6
Continuous
 62
     7
370
    15
100
AcDbLine
 10
535.2769036319
 20
-109.1738658742
 30
0.0
 11
535.2769036319
 21
-80.1738816099
 31
0.0
  0
LINE
  5
5E
330
1F
100
AcDbEntity
  8
0
  6
Continuous
 62
     7
370
    15
100
AcDbLine
 10
478.6768991973
 20
-80.1738816099
 30
0.0
 11
478.6768991973
 21
-109.1738658742
 31
0.0
  0
ARC
  5
5F
330
1F
100
AcDbEntity
  8
0
  6
Continuous
 62
     7
370
    15
100
AcDbCircle
 10
-33.6231107234
 20
-18.6738677725
 30
0.0
 40
1.5
100
AcDbArc
 50
90.0
 51
180.0
  0
ARC
  5
60
330
1F
100
AcDbEntity
  8
0
  6
Continuous
 62
     7
370
    15
100
AcDbCircle
 10
-100.4231107234
 20
-18.6738677725
 30
0.0
 40
1.5
100
AcDbArc
 50
0.0
 51
90.0
  0
ARC
  5
61
330
1F
100
AcDbEntity
  8
0
  6
Continuous
 62
     7
370
    15
100
AcDbCircle
 10
-39.8231107234
 20
-74.1413018269
 30
0.0
 40
4.699999999999982
100
AcDbArc
 50
350.5402980318
 51
0.0
  0
ARC
  5
62
330
1F
100
AcDbEntity
  8
0
  6
Continuous
 62
     7
370
    15
100
AcDbCircle
 10
-94.2231107234
 20
-74.1413018269
 30
0.0
 40
4.699999999999975
100
AcDbArc
 50
180.0
 51
189.4597019682
  0
LINE
  5
63
330
1F
100
AcDbEntity
  8
0
  6
Continuous
 62
     7
370
    15
100
AcDbLine
 10
-35.1231108878
 20
-74.1412955122
 30
0.0
 11
-35.1231108878
 21
-18.6738687353
 31
0.0
  0
LINE
  5
64
330
1F
100
AcDbEntity
  8
0
  6
Continuous
 62
     7
370
    15
100
AcDbLine
 10
-98.9231030915
 20
-18.6738687353
 30
0.0
 11
-98.9231030915
 21
-74.1412955122
 31
0.0
  0
LINE
  5
65
330
1F
100
AcDbEntity
  8
0
  6
Continuous
 62
     7
370
    15
100
AcDbLine
 10
-98.8592069123
 20
-74.9137717084
 30
0.0
 11
-97.9827504132
 21
-80.1738816099
 31
0.0
  0
LINE
  5
66
330
1F
100
AcDbEntity
  8
0
  6
Continuous
 62
     7
370
    15
100
AcDbLine
 10
-36.0634635661
 20
-80.1738816099
 30
0.0
 11
-35.1870219682
 21
-74.9137717084
 31
0.0
  0
ARC
  5
67
330
1F
100
AcDbEntity
  8
0
  6
Continuous
 62
     7
370
    15
100
AcDbCircle
 10
540.3768892766
 20
-18.6738677725
 30
0.0
 40
1.5
100
AcDbArc
 50
90.0
 51
180.0
  0
ARC
  5
68
330
1F
100
AcDbEntity
  8
0
  6
Continuous
 62
     7
370
    15
100
AcDbCircle
 10
473.5768892766
 20
-18.6738677725
 30
0.0
 40
1.5
100
AcDbArc
 50
0.0
 51
90.0
  0
LINE
  5
69
330
1F
100
AcDbEntity
  8
0
  6
Continuous
 62
     7
370
    15
100
AcDbLine
 10
538.8768751647
 20
-74.1412955122
 30
0.0
 11
538.8768751647
 21
-18.6738687353
 31
0.0
  0
LINE
  5
6A
330
1F
100
AcDbEntity
  8
0
  6
Continuous
 62
     7
370
    15
100
AcDbLine
 10
475.0768978621
 20
-18.6738687353
 30
0.0
 11
475.0768978621
 21
-74.1412955122
 31
0.0
  0
ARC
  5
6B
330
1F
100
AcDbEntity
  8
0
  6
Continuous
 62
     7
370
    15
100
AcDbCircle
 10
534.1768892766
 20
-74.1413018269
 30
0.0
 40
4.700000000000045
100
AcDbArc
 50
350.5402980318
 51
0.0
  0
ARC
  5
6C
330
1F
100
AcDbEntity
  8
0
  6
Continuous
 62
     7
370
    15
100
AcDbCircle
 10
479.7768892766
 20
-74.1413018269
 30
0.0
 40
4.700000000000003
100
AcDbArc
 50
180.0
 51
189.4597019682
  0
LINE
  5
6D
330
1F
100
AcDbEntity
  8
0
  6
Continuous
 62
     7
370
    15
100
AcDbLine
 10
475.1407940413
 20
-74.9137717084
 30
0.0
 11
476.0172505404
 21
-80.1738816099
 31
0.0
  0
LINE
  5
6E
330
1F
100
AcDbEntity
  8
0
  6
Continuous
 62
     7
370
    15
100
AcDbLine
 10
537.9365522887
 20
-80.1738816099
 30
0.0
 11
538.8129789855
 21
-74.9137717084
 31
0.0
  0
LINE
  5
6F
330
1F
100
AcDbEntity
  8
0
  6
Continuous
 62
     7
370
    15
100
AcDbLine
 10
-38.5231088374
 20
-113.1738739805
 30
0.0
 11
-38.5231088374
 21
-109.1738658742
 31
0.0
  0
LINE
  5
70
330
1F
100
AcDbEntity
  8
0
  6
Continuous
 62
     7
370
    15
100
AcDbLine
 10
-95.5231051419
 20
-109.1738658742
 30
0.0
 11
-95.5231051419
 21
-113.1738739805
 31
0.0
  0
ARC
  5
71
330
1F
100
AcDbEntity
  8
0
  6
Continuous
 62
     7
370
    15
100
AcDbCircle
 10
-40.5231107234
 20
-113.1738677725
 30
0.0
 40
2.0
100
AcDbArc
 50
270.0
 51
0.0
  0
ARC
  5
72
330
1F
100
AcDbEntity
  8
0
  6
Continuous
 62
     7
370
    15
100
AcDbCircle
 10
-93.5231107234
 20
-113.1738677725
 30
0.0
 40
2.0
100
AcDbArc
 50
180.0
 51
270.0
  0
ARC
  5
73
330
1F
100
AcDbEntity
  8
0
  6
Continuous
 62
     7
370
    15
100
AcDbCircle
 10
533.4768892766
 20
-113.1738677725
 30
0.0
 40
2.0
100
AcDbArc
 50
270.0
 51
0.0
  0
ARC
  5
74
330
1F
100
AcDbEntity
  8
0
  6
Continuous
 62
     7
370
    15
100
AcDbCircle
 10
480.4768892766
 20
-113.1738677725
 30
0.0
 40
2.0
100
AcDbArc
 50
180.0
 51
270.0
  0
LINE
  5
75
330
1F
100
AcDbEntity
  8
0
  6
Continuous
 62
     7
370
    15
100
AcDbLine
 10
535.4768772151
 20
-113.1738739805
 30
0.0
 11
535.4768772151
 21
-109.1738658742
 31
0.0
  0
LINE
  5
76
330
1F
100
AcDbEntity
  8
0
  6
Continuous
 62
     7
370
    15
100
AcDbLine
 10
478.4768958117
 20
-109.1738658742
 30
0.0
 11
478.4768958117
 21
-113.1738739805
 31
0.0
  0
LINE
  5
77
330
1F
100
AcDbEntity
  8
0
  6
Continuous
 62
     7
370
    15
100
AcDbLine
 10
299.0268905188
 20
268.1261320813
 30
0.0
 11
299.0268905188
 21
266.1261326848
 31
0.0
  0
LINE
  5
78
330
1F
100
AcDbEntity
  8
0
  6
Continuous
 62
     7
370
    15
100
AcDbLine
 10
304.0268857505
 20
266.1261326848
 30
0.0
 11
304.0268857505
 21
268.1261320813
 31
0.0
  0
LINE
  5
79
330
1F
100
AcDbEntity
  8
0
  6
Continuous
 62
     7
370
    15
100
AcDbLine
 10
625.3768939998
 20
36.7307049437
 30
0.0
 11
625.6768841769
 21
37.4158007307
 31
0.0
  0
LINE
  5
7A
330
1F
100
AcDbEntity
  8
0
  6
Continuous
 62
     7
370
    15
100
AcDbLine
 10
625.6768841769
 20
60.2740925951
 30
0.0
 11
625.3768939998
 21
60.9591883822
 31
0.0
  0
ARC
  5
7B
330
1F
100
AcDbEntity
  8
0
  6
Continuous
 62
     7
370
    15
100
AcDbCircle
 10
639.6768892766
 20
43.9449474924
 30
0.0
 40
0.5
100
AcDbArc
 50
270.0
 51
0.0
  0
ARC
  5
7C
330
1F
100
AcDbEntity
  8
0
  6
Continuous
 62
     7
370
    15
100
AcDbCircle
 10
639.6768892766
 20
53.7449474924
 30
0.0
 40
0.5
100
AcDbArc
 50
0.0
 51
90.0
  0
LINE
  5
7D
330
1F
100
AcDbEntity
  8
0
  6
Continuous
 62
     7
370
    15
100
AcDbLine
 10
625.6768841769
 20
43.4449446602
 30
0.0
 11
639.6768827464
 21
43.4449446602
 31
0.0
  0
LINE
  5
7E
330
1F
100
AcDbEntity
  8
0
  6
Continuous
 62
     7
370
    15
100
AcDbLine
 10
639.6768827464
 20
54.2449486657
 30
0.0
 11
625.6768841769
 21
54.2449486657
 31
0.0
  0
LINE
  5
7F
330
1F
100
AcDbEntity
  8
0
  6
Continuous
 62
     7
370
    15
100
AcDbLine
 10
515.8268947627
 20
289.5966862543
 30
0.0
 11
515.8268947627
 21
288.5966842277
 31
0.0
  0
LINE
  5
80
330
1F
100
AcDbEntity
  8
0
  6
Continuous
 62
     7
370
    15
100
AcDbLine
 10
522.2268838908
 20
288.5966842277
 30
0.0
 11
522.2268838908
 21
289.5966862543
 31
0.0
  0
LINE
  5
81
330
1F
100
AcDbEntity
  8
0
  6
Continuous
 62
     7
370
    15
100
AcDbLine
 10
516.5268917109
 20
288.5966842277
 30
0.0
 11
516.5268917109
 21
287.5261326535
 31
0.0
  0
LINE
  5
82
330
1F
100
AcDbEntity
  8
0
  6
Continuous
 62
     7
370
    15
100
AcDbLine
 10
521.5268869426
 20
287.5261326535
 30
0.0
 11
521.5268869426
 21
288.5966842277
 31
0.0
  0
LINE
  5
83
330
1F
100
AcDbEntity
  8
0
  6
Continuous
 62
     7
370
    15
100
AcDbLine
 10
639.6232385661
 20
19.3234962626
 30
0.0
 11
642.1768803622
 21
20.3449410601
 31
0.0
  0
LINE
  5
84
330
1F
100
AcDbEntity
  8
0
  6
Continuous
 62
     7
370
    15
100
AcDbLine
 10
632.176889899
 20
16.344947855
 30
0.0
 11
634.9760432269
 21
17.464606206
 31
0.0
  0
LINE
  5
85
330
1F
100
AcDbEntity
  8
0
  6
Continuous
 62
     7
370
    15
100
AcDbLine
 10
634.4982225921
 20
80.4164094134
 30
0.0
 11
632.176889899
 21
81.3449454709
 31
0.0
  0
LINE
  5
86
330
1F
100
AcDbEntity
  8
0
  6
Continuous
 62
     7
370
    15
100
AcDbLine
 10
642.1768803622
 20
77.3449522658
 30
0.0
 11
639.1404707457
 21
78.5595161124
 31
0.0
  0
LINE
  5
87
330
1F
100
AcDbEntity
  8
0
  6
Continuous
 62
     7
370
    15
100
AcDbLine
 10
642.1768803622
 20
20.3449410601
 30
0.0
 11
661.5872521426
 21
29.0796143217
 31
0.0
  0
LINE
  5
88
330
1F
100
AcDbEntity
  8
0
  6
Continuous
 62
     7
370
    15
100
AcDbLine
 10
642.6328558947
 20
77.1397632761
 30
0.0
 11
642.1768803622
 21
77.3449522658
 31
0.0
  0
ARC
  5
89
330
1F
100
AcDbEntity
  8
0
  6
Continuous
 62
     7
370
    15
100
AcDbCircle
 10
661.1768892766
 20
29.9915331024
 30
0.0
 40
1.000000000000114
100
AcDbArc
 50
294.227745318
 51
0.0
  0
LINE
  5
8A
330
1F
100
AcDbEntity
  8
0
  6
Continuous
 62
     7
370
    15
100
AcDbLine
 10
630.1768858458
 20
41.7331439658
 30
0.0
 11
632.176889899
 21
41.6982305451
 31
0.0
  0
LINE
  5
8B
330
1F
100
AcDbEntity
  8
0
  6
Continuous
 62
     7
370
    15
100
AcDbLine
 10
639.1468186404
 20
78.5677564545
 30
0.0
 11
634.4993550803
 21
80.4267359181
 31
0.0
  0
LINE
  5
8C
330
1F
100
AcDbEntity
  8
0
  6
Continuous
 62
     7
370
    15
100
AcDbLine
 10
634.9741954829
 20
17.4531025095
 30
0.0
 11
639.6236557986
 21
19.3128866358
 31
0.0
  0
SPLINE
  5
8D
330
1F
100
AcDbEntity
  8
0
  6
Continuous
 62
     7
370
    15
100
AcDbSpline
210
0.0
220
0.0
230
1.0
 70
     8
 71
     3
 72
    13
 73
     9
 74
     0
 42
0.00000001
 43
0.00000001
 40
0.0
 40
0.0
 40
0.0
 40
0.0
 40
0.0001647173179634
 40
0.0005403305940235
 40
0.0037209106834085
 40
0.0290567688234178
 40
0.3242254779832451
 40
1.0
 40
1.0
 40
1.0
 40
1.0
 10
624.8005170847804
 20
76.17482368187257
 30
0.0
 10
624.800507639502
 20
76.17484393232685
 30
0.0
 10
624.8004766556754
 20
76.17491036092161
 30
0.0
 10
624.8001546201624
 20
76.17528283793887
 30
0.0
 10
624.7980127251652
 20
76.17849947093025
 30
0.0
 10
624.7718485103806
 20
76.21254177260784
 30
0.0
 10
624.6927249533913
 20
76.31908108873527
 30
0.0
 10
624.6051788353673
 20
76.41443676695341
 30
0.0
 10
624.5442469145686
 20
76.480804125827
 30
0.0
  0
ARC
  5
8E
330
1F
100
AcDbEntity
  8
0
  6
Continuous
 62
     7
370
    15
100
AcDbCircle
 10
390.7768892766
 20
257.8643623726
 30
0.0
 40
14.5000000000002
100
AcDbArc
 50
34.7346928811
 51
45.0487581336
  0
LWPOLYLINE
  5
8F
330
1F
100
AcDbEntity
  8
0
  6
Continuous
 62
     7
370
    15
100
AcDbPolyline
 90
        3
 70
   128
 43
0.0
 10
403.8915027406
 20
266.1261326848
 10
403.316645744
 20
266.9750341429
 10
402.3935188081
 20
268.1261320813
  0
LINE
  5
90
330
1F
100
AcDbEntity
  8
0
  6
Continuous
 62
     7
370
    15
100
AcDbLine
 10
596.1768765475
 20
109.6949410839
 30
0.0
 11
596.1768765475
 21
110.1949495478
 31
0.0
  0
LINE
  5
91
330
1F
100
AcDbEntity
  8
0
  6
Continuous
 62
     7
370
    15
100
AcDbLine
 10
588.1768901374
 20
110.1949495478
 30
0.0
 11
588.1768901374
 21
109.6949410839
 31
0.0
  0
LINE
  5
92
330
1F
100
AcDbEntity
  8
0
  6
Continuous
 62
     7
370
    15
100
AcDbLine
 10
-144.0231065724
 20
266.1261326848
 30
0.0
 11
-146.0731189225
 21
266.1261326848
 31
0.0
  0
LINE
  5
93
330
1F
100
AcDbEntity
  8
0
  6
Continuous
 62
     7
370
    15
100
AcDbLine
 10
-146.0731189225
 20
266.1261326848
 30
0.0
 11
-146.0731189225
 21
475.0346225901
 31
0.0
  0
LINE
  5
94
330
1F
100
AcDbEntity
  8
0
  6
Continuous
 62
     7
370
    15
100
AcDbLine
 10
-146.0731189225
 20
475.0346225901
 30
0.0
 11
-144.0231065724
 21
475.0346225901
 31
0.0
  0
LINE
  5
95
330
1F
100
AcDbEntity
  8
0
  6
Continuous
 62
     7
370
    15
100
AcDbLine
 10
-145.1731185887
 20
475.43461446
 30
0.0
 11
-145.1731185887
 21
485.5055940552
 31
0.0
  0
ARC
  5
96
330
1F
100
AcDbEntity
  8
0
  6
Continuous
 62
     7
370
    15
100
AcDbCircle
 10
-116.8731107234
 20
453.642957528
 30
0.0
 40
24.89999999999986
100
AcDbArc
 50
0.0
 51
75.0
  0
LINE
  5
97
330
1F
100
AcDbEntity
  8
0
  6
Continuous
 62
     7
370
    15
100
AcDbLine
 10
-91.9731121038
 20
453.6429626151
 30
0.0
 11
-93.1731026147
 21
453.6429626151
 31
0.0
  0
LINE
  5
98
330
1F
100
AcDbEntity
  8
0
  6
Continuous
 62
     7
370
    15
100
AcDbLine
 10
-93.1731026147
 20
453.6429626151
 30
0.0
 11
-93.1731026147
 21
453.1429541512
 31
0.0
  0
LINE
  5
99
330
1F
100
AcDbEntity
  8
0
  6
Continuous
 62
     7
370
    15
100
AcDbLine
 10
-93.1731026147
 20
453.1429541512
 30
0.0
 11
-93.1231241201
 21
453.1429541512
 31
0.0
  0
LINE
  5
9A
330
1F
100
AcDbEntity
  8
0
  6
Continuous
 62
     7
370
    15
100
AcDbLine
 10
-93.1231241201
 20
266.1261326848
 30
0.0
 11
-144.0231065724
 21
266.1261326848
 31
0.0
  0
ARC
  5
9B
330
1F
100
AcDbEntity
  8
0
  6
Continuous
 62
     7
370
    15
100
AcDbCircle
 10
-120.1731107234
 20
464.8799516671
 30
0.0
 40
2.600000000000011
100
AcDbArc
 50
190.4998591652
 51
349.5001408348
  0
ARC
  5
9C
330
1F
100
AcDbEntity
  8
0
  6
Continuous
 62
     7
370
    15
100
AcDbCircle
 10
-122.9785516597
 20
464.3799516671
 30
0.0
 40
0.2503511010932499
100
AcDbArc
 50
6.005776495
 51
190.1054407084
  0
ARC
  5
9D
330
1F
100
AcDbEntity
  8
0
  6
Continuous
 62
     7
370
    15
100
AcDbCircle
 10
-120.1731107234
 20
464.8799516671
 30
0.0
 40
3.100000000000027
100
AcDbArc
 50
190.1054407084
 51
349.8945592916
  0
ARC
  5
9E
330
1F
100
AcDbEntity
  8
0
  6
Continuous
 62
     7
370
    15
100
AcDbCircle
 10
-117.3676697871
 20
464.3799516671
 30
0.0
 40
0.2503511010932641
100
AcDbArc
 50
349.8945592916
 51
173.994223505
  0
ARC
  5
9F
330
1F
100
AcDbEntity
  8
0
  6
Continuous
 62
     7
370
    15
100
AcDbCircle
 10
-117.3747975755
 20
465.4182643441
 30
0.0
 40
0.2503794968157745
100
AcDbArc
 50
186.6269392398
 51
10.8889929002
  0
ARC
  5
A0
330
1F
100
AcDbEntity
  8
0
  6
Continuous
 62
     7
370
    15
100
AcDbCircle
 10
-120.1731107234
 20
464.8799516671
 30
0.0
 40
3.100000000000036
100
AcDbArc
 50
10.8889929002
 51
169.1108926947
  0
ARC
  5
A1
330
1F
100
AcDbEntity
  8
0
  6
Continuous
 62
     7
370
    15
100
AcDbCircle
 10
-122.9713937512
 20
465.4182643441
 30
0.0
 40
0.2504090746769195
100
AcDbArc
 50
169.1108926947
 51
353.5357377927
  0
ARC
  5
A2
330
1F
100
AcDbEntity
  8
0
  6
Continuous
 62
     7
370
    15
100
AcDbCircle
 10
-120.1731107234
 20
464.8799516671
 30
0.0
 40
2.600000000000026
100
AcDbArc
 50
11.299052931
 51
168.6851502045
  0
LINE
  5
A3
330
1F
100
AcDbEntity
  8
0
  6
Continuous
 62
     7
370
    15
100
AcDbLine
 10
-144.0231065724
 20
475.0346225901
 30
0.0
 11
-143.6230998014
 21
475.0346225901
 31
0.0
  0
LINE
  5
A4
330
1F
100
AcDbEntity
  8
0
  6
Continuous
 62
     7
370
    15
100
AcDbLine
 10
-143.6230998014
 20
475.0346225901
 30
0.0
 11
-143.6230998014
 21
475.43461446
 31
0.0
  0
LINE
  5
A5
330
1F
100
AcDbEntity
  8
0
  6
Continuous
 62
     7
370
    15
100
AcDbLine
 10
-143.7254707788
 20
486.6164011164
 30
0.0
 11
-110.4285280679
 21
477.6945096655
 31
0.0
  0
LINE
  5
A6
330
1F
100
AcDbEntity
  8
0
  6
Continuous
 62
     7
370
    15
100
AcDbLine
 10
-143.6230998014
 20
475.43461446
 30
0.0
 11
-145.1731185887
 21
475.43461446
 31
0.0
  0
ARC
  5
A7
330
1F
100
AcDbEntity
  8
0
  6
Continuous
 62
     7
370
    15
100
AcDbCircle
 10
-144.0231107234
 20
485.5055873872
 30
0.0
 40
1.150000000000005
100
AcDbArc
 50
75.0
 51
180.0
  0
LINE
  5
A8
330
1F
100
AcDbEntity
  8
0
  6
Continuous
 62
     7
370
    15
100
AcDbLine
 10
-91.07311177
 20
266.1261326848
 30
0.0
 11
-93.1231241201
 21
266.1261326848
 31
0.0
  0
LINE
  5
A9
330
1F
100
AcDbEntity
  8
0
  6
Continuous
 62
     7
370
    15
100
AcDbLine
 10
-93.1231241201
 20
453.1429541512
 30
0.0
 11
-91.07311177
 21
453.1429541512
 31
0.0
  0
LINE
  5
AA
330
1F
100
AcDbEntity
  8
0
  6
Continuous
 62
     7
370
    15
100
AcDbLine
 10
-91.07311177
 20
453.1429541512
 30
0.0
 11
-91.07311177
 21
266.1261326848
 31
0.0
  0
LINE
  5
AB
330
1F
100
AcDbEntity
  8
0
  6
Continuous
 62
     7
370
    15
100
AcDbLine
 10
-143.492535827
 20
487.4857348605
 30
0.0
 11
-110.1955931161
 21
478.5638434096
 31
0.0
  0
LINE
  5
AC
330
1F
100
AcDbEntity
  8
0
  6
Continuous
 62
     7
370
    15
100
AcDbLine
 10
-143.6995725606
 20
486.7129904433
 30
0.0
 11
-110.4026298497
 21
477.7910989924
 31
0.0
  0
ARC
  5
AD
330
1F
100
AcDbEntity
  8
0
  6
Continuous
 62
     7
370
    15
100
AcDbCircle
 10
-144.0231107234
 20
485.5055873872
 30
0.0
 40
2.049999999999995
100
AcDbArc
 50
75.0
 51
180.0
  0
ARC
  5
AE
330
1F
100
AcDbEntity
  8
0
  6
Continuous
 62
     7
370
    15
100
AcDbCircle
 10
-144.0231107234
 20
485.5055873872
 30
0.0
 40
1.250000000000031
100
AcDbArc
 50
75.0
 51
180.0
  0
LINE
  5
AF
330
1F
100
AcDbEntity
  8
0
  6
Continuous
 62
     7
370
    15
100
AcDbLine
 10
-146.0731189225
 20
475.1346242829
 30
0.0
 11
-145.2731053804
 21
475.1346242829
 31
0.0
  0
LINE
  5
B0
330
1F
100
AcDbEntity
  8
0
  6
Continuous
 62
     7
370
    15
100
AcDbLine
 10
-145.2731053804
 20
475.1346242829
 30
0.0
 11
-145.2731053804
 21
485.5055940552
 31
0.0
  0
LINE
  5
B1
330
1F
100
AcDbEntity
  8
0
  6
Continuous
 62
     7
370
    15
100
AcDbLine
 10
-146.0731189225
 20
475.1346242829
 30
0.0
 11
-146.0731189225
 21
485.5055940552
 31
0.0
  0
ARC
  5
B2
330
1F
100
AcDbEntity
  8
0
  6
Continuous
 62
     7
370
    15
100
AcDbCircle
 10
-116.8731107234
 20
453.642957528
 30
0.0
 40
25.00000000000003
100
AcDbArc
 50
0.0
 51
75.0
  0
ARC
  5
B3
330
1F
100
AcDbEntity
  8
0
  6
Continuous
 62
     7
370
    15
100
AcDbCircle
 10
-116.8731107234
 20
453.642957528
 30
0.0
 40
25.80000000000005
100
AcDbArc
 50
0.0
 51
75.0
  0
LINE
  5
B4
330
1F
100
AcDbEntity
  8
0
  6
Continuous
 62
     7
370
    15
100
AcDbLine
 10
-91.07311177
 20
453.6429626151
 30
0.0
 11
-91.07311177
 21
453.5429609223
 31
0.0
  0
LINE
  5
B5
330
1F
100
AcDbEntity
  8
0
  6
Continuous
 62
     7
370
    15
100
AcDbLine
 10
-91.8731253121
 20
453.5429609223
 30
0.0
 11
-91.07311177
 21
453.5429609223
 31
0.0
  0
LINE
  5
B6
330
1F
100
AcDbEntity
  8
0
  6
Continuous
 62
     7
370
    15
100
AcDbLine
 10
-91.8731253121
 20
453.6429626151
 30
0.0
 11
-91.8731253121
 21
453.5429609223
 31
0.0
  0
LINE
  5
B7
330
1F
100
AcDbEntity
  8
0
  6
Continuous
 62
     7
370
    15
100
AcDbLine
 10
-91.07311177
 20
453.1429541512
 30
0.0
 11
-91.07311177
 21
453.5429609223
 31
0.0
  0
LINE
  5
B8
330
1F
100
AcDbEntity
  8
0
  6
Continuous
 62
     7
370
    15
100
AcDbLine
 10
-91.8731253121
 20
453.5429609223
 30
0.0
 11
-91.8731253121
 21
453.1429541512
 31
0.0
  0
LINE
  5
B9
330
1F
100
AcDbEntity
  8
0
  6
Continuous
 62
     7
370
    15
100
AcDbLine
 10
605.9330542113
 20
165.2369109197
 30
0.0
 11
586.2151522662
 21
225.860888253
 31
0.0
  0
LINE
  5
BA
330
1F
100
AcDbEntity
  8
0
  6
Continuous
 62
     7
370
    15
100
AcDbLine
 10
604.5065958526
 20
164.7729632659
 30
0.0
 11
603.5816211726
 21
167.6168498798
 31
0.0
  0
LINE
  5
BB
330
1F
100
AcDbEntity
  8
0
  6
Continuous
 62
     7
370
    15
100
AcDbLine
 10
607.4795563247
 20
160.4820919438
 30
0.0
 11
606.0530979659
 21
160.0181368394
 31
0.0
  0
LWPOLYLINE
  5
BC
330
1F
100
AcDbEntity
  8
0
  6
Continuous
 62
     7
370
    15
100
AcDbPolyline
 90
        9
 70
   128
 43
0.0
 10
605.9330542113
 20
165.2369109197
 10
606.2347431209
 20
164.3092912836
 10
606.5248687293
 20
163.4173226757
 10
606.7922253634
 20
162.5952703162
 10
607.0265908267
 20
161.8747470184
 10
607.2189052131
 20
161.2834242387
 10
607.3618371512
 20
160.844026248
 10
607.4498434092
 20
160.5734509631
 10
607.4795563247
 20
160.4820919438
  0
LWPOLYLINE
  5
BD
330
1F
100
AcDbEntity
  8
0
  6
Continuous
 62
     7
370
    15
100
AcDbPolyline
 90
        9
 70
   128
 43
0.0
 10
606.0530979659
 20
160.0181368394
 10
606.0233850505
 20
160.1095033093
 10
605.9353787925
 20
160.3800785942
 10
605.7924766566
 20
160.8194691344
 10
605.6001324679
 20
161.410791914
 10
605.365796807
 20
162.1313226624
 10
605.0984103705
 20
162.9533675714
 10
604.8083145644
 20
163.8453436299
 10
604.5065958526
 20
164.7729632659
  0
LINE
  5
BE
330
1F
100
AcDbEntity
  8
0
  6
Continuous
 62
     7
370
    15
100
AcDbLine
 10
627.2049386527
 20
198.444685082
 30
0.0
 11
625.7785100963
 21
197.9807337029
 31
0.0
  0
LWPOLYLINE
  5
BF
330
1F
100
AcDbEntity
  8
0
  6
Continuous
 62
     7
370
    15
100
AcDbPolyline
 90
        9
 70
   128
 43
0.0
 10
624.111934426
 20
207.9543304844
 10
624.7153718497
 20
206.099087487
 10
625.2955932643
 20
204.3151465459
 10
625.8303363349
 20
202.6710530026
 10
626.2990374591
 20
201.2299952312
 10
626.6836960341
 20
200.0473496719
 10
626.9695003058
 20
199.1685648663
 10
627.1455128219
 20
198.6274105711
 10
627.2049386527
 20
198.444685082
  0
LWPOLYLINE
  5
C0
330
1F
100
AcDbEntity
  8
0
  6
Continuous
 62
     7
370
    15
100
AcDbPolyline
 90
        9
 70
   128
 43
0.0
 10
625.7785100963
 20
197.9807337029
 10
625.7190842654
 20
198.1634591921
 10
625.5430717494
 20
198.7046134873
 10
625.2572376754
 20
199.5833982928
 10
624.8725791003
 20
200.7660438521
 10
624.4038779761
 20
202.2071016236
 10
623.8691349055
 20
203.8511951669
 10
623.288913491
 20
205.6351398333
 10
622.6855058696
 20
207.4903791054
  0
LINE
  5
C1
330
1F
100
AcDbEntity
  8
0
  6
Continuous
 62
     7
370
    15
100
AcDbLine
 10
621.9468553092
 20
214.6110777958
 30
0.0
 11
624.111934426
 21
207.9543304844
 31
0.0
  0
LINE
  5
C2
330
1F
100
AcDbEntity
  8
0
  6
Continuous
 62
     7
370
    15
100
AcDbLine
 10
620.5203969504
 20
214.147130142
 30
0.0
 11
622.6855058696
 21
207.4903791054
 31
0.0
  0
ARC
  5
C3
330
1F
100
AcDbEntity
  8
0
  6
Continuous
 62
     7
370
    15
100
AcDbCircle
 10
598.6482145667
 20
207.0332172691
 30
0.0
 40
24.50000000000014
100
AcDbArc
 50
18.0170795066
 51
108.0170795066
  0
ARC
  5
C4
330
1F
100
AcDbEntity
  8
0
  6
Continuous
 62
     7
370
    15
100
AcDbCircle
 10
598.6482145667
 20
207.0332172691
 30
0.0
 40
23.00000000000003
100
AcDbArc
 50
18.0170795066
 51
108.0170795066
  0
ARC
  5
C5
330
1F
100
AcDbEntity
  8
0
  6
Continuous
 62
     7
370
    15
100
AcDbCircle
 10
587.4038483276
 20
226.2475147551
 30
0.0
 40
2.750000000000075
100
AcDbArc
 50
108.0170795066
 51
191.4204723064
  0
ARC
  5
C6
330
1F
100
AcDbEntity
  8
0
  6
Continuous
 62
     7
370
    15
100
AcDbCircle
 10
587.4038483276
 20
226.2475147551
 30
0.0
 40
1.250000000000046
100
AcDbArc
 50
108.0170795066
 51
198.0170795066
  0
LINE
  5
C7
330
1F
100
AcDbEntity
  8
0
  6
Continuous
 62
     7
370
    15
100
AcDbLine
 10
586.5532596137
 20
228.8626675709
 30
0.0
 11
591.0703380134
 21
230.3318438335
 31
0.0
  0
LINE
  5
C8
330
1F
100
AcDbEntity
  8
0
  6
Continuous
 62
     7
370
    15
100
AcDbLine
 10
587.0172221686
 20
227.436220388
 30
0.0
 11
591.5343005683
 21
228.9053966506
 31
0.0
  0
LINE
  5
C9
330
1F
100
AcDbEntity
  8
0
  6
Continuous
 62
     7
370
    15
100
AcDbLine
 10
563.7002725627
 20
-14.673860629
 30
0.0
 11
563.9370818164
 21
-14.673860629
 31
0.0
  0
LINE
  5
CA
330
1F
100
AcDbEntity
  8
0
  6
Continuous
 62
     7
370
    15
100
AcDbLine
 10
562.7768774058
 20
111.9949502154
 30
0.0
 11
562.7768774058
 21
230.6826227559
 31
0.0
  0
ARC
  5
CB
330
1F
100
AcDbEntity
  8
0
  6
Continuous
 62
     7
370
    15
100
AcDbCircle
 10
563.7768892766
 20
111.9949474924
 30
0.0
 40
1.0
100
AcDbArc
 50
180.0
 51
270.0
  0
ARC
  5
CC
330
1F
100
AcDbEntity
  8
0
  6
Continuous
 62
     7
370
    15
100
AcDbCircle
 10
563.7768892766
 20
230.6826220196
 30
0.0
 40
1.0
100
AcDbArc
 50
90.0
 51
180.0
  0
LINE
  5
CD
330
1F
100
AcDbEntity
  8
0
  6
Continuous
 62
     7
370
    15
100
AcDbLine
 10
-165.4231111978
 20
31.3261282845
 30
0.0
 11
-165.4231111978
 21
53.3261281653
 31
0.0
  0
LINE
  5
CE
330
1F
100
AcDbEntity
  8
0
  6
Continuous
 62
     7
370
    15
100
AcDbLine
 10
-167.4231152509
 20
33.3261323376
 30
0.0
 11
-167.4231152509
 21
51.3261390133
 31
0.0
  0
LINE
  5
CF
330
1F
100
AcDbEntity
  8
0
  6
Continuous
 62
     7
370
    15
100
AcDbLine
 10
504.2768855121
 20
285.2261328353
 30
0.0
 11
504.2768855121
 21
252.5761324196
 31
0.0
  0
ARC
  5
D0
330
1F
100
AcDbEntity
  8
0
  6
Continuous
 62
     7
370
    15
100
AcDbCircle
 10
506.2768892766
 20
285.2261322275
 30
0.0
 40
2.0
100
AcDbArc
 50
90.0
 51
180.0
  0
LINE
  5
D1
330
1F
100
AcDbEntity
  8
0
  6
Continuous
 62
     7
370
    15
100
AcDbLine
 10
597.2768802668
 20
287.2261313005
 30
0.0
 11
506.2768895652
 21
287.2261313005
 31
0.0
  0
ARC
  5
D2
330
1F
100
AcDbEntity
  8
0
  6
Continuous
 62
     7
370
    15
100
AcDbCircle
 10
597.2768892766
 20
264.2261322275
 30
0.0
 40
23.0
100
AcDbArc
 50
299.5911871723
 51
90.0
  0
LINE
  5
D3
330
1F
100
AcDbEntity
  8
0
  6
Continuous
 62
     7
370
    15
100
AcDbLine
 10
581.5768976237
 20
232.7261326118
 30
0.0
 11
608.6344857242
 21
244.2260013177
 31
0.0
  0
LINE
  5
D4
330
1F
100
AcDbEntity
  8
0
  6
Continuous
 62
     7
370
    15
100
AcDbLine
 10
565.2768750216
 20
232.7261326118
 30
0.0
 11
581.5768976237
 21
232.7261326118
 31
0.0
  0
ARC
  5
D5
330
1F
100
AcDbEntity
  8
0
  6
Continuous
 62
     7
370
    15
100
AcDbCircle
 10
565.2768892766
 20
234.7261322275
 30
0.0
 40
2.0
100
AcDbArc
 50
180.0
 51
270.0
  0
LINE
  5
D6
330
1F
100
AcDbEntity
  8
0
  6
Continuous
 62
     7
370
    15
100
AcDbLine
 10
563.2769007708
 20
253.0761322687
 30
0.0
 11
563.2769007708
 21
234.7261329396
 31
0.0
  0
LINE
  5
D7
330
1F
100
AcDbEntity
  8
0
  6
Continuous
 62
     7
370
    15
100
AcDbLine
 10
563.2769007708
 20
253.0761322687
 30
0.0
 11
561.6769034888
 21
253.0761322687
 31
0.0
  0
LINE
  5
D8
330
1F
100
AcDbEntity
  8
0
  6
Continuous
 62
     7
370
    15
100
AcDbLine
 10
561.6769034888
 20
253.0761322687
 30
0.0
 11
561.6769034888
 21
252.5761324196
 31
0.0
  0
ARC
  5
D9
330
1F
100
AcDbEntity
  8
0
  6
Continuous
 62
     7
370
    15
100
AcDbCircle
 10
584.2385765996
 20
248.9278190795
 30
0.0
 40
0.2503794968157466
100
AcDbArc
 50
259.1110070998
 51
83.3730607603
  0
ARC
  5
DA
330
1F
100
AcDbEntity
  8
0
  6
Continuous
 62
     7
370
    15
100
AcDbCircle
 10
584.7768892766
 20
251.7261322275
 30
0.0
 40
2.600000000000052
100
AcDbArc
 50
101.3148497955
 51
258.700947069
  0
ARC
  5
DB
330
1F
100
AcDbEntity
  8
0
  6
Continuous
 62
     7
370
    15
100
AcDbCircle
 10
584.2385765996
 20
254.5244152552
 30
0.0
 40
0.2504090746769227
100
AcDbArc
 50
276.4642622073
 51
100.8891073053
  0
ARC
  5
DC
330
1F
100
AcDbEntity
  8
0
  6
Continuous
 62
     7
370
    15
100
AcDbCircle
 10
584.7768892766
 20
251.7261322275
 30
0.0
 40
3.100000000000021
100
AcDbArc
 50
100.8891073053
 51
259.1110070997
  0
ARC
  5
DD
330
1F
100
AcDbEntity
  8
0
  6
Continuous
 62
     7
370
    15
100
AcDbCircle
 10
584.7768892766
 20
251.7261322275
 30
0.0
 40
2.599999999999997
100
AcDbArc
 50
280.4998591652
 51
79.5001408348
  0
ARC
  5
DE
330
1F
100
AcDbEntity
  8
0
  6
Continuous
 62
     7
370
    15
100
AcDbCircle
 10
585.2768892766
 20
248.9206912912
 30
0.0
 40
0.2503511010932298
100
AcDbArc
 50
96.005776495
 51
280.1054407084
  0
ARC
  5
DF
330
1F
100
AcDbEntity
  8
0
  6
Continuous
 62
     7
370
    15
100
AcDbCircle
 10
584.7768892766
 20
251.7261322275
 30
0.0
 40
3.099999999999989
100
AcDbArc
 50
280.1054407084
 51
79.8945592916
  0
ARC
  5
E0
330
1F
100
AcDbEntity
  8
0
  6
Continuous
 62
     7
370
    15
100
AcDbCircle
 10
585.2768892766
 20
254.5315731638
 30
0.0
 40
0.2503511010932462
100
AcDbArc
 50
79.8945592916
 51
263.9942235051
  0
LINE
  5
E1
330
1F
100
AcDbEntity
  8
0
  6
Continuous
 62
     7
370
    15
100
AcDbLine
 10
561.6769034888
 20
252.5761324196
 30
0.0
 11
561.6769034888
 21
250.1261323905
 31
0.0
  0
LINE
  5
E2
330
1F
100
AcDbEntity
  8
0
  6
Continuous
 62
     7
370
    15
100
AcDbLine
 10
504.2768855121
 20
250.1261323905
 30
0.0
 11
504.2768855121
 21
252.5761324196
 31
0.0
  0
LINE
  5
E3
330
1F
100
AcDbEntity
  8
0
  6
Continuous
 62
     7
370
    15
100
AcDbLine
 10
561.6769034888
 20
248.7721053167
 30
0.0
 11
561.6769034888
 21
248.8761321856
 31
0.0
  0
LINE
  5
E4
330
1F
100
AcDbEntity
  8
0
  6
Continuous
 62
     7
370
    15
100
AcDbLine
 10
-169.423119304
 20
31.3261282845
 30
0.0
 11
-169.423119304
 21
53.3261281653
 31
0.0
  0
LINE
  5
E5
330
1F
100
AcDbEntity
  8
0
  6
Continuous
 62
     7
370
    15
100
AcDbLine
 10
-171.4231233571
 20
33.3261323376
 30
0.0
 11
-171.4231233571
 21
51.3261390133
 31
0.0
  0
LINE
  5
E6
330
1F
100
AcDbEntity
  8
0
  6
Continuous
 62
     7
370
    15
100
AcDbLine
 10
-144.0231065724
 20
475.43461446
 30
0.0
 11
-144.0231065724
 21
475.0346225901
 31
0.0
  0
LINE
  5
E7
330
1F
100
AcDbEntity
  8
0
  6
Continuous
 62
     7
370
    15
100
AcDbLine
 10
-144.8231201146
 20
475.43461446
 30
0.0
 11
-144.8231201146
 21
475.0346225901
 31
0.0
  0
LINE
  5
E8
330
1F
100
AcDbEntity
  8
0
  6
Continuous
 62
     7
370
    15
100
AcDbLine
 10
-144.8231201146
 20
249.3261323525
 30
0.0
 11
-144.8231201146
 21
249.3190612859
 31
0.0
  0
LINE
  5
E9
330
1F
100
AcDbEntity
  8
0
  6
Continuous
 62
     7
370
    15
100
AcDbLine
 10
-144.0231065724
 20
264.9261319293
 30
0.0
 11
-144.0231065724
 21
263.6761321901
 31
0.0
  0
LINE
  5
EA
330
1F
100
AcDbEntity
  8
0
  6
Continuous
 62
     7
370
    15
100
AcDbLine
 10
-144.8231201146
 20
266.1261326848
 30
0.0
 11
-144.8231201146
 21
264.9190613283
 31
0.0
  0
LINE
  5
EB
330
1F
100
AcDbEntity
  8
0
  6
Continuous
 62
     7
370
    15
100
AcDbLine
 10
-144.8231201146
 20
249.9679039447
 30
0.0
 11
-144.8231201146
 21
249.3261323525
 31
0.0
  0
LINE
  5
EC
330
1F
100
AcDbEntity
  8
0
  6
Continuous
 62
     7
370
    15
100
AcDbLine
 10
-144.0231065724
 20
251.97634904
 30
0.0
 11
-144.0231065724
 21
251.7242898448
 31
0.0
  0
LINE
  5
ED
330
1F
100
AcDbEntity
  8
0
  6
Continuous
 62
     7
370
    15
100
AcDbLine
 10
-173.4230976079
 20
31.3261282845
 30
0.0
 11
-173.4230976079
 21
53.3261281653
 31
0.0
  0
LINE
  5
EE
330
1F
100
AcDbEntity
  8
0
  6
Continuous
 62
     7
370
    15
100
AcDbLine
 10
-175.423101661
 20
33.3261323376
 30
0.0
 11
-175.423101661
 21
51.3261390133
 31
0.0
  0
LINE
  5
EF
330
1F
100
AcDbEntity
  8
0
  6
Continuous
 62
     7
370
    15
100
AcDbLine
 10
-177.4231057141
 20
31.3261282845
 30
0.0
 11
-177.4231057141
 21
53.3261281653
 31
0.0
  0
LINE
  5
F0
330
1F
100
AcDbEntity
  8
0
  6
Continuous
 62
     7
370
    15
100
AcDbLine
 10
-179.4231097673
 20
33.3261323376
 30
0.0
 11
-179.4231097673
 21
51.3261390133
 31
0.0
  0
SPLINE
  5
F1
330
1F
100
AcDbEntity
  8
0
  6
Continuous
 62
     7
370
    15
100
AcDbSpline
210
0.0
220
0.0
230
1.0
 70
     8
 71
     3
 72
    11
 73
     7
 74
     0
 42
0.00000001
 43
0.00000001
 40
0.0
 40
0.0
 40
0.0
 40
0.0
 40
0.2542926717179423
 40
0.5087776706500002
 40
0.7632483375571747
 40
1.0
 40
1.0
 40
1.0
 40
1.0
 10
-144.0160434220404
 20
-14.67386062904053
 30
0.0
 10
-143.9106705009949
 20
-14.65439948674729
 30
0.0
 10
-143.6998449630157
 20
-14.61546248326517
 30
0.0
 10
-143.3836059530361
 20
-14.31652126814531
 30
0.0
 10
-143.0745088913802
 20
-13.90053592194701
 30
0.0
 10
-142.8711294227938
 20
-13.57888574655303
 30
0.0
 10
-142.7731077645392
 20
-13.42386182113348
 30
0.0
  0
SPLINE
  5
F2
330
1F
100
AcDbEntity
  8
0
  6
Continuous
 62
     7
370
    15
100
AcDbSpline
210
0.0
220
0.0
230
1.0
 70
     8
 71
     3
 72
    12
 73
     8
 74
     0
 42
0.00000001
 43
0.00000001
 40
0.0
 40
0.0
 40
0.0
 40
0.0
 40
0.2301626190912585
 40
0.460423327610734
 40
0.6906746178880678
 40
0.9209285840122929
 40
0.9999999999999999
 40
0.9999999999999999
 40
0.9999999999999999
 40
0.9999999999999999
 10
-144.0160434220404
 20
-15.47387417121582
 30
0.0
 10
-143.9206459222215
 20
-15.44779230621124
 30
0.0
 10
-143.7298102666064
 20
-15.39561746077755
 30
0.0
 10
-143.4435451465765
 20
-14.99094448385957
 30
0.0
 10
-143.1574183679395
 20
-14.40287317015504
 30
0.0
 10
-142.9333075431196
 20
-13.83885958660647
 30
0.0
 10
-142.8057218936856
 20
-13.50834877135615
 30
0.0
 10
-142.7731077645392
 20
-13.42386182113348
 30
0.0
  0
LINE
  5
F3
330
1F
100
AcDbEntity
  8
0
  6
Continuous
 62
     7
370
    15
100
AcDbLine
 10
-144.016043422
 20
-15.4738741712
 30
0.0
 11
-144.016043422
 21
-14.673860629
 31
0.0
  0
LINE
  5
F4
330
1F
100
AcDbEntity
  8
0
  6
Continuous
 62
     7
370
    15
100
AcDbLine
 10
561.9698305156
 20
-15.4738741712
 30
0.0
 11
-144.016043422
 21
-15.4738741712
 31
0.0
  0
SPLINE
  5
F5
330
1F
100
AcDbEntity
  8
0
  6
Continuous
 62
     7
370
    15
100
AcDbSpline
210
0.0
220
0.0
230
1.0
 70
     8
 71
     3
 72
    12
 73
     8
 74
     0
 42
0.00000001
 43
0.00000001
 40
0.0
 40
0.0
 40
0.0
 40
0.0
 40
0.2353718949140355
 40
0.5035769056005497
 40
0.7398171110122356
 40
0.9425262929090292
 40
1.0
 40
1.0
 40
1.0
 40
1.0
 10
560.7268948580653
 20
-13.42386182113342
 30
0.0
 10
560.8685672931626
 20
-13.65756747022284
 30
0.0
 10
561.1716747075008
 20
-14.15757945182672
 30
0.0
 10
561.5824628100619
 20
-14.82710823076372
 30
0.0
 10
561.8380185456743
 20
-15.30335657436749
 30
0.0
 10
561.9394888070995
 20
-15.46277924940387
 30
0.0
 10
561.964340780782
 20
-15.471866763549
 30
0.0
 10
561.9698305155665
 20
-15.47387417121587
 30
0.0
  0
SPLINE
  5
F6
330
1F
100
AcDbEntity
  8
0
  6
Continuous
 62
     7
370
    15
100
AcDbSpline
210
0.0
220
0.0
230
1.0
 70
     8
 71
     3
 72
    32
 73
    28
 74
     0
 42
0.00000001
 43
0.00000001
 40
0.0
 40
0.0
 40
0.0
 40
0.0
 40
0.125
 40
0.125
 40
0.25
 40
0.25
 40
0.375
 40
0.375
 40
0.4375
 40
0.4375
 40
0.46875
 40
0.46875
 40
0.484375
 40
0.484375
 40
0.4921875
 40
0.4921875
 40
0.49609375
 40
0.49609375
 40
0.498046875
 40
0.498046875
 40
0.5
 40
0.5
 40
0.625
 40
0.625
 40
0.75
 40
0.75
 40
1.0
 40
1.0
 40
1.0
 40
1.0
 10
-142.773110723419
 20
-13.42386777253229
 30
0.0
 10
-142.9417159366263
 20
-13.52502657944471
 30
0.0
 10
-143.0974717222413
 20
-13.61742098018404
 30
0.0
 10
-143.3776429169016
 20
-13.78499637689684
 30
0.0
 10
-143.5020692314414
 20
-13.86012480494031
 30
0.0
 10
-143.7195351486557
 20
-13.99306312040122
 30
0.0
 10
-143.8126598205926
 20
-14.05087300781871
 30
0.0
 10
-143.9313693887634
 20
-14.12459893347545
 30
0.0
 10
-143.9674606722449
 20
-14.14700942444946
 30
0.0
 10
-144.0167799943679
 20
-14.1773779345431
 30
0.0
 10
-144.0324171646876
 20
-14.1869595668464
 30
0.0
 10
-144.0547204480125
 20
-14.20052020870954
 30
0.0
 10
-144.0619627984284
 20
-14.20490512156536
 30
0.0
 10
-144.0725446061376
 20
-14.21127953920104
 30
0.0
 10
-144.0760249219412
 20
-14.21337051980481
 30
0.0
 10
-144.0811757599841
 20
-14.21645625279866
 30
0.0
 10
-144.0828811000112
 20
-14.21747637414461
 30
0.0
 10
-144.0854217999533
 20
-14.21899387168557
 30
0.0
 10
-144.0862658149144
 20
-14.21949759011953
 30
0.0
 10
-144.0879480912379
 20
-14.22050079882819
 30
0.0
 10
-144.0882998571657
 20
-14.22071063942298
 30
0.0
 10
-144.1742225904537
 20
-14.27186732128499
 30
0.0
 10
-144.2606777480026
 20
-14.31892162659665
 30
0.0
 10
-144.4274471078693
 20
-14.40639953586908
 30
0.0
 10
-144.5077567249117
 20
-14.44682313982981
 30
0.0
 10
-144.7198290586112
 20
-14.55814789968546
 30
0.0
 10
-144.8231107234191
 20
-14.61888129718603
 30
0.0
 10
-144.8231107234191
 20
-14.66679670472043
 30
0.0
  0
LINE
  5
F7
330
1F
100
AcDbEntity
  8
0
  6
Continuous
 62
     7
370
    15
100
AcDbLine
 10
-144.8231201146
 20
249.3190612859
 30
0.0
 11
-144.8231201146
 21
-14.6667974786
 31
0.0
  0
SPLINE
  5
F8
330
1F
100
AcDbEntity
  8
0
  6
Continuous
 62
     7
370
    15
100
AcDbSpline
210
0.0
220
0.0
230
1.0
 70
     8
 71
     3
 72
    12
 73
     8
 74
     0
 42
0.00000001
 43
0.00000001
 40
0.0
 40
0.0
 40
0.0
 40
0.0
 40
0.1874044505952396
 40
0.3754344400631445
 40
0.5704419400472713
 40
0.7798281718116139
 40
1.0
 40
1.0
 40
1.0
 40
1.0
 10
-144.8231201146216
 20
249.3190612858648
 30
0.0
 10
-144.8027858064833
 20
249.2960961710577
 30
0.0
 10
-144.7620493161502
 20
249.250089285996
 30
0.0
 10
-144.4507998701568
 20
249.0785470178601
 30
0.0
 10
-143.9927516151917
 20
248.823450457891
 30
0.0
 10
-143.4196928289051
 20
248.4667252428125
 30
0.0
 10
-142.9922139166479
 20
248.2084914517634
 30
0.0
 10
-142.7731077645392
 20
248.0761326132829
 30
0.0
  0
SPLINE
  5
F9
330
1F
100
AcDbEntity
  8
0
  6
Continuous
 62
     7
370
    15
100
AcDbSpline
210
0.0
220
0.0
230
1.0
 70
     8
 71
     3
 72
    24
 73
    20
 74
     0
 42
0.00000001
 43
0.00000001
 40
0.0
 40
0.0
 40
0.0
 40
0.0
 40
0.0644512564079551
 40
0.1250748349618298
 40
0.1818723400885764
 40
0.2348457697409592
 40
0.2839976347069084
 40
0.3293311279772425
 40
0.3708503715759628
 40
0.408560787421501
 40
0.4424696748697147
 40
0.4725871493092095
 40
0.4989277482530396
 40
0.5714944947878869
 40
0.647786523457439
 40
0.7283531857573008
 40
0.8136604203297753
 40
0.9041000269768766
 40
1.0
 40
1.0
 40
1.0
 40
1.0
 10
-142.7731107234191
 20
-13.42386777253229
 30
0.0
 10
-142.8094429240293
 20
-13.4595276391824
 30
0.0
 10
-142.8799496022291
 20
-13.52872957851753
 30
0.0
 10
-142.9823343349701
 20
-13.62871615693967
 30
0.0
 10
-143.0774443434526
 20
-13.72186614023552
 30
0.0
 10
-143.1650297437882
 20
-13.80814199725178
 30
0.0
 10
-143.2449803500718
 20
-13.88755390252022
 30
0.0
 10
-143.3173496437661
 20
-13.96010079668941
 30
0.0
 10
-143.3823082964557
 20
-14.02578513593627
 30
0.0
 10
-143.4401187210552
 20
-14.08460862604138
 30
0.0
 10
-143.4911039379572
 20
-14.13657710107119
 30
0.0
 10
-143.5356341163564
 20
-14.18168969828359
 30
0.0
 10
-143.5983789018076
 20
-14.24418560367108
 30
0.0
 10
-143.6826349607329
 20
-14.32162138426185
 30
0.0
 10
-143.7851557764968
 20
-14.40902647187359
 30
0.0
 10
-143.8791571740964
 20
-14.48755720659678
 30
0.0
 10
-143.9564380209942
 20
-14.55699607340921
 30
0.0
 10
-144.0118713409307
 20
-14.61826741237376
 30
0.0
 10
-144.0192917814347
 20
-14.65030731553851
 30
0.0
 10
-144.0231107234191
 20
-14.66679670472043
 30
0.0
  0
LINE
  5
FA
330
1F
100
AcDbEntity
  8
0
  6
Continuous
 62
     7
370
    15
100
AcDbLine
 10
-144.8231201146
 20
-14.6667974786
 30
0.0
 11
-144.0231065724
 21
-14.6667974786
 31
0.0
  0
SPLINE
  5
FB
330
1F
100
AcDbEntity
  8
0
  6
Continuous
 62
     7
370
    15
100
AcDbSpline
210
0.0
220
0.0
230
1.0
 70
     8
 71
     3
 72
    14
 73
    10
 74
     0
 42
0.00000001
 43
0.00000001
 40
0.0
 40
0.0
 40
0.0
 40
0.0
 40
0.25
 40
0.25
 40
0.5
 40
0.5
 40
0.75
 40
0.75
 40
1.0
 40
1.0
 40
1.0
 40
1.0
 10
-142.7731107234162
 20
248.0761322274678
 30
0.0
 10
-142.8766881344319
 20
248.2397568448422
 30
0.0
 10
-142.9802655454476
 20
248.4033170829169
 30
0.0
 10
-143.1874203674789
 20
248.7056559529314
 30
0.0
 10
-143.2909977784946
 20
248.8443156274365
 30
0.0
 10
-143.4981526005259
 20
249.0757157804655
 30
0.0
 10
-143.6017300115416
 20
249.1683652129107
 30
0.0
 10
-143.808884833573
 20
249.2935980733033
 30
0.0
 10
-143.9124622445887
 20
249.3261322274679
 30
0.0
 10
-144.0160396556043
 20
249.3261322274679
 30
0.0
  0
LINE
  5
FC
330
1F
100
AcDbEntity
  8
0
  6
Continuous
 62
     7
370
    15
100
AcDbLine
 10
-144.016043422
 20
249.3261323525
 30
0.0
 11
-144.016043422
 21
250.1261323905
 31
0.0
  0
SPLINE
  5
FD
330
1F
100
AcDbEntity
  8
0
  6
Continuous
 62
     7
370
    15
100
AcDbSpline
210
0.0
220
0.0
230
1.0
 70
     8
 71
     3
 72
    14
 73
    10
 74
     0
 42
0.00000001
 43
0.00000001
 40
0.0
 40
0.0
 40
0.0
 40
0.0
 40
0.25
 40
0.25
 40
0.5
 40
0.5
 40
0.75
 40
0.75
 40
1.0
 40
1.0
 40
1.0
 40
1.0
 10
-142.7731107234162
 20
248.0761322274677
 30
0.0
 10
-142.876704387656
 20
248.3445187081899
 30
0.0
 10
-142.9802655454476
 20
248.6127153904042
 30
0.0
 10
-143.1874203674789
 20
249.1085511372281
 30
0.0
 10
-143.2909977784946
 20
249.3359530034164
 30
0.0
 10
-143.4981526005259
 20
249.7154492543841
 30
0.0
 10
-143.6017300115416
 20
249.8673943235941
 30
0.0
 10
-143.808884833573
 20
250.0727762146379
 30
0.0
 10
-143.9124459913644
 20
250.1261322274679
 30
0.0
 10
-144.0160396556043
 20
250.1261322274679
 30
0.0
  0
LWPOLYLINE
  5
FE
330
1F
100
AcDbEntity
  8
0
  6
Continuous
 62
     7
370
    15
100
AcDbPolyline
 90
        2
 70
   128
 43
0.0
 10
-142.7731077645
 20
248.0761326133
 10
-142.7731077645
 20
248.0761326133
  0
SPLINE
  5
FF
330
1F
100
AcDbEntity
  8
0
  6
Continuous
 62
     7
370
    15
100
AcDbSpline
210
0.0
220
0.0
230
1.0
 70
     8
 71
     3
 72
    12
 73
     8
 74
     0
 42
0.00000001
 43
0.00000001
 40
0.0
 40
0.0
 40
0.0
 40
0.0
 40
0.1739934241111659
 40
0.3320977395351193
 40
0.5068797887314417
 40
0.7762262814584203
 40
0.9999999999999999
 40
0.9999999999999999
 40
0.9999999999999999
 40
0.9999999999999999
 10
-144.0231065724463
 20
249.3190612858648
 30
0.0
 10
-144.0098566848505
 20
249.2951328956578
 30
0.0
 10
-143.9845668916179
 20
249.249461259853
 30
0.0
 10
-143.8073945907362
 20
249.0886250794632
 30
0.0
 10
-143.5291299784595
 20
248.8355818873596
 30
0.0
 10
-143.1747930984546
 20
248.4742064163786
 30
0.0
 10
-142.8984911959175
 20
248.2003887291023
 30
0.0
 10
-142.7731077645392
 20
248.0761326132829
 30
0.0
  0
LINE
  5
100
330
1F
100
AcDbEntity
  8
0
  6
Continuous
 62
     7
370
    15
100
AcDbLine
 10
-144.8231201146
 20
249.3190612859
 30
0.0
 11
-144.0231065724
 21
249.3190612859
 31
0.0
  0
SPLINE
  5
101
330
1F
100
AcDbEntity
  8
0
  6
Continuous
 62
     7
370
    15
100
AcDbSpline
210
0.0
220
0.0
230
1.0
 70
     8
 71
     3
 72
    32
 73
    28
 74
     0
 42
0.00000001
 43
0.00000001
 40
0.0
 40
0.0
 40
0.0
 40
0.0
 40
0.25
 40
0.25
 40
0.375
 40
0.375
 40
0.4375
 40
0.4375
 40
0.46875
 40
0.46875
 40
0.484375
 40
0.484375
 40
0.4921875
 40
0.4921875
 40
0.49609375
 40
0.49609375
 40
0.498046875
 40
0.498046875
 40
0.5
 40
0.5
 40
0.625
 40
0.625
 40
0.75
 40
0.75
 40
0.875
 40
0.875
 40
1.0
 40
1.0
 40
1.0
 40
1.0
 10
561.9698182087714
 20
250.1261322274596
 30
0.0
 10
561.9291437054053
 20
250.1261322274596
 30
0.0
 10
561.8721814517522
 20
250.0337504624405
 30
0.0
 10
561.7616639648422
 20
249.8288850547283
 30
0.0
 10
561.720681478189
 20
249.7495819661223
 30
0.0
 10
561.6529927616854
 20
249.6221721114675
 30
0.0
 10
561.6293940250969
 20
249.5782797480476
 30
0.0
 10
561.592442173583
 20
249.5111810752715
 30
0.0
 10
561.5798659319728
 20
249.4886038116927
 30
0.0
 10
561.5606131329002
 20
249.4545211711689
 30
0.0
 10
561.5541307937666
 20
249.4431241006362
 30
0.0
 10
561.5443101759015
 20
249.4259860877594
 30
0.0
 10
561.5410204517526
 20
249.4202663447854
 30
0.0
 10
561.5360615882377
 20
249.411677569555
 30
0.0
 10
561.5344045875174
 20
249.4088131174223
 30
0.0
 10
561.5319130171143
 20
249.4045143271973
 30
0.0
 10
561.5310814820933
 20
249.4030810451018
 30
0.0
 10
561.5294163889429
 20
249.4002138064332
 30
0.0
 10
561.5281933783265
 20
249.3981105425848
 30
0.0
 10
561.4992607605951
 20
249.3483873743116
 30
0.0
 10
561.4612105730153
 20
249.2868818092968
 30
0.0
 10
561.3659848237676
 20
249.1338825253263
 30
0.0
 10
561.3088092620994
 20
249.042313688688
 30
0.0
 10
561.1753327646749
 20
248.8249637527761
 30
0.0
 10
561.0990318289184
 20
248.6990756920963
 30
0.0
 10
560.927304583317
 20
248.4123541709023
 30
0.0
 10
560.831941148882
 20
248.2514970847615
 30
0.0
 10
560.7268892765833
 20
248.0761322274593
 30
0.0
  0
LINE
  5
102
330
1F
100
AcDbEntity
  8
0
  6
Continuous
 62
     7
370
    15
100
AcDbLine
 10
561.9698305156
 20
250.1261323905
 30
0.0
 11
-144.016043422
 21
250.1261323905
 31
0.0
  0
SPLINE
  5
103
330
1F
100
AcDbEntity
  8
0
  6
Continuous
 62
     7
370
    15
100
AcDbSpline
210
0.0
220
0.0
230
1.0
 70
     8
 71
     3
 72
    14
 73
    10
 74
     0
 42
0.00000001
 43
0.00000001
 40
0.0
 40
0.0
 40
0.0
 40
0.0
 40
0.25
 40
0.25
 40
0.5
 40
0.5
 40
0.75
 40
0.75
 40
1.0
 40
1.0
 40
1.0
 40
1.0
 10
562.7768892765807
 20
-14.66679670472865
 30
0.0
 10
562.7768892765807
 20
-14.56320304048875
 30
0.0
 10
562.723533263751
 20
-14.45964188269727
 30
0.0
 10
562.518151372707
 20
-14.25248706066595
 30
0.0
 10
562.366206303497
 20
-14.14890964965027
 30
0.0
 10
561.9867100525294
 20
-13.94175482761895
 30
0.0
 10
561.7593081863413
 20
-13.8381774166032
 30
0.0
 10
561.2634724395174
 20
-13.63102259457188
 30
0.0
 10
560.9952757573027
 20
-13.5274614367803
 30
0.0
 10
560.7268892765809
 20
-13.42386777254051
 30
0.0
  0
SPLINE
  5
104
330
1F
100
AcDbEntity
  8
0
  6
Continuous
 62
     7
370
    15
100
AcDbSpline
210
0.0
220
0.0
230
1.0
 70
     8
 71
     3
 72
    12
 73
     8
 74
     0
 42
0.00000001
 43
0.00000001
 40
0.0
 40
0.0
 40
0.0
 40
0.0
 40
0.2301697590268703
 40
0.4604243979281701
 40
0.6906816382435046
 40
0.9209366056745585
 40
0.9999999999999999
 40
0.9999999999999999
 40
0.9999999999999999
 40
0.9999999999999999
 10
560.7268948580653
 20
248.0761326132829
 30
0.0
 10
560.973971914412
 20
248.1715219741229
 30
0.0
 10
561.4682171418967
 20
248.3623358726091
 30
0.0
 10
562.1143573301229
 20
248.6486277187973
 30
0.0
 10
562.5782865118261
 20
248.9347437644794
 30
0.0
 10
562.761129385491
 20
249.1588442625004
 30
0.0
 10
562.7736715602312
 20
249.2864456918068
 30
0.0
 10
562.7768774058253
 20
249.3190612858648
 30
0.0
  0
LINE
  5
105
330
1F
100
AcDbEntity
  8
0
  6
Continuous
 62
     7
370
    15
100
AcDbLine
 10
562.7768774058
 20
-14.6667974786
 30
0.0
 11
562.7768774058
 21
110.1949495478
 31
0.0
  0
LINE
  5
106
330
1F
100
AcDbEntity
  8
0
  6
Continuous
 62
     7
370
    15
100
AcDbLine
 10
562.7768774058
 20
110.9949481888
 30
0.0
 11
562.7768774058
 21
111.9949502154
 31
0.0
  0
LINE
  5
107
330
1F
100
AcDbEntity
  8
0
  6
Continuous
 62
     7
370
    15
100
AcDbLine
 10
562.7768774058
 20
230.6826227559
 30
0.0
 11
562.7768774058
 21
231.6826229198
 31
0.0
  0
LINE
  5
108
330
1F
100
AcDbEntity
  8
0
  6
Continuous
 62
     7
370
    15
100
AcDbLine
 10
562.7768774058
 20
232.4826215609
 30
0.0
 11
562.7768774058
 21
249.3190612859
 31
0.0
  0
SPLINE
  5
109
330
1F
100
AcDbEntity
  8
0
  6
Continuous
 62
     7
370
    15
100
AcDbSpline
210
0.0
220
0.0
230
1.0
 70
     8
 71
     3
 72
    12
 73
     8
 74
     0
 42
0.00000001
 43
0.00000001
 40
0.0
 40
0.0
 40
0.0
 40
0.0
 40
0.3486214442109986
 40
0.5715665952149669
 40
0.7575504787983893
 40
0.9445270623965317
 40
1.0
 40
1.0
 40
1.0
 40
1.0
 10
560.7268948580653
 20
-13.42386182113348
 30
0.0
 10
560.9228310460633
 20
-13.61895274778196
 30
0.0
 10
561.2440694027765
 20
-13.93880529430042
 30
0.0
 10
561.6207220600835
 20
-14.3245663995773
 30
0.0
 10
561.8393483624507
 20
-14.5699833354222
 30
0.0
 10
561.9379494764232
 20
-14.66633967854913
 30
0.0
 10
561.9638942900726
 20
-14.67246023371954
 30
0.0
 10
561.9698305155665
 20
-14.67386062904053
 30
0.0
  0
LINE
  5
10A
330
1F
100
AcDbEntity
  8
0
  6
Continuous
 62
     7
370
    15
100
AcDbLine
 10
561.9698305156
 20
-15.4738741712
 30
0.0
 11
561.9698305156
 21
-14.673860629
 31
0.0
  0
LINE
  5
10B
330
1F
100
AcDbEntity
  8
0
  6
Continuous
 62
     7
370
    15
100
AcDbLine
 10
562.7768774058
 20
-14.6667974786
 30
0.0
 11
561.976893666
 21
-14.6667974786
 31
0.0
  0
SPLINE
  5
10C
330
1F
100
AcDbEntity
  8
0
  6
Continuous
 62
     7
370
    15
100
AcDbSpline
210
0.0
220
0.0
230
1.0
 70
     8
 71
     3
 72
    14
 73
    10
 74
     0
 42
0.00000001
 43
0.00000001
 40
0.0
 40
0.0
 40
0.0
 40
0.0
 40
0.25
 40
0.25
 40
0.5
 40
0.5
 40
0.75
 40
0.75
 40
1.0
 40
1.0
 40
1.0
 40
1.0
 10
561.9768892765808
 20
-14.66679670472859
 30
0.0
 10
561.9768892765808
 20
-14.56321929371296
 30
0.0
 10
561.9443551224161
 20
-14.45964188269733
 30
0.0
 10
561.8191222620235
 20
-14.2524870606659
 30
0.0
 10
561.7264728295786
 20
-14.14890964965021
 30
0.0
 10
561.4950726765494
 20
-13.94175482761895
 30
0.0
 10
561.3564130020443
 20
-13.8381774166032
 30
0.0
 10
561.0540741320299
 20
-13.63102259457177
 30
0.0
 10
560.8905138939552
 20
-13.5274451835562
 30
0.0
 10
560.7268892765808
 20
-13.42386777254051
 30
0.0
  0
LINE
  5
10D
330
1F
100
AcDbEntity
  8
0
  6
Continuous
 62
     7
370
    15
100
AcDbLine
 10
561.9698305156
 20
250.1261323905
 30
0.0
 11
561.9698305156
 21
249.3261323525
 31
0.0
  0
SPLINE
  5
10E
330
1F
100
AcDbEntity
  8
0
  6
Continuous
 62
     7
370
    15
100
AcDbSpline
210
0.0
220
0.0
230
1.0
 70
     8
 71
     3
 72
    24
 73
    20
 74
     0
 42
0.00000001
 43
0.00000001
 40
0.0
 40
0.0
 40
0.0
 40
0.0
 40
0.0459084819137735
 40
0.0908676285698355
 40
0.1349219452764788
 40
0.178118740798213
 40
0.2205082016902273
 40
0.2621434405670334
 40
0.3030805121973517
 40
0.3433783912463578
 40
0.383098905791017
 40
0.4223066214818101
 40
0.4610686724855588
 40
0.4994545371301122
 40
0.5585300488469783
 40
0.6380531470530063
 40
0.7381162600158515
 40
0.8587594596871028
 40
0.9999999999999999
 40
0.9999999999999999
 40
0.9999999999999999
 40
0.9999999999999999
 10
561.9698182087714
 20
249.3261322274597
 30
0.0
 10
561.9628336134324
 20
249.3252514369833
 30
0.0
 10
561.9490088562522
 20
249.3235080697773
 30
0.0
 10
561.9244492671068
 20
249.3098247736309
 30
0.0
 10
561.8973411045667
 20
249.2889930303461
 30
0.0
 10
561.8674107114285
 20
249.2610379013969
 30
0.0
 10
561.8347284569902
 20
249.2269949726079
 30
0.0
 10
561.7992753712913
 20
249.1876270907623
 30
0.0
 10
561.7610552494036
 20
249.1437450322688
 30
0.0
 10
561.720067797117
 20
249.0961113648152
 30
0.0
 10
561.676307245121
 20
249.0454617223515
 30
0.0
 10
561.6297935183654
 20
248.9924730693669
 30
0.0
 10
561.5804514171429
 20
248.9378369913723
 30
0.0
 10
561.5191009466989
 20
248.8718023189398
 30
0.0
 10
561.4315426076394
 20
248.7850538272464
 30
0.0
 10
561.3073993153306
 20
248.6640378058482
 30
0.0
 10
561.1468256062667
 20
248.5045510026881
 30
0.0
 10
560.9497520943527
 20
248.3040994933478
 30
0.0
 10
560.804972553468
 20
248.1560039230666
 30
0.0
 10
560.7268892765833
 20
248.0761322274595
 30
0.0
  0
LWPOLYLINE
  5
10F
330
1F
100
AcDbEntity
  8
0
  6
Continuous
 62
     7
370
    15
100
AcDbPolyline
 90
        2
 70
   128
 43
0.0
 10
560.7268948581
 20
248.0761326133
 10
560.7268948581
 20
248.0761326133
  0
SPLINE
  5
110
330
1F
100
AcDbEntity
  8
0
  6
Continuous
 62
     7
370
    15
100
AcDbSpline
210
0.0
220
0.0
230
1.0
 70
     8
 71
     3
 72
    11
 73
     7
 74
     0
 42
0.00000001
 43
0.00000001
 40
0.0
 40
0.0
 40
0.0
 40
0.0
 40
0.254304214889536
 40
0.5087844455332043
 40
0.7632503578806054
 40
1.0
 40
1.0
 40
1.0
 40
1.0
 10
560.7268948580653
 20
248.0761326132829
 30
0.0
 10
560.893533760006
 20
248.1815103749745
 30
0.0
 10
561.2269269024084
 20
248.3923388351991
 30
0.0
 10
561.6448491984914
 20
248.7085755419811
 30
0.0
 10
561.9250167083079
 20
249.0176709963978
 30
0.0
 10
561.9600221847272
 20
249.2210428043437
 30
0.0
 10
561.9768936659724
 20
249.3190612858648
 30
0.0
  0
LINE
  5
111
330
1F
100
AcDbEntity
  8
0
  6
Continuous
 62
     7
370
    15
100
AcDbLine
 10
561.976893666
 20
249.3190612859
 30
0.0
 11
562.7768774058
 21
249.3190612859
 31
0.0
  0
ARC
  5
112
330
1F
100
AcDbEntity
  8
0
  6
Continuous
 62
     7
370
    15
100
AcDbCircle
 10
486.5852537365
 20
294.5474956288
 30
0.0
 40
10.00000000000004
100
AcDbArc
 50
26.0033458445
 51
76.0386774171
  0
LINE
  5
113
330
1F
100
AcDbEntity
  8
0
  6
Continuous
 62
     7
370
    15
100
AcDbLine
 10
502.5145847823
 20
284.7013791306
 30
0.0
 11
495.5729384448
 21
298.9317310257
 31
0.0
  0
ARC
  5
114
330
1F
100
AcDbEntity
  8
0
  6
Continuous
 62
     7
370
    15
100
AcDbCircle
 10
493.5268892766
 20
280.3171427715
 30
0.0
 40
10.00000000000006
100
AcDbArc
 50
0.0
 51
26.0033458445
  0
LINE
  5
115
330
1F
100
AcDbEntity
  8
0
  6
Continuous
 62
     7
370
    15
100
AcDbLine
 10
503.5268802668
 20
268.1261320813
 30
0.0
 11
503.5268802668
 21
280.3171427204
 31
0.0
  0
CIRCLE
  5
116
330
1F
100
AcDbEntity
  8
0
  6
Continuous
 62
     7
370
    15
100
AcDbCircle
 10
385.0268892766
 20
309.1261322275
 30
0.0
 40
7.0
  0
CIRCLE
  5
117
330
1F
100
AcDbEntity
  8
0
  6
Continuous
 62
     7
370
    15
100
AcDbCircle
 10
-34.9731107234
 20
413.1261322275
 30
0.0
 40
7.000000000000004
  0
LINE
  5
118
330
1F
100
AcDbEntity
  8
0
  6
Continuous
 62
     7
370
    15
100
AcDbLine
 10
488.9979202773
 20
304.2520825966
 30
0.0
 11
-80.9731047128
 21
445.953218381
 31
0.0
  0
LINE
  5
119
330
1F
100
AcDbEntity
  8
0
  6
Continuous
 62
     7
370
    15
100
AcDbLine
 10
-80.9731047128
 20
268.1261320813
 30
0.0
 11
503.5268802668
 21
268.1261320813
 31
0.0
  0
SPLINE
  5
11A
330
1F
100
AcDbEntity
  8
0
  6
Continuous
 62
     7
370
    15
100
AcDbSpline
210
0.0
220
0.0
230
1.0
 70
     8
 71
     3
 72
    14
 73
    10
 74
     0
 42
0.00000001
 43
0.00000001
 40
0.0
 40
0.0
 40
0.0
 40
0.0
 40
0.25
 40
0.25
 40
0.5
 40
0.5
 40
0.75
 40
0.75
 40
1.0
 40
1.0
 40
1.0
 40
1.0
 10
-84.47311072336866
 20
446.3261310349159
 30
0.0
 10
-84.47310842198435
 20
446.295054745406
 30
0.0
 10
-84.38201107964049
 20
446.2639784558962
 30
0.0
 10
-84.03135700258856
 20
446.2018258768763
 30
0.0
 10
-83.77193823352819
 20
446.1707495873664
 30
0.0
 10
-83.12401824970483
 20
446.1085970083466
 30
0.0
 10
-82.73577196053911
 20
446.0775207188367
 30
0.0
 10
-81.8892253913212
 20
446.0153681398169
 30
0.0
 10
-81.43125818694996
 20
445.984291850307
 30
0.0
 10
-80.97311072341284
 20
445.953215560797
 30
0.0
  0
LINE
  5
11B
330
1F
100
AcDbEntity
  8
0
  6
Continuous
 62
     7
370
    15
100
AcDbLine
 10
-84.4731192563
 20
268.1261320813
 30
0.0
 11
-84.4731192563
 21
446.326134841
 31
0.0
  0
LINE
  5
11C
330
1F
100
AcDbEntity
  8
0
  6
Continuous
 62
     7
370
    15
100
AcDbLine
 10
-80.9731047128
 20
268.1261320813
 30
0.0
 11
-84.4731192563
 21
268.1261320813
 31
0.0
  0
LINE
  5
11D
330
1F
100
AcDbEntity
  8
0
  6
Continuous
 62
     7
370
    15
100
AcDbLine
 10
-82.4731152032
 20
446.326134841
 30
0.0
 11
-84.4731192563
 21
446.326134841
 31
0.0
  0
SPLINE
  5
11E
330
1F
100
AcDbEntity
  8
0
  6
Continuous
 62
     7
370
    15
100
AcDbSpline
210
0.0
220
0.0
230
1.0
 70
     8
 71
     3
 72
    11
 73
     7
 74
     0
 42
0.00000001
 43
0.00000001
 40
0.0
 40
0.0
 40
0.0
 40
0.0
 40
0.249986189207318
 40
0.5000013107285836
 40
0.7500002008633232
 40
1.0
 40
1.0
 40
1.0
 40
1.0
 10
-82.47311520319883
 20
446.3261348410065
 30
0.0
 10
-82.4505679774079
 20
446.2950531027096
 30
0.0
 10
-82.40547091630806
 20
446.2328860288505
 30
0.0
 10
-82.05860771016177
 20
446.1396875392293
 30
0.0
 10
-81.56276429222315
 20
446.046433894834
 30
0.0
 10
-81.16965814415205
 20
445.9842902565834
 30
0.0
 10
-80.97310471278135
 20
445.9532183809692
 30
0.0
  0
LINE
  5
11F
330
1F
100
AcDbEntity
  8
0
  6
Continuous
 62
     7
370
    15
100
AcDbLine
 10
-88.6992971871
 20
455.7217491074
 30
0.0
 11
-84.6136372064
 21
446.9600600405
 31
0.0
  0
LINE
  5
120
330
1F
100
AcDbEntity
  8
0
  6
Continuous
 62
     7
370
    15
100
AcDbLine
 10
-86.8866901372
 20
456.5669876738
 30
0.0
 11
-82.8010301564
 21
447.8052986069
 31
0.0
  0
LINE
  5
121
330
1F
100
AcDbEntity
  8
0
  6
Continuous
 62
     7
370
    15
100
AcDbLine
 10
-88.9997642015
 20
461.0985201998
 30
0.0
 11
-90.8123712514
 21
460.2532965346
 31
0.0
  0
LWPOLYLINE
  5
122
330
1F
100
AcDbEntity
  8
0
  6
Continuous
 62
     7
370
    15
100
AcDbPolyline
 90
        9
 70
   128
 43
0.0
 10
-88.9997642015
 20
461.0985201998
 10
-88.9591734384
 20
461.011452715
 10
-88.8389210675
 20
460.7535881205
 10
-88.6436562512
 20
460.3348207875
 10
-88.3808593724
 20
459.7712737723
 10
-88.0606632207
 20
459.084583561
 10
-87.6953165505
 20
458.3011401101
 10
-87.2989158605
 20
457.4510437651
 10
-86.8866901372
 20
456.5669876738
  0
LWPOLYLINE
  5
123
330
1F
100
AcDbEntity
  8
0
  6
Continuous
 62
     7
370
    15
100
AcDbPolyline
 90
        9
 70
   128
 43
0.0
 10
-90.8123712514
 20
460.2532965346
 10
-90.7717804883
 20
460.1662141486
 10
-90.6515281175
 20
459.9083495541
 10
-90.4562633012
 20
459.4895822211
 10
-90.1934664224
 20
458.9260352059
 10
-89.8732702706
 20
458.2393449946
 10
-89.5079236005
 20
457.4559015437
 10
-89.1115229104
 20
456.6058051987
 10
-88.6992971871
 20
455.7217491074
  0
ARC
  5
124
330
1F
100
AcDbEntity
  8
0
  6
Continuous
 62
     7
370
    15
100
AcDbCircle
 10
-85.9731107234
 20
446.3261322275
 30
0.0
 40
1.499999999999803
100
AcDbArc
 50
0.0
 51
25.0
  0
ARC
  5
125
330
1F
100
AcDbEntity
  8
0
  6
Continuous
 62
     7
370
    15
100
AcDbCircle
 10
-85.9731107234
 20
446.3261322275
 30
0.0
 40
3.499999999999804
100
AcDbArc
 50
360.0
 51
25.0
  0
LINE
  5
126
330
1F
100
AcDbEntity
  8
0
  6
Continuous
 62
     7
370
    15
100
AcDbLine
 10
-163.4231071447
 20
53.3261281653
 30
0.0
 11
-163.4231071447
 21
31.3261282845
 31
0.0
  0
LINE
  5
127
330
1F
100
AcDbEntity
  8
0
  6
Continuous
 62
     7
370
    15
100
AcDbLine
 10
503.5268802668
 20
282.6998700602
 30
0.0
 11
503.2388706233
 21
282.6998700602
 31
0.0
  0
LINE
  5
128
330
1F
100
AcDbEntity
  8
0
  6
Continuous
 62
     7
370
    15
100
AcDbLine
 10
444.2456651952
 20
266.1261326848
 30
0.0
 11
444.2456651952
 21
266.5030966728
 31
0.0
  0
LINE
  5
129
330
1F
100
AcDbEntity
  8
0
  6
Continuous
 62
     7
370
    15
100
AcDbLine
 10
484.6456487204
 20
266.5030966728
 30
0.0
 11
484.6456487204
 21
266.1261326848
 31
0.0
  0
LWPOLYLINE
  5
12A
330
1F
100
AcDbEntity
  8
0
  6
Continuous
 62
     7
370
    15
100
AcDbPolyline
 90
        3
 70
   128
 43
0.0
 10
484.9164028193
 20
268.1261320813
 10
484.7374100711
 20
267.4565148755
 10
484.6456487204
 20
266.5030966728
  0
LINE
  5
12B
330
1F
100
AcDbEntity
  8
0
  6
Continuous
 62
     7
370
    15
100
AcDbLine
 10
564.7768814589
 20
110.1949495478
 30
0.0
 11
562.7768774058
 21
110.1949495478
 31
0.0
  0
LINE
  5
12C
330
1F
100
AcDbEntity
  8
0
  6
Continuous
 62
     7
370
    15
100
AcDbLine
 10
562.7768774058
 20
110.1949495478
 30
0.0
 11
562.7768774058
 21
110.9949481888
 31
0.0
  0
LINE
  5
12D
330
1F
100
AcDbEntity
  8
0
  6
Continuous
 62
     7
370
    15
100
AcDbLine
 10
562.7768774058
 20
110.9949481888
 30
0.0
 11
564.7768814589
 21
110.9949481888
 31
0.0
  0
LINE
  5
12E
330
1F
100
AcDbEntity
  8
0
  6
Continuous
 62
     7
370
    15
100
AcDbLine
 10
564.7768814589
 20
232.4826215609
 30
0.0
 11
581.0160477187
 21
232.4826215609
 31
0.0
  0
LINE
  5
12F
330
1F
100
AcDbEntity
  8
0
  6
Continuous
 62
     7
370
    15
100
AcDbLine
 10
564.7768814589
 20
231.6826229198
 30
0.0
 11
581.0160477187
 21
231.6826229198
 31
0.0
  0
LINE
  5
130
330
1F
100
AcDbEntity
  8
0
  6
Continuous
 62
     7
370
    15
100
AcDbLine
 10
564.7768814589
 20
110.1949495478
 30
0.0
 11
623.4209675815
 21
110.1949495478
 31
0.0
  0
LINE
  5
131
330
1F
100
AcDbEntity
  8
0
  6
Continuous
 62
     7
370
    15
100
AcDbLine
 10
564.7768814589
 20
110.9949481888
 30
0.0
 11
623.4209675815
 21
110.9949481888
 31
0.0
  0
LINE
  5
132
330
1F
100
AcDbEntity
  8
0
  6
Continuous
 62
     7
370
    15
100
AcDbLine
 10
562.7768774058
 20
231.6826229198
 30
0.0
 11
562.7768774058
 21
232.4826215609
 31
0.0
  0
LINE
  5
133
330
1F
100
AcDbEntity
  8
0
  6
Continuous
 62
     7
370
    15
100
AcDbLine
 10
562.7768774058
 20
232.4826215609
 30
0.0
 11
564.7768814589
 21
232.4826215609
 31
0.0
  0
LINE
  5
134
330
1F
100
AcDbEntity
  8
0
  6
Continuous
 62
     7
370
    15
100
AcDbLine
 10
564.7768814589
 20
231.6826229198
 30
0.0
 11
562.7768774058
 21
231.6826229198
 31
0.0
  0
ARC
  5
135
330
1F
100
AcDbEntity
  8
0
  6
Continuous
 62
     7
370
    15
100
AcDbCircle
 10
581.0160500924
 20
230.4326220196
 30
0.0
 40
2.049999999999992
100
AcDbArc
 50
18.0
 51
90.0
  0
ARC
  5
136
330
1F
100
AcDbEntity
  8
0
  6
Continuous
 62
     7
370
    15
100
AcDbCircle
 10
581.0160500924
 20
230.4326220196
 30
0.0
 40
1.249999999999886
100
AcDbArc
 50
18.0
 51
90.0
  0
LINE
  5
137
330
1F
100
AcDbEntity
  8
0
  6
Continuous
 62
     7
370
    15
100
AcDbLine
 10
606.5289814498
 20
155.9569594665
 30
0.0
 11
582.2048623588
 21
230.818893875
 31
0.0
  0
LINE
  5
138
330
1F
100
AcDbEntity
  8
0
  6
Continuous
 62
     7
370
    15
100
AcDbLine
 10
607.2898347403
 20
156.2041697307
 30
0.0
 11
582.9657156493
 21
231.0661060019
 31
0.0
  0
LINE
  5
139
330
1F
100
AcDbEntity
  8
0
  6
Continuous
 62
     7
370
    15
100
AcDbLine
 10
632.5569589164
 20
142.0662981673
 30
0.0
 11
613.1065924193
 21
149.1456610365
 31
0.0
  0
LINE
  5
13A
330
1F
100
AcDbEntity
  8
0
  6
Continuous
 62
     7
370
    15
100
AcDbLine
 10
632.8306038405
 20
142.8180542989
 30
0.0
 11
613.3802075412
 21
149.8974171682
 31
0.0
  0
ARC
  5
13B
330
1F
100
AcDbEntity
  8
0
  6
Continuous
 62
     7
370
    15
100
AcDbCircle
 10
623.4209585774
 20
112.2449474924
 30
0.0
 40
1.25000000000006
100
AcDbArc
 50
270.0
 51
320.0
  0
ARC
  5
13C
330
1F
100
AcDbEntity
  8
0
  6
Continuous
 62
     7
370
    15
100
AcDbCircle
 10
623.4209585774
 20
112.2449474924
 30
0.0
 40
2.050000000000062
100
AcDbArc
 50
270.0
 51
320.0
  0
ARC
  5
13D
330
1F
100
AcDbEntity
  8
0
  6
Continuous
 62
     7
370
    15
100
AcDbCircle
 10
629.1367718466
 20
132.6693719756
 30
0.0
 40
9.999999999999982
100
AcDbArc
 50
320.0
 51
70.0
  0
ARC
  5
13E
330
1F
100
AcDbEntity
  8
0
  6
Continuous
 62
     7
370
    15
100
AcDbCircle
 10
629.1367718466
 20
132.6693719756
 30
0.0
 40
10.80000000000006
100
AcDbArc
 50
320.0
 51
70.0
  0
ARC
  5
13F
330
1F
100
AcDbEntity
  8
0
  6
Continuous
 62
     7
370
    15
100
AcDbCircle
 10
616.8003980674
 20
159.2943424975
 30
0.0
 40
10.80000000000001
100
AcDbArc
 50
198.0
 51
250.0
  0
ARC
  5
140
330
1F
100
AcDbEntity
  8
0
  6
Continuous
 62
     7
370
    15
100
AcDbCircle
 10
616.8003980674
 20
159.2943424975
 30
0.0
 40
9.999999999999977
100
AcDbArc
 50
198.0
 51
250.0
  0
LINE
  5
141
330
1F
100
AcDbEntity
  8
0
  6
Continuous
 62
     7
370
    15
100
AcDbLine
 10
624.3785161998
 20
111.441461484
 30
0.0
 11
636.7972035434
 21
126.2414884968
 31
0.0
  0
LINE
  5
142
330
1F
100
AcDbEntity
  8
0
  6
Continuous
 62
     7
370
    15
100
AcDbLine
 10
624.991341355
 20
110.9272373124
 30
0.0
 11
637.4100585009
 21
125.7272643252
 31
0.0
  0
LINE
  5
143
330
1F
100
AcDbEntity
  8
0
  6
Continuous
 62
     7
370
    15
100
AcDbLine
 10
582.5724144008
 20
232.2765720292
 30
0.0
 11
582.9657156493
 21
231.0661060019
 31
0.0
  0
ARC
  5
144
330
1F
100
AcDbEntity
  8
0
  6
Continuous
 62
     7
370
    15
100
AcDbCircle
 10
583.761232713
 20
232.6628429875
 30
0.0
 40
1.250000000000157
100
AcDbArc
 50
156.1292699761
 51
198.0
  0
ARC
  5
145
330
1F
100
AcDbEntity
  8
0
  6
Continuous
 62
     7
370
    15
100
AcDbCircle
 10
583.761232713
 20
232.6628429875
 30
0.0
 40
2.050000000000221
100
AcDbArc
 50
176.5901559943
 51
188.7082318865
  0
LINE
  5
146
330
1F
100
AcDbEntity
  8
0
  6
Continuous
 62
     7
370
    15
100
AcDbLine
 10
-22.0231126521
 20
-17.1738582449
 30
0.0
 11
-22.0231126521
 21
-15.4738741712
 31
0.0
  0
LINE
  5
147
330
1F
100
AcDbEntity
  8
0
  6
Continuous
 62
     7
370
    15
100
AcDbLine
 10
-112.0231013272
 20
-17.1738582449
 30
0.0
 11
-112.0231013272
 21
-15.4738741712
 31
0.0
  0
LINE
  5
148
330
1F
100
AcDbEntity
  8
0
  6
Continuous
 62
     7
370
    15
100
AcDbLine
 10
-112.0231013272
 20
-17.1738582449
 30
0.0
 11
-22.0231126521
 21
-17.1738582449
 31
0.0
  0
LINE
  5
149
330
1F
100
AcDbEntity
  8
0
  6
Continuous
 62
     7
370
    15
100
AcDbLine
 10
-36.0634635661
 20
-80.1738816099
 30
0.0
 11
-97.9827504132
 21
-80.1738816099
 31
0.0
  0
LINE
  5
14A
330
1F
100
AcDbEntity
  8
0
  6
Continuous
 62
     7
370
    15
100
AcDbLine
 10
17.9768939044
 20
-15.8738809423
 30
0.0
 11
17.9768939044
 21
-15.4738741712
 31
0.0
  0
LINE
  5
14B
330
1F
100
AcDbEntity
  8
0
  6
Continuous
 62
     7
370
    15
100
AcDbLine
 10
17.9768939044
 20
-15.8738809423
 30
0.0
 11
22.976889136
 21
-15.8738809423
 31
0.0
  0
LINE
  5
14C
330
1F
100
AcDbEntity
  8
0
  6
Continuous
 62
     7
370
    15
100
AcDbLine
 10
22.976889136
 20
-15.8738809423
 30
0.0
 11
442.9768909242
 21
-15.8738809423
 31
0.0
  0
LINE
  5
14D
330
1F
100
AcDbEntity
  8
0
  6
Continuous
 62
     7
370
    15
100
AcDbLine
 10
447.9768861558
 20
-15.8738809423
 30
0.0
 11
447.9768861558
 21
-15.4738741712
 31
0.0
  0
LINE
  5
14E
330
1F
100
AcDbEntity
  8
0
  6
Continuous
 62
     7
370
    15
100
AcDbLine
 10
442.9768909242
 20
-15.8738809423
 30
0.0
 11
447.9768861558
 21
-15.8738809423
 31
0.0
  0
LINE
  5
14F
330
1F
100
AcDbEntity
  8
0
  6
Continuous
 62
     7
370
    15
100
AcDbLine
 10
-22.0231126521
 20
-15.8738809423
 30
0.0
 11
17.9768939044
 21
-15.8738809423
 31
0.0
  0
LINE
  5
150
330
1F
100
AcDbEntity
  8
0
  6
Continuous
 62
     7
370
    15
100
AcDbLine
 10
447.9768861558
 20
-15.8738809423
 30
0.0
 11
461.9768996264
 21
-15.8738809423
 31
0.0
  0
LINE
  5
151
330
1F
100
AcDbEntity
  8
0
  6
Continuous
 62
     7
370
    15
100
AcDbLine
 10
551.9769032027
 20
-15.8738809423
 30
0.0
 11
572.9769010569
 21
-15.8738809423
 31
0.0
  0
LINE
  5
152
330
1F
100
AcDbEntity
  8
0
  6
Continuous
 62
     7
370
    15
100
AcDbLine
 10
577.9768962886
 20
-15.8738809423
 30
0.0
 11
577.9768962886
 21
-15.6050639944
 31
0.0
  0
LINE
  5
153
330
1F
100
AcDbEntity
  8
0
  6
Continuous
 62
     7
370
    15
100
AcDbLine
 10
572.9769010569
 20
-15.8738809423
 30
0.0
 11
577.9768962886
 21
-15.8738809423
 31
0.0
  0
LINE
  5
154
330
1F
100
AcDbEntity
  8
0
  6
Continuous
 62
     7
370
    15
100
AcDbLine
 10
551.9769032027
 20
-17.1738582449
 30
0.0
 11
551.9769032027
 21
-15.4738741712
 31
0.0
  0
LINE
  5
155
330
1F
100
AcDbEntity
  8
0
  6
Continuous
 62
     7
370
    15
100
AcDbLine
 10
461.9768996264
 20
-17.1738582449
 30
0.0
 11
551.9769032027
 21
-17.1738582449
 31
0.0
  0
LINE
  5
156
330
1F
100
AcDbEntity
  8
0
  6
Continuous
 62
     7
370
    15
100
AcDbLine
 10
461.9768996264
 20
-17.1738582449
 30
0.0
 11
461.9768996264
 21
-15.4738741712
 31
0.0
  0
LINE
  5
157
330
1F
100
AcDbEntity
  8
0
  6
Continuous
 62
     7
370
    15
100
AcDbLine
 10
537.9365522887
 20
-80.1738816099
 30
0.0
 11
476.0172505404
 21
-80.1738816099
 31
0.0
  0
LINE
  5
158
330
1F
100
AcDbEntity
  8
0
  6
Continuous
 62
     7
370
    15
100
AcDbLine
 10
-38.5231088374
 20
-109.1738658742
 30
0.0
 11
-95.5231051419
 21
-109.1738658742
 31
0.0
  0
LINE
  5
159
330
1F
100
AcDbEntity
  8
0
  6
Continuous
 62
     7
370
    15
100
AcDbLine
 10
-40.5231128905
 20
-115.1738780336
 30
0.0
 11
-93.5231010888
 21
-115.1738780336
 31
0.0
  0
LINE
  5
15A
330
1F
100
AcDbEntity
  8
0
  6
Continuous
 62
     7
370
    15
100
AcDbLine
 10
533.4769029643
 20
-115.1738780336
 30
0.0
 11
480.4768998649
 21
-115.1738780336
 31
0.0
  0
LINE
  5
15B
330
1F
100
AcDbEntity
  8
0
  6
Continuous
 62
     7
370
    15
100
AcDbLine
 10
535.4768772151
 20
-109.1738658742
 30
0.0
 11
478.4768958117
 21
-109.1738658742
 31
0.0
  0
LINE
  5
15C
330
1F
100
AcDbEntity
  8
0
  6
Continuous
 62
     7
370
    15
100
AcDbLine
 10
502.7768750216
 20
263.626132275
 30
0.0
 11
502.7768750216
 21
263.6761321901
 31
0.0
  0
LINE
  5
15D
330
1F
100
AcDbEntity
  8
0
  6
Continuous
 62
     7
370
    15
100
AcDbLine
 10
504.2768855121
 20
263.626132275
 30
0.0
 11
502.7768750216
 21
263.626132275
 31
0.0
  0
LINE
  5
15E
330
1F
100
AcDbEntity
  8
0
  6
Continuous
 62
     7
370
    15
100
AcDbLine
 10
504.2768855121
 20
252.5761324196
 30
0.0
 11
504.2768855121
 21
263.626132275
 31
0.0
  0
SPLINE
  5
15F
330
1F
100
AcDbEntity
  8
0
  6
Continuous
 62
     7
370
    15
100
AcDbSpline
210
0.0
220
0.0
230
1.0
 70
     8
 71
     3
 72
    30
 73
    26
 74
     0
 42
0.00000001
 43
0.00000001
 40
0.0
 40
0.0
 40
0.0
 40
0.0
 40
0.0377923822129722
 40
0.0746684303709373
 40
0.1106319625154568
 40
0.1456870973114628
 40
0.1798382845458457
 40
0.2130903393642403
 40
0.2454484807646266
 40
0.2769183749439076
 40
0.3075061841792518
 40
0.3372186220246923
 40
0.366063015711468
 40
0.3940473767620201
 40
0.4211804809559085
 40
0.447471958923528
 40
0.4729323987792236
 40
0.4975734623335171
 40
0.5503324513893593
 40
0.6093754670211525
 40
0.6747449267219695
 40
0.7464717064049046
 40
0.8245788239508131
 40
0.9090837639904046
 40
1.0
 40
1.0
 40
1.0
 40
1.0
 10
-145.873110723416
 20
251.3332032952755
 30
0.0
 10
-145.8721875755243
 20
251.3383574082976
 30
0.0
 10
-145.8703636628721
 20
251.3485406649959
 30
0.0
 10
-145.8559296027345
 20
251.3654916018276
 30
0.0
 10
-145.8338140635433
 20
251.383448898904
 30
0.0
 10
-145.8039467495671
 20
251.4025369047073
 30
0.0
 10
-145.7673003769239
 20
251.4227235120728
 30
0.0
 10
-145.7245668291976
 20
251.4440169734559
 30
0.0
 10
-145.6764912203724
 20
251.4664151432025
 30
0.0
 10
-145.6237795635966
 20
251.489918565911
 30
0.0
 10
-145.5671173252432
 20
251.5145270844909
 30
0.0
 10
-145.5071604398149
 20
251.5402408038807
 30
0.0
 10
-145.4445341927243
 20
251.5670595331633
 30
0.0
 10
-145.3798313301488
 20
251.5949840553969
 30
0.0
 10
-145.3136096221747
 20
251.6240118085553
 30
0.0
 10
-145.246395585393
 20
251.6541522503802
 30
0.0
 10
-145.1786682151187
 20
251.6853722086913
 30
0.0
 10
-145.0844107513037
 20
251.7304725060293
 30
0.0
 10
-144.9534564367682
 20
251.7958964320468
 30
0.0
 10
-144.7732446321223
 20
251.887243816316
 30
0.0
 10
-144.5628767694155
 20
251.9943331028037
 30
0.0
 10
-144.3211618708327
 20
252.1170751212741
 30
0.0
 10
-144.048072612164
 20
252.2555720806603
 30
0.0
 10
-143.7448704243662
 20
252.4095607139045
 30
0.0
 10
-143.53294576568
 20
252.5192718152439
 30
0.0
 10
-143.4231107234161
 20
252.5761322274636
 30
0.0
  0
LINE
  5
160
330
1F
100
AcDbEntity
  8
0
  6
Continuous
 62
     7
370
    15
100
AcDbLine
 10
-145.873115537
 20
263.6761321901
 30
0.0
 11
-145.873115537
 21
251.3332032813
 31
0.0
  0
LINE
  5
161
330
1F
100
AcDbEntity
  8
0
  6
Continuous
 62
     7
370
    15
100
AcDbLine
 10
-143.4230964158
 20
263.6761321901
 30
0.0
 11
-145.873115537
 21
263.6761321901
 31
0.0
  0
LINE
  5
162
330
1F
100
AcDbEntity
  8
0
  6
Continuous
 62
     7
370
    15
100
AcDbLine
 10
-144.016043422
 20
250.1261323905
 30
0.0
 11
-144.6660320733
 21
250.1261323905
 31
0.0
  0
SPLINE
  5
163
330
1F
100
AcDbEntity
  8
0
  6
Continuous
 62
     7
370
    15
100
AcDbSpline
210
0.0
220
0.0
230
1.0
 70
     8
 71
     3
 72
    12
 73
     8
 74
     0
 42
0.00000001
 43
0.00000001
 40
0.0
 40
0.0
 40
0.0
 40
0.0
 40
0.2256486212007306
 40
0.4513334465354064
 40
0.6770241897802789
 40
0.902718952168801
 40
1.0
 40
1.0
 40
1.0
 40
1.0
 10
-143.4230964158149
 20
252.5761324195678
 30
0.0
 10
-143.5166247833286
 20
252.2866377835939
 30
0.0
 10
-143.7036965244905
 20
251.7076020637551
 30
0.0
 10
-143.9843366730535
 20
250.9461705315212
 30
0.0
 10
-144.2648143138536
 20
250.3911163574934
 30
0.0
 10
-144.4926351298136
 20
250.1509881938965
 30
0.0
 10
-144.6258941528241
 20
250.1318860113064
 30
0.0
 10
-144.666032073316
 20
250.1261323905105
 30
0.0
  0
LINE
  5
164
330
1F
100
AcDbEntity
  8
0
  6
Continuous
 62
     7
370
    15
100
AcDbLine
 10
-144.6660320733
 20
251.3261322147
 30
0.0
 11
-144.6660320733
 21
250.1261323905
 31
0.0
  0
SPLINE
  5
165
330
1F
100
AcDbEntity
  8
0
  6
Continuous
 62
     7
370
    15
100
AcDbSpline
210
0.0
220
0.0
230
1.0
 70
     8
 71
     3
 72
    11
 73
     7
 74
     0
 42
0.00000001
 43
0.00000001
 40
0.0
 40
0.0
 40
0.0
 40
0.0
 40
0.2657283896582462
 40
0.5202426360320018
 40
0.7747241686455119
 40
1.0
 40
1.0
 40
1.0
 40
1.0
 10
-143.4230964158148
 20
252.5761324195678
 30
0.0
 10
-143.5332727080956
 20
252.4019410414299
 30
0.0
 10
-143.748975685102
 20
252.0609094269568
 30
0.0
 10
-144.0699011140904
 20
251.6420297616949
 30
0.0
 10
-144.3743067463942
 20
251.3739861284802
 30
0.0
 10
-144.5728184970114
 20
251.3414227432465
 30
0.0
 10
-144.6660320733161
 20
251.3261322146768
 30
0.0
  0
SPLINE
  5
166
330
1F
100
AcDbEntity
  8
0
  6
Continuous
 62
     7
370
    15
100
AcDbSpline
210
0.0
220
0.0
230
1.0
 70
     8
 71
     3
 72
    24
 73
    20
 74
     0
 42
0.00000001
 43
0.00000001
 40
0.0
 40
0.0
 40
0.0
 40
0.0
 40
0.25
 40
0.25
 40
0.375
 40
0.375
 40
0.4375
 40
0.4375
 40
0.46875
 40
0.46875
 40
0.484375
 40
0.484375
 40
0.4921875
 40
0.4921875
 40
0.5
 40
0.5
 40
0.75
 40
0.75
 40
1.0
 40
1.0
 40
1.0
 40
1.0
 10
-144.673110723416
 20
251.3332032952755
 30
0.0
 10
-144.673110723416
 20
251.3739732433502
 30
0.0
 10
-144.619670804504
 20
251.4262344330196
 30
0.0
 10
-144.5079167969168
 20
251.5225500611179
 30
0.0
 10
-144.4653542379274
 20
251.5576044121274
 30
0.0
 10
-144.3985115433737
 20
251.6146096511067
 30
0.0
 10
-144.375719771729
 20
251.6343486828439
 30
0.0
 10
-144.3412825528303
 20
251.6650631585661
 30
0.0
 10
-144.3297611403368
 20
251.6754856384929
 30
0.0
 10
-144.3124734263102
 20
251.6913958404121
 30
0.0
 10
-144.306709876252
 20
251.69674532139
 30
0.0
 10
-144.2980699100595
 20
251.7048386633641
 30
0.0
 10
-144.2951908116326
 20
251.7075479641067
 30
0.0
 10
-144.2894354992466
 20
251.712989605761
 30
0.0
 10
-144.2862609353537
 20
251.7160067639759
 30
0.0
 10
-144.2012568587027
 20
251.7971552058452
 30
0.0
 10
-144.0913564835509
 20
251.907972106583
 30
0.0
 10
-143.8041743508554
 20
252.1938609131813
 30
0.0
 10
-143.6262370322291
 20
252.3685484557983
 30
0.0
 10
-143.423110723416
 20
252.5761322274636
 30
0.0
  0
LINE
  5
167
330
1F
100
AcDbEntity
  8
0
  6
Continuous
 62
     7
370
    15
100
AcDbLine
 10
-145.873115537
 20
251.3332032813
 30
0.0
 11
-144.673125026
 21
251.3332032813
 31
0.0
  0
LINE
  5
168
330
1F
100
AcDbEntity
  8
0
  6
Continuous
 62
     7
370
    15
100
AcDbLine
 10
502.7768750216
 20
266.1261326848
 30
0.0
 11
502.7768750216
 21
263.6761321901
 31
0.0
  0
LINE
  5
169
330
1F
100
AcDbEntity
  8
0
  6
Continuous
 62
     7
370
    15
100
AcDbLine
 10
-143.4230964158
 20
266.1261326848
 30
0.0
 11
-143.4230964158
 21
263.6761321901
 31
0.0
  0
LINE
  5
16A
330
1F
100
AcDbEntity
  8
0
  6
Continuous
 62
     7
370
    15
100
AcDbLine
 10
-91.07311177
 20
266.1261326848
 30
0.0
 11
502.7768750216
 21
266.1261326848
 31
0.0
  0
LINE
  5
16B
330
1F
100
AcDbEntity
  8
0
  6
Continuous
 62
     7
370
    15
100
AcDbLine
 10
504.0269036319
 20
285.0761321588
 30
0.0
 11
504.0269036319
 21
267.376132424
 31
0.0
  0
LINE
  5
16C
330
1F
100
AcDbEntity
  8
0
  6
Continuous
 62
     7
370
    15
100
AcDbLine
 10
504.0269036319
 20
267.376132424
 30
0.0
 11
504.2768855121
 21
267.376132424
 31
0.0
  0
ARC
  5
16D
330
1F
100
AcDbEntity
  8
0
  6
Continuous
 62
     7
370
    15
100
AcDbCircle
 10
506.4768892766
 20
285.0761322275
 30
0.0
 40
2.449999999999989
100
AcDbArc
 50
90.0
 51
180.0
  0
LINE
  5
16E
330
1F
100
AcDbEntity
  8
0
  6
Continuous
 62
     7
370
    15
100
AcDbLine
 10
583.570076945
 20
233.5732636257
 30
0.0
 11
583.9134593036
 21
232.7835505112
 31
0.0
  0
LINE
  5
16F
330
1F
100
AcDbEntity
  8
0
  6
Continuous
 62
     7
370
    15
100
AcDbLine
 10
583.9134593036
 20
232.7835505112
 30
0.0
 11
607.0845563437
 21
242.8586325823
 31
0.0
  0
LINE
  5
170
330
1F
100
AcDbEntity
  8
0
  6
Continuous
 62
     7
370
    15
100
AcDbLine
 10
597.7937121417
 20
287.5261326535
 30
0.0
 11
506.4768929507
 21
287.5261326535
 31
0.0
  0
ARC
  5
171
330
1F
100
AcDbEntity
  8
0
  6
Continuous
 62
     7
370
    15
100
AcDbCircle
 10
597.7936977751
 20
264.2261322275
 30
0.0
 40
23.30000000000007
100
AcDbArc
 50
293.5
 51
90.0
  0
LINE
  5
172
330
1F
100
AcDbEntity
  8
0
  6
Continuous
 62
     7
370
    15
100
AcDbLine
 10
-144.6660320733
 20
266.1261326848
 30
0.0
 11
-144.6660320733
 21
264.9261319293
 31
0.0
  0
LINE
  5
173
330
1F
100
AcDbEntity
  8
0
  6
Continuous
 62
     7
370
    15
100
AcDbLine
 10
-144.6660320733
 20
264.9261319293
 30
0.0
 11
-143.4230964158
 21
264.9261319293
 31
0.0
  0
LINE
  5
174
330
1F
100
AcDbEntity
  8
0
  6
Continuous
 62
     7
370
    15
100
AcDbLine
 10
-145.873115537
 20
264.9190613283
 30
0.0
 11
-144.673125026
 21
264.9190613283
 31
0.0
  0
LINE
  5
175
330
1F
100
AcDbEntity
  8
0
  6
Continuous
 62
     7
370
    15
100
AcDbLine
 10
-145.873115537
 20
263.6761321901
 30
0.0
 11
-145.873115537
 21
264.9190613283
 31
0.0
  0
LINE
  5
176
330
1F
100
AcDbEntity
  8
0
  6
Continuous
 62
     7
370
    15
100
AcDbLine
 10
-144.673125026
 20
263.6761321901
 30
0.0
 11
-144.673125026
 21
264.9190613283
 31
0.0
  0
ARC
  5
177
330
1F
100
AcDbEntity
  8
0
  6
Continuous
 62
     7
370
    15
100
AcDbCircle
 10
502.7768892766
 20
267.3761322275
 30
0.0
 40
1.250000000000227
100
AcDbArc
 50
270.0
 51
0.0000000002
  0
ARC
  5
178
330
1F
100
AcDbEntity
  8
0
  6
Continuous
 62
     7
370
    15
100
AcDbCircle
 10
502.7768892766
 20
267.3761322275
 30
0.0
 40
2.449999999999932
100
AcDbArc
 50
270.0
 51
307.7520013062
  0
LWPOLYLINE
  5
179
330
1F
100
AcDbEntity
  8
0
  6
Continuous
 62
     7
370
    15
100
AcDbPolyline
 90
        3
 70
   128
 43
0.0
 10
-91.07311177
 20
266.209941472
 10
-90.866969106
 20
266.1501505627
 10
-90.6230967019
 20
266.1261326848
  0
SPLINE
  5
17A
330
1F
100
AcDbEntity
  8
0
  6
Continuous
 62
     7
370
    15
100
AcDbSpline
210
0.0
220
0.0
230
1.0
 70
     8
 71
     3
 72
     9
 73
     5
 74
     0
 42
0.00000001
 43
0.00000001
 40
0.0
 40
0.0
 40
0.0
 40
0.0
 40
0.5306878385028704
 40
1.0
 40
1.0
 40
1.0
 40
1.0
 10
-143.4230964158148
 20
263.6761321900899
 30
0.0
 10
-143.5292927230726
 20
263.8553003430245
 30
0.0
 10
-143.729403408777
 20
264.1929153022068
 30
0.0
 10
-143.9292950120494
 20
264.4490860656511
 30
0.0
 10
-144.0231065724463
 20
264.5693101203556
 30
0.0
  0
SPLINE
  5
17B
330
1F
100
AcDbEntity
  8
0
  6
Continuous
 62
     7
370
    15
100
AcDbSpline
210
0.0
220
0.0
230
1.0
 70
     8
 71
     3
 72
     9
 73
     5
 74
     0
 42
0.00000001
 43
0.00000001
 40
0.0
 40
0.0
 40
0.0
 40
0.0
 40
0.1337408368226569
 40
1.0
 40
1.0
 40
1.0
 40
1.0
 10
-144.0231065724463
 20
264.2662861599142
 30
0.0
 10
-143.9983333962224
 20
264.2425675539398
 30
0.0
 10
-143.8131006968283
 20
264.0652200321367
 30
0.0
 10
-143.6041242112959
 20
263.8567346032511
 30
0.0
 10
-143.4230964158149
 20
263.6761321900899
 30
0.0
  0
LINE
  5
17C
330
1F
100
AcDbEntity
  8
0
  6
Continuous
 62
     7
370
    15
100
AcDbLine
 10
625.6768841769
 20
37.4158007307
 30
0.0
 11
625.6768841769
 21
60.2740925951
 31
0.0
  0
LINE
  5
17D
330
1F
100
AcDbEntity
  8
0
  6
Continuous
 62
     7
370
    15
100
AcDbLine
 10
640.1768763091
 20
43.9449531241
 30
0.0
 11
640.1768763091
 21
53.7449402018
 31
0.0
  0
LINE
  5
17E
330
1F
100
AcDbEntity
  8
0
  6
Continuous
 62
     7
370
    15
100
AcDbLine
 10
515.8268947627
 20
288.5966842277
 30
0.0
 11
522.2268838908
 21
288.5966842277
 31
0.0
  0
LINE
  5
17F
330
1F
100
AcDbEntity
  8
0
  6
Continuous
 62
     7
370
    15
100
AcDbLine
 10
632.176889899
 20
16.344947855
 30
0.0
 11
632.176889899
 21
43.4851777955
 31
0.0
  0
LINE
  5
180
330
1F
100
AcDbEntity
  8
0
  6
Continuous
 62
     7
370
    15
100
AcDbLine
 10
632.176889899
 20
54.2449486657
 30
0.0
 11
632.176889899
 21
81.3449454709
 31
0.0
  0
LINE
  5
181
330
1F
100
AcDbEntity
  8
0
  6
Continuous
 62
     7
370
    15
100
AcDbLine
 10
642.1768803622
 20
72.5447220011
 30
0.0
 11
642.1768803622
 21
77.3449522658
 31
0.0
  0
LINE
  5
182
330
1F
100
AcDbEntity
  8
0
  6
Continuous
 62
     7
370
    15
100
AcDbLine
 10
642.1768803622
 20
20.3449410601
 30
0.0
 11
642.1768803622
 21
25.1451713248
 31
0.0
  0
SPLINE
  5
183
330
1F
100
AcDbEntity
  8
0
  6
Continuous
 62
     7
370
    15
100
AcDbSpline
210
0.0
220
0.0
230
1.0
 70
     8
 71
     3
 72
    16
 73
    12
 74
     0
 42
0.00000001
 43
0.00000001
 40
0.0
 40
0.0
 40
0.0
 40
0.0
 40
0.000053653630686
 40
0.1251146695402306
 40
0.2500833754745639
 40
0.375050636324958
 40
0.5000132778597962
 40
0.6249769231138554
 40
0.749940415639125
 40
0.8749033003126909
 40
1.0
 40
1.0
 40
1.0
 40
1.0
 10
634.4982225920588
 20
80.41640941337891
 30
0.0
 10
634.4981927787545
 20
80.41641935171475
 30
0.0
 10
634.4286712634213
 20
80.43959451412907
 30
0.0
 10
634.6477974193928
 20
80.34804188096884
 30
0.0
 10
635.109902176036
 20
80.12137079402979
 30
0.0
 10
635.8796843564867
 20
79.77431010215996
 30
0.0
 10
636.7813291111588
 20
79.39568061604652
 30
0.0
 10
637.6999055286987
 20
79.04377730950881
 30
0.0
 10
638.4804985185764
 20
78.77080118244092
 30
0.0
 10
639.0316820017107
 20
78.59315253618274
 30
0.0
 10
639.1041948963979
 20
78.57073225291425
 30
0.0
 10
639.1404707457453
 20
78.55951611236878
 30
0.0
  0
SPLINE
  5
184
330
1F
100
AcDbEntity
  8
0
  6
Continuous
 62
     7
370
    15
100
AcDbSpline
210
0.0
220
0.0
230
1.0
 70
     8
 71
     3
 72
     9
 73
     5
 74
     0
 42
0.00000001
 43
0.00000001
 40
0.0
 40
0.0
 40
0.0
 40
0.0
 40
0.4999997884237881
 40
0.9999999999999999
 40
0.9999999999999999
 40
0.9999999999999999
 40
0.9999999999999999
 10
635.5977176061434
 20
26.29172342058189
 30
0.0
 10
635.5979763640916
 20
26.21334585072388
 30
0.0
 10
635.5984938802071
 20
26.05659064467653
 30
0.0
 10
635.597713194916
 20
25.90221215573585
 30
0.0
 10
635.5973228521052
 20
25.8250228786027
 30
0.0
  0
LINE
  5
185
330
1F
100
AcDbEntity
  8
0
  6
Continuous
 62
     7
370
    15
100
AcDbLine
 10
635.5977196719
 20
26.2917262717
 30
0.0
 11
638.8354439761
 21
27.2376370831
 31
0.0
  0
SPLINE
  5
186
330
1F
100
AcDbEntity
  8
0
  6
Continuous
 62
     7
370
    15
100
AcDbSpline
210
0.0
220
0.0
230
1.0
 70
     8
 71
     3
 72
    16
 73
    12
 74
     0
 42
0.00000001
 43
0.00000001
 40
0.0
 40
0.0
 40
0.0
 40
0.0
 40
0.125100436572071
 40
0.2501607816925348
 40
0.3782180428461419
 40
0.5000937578665342
 40
0.627157097101387
 40
0.7499350319615319
 40
0.8748712563419196
 40
0.9374268061341304
 40
1.0
 40
1.0
 40
1.0
 40
1.0
 10
636.6088335298272
 20
18.88911481383709
 30
0.0
 10
636.558507281646
 20
18.8708675285991
 30
0.0
 10
636.4578709135432
 20
18.83437880590566
 30
0.0
 10
636.3099651990926
 20
18.78672580868604
 30
0.0
 10
636.1712363313401
 20
18.74804629112123
 30
0.0
 10
636.0477830043177
 20
18.72239065045328
 30
0.0
 10
635.9467407067635
 20
18.71123596120852
 30
0.0
 10
635.8730184498468
 20
18.71660234111541
 30
0.0
 10
635.8383165771793
 20
18.73463295750038
 30
0.0
 10
635.8240063741358
 20
18.75547311313683
 30
0.0
 10
635.8229337043716
 20
18.76855638280628
 30
0.0
 10
635.8223972938622
 20
18.77509894005969
 30
0.0
  0
LINE
  5
187
330
1F
100
AcDbEntity
  8
0
  6
Continuous
 62
     7
370
    15
100
AcDbLine
 10
638.5194499518
 20
20.1262665196
 30
0.0
 11
638.8325531508
 21
20.2478301926
 31
0.0
  0
SPLINE
  5
188
330
1F
100
AcDbEntity
  8
0
  6
Continuous
 62
     7
370
    15
100
AcDbSpline
210
0.0
220
0.0
230
1.0
 70
     8
 71
     3
 72
    10
 73
     6
 74
     0
 42
0.00000001
 43
0.00000001
 40
0.0
 40
0.0
 40
0.0
 40
0.0
 40
0.3333417862705977
 40
0.6666652411999003
 40
1.0
 40
1.0
 40
1.0
 40
1.0
 10
638.5194491843771
 20
20.12626779723706
 30
0.0
 10
638.5215701097093
 20
20.07687124264038
 30
0.0
 10
638.5258118437381
 20
19.97808084989342
 30
0.0
 10
638.5281786655968
 20
19.839505780434
 30
0.0
 10
638.5270923152382
 20
19.75358332355573
 30
0.0
 10
638.5265491308489
 20
19.71062136666513
 30
0.0
  0
SPLINE
  5
189
330
1F
100
AcDbEntity
  8
0
  6
Continuous
 62
     7
370
    15
100
AcDbSpline
210
0.0
220
0.0
230
1.0
 70
     8
 71
     3
 72
     9
 73
     5
 74
     0
 42
0.00000001
 43
0.00000001
 40
0.0
 40
0.0
 40
0.0
 40
0.0
 40
0.4988438725414046
 40
1.0
 40
1.0
 40
1.0
 40
1.0
 10
638.5265491308489
 20
19.71062136666513
 30
0.0
 10
638.3821852956661
 20
19.68889712141675
 30
0.0
 10
638.0927884660579
 20
19.64534793409747
 30
0.0
 10
637.8012293271017
 20
19.60704008362951
 30
0.0
 10
637.6551126780973
 20
19.58784186963769
 30
0.0
  0
SPLINE
  5
18A
330
1F
100
AcDbEntity
  8
0
  6
Continuous
 62
     7
370
    15
100
AcDbSpline
210
0.0
220
0.0
230
1.0
 70
     8
 71
     3
 72
    14
 73
    10
 74
     0
 42
0.00000001
 43
0.00000001
 40
0.0
 40
0.0
 40
0.0
 40
0.0
 40
0.2500974778386004
 40
0.5001162364899097
 40
0.6251211881946264
 40
0.7500431373235875
 40
0.874963037551292
 40
0.9374725204057177
 40
1.0
 40
1.0
 40
1.0
 40
1.0
 10
637.6551126780973
 20
19.58784186963769
 30
0.0
 10
637.5696045879047
 20
19.57646966488172
 30
0.0
 10
637.3986153215346
 20
19.55372883481696
 30
0.0
 10
637.1719005686882
 20
19.51820138198404
 30
0.0
 10
636.9760215860663
 20
19.47870388565881
 30
0.0
 10
636.8162436072382
 20
19.43692276107187
 30
0.0
 10
636.676230185552
 20
19.39315094999933
 30
0.0
 10
636.5620616607339
 20
19.35241467944746
 30
0.0
 10
636.504801812996
 20
19.33079012954592
 30
0.0
 10
636.4761677683832
 20
19.31997629836973
 30
0.0
  0
SPLINE
  5
18B
330
1F
100
AcDbEntity
  8
0
  6
Continuous
 62
     7
370
    15
100
AcDbSpline
210
0.0
220
0.0
230
1.0
 70
     8
 71
     3
 72
    16
 73
    12
 74
     0
 42
0.00000001
 43
0.00000001
 40
0.0
 40
0.0
 40
0.0
 40
0.0
 40
0.0626540930373699
 40
0.1252834762196555
 40
0.2504003908103877
 40
0.4994192544071873
 40
0.6244795471335965
 40
0.7495568271934683
 40
0.8747021681126786
 40
0.937342069187761
 40
0.9999999999999999
 40
0.9999999999999999
 40
0.9999999999999999
 40
0.9999999999999999
 10
636.4761677683832
 20
19.31997629836973
 30
0.0
 10
636.4437178427196
 20
19.30711752054198
 30
0.0
 10
636.3788307891671
 20
19.28140503619985
 30
0.0
 10
636.2502737307425
 20
19.22614737906653
 30
0.0
 10
636.0335761387204
 20
19.12169687130896
 30
0.0
 10
635.8162139096295
 20
18.99204629220747
 30
0.0
 10
635.6544378571726
 20
18.87044189366316
 30
0.0
 10
635.5689421871147
 20
18.78712182044254
 30
0.0
 10
635.5291235614364
 20
18.7276615458877
 30
0.0
 10
635.5153434534708
 20
18.68700390436334
 30
0.0
 10
635.5136582829346
 20
18.66888604721281
 30
0.0
 10
635.5128155764226
 20
18.65982581510264
 30
0.0
  0
LINE
  5
18C
330
1F
100
AcDbEntity
  8
0
  6
Continuous
 62
     7
370
    15
100
AcDbLine
 10
639.6069963004
 20
33.4582162304
 30
0.0
 11
634.9601585891
 21
32.4329120322
 31
0.0
  0
SPLINE
  5
18D
330
1F
100
AcDbEntity
  8
0
  6
Continuous
 62
     7
370
    15
100
AcDbSpline
210
0.0
220
0.0
230
1.0
 70
     8
 71
     3
 72
     8
 73
     4
 74
     0
 42
0.00000001
 43
0.00000001
 40
0.0
 40
0.0
 40
0.0
 40
0.0
 40
1.0
 40
1.0
 40
1.0
 40
1.0
 10
634.9601649066956
 20
32.43290609497718
 30
0.0
 10
634.9605797175133
 20
31.86471147477077
 30
0.0
 10
634.9609945277037
 20
31.30763790238874
 30
0.0
 10
634.9614093385201
 20
30.76281368059608
 30
0.0
  0
LINE
  5
18E
330
1F
100
AcDbEntity
  8
0
  6
Continuous
 62
     7
370
    15
100
AcDbLine
 10
639.614446881
 20
23.5991609497
 30
0.0
 11
634.9675793673
 21
22.0087749167
 31
0.0
  0
SPLINE
  5
18F
330
1F
100
AcDbEntity
  8
0
  6
Continuous
 62
     7
370
    15
100
AcDbSpline
210
0.0
220
0.0
230
1.0
 70
     8
 71
     3
 72
     8
 73
     4
 74
     0
 42
0.00000001
 43
0.00000001
 40
0.0
 40
0.0
 40
0.0
 40
0.0
 40
1.0
 40
1.0
 40
1.0
 40
1.0
 10
634.9675695292751
 20
22.00877472002616
 30
0.0
 10
634.9677884193288
 20
21.6631959974127
 30
0.0
 10
634.9680073090516
 20
21.33579227843988
 30
0.0
 10
634.9682261991048
 20
21.02722671826051
 30
0.0
  0
LINE
  5
190
330
1F
100
AcDbEntity
  8
0
  6
Continuous
 62
     7
370
    15
100
AcDbLine
 10
639.6173973109
 20
19.3380844994
 30
0.0
 11
634.9705595996
 21
17.4783450766
 31
0.0
  0
LINE
  5
191
330
1F
100
AcDbEntity
  8
0
  6
Continuous
 62
     7
370
    15
100
AcDbLine
 10
642.1768803622
 20
70.7103443547
 30
0.0
 11
642.1768803622
 21
26.9795489712
 31
0.0
  0
LINE
  5
192
330
1F
100
AcDbEntity
  8
0
  6
Continuous
 62
     7
370
    15
100
AcDbLine
 10
634.9651355769
 20
30.757470171
 30
0.0
 11
639.6120328929
 21
31.7826700612
 31
0.0
  0
SPLINE
  5
193
330
1F
100
AcDbEntity
  8
0
  6
Continuous
 62
     7
370
    15
100
AcDbSpline
210
0.0
220
0.0
230
1.0
 70
     8
 71
     3
 72
     8
 73
     4
 74
     0
 42
0.00000001
 43
0.00000001
 40
0.0
 40
0.0
 40
0.0
 40
0.0
 40
1.0
 40
1.0
 40
1.0
 40
1.0
 10
634.963878813459
 20
32.42805110771674
 30
0.0
 10
634.9642936240673
 20
31.85968866640779
 30
0.0
 10
634.9647084346755
 20
31.30244971243881
 30
0.0
 10
634.9651232452835
 20
30.75746456408682
 30
0.0
  0
LINE
  5
194
330
1F
100
AcDbEntity
  8
0
  6
Continuous
 62
     7
370
    15
100
AcDbLine
 10
639.6106917884
 20
33.453373353
 30
0.0
 11
634.9638838794
 21
32.4280542536
 31
0.0
  0
SPLINE
  5
195
330
1F
100
AcDbEntity
  8
0
  6
Continuous
 62
     7
370
    15
100
AcDbSpline
210
0.0
220
0.0
230
1.0
 70
     8
 71
     3
 72
     8
 73
     4
 74
     0
 42
0.00000001
 43
0.00000001
 40
0.0
 40
0.0
 40
0.0
 40
0.0
 40
1.0
 40
1.0
 40
1.0
 40
1.0
 10
639.6120229704652
 20
31.7826769151095
 30
0.0
 10
639.6115820478703
 20
32.32693902523662
 30
0.0
 10
639.6111411252756
 20
32.88426264283262
 30
0.0
 10
639.6107002026807
 20
33.45337059085352
 30
0.0
  0
LINE
  5
196
330
1F
100
AcDbEntity
  8
0
  6
Continuous
 62
     7
370
    15
100
AcDbLine
 10
639.6069963004
 20
33.4582162304
 30
0.0
 11
639.6106917884
 21
33.453373353
 31
0.0
  0
LINE
  5
197
330
1F
100
AcDbEntity
  8
0
  6
Continuous
 62
     7
370
    15
100
AcDbLine
 10
634.9601585891
 20
32.4329120322
 30
0.0
 11
634.9638838794
 21
32.4280542536
 31
0.0
  0
LINE
  5
198
330
1F
100
AcDbEntity
  8
0
  6
Continuous
 62
     7
370
    15
100
AcDbLine
 10
634.9614102866
 20
30.7628196879
 30
0.0
 11
634.9651355769
 21
30.757470171
 31
0.0
  0
LINE
  5
199
330
1F
100
AcDbEntity
  8
0
  6
Continuous
 62
     7
370
    15
100
AcDbLine
 10
638.8391692664
 20
27.2309166594
 30
0.0
 11
638.8354439761
 21
27.2376370831
 31
0.0
  0
LINE
  5
19A
330
1F
100
AcDbEntity
  8
0
  6
Continuous
 62
     7
370
    15
100
AcDbLine
 10
635.6014449622
 20
26.2849909468
 30
0.0
 11
638.8391692664
 21
27.2309166594
 31
0.0
  0
LINE
  5
19B
330
1F
100
AcDbEntity
  8
0
  6
Continuous
 62
     7
370
    15
100
AcDbLine
 10
635.6014449622
 20
26.2849909468
 30
0.0
 11
635.5977196719
 21
26.2917262717
 31
0.0
  0
SPLINE
  5
19C
330
1F
100
AcDbEntity
  8
0
  6
Continuous
 62
     7
370
    15
100
AcDbSpline
210
0.0
220
0.0
230
1.0
 70
     8
 71
     3
 72
     8
 73
     4
 74
     0
 42
0.00000001
 43
0.00000001
 40
0.0
 40
0.0
 40
0.0
 40
0.0
 40
1.0
 40
1.0
 40
1.0
 40
1.0
 10
635.6010367588688
 20
25.8181574081871
 30
0.0
 10
635.6020339843918
 20
25.97218212372832
 30
0.0
 10
635.6021655690711
 20
26.12780270748341
 30
0.0
 10
635.6014315129069
 20
26.28499710498408
 30
0.0
  0
SPLINE
  5
19D
330
1F
100
AcDbEntity
  8
0
  6
Continuous
 62
     7
370
    15
100
AcDbSpline
210
0.0
220
0.0
230
1.0
 70
     8
 71
     3
 72
     8
 73
     4
 74
     0
 42
0.00000001
 43
0.00000001
 40
0.0
 40
0.0
 40
0.0
 40
0.0
 40
1.0
 40
1.0
 40
1.0
 40
1.0
 10
638.8391639108354
 20
27.23092010817155
 30
0.0
 10
638.8392752128104
 20
27.15145296147325
 30
0.0
 10
638.8393865147852
 20
27.07246989065165
 30
0.0
 10
638.8394978167603
 20
26.99397619382668
 30
0.0
  0
LINE
  5
19E
330
1F
100
AcDbEntity
  8
0
  6
Continuous
 62
     7
370
    15
100
AcDbLine
 10
638.839497092
 20
26.9939732953
 30
0.0
 11
635.9188396956
 21
26.1403453751
 31
0.0
  0
SPLINE
  5
19F
330
1F
100
AcDbEntity
  8
0
  6
Continuous
 62
     7
370
    15
100
AcDbSpline
210
0.0
220
0.0
230
1.0
 70
     8
 71
     3
 72
     8
 73
     4
 74
     0
 42
0.00000001
 43
0.00000001
 40
0.0
 40
0.0
 40
0.0
 40
0.0
 40
1.0
 40
1.0
 40
1.0
 40
1.0
 10
635.918826973328
 20
26.14035184753993
 30
0.0
 10
635.9187430013621
 20
26.01592212902892
 30
0.0
 10
635.9181030599967
 20
25.89251260528241
 30
0.0
 10
635.916907149231
 20
25.77013448965357
 30
0.0
  0
SPLINE
  5
1A0
330
1F
100
AcDbEntity
  8
0
  6
Continuous
 62
     7
370
    15
100
AcDbSpline
210
0.0
220
0.0
230
1.0
 70
     8
 71
     3
 72
     8
 73
     4
 74
     0
 42
0.00000001
 43
0.00000001
 40
0.0
 40
0.0
 40
0.0
 40
0.0
 40
1.0
 40
1.0
 40
1.0
 40
1.0
 10
635.916907149231
 20
25.77013448965357
 30
0.0
 10
635.8116170192511
 20
25.78577259333031
 30
0.0
 10
635.7063268891441
 20
25.80177987473889
 30
0.0
 10
635.6010367588688
 20
25.8181574081871
 30
0.0
  0
LINE
  5
1A1
330
1F
100
AcDbEntity
  8
0
  6
Continuous
 62
     7
370
    15
100
AcDbLine
 10
635.6010277297
 20
25.8181524678
 30
0.0
 11
635.5973322417
 21
25.8250219031
 31
0.0
  0
SPLINE
  5
1A2
330
1F
100
AcDbEntity
  8
0
  6
Continuous
 62
     7
370
    15
100
AcDbSpline
210
0.0
220
0.0
230
1.0
 70
     8
 71
     3
 72
    12
 73
     8
 74
     0
 42
0.00000001
 43
0.00000001
 40
0.0
 40
0.0
 40
0.0
 40
0.0
 40
0.0304688284299697
 40
0.0888181362487165
 40
0.3925566765001733
 40
0.6962789859226488
 40
1.0
 40
1.0
 40
1.0
 40
1.0
 10
642.6336009528071
 20
26.1288118763382
 30
0.0
 10
642.6338415082886
 20
26.11821019359487
 30
0.0
 10
642.6345427393709
 20
26.08730576599169
 30
0.0
 10
642.6306855191075
 20
25.94926026631456
 30
0.0
 10
642.5817693229827
 20
25.70930059986984
 30
0.0
 10
642.428146261597
 20
25.40006862848873
 30
0.0
 10
642.2693378272628
 20
25.24864422724452
 30
0.0
 10
642.1899337794215
 20
25.17293218807526
 30
0.0
  0
SPLINE
  5
1A3
330
1F
100
AcDbEntity
  8
0
  6
Continuous
 62
     7
370
    15
100
AcDbSpline
210
0.0
220
0.0
230
1.0
 70
     8
 71
     3
 72
    10
 73
     6
 74
     0
 42
0.00000001
 43
0.00000001
 40
0.0
 40
0.0
 40
0.0
 40
0.0
 40
0.2116661794227505
 40
0.4879890484159371
 40
1.0
 40
1.0
 40
1.0
 40
1.0
 10
642.1899337794215
 20
25.17293218807526
 30
0.0
 10
642.1877699872994
 20
25.17091905816493
 30
0.0
 10
642.1827814394758
 20
25.16627785685457
 30
0.0
 10
642.1776922486025
 20
25.15632821177477
 30
0.0
 10
642.1772000426038
 20
25.14956435072369
 30
0.0
 10
642.1768803622157
 20
25.14517132477112
 30
0.0
  0
SPLINE
  5
1A4
330
1F
100
AcDbEntity
  8
0
  6
Continuous
 62
     7
370
    15
100
AcDbSpline
210
0.0
220
0.0
230
1.0
 70
     8
 71
     3
 72
    12
 73
     8
 74
     0
 42
0.00000001
 43
0.00000001
 40
0.0
 40
0.0
 40
0.0
 40
0.0
 40
0.0304688284299697
 40
0.0888181362487165
 40
0.3925566765001733
 40
0.6962789859226488
 40
1.0
 40
1.0
 40
1.0
 40
1.0
 10
642.6336009528071
 20
71.56108144954987
 30
0.0
 10
642.6338415082886
 20
71.57168313229323
 30
0.0
 10
642.6345427393709
 20
71.60258755989632
 30
0.0
 10
642.6306855191075
 20
71.74063305957345
 30
0.0
 10
642.5817693229827
 20
71.98059272601803
 30
0.0
 10
642.428146261597
 20
72.28982469739955
 30
0.0
 10
642.2693378272628
 20
72.44124909864358
 30
0.0
 10
642.1899337794215
 20
72.51696113781281
 30
0.0
  0
SPLINE
  5
1A5
330
1F
100
AcDbEntity
  8
0
  6
Continuous
 62
     7
370
    15
100
AcDbSpline
210
0.0
220
0.0
230
1.0
 70
     8
 71
     3
 72
    11
 73
     7
 74
     0
 42
0.00000001
 43
0.00000001
 40
0.0
 40
0.0
 40
0.0
 40
0.0
 40
0.3703195036031027
 40
0.744259820193739
 40
0.9442889276224012
 40
0.9999999999999999
 40
0.9999999999999999
 40
0.9999999999999999
 40
0.9999999999999999
 10
642.1768803622157
 20
72.54472200111695
 30
0.0
 10
642.1770526661691
 20
72.54157214604045
 30
0.0
 10
642.1773989587845
 20
72.53524163806016
 30
0.0
 10
642.1811457539521
 20
72.5260756700253
 30
0.0
 10
642.1865499863286
 20
72.51983339602313
 30
0.0
 10
642.189328500937
 20
72.517474915118
 30
0.0
 10
642.1899337794215
 20
72.51696113781281
 30
0.0
  0
LINE
  5
1A6
330
1F
100
AcDbEntity
  8
0
  6
Continuous
 62
     7
370
    15
100
AcDbLine
 10
634.9719305064
 20
21.0189950867
 30
0.0
 11
639.6187980201
 21
22.6673168345
 31
0.0
  0
SPLINE
  5
1A7
330
1F
100
AcDbEntity
  8
0
  6
Continuous
 62
     7
370
    15
100
AcDbSpline
210
0.0
220
0.0
230
1.0
 70
     8
 71
     3
 72
     8
 73
     4
 74
     0
 42
0.00000001
 43
0.00000001
 40
0.0
 40
0.0
 40
0.0
 40
0.0
 40
1.0
 40
1.0
 40
1.0
 40
1.0
 10
634.9712834360386
 20
22.00083533150865
 30
0.0
 10
634.9715023259819
 20
21.65515452288125
 30
0.0
 10
634.9717212159252
 20
21.32765359008807
 30
0.0
 10
634.9719401058684
 20
21.01899687329525
 30
0.0
  0
LINE
  5
1A8
330
1F
100
AcDbEntity
  8
0
  6
Continuous
 62
     7
370
    15
100
AcDbLine
 10
639.618142369
 20
23.5912186308
 30
0.0
 11
634.9712748553
 21
22.0008325978
 31
0.0
  0
SPLINE
  5
1A9
330
1F
100
AcDbEntity
  8
0
  6
Continuous
 62
     7
370
    15
100
AcDbSpline
210
0.0
220
0.0
230
1.0
 70
     8
 71
     3
 72
     8
 73
     4
 74
     0
 42
0.00000001
 43
0.00000001
 40
0.0
 40
0.0
 40
0.0
 40
0.0
 40
1.0
 40
1.0
 40
1.0
 40
1.0
 10
639.6188027417951
 20
22.66732329702928
 30
0.0
 10
639.6185838265942
 20
22.95776484730294
 30
0.0
 10
639.6183649113935
 20
23.26593858450643
 30
0.0
 10
639.6181459961928
 20
23.59121924807103
 30
0.0
  0
LINE
  5
1AA
330
1F
100
AcDbEntity
  8
0
  6
Continuous
 62
     7
370
    15
100
AcDbLine
 10
639.614446881
 20
23.5991609497
 30
0.0
 11
639.618142369
 21
23.5912186308
 31
0.0
  0
LINE
  5
1AB
330
1F
100
AcDbEntity
  8
0
  6
Continuous
 62
     7
370
    15
100
AcDbLine
 10
634.9675793673
 20
22.0087749167
 30
0.0
 11
634.9712748553
 21
22.0008325978
 31
0.0
  0
LINE
  5
1AC
330
1F
100
AcDbEntity
  8
0
  6
Continuous
 62
     7
370
    15
100
AcDbLine
 10
634.9682350184
 20
21.0272205277
 30
0.0
 11
634.9719305064
 21
21.0189950867
 31
0.0
  0
SPLINE
  5
1AD
330
1F
100
AcDbEntity
  8
0
  6
Continuous
 62
     7
370
    15
100
AcDbSpline
210
0.0
220
0.0
230
1.0
 70
     8
 71
     3
 72
    10
 73
     6
 74
     0
 42
0.00000001
 43
0.00000001
 40
0.0
 40
0.0
 40
0.0
 40
0.0
 40
0.5
 40
0.5
 40
1.0
 40
1.0
 40
1.0
 40
1.0
 10
642.8456518944471
 20
77.04275796026825
 30
0.0
 10
642.7880511669291
 20
77.06871784811781
 30
0.0
 10
642.7333006425584
 20
77.09364373460207
 30
0.0
 10
642.6553324558164
 20
77.12933392333235
 30
0.0
 10
642.6328353106003
 20
77.13973244581112
 30
0.0
 10
642.6328484106535
 20
77.13976155704056
 30
0.0
  0
SPLINE
  5
1AE
330
1F
100
AcDbEntity
  8
0
  6
Continuous
 62
     7
370
    15
100
AcDbSpline
210
0.0
220
0.0
230
1.0
 70
     8
 71
     3
 72
     8
 73
     4
 74
     0
 42
0.00000001
 43
0.00000001
 40
0.0
 40
0.0
 40
0.0
 40
0.0
 40
1.0
 40
1.0
 40
1.0
 40
1.0
 10
642.8456518944471
 20
77.04275796026825
 30
0.0
 10
648.6489050296012
 20
74.42730834629943
 30
0.0
 10
654.4488851878356
 20
71.80473363048873
 30
0.0
 10
660.2393870873568
 20
69.1615252346153
 30
0.0
  0
LINE
  5
1AF
330
1F
100
AcDbEntity
  8
0
  6
Continuous
 62
     7
370
    15
100
AcDbLine
 10
660.239382508
 20
69.1615325613
 30
0.0
 11
661.5872521426
 21
68.5532820626
 31
0.0
  0
LINE
  5
1B0
330
1F
100
AcDbEntity
  8
0
  6
Continuous
 62
     7
370
    15
100
AcDbLine
 10
662.1768910911
 20
64.4126069947
 30
0.0
 11
662.1768910911
 21
33.2772863312
 31
0.0
  0
LINE
  5
1B1
330
1F
100
AcDbEntity
  8
0
  6
Continuous
 62
     7
370
    15
100
AcDbLine
 10
662.1768910911
 20
67.6385891838
 30
0.0
 11
662.1768910911
 21
64.4126069947
 31
0.0
  0
SPLINE
  5
1B2
330
1F
100
AcDbEntity
  8
0
  6
Continuous
 62
     7
370
    15
100
AcDbSpline
210
0.0
220
0.0
230
1.0
 70
     8
 71
     3
 72
    10
 73
     6
 74
     0
 42
0.00000001
 43
0.00000001
 40
0.0
 40
0.0
 40
0.0
 40
0.0
 40
0.5
 40
0.5
 40
1.0
 40
1.0
 40
1.0
 40
1.0
 10
661.5872539539181
 20
68.55328336966504
 30
0.0
 10
661.7635060915148
 20
68.47374051908677
 30
0.0
 10
661.9128481734369
 20
68.34411798438566
 30
0.0
 10
662.1200213165916
 20
68.02301160390523
 30
0.0
 10
662.1768892765893
 20
67.83195197462754
 30
0.0
 10
662.1768892765893
 20
67.63859626433788
 30
0.0
  0
LINE
  5
1B3
330
1F
100
AcDbEntity
  8
0
  6
Continuous
 62
     7
370
    15
100
AcDbLine
 10
662.1768910911
 20
33.2772863312
 30
0.0
 11
662.1768910911
 21
29.9915355845
 31
0.0
  0
LINE
  5
1B4
330
1F
100
AcDbEntity
  8
0
  6
Continuous
 62
     7
370
    15
100
AcDbLine
 10
636.4798684146
 20
19.3110686942
 30
0.0
 11
636.4761729266
 21
19.3199795885
 31
0.0
  0
SPLINE
  5
1B5
330
1F
100
AcDbEntity
  8
0
  6
Continuous
 62
     7
370
    15
100
AcDbSpline
210
0.0
220
0.0
230
1.0
 70
     8
 71
     3
 72
    56
 73
    52
 74
     0
 42
0.00000001
 43
0.00000001
 40
0.0
 40
0.0
 40
0.0
 40
0.0
 40
0.03125
 40
0.03125
 40
0.046875
 40
0.046875
 40
0.0546875
 40
0.0546875
 40
0.05859375
 40
0.05859375
 40
0.0625
 40
0.0625
 40
0.125
 40
0.125
 40
0.1875
 40
0.1875
 40
0.25
 40
0.25
 40
0.3125
 40
0.3125
 40
0.375
 40
0.375
 40
0.4375
 40
0.4375
 40
0.46875
 40
0.46875
 40
0.5
 40
0.5
 40
0.625
 40
0.625
 40
0.6875
 40
0.6875
 40
0.71875
 40
0.71875
 40
0.734375
 40
0.734375
 40
0.75
 40
0.75
 40
0.875
 40
0.875
 40
0.90625
 40
0.90625
 40
0.921875
 40
0.921875
 40
0.9296875
 40
0.9296875
 40
0.93359375
 40
0.93359375
 40
0.9375
 40
0.9375
 40
1.0
 40
1.0
 40
1.0
 40
1.0
 10
635.5165294831861
 20
18.65083315801325
 30
0.0
 10
635.5171196971461
 20
18.65690918615487
 30
0.0
 10
635.517734034282
 20
18.6622702943926
 30
0.0
 10
635.5186917252861
 20
18.6692137575479
 30
0.0
 10
635.5190169864744
 20
18.67134529142181
 30
0.0
 10
635.5195139245373
 20
18.6742656495712
 30
0.0
 10
635.5196810782716
 20
18.67519295014711
 30
0.0
 10
635.5199340704431
 20
18.67651440352139
 30
0.0
 10
635.5200187780954
 20
18.67694330537489
 30
0.0
 10
635.5201889472565
 20
18.67777790271671
 30
0.0
 10
635.5202253535457
 20
18.67795839214703
 30
0.0
 10
635.5225185457156
 20
18.68848613559776
 30
0.0
 10
635.5258836813418
 20
18.69834697324613
 30
0.0
 10
635.5359320713027
 20
18.71988557529705
 30
0.0
 10
635.542448330175
 20
18.73119499995549
 30
0.0
 10
635.5584649757037
 20
18.75488424001587
 30
0.0
 10
635.5682644437619
 20
18.76761531418947
 30
0.0
 10
635.5896511820547
 20
18.79273317345947
 30
0.0
 10
635.6020994995728
 20
18.80590583430391
 30
0.0
 10
635.630506031353
 20
18.83346796893348
 30
0.0
 10
635.6469336883406
 20
18.8482547865807
 30
0.0
 10
635.6814211281562
 20
18.87744553100179
 30
0.0
 10
635.7000621586037
 20
18.89231107300202
 30
0.0
 10
635.730119670085
 20
18.91500002716273
 30
0.0
 10
635.7404881682136
 20
18.92262813330755
 30
0.0
 10
635.7619238197409
 20
18.93801232799314
 30
0.0
 10
635.7723713642887
 20
18.94534405401327
 30
0.0
 10
635.83255181371
 20
18.98656090675813
 30
0.0
 10
635.8830319980146
 20
19.01876121257132
 30
0.0
 10
635.9622560116234
 20
19.06578507793591
 30
0.0
 10
635.9892479723517
 20
19.08124734486211
 30
0.0
 10
636.030611847732
 20
19.10411129082254
 30
0.0
 10
636.04454579524
 20
19.11167772255648
 30
0.0
 10
636.065665700074
 20
19.12294390838695
 30
0.0
 10
636.0727421656139
 20
19.12668539495546
 30
0.0
 10
636.086968091218
 20
19.13414038029726
 30
0.0
 10
636.0936142421201
 20
19.13759476884769
 30
0.0
 10
636.1628176405111
 20
19.17322159501411
 30
0.0
 10
636.2240504841537
 20
19.20271488735434
 30
0.0
 10
636.3020246172056
 20
19.23762519571667
 30
0.0
 10
636.3178423309464
 20
19.24456352880905
 30
0.0
 10
636.3419032322532
 20
19.25490516646561
 30
0.0
 10
636.3499792544716
 20
19.25834140408239
 30
0.0
 10
636.362176870473
 20
19.2634792829976
 30
0.0
 10
636.3662566729191
 20
19.2651891631796
 30
0.0
 10
636.3723972722568
 20
19.2677498635361
 30
0.0
 10
636.3744476213141
 20
19.26860274367689
 30
0.0
 10
636.3785552846515
 20
19.27030713064332
 30
0.0
 10
636.3813324180145
 20
19.27145582182979
 30
0.0
 10
636.4041290407598
 20
19.28086763088016
 30
0.0
 10
636.436531801468
 20
19.29388810547733
 30
0.0
 10
636.4798816751467
 20
19.31107019358752
 30
0.0
  0
LWPOLYLINE
  5
1B6
330
1F
100
AcDbEntity
  8
0
  6
Continuous
 62
     7
370
    15
100
AcDbPolyline
 90
        3
 70
   128
 43
0.0
 10
635.5165381457
 20
18.650828044
 10
635.5146605994
 20
18.6553281947
 10
635.5128128554
 20
18.6598283453
  0
SPLINE
  5
1B7
330
1F
100
AcDbEntity
  8
0
  6
Continuous
 62
     7
370
    15
100
AcDbSpline
210
0.0
220
0.0
230
1.0
 70
     8
 71
     3
 72
     8
 73
     4
 74
     0
 42
0.00000001
 43
0.00000001
 40
0.0
 40
0.0
 40
0.0
 40
0.0
 40
1.0
 40
1.0
 40
1.0
 40
1.0
 10
636.6125474365907
 20
18.88006313577531
 30
0.0
 10
636.6114265151919
 20
18.85474486050648
 30
0.0
 10
636.6103055937942
 20
18.83001957766911
 30
0.0
 10
636.6091846723951
 20
18.80588880982192
 30
0.0
  0
SPLINE
  5
1B8
330
1F
100
AcDbEntity
  8
0
  6
Continuous
 62
     7
370
    15
100
AcDbSpline
210
0.0
220
0.0
230
1.0
 70
     8
 71
     3
 72
    54
 73
    50
 74
     0
 42
0.00000001
 43
0.00000001
 40
0.0
 40
0.0
 40
0.0
 40
0.0
 40
0.03125
 40
0.03125
 40
0.046875
 40
0.046875
 40
0.0546875
 40
0.0546875
 40
0.05859375
 40
0.05859375
 40
0.0625
 40
0.0625
 40
0.125
 40
0.125
 40
0.1875
 40
0.1875
 40
0.21875
 40
0.21875
 40
0.25
 40
0.25
 40
0.375
 40
0.375
 40
0.4375
 40
0.4375
 40
0.5
 40
0.5
 40
0.625
 40
0.625
 40
0.6875
 40
0.6875
 40
0.71875
 40
0.71875
 40
0.75
 40
0.75
 40
0.8125
 40
0.8125
 40
0.875
 40
0.875
 40
0.90625
 40
0.90625
 40
0.921875
 40
0.921875
 40
0.9296875
 40
0.9296875
 40
0.93359375
 40
0.93359375
 40
0.9375
 40
0.9375
 40
1.0
 40
1.0
 40
1.0
 40
1.0
 10
636.6091846723951
 20
18.80588880982192
 30
0.0
 10
636.5853682474662
 20
18.79692485394013
 30
0.0
 10
636.5645379286826
 20
18.78911510733011
 30
0.0
 10
636.5377716090882
 20
18.77913153453548
 30
0.0
 10
636.5295960290223
 20
18.77609218513201
 30
0.0
 10
636.5184524486218
 20
18.77196589295771
 30
0.0
 10
636.514924553438
 20
18.77066258424201
 30
0.0
 10
636.509912658087
 20
18.76881580057199
 30
0.0
 10
636.5082886842075
 20
18.76821823591723
 30
0.0
 10
636.5051340522565
 20
18.76705916582522
 30
0.0
 10
636.5042668099638
 20
18.76674061900679
 30
0.0
 10
636.4677607388815
 20
18.75337122850767
 30
0.0
 10
636.4330076031173
 20
18.74100721753683
 30
0.0
 10
636.3590053755164
 20
18.71544661545271
 30
0.0
 10
636.3233497513305
 20
18.70350548699967
 30
0.0
 10
636.2718845494734
 20
18.686859825536
 30
0.0
 10
636.2550658545913
 20
18.68152229283168
 30
0.0
 10
636.2221012096343
 20
18.67127067287663
 30
0.0
 10
636.2068932142024
 20
18.66663552329267
 30
0.0
 10
636.1231555526318
 20
18.64173283929355
 30
0.0
 10
636.0599437043229
 20
18.62472850118519
 30
0.0
 10
635.9707933532803
 20
18.6037075771478
 30
0.0
 10
635.9420211398364
 20
18.59744853878764
 30
0.0
 10
635.8863658534218
 20
18.5864485455961
 30
0.0
 10
635.8599715309883
 20
18.58178238617359
 30
0.0
 10
635.780689771177
 20
18.56964963504596
 30
0.0
 10
635.7343245958566
 20
18.56506077743464
 30
0.0
 10
635.6745108297073
 20
18.56350965301995
 30
0.0
 10
635.6561952404627
 20
18.56388137656742
 30
0.0
 10
635.6311553558033
 20
18.56578306889065
 30
0.0
 10
635.623214310785
 20
18.56664098837885
 30
0.0
 10
635.6081433871506
 20
18.56880674766576
 30
0.0
 10
635.600789763978
 20
18.57016562170588
 30
0.0
 10
635.5812881114042
 20
18.57461378165015
 30
0.0
 10
635.5698704568487
 20
18.57858606773366
 30
0.0
 10
635.5502020420582
 20
18.58857050395796
 30
0.0
 10
635.5418485642319
 20
18.59469120721202
 30
0.0
 10
635.5320016710076
 20
18.60509737900784
 30
0.0
 10
635.5291962052601
 20
18.60870802075712
 30
0.0
 10
635.5257032546295
 20
18.61433435933313
 30
0.0
 10
635.5246581457512
 20
18.61624486891716
 30
0.0
 10
635.5232692944312
 20
18.61916292241325
 30
0.0
 10
635.5228361459909
 20
18.6201443218115
 30
0.0
 10
635.5222311263298
 20
18.62162945542875
 30
0.0
 10
635.5220369036094
 20
18.62212667239071
 30
0.0
 10
635.5216633591683
 20
18.62312544489031
 30
0.0
 10
635.5214288193332
 20
18.62378883416871
 30
0.0
 10
635.5194457165259
 20
18.62960092951016
 30
0.0
 10
635.5178514917386
 20
18.63845394677743
 30
0.0
 10
635.5165294831861
 20
18.65083315801325
 30
0.0
  0
SPLINE
  5
1B9
330
1F
100
AcDbEntity
  8
0
  6
Continuous
 62
     7
370
    15
100
AcDbSpline
210
0.0
220
0.0
230
1.0
 70
     8
 71
     3
 72
    56
 73
    52
 74
     0
 42
0.00000001
 43
0.00000001
 40
0.0
 40
0.0
 40
0.0
 40
0.0
 40
0.03125
 40
0.03125
 40
0.046875
 40
0.046875
 40
0.0546875
 40
0.0546875
 40
0.05859375
 40
0.05859375
 40
0.0625
 40
0.0625
 40
0.125
 40
0.125
 40
0.25
 40
0.25
 40
0.3125
 40
0.3125
 40
0.34375
 40
0.34375
 40
0.359375
 40
0.359375
 40
0.375
 40
0.375
 40
0.4375
 40
0.4375
 40
0.46875
 40
0.46875
 40
0.484375
 40
0.484375
 40
0.4921875
 40
0.4921875
 40
0.49609375
 40
0.49609375
 40
0.5
 40
0.5
 40
0.625
 40
0.625
 40
0.6875
 40
0.6875
 40
0.71875
 40
0.71875
 40
0.734375
 40
0.734375
 40
0.7421875
 40
0.7421875
 40
0.74609375
 40
0.74609375
 40
0.75
 40
0.75
 40
1.0
 40
1.0
 40
1.0
 40
1.0
 10
636.4798816751467
 20
19.31107019358752
 30
0.0
 10
636.4989148368727
 20
19.31825201612775
 30
0.0
 10
636.5155868268984
 20
19.32452039278415
 30
0.0
 10
636.5370530544876
 20
19.3325527630675
 30
0.0
 10
636.5436181707702
 20
19.33500185391829
 30
0.0
 10
636.5525804058233
 20
19.3383329369678
 30
0.0
 10
636.5554202442793
 20
19.33938620577208
 30
0.0
 10
636.5594586421204
 20
19.34088047004495
 30
0.0
 10
636.5607678814271
 20
19.34136428497982
 30
0.0
 10
636.5633125734261
 20
19.34230336842904
 30
0.0
 10
636.5638476439249
 20
19.34250093989234
 30
0.0
 10
636.5961296507644
 20
19.35437870897486
 30
0.0
 10
636.6236473669721
 20
19.36417358397022
 30
0.0
 10
636.7064877177532
 20
19.39244249535807
 30
0.0
 10
636.7632481865666
 20
19.410258223028
 30
0.0
 10
636.846248940111
 20
19.43420221753545
 30
0.0
 10
636.8733296604773
 20
19.44165098186274
 30
0.0
 10
636.9130714448045
 20
19.4520314179355
 30
0.0
 10
636.9261721568764
 20
19.45535945439664
 30
0.0
 10
636.9456034009287
 20
19.46015419878572
 30
0.0
 10
636.9520438449367
 20
19.4617195624584
 30
0.0
 10
636.9648514582678
 20
19.46478467018312
 30
0.0
 10
636.9720657291715
 20
19.46648071804691
 30
0.0
 10
636.9994828811699
 20
19.47283425529381
 30
0.0
 10
637.0227723405148
 20
19.47792973744966
 30
0.0
 10
637.0597401361513
 20
19.48560583995052
 30
0.0
 10
637.0724016691333
 20
19.4881700558317
 30
0.0
 10
637.0919023702612
 20
19.4920267054837
 30
0.0
 10
637.0984873375796
 20
19.49331397852686
 30
0.0
 10
637.108491888971
 20
19.49524774914541
 30
0.0
 10
637.111847922837
 20
19.49589281633024
 30
0.0
 10
637.1169137487395
 20
19.49686116834109
 30
0.0
 10
637.1186076532243
 20
19.49718407755882
 30
0.0
 10
637.1220060538949
 20
19.49783015248549
 30
0.0
 10
637.1242273291056
 20
19.49825103365643
 30
0.0
 10
637.1635967584942
 20
19.50569522507412
 30
0.0
 10
637.205541947669
 20
19.51300564556363
 30
0.0
 10
637.274112890628
 20
19.52419422996926
 30
0.0
 10
637.2979120648137
 20
19.52796117970945
 30
0.0
 10
637.3350241158917
 20
19.53368074208495
 30
0.0
 10
637.347630347884
 20
19.5355988020891
 30
0.0
 10
637.3668930183226
 20
19.53849497237456
 30
0.0
 10
637.3733727955438
 20
19.53946354352612
 30
0.0
 10
637.3831807919879
 20
19.54092140234395
 30
0.0
 10
637.3864648459047
 20
19.54140818902789
 30
0.0
 10
637.3914130094329
 20
19.54213964904985
 30
0.0
 10
637.393066077718
 20
19.5423836823938
 30
0.0
 10
637.3963795751722
 20
19.54287218069845
 30
0.0
 10
637.3986257929606
 20
19.54320277740556
 30
0.0
 10
637.4687166574729
 20
19.55350862557226
 30
0.0
 10
637.5550896946543
 20
19.56516150813636
 30
0.0
 10
637.6588265848609
 20
19.5788792512879
 30
0.0
  0
SPLINE
  5
1BA
330
1F
100
AcDbEntity
  8
0
  6
Continuous
 62
     7
370
    15
100
AcDbSpline
210
0.0
220
0.0
230
1.0
 70
     8
 71
     3
 72
     8
 73
     4
 74
     0
 42
0.00000001
 43
0.00000001
 40
0.0
 40
0.0
 40
0.0
 40
0.0
 40
1.0
 40
1.0
 40
1.0
 40
1.0
 10
637.6588265848609
 20
19.5788792512879
 30
0.0
 10
637.9520906656342
 20
19.61648652023859
 30
0.0
 10
638.2425694784007
 20
19.65737378824925
 30
0.0
 10
638.5302630376124
 20
19.70159252158252
 30
0.0
  0
SPLINE
  5
1BB
330
1F
100
AcDbEntity
  8
0
  6
Continuous
 62
     7
370
    15
100
AcDbSpline
210
0.0
220
0.0
230
1.0
 70
     8
 71
     3
 72
     8
 73
     4
 74
     0
 42
0.00000001
 43
0.00000001
 40
0.0
 40
0.0
 40
0.0
 40
0.0
 40
1.0
 40
1.0
 40
1.0
 40
1.0
 10
638.5302630376124
 20
19.70159252158252
 30
0.0
 10
638.5328921976514
 20
19.82809518654402
 30
0.0
 10
638.5305255489061
 20
19.96672765095714
 30
0.0
 10
638.5231630911406
 20
20.11736860622979
 30
0.0
  0
LINE
  5
1BC
330
1F
100
AcDbEntity
  8
0
  6
Continuous
 62
     7
370
    15
100
AcDbLine
 10
638.5231752421
 20
20.1173705264
 30
0.0
 11
638.8362486388
 21
20.2389192982
 31
0.0
  0
SPLINE
  5
1BD
330
1F
100
AcDbEntity
  8
0
  6
Continuous
 62
     7
370
    15
100
AcDbSpline
210
0.0
220
0.0
230
1.0
 70
     8
 71
     3
 72
     8
 73
     4
 74
     0
 42
0.00000001
 43
0.00000001
 40
0.0
 40
0.0
 40
0.0
 40
0.0
 40
1.0
 40
1.0
 40
1.0
 40
1.0
 10
638.8362537355364
 20
20.23892509450081
 30
0.0
 10
638.8472139363687
 20
20.01720310268199
 30
0.0
 10
638.8473148726371
 20
19.82161177971498
 30
0.0
 10
638.8365565443885
 20
19.65251418365746
 30
0.0
  0
SPLINE
  5
1BE
330
1F
100
AcDbEntity
  8
0
  6
Continuous
 62
     7
370
    15
100
AcDbSpline
210
0.0
220
0.0
230
1.0
 70
     8
 71
     3
 72
     8
 73
     4
 74
     0
 42
0.00000001
 43
0.00000001
 40
0.0
 40
0.0
 40
0.0
 40
0.0
 40
1.0
 40
1.0
 40
1.0
 40
1.0
 10
638.8365565443885
 20
19.65251418365746
 30
0.0
 10
638.3992102602658
 20
19.5749546638199
 30
0.0
 10
637.955284710139
 20
19.50539815729707
 30
0.0
 10
637.5047797676085
 20
19.44365913566151
 30
0.0
  0
SPLINE
  5
1BF
330
1F
100
AcDbEntity
  8
0
  6
Continuous
 62
     7
370
    15
100
AcDbSpline
210
0.0
220
0.0
230
1.0
 70
     8
 71
     3
 72
    68
 73
    64
 74
     0
 42
0.00000001
 43
0.00000001
 40
0.0
 40
0.0
 40
0.0
 40
0.0
 40
0.125
 40
0.125
 40
0.1875
 40
0.1875
 40
0.21875
 40
0.21875
 40
0.234375
 40
0.234375
 40
0.25
 40
0.25
 40
0.3125
 40
0.3125
 40
0.34375
 40
0.34375
 40
0.359375
 40
0.359375
 40
0.3671875
 40
0.3671875
 40
0.375
 40
0.375
 40
0.4375
 40
0.4375
 40
0.46875
 40
0.46875
 40
0.484375
 40
0.484375
 40
0.4921875
 40
0.4921875
 40
0.49609375
 40
0.49609375
 40
0.5
 40
0.5
 40
0.5625
 40
0.5625
 40
0.59375
 40
0.59375
 40
0.609375
 40
0.609375
 40
0.6171875
 40
0.6171875
 40
0.625
 40
0.625
 40
0.6875
 40
0.6875
 40
0.71875
 40
0.71875
 40
0.75
 40
0.75
 40
0.875
 40
0.875
 40
0.90625
 40
0.90625
 40
0.921875
 40
0.921875
 40
0.9296875
 40
0.9296875
 40
0.93359375
 40
0.93359375
 40
0.9375
 40
0.9375
 40
1.0
 40
1.0
 40
1.0
 40
1.0
 10
637.5047797676085
 20
19.44365913566151
 30
0.0
 10
637.4586265566982
 20
19.43733280017582
 30
0.0
 10
637.4168830503056
 20
19.43162470245785
 30
0.0
 10
637.360882008916
 20
19.42388833917477
 30
0.0
 10
637.3433173836291
 20
19.42144742414645
 30
0.0
 10
637.3186240284634
 20
19.41798234026212
 30
0.0
 10
637.3106685072023
 20
19.41686004222412
 30
0.0
 10
637.2991486210018
 20
19.41522451169353
 30
0.0
 10
637.2953775582168
 20
19.414687321889
 30
0.0
 10
637.2879732312105
 20
19.4136287313944
 30
0.0
 10
637.2850177250778
 20
19.41320498990415
 30
0.0
 10
637.2638071099382
 20
19.4101487199092
 30
0.0
 10
637.2456829735743
 20
19.40746288892775
 30
0.0
 10
637.2167633026506
 20
19.40307971013158
 30
0.0
 10
637.2068345012798
 20
19.4015595851893
 30
0.0
 10
637.191507932629
 20
19.39919170915666
 30
0.0
 10
637.1863268486462
 20
19.39838780279818
 30
0.0
 10
637.1784468810235
 20
19.39716013922182
 30
0.0
 10
637.1758021682078
 20
19.39674728404972
 30
0.0
 10
637.1704766286937
 20
19.3959143256443
 30
0.0
 10
637.1682386304404
 20
19.39556374524254
 30
0.0
 10
637.1399632216715
 20
19.39112458488215
 30
0.0
 10
637.1175024841147
 20
19.38754705210688
 30
0.0
 10
637.0878208164698
 20
19.38270642824988
 30
0.0
 10
637.0785951670367
 20
19.38118057425037
 30
0.0
 10
637.0657590525594
 20
19.37902063574218
 30
0.0
 10
637.0616474076792
 20
19.37832213468588
 30
0.0
 10
637.0557305302767
 20
19.37730630705489
 30
0.0
 10
637.0538000027957
 20
19.37697301879782
 30
0.0
 10
637.0509668590536
 20
19.37648103377801
 30
0.0
 10
637.0500329190527
 20
19.3763183633508
 30
0.0
 10
637.0481859215445
 20
19.37599566619888
 30
0.0
 10
637.047896272659
 20
19.37594525376496
 30
0.0
 10
637.0219538496436
 20
19.37138378284717
 30
0.0
 10
636.9993514808663
 20
19.3672667044037
 30
0.0
 10
636.9681689717322
 20
19.36133643381438
 30
0.0
 10
636.9582283093596
 20
19.35940061244612
 30
0.0
 10
636.9439975768086
 20
19.35655633876843
 30
0.0
 10
636.9393673761264
 20
19.35561816005557
 30
0.0
 10
636.9325921403548
 20
19.35422554273442
 30
0.0
 10
636.9303620726397
 20
19.35376377892642
 30
0.0
 10
636.9259586256267
 20
19.35284510099888
 30
0.0
 10
636.9244675900359
 20
19.35253276684665
 30
0.0
 10
636.8990211808696
 20
19.34714099585483
 30
0.0
 10
636.8764509001519
 20
19.34202076214936
 30
0.0
 10
636.8426686035542
 20
19.33384006241281
 30
0.0
 10
636.8314200254347
 20
19.33102978683177
 30
0.0
 10
636.808947244022
 20
19.32524117047957
 30
0.0
 10
636.7984228042586
 20
19.32245399535654
 30
0.0
 10
636.7388639072087
 20
19.30618333381831
 30
0.0
 10
636.6895864009142
 20
19.29124612973695
 30
0.0
 10
636.629492424001
 20
19.27131275111005
 30
0.0
 10
636.6172487360302
 20
19.2671473242903
 30
0.0
 10
636.5985458651915
 20
19.26063058889585
 30
0.0
 10
636.5922553517648
 20
19.25841357877237
 30
0.0
 10
636.5827352469045
 20
19.25502086536016
 30
0.0
 10
636.5795478228309
 20
19.25387876123932
 30
0.0
 10
636.5747456030404
 20
19.25214879973028
 30
0.0
 10
636.5731413491634
 20
19.25156934500938
 30
0.0
 10
636.5699258135163
 20
19.25040483286383
 30
0.0
 10
636.5677371751643
 20
19.24960959133226
 30
0.0
 10
636.5501007098653
 20
19.24318911423731
 30
0.0
 10
636.5249822832983
 20
19.2338341825552
 30
0.0
 10
636.4913444548386
 20
19.22116729649348
 30
0.0
  0
SPLINE
  5
1C0
330
1F
100
AcDbEntity
  8
0
  6
Continuous
 62
     7
370
    15
100
AcDbSpline
210
0.0
220
0.0
230
1.0
 70
     8
 71
     3
 72
    50
 73
    46
 74
     0
 42
0.00000001
 43
0.00000001
 40
0.0
 40
0.0
 40
0.0
 40
0.0
 40
0.03125
 40
0.03125
 40
0.046875
 40
0.046875
 40
0.0546875
 40
0.0546875
 40
0.0625
 40
0.0625
 40
0.09375
 40
0.09375
 40
0.109375
 40
0.109375
 40
0.125
 40
0.125
 40
0.1875
 40
0.1875
 40
0.25
 40
0.25
 40
0.375
 40
0.375
 40
0.4375
 40
0.4375
 40
0.46875
 40
0.46875
 40
0.5
 40
0.5
 40
0.5625
 40
0.5625
 40
0.625
 40
0.625
 40
0.75
 40
0.75
 40
0.875
 40
0.875
 40
0.90625
 40
0.90625
 40
0.921875
 40
0.921875
 40
0.9296875
 40
0.9296875
 40
0.9375
 40
0.9375
 40
1.0
 40
1.0
 40
1.0
 40
1.0
 10
636.4913444548386
 20
19.22116729649348
 30
0.0
 10
636.4763615822508
 20
19.21527013419019
 30
0.0
 10
636.4632546446754
 20
19.2100709842978
 30
0.0
 10
636.4464081413519
 20
19.20331929493396
 30
0.0
 10
636.4412616240551
 20
19.20124323811129
 30
0.0
 10
636.4342453238263
 20
19.19839091798397
 30
0.0
 10
636.4320238030361
 20
19.1974837721508
 30
0.0
 10
636.4278152533612
 20
19.19575673681084
 30
0.0
 10
636.4264165953357
 20
19.1951811158351
 30
0.0
 10
636.4141258263797
 20
19.19007847006102
 30
0.0
 10
636.4036619322592
 20
19.18563433068152
 30
0.0
 10
636.3870191726446
 20
19.17842510593032
 30
0.0
 10
636.3813137663676
 20
19.17593152953767
 30
0.0
 10
636.3695873143356
 20
19.17076339056526
 30
0.0
 10
636.3629166730624
 20
19.16779813394756
 30
0.0
 10
636.3352703231833
 20
19.1554263905602
 30
0.0
 10
636.3135557568702
 20
19.14534461262043
 30
0.0
 10
636.2709316514246
 20
19.12481519721162
 30
0.0
 10
636.2492945825728
 20
19.11399050311555
 30
0.0
 10
636.1899560951023
 20
19.08323718175514
 30
0.0
 10
636.1522097310848
 20
19.06221244126877
 30
0.0
 10
636.0983091265028
 20
19.02993180919912
 30
0.0
 10
636.0807954152162
 20
19.0190478791151
 30
0.0
 10
636.0552045836474
 20
19.0025432506673
 30
0.0
 10
636.0467875956847
 20
18.99701193157538
 30
0.0
 10
636.0301801982129
 20
18.98589103331533
 30
0.0
 10
636.0215515256451
 20
18.97999662182567
 30
0.0
 10
635.9986349539746
 20
18.96405708161769
 30
0.0
 10
635.9841669102595
 20
18.95357584856427
 30
0.0
 10
635.9568501642932
 20
18.9329110692667
 30
0.0
 10
635.9432560730498
 20
18.922146469706
 30
0.0
 10
635.9064272384727
 20
18.8914489279576
 30
0.0
 10
635.8869156325295
 20
18.87304445192694
 30
0.0
 10
635.8563072781861
 20
18.83850244679941
 30
0.0
 10
635.8447161198206
 20
18.82201413557197
 30
0.0
 10
635.835018299742
 20
18.80272869497021
 30
0.0
 10
635.833366743569
 20
18.79902313614867
 30
0.0
 10
635.8313214210733
 20
18.79369158746577
 30
0.0
 10
635.8307116488687
 20
18.79195220289126
 30
0.0
 10
635.8299049935029
 20
18.78939976102059
 30
0.0
 10
635.8296541088711
 20
18.78855838623284
 30
0.0
 10
635.8291883405878
 20
18.78689450462836
 30
0.0
 10
635.8289099871793
 20
18.78580988365788
 30
0.0
 10
635.8277092665429
 20
18.7808512090526
 30
0.0
 10
635.826820809688
 20
18.77444781095536
 30
0.0
 10
635.8261112006259
 20
18.76610488805122
 30
0.0
  0
SPLINE
  5
1C1
330
1F
100
AcDbEntity
  8
0
  6
Continuous
 62
     7
370
    15
100
AcDbSpline
210
0.0
220
0.0
230
1.0
 70
     8
 71
     3
 72
    52
 73
    48
 74
     0
 42
0.00000001
 43
0.00000001
 40
0.0
 40
0.0
 40
0.0
 40
0.0
 40
0.03125
 40
0.03125
 40
0.046875
 40
0.046875
 40
0.0546875
 40
0.0546875
 40
0.0625
 40
0.0625
 40
0.09375
 40
0.09375
 40
0.125
 40
0.125
 40
0.25
 40
0.25
 40
0.375
 40
0.375
 40
0.4375
 40
0.4375
 40
0.46875
 40
0.46875
 40
0.484375
 40
0.484375
 40
0.5
 40
0.5
 40
0.625
 40
0.625
 40
0.6875
 40
0.6875
 40
0.71875
 40
0.71875
 40
0.734375
 40
0.734375
 40
0.75
 40
0.75
 40
0.8125
 40
0.8125
 40
0.84375
 40
0.84375
 40
0.859375
 40
0.859375
 40
0.8671875
 40
0.8671875
 40
0.875
 40
0.875
 40
1.0
 40
1.0
 40
1.0
 40
1.0
 10
635.8261112006259
 20
18.76610488805122
 30
0.0
 10
635.8264703687071
 20
18.76171252039627
 30
0.0
 10
635.826910923104
 20
18.7579421812141
 30
0.0
 10
635.8276938345684
 20
18.75320417978826
 30
0.0
 10
635.8279751516792
 20
18.75177781075421
 30
0.0
 10
635.8284276472799
 20
18.74986618294366
 30
0.0
 10
635.8285835658024
 20
18.74926696421475
 30
0.0
 10
635.8289055761591
 20
18.74814428929533
 30
0.0
 10
635.829000601612
 20
18.74782246467546
 30
0.0
 10
635.8302118259646
 20
18.74438594425504
 30
0.0
 10
635.8315594656248
 20
18.74169501390488
 30
0.0
 10
635.8350120653005
 20
18.73643292461477
 30
0.0
 10
635.8372359111413
 20
18.73374163763966
 30
0.0
 10
635.8490595829838
 20
18.72179442083388
 30
0.0
 10
635.863478738727
 20
18.71471590193499
 30
0.0
 10
635.9011638742143
 20
18.70572246118035
 30
0.0
 10
635.9251013483431
 20
18.70397457952758
 30
0.0
 10
635.9686499191143
 20
18.70542922372326
 30
0.0
 10
635.9844398359679
 20
18.70659355403259
 30
0.0
 10
636.0100353011426
 20
18.70935372283833
 30
0.0
 10
636.0188855545165
 20
18.71044272713349
 30
0.0
 10
636.032638582051
 20
18.71232899057976
 30
0.0
 10
636.0373025324748
 20
18.71299987138639
 30
0.0
 10
636.046789649147
 20
18.71442577670648
 30
0.0
 10
636.0520151224259
 20
18.7152462041536
 30
0.0
 10
636.0925193265958
 20
18.72183096053653
 30
0.0
 10
636.1321578466741
 20
18.73007195208876
 30
0.0
 10
636.1970678013491
 20
18.74596079325022
 30
0.0
 10
636.219613148667
 20
18.75184507968963
 30
0.0
 10
636.2547942132834
 20
18.76154773797117
 30
0.0
 10
636.266748408762
 20
18.76492800264901
 30
0.0
 10
636.28502046289
 20
18.77021680935206
 30
0.0
 10
636.291167941084
 20
18.77201614698138
 30
0.0
 10
636.3035764844427
 20
18.77568752203232
 30
0.0
 10
636.3104573118242
 20
18.7777467613526
 30
0.0
 10
636.3389477939841
 20
18.78635243656884
 30
0.0
 10
636.3625202927367
 20
18.79372091042372
 30
0.0
 10
636.3990492104028
 20
18.80549635630763
 30
0.0
 10
636.4114205445477
 20
18.80954196521431
 30
0.0
 10
636.4302700881492
 20
18.8157907131527
 30
0.0
 10
636.4366020264139
 20
18.81790368517178
 30
0.0
 10
636.4461730694069
 20
18.82111818526771
 30
0.0
 10
636.4493756063372
 20
18.82219719232819
 30
0.0
 10
636.4558050587299
 20
18.82437021371469
 30
0.0
 10
636.4599256326472
 20
18.82576813234357
 30
0.0
 10
636.4997982192936
 20
18.83932750794071
 30
0.0
 10
636.5498903546574
 20
18.8571600098148
 30
0.0
 10
636.6125474365907
 20
18.88006313577531
 30
0.0
  0
LINE
  5
1C2
330
1F
100
AcDbEntity
  8
0
  6
Continuous
 62
     7
370
    15
100
AcDbLine
 10
638.8362486388
 20
20.2389192982
 30
0.0
 11
638.8325531508
 21
20.2478301926
 31
0.0
  0
LINE
  5
1C3
330
1F
100
AcDbEntity
  8
0
  6
Continuous
 62
     7
370
    15
100
AcDbLine
 10
638.5231752421
 20
20.1173705264
 30
0.0
 11
638.5194499518
 21
20.1262665196
 31
0.0
  0
LINE
  5
1C4
330
1F
100
AcDbEntity
  8
0
  6
Continuous
 62
     7
370
    15
100
AcDbLine
 10
638.5302681949
 20
19.7015983267
 30
0.0
 11
638.5265429046
 21
19.7106284304
 31
0.0
  0
LWPOLYLINE
  5
1C5
330
1F
100
AcDbEntity
  8
0
  6
Continuous
 62
     7
370
    15
100
AcDbPolyline
 90
        3
 70
   128
 43
0.0
 10
636.6125483539
 20
18.8800675078
 10
636.6107006099
 20
18.8845825596
 10
636.6088230636
 20
18.8891125126
  0
LWPOLYLINE
  5
1C6
330
1F
100
AcDbEntity
  8
0
  6
Continuous
 62
     7
370
    15
100
AcDbPolyline
 90
        3
 70
   128
 43
0.0
 10
635.8261246707
 20
18.766103427
 10
635.8242471244
 20
18.7706035777
 10
635.8223993804
 20
18.7751037283
  0
LINE
  5
1C7
330
1F
100
AcDbEntity
  8
0
  6
Continuous
 62
     7
370
    15
100
AcDbLine
 10
630.1768858458
 20
43.4449446602
 30
0.0
 11
630.1768858458
 21
42.8730529948
 31
0.0
  0
LINE
  5
1C8
330
1F
100
AcDbEntity
  8
0
  6
Continuous
 62
     7
370
    15
100
AcDbLine
 10
630.1768858458
 20
42.8730529948
 30
0.0
 11
630.1768858458
 21
41.8188703461
 31
0.0
  0
LINE
  5
1C9
330
1F
100
AcDbEntity
  8
0
  6
Continuous
 62
     7
370
    15
100
AcDbLine
 10
630.1768858458
 20
41.8188703461
 30
0.0
 11
630.1768858458
 21
41.7331439658
 31
0.0
  0
SPLINE
  5
1CA
330
1F
100
AcDbEntity
  8
0
  6
Continuous
 62
     7
370
    15
100
AcDbSpline
210
0.0
220
0.0
230
1.0
 70
     8
 71
     3
 72
    16
 73
    12
 74
     0
 42
0.00000001
 43
0.00000001
 40
0.0
 40
0.0
 40
0.0
 40
0.0
 40
0.000175046825932
 40
0.1252144538124719
 40
0.2502425371091518
 40
0.3752584411609558
 40
0.5002633225423614
 40
0.6252644936831137
 40
0.7502647647694055
 40
0.8753606306756333
 40
0.9999999999999999
 40
0.9999999999999999
 40
0.9999999999999999
 40
0.9999999999999999
 10
634.5020968939692
 20
80.42561833099668
 30
0.0
 10
634.5020173185609
 20
80.4256531472887
 30
0.0
 10
634.4450954565253
 20
80.45055792898448
 30
0.0
 10
634.645935727792
 20
80.35640145599713
 30
0.0
 10
635.1157954434608
 20
80.13055760318264
 30
0.0
 10
635.8842209761303
 20
79.78295127373522
 30
0.0
 10
636.7870181243
 20
79.40420092417855
 30
0.0
 10
637.7057748591741
 20
79.05223500749284
 30
0.0
 10
638.4863777054712
 20
78.77935084745974
 30
0.0
 10
639.0360609484774
 20
78.60222779533574
 30
0.0
 10
639.1081750783131
 20
78.57992870197094
 30
0.0
 10
639.1441662337214
 20
78.56879953579255
 30
0.0
  0
LINE
  5
1CB
330
1F
100
AcDbEntity
  8
0
  6
Continuous
 62
     7
370
    15
100
AcDbLine
 10
639.6211226012
 20
19.3288159771
 30
0.0
 11
634.9742550876
 21
17.4690616532
 31
0.0
  0
LINE
  5
1CC
330
1F
100
AcDbEntity
  8
0
  6
Continuous
 62
     7
370
    15
100
AcDbLine
 10
634.9705595996
 20
17.4783450766
 30
0.0
 11
634.9742550876
 21
17.4690616532
 31
0.0
  0
LINE
  5
1CD
330
1F
100
AcDbEntity
  8
0
  6
Continuous
 62
     7
370
    15
100
AcDbLine
 10
639.6173973109
 20
19.3380844994
 30
0.0
 11
639.6211226012
 21
19.3288159771
 31
0.0
  0
LINE
  5
1CE
330
1F
100
AcDbEntity
  8
0
  6
Continuous
 62
     7
370
    15
100
AcDbLine
 10
639.6173973109
 20
19.3380844994
 30
0.0
 11
639.6211226012
 21
19.3288159771
 31
0.0
  0
LINE
  5
1CF
330
1F
100
AcDbEntity
  8
0
  6
Continuous
 62
     7
370
    15
100
AcDbLine
 10
625.3768939998
 20
74.4072330399
 30
0.0
 11
625.3768939998
 21
19.4826555653
 31
0.0
  0
LINE
  5
1D0
330
1F
100
AcDbEntity
  8
0
  6
Continuous
 62
     7
370
    15
100
AcDbLine
 10
623.9769001033
 20
74.9505740805
 30
0.0
 11
623.9769001033
 21
18.9389270945
 31
0.0
  0
SPLINE
  5
1D1
330
1F
100
AcDbEntity
  8
0
  6
Continuous
 62
     7
370
    15
100
AcDbSpline
210
0.0
220
0.0
230
1.0
 70
     8
 71
     3
 72
    19
 73
    15
 74
     0
 42
0.00000001
 43
0.00000001
 40
0.0
 40
0.0
 40
0.0
 40
0.0
 40
0.0571115640935943
 40
0.1156812592866335
 40
0.1757147833893927
 40
0.2372174247608606
 40
0.3001940990521333
 40
0.3646493820584508
 40
0.4305875391447039
 40
0.4980125516486578
 40
0.6162616165384447
 40
0.7486631924159511
 40
0.8538790033185848
 40
1.0
 40
1.0
 40
1.0
 40
1.0
 10
623.9768892765874
 20
76.94494749242537
 30
0.0
 10
624.0255144726481
 20
76.91313455703
 30
0.0
 10
624.1240063280658
 20
76.84869646140888
 30
0.0
 10
624.2657877933377
 20
76.74007750509018
 30
0.0
 10
624.4044335494758
 20
76.62097810738052
 30
0.0
 10
624.5383907212807
 20
76.49044459024368
 30
0.0
 10
624.6667372914187
 20
76.34864237860975
 30
0.0
 10
624.7883087974326
 20
76.19554410629839
 30
0.0
 10
624.9019657105628
 20
76.0312962034296
 30
0.0
 10
625.0319494183165
 20
75.81345411609236
 30
0.0
 10
625.170037593854
 20
75.52394583884947
 30
0.0
 10
625.281495586827
 20
75.18359276450714
 30
0.0
 10
625.3603584363194
 20
74.80586234289221
 30
0.0
 10
625.3708118947119
 20
74.55378405772458
 30
0.0
 10
625.3768892765873
 20
74.40723198433547
 30
0.0
  0
SPLINE
  5
1D2
330
1F
100
AcDbEntity
  8
0
  6
Continuous
 62
     7
370
    15
100
AcDbSpline
210
0.0
220
0.0
230
1.0
 70
     8
 71
     3
 72
    10
 73
     6
 74
     0
 42
0.00000001
 43
0.00000001
 40
0.0
 40
0.0
 40
0.0
 40
0.0
 40
0.5
 40
0.5
 40
1.0
 40
1.0
 40
1.0
 40
1.0
 10
623.9768892765874
 20
76.94494749242537
 30
0.0
 10
623.9763476793852
 20
76.94528896313818
 30
0.0
 10
623.9768892765874
 20
76.72234631166172
 30
0.0
 10
623.9768892765874
 20
75.9993499365044
 30
0.0
 10
623.9774310678407
 20
75.50015522508546
 30
0.0
 10
623.9768892765874
 20
74.95056961269886
 30
0.0
  0
SPLINE
  5
1D3
330
1F
100
AcDbEntity
  8
0
  6
Continuous
 62
     7
370
    15
100
AcDbSpline
210
0.0
220
0.0
230
1.0
 70
     8
 71
     3
 72
    19
 73
    15
 74
     0
 42
0.00000001
 43
0.00000001
 40
0.0
 40
0.0
 40
0.0
 40
0.0
 40
0.0571143122037922
 40
0.1156859695386074
 40
0.1757206699038294
 40
0.2372237019665125
 40
0.300199981864315
 40
0.3646540860234619
 40
0.4305902805559926
 40
0.4980125476392017
 40
0.6162771910106096
 40
0.7486631870564231
 40
0.8538896613728933
 40
1.0
 40
1.0
 40
1.0
 40
1.0
 10
623.9768892765874
 20
16.94494749242537
 30
0.0
 10
624.0255167911495
 20
16.9767619996519
 30
0.0
 10
624.1240126138482
 20
17.04120280217358
 30
0.0
 10
624.265798425895
 20
17.14982597480596
 30
0.0
 10
624.4044462760851
 20
17.26892846511671
 30
0.0
 10
624.5384035000757
 20
17.39946365398345
 30
0.0
 10
624.666748386588
 20
17.54126577296289
 30
0.0
 10
624.7883168240869
 20
17.69436187792012
 30
0.0
 10
624.9019696999522
 20
17.85860528620448
 30
0.0
 10
625.0319586259747
 20
18.07645679715286
 30
0.0
 10
625.1700434728007
 20
18.36596391834946
 30
0.0
 10
625.2815020990032
 20
18.70632772365527
 30
0.0
 10
625.3603599145223
 20
19.0840433774006
 30
0.0
 10
625.3708127185365
 20
19.3361216354897
 30
0.0
 10
625.3768892765873
 20
19.48266300051527
 30
0.0
  0
SPLINE
  5
1D4
330
1F
100
AcDbEntity
  8
0
  6
Continuous
 62
     7
370
    15
100
AcDbSpline
210
0.0
220
0.0
230
1.0
 70
     8
 71
     3
 72
    10
 73
     6
 74
     0
 42
0.00000001
 43
0.00000001
 40
0.0
 40
0.0
 40
0.0
 40
0.0
 40
0.5
 40
0.5
 40
1.0
 40
1.0
 40
1.0
 40
1.0
 10
623.9768892765874
 20
18.93893082233231
 30
0.0
 10
623.9774311748102
 20
18.38934521046387
 30
0.0
 10
623.9768892765874
 20
17.89024901798997
 30
0.0
 10
623.9768892765874
 20
17.16744979897356
 30
0.0
 10
623.9763475724538
 20
16.94460595429365
 30
0.0
 10
623.9768892765874
 20
16.94494749242537
 30
0.0
  0
SPLINE
  5
1D5
330
1F
100
AcDbEntity
  8
0
  6
Continuous
 62
     7
370
    15
100
AcDbSpline
210
0.0
220
0.0
230
1.0
 70
     8
 71
     3
 72
    24
 73
    20
 74
     0
 42
0.00000001
 43
0.00000001
 40
0.0
 40
0.0
 40
0.0
 40
0.0
 40
0.0482709739203969
 40
0.0951899915963412
 40
0.1407877818171395
 40
0.1850978369947547
 40
0.2281566691902896
 40
0.270004080183619
 40
0.3106834421101977
 40
0.3502419834076522
 40
0.3887310726201451
 40
0.4262064900238104
 40
0.4627286741411198
 40
0.4983629271939933
 40
0.5714748250345932
 40
0.6580627100687813
 40
0.7582848643929955
 40
0.8722416604954298
 40
1.0
 40
1.0
 40
1.0
 40
1.0
 10
563.5768892765873
 20
108.8878764246114
 30
0.0
 10
563.5778488268479
 20
108.8794063390525
 30
0.0
 10
563.5797410526271
 20
108.8627033950741
 30
0.0
 10
563.5945182678896
 20
108.834637432493
 30
0.0
 10
563.6167728935528
 20
108.8047874649267
 30
0.0
 10
563.6462886647903
 20
108.7729304229151
 30
0.0
 10
563.681787812859
 20
108.7391229267196
 30
0.0
 10
563.7223034502547
 20
108.7033496099647
 30
0.0
 10
563.7668439993035
 20
108.665613729157
 30
0.0
 10
563.8144912844963
 20
108.6259126377993
 30
0.0
 10
563.8643868997731
 20
108.5842486141617
 30
0.0
 10
563.9157330843365
 20
108.5406098622368
 30
0.0
 10
563.967826799747
 20
108.4950336525369
 30
0.0
 10
564.038596721127
 20
108.4303217062964
 30
0.0
 10
564.1363278079967
 20
108.3356019975054
 30
0.0
 10
564.2716226727316
 20
108.2022157156495
 30
0.0
 10
564.4336106443108
 20
108.0413817146626
 30
0.0
 10
564.6224500968001
 20
107.8534202920125
 30
0.0
 10
564.7561973003056
 20
107.717034233425
 30
0.0
 10
564.8268892765873
 20
107.6449474924233
 30
0.0
  0
LWPOLYLINE
  5
1D6
330
1F
100
AcDbEntity
  8
0
  6
Continuous
 62
     7
370
    15
100
AcDbPolyline
 90
        2
 70
   128
 43
0.0
 10
564.8268897559
 20
107.644943635
 10
564.8268897559
 20
107.644943635
  0
SPLINE
  5
1D7
330
1F
100
AcDbEntity
  8
0
  6
Continuous
 62
     7
370
    15
100
AcDbSpline
210
0.0
220
0.0
230
1.0
 70
     8
 71
     3
 72
    26
 73
    22
 74
     0
 42
0.00000001
 43
0.00000001
 40
0.0
 40
0.0
 40
0.0
 40
0.0
 40
0.25
 40
0.25
 40
0.375
 40
0.375
 40
0.4375
 40
0.4375
 40
0.46875
 40
0.46875
 40
0.484375
 40
0.484375
 40
0.4921875
 40
0.4921875
 40
0.49609375
 40
0.49609375
 40
0.5
 40
0.5
 40
0.75
 40
0.75
 40
1.0
 40
1.0
 40
1.0
 40
1.0
 10
562.7768892765872
 20
108.8878764246115
 30
0.0
 10
562.7768892765872
 20
108.8376249454445
 30
0.0
 10
562.8778004628625
 20
108.776055862292
 30
0.0
 10
563.0872833449307
 20
108.6657257749957
 30
0.0
 10
563.1668704986986
 20
108.626008560835
 30
0.0
 10
563.2913977835967
 20
108.5620219620013
 30
0.0
 10
563.333787031596
 20
108.5399579661246
 30
0.0
 10
563.397715657442
 20
108.5057592779113
 30
0.0
 10
563.4190841690345
 20
108.4941759327739
 30
0.0
 10
563.4511169592605
 20
108.4765252414682
 30
0.0
 10
563.4617913196676
 20
108.4705957320997
 30
0.0
 10
563.4777852829568
 20
108.461632549647
 30
0.0
 10
563.4831136802294
 20
108.4586333357628
 30
0.0
 10
563.4911003513192
 20
108.4541172853366
 30
0.0
 10
563.4937615879003
 20
108.4526090635946
 30
0.0
 10
563.4990818345569
 20
108.4495868769104
 30
0.0
 10
563.5023081713404
 20
108.447749128795
 30
0.0
 10
563.6381871213048
 20
108.3702006598265
 30
0.0
 10
563.8119416649917
 20
108.2652222367764
 30
0.0
 10
564.2536728410488
 20
107.9980193757754
 30
0.0
 10
564.5221761127729
 20
107.8362169549067
 30
0.0
 10
564.8268892765873
 20
107.6449474924233
 30
0.0
  0
LINE
  5
1D8
330
1F
100
AcDbEntity
  8
0
  6
Continuous
 62
     7
370
    15
100
AcDbLine
 10
562.7768774058
 20
108.8878792925
 30
0.0
 11
563.576890948
 21
108.8878792925
 31
0.0
  0
SPLINE
  5
1D9
330
1F
100
AcDbEntity
  8
0
  6
Continuous
 62
     7
370
    15
100
AcDbSpline
210
0.0
220
0.0
230
1.0
 70
     8
 71
     3
 72
    22
 73
    18
 74
     0
 42
0.00000001
 43
0.00000001
 40
0.0
 40
0.0
 40
0.0
 40
0.0
 40
0.066593431730523
 40
0.1284381314630623
 40
0.185535863555428
 40
0.2378889626424817
 40
0.285500553344652
 40
0.328374891018714
 40
0.3665179131523793
 40
0.3999381788483694
 40
0.4925488738128391
 40
0.5819204715307937
 40
0.6685730251352282
 40
0.7530767954276486
 40
0.8360463534981779
 40
0.9181307295144174
 40
0.9999999999999999
 40
0.9999999999999999
 40
0.9999999999999999
 40
0.9999999999999999
 10
564.8268892765873
 20
-13.55505250757644
 30
0.0
 10
564.7895707744827
 20
-13.5922526034758
 30
0.0
 10
564.7175949270944
 20
-13.66400008191926
 30
0.0
 10
564.6137684676066
 20
-13.76696931737942
 30
0.0
 10
564.5187170448702
 20
-13.86146969539975
 30
0.0
 10
564.4326132144569
 20
-13.94746384213119
 30
0.0
 10
564.3554575904773
 20
-14.02496288288374
 30
0.0
 10
564.2870743628006
 20
-14.0939674510977
 30
0.0
 10
564.2271624869559
 20
-14.15448276341963
 30
0.0
 10
564.142356856026
 20
-14.23967307612595
 30
0.0
 10
564.0328711161267
 20
-14.34566415975497
 30
0.0
 10
563.9043033970299
 20
-14.46516223855976
 30
0.0
 10
563.7921358160967
 20
-14.56724340442161
 30
0.0
 10
563.6996029657984
 20
-14.65197577443977
 30
0.0
 10
563.6306930823928
 20
-14.71889171059149
 30
0.0
 10
563.5855561755683
 20
-14.76957464194867
 30
0.0
 10
563.5797757149455
 20
-14.78852079287885
 30
0.0
 10
563.5768892765873
 20
-14.79798143976452
 30
0.0
  0
LINE
  5
1DA
330
1F
100
AcDbEntity
  8
0
  6
Continuous
 62
     7
370
    15
100
AcDbLine
 10
562.7768774058
 20
-14.7979873018
 30
0.0
 11
563.576890948
 21
-14.7979873018
 31
0.0
  0
SPLINE
  5
1DB
330
1F
100
AcDbEntity
  8
0
  6
Continuous
 62
     7
370
    15
100
AcDbSpline
210
0.0
220
0.0
230
1.0
 70
     8
 71
     3
 72
    26
 73
    22
 74
     0
 42
0.00000001
 43
0.00000001
 40
0.0
 40
0.0
 40
0.0
 40
0.0
 40
0.125
 40
0.125
 40
0.25
 40
0.25
 40
0.375
 40
0.375
 40
0.390625
 40
0.390625
 40
0.3984375
 40
0.3984375
 40
0.40625
 40
0.40625
 40
0.4375
 40
0.4375
 40
0.5
 40
0.5
 40
0.75
 40
0.75
 40
1.0
 40
1.0
 40
1.0
 40
1.0
 10
564.8268892765873
 20
-13.55505250757644
 30
0.0
 10
564.6685497930632
 20
-13.65153881484787
 30
0.0
 10
564.5233785754853
 20
-13.7390721655079
 30
0.0
 10
564.2637427961208
 20
-13.89651477012688
 30
0.0
 10
564.1492592741823
 20
-13.96637705466547
 30
0.0
 10
563.9505308758303
 20
-14.08838358820091
 30
0.0
 10
563.866206920545
 20
-14.14052783719782
 30
0.0
 10
563.7865510634106
 20
-14.18922372232706
 30
0.0
 10
563.7779108146658
 20
-14.19449595407768
 30
0.0
 10
563.7652607465917
 20
-14.20219666847455
 30
0.0
 10
563.761095773875
 20
-14.20472896773534
 30
0.0
 10
563.7528683703963
 20
-14.20972435518059
 30
0.0
 10
563.7443631722242
 20
-14.21488094557288
 30
0.0
 10
563.7082391963185
 20
-14.23671532093107
 30
0.0
 10
563.6796939600399
 20
-14.25379785917025
 30
0.0
 10
563.5952565841491
 20
-14.30389058774612
 30
0.0
 10
563.5405626949638
 20
-14.33574589194081
 30
0.0
 10
563.2769149324462
 20
-14.48732317196871
 30
0.0
 10
563.0976429192666
 20
-14.58394742496477
 30
0.0
 10
562.8473984380033
 20
-14.72792078890411
 30
0.0
 10
562.7768892765872
 20
-14.77524445777217
 30
0.0
 10
562.7768892765872
 20
-14.79798143976452
 30
0.0
  0
SPLINE
  5
1DC
330
1F
100
AcDbEntity
  8
0
  6
Continuous
 62
     7
370
    15
100
AcDbSpline
210
0.0
220
0.0
230
1.0
 70
     8
 71
     3
 72
    11
 73
     7
 74
     0
 42
0.00000001
 43
0.00000001
 40
0.0
 40
0.0
 40
0.0
 40
0.0
 40
0.2542995956623119
 40
0.5087776708851077
 40
0.763248337670488
 40
1.0
 40
1.0
 40
1.0
 40
1.0
 10
563.5839540984065
 20
-14.80505045219116
 30
0.0
 10
563.6893412420445
 20
-14.78559113549893
 30
0.0
 10
563.9001894950342
 20
-14.7466588446396
 30
0.0
 10
564.2163853276896
 20
-14.44770490952946
 30
0.0
 10
564.5254907223784
 20
-14.03172627810512
 30
0.0
 10
564.7288687784397
 20
-13.71007574304828
 30
0.0
 10
564.8268897559077
 20
-13.55505164428406
 30
0.0
  0
SPLINE
  5
1DD
330
1F
100
AcDbEntity
  8
0
  6
Continuous
 62
     7
370
    15
100
AcDbSpline
210
0.0
220
0.0
230
1.0
 70
     8
 71
     3
 72
    12
 73
     8
 74
     0
 42
0.00000001
 43
0.00000001
 40
0.0
 40
0.0
 40
0.0
 40
0.0
 40
0.2301626190912585
 40
0.460423327610734
 40
0.6906746178880678
 40
0.9209285840122929
 40
0.9999999999999999
 40
0.9999999999999999
 40
0.9999999999999999
 40
0.9999999999999999
 10
563.5839540984065
 20
-15.60506399436645
 30
0.0
 10
563.6793515982254
 20
-15.57898212936187
 30
0.0
 10
563.8701872538405
 20
-15.52680728392819
 30
0.0
 10
564.1564523738703
 20
-15.1221343070102
 30
0.0
 10
564.4425791525073
 20
-14.53406299330567
 30
0.0
 10
564.666689977327
 20
-13.9700494097571
 30
0.0
 10
564.7942756267612
 20
-13.63953859450673
 30
0.0
 10
564.8268897559077
 20
-13.55505164428411
 30
0.0
  0
LINE
  5
1DE
330
1F
100
AcDbEntity
  8
0
  6
Continuous
 62
     7
370
    15
100
AcDbLine
 10
563.5839540984
 20
-14.8050504522
 30
0.0
 11
563.5839540984
 21
-15.6050639944
 31
0.0
  0
SPLINE
  5
1DF
330
1F
100
AcDbEntity
  8
0
  6
Continuous
 62
     7
370
    15
100
AcDbSpline
210
0.0
220
0.0
230
1.0
 70
     8
 71
     3
 72
    11
 73
     7
 74
     0
 42
0.00000001
 43
0.00000001
 40
0.0
 40
0.0
 40
0.0
 40
0.0
 40
0.2543005569998168
 40
0.5087821059058731
 40
0.7632489038779702
 40
1.0
 40
1.0
 40
1.0
 40
1.0
 10
564.8268897559077
 20
107.6449436350281
 30
0.0
 10
564.7215180549603
 20
107.8115832668975
 30
0.0
 10
564.5106996574574
 20
108.1449811321248
 30
0.0
 10
564.1944519003296
 20
108.5628968803642
 30
0.0
 10
563.8853530723611
 20
108.8430659477675
 30
0.0
 10
563.6819754954892
 20
108.8780710964094
 30
0.0
 10
563.5839540984065
 20
108.8949424429352
 30
0.0
  0
LINE
  5
1E0
330
1F
100
AcDbEntity
  8
0
  6
Continuous
 62
     7
370
    15
100
AcDbLine
 10
563.5839540984
 20
108.8949424429
 30
0.0
 11
563.5839540984
 21
109.6949410839
 31
0.0
  0
SPLINE
  5
1E1
330
1F
100
AcDbEntity
  8
0
  6
Continuous
 62
     7
370
    15
100
AcDbSpline
210
0.0
220
0.0
230
1.0
 70
     8
 71
     3
 72
    12
 73
     8
 74
     0
 42
0.00000001
 43
0.00000001
 40
0.0
 40
0.0
 40
0.0
 40
0.0
 40
0.2301711008687034
 40
0.4604254145783157
 40
0.6906822316476949
 40
0.9209367268060757
 40
1.0
 40
1.0
 40
1.0
 40
1.0
 10
564.8268897559077
 20
107.6449436350281
 30
0.0
 10
564.73149423049
 20
107.8920203892939
 30
0.0
 10
564.5406686916907
 20
108.3862632225
 30
0.0
 10
564.2543813350784
 20
109.0324050773837
 30
0.0
 10
563.9682668481762
 20
109.4963399601607
 30
0.0
 10
563.7441660457209
 20
109.6791652243435
 30
0.0
 10
563.6165686691614
 20
109.6917295700893
 30
0.0
 10
563.5839540984065
 20
109.6949410839493
 30
0.0
  0
LINE
  5
1E2
330
1F
100
AcDbEntity
  8
0
  6
Continuous
 62
     7
370
    15
100
AcDbLine
 10
562.7768774058
 20
108.8878792925
 30
0.0
 11
562.7768774058
 21
-14.7979873018
 31
0.0
  0
LINE
  5
1E3
330
1F
100
AcDbEntity
  8
0
  6
Continuous
 62
     7
370
    15
100
AcDbLine
 10
563.5839540984
 20
-15.6050639944
 30
0.0
 11
619.8768754031
 21
-15.6050639944
 31
0.0
  0
SPLINE
  5
1E4
330
1F
100
AcDbEntity
  8
0
  6
Continuous
 62
     7
370
    15
100
AcDbSpline
210
0.0
220
0.0
230
1.0
 70
     8
 71
     3
 72
    14
 73
    10
 74
     0
 42
0.00000001
 43
0.00000001
 40
0.0
 40
0.0
 40
0.0
 40
0.0
 40
0.25
 40
0.25
 40
0.5
 40
0.5
 40
0.75
 40
0.75
 40
1.0
 40
1.0
 40
1.0
 40
1.0
 10
620.3268892765872
 20
-13.55505250757644
 30
0.0
 10
620.289382644948
 20
-13.82344433508648
 30
0.0
 10
620.2518892765872
 20
-14.09163567051297
 30
0.0
 10
620.1768892765873
 20
-14.5874714173368
 30
0.0
 10
620.1393892765873
 20
-14.81487328352499
 30
0.0
 10
620.0643892765873
 20
-15.19436953449271
 30
0.0
 10
620.0268892765872
 20
-15.34631460370267
 30
0.0
 10
619.9518892765873
 20
-15.55169649474647
 30
0.0
 10
619.9143959082267
 20
-15.60505250757643
 30
0.0
 10
619.8768892765873
 20
-15.60505250757643
 30
0.0
  0
SPLINE
  5
1E5
330
1F
100
AcDbEntity
  8
0
  6
Continuous
 62
     7
370
    15
100
AcDbSpline
210
0.0
220
0.0
230
1.0
 70
     8
 71
     3
 72
    14
 73
    10
 74
     0
 42
0.00000001
 43
0.00000001
 40
0.0
 40
0.0
 40
0.0
 40
0.0
 40
0.25
 40
0.25
 40
0.5
 40
0.5
 40
0.75
 40
0.75
 40
1.0
 40
1.0
 40
1.0
 40
1.0
 10
620.0346558596484
 20
109.6949474924233
 30
0.0
 10
620.0590129992677
 20
109.6949474924233
 30
0.0
 10
620.0833614291382
 20
109.6415914795933
 30
0.0
 10
620.1320669986281
 20
109.4362095885495
 30
0.0
 10
620.1564197833728
 20
109.2842645193396
 30
0.0
 10
620.2051253528628
 20
108.9047682683719
 30
0.0
 10
620.2294781376077
 20
108.6773664021837
 30
0.0
 10
620.2781837070975
 20
108.1815306553599
 30
0.0
 10
620.302532136968
 20
107.9133398514636
 30
0.0
 10
620.3268892765873
 20
107.6449474924233
 30
0.0
  0
LINE
  5
1E6
330
1F
100
AcDbEntity
  8
0
  6
Continuous
 62
     7
370
    15
100
AcDbLine
 10
563.5839540984
 20
109.6949410839
 30
0.0
 11
620.0346488978
 21
109.6949410839
 31
0.0
  0
LINE
  5
1E7
330
1F
100
AcDbEntity
  8
0
  6
Continuous
 62
     7
370
    15
100
AcDbLine
 10
622.3769028212
 20
107.644943635
 30
0.0
 11
622.3769028212
 21
-13.5550516443
 31
0.0
  0
LINE
  5
1E8
330
1F
100
AcDbEntity
  8
0
  6
Continuous
 62
     7
370
    15
100
AcDbLine
 10
622.3769028212
 20
-13.5550516443
 30
0.0
 11
620.3268904712
 21
-13.5550516443
 31
0.0
  0
LINE
  5
1E9
330
1F
100
AcDbEntity
  8
0
  6
Continuous
 62
     7
370
    15
100
AcDbLine
 10
620.3268904712
 20
107.644943635
 30
0.0
 11
622.3769028212
 21
107.644943635
 31
0.0
  0
SPLINE
  5
1EA
330
1F
100
AcDbEntity
  8
0
  6
Continuous
 62
     7
370
    15
100
AcDbSpline
210
0.0
220
0.0
230
1.0
 70
     8
 71
     3
 72
    12
 73
     8
 74
     0
 42
0.00000001
 43
0.00000001
 40
0.0
 40
0.0
 40
0.0
 40
0.0
 40
0.2196148124971976
 40
0.4392543267900204
 40
0.6588875662471035
 40
0.8785212153375505
 40
0.9999999999999999
 40
0.9999999999999999
 40
0.9999999999999999
 40
0.9999999999999999
 10
622.3769028212458
 20
107.6449436350281
 30
0.0
 10
622.3531778911922
 20
107.8807049382879
 30
0.0
 10
622.3057253625568
 20
108.3522540627253
 30
0.0
 10
621.9362890419658
 20
108.9769604178134
 30
0.0
 10
621.3947685497121
 20
109.4413355872077
 30
0.0
 10
620.821606568571
 20
109.6667160073801
 30
0.0
 10
620.4568054109063
 20
109.6875290366338
 30
0.0
 10
620.3268904711634
 20
109.6949410839493
 30
0.0
  0
SPLINE
  5
1EB
330
1F
100
AcDbEntity
  8
0
  6
Continuous
 62
     7
370
    15
100
AcDbSpline
210
0.0
220
0.0
230
1.0
 70
     8
 71
     3
 72
    12
 73
     8
 74
     0
 42
0.00000001
 43
0.00000001
 40
0.0
 40
0.0
 40
0.0
 40
0.0
 40
0.1986297964755202
 40
0.4263168852582358
 40
0.6540236871484658
 40
0.881726411484493
 40
1.0
 40
1.0
 40
1.0
 40
1.0
 10
621.5768892790705
 20
107.6449436350281
 30
0.0
 10
621.5650102763927
 20
107.774821883058
 30
0.0
 10
621.5395145073217
 20
108.0535780976109
 30
0.0
 10
621.326176552147
 20
108.4380550762292
 30
0.0
 10
620.9875277385136
 20
108.7367925026769
 30
0.0
 10
620.6296538630387
 20
108.8780697185962
 30
0.0
 10
620.4040233100133
 20
108.8906439010298
 30
0.0
 10
620.3268904711634
 20
108.8949424429352
 30
0.0
  0
LINE
  5
1EC
330
1F
100
AcDbEntity
  8
0
  6
Continuous
 62
     7
370
    15
100
AcDbLine
 10
620.3268904712
 20
108.8949424429
 30
0.0
 11
620.3268904712
 21
109.6949410839
 31
0.0
  0
LINE
  5
1ED
330
1F
100
AcDbEntity
  8
0
  6
Continuous
 62
     7
370
    15
100
AcDbLine
 10
620.3268904712
 20
-14.8050504522
 30
0.0
 11
620.3268904712
 21
-15.6050639944
 31
0.0
  0
SPLINE
  5
1EE
330
1F
100
AcDbEntity
  8
0
  6
Continuous
 62
     7
370
    15
100
AcDbSpline
210
0.0
220
0.0
230
1.0
 70
     8
 71
     3
 72
    14
 73
    10
 74
     0
 42
0.00000001
 43
0.00000001
 40
0.0
 40
0.0
 40
0.0
 40
0.0
 40
0.25
 40
0.25
 40
0.5
 40
0.5
 40
0.75
 40
0.75
 40
1.0
 40
1.0
 40
1.0
 40
1.0
 10
620.3268892765873
 20
-14.80505250757641
 30
0.0
 10
620.4905138939617
 20
-14.80505250757641
 30
0.0
 10
620.6540741320363
 20
-14.77251835341181
 30
0.0
 10
620.9564130020509
 20
-14.6472854930193
 30
0.0
 10
621.0950726765559
 20
-14.55463606057422
 30
0.0
 10
621.3264728295851
 20
-14.32323590754514
 30
0.0
 10
621.4191222620302
 20
-14.18457623304004
 30
0.0
 10
621.5443551224228
 20
-13.88223736302552
 30
0.0
 10
621.5768892765874
 20
-13.7186771249509
 30
0.0
 10
621.5768892765873
 20
-13.55505250757644
 30
0.0
  0
SPLINE
  5
1EF
330
1F
100
AcDbEntity
  8
0
  6
Continuous
 62
     7
370
    15
100
AcDbSpline
210
0.0
220
0.0
230
1.0
 70
     8
 71
     3
 72
    11
 73
     7
 74
     0
 42
0.00000001
 43
0.00000001
 40
0.0
 40
0.0
 40
0.0
 40
0.0
 40
0.249997038553554
 40
0.5000009644241017
 40
0.7499922208881149
 40
1.0
 40
1.0
 40
1.0
 40
1.0
 10
620.3268904711634
 20
-15.60506399436645
 30
0.0
 10
620.5955121838242
 20
-15.57425184436689
 30
0.0
 10
621.1327630095651
 20
-15.51262669550546
 30
0.0
 10
621.8103557445407
 20
-15.03853322955284
 30
0.0
 10
622.2844363658595
 20
-14.36093001537625
 30
0.0
 10
622.3460799904383
 20
-13.8236836858141
 30
0.0
 10
622.3769028212458
 20
-13.55505164428406
 30
0.0
  0
LINE
  5
1F0
330
1F
100
AcDbEntity
  8
0
  6
Continuous
 62
     7
370
    15
100
AcDbLine
 10
620.3268904712
 20
-15.6050639944
 30
0.0
 11
619.8768754031
 21
-15.6050639944
 31
0.0
  0
LINE
  5
1F1
330
1F
100
AcDbEntity
  8
0
  6
Continuous
 62
     7
370
    15
100
AcDbLine
 10
620.0346488978
 20
109.6949410839
 30
0.0
 11
620.3268904712
 21
109.6949410839
 31
0.0
  0
LINE
  5
1F2
330
1F
100
AcDbEntity
  8
0
  6
Continuous
 62
     7
370
    15
100
AcDbLine
 10
622.3769028212
 20
76.9449454947
 30
0.0
 11
623.9769001033
 21
76.9449454947
 31
0.0
  0
SPLINE
  5
1F3
330
1F
100
AcDbEntity
  8
0
  6
Continuous
 62
     7
370
    15
100
AcDbSpline
210
0.0
220
0.0
230
1.0
 70
    24
 71
     3
 72
    11
 73
     7
 74
     0
 42
0.00000001
 43
0.00000001
 40
0.0
 40
0.0
 40
0.0
 40
0.0
 40
0.2833487983027844
 40
0.5581092349099002
 40
0.7754861631237182
 40
1.0
 40
1.0
 40
1.0
 40
1.0
 10
623.976900103274
 20
74.95057408050843
 30
0.0
 10
623.976900103274
 20
75.24762122977879
 30
0.0
 10
623.976900103274
 20
75.83271196672366
 30
0.0
 10
623.976900103274
 20
76.48081477868202
 30
0.0
 10
623.9769001032738
 20
76.87472303346998
 30
0.0
 10
623.976900103274
 20
76.92128732342957
 30
0.0
 10
623.976900103274
 20
76.944945494693
 30
0.0
  0
LINE
  5
1F4
330
1F
100
AcDbEntity
  8
0
  6
Continuous
 62
     7
370
    15
100
AcDbLine
 10
622.3769028212
 20
16.9449431105
 30
0.0
 11
623.9769001033
 21
16.9449431105
 31
0.0
  0
SPLINE
  5
1F5
330
1F
100
AcDbEntity
  8
0
  6
Continuous
 62
     7
370
    15
100
AcDbSpline
210
0.0
220
0.0
230
1.0
 70
    24
 71
     3
 72
    11
 73
     7
 74
     0
 42
0.00000001
 43
0.00000001
 40
0.0
 40
0.0
 40
0.0
 40
0.0
 40
0.2832791566451803
 40
0.5580027597310446
 40
0.7754020243336024
 40
1.0
 40
1.0
 40
1.0
 40
1.0
 10
623.976900103274
 20
16.9449431105072
 30
0.0
 10
623.976900103274
 20
16.98323167423185
 30
0.0
 10
623.976900103274
 20
17.05865241636312
 30
0.0
 10
623.976900103274
 20
17.59157047438176
 30
0.0
 10
623.976900103274
 20
18.24200350334498
 30
0.0
 10
623.976900103274
 20
18.70411048612153
 30
0.0
 10
623.976900103274
 20
18.93892709450073
 30
0.0
  0
LINE
  5
1F6
330
1F
100
AcDbEntity
  8
0
  6
Continuous
 62
     7
370
    15
100
AcDbLine
 10
561.7768902804
 20
251.3261322147
 30
0.0
 11
561.7768902804
 21
250.2660631417
 31
0.0
  0
LINE
  5
1F7
330
1F
100
AcDbEntity
  8
0
  6
Continuous
 62
     7
370
    15
100
AcDbLine
 10
561.7768902804
 20
249.1674810863
 30
0.0
 11
561.7768902804
 21
248.8761321856
 31
0.0
  0
LINE
  5
1F8
330
1F
100
AcDbEntity
  8
0
  6
Continuous
 62
     7
370
    15
100
AcDbLine
 10
561.7768902804
 20
251.3261322147
 30
0.0
 11
561.6769034888
 21
251.3261322147
 31
0.0
  0
LINE
  5
1F9
330
1F
100
AcDbEntity
  8
0
  6
Continuous
 62
     7
370
    15
100
AcDbLine
 10
561.7768902804
 20
251.3261322147
 30
0.0
 11
561.7768902804
 21
252.5761324196
 31
0.0
  0
LINE
  5
1FA
330
1F
100
AcDbEntity
  8
0
  6
Continuous
 62
     7
370
    15
100
AcDbLine
 10
561.7768902804
 20
253.0761322687
 30
0.0
 11
561.7768902804
 21
252.5761324196
 31
0.0
  0
LINE
  5
1FB
330
1F
100
AcDbEntity
  8
0
  6
Continuous
 62
     7
370
    15
100
AcDbLine
 10
500.2768774058
 20
290.7966842158
 30
0.0
 11
523.8623161342
 21
290.7966842158
 31
0.0
  0
LINE
  5
1FC
330
1F
100
AcDbEntity
  8
0
  6
Continuous
 62
     7
370
    15
100
AcDbLine
 10
500.2768774058
 20
289.5966862543
 30
0.0
 11
523.8623161342
 21
289.5966862543
 31
0.0
  0
LWPOLYLINE
  5
1FD
330
1F
100
AcDbEntity
  8
0
  6
Continuous
 62
     7
370
    15
100
AcDbPolyline
 90
        3
 70
   128
 43
0.0
 10
500.2768774058
 20
290.7966842158
 10
499.7989077594
 20
290.7496077223
 10
499.5892782237
 20
290.6982173427
  0
LINE
  5
1FE
330
1F
100
AcDbEntity
  8
0
  6
Continuous
 62
     7
370
    15
100
AcDbLine
 10
500.2768774058
 20
289.5966862543
 30
0.0
 11
500.1307864215
 21
289.5881180866
 31
0.0
  0
LWPOLYLINE
  5
1FF
330
1F
100
AcDbEntity
  8
0
  6
Continuous
 62
     7
370
    15
100
AcDbPolyline
 90
        9
 70
   128
 43
0.0
 10
532.0648689296
 20
288.6852418287
 10
531.9720644977
 20
288.7101081415
 10
531.6972572829
 20
288.7837496801
 10
531.2509377028
 20
288.9033389492
 10
530.6503016974
 20
289.0642752154
 10
529.9184460666
 20
289.260378222
 10
529.0834744002
 20
289.4841079815
 10
528.1774539973
 20
289.7268739744
 10
527.235253575
 20
289.9793368979
  0
LINE
  5
200
330
1F
100
AcDbEntity
  8
0
  6
Continuous
 62
     7
370
    15
100
AcDbLine
 10
532.0648689296
 20
288.6852418287
 30
0.0
 11
531.754298928
 21
287.5261326535
 31
0.0
  0
LWPOLYLINE
  5
201
330
1F
100
AcDbEntity
  8
0
  6
Continuous
 62
     7
370
    15
100
AcDbPolyline
 90
        9
 70
   128
 43
0.0
 10
531.754298928
 20
287.5261326535
 10
531.6614944961
 20
287.5509971036
 10
531.386657479
 20
287.6246386422
 10
530.9403677012
 20
287.7442260487
 10
530.3397316958
 20
287.9051641776
 10
529.607876065
 20
288.1012671842
 10
528.7728745963
 20
288.3249988063
 10
527.8668839957
 20
288.5677610739
 10
526.9246537711
 20
288.8202277227
  0
ARC
  5
202
330
1F
100
AcDbEntity
  8
0
  6
Continuous
 62
     7
370
    15
100
AcDbCircle
 10
523.8623236546
 20
288.3466845883
 30
0.0
 40
2.449999999999989
100
AcDbArc
 50
75.0
 51
90.0
  0
ARC
  5
203
330
1F
100
AcDbEntity
  8
0
  6
Continuous
 62
     7
370
    15
100
AcDbCircle
 10
523.8623236546
 20
288.3466845883
 30
0.0
 40
1.249999999999946
100
AcDbArc
 50
75.0
 51
90.0
  0
LINE
  5
204
330
1F
100
AcDbEntity
  8
0
  6
Continuous
 62
     7
370
    15
100
AcDbLine
 10
527.235253575
 20
289.9793368979
 30
0.0
 11
524.4964201476
 21
290.7132041855
 31
0.0
  0
LINE
  5
205
330
1F
100
AcDbEntity
  8
0
  6
Continuous
 62
     7
370
    15
100
AcDbLine
 10
526.9246537711
 20
288.8202277227
 30
0.0
 11
524.185850146
 21
289.554091285
 31
0.0
  0
LINE
  5
206
330
1F
100
AcDbEntity
  8
0
  6
Continuous
 62
     8
370
    15
100
AcDbLine
 10
-144.0231065724
 20
475.0346225901
 30
0.0
 11
-144.0231065724
 21
266.1261326848
 31
0.0
  0
LINE
  5
207
330
1F
100
AcDbEntity
  8
0
  6
Continuous
 62
     8
370
    15
100
AcDbLine
 10
-93.1231241201
 20
453.1429541512
 30
0.0
 11
-93.1231241201
 21
266.1261326848
 31
0.0
  0
LINE
  5
208
330
1F
100
AcDbEntity
  8
0
  6
Continuous
 62
     8
370
    15
100
AcDbLine
 10
-143.492535827
 20
487.4857348605
 30
0.0
 11
-143.6995725606
 21
486.7129904433
 31
0.0
  0
LINE
  5
209
330
1F
100
AcDbEntity
  8
0
  6
Continuous
 62
     8
370
    15
100
AcDbLine
 10
-110.4026298497
 20
477.7910989924
 30
0.0
 11
-110.1955931161
 21
478.5638434096
 31
0.0
  0
LINE
  5
20A
330
1F
100
AcDbEntity
  8
0
  6
Continuous
 62
     8
370
    15
100
AcDbLine
 10
-145.2731053804
 20
485.5055940552
 30
0.0
 11
-146.0731189225
 21
485.5055940552
 31
0.0
  0
LINE
  5
20B
330
1F
100
AcDbEntity
  8
0
  6
Continuous
 62
     8
370
    15
100
AcDbLine
 10
-91.07311177
 20
453.6429626151
 30
0.0
 11
-91.8731253121
 21
453.6429626151
 31
0.0
  0
LINE
  5
20C
330
1F
100
AcDbEntity
  8
0
  6
Continuous
 62
     8
370
    15
100
AcDbLine
 10
586.2151522662
 20
225.860888253
 30
0.0
 11
584.8059196498
 21
225.4025397106
 31
0.0
  0
LINE
  5
20D
330
1F
100
AcDbEntity
  8
0
  6
Continuous
 62
     8
370
    15
100
AcDbLine
 10
604.5065958526
 20
164.7729632659
 30
0.0
 11
605.9330542113
 21
165.2369109197
 31
0.0
  0
LINE
  5
20E
330
1F
100
AcDbEntity
  8
0
  6
Continuous
 62
     8
370
    15
100
AcDbLine
 10
622.6855058696
 20
207.4903791054
 30
0.0
 11
624.111934426
 21
207.9543304844
 31
0.0
  0
LINE
  5
20F
330
1F
100
AcDbEntity
  8
0
  6
Continuous
 62
     8
370
    15
100
AcDbLine
 10
621.9468553092
 20
214.6110777958
 30
0.0
 11
620.5203969504
 21
214.147130142
 31
0.0
  0
LINE
  5
210
330
1F
100
AcDbEntity
  8
0
  6
Continuous
 62
     8
370
    15
100
AcDbLine
 10
591.5343005683
 20
228.9053966506
 30
0.0
 11
591.0703380134
 21
230.3318438335
 31
0.0
  0
LINE
  5
211
330
1F
100
AcDbEntity
  8
0
  6
Continuous
 62
     8
370
    15
100
AcDbLine
 10
586.5532596137
 20
228.8626675709
 30
0.0
 11
587.0172221686
 21
227.436220388
 31
0.0
  0
LINE
  5
212
330
1F
100
AcDbEntity
  8
0
  6
Continuous
 62
     8
370
    15
100
AcDbLine
 10
623.9954967524
 20
111.7628497286
 30
0.0
 11
636.414184096
 21
126.5628916426
 31
0.0
  0
ARC
  5
213
330
1F
100
AcDbEntity
  8
0
  6
Continuous
 62
     8
370
    15
100
AcDbCircle
 10
623.4209585774
 20
112.2449474924
 30
0.0
 40
0.75
100
AcDbArc
 50
270.0
 51
320.0
  0
LINE
  5
214
330
1F
100
AcDbEntity
  8
0
  6
Continuous
 62
     8
370
    15
100
AcDbLine
 10
563.7768943335
 20
111.4949417515
 30
0.0
 11
623.4209675815
 21
111.4949417515
 31
0.0
  0
ARC
  5
215
330
1F
100
AcDbEntity
  8
0
  6
Continuous
 62
     8
370
    15
100
AcDbCircle
 10
563.7768892766
 20
111.9949474924
 30
0.0
 40
0.5
100
AcDbArc
 50
180.0
 51
270.0
  0
LINE
  5
216
330
1F
100
AcDbEntity
  8
0
  6
Continuous
 62
     8
370
    15
100
AcDbLine
 10
563.2769007708
 20
230.6826227559
 30
0.0
 11
563.2769007708
 21
111.9949502154
 31
0.0
  0
ARC
  5
217
330
1F
100
AcDbEntity
  8
0
  6
Continuous
 62
     8
370
    15
100
AcDbCircle
 10
563.7768892766
 20
230.6826220196
 30
0.0
 40
0.5
100
AcDbArc
 50
90.0
 51
180.0
  0
LINE
  5
218
330
1F
100
AcDbEntity
  8
0
  6
Continuous
 62
     8
370
    15
100
AcDbLine
 10
581.1976928737
 20
231.1826219066
 30
0.0
 11
563.7768943335
 21
231.1826219066
 31
0.0
  0
ARC
  5
219
330
1F
100
AcDbEntity
  8
0
  6
Continuous
 62
     8
370
    15
100
AcDbCircle
 10
581.1976857244
 20
230.6826220196
 30
0.0
 40
0.5
100
AcDbArc
 50
18.0
 51
90.0
  0
LINE
  5
21A
330
1F
100
AcDbEntity
  8
0
  6
Continuous
 62
     8
370
    15
100
AcDbLine
 10
606.0534555938
 20
155.8024493261
 30
0.0
 11
581.6732187297
 21
230.8371310337
 31
0.0
  0
ARC
  5
21B
330
1F
100
AcDbEntity
  8
0
  6
Continuous
 62
     8
370
    15
100
AcDbCircle
 10
616.8003980674
 20
159.2943424975
 30
0.0
 40
11.30000000000009
100
AcDbArc
 50
198.0
 51
250.0
  0
LINE
  5
21C
330
1F
100
AcDbEntity
  8
0
  6
Continuous
 62
     8
370
    15
100
AcDbLine
 10
632.3859531905
 20
141.5964496537
 30
0.0
 11
612.9355568911
 21
148.6758125229
 31
0.0
  0
ARC
  5
21D
330
1F
100
AcDbEntity
  8
0
  6
Continuous
 62
     8
370
    15
100
AcDbCircle
 10
629.1367718466
 20
132.6693719756
 30
0.0
 40
9.50000000000009
100
AcDbArc
 50
320.0
 51
70.0
  0
LINE
  5
21E
330
1F
100
AcDbEntity
  8
0
  6
Continuous
 62
     8
370
    15
100
AcDbLine
 10
562.7768774058
 20
230.6826227559
 30
0.0
 11
563.2769007708
 21
230.6826227559
 31
0.0
  0
LINE
  5
21F
330
1F
100
AcDbEntity
  8
0
  6
Continuous
 62
     8
370
    15
100
AcDbLine
 10
563.2769007708
 20
111.9949502154
 30
0.0
 11
562.7768774058
 21
111.9949502154
 31
0.0
  0
LINE
  5
220
330
1F
100
AcDbEntity
  8
0
  6
Continuous
 62
     8
370
    15
100
AcDbLine
 10
581.1976928737
 20
231.6693552984
 30
0.0
 11
581.1976928737
 21
231.1826219066
 31
0.0
  0
LINE
  5
221
330
1F
100
AcDbEntity
  8
0
  6
Continuous
 62
     8
370
    15
100
AcDbLine
 10
563.7768943335
 20
231.6826229198
 30
0.0
 11
563.7768943335
 21
231.1826219066
 31
0.0
  0
LINE
  5
222
330
1F
100
AcDbEntity
  8
0
  6
Continuous
 62
     8
370
    15
100
AcDbLine
 10
623.4209675815
 20
111.4949417515
 30
0.0
 11
623.4209675815
 21
110.9949481888
 31
0.0
  0
LINE
  5
223
330
1F
100
AcDbEntity
  8
0
  6
Continuous
 62
     8
370
    15
100
AcDbLine
 10
563.7768943335
 20
111.4949417515
 30
0.0
 11
563.7768943335
 21
110.9949481888
 31
0.0
  0
LWPOLYLINE
  5
224
330
1F
100
AcDbEntity
  8
0
  6
Continuous
 62
     8
370
    15
100
AcDbPolyline
 90
        8
 70
   128
 43
0.0
 10
582.1361382033
 20
230.9875396295
 10
582.112534764
 20
230.97987857
 10
582.0686061408
 20
230.9655995323
 10
582.0094485309
 20
230.9463844849
 10
581.9374163176
 20
230.9229710354
 10
581.8551917102
 20
230.8962588413
 10
581.7659933593
 20
230.8672742202
 10
581.6732187297
 20
230.8371310337
  0
LWPOLYLINE
  5
225
330
1F
100
AcDbEntity
  8
0
  6
Continuous
 62
     8
370
    15
100
AcDbPolyline
 90
        9
 70
   128
 43
0.0
 10
606.5289814498
 20
155.9569594665
 10
606.5198619391
 20
155.9539866848
 10
606.4928014304
 20
155.9451949997
 10
606.4488430049
 20
155.9309196873
 10
606.3897151973
 20
155.91170464
 10
606.3176531817
 20
155.8882874651
 10
606.2354285743
 20
155.8615771337
 10
606.1462302234
 20
155.8325943752
 10
606.0534555938
 20
155.8024493261
  0
LWPOLYLINE
  5
226
330
1F
100
AcDbEntity
  8
0
  6
Continuous
 62
     8
370
    15
100
AcDbPolyline
 90
        9
 70
   128
 43
0.0
 10
632.3859531905
 20
141.5964496537
 10
632.4193317916
 20
141.6881141468
 10
632.4513990905
 20
141.7762545152
 10
632.4809629943
 20
141.8574881955
 10
632.5068910148
 20
141.9286859436
 10
632.5281400706
 20
141.9871133967
 10
632.5439651038
 20
142.0305353804
 10
632.5536806609
 20
142.0572680636
 10
632.5569589164
 20
142.0662981673
  0
LWPOLYLINE
  5
227
330
1F
100
AcDbEntity
  8
0
  6
Continuous
 62
     8
370
    15
100
AcDbPolyline
 90
        9
 70
   128
 43
0.0
 10
613.1065924193
 20
149.1456610365
 10
613.1032843615
 20
149.1366309328
 10
613.0935688044
 20
149.1098982497
 10
613.0777735736
 20
149.0664762659
 10
613.0564947154
 20
149.0080488129
 10
613.0305666949
 20
148.9368510647
 10
613.0010027911
 20
148.8556173845
 10
612.9689354922
 20
148.767477016
 10
612.9355568911
 20
148.6758125229
  0
LWPOLYLINE
  5
228
330
1F
100
AcDbEntity
  8
0
  6
Continuous
 62
     8
370
    15
100
AcDbPolyline
 90
        9
 70
   128
 43
0.0
 10
636.414184096
 20
126.5628916426
 10
636.4889283206
 20
126.5001875563
 10
636.5607817199
 20
126.4398974581
 10
636.6270024802
 20
126.384331028
 10
636.6850276019
 20
126.3356340332
 10
636.7326517131
 20
126.2956542178
 10
636.7680568721
 20
126.2659562035
 10
636.7898423697
 20
126.2476724787
 10
636.7972035434
 20
126.2414884968
  0
LWPOLYLINE
  5
229
330
1F
100
AcDbEntity
  8
0
  6
Continuous
 62
     8
370
    15
100
AcDbPolyline
 90
        9
 70
   128
 43
0.0
 10
623.9954967524
 20
111.7628497286
 10
624.0702111747
 20
111.7001605435
 10
624.1420645739
 20
111.6398704453
 10
624.2082853343
 20
111.5843040152
 10
624.2663402583
 20
111.5355921193
 10
624.3139643695
 20
111.4956272049
 10
624.3493695285
 20
111.4659291907
 10
624.3711550261
 20
111.4476454659
 10
624.3785161998
 20
111.441461484
  0
LINE
  5
22A
330
1F
100
AcDbEntity
  8
0
  6
Continuous
 62
     8
370
    15
100
AcDbLine
 10
504.2768855121
 20
252.5761324196
 30
0.0
 11
561.6769034888
 21
252.5761324196
 31
0.0
  0
LINE
  5
22B
330
1F
100
AcDbEntity
  8
0
  6
Continuous
 62
     8
370
    15
100
AcDbLine
 10
-144.8231201146
 20
251.3261322147
 30
0.0
 11
-144.6295242284
 21
251.3261322147
 31
0.0
  0
LINE
  5
22C
330
1F
100
AcDbEntity
  8
0
  6
Continuous
 62
     8
370
    15
100
AcDbLine
 10
-142.7731077645
 20
-13.4238618211
 30
0.0
 11
560.7268948581
 21
-13.4238618211
 31
0.0
  0
LINE
  5
22D
330
1F
100
AcDbEntity
  8
0
  6
Continuous
 62
     8
370
    15
100
AcDbLine
 10
-142.7731077645
 20
248.0761326133
 30
0.0
 11
-142.7731077645
 21
-13.4238618211
 31
0.0
  0
LINE
  5
22E
330
1F
100
AcDbEntity
  8
0
  6
Continuous
 62
     8
370
    15
100
AcDbLine
 10
560.7268948581
 20
248.0761326133
 30
0.0
 11
-142.7731077645
 21
248.0761326133
 31
0.0
  0
LINE
  5
22F
330
1F
100
AcDbEntity
  8
0
  6
Continuous
 62
     8
370
    15
100
AcDbLine
 10
560.7268948581
 20
-13.4238618211
 30
0.0
 11
560.7268948581
 21
248.0761326133
 31
0.0
  0
LINE
  5
230
330
1F
100
AcDbEntity
  8
0
  6
Continuous
 62
     8
370
    15
100
AcDbLine
 10
-80.9731047128
 20
268.1261320813
 30
0.0
 11
-80.9731047128
 21
445.953218381
 31
0.0
  0
LINE
  5
231
330
1F
100
AcDbEntity
  8
0
  6
Continuous
 62
     8
370
    15
100
AcDbLine
 10
-86.8866901372
 20
456.5669876738
 30
0.0
 11
-88.6992971871
 21
455.7217491074
 31
0.0
  0
LINE
  5
232
330
1F
100
AcDbEntity
  8
0
  6
Continuous
 62
     8
370
    15
100
AcDbLine
 10
-84.6136372064
 20
446.9600600405
 30
0.0
 11
-82.8010301564
 21
447.8052986069
 31
0.0
  0
LINE
  5
233
330
1F
100
AcDbEntity
  8
0
  6
Continuous
 62
     8
370
    15
100
AcDbLine
 10
455.4456610705
 20
268.1261320813
 30
0.0
 11
455.4456610705
 21
266.49986964
 31
0.0
  0
LINE
  5
234
330
1F
100
AcDbEntity
  8
0
  6
Continuous
 62
     8
370
    15
100
AcDbLine
 10
455.4456610705
 20
266.49986964
 30
0.0
 11
444.3839330699
 21
266.49986964
 31
0.0
  0
LWPOLYLINE
  5
235
330
1F
100
AcDbEntity
  8
0
  6
Continuous
 62
     8
370
    15
100
AcDbPolyline
 90
        3
 70
   128
 43
0.0
 10
444.1154290463
 20
268.1261320813
 10
444.2890424754
 20
267.4753220035
 10
444.3839330699
 20
266.49986964
  0
LWPOLYLINE
  5
236
330
1F
100
AcDbEntity
  8
0
  6
Continuous
 62
     8
370
    15
100
AcDbPolyline
 90
        3
 70
   128
 43
0.0
 10
484.7758848693
 20
268.1261320813
 10
484.6022863414
 20
267.4753220035
 10
484.5073957469
 20
266.49986964
  0
LINE
  5
237
330
1F
100
AcDbEntity
  8
0
  6
Continuous
 62
     8
370
    15
100
AcDbLine
 10
484.5073957469
 20
266.49986964
 30
0.0
 11
473.4456677462
 21
266.49986964
 31
0.0
  0
LINE
  5
238
330
1F
100
AcDbEntity
  8
0
  6
Continuous
 62
     8
370
    15
100
AcDbLine
 10
473.4456677462
 20
268.1261320813
 30
0.0
 11
473.4456677462
 21
266.49986964
 31
0.0
  0
LINE
  5
239
330
1F
100
AcDbEntity
  8
0
  6
Continuous
 62
     8
370
    15
100
AcDbLine
 10
473.4456677462
 20
266.49986964
 30
0.0
 11
455.4456610705
 21
266.49986964
 31
0.0
  0
SPLINE
  5
23A
330
1F
100
AcDbEntity
  8
0
  6
Continuous
 62
     8
370
    15
100
AcDbSpline
210
0.0
220
0.0
230
1.0
 70
     8
 71
     3
 72
     9
 73
     5
 74
     0
 42
0.00000001
 43
0.00000001
 40
0.0
 40
0.0
 40
0.0
 40
0.0
 40
0.3586968273967941
 40
1.0
 40
1.0
 40
1.0
 40
1.0
 10
444.3839330698877
 20
266.4998696400339
 30
0.0
 10
444.3538645942558
 20
266.5002380486293
 30
0.0
 10
444.2700376035066
 20
266.5012651237724
 30
0.0
 10
444.2551881785232
 20
266.5023810352099
 30
0.0
 10
444.24566519517
 20
266.503096672755
 30
0.0
  0
LINE
  5
23B
330
1F
100
AcDbEntity
  8
0
  6
Continuous
 62
     8
370
    15
100
AcDbLine
 10
455.4456610705
 20
266.49986964
 30
0.0
 11
455.4456610705
 21
266.1261326848
 31
0.0
  0
LINE
  5
23C
330
1F
100
AcDbEntity
  8
0
  6
Continuous
 62
     8
370
    15
100
AcDbLine
 10
473.4456677462
 20
266.1261326848
 30
0.0
 11
473.4456677462
 21
266.49986964
 31
0.0
  0
SPLINE
  5
23D
330
1F
100
AcDbEntity
  8
0
  6
Continuous
 62
     8
370
    15
100
AcDbSpline
210
0.0
220
0.0
230
1.0
 70
     8
 71
     3
 72
     9
 73
     5
 74
     0
 42
0.00000001
 43
0.00000001
 40
0.0
 40
0.0
 40
0.0
 40
0.0
 40
0.6413030196307984
 40
1.0
 40
1.0
 40
1.0
 40
1.0
 10
484.6456487204462
 20
266.503096672755
 30
0.0
 10
484.6361322842491
 20
266.5023810350709
 30
0.0
 10
484.6212930648695
 20
266.5012651231505
 30
0.0
 10
484.5374647207829
 20
266.5002380485807
 30
0.0
 10
484.5073957468896
 20
266.4998696400339
 30
0.0
  0
LINE
  5
23E
330
1F
100
AcDbEntity
  8
0
  6
Continuous
 62
     8
370
    15
100
AcDbLine
 10
564.7768814589
 20
110.9949481888
 30
0.0
 11
564.7768814589
 21
110.1949495478
 31
0.0
  0
LINE
  5
23F
330
1F
100
AcDbEntity
  8
0
  6
Continuous
 62
     8
370
    15
100
AcDbLine
 10
581.0160477187
 20
231.6826229198
 30
0.0
 11
581.0160477187
 21
232.4826215609
 31
0.0
  0
LINE
  5
240
330
1F
100
AcDbEntity
  8
0
  6
Continuous
 62
     8
370
    15
100
AcDbLine
 10
564.7768814589
 20
232.4826215609
 30
0.0
 11
564.7768814589
 21
231.6826229198
 31
0.0
  0
LINE
  5
241
330
1F
100
AcDbEntity
  8
0
  6
Continuous
 62
     8
370
    15
100
AcDbLine
 10
623.4209675815
 20
110.1949495478
 30
0.0
 11
623.4209675815
 21
110.9949481888
 31
0.0
  0
LINE
  5
242
330
1F
100
AcDbEntity
  8
0
  6
Continuous
 62
     8
370
    15
100
AcDbLine
 10
582.2048623588
 20
230.818893875
 30
0.0
 11
582.9657156493
 21
231.0661060019
 31
0.0
  0
LINE
  5
243
330
1F
100
AcDbEntity
  8
0
  6
Continuous
 62
     8
370
    15
100
AcDbLine
 10
606.5289814498
 20
155.9569594665
 30
0.0
 11
607.2898347403
 21
156.2041697307
 31
0.0
  0
LINE
  5
244
330
1F
100
AcDbEntity
  8
0
  6
Continuous
 62
     8
370
    15
100
AcDbLine
 10
632.5569589164
 20
142.0662981673
 30
0.0
 11
632.8306038405
 21
142.8180542989
 31
0.0
  0
LINE
  5
245
330
1F
100
AcDbEntity
  8
0
  6
Continuous
 62
     8
370
    15
100
AcDbLine
 10
613.3802075412
 20
149.8974171682
 30
0.0
 11
613.1065924193
 21
149.1456610365
 31
0.0
  0
LINE
  5
246
330
1F
100
AcDbEntity
  8
0
  6
Continuous
 62
     8
370
    15
100
AcDbLine
 10
624.3785161998
 20
111.441461484
 30
0.0
 11
624.991341355
 21
110.9272373124
 31
0.0
  0
LINE
  5
247
330
1F
100
AcDbEntity
  8
0
  6
Continuous
 62
     8
370
    15
100
AcDbLine
 10
637.4100585009
 20
125.7272643252
 30
0.0
 11
636.7972035434
 21
126.2414884968
 31
0.0
  0
LINE
  5
248
330
1F
100
AcDbEntity
  8
0
  6
Continuous
 62
     8
370
    15
100
AcDbLine
 10
582.5724144008
 20
232.2765720292
 30
0.0
 11
582.1511287715
 21
232.1396899624
 31
0.0
  0
LINE
  5
249
330
1F
100
AcDbEntity
  8
0
  6
Continuous
 62
     8
370
    15
100
AcDbLine
 10
-35.1231108878
 20
-18.6738687353
 30
0.0
 11
-98.9231030915
 21
-18.6738687353
 31
0.0
  0
LINE
  5
24A
330
1F
100
AcDbEntity
  8
0
  6
Continuous
 62
     8
370
    15
100
AcDbLine
 10
-35.1870219682
 20
-74.9137717084
 30
0.0
 11
-98.8592069123
 21
-74.9137717084
 31
0.0
  0
LINE
  5
24B
330
1F
100
AcDbEntity
  8
0
  6
Continuous
 62
     8
370
    15
100
AcDbLine
 10
-35.1231108878
 20
-74.1412955122
 30
0.0
 11
-98.9231030915
 21
-74.1412955122
 31
0.0
  0
LINE
  5
24C
330
1F
100
AcDbEntity
  8
0
  6
Continuous
 62
     8
370
    15
100
AcDbLine
 10
22.976889136
 20
-15.8738809423
 30
0.0
 11
22.976889136
 21
-15.4738741712
 31
0.0
  0
LINE
  5
24D
330
1F
100
AcDbEntity
  8
0
  6
Continuous
 62
     8
370
    15
100
AcDbLine
 10
442.9768909242
 20
-15.8738809423
 30
0.0
 11
442.9768909242
 21
-15.4738741712
 31
0.0
  0
LINE
  5
24E
330
1F
100
AcDbEntity
  8
0
  6
Continuous
 62
     8
370
    15
100
AcDbLine
 10
572.9769010569
 20
-15.8738809423
 30
0.0
 11
572.9769010569
 21
-15.6050639944
 31
0.0
  0
LINE
  5
24F
330
1F
100
AcDbEntity
  8
0
  6
Continuous
 62
     8
370
    15
100
AcDbLine
 10
538.8768751647
 20
-18.6738687353
 30
0.0
 11
475.0768978621
 21
-18.6738687353
 31
0.0
  0
LINE
  5
250
330
1F
100
AcDbEntity
  8
0
  6
Continuous
 62
     8
370
    15
100
AcDbLine
 10
538.8768751647
 20
-74.1412955122
 30
0.0
 11
475.0768978621
 21
-74.1412955122
 31
0.0
  0
LINE
  5
251
330
1F
100
AcDbEntity
  8
0
  6
Continuous
 62
     8
370
    15
100
AcDbLine
 10
538.8129789855
 20
-74.9137717084
 30
0.0
 11
475.1407940413
 21
-74.9137717084
 31
0.0
  0
LINE
  5
252
330
1F
100
AcDbEntity
  8
0
  6
Continuous
 62
     8
370
    15
100
AcDbLine
 10
-38.5231088374
 20
-113.1738739805
 30
0.0
 11
-95.5231051419
 21
-113.1738739805
 31
0.0
  0
LINE
  5
253
330
1F
100
AcDbEntity
  8
0
  6
Continuous
 62
     8
370
    15
100
AcDbLine
 10
535.4768772151
 20
-113.1738739805
 30
0.0
 11
478.4768958117
 21
-113.1738739805
 31
0.0
  0
LINE
  5
254
330
1F
100
AcDbEntity
  8
0
  6
Continuous
 62
     8
370
    15
100
AcDbLine
 10
-143.4230964158
 20
252.5761324196
 30
0.0
 11
504.2768855121
 21
252.5761324196
 31
0.0
  0
LINE
  5
255
330
1F
100
AcDbEntity
  8
0
  6
Continuous
 62
     8
370
    15
100
AcDbLine
 10
-143.4230964158
 20
263.6761321901
 30
0.0
 11
-143.4230964158
 21
252.5761324196
 31
0.0
  0
LINE
  5
256
330
1F
100
AcDbEntity
  8
0
  6
Continuous
 62
     8
370
    15
100
AcDbLine
 10
502.7768750216
 20
263.6761321901
 30
0.0
 11
-143.4230964158
 21
263.6761321901
 31
0.0
  0
LINE
  5
257
330
1F
100
AcDbEntity
  8
0
  6
Continuous
 62
     8
370
    15
100
AcDbLine
 10
504.2768855121
 20
285.0761321588
 30
0.0
 11
504.0269036319
 21
285.0761321588
 31
0.0
  0
LINE
  5
258
330
1F
100
AcDbEntity
  8
0
  6
Continuous
 62
     8
370
    15
100
AcDbLine
 10
506.4768929507
 20
287.5261326535
 30
0.0
 11
506.4768929507
 21
287.2261313005
 31
0.0
  0
LINE
  5
259
330
1F
100
AcDbEntity
  8
0
  6
Continuous
 62
     8
370
    15
100
AcDbLine
 10
607.0845563437
 20
242.8586325823
 30
0.0
 11
606.8245012786
 21
243.456731665
 31
0.0
  0
LINE
  5
25A
330
1F
100
AcDbEntity
  8
0
  6
Continuous
 62
     8
370
    15
100
AcDbLine
 10
597.7937121417
 20
287.2203254356
 30
0.0
 11
597.7937121417
 21
287.5261326535
 31
0.0
  0
LINE
  5
25B
330
1F
100
AcDbEntity
  8
0
  6
Continuous
 62
     8
370
    15
100
AcDbLine
 10
639.6768827464
 20
43.4449446602
 30
0.0
 11
639.6768827464
 21
54.2449486657
 31
0.0
  0
SPLINE
  5
25C
330
1F
100
AcDbEntity
  8
0
  6
Continuous
 62
     8
370
    15
100
AcDbSpline
210
0.0
220
0.0
230
1.0
 70
     8
 71
     3
 72
    10
 73
     6
 74
     0
 42
0.00000001
 43
0.00000001
 40
0.0
 40
0.0
 40
0.0
 40
0.0
 40
0.5
 40
0.5
 40
1.0
 40
1.0
 40
1.0
 40
1.0
 10
641.5482799529435
 20
71.44001419911244
 30
0.0
 10
641.5482799529435
 20
71.68594122033458
 30
0.0
 10
641.5985213217596
 20
71.90389467463629
 30
0.0
 10
641.8102593497597
 20
72.28111029290343
 30
0.0
 10
641.9676421377925
 20
72.43208478538327
 30
0.0
 10
642.1768892765893
 20
72.5447258070217
 30
0.0
  0
LINE
  5
25D
330
1F
100
AcDbEntity
  8
0
  6
Continuous
 62
     8
370
    15
100
AcDbLine
 10
641.5482897784
 20
26.249883811
 30
0.0
 11
641.5482897784
 21
71.4400095148
 31
0.0
  0
SPLINE
  5
25E
330
1F
100
AcDbEntity
  8
0
  6
Continuous
 62
     8
370
    15
100
AcDbSpline
210
0.0
220
0.0
230
1.0
 70
     8
 71
     3
 72
    10
 73
     6
 74
     0
 42
0.00000001
 43
0.00000001
 40
0.0
 40
0.0
 40
0.0
 40
0.0
 40
0.5
 40
0.5
 40
1.0
 40
1.0
 40
1.0
 40
1.0
 10
642.1768892765893
 20
25.14516917782547
 30
0.0
 10
641.9676421377925
 20
25.25781019946394
 30
0.0
 10
641.8102593497597
 20
25.40878469194374
 30
0.0
 10
641.5985213217594
 20
25.78600031021094
 30
0.0
 10
641.5482799529435
 20
26.00395376451267
 30
0.0
 10
641.5482799529435
 20
26.24988078573476
 30
0.0
  0
ARC
  5
25F
330
1F
100
AcDbEntity
  8
0
  6
Continuous
 62
     8
370
    15
100
AcDbCircle
 10
641.3650773662
 20
27.0433084019
 30
0.0
 40
0.8143029960387307
100
AcDbArc
 50
283.0024620782
 51
355.5091785034
  0
ARC
  5
260
330
1F
100
AcDbEntity
  8
0
  6
Continuous
 62
     8
370
    15
100
AcDbCircle
 10
641.3650773662
 20
70.646584924
 30
0.0
 40
0.8143029960387324
100
AcDbArc
 50
4.4908214966
 51
76.9975379218
  0
SPLINE
  5
261
330
1F
100
AcDbEntity
  8
0
  6
Continuous
 62
     8
370
    15
100
AcDbSpline
210
0.0
220
0.0
230
1.0
 70
     8
 71
     3
 72
    10
 73
     6
 74
     0
 42
0.00000001
 43
0.00000001
 40
0.0
 40
0.0
 40
0.0
 40
0.0
 40
0.5
 40
0.5
 40
1.0
 40
1.0
 40
1.0
 40
1.0
 10
642.1768892765893
 20
26.97954824047422
 30
0.0
 10
642.1768892765893
 20
26.7826288311554
 30
0.0
 10
642.2122203579311
 20
26.60994614023582
 30
0.0
 10
642.3657472035586
 20
26.31794332124218
 30
0.0
 10
642.4809539594769
 20
26.20590737837436
 30
0.0
 10
642.6335995483969
 20
26.12881191058583
 30
0.0
  0
SPLINE
  5
262
330
1F
100
AcDbEntity
  8
0
  6
Continuous
 62
     8
370
    15
100
AcDbSpline
210
0.0
220
0.0
230
1.0
 70
     8
 71
     3
 72
    10
 73
     6
 74
     0
 42
0.00000001
 43
0.00000001
 40
0.0
 40
0.0
 40
0.0
 40
0.0
 40
0.5
 40
0.5
 40
1.0
 40
1.0
 40
1.0
 40
1.0
 10
642.6335995483969
 20
71.56108307426135
 30
0.0
 10
642.4809539594767
 20
71.4839876064728
 30
0.0
 10
642.3657472035586
 20
71.37195166360505
 30
0.0
 10
642.2122203579311
 20
71.07994884461141
 30
0.0
 10
642.1768892765893
 20
70.90726615369181
 30
0.0
 10
642.1768892765893
 20
70.71034674437298
 30
0.0
  0
SPLINE
  5
263
330
1F
100
AcDbEntity
  8
0
  6
Continuous
 62
     8
370
    15
100
AcDbSpline
210
0.0
220
0.0
230
1.0
 70
     8
 71
     3
 72
    14
 73
    10
 74
     0
 42
0.00000001
 43
0.00000001
 40
0.0
 40
0.0
 40
0.0
 40
0.0
 40
0.25
 40
0.25
 40
0.5
 40
0.5
 40
0.75
 40
0.75
 40
1.0
 40
1.0
 40
1.0
 40
1.0
 10
645.1245320572775
 20
71.0034582122786
 30
0.0
 10
644.8914430583237
 20
71.13111078225145
 30
0.0
 10
644.659990035112
 20
71.24275736162156
 30
0.0
 10
644.2004188840592
 20
71.43231956183294
 30
0.0
 10
643.9703332717053
 20
71.51042718882087
 30
0.0
 10
643.5373482104332
 20
71.61817253634528
 30
0.0
 10
643.3300053126442
 20
71.6494752897183
 30
0.0
 10
642.9472827924238
 20
71.6527012244705
 30
0.0
 10
642.7773889224685
 20
71.62473515673933
 30
0.0
 10
642.6335995483969
 20
71.56108307426138
 30
0.0
  0
LINE
  5
264
330
1F
100
AcDbEntity
  8
0
  6
Continuous
 62
     8
370
    15
100
AcDbLine
 10
645.1245386626
 20
71.0034650965
 30
0.0
 11
645.1245386626
 21
26.6864431305
 31
0.0
  0
SPLINE
  5
265
330
1F
100
AcDbEntity
  8
0
  6
Continuous
 62
     8
370
    15
100
AcDbSpline
210
0.0
220
0.0
230
1.0
 70
     8
 71
     3
 72
    14
 73
    10
 74
     0
 42
0.00000001
 43
0.00000001
 40
0.0
 40
0.0
 40
0.0
 40
0.0
 40
0.25
 40
0.25
 40
0.5
 40
0.5
 40
0.75
 40
0.75
 40
1.0
 40
1.0
 40
1.0
 40
1.0
 10
642.6335995483968
 20
26.12881191058561
 30
0.0
 10
642.776212239391
 20
26.0656807172816
 30
0.0
 10
642.9451963147286
 20
26.0373139384337
 30
0.0
 10
643.3294626710807
 20
26.04027829552988
 30
0.0
 10
643.5363161846914
 20
26.07152331730189
 30
0.0
 10
643.9695432062399
 20
26.17921375445478
 30
0.0
 10
644.1997765091699
 20
26.25733362669219
 30
0.0
 10
644.6596653604884
 20
26.44698058322428
 30
0.0
 10
644.8912795655093
 20
26.55869466478816
 30
0.0
 10
645.1245320572775
 20
26.6864367725686
 30
0.0
  0
SPLINE
  5
266
330
1F
100
AcDbEntity
  8
0
  6
Continuous
 62
     8
370
    15
100
AcDbSpline
210
0.0
220
0.0
230
1.0
 70
     8
 71
     3
 72
    10
 73
     6
 74
     0
 42
0.00000001
 43
0.00000001
 40
0.0
 40
0.0
 40
0.0
 40
0.0
 40
0.5
 40
0.5
 40
1.0
 40
1.0
 40
1.0
 40
1.0
 10
661.5872539539181
 20
32.5242895148089
 30
0.0
 10
658.9216962571429
 20
31.30600860489821
 30
0.0
 10
656.2471113008568
 20
30.1211507328224
 30
0.0
 10
650.888646302258
 20
27.79679595174198
 30
0.0
 10
648.2045943208441
 20
26.65771101556177
 30
0.0
 10
645.5174443281691
 20
25.53742554066327
 30
0.0
  0
LINE
  5
267
330
1F
100
AcDbEntity
  8
0
  6
Continuous
 62
     8
370
    15
100
AcDbLine
 10
661.5872521426
 20
29.0796143217
 30
0.0
 11
661.5872521426
 21
32.5242859526
 31
0.0
  0
SPLINE
  5
268
330
1F
100
AcDbEntity
  8
0
  6
Continuous
 62
     8
370
    15
100
AcDbSpline
210
0.0
220
0.0
230
1.0
 70
     8
 71
     3
 72
    10
 73
     6
 74
     0
 42
0.00000001
 43
0.00000001
 40
0.0
 40
0.0
 40
0.0
 40
0.0
 40
0.3554474234457811
 40
0.7142337708234344
 40
1.0
 40
1.0
 40
1.0
 40
1.0
 10
645.5174524809748
 20
25.53742949203794
 30
0.0
 10
645.0619629443217
 20
25.37219889809278
 30
0.0
 10
644.1467051934553
 20
25.04018560334204
 30
0.0
 10
642.9562417012061
 20
24.91231282326969
 30
0.0
 10
642.4253207498314
 20
25.09287768130613
 30
0.0
 10
642.1899337794215
 20
25.17293218807526
 30
0.0
  0
ARC
  5
269
330
1F
100
AcDbEntity
  8
0
  6
Continuous
 62
     8
370
    15
100
AcDbCircle
 10
641.3942153711
 20
24.769144415
 30
0.0
 40
4.194203884422939
100
AcDbArc
 50
10.5549131848
 51
27.2021013754
  0
SPLINE
  5
26A
330
1F
100
AcDbEntity
  8
0
  6
Continuous
 62
     8
370
    15
100
AcDbSpline
210
0.0
220
0.0
230
1.0
 70
     8
 71
     3
 72
    10
 73
     6
 74
     0
 42
0.00000001
 43
0.00000001
 40
0.0
 40
0.0
 40
0.0
 40
0.0
 40
0.2857662291765656
 40
0.6445525765542188
 40
1.0
 40
1.0
 40
1.0
 40
1.0
 10
642.1899337794215
 20
72.51696113781281
 30
0.0
 10
642.4253207498316
 20
72.59701564458196
 30
0.0
 10
642.9562417012061
 20
72.77758050261835
 30
0.0
 10
644.1467051934551
 20
72.649707722546
 30
0.0
 10
645.0619629443217
 20
72.31769442779529
 30
0.0
 10
645.5174524809748
 20
72.15246383385008
 30
0.0
  0
ARC
  5
26B
330
1F
100
AcDbEntity
  8
0
  6
Continuous
 62
     8
370
    15
100
AcDbCircle
 10
641.3945864936
 20
72.9206468661
 30
0.0
 40
4.193820349100854
100
AcDbArc
 50
332.7970018568
 51
349.4455285983
  0
LINE
  5
26C
330
1F
100
AcDbEntity
  8
0
  6
Continuous
 62
     8
370
    15
100
AcDbLine
 10
661.5872521426
 20
65.1656073733
 30
0.0
 11
661.5872521426
 21
68.5532820626
 31
0.0
  0
SPLINE
  5
26D
330
1F
100
AcDbEntity
  8
0
  6
Continuous
 62
     8
370
    15
100
AcDbSpline
210
0.0
220
0.0
230
1.0
 70
     8
 71
     3
 72
    10
 73
     6
 74
     0
 42
0.00000001
 43
0.00000001
 40
0.0
 40
0.0
 40
0.0
 40
0.0
 40
0.5
 40
0.5
 40
1.0
 40
1.0
 40
1.0
 40
1.0
 10
645.5174443281691
 20
72.15246944418394
 30
0.0
 10
648.2045943208439
 20
71.03218396928531
 30
0.0
 10
650.888646302258
 20
69.89309903310529
 30
0.0
 10
656.2471113008567
 20
67.56874425202477
 30
0.0
 10
658.921696257143
 20
66.38388637994896
 30
0.0
 10
661.5872539539181
 20
65.1656054700383
 30
0.0
  0
SPLINE
  5
26E
330
1F
100
AcDbEntity
  8
0
  6
Continuous
 62
     8
370
    15
100
AcDbSpline
210
0.0
220
0.0
230
1.0
 70
     8
 71
     3
 72
    10
 73
     6
 74
     0
 42
0.00000001
 43
0.00000001
 40
0.0
 40
0.0
 40
0.0
 40
0.0
 40
0.5
 40
0.5
 40
1.0
 40
1.0
 40
1.0
 40
1.0
 10
661.1943416830266
 20
64.16369443971062
 30
0.0
 10
658.5273270287948
 20
65.35261671843193
 30
0.0
 10
655.8523394870011
 20
66.51155364797678
 30
0.0
 10
650.4940987908819
 20
68.78760950355323
 30
0.0
 10
647.8106973636857
 20
69.9043779778011
 30
0.0
 10
645.1245320572775
 20
71.0034582122786
 30
0.0
  0
ARC
  5
26F
330
1F
100
AcDbEntity
  8
0
  6
Continuous
 62
     8
370
    15
100
AcDbCircle
 10
656.1535073568
 20
66.7185338334
 30
0.0
 40
5.651297460537564
100
AcDbArc
 50
333.122817819
 51
344.0504322603
  0
SPLINE
  5
270
330
1F
100
AcDbEntity
  8
0
  6
Continuous
 62
     8
370
    15
100
AcDbSpline
210
0.0
220
0.0
230
1.0
 70
     8
 71
     3
 72
    10
 73
     6
 74
     0
 42
0.00000001
 43
0.00000001
 40
0.0
 40
0.0
 40
0.0
 40
0.0
 40
0.5
 40
0.5
 40
1.0
 40
1.0
 40
1.0
 40
1.0
 10
645.1245320572775
 20
26.6864367725686
 30
0.0
 10
647.8106973636857
 20
27.78551700704607
 30
0.0
 10
650.494098790882
 20
28.90228548129395
 30
0.0
 10
655.8523394870011
 20
31.17834133687036
 30
0.0
 10
658.527327028795
 20
32.33727826641519
 30
0.0
 10
661.1943416830266
 20
33.52620054513658
 30
0.0
  0
ARC
  5
271
330
1F
100
AcDbEntity
  8
0
  6
Continuous
 62
     8
370
    15
100
AcDbCircle
 10
656.1535073568
 20
30.9713594925
 30
0.0
 40
5.651297460537565
100
AcDbArc
 50
15.9495677397
 51
26.877182181
  0
LINE
  5
272
330
1F
100
AcDbEntity
  8
0
  6
Continuous
 62
     8
370
    15
100
AcDbLine
 10
661.1943383243
 20
33.5261953278
 30
0.0
 11
661.1943383243
 21
64.1636979981
 31
0.0
  0
ARC
  5
273
330
1F
100
AcDbEntity
  8
0
  6
Continuous
 62
     8
370
    15
100
AcDbCircle
 10
661.4210319511
 20
65.3325764548
 30
0.0
 40
1.190658157095678
100
AcDbArc
 50
259.0242481082
 51
309.4069798071
  0
ARC
  5
274
330
1F
100
AcDbEntity
  8
0
  6
Continuous
 62
     8
370
    15
100
AcDbCircle
 10
661.3424016388
 20
64.3665171729
 30
0.0
 40
0.8357612802310506
100
AcDbArc
 50
3.1613005703
 51
72.9643281816
  0
ARC
  5
275
330
1F
100
AcDbEntity
  8
0
  6
Continuous
 62
     8
370
    15
100
AcDbCircle
 10
661.4210319511
 20
32.3573168711
 30
0.0
 40
1.190658157095689
100
AcDbArc
 50
50.5930201929
 51
100.9757518918
  0
ARC
  5
276
330
1F
100
AcDbEntity
  8
0
  6
Continuous
 62
     8
370
    15
100
AcDbCircle
 10
661.3424016388
 20
33.323376153
 30
0.0
 40
0.8357612802310498
100
AcDbArc
 50
287.0356718184
 51
356.8386994297
  0
LINE
  5
277
330
1F
100
AcDbEntity
  8
0
  6
Continuous
 62
     8
370
    15
100
AcDbLine
 10
637.6588184859
 20
19.5788723631
 30
0.0
 11
637.6551229979
 21
19.5878428622
 31
0.0
  0
LINE
  5
278
330
1F
100
AcDbEntity
  8
0
  6
Continuous
 62
     8
370
    15
100
AcDbLine
 10
632.176889899
 20
42.8489876194
 30
0.0
 11
630.1768858458
 21
42.8730529948
 31
0.0
  0
LINE
  5
279
330
1F
100
AcDbEntity
  8
0
  6
Continuous
 62
     8
370
    15
100
AcDbLine
 10
632.176889899
 20
41.7899471922
 30
0.0
 11
630.1768858458
 21
41.8188703461
 31
0.0
  0
SPLINE
  5
27A
330
1F
100
AcDbEntity
  8
0
  6
Continuous
 62
     8
370
    15
100
AcDbSpline
210
0.0
220
0.0
230
1.0
 70
     8
 71
     3
 72
    16
 73
    12
 74
     0
 42
0.00000001
 43
0.00000001
 40
0.0
 40
0.0
 40
0.0
 40
0.0
 40
0.125
 40
0.125
 40
0.25
 40
0.25
 40
0.5
 40
0.5
 40
0.75
 40
0.75
 40
1.0
 40
1.0
 40
1.0
 40
1.0
 10
623.9768892765874
 20
74.95056961269886
 30
0.0
 10
624.0835485227824
 20
74.93617160478067
 30
0.0
 10
624.185832343514
 20
74.92031253355427
 30
0.0
 10
624.3803020895259
 20
74.88597967559576
 30
0.0
 10
624.4724880148061
 20
74.86750588886365
 30
0.0
 10
624.7318783806833
 20
74.80862357207468
 30
0.0
 10
624.8819154113163
 20
74.76475408542527
 30
0.0
 10
625.1254333564838
 20
74.67024518343158
 30
0.0
 10
625.2187370796556
 20
74.61967560199379
 30
0.0
 10
625.3444650397073
 20
74.5151663335312
 30
0.0
 10
625.3768892765873
 20
74.46122664650639
 30
0.0
 10
625.3768892765873
 20
74.40723198433547
 30
0.0
  0
SPLINE
  5
27B
330
1F
100
AcDbEntity
  8
0
  6
Continuous
 62
     8
370
    15
100
AcDbSpline
210
0.0
220
0.0
230
1.0
 70
     8
 71
     3
 72
    19
 73
    15
 74
     0
 42
0.00000001
 43
0.00000001
 40
0.0
 40
0.0
 40
0.0
 40
0.0
 40
0.057095908092662
 40
0.115651805237113
 40
0.1756735616979767
 40
0.2371666253302755
 40
0.3001360595090994
 40
0.3645865770444565
 40
0.4305225705602838
 40
0.4979481397533506
 40
0.616204390729849
 40
0.7486213188526917
 40
0.8538534972356744
 40
1.0
 40
1.0
 40
1.0
 40
1.0
 10
623.9768892765874
 20
18.93893082233231
 30
0.0
 10
624.0255148435689
 20
18.94575677849478
 30
0.0
 10
624.1240093730361
 20
18.95958323609984
 30
0.0
 10
624.2657904922963
 20
18.98294642637699
 30
0.0
 10
624.4044363213992
 20
19.00853628665583
 30
0.0
 10
624.5383933905314
 20
19.03653591009002
 30
0.0
 10
624.6667398597594
 20
19.06689445505619
 30
0.0
 10
624.7883112179145
 20
19.09962615368147
 30
0.0
 10
624.9019679549045
 20
19.1347269347028
 30
0.0
 10
625.0319531345949
 20
19.18133823652682
 30
0.0
 10
625.1700414040102
 20
19.24348711685067
 30
0.0
 10
625.2814973568451
 20
19.31629802255133
 30
0.0
 10
625.3603587926814
 20
19.39740637523429
 30
0.0
 10
625.3708119951731
 20
19.45131918098739
 30
0.0
 10
625.3768892765873
 20
19.48266300051527
 30
0.0
  0
LINE
  5
27C
330
1F
100
AcDbEntity
  8
0
  6
Continuous
 62
     8
370
    15
100
AcDbLine
 10
564.8268897559
 20
107.644943635
 30
0.0
 11
564.8268897559
 21
-13.5550516443
 31
0.0
  0
LINE
  5
27D
330
1F
100
AcDbEntity
  8
0
  6
Continuous
 62
     8
370
    15
100
AcDbLine
 10
564.8268897559
 20
-13.5550516443
 30
0.0
 11
620.3268904712
 21
-13.5550516443
 31
0.0
  0
LINE
  5
27E
330
1F
100
AcDbEntity
  8
0
  6
Continuous
 62
     8
370
    15
100
AcDbLine
 10
620.3268904712
 20
107.644943635
 30
0.0
 11
564.8268897559
 21
107.644943635
 31
0.0
  0
LINE
  5
27F
330
1F
100
AcDbEntity
  8
0
  6
Continuous
 62
     8
370
    15
100
AcDbLine
 10
620.3268904712
 20
107.644943635
 30
0.0
 11
620.3268904712
 21
-13.5550516443
 31
0.0
  0
LINE
  5
280
330
1F
100
AcDbEntity
  8
0
  6
Continuous
 62
     8
370
    15
100
AcDbLine
 10
622.3769028212
 20
74.9505740805
 30
0.0
 11
623.9769001033
 21
74.9505740805
 31
0.0
  0
LINE
  5
281
330
1F
100
AcDbEntity
  8
0
  6
Continuous
 62
     8
370
    15
100
AcDbLine
 10
622.3769028212
 20
18.9389270945
 30
0.0
 11
623.9769001033
 21
18.9389270945
 31
0.0
  0
LINE
  5
282
330
1F
100
AcDbEntity
  8
0
  6
Continuous
 62
     8
370
    15
100
AcDbLine
 10
561.6769034888
 20
248.8761321856
 30
0.0
 11
561.7768902804
 21
248.8761321856
 31
0.0
  0
LINE
  5
283
330
1F
100
AcDbEntity
  8
0
  6
Continuous
 62
     8
370
    15
100
AcDbLine
 10
561.7768902804
 20
252.5761324196
 30
0.0
 11
561.6769034888
 21
252.5761324196
 31
0.0
  0
LINE
  5
284
330
1F
100
AcDbEntity
  8
0
  6
Continuous
 62
     8
370
    15
100
AcDbLine
 10
523.8623161342
 20
289.5966862543
 30
0.0
 11
523.8623161342
 21
290.7966842158
 31
0.0
  0
LINE
  5
285
330
1F
100
AcDbEntity
  8
0
  6
Continuous
 62
     8
370
    15
100
AcDbLine
 10
500.2768774058
 20
289.5966862543
 30
0.0
 11
500.2768774058
 21
290.7966842158
 31
0.0
  0
LINE
  5
286
330
1F
100
AcDbEntity
  8
0
  6
Continuous
 62
     8
370
    15
100
AcDbLine
 10
527.235253575
 20
289.9793368979
 30
0.0
 11
526.9246537711
 21
288.8202277227
 31
0.0
  0
LINE
  5
287
330
1F
100
AcDbEntity
  8
0
  6
Continuous
 62
     8
370
    15
100
AcDbLine
 10
524.185850146
 20
289.554091285
 30
0.0
 11
524.4964201476
 21
290.7132041855
 31
0.0
  0
ENDSEC
  0
SECTION
  2
OBJECTS
  0
DICTIONARY
  5
C
330
0
100
AcDbDictionary
281
     1
  3
ACAD_GROUP
350
D
  3
ACAD_LAYOUT
350
1A
  3
ACAD_MATERIAL
350
3B
  3
ACAD_MLEADERSTYLE
350
289
  3
ACAD_MLINESTYLE
350
17
  3
ACAD_PLOTSETTINGS
350
19
  3
ACAD_PLOTSTYLENAME
350
E
  3
ACAD_TABLESTYLE
350
288
  3
ACAD_VISUALSTYLE
350
2A
  0
DICTIONARY
  5
D
102
{ACAD_REACTORS
330
C
102
}
330
C
100
AcDbDictionary
281
     1
  0
DICTIONARY
  5
1A
102
{ACAD_REACTORS
330
C
102
}
330
C
100
AcDbDictionary
281
     1
  3
Layout1
350
1E
  3
Layout2
350
26
  3
Model
350
22
  0
DICTIONARY
  5
3B
102
{ACAD_REACTORS
330
C
102
}
330
C
100
AcDbDictionary
281
     1
  3
ByBlock
350
3D
  3
ByLayer
350
3C
  3
Global
350
3E
  0
DICTIONARY
  5
289
102
{ACAD_REACTORS
330
C
102
}
330
C
100
AcDbDictionary
281
     1
  0
DICTIONARY
  5
17
102
{ACAD_REACTORS
330
C
102
}
330
C
100
AcDbDictionary
281
     1
  3
Standard
350
18
  0
DICTIONARY
  5
19
102
{ACAD_REACTORS
330
C
102
}
330
C
100
AcDbDictionary
281
     1
  0
ACDBDICTIONARYWDFLT
  5
E
102
{ACAD_REACTORS
330
C
102
}
330
C
100
AcDbDictionary
281
     1
  3
Normal
350
F
100
AcDbDictionaryWithDefault
340
F
  0
DICTIONARY
  5
288
102
{ACAD_REACTORS
330
C
102
}
330
C
100
AcDbDictionary
281
     1
  0
DICTIONARY
  5
2A
102
{ACAD_REACTORS
330
C
102
}
330
C
100
AcDbDictionary
281
     1
  3
2dWireframe
350
2F
  3
3D Hidden
350
31
  3
3dWireframe
350
30
  3
Basic
350
32
  3
Brighten
350
36
  3
ColorChange
350
3A
  3
Conceptual
350
34
  3
Dim
350
35
  3
Facepattern
350
39
  3
Flat
350
2B
  3
FlatWithEdges
350
2C
  3
Gouraud
350
2D
  3
GouraudWithEdges
350
2E
  3
Linepattern
350
38
  3
Realistic
350
33
  3
Thicken
350
37
  0
LAYOUT
  5
1E
102
{ACAD_REACTORS
330
1A
102
}
330
1A
100
AcDbPlotSettings
  1

  2
none_device
  4

  6

 40
0.0
 41
0.0
 42
0.0
 43
0.0
 44
0.0
 45
0.0
 46
0.0
 47
0.0
 48
0.0
 49
0.0
140
0.0
141
0.0
142
1.0
143
1.0
 70
   688
 72
     0
 73
     0
 74
     5
  7

 75
    16
 76
     0
 77
     2
 78
   300
147
1.0
148
0.0
149
0.0
100
AcDbLayout
  1
Layout1
 70
     1
 71
     1
 10
0.0
 20
0.0
 11
420.0
 21
297.0
 12
0.0
 22
0.0
 32
0.0
 14
1.0000000000E+20
 24
1.0000000000E+20
 34
1.0000000000E+20
 15
-1.0000000000E+20
 25
-1.0000000000E+20
 35
-1.0000000000E+20
146
0.0
 13
0.0
 23
0.0
 33
0.0
 16
1.0
 26
0.0
 36
0.0
 17
0.0
 27
1.0
 37
0.0
 76
     0
330
1B
  0
LAYOUT
  5
26
102
{ACAD_REACTORS
330
1A
102
}
330
1A
100
AcDbPlotSettings
  1

  2
none_device
  4

  6

 40
0.0
 41
0.0
 42
0.0
 43
0.0
 44
0.0
 45
0.0
 46
0.0
 47
0.0
 48
0.0
 49
0.0
140
0.0
141
0.0
142
1.0
143
1.0
 70
   688
 72
     0
 73
     0
 74
     5
  7

 75
    16
 76
     0
 77
     2
 78
   300
147
1.0
148
0.0
149
0.0
100
AcDbLayout
  1
Layout2
 70
     1
 71
     2
 10
0.0
 20
0.0
 11
0.0
 21
0.0
 12
0.0
 22
0.0
 32
0.0
 14
0.0
 24
0.0
 34
0.0
 15
0.0
 25
0.0
 35
0.0
146
0.0
 13
0.0
 23
0.0
 33
0.0
 16
1.0
 26
0.0
 36
0.0
 17
0.0
 27
1.0
 37
0.0
 76
     0
330
23
  0
LAYOUT
  5
22
102
{ACAD_REACTORS
330
1A
102
}
330
1A
100
AcDbPlotSettings
  1

  2
none_device
  4

  6

 40
0.0
 41
0.0
 42
0.0
 43
0.0
 44
0.0
 45
0.0
 46
0.0
 47
0.0
 48
0.0
 49
0.0
140
0.0
141
0.0
142
1.0
143
1.0
 70
  1712
 72
     0
 73
     0
 74
     0
  7

 75
     0
 76
     0
 77
     2
 78
   300
147
1.0
148
0.0
149
0.0
100
AcDbLayout
  1
Model
 70
     1
 71
     0
 10
0.0
 20
0.0
 11
420.0
 21
297.0
 12
0.0
 22
0.0
 32
0.0
 14
0.0
 24
0.0
 34
0.0
 15
420.0
 25
297.0
 35
0.0
146
0.0
 13
0.0
 23
0.0
 33
0.0
 16
1.0
 26
0.0
 36
0.0
 17
0.0
 27
1.0
 37
0.0
 76
     0
330
1F
331
29
  0
MATERIAL
  5
3D
102
{ACAD_REACTORS
330
3B
102
}
330
3B
100
AcDbMaterial
  1
ByBlock
 72
     1
 94
      127
  0
MATERIAL
  5
3C
102
{ACAD_REACTORS
330
3B
102
}
330
3B
100
AcDbMaterial
  1
ByLayer
 72
     1
 94
      127
  0
MATERIAL
  5
3E
102
{ACAD_REACTORS
330
3B
102
}
330
3B
100
AcDbMaterial
  1
Global
 72
     1
 94
      127
  0
MLINESTYLE
  5
18
102
{ACAD_REACTORS
330
17
102
}
330
17
100
AcDbMlineStyle
  2
Standard
 70
     0
  3

 62
   256
 51
90.0
 52
90.0
 71
     2
 49
0.5
 62
   256
  6
BYLAYER
 49
-0.5
 62
   256
  6
BYLAYER
  0
ACDBPLACEHOLDER
  5
F
102
{ACAD_REACTORS
330
E
102
}
330
E
  0
VISUALSTYLE
  5
2F
102
{ACAD_REACTORS
330
2A
102
}
330
2A
100
AcDbVisualStyle
  2
2dWireframe
 70
     4
 71
     0
 72
     2
 73
     0
 90
        0
 40
-0.6
 41
-30.0
 62
     5
 63
     7
421
 16777215
 74
     1
 91
        4
 64
     7
 65
   257
 75
     1
175
     1
 42
1.0
 92
        0
 66
   257
 43
1.0
 76
     1
 77
     6
 78
     2
 67
     7
 79
     5
170
     0
171
     0
290
     0
174
     0
 93
        1
 44
0.0
173
     0
291
     0
 45
0.0
  0
VISUALSTYLE
  5
31
102
{ACAD_REACTORS
330
2A
102
}
330
2A
100
AcDbVisualStyle
  2
3D Hidden
 70
     6
 71
     1
 72
     2
 73
     2
 90
        0
 40
-0.6
 41
-30.0
 62
     5
 63
     7
421
 16777215
 74
     2
 91
        2
 64
     7
 65
   257
 75
     2
175
     1
 42
40.0
 92
        0
 66
   257
 43
1.0
 76
     1
 77
     6
 78
     2
 67
     7
 79
     3
170
     0
171
     0
290
     0
174
     0
 93
        1
 44
0.0
173
     0
291
     0
 45
0.0
  0
VISUALSTYLE
  5
30
102
{ACAD_REACTORS
330
2A
102
}
330
2A
100
AcDbVisualStyle
  2
3dWireframe
 70
     5
 71
     0
 72
     2
 73
     0
 90
        0
 40
-0.6
 41
-30.0
 62
     5
 63
     7
421
 16777215
 74
     1
 91
        4
 64
     7
 65
   257
 75
     1
175
     1
 42
1.0
 92
        0
 66
   257
 43
1.0
 76
     1
 77
     6
 78
     2
 67
     7
 79
     5
170
     0
171
     0
290
     0
174
     0
 93
        1
 44
0.0
173
     0
291
     0
 45
0.0
  0
VISUALSTYLE
  5
32
102
{ACAD_REACTORS
330
2A
102
}
330
2A
100
AcDbVisualStyle
  2
Basic
 70
     7
 71
     1
 72
     0
 73
     1
 90
        0
 40
-0.6
 41
-30.0
 62
     5
 63
     7
421
 16777215
 74
     0
 91
        4
 64
     7
 65
   257
 75
     1
175
     1
 42
1.0
 92
        8
 66
     7
 43
1.0
 76
     1
 77
     6
 78
     2
 67
     7
 79
     5
170
     0
171
     0
290
     0
174
     0
 93
        1
 44
0.0
173
     0
291
     1
 45
0.0
  0
VISUALSTYLE
  5
36
102
{ACAD_REACTORS
330
2A
102
}
330
2A
100
AcDbVisualStyle
  2
Brighten
 70
    12
 71
     2
 72
     2
 73
     0
 90
        0
 40
-0.6
 41
-30.0
 62
     5
 63
     7
421
 16777215
 74
     1
 91
        4
 64
     7
 65
   257
 75
     1
175
     1
 42
1.0
 92
        8
 66
     7
 43
1.0
 76
     1
 77
     6
 78
     2
 67
     7
 79
     5
170
     0
171
     0
290
     0
174
     0
 93
        1
 44
50.0
173
     0
291
     1
 45
0.0
  0
VISUALSTYLE
  5
3A
102
{ACAD_REACTORS
330
2A
102
}
330
2A
100
AcDbVisualStyle
  2
ColorChange
 70
    16
 71
     2
 72
     2
 73
     3
 90
        0
 40
-0.6
 41
-30.0
 62
     5
 63
     8
421
  8421504
 74
     1
 91
        4
 64
     7
 65
   257
 75
     1
175
     1
 42
1.0
 92
        8
 66
     8
424
  8421504
 43
1.0
 76
     1
 77
     6
 78
     2
 67
     7
 79
     5
170
     0
171
     0
290
     0
174
     0
 93
        1
 44
0.0
173
     0
291
     1
 45
0.0
  0
VISUALSTYLE
  5
34
102
{ACAD_REACTORS
330
2A
102
}
330
2A
100
AcDbVisualStyle
  2
Conceptual
 70
     9
 71
     3
 72
     2
 73
     0
 90
        0
 40
-0.6
 41
-30.0
 62
     5
 63
     7
421
 16777215
 74
     2
 91
        2
 64
     7
 65
   257
 75
     1
175
     1
 42
40.0
 92
        8
 66
     7
 43
1.0
 76
     1
 77
     6
 78
     2
 67
     7
 79
     3
170
     0
171
     0
290
     0
174
     0
 93
        1
 44
0.0
173
     0
291
     0
 45
0.0
  0
VISUALSTYLE
  5
35
102
{ACAD_REACTORS
330
2A
102
}
330
2A
100
AcDbVisualStyle
  2
Dim
 70
    11
 71
     2
 72
     2
 73
     0
 90
        0
 40
-0.6
 41
-30.0
 62
     5
 63
     7
421
 16777215
 74
     1
 91
        4
 64
     7
 65
   257
 75
     1
175
     1
 42
1.0
 92
        8
 66
     7
 43
1.0
 76
     1
 77
     6
 78
     2
 67
     7
 79
     5
170
     0
171
     0
290
     0
174
     0
 93
        1
 44
-50.0
173
     0
291
     1
 45
0.0
  0
VISUALSTYLE
  5
39
102
{ACAD_REACTORS
330
2A
102
}
330
2A
100
AcDbVisualStyle
  2
Facepattern
 70
    15
 71
     2
 72
     2
 73
     0
 90
        0
 40
-0.6
 41
-30.0
 62
     5
 63
     7
421
 16777215
 74
     1
 91
        4
 64
     7
 65
   257
 75
     1
175
     1
 42
1.0
 92
        8
 66
     7
 43
1.0
 76
     1
 77
     6
 78
     2
 67
     7
 79
     5
170
     0
171
     0
290
     0
174
     0
 93
        1
 44
0.0
173
     0
291
     1
 45
0.0
  0
VISUALSTYLE
  5
2B
102
{ACAD_REACTORS
330
2A
102
}
330
2A
100
AcDbVisualStyle
  2
Flat
 70
     0
 71
     2
 72
     1
 73
     1
 90
        2
 40
-0.6
 41
30.0
 62
     5
 63
     7
421
 16777215
 74
     0
 91
        4
 64
     7
 65
   257
 75
     1
175
     1
 42
1.0
 92
        8
 66
     7
 43
1.0
 76
     1
 77
     6
 78
     2
 67
     7
 79
     5
170
     0
171
     0
290
     0
174
     0
 93
       13
 44
0.0
173
     0
291
     1
 45
0.0
  0
VISUALSTYLE
  5
2C
102
{ACAD_REACTORS
330
2A
102
}
330
2A
100
AcDbVisualStyle
  2
FlatWithEdges
 70
     1
 71
     2
 72
     1
 73
     1
 90
        2
 40
-0.6
 41
30.0
 62
     5
 63
     7
421
 16777215
 74
     1
 91
        4
 64
     7
 65
   257
 75
     1
175
     1
 42
1.0
 92
        0
 66
   257
 43
1.0
 76
     1
 77
     6
 78
     2
 67
     7
 79
     5
170
     0
171
     0
290
     0
174
     0
 93
       13
 44
0.0
173
     0
291
     1
 45
0.0
  0
VISUALSTYLE
  5
2D
102
{ACAD_REACTORS
330
2A
102
}
330
2A
100
AcDbVisualStyle
  2
Gouraud
 70
     2
 71
     2
 72
     2
 73
     1
 90
        2
 40
-0.6
 41
30.0
 62
     5
 63
     7
421
 16777215
 74
     0
 91
        4
 64
     7
 65
   257
 75
     1
175
     1
 42
1.0
 92
        0
 66
     7
 43
1.0
 76
     1
 77
     6
 78
     2
 67
     7
 79
     5
170
     0
171
     0
290
     0
174
     0
 93
       13
 44
0.0
173
     0
291
     1
 45
0.0
  0
VISUALSTYLE
  5
2E
102
{ACAD_REACTORS
330
2A
102
}
330
2A
100
AcDbVisualStyle
  2
GouraudWithEdges
 70
     3
 71
     2
 72
     2
 73
     1
 90
        2
 40
-0.6
 41
30.0
 62
     5
 63
     7
421
 16777215
 74
     1
 91
        4
 64
     7
 65
   257
 75
     1
175
     1
 42
1.0
 92
        0
 66
   257
 43
1.0
 76
     1
 77
     6
 78
     2
 67
     7
 79
     5
170
     0
171
     0
290
     0
174
     0
 93
       13
 44
0.0
173
     0
291
     1
 45
0.0
  0
VISUALSTYLE
  5
38
102
{ACAD_REACTORS
330
2A
102
}
330
2A
100
AcDbVisualStyle
  2
Linepattern
 70
    14
 71
     2
 72
     2
 73
     0
 90
        0
 40
-0.6
 41
-30.0
 62
     5
 63
     7
421
 16777215
 74
     1
 91
        4
 64
     7
 65
   257
 75
     7
175
     7
 42
1.0
 92
        8
 66
     7
 43
1.0
 76
     1
 77
     6
 78
     2
 67
     7
 79
     5
170
     0
171
     0
290
     0
174
     0
 93
        1
 44
0.0
173
     0
291
     1
 45
0.0
  0
VISUALSTYLE
  5
33
102
{ACAD_REACTORS
330
2A
102
}
330
2A
100
AcDbVisualStyle
  2
Realistic
 70
     8
 71
     2
 72
     2
 73
     0
 90
        0
 40
-0.6
 41
-30.0
 62
     5
 63
     7
421
 16777215
 74
     1
 91
        0
 64
     7
 65
   257
 75
     1
175
     1
 42
1.0
 92
        8
 66
     8
424
  7895160
 43
1.0
 76
     1
 77
     6
 78
     2
 67
     7
 79
     5
170
     0
171
     0
290
     0
174
     0
 93
       13
 44
0.0
173
     0
291
     0
 45
0.0
  0
VISUALSTYLE
  5
37
102
{ACAD_REACTORS
330
2A
102
}
330
2A
100
AcDbVisualStyle
  2
Thicken
 70
    13
 71
     2
 72
     2
 73
     0
 90
        0
 40
-0.6
 41
-30.0
 62
     5
 63
     7
421
 16777215
 74
     1
 91
        4
 64
     7
 65
   257
 75
     1
175
     1
 42
1.0
 92
       12
 66
     7
 43
1.0
 76
     1
 77
     6
 78
     2
 67
     7
 79
     5
170
     0
171
     0
290
     0
174
     0
 93
        1
 44
0.0
173
     0
291
     1
 45
0.0
  0
ENDSEC
  0
EOF
