  0
SECTION
  2
HEADER
  9
$ACADVER
  1
AC1021
  9
$ACADMAINTVER
 70
    25
  9
$DWGCODEPAGE
  3
ANSI_1252
  9
$INSBASE
 10
0.0
 20
0.0
 30
0.0
  9
$EXTMIN
 10
0.0
 20
0.0
 30
0.0
  9
$EXTMAX
 10
420.0
 20
297.0
 30
0.0
  9
$LIMMIN
 10
0.0
 20
0.0
  9
$LIMMAX
 10
420.0
 20
297.0
  9
$ORTHOMODE
 70
     0
  9
$REGENMODE
 70
     1
  9
$FILLMODE
 70
     1
  9
$QTEXTMODE
 70
     0
  9
$MIRRTEXT
 70
     1
  9
$LTSCALE
 40
1.0
  9
$ATTMODE
 70
     1
  9
$TEXTSIZE
 40
3.5
  9
$TRACEWID
 40
1.0
  9
$TEXTSTYLE
  7
Standard
  9
$CLAYER
  8
0
  9
$CELTYPE
  6
ByLayer
  9
$CECOLOR
 62
   256
  9
$CELTSCALE
 40
1.0
  9
$DISPSILH
 70
     0
  9
$DIMSCALE
 40
1.0
  9
$DIMASZ
 40
3.302
  9
$DIMEXO
 40
1.0
  9
$DIMDLI
 40
3.75
  9
$DIMRND
 40
0.0
  9
$DIMDLE
 40
0.0
  9
$DIMEXE
 40
1.0
  9
$DIMTP
 40
0.0
  9
$DIMTM
 40
0.0
  9
$DIMTXT
 40
3.5
  9
$DIMCEN
 40
2.5
  9
$DIMTSZ
 40
0.0
  9
$DIMTOL
 70
     0
  9
$DIMLIM
 70
     0
  9
$DIMTIH
 70
     1
  9
$DIMTOH
 70
     1
  9
$DIMSE1
 70
     0
  9
$DIMSE2
 70
     0
  9
$DIMTAD
 70
     1
  9
$DIMZIN
 70
     0
  9
$DIMBLK
  1

  9
$DIMASO
 70
     1
  9
$DIMSHO
 70
     1
  9
$DIMPOST
  1

  9
$DIMAPOST
  1

  9
$DIMALT
 70
     0
  9
$DIMALTD
 70
     3
  9
$DIMALTF
 40
0.0393700787
  9
$DIMLFAC
 40
1.0
  9
$DIMTOFL
 70
     1
  9
$DIMTVP
 40
0.0
  9
$DIMTIX
 70
     0
  9
$DIMSOXD
 70
     0
  9
$DIMSAH
 70
     0
  9
$DIMBLK1
  1

  9
$DIMBLK2
  1

  9
$DIMSTYLE
  2
ISO-25
  9
$DIMCLRD
 70
     0
  9
$DIMCLRE
 70
     0
  9
$DIMCLRT
 70
     0
  9
$DIMTFAC
 40
1.0
  9
$DIMGAP
 40
1.524
  9
$DIMJUST
 70
     0
  9
$DIMSD1
 70
     0
  9
$DIMSD2
 70
     0
  9
$DIMTOLJ
 70
     0
  9
$DIMTZIN
 70
     0
  9
$DIMALTZ
 70
     0
  9
$DIMALTTZ
 70
     0
  9
$DIMUPT
 70
     0
  9
$DIMDEC
 70
     1
  9
$DIMTDEC
 70
     1
  9
$DIMALTU
 70
     2
  9
$DIMALTTD
 70
     3
  9
$DIMTXSTY
  7
Standard
  9
$DIMAUNIT
 70
     0
  9
$DIMADEC
 70
     1
  9
$DIMALTRND
 40
0.0
  9
$DIMAZIN
 70
     0
  9
$DIMDSEP
 70
    44
  9
$DIMATFIT
 70
     3
  9
$DIMFRAC
 70
     0
  9
$DIMLDRBLK
  1

  9
$DIMLUNIT
 70
     2
  9
$DIMLWD
 70
    -2
  9
$DIMLWE
 70
    -2
  9
$DIMTMOVE
 70
     0
  9
$DIMFXL
 40
1.0
  9
$DIMFXLON
 70
     0
  9
$DIMJOGANG
 40
0.7853981634
  9
$DIMTFILL
 70
     0
  9
$DIMTFILLCLR
 70
     0
  9
$DIMARCSYM
 70
     0
  9
$DIMLTYPE
  6

  9
$DIMLTEX1
  6

  9
$DIMLTEX2
  6

  9
$LUNITS
 70
     2
  9
$LUPREC
 70
     1
  9
$SKETCHINC
 40
1.0
  9
$FILLETRAD
 40
10.0
  9
$AUNITS
 70
     0
  9
$AUPREC
 70
     1
  9
$MENU
  1
.
  9
$ELEVATION
 40
0.0
  9
$PELEVATION
 40
0.0
  9
$THICKNESS
 40
0.0
  9
$LIMCHECK
 70
     0
  9
$CHAMFERA
 40
10.0
  9
$CHAMFERB
 40
10.0
  9
$CHAMFERC
 40
20.0
  9
$CHAMFERD
 40
0.0
  9
$SKPOLY
 70
     0
  9
$TDCREATE
 40
2455747.45665147
  9
$TDUCREATE
 40
2455747.414984803
  9
$TDUPDATE
 40
2455747.456651481
  9
$TDUUPDATE
 40
2455747.414984815
  9
$TDINDWG
 40
0.0000000116
  9
$TDUSRTIMER
 40
0.0000000116
  9
$USRTIMER
 70
     1
  9
$ANGBASE
 50
0.0
  9
$ANGDIR
 70
     0
  9
$PDMODE
 70
     0
  9
$PDSIZE
 40
-1.0
  9
$PLINEWID
 40
0.0
  9
$SPLFRAME
 70
     0
  9
$SPLINETYPE
 70
     6
  9
$SPLINESEGS
 70
     8
  9
$HANDSEED
  5
27B
  9
$SURFTAB1
 70
     6
  9
$SURFTAB2
 70
     6
  9
$SURFTYPE
 70
     6
  9
$SURFU
 70
     6
  9
$SURFV
 70
     6
  9
$UCSBASE
  2

  9
$UCSNAME
  2

  9
$UCSORG
 10
0.0
 20
0.0
 30
0.0
  9
$UCSXDIR
 10
1.0
 20
0.0
 30
0.0
  9
$UCSYDIR
 10
0.0
 20
1.0
 30
0.0
  9
$UCSORTHOREF
  2

  9
$UCSORTHOVIEW
 70
     0
  9
$UCSORGTOP
 10
0.0
 20
0.0
 30
0.0
  9
$UCSORGBOTTOM
 10
0.0
 20
0.0
 30
0.0
  9
$UCSORGLEFT
 10
0.0
 20
0.0
 30
0.0
  9
$UCSORGRIGHT
 10
0.0
 20
0.0
 30
0.0
  9
$UCSORGFRONT
 10
0.0
 20
0.0
 30
0.0
  9
$UCSORGBACK
 10
0.0
 20
0.0
 30
0.0
  9
$PUCSBASE
  2

  9
$PUCSNAME
  2

  9
$PUCSORG
 10
0.0
 20
0.0
 30
0.0
  9
$PUCSXDIR
 10
1.0
 20
0.0
 30
0.0
  9
$PUCSYDIR
 10
0.0
 20
1.0
 30
0.0
  9
$PUCSORTHOREF
  2

  9
$PUCSORTHOVIEW
 70
     0
  9
$PUCSORGTOP
 10
0.0
 20
0.0
 30
0.0
  9
$PUCSORGBOTTOM
 10
0.0
 20
0.0
 30
0.0
  9
$PUCSORGLEFT
 10
0.0
 20
0.0
 30
0.0
  9
$PUCSORGRIGHT
 10
0.0
 20
0.0
 30
0.0
  9
$PUCSORGFRONT
 10
0.0
 20
0.0
 30
0.0
  9
$PUCSORGBACK
 10
0.0
 20
0.0
 30
0.0
  9
$USERI1
 70
     0
  9
$USERI2
 70
     0
  9
$USERI3
 70
     0
  9
$USERI4
 70
     0
  9
$USERI5
 70
     0
  9
$USERR1
 40
0.0
  9
$USERR2
 40
0.0
  9
$USERR3
 40
0.0
  9
$USERR4
 40
0.0
  9
$USERR5
 40
0.0
  9
$WORLDVIEW
 70
     1
  9
$SHADEDGE
 70
     3
  9
$SHADEDIF
 70
    70
  9
$TILEMODE
 70
     1
  9
$MAXACTVP
 70
    64
  9
$PINSBASE
 10
0.0
 20
0.0
 30
0.0
  9
$PLIMCHECK
 70
     0
  9
$PEXTMIN
 10
1.0000000000E+20
 20
1.0000000000E+20
 30
1.0000000000E+20
  9
$PEXTMAX
 10
-1.0000000000E+20
 20
-1.0000000000E+20
 30
-1.0000000000E+20
  9
$PLIMMIN
 10
0.0
 20
0.0
  9
$PLIMMAX
 10
420.0
 20
297.0
  9
$UNITMODE
 70
     0
  9
$VISRETAIN
 70
     1
  9
$PLINEGEN
 70
     0
  9
$PSLTSCALE
 70
     1
  9
$TREEDEPTH
 70
  3020
  9
$CMLSTYLE
  2
Standard
  9
$CMLJUST
 70
     0
  9
$CMLSCALE
 40
20.0
  9
$PROXYGRAPHICS
 70
     1
  9
$MEASUREMENT
 70
     1
  9
$CELWEIGHT
370
    -1
  9
$ENDCAPS
280
     0
  9
$JOINSTYLE
280
     0
  9
$LWDISPLAY
290
     1
  9
$INSUNITS
 70
     4
  9
$HYPERLINKBASE
  1

  9
$STYLESHEET
  1

  9
$XEDIT
290
     1
  9
$CEPSNTYPE
380
     0
  9
$PSTYLEMODE
290
     1
  9
$FINGERPRINTGUID
  2
{FD68C880-0DAA-4E34-A458-6DBE558D084B}
  9
$VERSIONGUID
  2
{FAEB1C32-E019-11D5-929B-00C0DF256EC4}
  9
$EXTNAMES
290
     1
  9
$PSVPSCALE
 40
0.0
  9
$OLESTARTUP
290
     0
  9
$SORTENTS
280
   127
  9
$INDEXCTL
280
     0
  9
$HIDETEXT
280
     1
  9
$XCLIPFRAME
290
     0
  9
$HALOGAP
280
     0
  9
$OBSCOLOR
 70
   257
  9
$OBSLTYPE
280
     0
  9
$INTERSECTIONDISPLAY
280
     0
  9
$INTERSECTIONCOLOR
 70
   257
  9
$DIMASSOC
280
     2
  9
$PROJECTNAME
  1

  9
$CAMERADISPLAY
290
     0
  9
$LENSLENGTH
 40
50.0
  9
$CAMERAHEIGHT
 40
0.0
  9
$STEPSPERSEC
 40
2.0
  9
$STEPSIZE
 40
6.0
  9
$3DDWFPREC
 40
2.0
  9
$PSOLWIDTH
 40
5.0
  9
$PSOLHEIGHT
 40
80.0
  9
$LOFTANG1
 40
1.5707963268
  9
$LOFTANG2
 40
1.5707963268
  9
$LOFTMAG1
 40
0.0
  9
$LOFTMAG2
 40
0.0
  9
$LOFTPARAM
 70
     7
  9
$LOFTNORMALS
280
     1
  9
$LATITUDE
 40
37.795
  9
$LONGITUDE
 40
-122.394
  9
$NORTHDIRECTION
 40
0.0
  9
$TIMEZONE
 70
 -8000
  9
$LIGHTGLYPHDISPLAY
280
     1
  9
$TILEMODELIGHTSYNCH
280
     1
  9
$SOLIDHIST
280
     1
  9
$SHOWHIST
280
     1
  9
$DWFFRAME
280
     2
  9
$DGNFRAME
280
     2
  9
$REALWORLDSCALE
290
     1
  9
$INTERFERECOLOR
 62
   256
  9
$CSHADOW
280
     0
  9
$SHADOWPLANELOCATION
 40
0.0
  0
ENDSEC
  0
SECTION
  2
CLASSES
  0
CLASS
  1
ACDBDICTIONARYWDFLT
  2
AcDbDictionaryWithDefault
  3
ObjectDBX Classes
 90
        0
 91
        4
280
     0
281
     0
  0
CLASS
  1
VISUALSTYLE
  2
AcDbVisualStyle
  3
ObjectDBX Classes
 90
     4095
 91
        4
280
     0
281
     0
  0
CLASS
  1
MATERIAL
  2
AcDbMaterial
  3
ObjectDBX Classes
 90
     1153
 91
        4
280
     0
281
     0
  0
ENDSEC
  0
SECTION
  2
TABLES
  0
TABLE
  2
VPORT
  5
8
330
0
100
AcDbSymbolTable
 70
     1
  0
VPORT
  5
29
330
8
100
AcDbSymbolTableRecord
100
AcDbViewportTableRecord
  2
*Active
 70
     0
 10
0.0
 20
0.0
 11
1.0
 21
1.0
 12
210.0
 22
148.5
 13
0.0
 23
0.0
 14
10.0
 24
10.0
 15
10.0
 25
10.0
 16
0.0
 26
0.0
 36
1.0
 17
0.0
 27
0.0
 37
0.0
 40
297.0
 41
1.4141414141
 42
50.0
 43
0.0
 44
0.0
 50
0.0
 51
0.0
 71
     0
 72
  2000
 73
     1
 74
     3
 75
     0
 76
     0
 77
     0
 78
     0
281
     0
 65
     1
110
0.0
120
0.0
130
0.0
111
1.0
121
0.0
131
0.0
112
0.0
122
1.0
132
0.0
 79
     0
146
0.0
 60
     3
 61
     5
292
     1
282
     1
141
0.0
142
0.0
 63
   250
  0
ENDTAB
  0
TABLE
  2
LTYPE
  5
5
330
0
100
AcDbSymbolTable
 70
     6
  0
LTYPE
  5
14
330
5
100
AcDbSymbolTableRecord
100
AcDbLinetypeTableRecord
  2
ByBlock
 70
     0
  3

 72
    65
 73
     0
 40
0.0
  0
LTYPE
  5
15
330
5
100
AcDbSymbolTableRecord
100
AcDbLinetypeTableRecord
  2
ByLayer
 70
     0
  3

 72
    65
 73
     0
 40
0.0
  0
LTYPE
  5
16
330
5
100
AcDbSymbolTableRecord
100
AcDbLinetypeTableRecord
  2
Continuous
 70
     0
  3
Solid line
 72
    65
 73
     0
 40
0.0
  0
LTYPE
  5
3F
330
5
100
AcDbSymbolTableRecord
100
AcDbLinetypeTableRecord
  2
HIDDEN
 70
     0
  3
Hidden __ __ __ __ __ __ __ __ __ __ __ __ __ __
 72
    65
 73
     2
 40
1.905
 49
1.27
 74
     0
 49
-0.635
 74
     0
  0
LTYPE
  5
40
330
5
100
AcDbSymbolTableRecord
100
AcDbLinetypeTableRecord
  2
PHANTOM
 70
     0
  3
Phantom ______  __  __  ______  __  __  ______
 72
    65
 73
     6
 40
12.7
 49
6.35
 74
     0
 49
-1.27
 74
     0
 49
1.27
 74
     0
 49
-1.27
 74
     0
 49
1.27
 74
     0
 49
-1.27
 74
     0
  0
LTYPE
  5
41
330
5
100
AcDbSymbolTableRecord
100
AcDbLinetypeTableRecord
  2
CENTER
 70
     0
  3
Center ____ _ ____ _ ____ _ ____ _ ____ _ ____
 72
    65
 73
     4
 40
10.16
 49
6.35
 74
     0
 49
-1.27
 74
     0
 49
1.27
 74
     0
 49
-1.27
 74
     0
  0
LTYPE
  5
42
330
5
100
AcDbSymbolTableRecord
100
AcDbLinetypeTableRecord
  2
CENTERX2
 70
     0
  3
Center (2x) ________  __  ________  __  _____
 72
    65
 73
     4
 40
20.32
 49
12.7
 74
     0
 49
-2.54
 74
     0
 49
2.54
 74
     0
 49
-2.54
 74
     0
  0
LTYPE
  5
43
330
5
100
AcDbSymbolTableRecord
100
AcDbLinetypeTableRecord
  2
DOT2
 70
     0
  3
Dot (.5x) ........................................
 72
    65
 73
     2
 40
0.635
 49
0.0
 74
     0
 49
-0.635
 74
     0
  0
ENDTAB
  0
TABLE
  2
LAYER
  5
2
330
0
100
AcDbSymbolTable
 70
     4
  0
LAYER
  5
10
330
2
100
AcDbSymbolTableRecord
100
AcDbLayerTableRecord
  2
0
 70
     0
 62
     7
  6
Continuous
370
    -3
390
F
347
3E
  0
LAYER
  5
44
330
2
100
AcDbSymbolTableRecord
100
AcDbLayerTableRecord
  2
FORMAT
 70
     0
 62
     7
  6
Continuous
370
    -3
390
F
347
3E
  0
LAYER
  5
45
330
2
100
AcDbSymbolTableRecord
100
AcDbLayerTableRecord
  2
SLD-0
 70
     0
 62
     1
  6
Continuous
370
    -3
390
F
347
3E
  0
LAYER
  5
46
330
2
100
AcDbSymbolTableRecord
100
AcDbLayerTableRecord
  2
WATERMARK
 70
     0
 62
    20
  6
Continuous
370
    -3
390
F
347
3E
  0
ENDTAB
  0
TABLE
  2
STYLE
  5
3
330
0
100
AcDbSymbolTable
 70
     1
  0
STYLE
  5
11
330
3
100
AcDbSymbolTableRecord
100
AcDbTextStyleTableRecord
  2
Standard
 70
     0
 40
0.0
 41
1.0
 50
0.0
 71
     0
 42
2.5
  3
txt
  4

  0
ENDTAB
  0
TABLE
  2
VIEW
  5
6
330
0
100
AcDbSymbolTable
 70
     0
  0
ENDTAB
  0
TABLE
  2
UCS
  5
7
330
0
100
AcDbSymbolTable
 70
     0
  0
ENDTAB
  0
TABLE
  2
APPID
  5
9
330
0
100
AcDbSymbolTable
 70
     1
  0
APPID
  5
12
330
9
100
AcDbSymbolTableRecord
100
AcDbRegAppTableRecord
  2
ACAD
 70
     0
  0
ENDTAB
  0
TABLE
  2
DIMSTYLE
  5
A
330
0
100
AcDbSymbolTable
 70
     1
100
AcDbDimStyleTable
  0
DIMSTYLE
105
27
330
A
100
AcDbSymbolTableRecord
100
AcDbDimStyleTableRecord
  2
ISO-25
 70
     0
 41
2.5
 42
0.625
 43
3.75
 44
1.25
 73
     0
 74
     0
 77
     1
 78
     8
140
2.5
141
2.5
143
0.0393700787
147
0.625
171
     3
172
     1
271
     2
272
     2
274
     3
278
    44
283
     0
284
     8
340
11
  0
ENDTAB
  0
TABLE
  2
BLOCK_RECORD
  5
1
330
0
100
AcDbSymbolTable
 70
     1
  0
BLOCK_RECORD
  5
1F
330
1
100
AcDbSymbolTableRecord
100
AcDbBlockTableRecord
  2
*Model_Space
340
22
 70
     0
280
     1
281
     0
  0
BLOCK_RECORD
  5
1B
330
1
100
AcDbSymbolTableRecord
100
AcDbBlockTableRecord
  2
*Paper_Space
340
1E
 70
     0
280
     1
281
     0
  0
BLOCK_RECORD
  5
23
330
1
100
AcDbSymbolTableRecord
100
AcDbBlockTableRecord
  2
*Paper_Space0
340
26
 70
     0
280
     1
281
     0
  0
ENDTAB
  0
ENDSEC
  0
SECTION
  2
BLOCKS
  0
BLOCK
  5
20
330
1F
100
AcDbEntity
  8
0
100
AcDbBlockBegin
  2
*Model_Space
 70
     0
 10
0.0
 20
0.0
 30
0.0
  3
*Model_Space
  1

  0
ENDBLK
  5
21
330
1F
100
AcDbEntity
  8
0
100
AcDbBlockEnd
  0
BLOCK
  5
1C
330
1B
100
AcDbEntity
 67
     1
  8
0
100
AcDbBlockBegin
  2
*Paper_Space
 70
     0
 10
0.0
 20
0.0
 30
0.0
  3
*Paper_Space
  1

  0
ENDBLK
  5
1D
330
1B
100
AcDbEntity
 67
     1
  8
0
100
AcDbBlockEnd
  0
BLOCK
  5
24
330
23
100
AcDbEntity
  8
0
100
AcDbBlockBegin
  2
*Paper_Space0
 70
     0
 10
0.0
 20
0.0
 30
0.0
  3
*Paper_Space0
  1

  0
ENDBLK
  5
25
330
23
100
AcDbEntity
  8
0
100
AcDbBlockEnd
  0
ENDSEC
  0
SECTION
  2
ENTITIES
  0
LINE
  5
47
330
1F
100
AcDbEntity
  8
0
  6
Continuous
 62
     7
370
    15
100
AcDbLine
 10
-150.1298905588
 20
-2.8524162092
 30
0.0
 11
-131.5298905588
 21
-2.8524162092
 31
0.0
  0
LINE
  5
48
330
1F
100
AcDbEntity
  8
0
  6
Continuous
 62
     7
370
    15
100
AcDbLine
 10
-131.5298905588
 20
19.1475837908
 30
0.0
 11
-150.1298905588
 21
19.1475837908
 31
0.0
  0
LINE
  5
49
330
1F
100
AcDbEntity
  8
0
  6
Continuous
 62
     7
370
    15
100
AcDbLine
 10
652.9164708403
 20
-14.8550563846
 30
0.0
 11
655.4701094412
 21
-13.8336009442
 31
0.0
  0
LINE
  5
4A
330
1F
100
AcDbEntity
  8
0
  6
Continuous
 62
     7
370
    15
100
AcDbLine
 10
645.4701094412
 20
-17.8336009442
 30
0.0
 11
648.2692634201
 21
-16.7139393527
 31
0.0
  0
LINE
  5
4B
330
1F
100
AcDbEntity
  8
0
  6
Continuous
 62
     7
370
    15
100
AcDbLine
 10
647.7914435018
 20
46.2378654316
 30
0.0
 11
645.4701094412
 21
47.1663990558
 31
0.0
  0
LINE
  5
4C
330
1F
100
AcDbEntity
  8
0
  6
Continuous
 62
     7
370
    15
100
AcDbLine
 10
655.4701094412
 20
43.1663990558
 30
0.0
 11
652.4336846229
 21
44.3809689831
 31
0.0
  0
LINE
  5
4D
330
1F
100
AcDbEntity
  8
0
  6
Continuous
 62
     7
370
    15
100
AcDbLine
 10
655.4701094412
 20
-13.8336009442
 30
0.0
 11
674.8804741186
 21
-5.0989368394
 31
0.0
  0
LINE
  5
4E
330
1F
100
AcDbEntity
  8
0
  6
Continuous
 62
     7
370
    15
100
AcDbLine
 10
655.9260701938
 20
42.9612167171
 30
0.0
 11
655.4701094412
 21
43.1663990558
 31
0.0
  0
ARC
  5
4F
330
1F
100
AcDbEntity
  8
0
  6
Continuous
 62
     7
370
    15
100
AcDbCircle
 10
674.4701094412
 20
-4.1870153342
 30
0.0
 40
1.000000000000114
100
AcDbArc
 50
294.227745318
 51
0.0
  0
LINE
  5
50
330
1F
100
AcDbEntity
  8
0
  6
Continuous
 62
     7
370
    15
100
AcDbLine
 10
548.7701094412
 20
-147.3524162092
 30
0.0
 11
548.7701094412
 21
-143.3524162092
 31
0.0
  0
LINE
  5
51
330
1F
100
AcDbEntity
  8
0
  6
Continuous
 62
     7
370
    15
100
AcDbLine
 10
491.7701094412
 20
-143.3524162092
 30
0.0
 11
491.7701094412
 21
-147.3524162092
 31
0.0
  0
ARC
  5
52
330
1F
100
AcDbEntity
  8
0
  6
Continuous
 62
     7
370
    15
100
AcDbCircle
 10
546.7701094412
 20
-147.3524162092
 30
0.0
 40
2.0
100
AcDbArc
 50
270.0
 51
0.0
  0
ARC
  5
53
330
1F
100
AcDbEntity
  8
0
  6
Continuous
 62
     7
370
    15
100
AcDbCircle
 10
493.7701094412
 20
-147.3524162092
 30
0.0
 40
2.0
100
AcDbArc
 50
180.0
 51
270.0
  0
ARC
  5
54
330
1F
100
AcDbEntity
  8
0
  6
Continuous
 62
     7
370
    15
100
AcDbCircle
 10
-20.3298905588
 20
-52.8524162092
 30
0.0
 40
1.5
100
AcDbArc
 50
90.0
 51
180.0
  0
ARC
  5
55
330
1F
100
AcDbEntity
  8
0
  6
Continuous
 62
     7
370
    15
100
AcDbCircle
 10
-87.1298905588
 20
-52.8524162092
 30
0.0
 40
1.5
100
AcDbArc
 50
0.0
 51
90.0
  0
LINE
  5
56
330
1F
100
AcDbEntity
  8
0
  6
Continuous
 62
     7
370
    15
100
AcDbLine
 10
-21.8298905588
 20
-108.3198502635
 30
0.0
 11
-21.8298905588
 21
-52.8524162092
 31
0.0
  0
LINE
  5
57
330
1F
100
AcDbEntity
  8
0
  6
Continuous
 62
     7
370
    15
100
AcDbLine
 10
-85.6298905588
 20
-52.8524162092
 30
0.0
 11
-85.6298905588
 21
-108.3198502635
 31
0.0
  0
ARC
  5
58
330
1F
100
AcDbEntity
  8
0
  6
Continuous
 62
     7
370
    15
100
AcDbCircle
 10
-26.5298905588
 20
-108.3198502635
 30
0.0
 40
4.699999999999988
100
AcDbArc
 50
350.5402980318
 51
0.0
  0
ARC
  5
59
330
1F
100
AcDbEntity
  8
0
  6
Continuous
 62
     7
370
    15
100
AcDbCircle
 10
-80.9298905588
 20
-108.3198502635
 30
0.0
 40
4.699999999999991
100
AcDbArc
 50
180.0
 51
189.4597019682
  0
LINE
  5
5A
330
1F
100
AcDbEntity
  8
0
  6
Continuous
 62
     7
370
    15
100
AcDbLine
 10
-85.5659773318
 20
-109.092313488
 30
0.0
 11
-84.6895407791
 21
-114.3524162092
 31
0.0
  0
LINE
  5
5B
330
1F
100
AcDbEntity
  8
0
  6
Continuous
 62
     7
370
    15
100
AcDbLine
 10
-22.7702403384
 20
-114.3524162092
 30
0.0
 11
-21.8938037858
 21
-109.092313488
 31
0.0
  0
LINE
  5
5C
330
1F
100
AcDbEntity
  8
0
  6
Continuous
 62
     7
370
    15
100
AcDbLine
 10
-25.2298905588
 20
-147.3524162092
 30
0.0
 11
-25.2298905588
 21
-143.3524162092
 31
0.0
  0
LINE
  5
5D
330
1F
100
AcDbEntity
  8
0
  6
Continuous
 62
     7
370
    15
100
AcDbLine
 10
-82.2298905588
 20
-143.3524162092
 30
0.0
 11
-82.2298905588
 21
-147.3524162092
 31
0.0
  0
ARC
  5
5E
330
1F
100
AcDbEntity
  8
0
  6
Continuous
 62
     7
370
    15
100
AcDbCircle
 10
-27.2298905588
 20
-147.3524162092
 30
0.0
 40
2.000000000000004
100
AcDbArc
 50
270.0
 51
0.0
  0
ARC
  5
5F
330
1F
100
AcDbEntity
  8
0
  6
Continuous
 62
     7
370
    15
100
AcDbCircle
 10
-80.2298905588
 20
-147.3524162092
 30
0.0
 40
2.0
100
AcDbArc
 50
180.0
 51
270.0
  0
LINE
  5
60
330
1F
100
AcDbEntity
  8
0
  6
Continuous
 62
     7
370
    15
100
AcDbLine
 10
-132.7798905588
 20
442.7560706667
 30
0.0
 11
-131.9798905588
 21
442.7560706667
 31
0.0
  0
LINE
  5
61
330
1F
100
AcDbEntity
  8
0
  6
Continuous
 62
     7
370
    15
100
AcDbLine
 10
-131.9798905588
 20
449.1560706667
 30
0.0
 11
-132.7798905588
 21
449.1560706667
 31
0.0
  0
LINE
  5
62
330
1F
100
AcDbEntity
  8
0
  6
Continuous
 62
     7
370
    15
100
AcDbLine
 10
648.2674210708
 20
-16.725446622
 30
0.0
 11
652.9168701968
 21
-14.8656669716
 31
0.0
  0
LINE
  5
63
330
1F
100
AcDbEntity
  8
0
  6
Continuous
 62
     7
370
    15
100
AcDbLine
 10
638.6701094412
 20
2.5521564955
 30
0.0
 11
638.9701094412
 21
3.2372553805
 31
0.0
  0
LINE
  5
64
330
1F
100
AcDbEntity
  8
0
  6
Continuous
 62
     7
370
    15
100
AcDbLine
 10
638.9701094412
 20
26.095542731
 30
0.0
 11
638.6701094412
 21
26.7806416161
 31
0.0
  0
ARC
  5
65
330
1F
100
AcDbEntity
  8
0
  6
Continuous
 62
     7
370
    15
100
AcDbCircle
 10
652.9701094412
 20
9.7663990558
 30
0.0
 40
0.5
100
AcDbArc
 50
270.0
 51
0.0
  0
ARC
  5
66
330
1F
100
AcDbEntity
  8
0
  6
Continuous
 62
     7
370
    15
100
AcDbCircle
 10
652.9701094412
 20
19.5663990558
 30
0.0
 40
0.5
100
AcDbArc
 50
0.0
 51
90.0
  0
LINE
  5
67
330
1F
100
AcDbEntity
  8
0
  6
Continuous
 62
     7
370
    15
100
AcDbLine
 10
638.9701094412
 20
9.2663990558
 30
0.0
 11
652.9701094412
 21
9.2663990558
 31
0.0
  0
LINE
  5
68
330
1F
100
AcDbEntity
  8
0
  6
Continuous
 62
     7
370
    15
100
AcDbLine
 10
652.9701094412
 20
20.0663990558
 30
0.0
 11
638.9701094412
 21
20.0663990558
 31
0.0
  0
LINE
  5
69
330
1F
100
AcDbEntity
  8
0
  6
Continuous
 62
     7
370
    15
100
AcDbLine
 10
529.8201094412
 20
254.4181361517
 30
0.0
 11
529.8201094412
 21
253.3475837908
 31
0.0
  0
LINE
  5
6A
330
1F
100
AcDbEntity
  8
0
  6
Continuous
 62
     7
370
    15
100
AcDbLine
 10
534.8201094412
 20
253.3475837908
 30
0.0
 11
534.8201094412
 21
254.4181361517
 31
0.0
  0
LWPOLYLINE
  5
6B
330
1F
100
AcDbEntity
  8
0
  6
Continuous
 62
     7
370
    15
100
AcDbPolyline
 90
        3
 70
   128
 43
0.0
 10
417.1889578935
 20
231.9475837908
 10
416.609872854
 20
232.8032073343
 10
415.6926734116
 20
233.9475837908
  0
ARC
  5
6C
330
1F
100
AcDbEntity
  8
0
  6
Continuous
 62
     7
370
    15
100
AcDbCircle
 10
404.0701094412
 20
223.685813936
 30
0.0
 40
14.50000000000014
100
AcDbArc
 50
34.7346928811
 51
45.0487581336
  0
LWPOLYLINE
  5
6D
330
1F
100
AcDbEntity
  8
0
  6
Continuous
 62
     7
370
    15
100
AcDbPolyline
 90
        3
 70
   128
 43
0.0
 10
417.1847256714
 20
231.9475837908
 10
416.609872854
 20
232.7964853465
 10
415.6867388769
 20
233.9475837908
  0
LINE
  5
6E
330
1F
100
AcDbEntity
  8
0
  6
Continuous
 62
     7
370
    15
100
AcDbLine
 10
606.3061865322
 20
203.3248936618
 30
0.0
 11
606.2756565404
 21
203.3951078357
 31
0.0
  0
LINE
  5
6F
330
1F
100
AcDbEntity
  8
0
  6
Continuous
 62
     7
370
    15
100
AcDbLine
 10
-152.1298905588
 20
-2.8524162092
 30
0.0
 11
-150.1298905588
 21
-0.8524162092
 31
0.0
  0
LINE
  5
70
330
1F
100
AcDbEntity
  8
0
  6
Continuous
 62
     7
370
    15
100
AcDbLine
 10
-150.1298905588
 20
17.1475837908
 30
0.0
 11
-152.1298905588
 21
19.1475837908
 31
0.0
  0
LINE
  5
71
330
1F
100
AcDbEntity
  8
0
  6
Continuous
 62
     7
370
    15
100
AcDbLine
 10
-152.1298905588
 20
19.1475837908
 30
0.0
 11
-154.1298905588
 21
17.1475837908
 31
0.0
  0
LINE
  5
72
330
1F
100
AcDbEntity
  8
0
  6
Continuous
 62
     7
370
    15
100
AcDbLine
 10
-154.1298905588
 20
-0.8524162092
 30
0.0
 11
-152.1298905588
 21
-2.8524162092
 31
0.0
  0
LINE
  5
73
330
1F
100
AcDbEntity
  8
0
  6
Continuous
 62
     7
370
    15
100
AcDbLine
 10
598.8880779574
 20
200.2552790749
 30
0.0
 11
599.2242006563
 21
199.4822497908
 31
0.0
  0
LINE
  5
74
330
1F
100
AcDbEntity
  8
0
  6
Continuous
 62
     7
370
    15
100
AcDbLine
 10
312.3201094412
 20
233.9475837908
 30
0.0
 11
312.3201094412
 21
231.9475837908
 31
0.0
  0
LINE
  5
75
330
1F
100
AcDbEntity
  8
0
  6
Continuous
 62
     7
370
    15
100
AcDbLine
 10
317.3201094412
 20
231.9475837908
 30
0.0
 11
317.3201094412
 21
233.9475837908
 31
0.0
  0
LINE
  5
76
330
1F
100
AcDbEntity
  8
0
  6
Continuous
 62
     7
370
    15
100
AcDbLine
 10
-156.1298905588
 20
19.1475837908
 30
0.0
 11
-158.1298905588
 21
17.1475837908
 31
0.0
  0
LINE
  5
77
330
1F
100
AcDbEntity
  8
0
  6
Continuous
 62
     7
370
    15
100
AcDbLine
 10
-158.1298905588
 20
-0.8524162092
 30
0.0
 11
-156.1298905588
 21
-2.8524162092
 31
0.0
  0
LINE
  5
78
330
1F
100
AcDbEntity
  8
0
  6
Continuous
 62
     7
370
    15
100
AcDbLine
 10
-156.1298905588
 20
-2.8524162092
 30
0.0
 11
-154.1298905588
 21
-0.8524162092
 31
0.0
  0
LINE
  5
79
330
1F
100
AcDbEntity
  8
0
  6
Continuous
 62
     7
370
    15
100
AcDbLine
 10
-154.1298905588
 20
17.1475837908
 30
0.0
 11
-156.1298905588
 21
19.1475837908
 31
0.0
  0
LINE
  5
7A
330
1F
100
AcDbEntity
  8
0
  6
Continuous
 62
     7
370
    15
100
AcDbLine
 10
-160.1298905588
 20
-2.8524162092
 30
0.0
 11
-158.1298905588
 21
-0.8524162092
 31
0.0
  0
LINE
  5
7B
330
1F
100
AcDbEntity
  8
0
  6
Continuous
 62
     7
370
    15
100
AcDbLine
 10
-158.1298905588
 20
17.1475837908
 30
0.0
 11
-160.1298905588
 21
19.1475837908
 31
0.0
  0
LINE
  5
7C
330
1F
100
AcDbEntity
  8
0
  6
Continuous
 62
     7
370
    15
100
AcDbLine
 10
-160.1298905588
 20
19.1475837908
 30
0.0
 11
-162.1298905588
 21
17.1475837908
 31
0.0
  0
LINE
  5
7D
330
1F
100
AcDbEntity
  8
0
  6
Continuous
 62
     7
370
    15
100
AcDbLine
 10
-162.1298905588
 20
-0.8524162092
 30
0.0
 11
-160.1298905588
 21
-2.8524162092
 31
0.0
  0
LINE
  5
7E
330
1F
100
AcDbEntity
  8
0
  6
Continuous
 62
     7
370
    15
100
AcDbLine
 10
548.5701094412
 20
-143.3524162092
 30
0.0
 11
548.5701094412
 21
-114.3524162092
 31
0.0
  0
LINE
  5
7F
330
1F
100
AcDbEntity
  8
0
  6
Continuous
 62
     7
370
    15
100
AcDbLine
 10
491.9701094412
 20
-114.3524162092
 30
0.0
 11
491.9701094412
 21
-143.3524162092
 31
0.0
  0
LINE
  5
80
330
1F
100
AcDbEntity
  8
0
  6
Continuous
 62
     7
370
    15
100
AcDbLine
 10
-164.1298905588
 20
-2.8524162092
 30
0.0
 11
-162.1298905588
 21
-0.8524162092
 31
0.0
  0
LINE
  5
81
330
1F
100
AcDbEntity
  8
0
  6
Continuous
 62
     7
370
    15
100
AcDbLine
 10
-162.1298905588
 20
17.1475837908
 30
0.0
 11
-164.1298905588
 21
19.1475837908
 31
0.0
  0
LINE
  5
82
330
1F
100
AcDbEntity
  8
0
  6
Continuous
 62
     7
370
    15
100
AcDbLine
 10
-164.1298905588
 20
19.1475837908
 30
0.0
 11
-166.1298905588
 21
17.1475837908
 31
0.0
  0
LINE
  5
83
330
1F
100
AcDbEntity
  8
0
  6
Continuous
 62
     7
370
    15
100
AcDbLine
 10
-166.1298905588
 20
-0.8524162092
 30
0.0
 11
-164.1298905588
 21
-2.8524162092
 31
0.0
  0
LINE
  5
84
330
1F
100
AcDbEntity
  8
0
  6
Continuous
 62
     7
370
    15
100
AcDbLine
 10
652.4400302485
 20
44.3892010625
 30
0.0
 11
647.7925769422
 21
46.248182385
 31
0.0
  0
ARC
  5
85
330
1F
100
AcDbEntity
  8
0
  6
Continuous
 62
     7
370
    15
100
AcDbCircle
 10
553.6701094412
 20
-52.8524162092
 30
0.0
 40
1.5
100
AcDbArc
 50
90.0
 51
180.0
  0
ARC
  5
86
330
1F
100
AcDbEntity
  8
0
  6
Continuous
 62
     7
370
    15
100
AcDbCircle
 10
486.8701094412
 20
-52.8524162092
 30
0.0
 40
1.5
100
AcDbArc
 50
0.0
 51
90.0
  0
ARC
  5
87
330
1F
100
AcDbEntity
  8
0
  6
Continuous
 62
     7
370
    15
100
AcDbCircle
 10
547.4701094412
 20
-108.3198502635
 30
0.0
 40
4.700000000000045
100
AcDbArc
 50
350.5402980318
 51
0.0
  0
ARC
  5
88
330
1F
100
AcDbEntity
  8
0
  6
Continuous
 62
     7
370
    15
100
AcDbCircle
 10
493.0701094412
 20
-108.3198502635
 30
0.0
 40
4.700000000000006
100
AcDbArc
 50
180.0
 51
189.4597019682
  0
LINE
  5
89
330
1F
100
AcDbEntity
  8
0
  6
Continuous
 62
     7
370
    15
100
AcDbLine
 10
552.1701094412
 20
-108.3198502635
 30
0.0
 11
552.1701094412
 21
-52.8524162092
 31
0.0
  0
LINE
  5
8A
330
1F
100
AcDbEntity
  8
0
  6
Continuous
 62
     7
370
    15
100
AcDbLine
 10
488.3701094412
 20
-52.8524162092
 30
0.0
 11
488.3701094412
 21
-108.3198502635
 31
0.0
  0
LINE
  5
8B
330
1F
100
AcDbEntity
  8
0
  6
Continuous
 62
     7
370
    15
100
AcDbLine
 10
488.4340226682
 20
-109.092313488
 30
0.0
 11
489.3104592209
 21
-114.3524162092
 31
0.0
  0
LINE
  5
8C
330
1F
100
AcDbEntity
  8
0
  6
Continuous
 62
     7
370
    15
100
AcDbLine
 10
551.2297596616
 20
-114.3524162092
 30
0.0
 11
552.1061962142
 21
-109.092313488
 31
0.0
  0
LINE
  5
8D
330
1F
100
AcDbEntity
  8
0
  6
Continuous
 62
     7
370
    15
100
AcDbLine
 10
-25.4298905588
 20
-143.3524162092
 30
0.0
 11
-25.4298905588
 21
-114.3524162092
 31
0.0
  0
LINE
  5
8E
330
1F
100
AcDbEntity
  8
0
  6
Continuous
 62
     7
370
    15
100
AcDbLine
 10
-82.0298905588
 20
-114.3524162092
 30
0.0
 11
-82.0298905588
 21
-143.3524162092
 31
0.0
  0
ARC
  5
8F
330
1F
100
AcDbEntity
  8
0
  6
Continuous
 62
     7
370
    15
100
AcDbCircle
 10
404.0701094412
 20
223.6085055111
 30
0.0
 40
14.50000000000025
100
AcDbArc
 50
35.1072551646
 51
45.4827897802
  0
LINE
  5
90
330
1F
100
AcDbEntity
  8
0
  6
Continuous
 62
     7
370
    15
100
AcDbLine
 10
-150.1298905588
 20
19.1475837908
 30
0.0
 11
-150.1298905588
 21
-2.8524162092
 31
0.0
  0
LINE
  5
91
330
1F
100
AcDbEntity
  8
0
  6
Continuous
 62
     7
370
    15
100
AcDbLine
 10
655.4701094412
 20
38.3661773704
 30
0.0
 11
655.4701094412
 21
43.1663990558
 31
0.0
  0
LINE
  5
92
330
1F
100
AcDbEntity
  8
0
  6
Continuous
 62
     7
370
    15
100
AcDbLine
 10
654.8415001176
 20
-7.9286676509
 30
0.0
 11
654.8415001176
 21
37.2614657625
 31
0.0
  0
LINE
  5
93
330
1F
100
AcDbEntity
  8
0
  6
Continuous
 62
     7
370
    15
100
AcDbLine
 10
655.4701094412
 20
-13.8336009442
 30
0.0
 11
655.4701094412
 21
-9.0333792588
 31
0.0
  0
LINE
  5
94
330
1F
100
AcDbEntity
  8
0
  6
Continuous
 62
   142
420
    32960
370
     0
100
AcDbLine
 10
652.9106312649
 20
-14.8404574462
 30
0.0
 11
652.9106312901
 21
-14.840457509
 31
0.0
  0
LINE
  5
95
330
1F
100
AcDbEntity
  8
0
  6
Continuous
 62
   142
420
    32960
370
     0
100
AcDbLine
 10
648.2637696641
 20
-16.7002049626
 30
0.0
 11
652.9106312398
 21
-14.8404573834
 31
0.0
  0
LINE
  5
96
330
1F
100
AcDbEntity
  8
0
  6
Continuous
 62
   142
420
    32960
370
     0
100
AcDbLine
 10
648.2637697114
 20
-16.7002050809
 30
0.0
 11
648.2637696877
 21
-16.7002050218
 31
0.0
  0
LINE
  5
97
330
1F
100
AcDbEntity
  8
0
  6
Continuous
 62
   142
420
    32960
370
     0
100
AcDbLine
 10
652.9106312901
 20
-14.840457509
 30
0.0
 11
648.2637697114
 21
-16.7002050809
 31
0.0
  0
LINE
  5
98
330
1F
100
AcDbEntity
  8
0
  6
Continuous
 62
   142
420
    32960
370
     0
100
AcDbLine
 10
652.9076571587
 20
-10.5885985907
 30
0.0
 11
652.9080270825
 21
-11.1064955563
 31
0.0
  0
SPLINE
  5
99
330
1F
100
AcDbEntity
  8
0
  6
Continuous
 62
   142
420
    32960
370
     0
100
AcDbSpline
210
0.0
220
0.0
230
1.0
 70
     8
 71
     3
 72
     8
 73
     4
 74
     0
 42
0.00000001
 43
0.00000001
 40
0.0
 40
0.0
 40
0.0
 40
0.0
 40
1.0
 40
1.0
 40
1.0
 40
1.0
 10
648.2607896939168
 20
-12.16977371660316
 30
0.0
 10
648.2610085838601
 20
-12.51535226486747
 30
0.0
 10
648.2612274738032
 20
-12.84275631330378
 30
0.0
 10
648.2614463637465
 20
-13.1513217183688
 30
0.0
  0
LINE
  5
9A
330
1F
100
AcDbEntity
  8
0
  6
Continuous
 62
   142
420
    32960
370
     0
100
AcDbLine
 10
652.9076522541
 20
-10.5793901063
 30
0.0
 11
648.2607896939
 21
-12.1697737166
 31
0.0
  0
SPLINE
  5
9B
330
1F
100
AcDbEntity
  8
0
  6
Continuous
 62
   142
420
    32960
370
     0
100
AcDbSpline
210
0.0
220
0.0
230
1.0
 70
     8
 71
     3
 72
     8
 73
     4
 74
     0
 42
0.00000001
 43
0.00000001
 40
0.0
 40
0.0
 40
0.0
 40
0.0
 40
1.0
 40
1.0
 40
1.0
 40
1.0
 10
652.9083089996731
 20
-11.50299553649181
 30
0.0
 10
652.9080900844724
 20
-11.21264531831936
 30
0.0
 10
652.9078711692716
 20
-10.90456848696886
 30
0.0
 10
652.9076522540709
 20
-10.57939010629721
 30
0.0
  0
LINE
  5
9C
330
1F
100
AcDbEntity
  8
0
  6
Continuous
 62
   142
420
    32960
370
     0
100
AcDbLine
 10
648.2614463637
 20
-13.1513217184
 30
0.0
 11
652.9083089997
 21
-11.5029955365
 31
0.0
  0
SPLINE
  5
9D
330
1F
100
AcDbEntity
  8
0
  6
Continuous
 62
   142
420
    32960
370
     0
100
AcDbSpline
210
0.0
220
0.0
230
1.0
 70
     8
 71
     3
 72
     8
 73
     4
 74
     0
 42
0.00000001
 43
0.00000001
 40
0.0
 40
0.0
 40
0.0
 40
0.0
 40
1.0
 40
1.0
 40
1.0
 40
1.0
 10
648.2533850713372
 20
-1.745642341652143
 30
0.0
 10
648.2537998819453
 20
-2.313836674838032
 30
0.0
 10
648.2542146925535
 20
-2.870910807578314
 30
0.0
 10
648.2546295031617
 20
-3.41573475603324
 30
0.0
  0
LINE
  5
9E
330
1F
100
AcDbEntity
  8
0
  6
Continuous
 62
   142
420
    32960
370
     0
100
AcDbLine
 10
652.9002064606
 20
-0.7203396424
 30
0.0
 11
648.2533850713
 21
-1.7456423417
 31
0.0
  0
SPLINE
  5
9F
330
1F
100
AcDbEntity
  8
0
  6
Continuous
 62
   142
420
    32960
370
     0
100
AcDbSpline
210
0.0
220
0.0
230
1.0
 70
     8
 71
     3
 72
     8
 73
     4
 74
     0
 42
0.00000001
 43
0.00000001
 40
0.0
 40
0.0
 40
0.0
 40
0.0
 40
1.0
 40
1.0
 40
1.0
 40
1.0
 10
652.9015292283433
 20
-2.390508054549545
 30
0.0
 10
652.9010883057484
 20
-1.846417063399691
 30
0.0
 10
652.9006473831537
 20
-1.289268667553883
 30
0.0
 10
652.9002064605589
 20
-0.7203396423736408
 30
0.0
  0
LINE
  5
A0
330
1F
100
AcDbEntity
  8
0
  6
Continuous
 62
   142
420
    32960
370
     0
100
AcDbLine
 10
648.2546295032
 20
-3.415734756
 30
0.0
 11
652.9015292283
 21
-2.3905080545
 31
0.0
  0
SPLINE
  5
A1
330
1F
100
AcDbEntity
  8
0
  6
Continuous
 62
   142
420
    32960
370
     0
100
AcDbSpline
210
0.0
220
0.0
230
1.0
 70
     8
 71
     3
 72
    15
 73
    11
 74
     0
 42
0.00000001
 43
0.00000001
 40
0.0
 40
0.0
 40
0.0
 40
0.0
 40
0.0627389182944015
 40
0.1254595421553887
 40
0.2507112017507976
 40
0.499938728648878
 40
0.749230785837152
 40
0.8745322792780943
 40
0.9372585706825022
 40
1.0
 40
1.0
 40
1.0
 40
1.0
 10
648.8060357410642
 20
-15.51872262152668
 30
0.0
 10
648.8070018285763
 20
-15.52790513939814
 30
0.0
 10
648.8089337218927
 20
-15.54626749755322
 30
0.0
 10
648.8278527898142
 20
-15.57614045257208
 30
0.0
 10
648.8954422779046
 20
-15.61195185908631
 30
0.0
 10
649.1038367790525
 20
-15.60464745875104
 30
0.0
 10
649.4085530904075
 20
-15.53281052858335
 30
0.0
 10
649.649935714858
 20
-15.45422800059237
 30
0.0
 10
649.7914676172578
 20
-15.40395869674868
 30
0.0
 10
649.8629469512299
 20
-15.37704460768433
 30
0.0
 10
649.8986909302733
 20
-15.36358593953496
 30
0.0
  0
SPLINE
  5
A2
330
1F
100
AcDbEntity
  8
0
  6
Continuous
 62
   142
420
    32960
370
     0
100
AcDbSpline
210
0.0
220
0.0
230
1.0
 70
     8
 71
     3
 72
    16
 73
    12
 74
     0
 42
0.00000001
 43
0.00000001
 40
0.0
 40
0.0
 40
0.0
 40
0.0
 40
0.0626540930373699
 40
0.1252834762196555
 40
0.2504003908103877
 40
0.4994192544071873
 40
0.6244795471335965
 40
0.7495568271934683
 40
0.8747021681126786
 40
0.937342069187761
 40
0.9999999999999999
 40
0.9999999999999999
 40
0.9999999999999999
 40
0.9999999999999999
 10
649.7693879330249
 20
-14.85857213825959
 30
0.0
 10
649.7369380073612
 20
-14.87143091608734
 30
0.0
 10
649.6720509538086
 20
-14.89714340042947
 30
0.0
 10
649.5434938953841
 20
-14.95240105756279
 30
0.0
 10
649.326796303362
 20
-15.05685156532036
 30
0.0
 10
649.1094340742711
 20
-15.18650214442185
 30
0.0
 10
648.9476580218143
 20
-15.30810654296616
 30
0.0
 10
648.8621623517563
 20
-15.39142661618678
 30
0.0
 10
648.8223437260781
 20
-15.45088689074162
 30
0.0
 10
648.8085636181124
 20
-15.49154453226598
 30
0.0
 10
648.8068784475762
 20
-15.50966238941651
 30
0.0
 10
648.8060357410642
 20
-15.51872262152668
 30
0.0
  0
SPLINE
  5
A3
330
1F
100
AcDbEntity
  8
0
  6
Continuous
 62
   142
420
    32960
370
     0
100
AcDbSpline
210
0.0
220
0.0
230
1.0
 70
     8
 71
     3
 72
    14
 73
    10
 74
     0
 42
0.00000001
 43
0.00000001
 40
0.0
 40
0.0
 40
0.0
 40
0.0
 40
0.2500974778386004
 40
0.5001162364899097
 40
0.6251211881946264
 40
0.7500431373235875
 40
0.874963037551292
 40
0.9374725204057177
 40
1.0
 40
1.0
 40
1.0
 40
1.0
 10
650.948332842739
 20
-14.59070656699163
 30
0.0
 10
650.8628247525463
 20
-14.6020787717476
 30
0.0
 10
650.6918354861763
 20
-14.62481960181236
 30
0.0
 10
650.4651207333299
 20
-14.66034705464528
 30
0.0
 10
650.2692417507079
 20
-14.69984455097051
 30
0.0
 10
650.1094637718799
 20
-14.74162567555745
 30
0.0
 10
649.9694503501936
 20
-14.78539748662999
 30
0.0
 10
649.8552818253755
 20
-14.82613375718186
 30
0.0
 10
649.7980219776376
 20
-14.8477583070834
 30
0.0
 10
649.7693879330249
 20
-14.85857213825959
 30
0.0
  0
SPLINE
  5
A4
330
1F
100
AcDbEntity
  8
0
  6
Continuous
 62
   142
420
    32960
370
     0
100
AcDbSpline
210
0.0
220
0.0
230
1.0
 70
     8
 71
     3
 72
     9
 73
     5
 74
     0
 42
0.00000001
 43
0.00000001
 40
0.0
 40
0.0
 40
0.0
 40
0.0
 40
0.4988438725414046
 40
1.0
 40
1.0
 40
1.0
 40
1.0
 10
651.8197692954906
 20
-14.46792706996419
 30
0.0
 10
651.6754054603076
 20
-14.48965131521257
 30
0.0
 10
651.3860086306995
 20
-14.53320050253185
 30
0.0
 10
651.0944494917434
 20
-14.57150835299981
 30
0.0
 10
650.948332842739
 20
-14.59070656699163
 30
0.0
  0
SPLINE
  5
A5
330
1F
100
AcDbEntity
  8
0
  6
Continuous
 62
   142
420
    32960
370
     0
100
AcDbSpline
210
0.0
220
0.0
230
1.0
 70
     8
 71
     3
 72
    10
 73
     6
 74
     0
 42
0.00000001
 43
0.00000001
 40
0.0
 40
0.0
 40
0.0
 40
0.0
 40
0.3333417862705977
 40
0.6666652411999003
 40
1.0
 40
1.0
 40
1.0
 40
1.0
 10
651.8126693490187
 20
-14.05228063939226
 30
0.0
 10
651.8147902743508
 20
-14.10167719398894
 30
0.0
 10
651.8190320083797
 20
-14.2004675867359
 30
0.0
 10
651.8213988302384
 20
-14.33904265619532
 30
0.0
 10
651.8203124798798
 20
-14.42496511307359
 30
0.0
 10
651.8197692954906
 20
-14.46792706996419
 30
0.0
  0
LINE
  5
A6
330
1F
100
AcDbEntity
  8
0
  6
Continuous
 62
   142
420
    32960
370
     0
100
AcDbLine
 10
651.812669349
 20
-14.0522806394
 30
0.0
 11
652.1257599934
 21
-13.9307246243
 31
0.0
  0
SPLINE
  5
A7
330
1F
100
AcDbEntity
  8
0
  6
Continuous
 62
   142
420
    32960
370
     0
100
AcDbSpline
210
0.0
220
0.0
230
1.0
 70
     8
 71
     3
 72
    11
 73
     7
 74
     0
 42
0.00000001
 43
0.00000001
 40
0.0
 40
0.0
 40
0.0
 40
0.0
 40
0.2500135197141969
 40
0.4999998306409335
 40
0.7499862262783672
 40
1.0
 40
1.0
 40
1.0
 40
1.0
 10
652.1260628022665
 20
-14.5169530784548
 30
0.0
 10
652.1283643396607
 20
-14.47374696556714
 30
0.0
 10
652.1329671639744
 20
-14.3873394418812
 30
0.0
 10
652.1346369786119
 20
-14.24497614842893
 30
0.0
 10
652.1328157480846
 20
-14.09415548210641
 30
0.0
 10
652.128111997491
 20
-13.98520356548233
 30
0.0
 10
652.1257599934145
 20
-13.93072462427661
 30
0.0
  0
SPLINE
  5
A8
330
1F
100
AcDbEntity
  8
0
  6
Continuous
 62
   142
420
    32960
370
     0
100
AcDbSpline
210
0.0
220
0.0
230
1.0
 70
     8
 71
     3
 72
     9
 73
     5
 74
     0
 42
0.00000001
 43
0.00000001
 40
0.0
 40
0.0
 40
0.0
 40
0.0
 40
0.50176160330658
 40
1.0
 40
1.0
 40
1.0
 40
1.0
 10
650.7942860254867
 20
-14.72590353478873
 30
0.0
 10
651.0183279177872
 20
-14.69411283800778
 30
0.0
 10
651.4648385531651
 20
-14.63075466836805
 30
0.0
 10
651.9061730234075
 20
-14.55479773777246
 30
0.0
 10
652.1260628022665
 20
-14.5169530784548
 30
0.0
  0
SPLINE
  5
A9
330
1F
100
AcDbEntity
  8
0
  6
Continuous
 62
   142
420
    32960
370
     0
100
AcDbSpline
210
0.0
220
0.0
230
1.0
 70
     8
 71
     3
 72
    15
 73
    11
 74
     0
 42
0.00000001
 43
0.00000001
 40
0.0
 40
0.0
 40
0.0
 40
0.0
 40
0.0625225562660673
 40
0.1250175500020988
 40
0.2498984740543636
 40
0.3747964627399361
 40
0.4998086389832603
 40
0.624849768424663
 40
0.7498979887158286
 40
1.0
 40
1.0
 40
1.0
 40
1.0
 10
649.7808507127165
 20
-14.94844659412364
 30
0.0
 10
649.8059937871762
 20
-14.93896440020281
 30
0.0
 10
649.8562688519879
 20
-14.9200041925045
 30
0.0
 10
649.9561730846257
 20
-14.88515490901215
 30
0.0
 10
650.0777925993036
 20
-14.84847610971035
 30
0.0
 10
650.2131433703614
 20
-14.81604677803672
 30
0.0
 10
650.3368045877052
 20
-14.79329252804984
 30
0.0
 10
650.4550025602272
 20
-14.77427851365437
 30
0.0
 10
650.6094400434337
 20
-14.75083195961466
 30
0.0
 10
650.7203473032874
 20
-14.73587494913922
 30
0.0
 10
650.7942860254867
 20
-14.72590353478873
 30
0.0
  0
SPLINE
  5
AA
330
1F
100
AcDbEntity
  8
0
  6
Continuous
 62
   142
420
    32960
370
     0
100
AcDbSpline
210
0.0
220
0.0
230
1.0
 70
     8
 71
     3
 72
    16
 73
    12
 74
     0
 42
0.00000001
 43
0.00000001
 40
0.0
 40
0.0
 40
0.0
 40
0.0
 40
0.0626599260637291
 40
0.1253019578002377
 40
0.2504449960665358
 40
0.3738457391778539
 40
0.500693712205861
 40
0.7496664579127047
 40
0.8747118482845829
 40
0.9373482840481372
 40
1.0
 40
1.0
 40
1.0
 40
1.0
 10
649.1156174585038
 20
-15.40344949656963
 30
0.0
 10
649.1161254595312
 20
-15.39721850804535
 30
0.0
 10
649.1171413165115
 20
-15.38475831043304
 30
0.0
 10
649.1282943064781
 20
-15.35621189055883
 30
0.0
 10
649.1563464810595
 20
-15.31543342435271
 30
0.0
 10
649.2176761377206
 20
-15.25788495696409
 30
0.0
 10
649.3269096965507
 20
-15.1752697306308
 30
0.0
 10
649.4743024083829
 20
-15.08573423023535
 30
0.0
 10
649.6245356389256
 20
-15.01370720343931
 30
0.0
 10
649.7133260722867
 20
-14.97504661808827
 30
0.0
 10
649.7583406692411
 20
-14.95731398967115
 30
0.0
 10
649.7808507127165
 20
-14.94844659412364
 30
0.0
  0
SPLINE
  5
AB
330
1F
100
AcDbEntity
  8
0
  6
Continuous
 62
   142
420
    32960
370
     0
100
AcDbSpline
210
0.0
220
0.0
230
1.0
 70
     8
 71
     3
 72
    16
 73
    12
 74
     0
 42
0.00000001
 43
0.00000001
 40
0.0
 40
0.0
 40
0.0
 40
0.0
 40
0.125100436572071
 40
0.2501607816925348
 40
0.3782180428461419
 40
0.5000937578665342
 40
0.627157097101387
 40
0.7499350319615319
 40
0.8748712563419196
 40
0.9374268061341304
 40
1.0
 40
1.0
 40
1.0
 40
1.0
 10
649.9020536944687
 20
-15.28943362279223
 30
0.0
 10
649.8517274462876
 20
-15.30768090803022
 30
0.0
 10
649.7510910781847
 20
-15.34416963072366
 30
0.0
 10
649.6031853637343
 20
-15.39182262794328
 30
0.0
 10
649.4644564959817
 20
-15.43050214550809
 30
0.0
 10
649.3410031689593
 20
-15.45615778617604
 30
0.0
 10
649.2399608714052
 20
-15.4673124754208
 30
0.0
 10
649.1662386144884
 20
-15.46194609551391
 30
0.0
 10
649.1315367418209
 20
-15.44391547912893
 30
0.0
 10
649.1172265387775
 20
-15.42307532349249
 30
0.0
 10
649.1161538690133
 20
-15.40999205382304
 30
0.0
 10
649.1156174585038
 20
-15.40344949656963
 30
0.0
  0
SPLINE
  5
AC
330
1F
100
AcDbEntity
  8
0
  6
Continuous
 62
   142
420
    32960
370
     0
100
AcDbSpline
210
0.0
220
0.0
230
1.0
 70
     8
 71
     3
 72
     8
 73
     4
 74
     0
 42
0.00000001
 43
0.00000001
 40
0.0
 40
0.0
 40
0.0
 40
0.0
 40
1.0
 40
1.0
 40
1.0
 40
1.0
 10
649.8986909302733
 20
-15.36358593953496
 30
0.0
 10
649.8998118516716
 20
-15.33946232835645
 30
0.0
 10
649.9009327730703
 20
-15.31474438204677
 30
0.0
 10
649.9020536944687
 20
-15.28943362279223
 30
0.0
  0
LINE
  5
AD
330
1F
100
AcDbEntity
  8
0
  6
Continuous
 62
   142
420
    32960
370
     0
100
AcDbLine
 10
648.8909377708
 20
-7.886825016
 30
0.0
 11
652.1286701687
 21
-6.9409044075
 31
0.0
  0
SPLINE
  5
AE
330
1F
100
AcDbEntity
  8
0
  6
Continuous
 62
   142
420
    32960
370
     0
100
AcDbSpline
210
0.0
220
0.0
230
1.0
 70
     8
 71
     3
 72
     8
 73
     4
 74
     0
 42
0.00000001
 43
0.00000001
 40
0.0
 40
0.0
 40
0.0
 40
0.0
 40
1.0
 40
1.0
 40
1.0
 40
1.0
 10
652.1290040746384
 20
-7.177774580416102
 30
0.0
 10
652.1288927726634
 20
-7.099305312534582
 30
0.0
 10
652.1287814706884
 20
-7.020346822657785
 30
0.0
 10
652.1286701687135
 20
-6.94090440751785
 30
0.0
  0
LINE
  5
AF
330
1F
100
AcDbEntity
  8
0
  6
Continuous
 62
   142
420
    32960
370
     0
100
AcDbLine
 10
652.1290040746
 20
-7.1777745804
 30
0.0
 11
649.2083332312
 21
-8.0313994358
 31
0.0
  0
SPLINE
  5
B0
330
1F
100
AcDbEntity
  8
0
  6
Continuous
 62
   142
420
    32960
370
     0
100
AcDbSpline
210
0.0
220
0.0
230
1.0
 70
     8
 71
     3
 72
     9
 73
     5
 74
     0
 42
0.00000001
 43
0.00000001
 40
0.0
 40
0.0
 40
0.0
 40
0.0
 40
0.5000010319187155
 40
1.0
 40
1.0
 40
1.0
 40
1.0
 10
649.2064134071092
 20
-8.401506131528347
 30
0.0
 10
649.2069418454256
 20
-8.340206294491532
 30
0.0
 10
649.2079987198773
 20
-8.21760687344325
 30
0.0
 10
649.2082217275832
 20
-8.093468496313093
 30
0.0
 10
649.2083332312061
 20
-8.031399435848824
 30
0.0
  0
SPLINE
  5
B1
330
1F
100
AcDbEntity
  8
0
  6
Continuous
 62
   142
420
    32960
370
     0
100
AcDbSpline
210
0.0
220
0.0
230
1.0
 70
     8
 71
     3
 72
     8
 73
     4
 74
     0
 42
0.00000001
 43
0.00000001
 40
0.0
 40
0.0
 40
0.0
 40
0.0
 40
1.0
 40
1.0
 40
1.0
 40
1.0
 10
648.8905430167468
 20
-8.353525558026625
 30
0.0
 10
648.9958331468677
 20
-8.369888923424329
 30
0.0
 10
649.1011232769883
 20
-8.385882089716635
 30
0.0
 10
649.2064134071092
 20
-8.401506131528347
 30
0.0
  0
SPLINE
  5
B2
330
1F
100
AcDbEntity
  8
0
  6
Continuous
 62
   142
420
    32960
370
     0
100
AcDbSpline
210
0.0
220
0.0
230
1.0
 70
     8
 71
     3
 72
     9
 73
     5
 74
     0
 42
0.00000001
 43
0.00000001
 40
0.0
 40
0.0
 40
0.0
 40
0.0
 40
0.4999997884237881
 40
0.9999999999999999
 40
0.9999999999999999
 40
0.9999999999999999
 40
0.9999999999999999
 10
648.890937770785
 20
-7.886825016047427
 30
0.0
 10
648.8911965287332
 20
-7.965202585905439
 30
0.0
 10
648.8917140448486
 20
-8.121957791952795
 30
0.0
 10
648.8909333595576
 20
-8.27633628089347
 30
0.0
 10
648.8905430167468
 20
-8.353525558026625
 30
0.0
  0
SPLINE
  5
B3
330
1F
100
AcDbEntity
  8
0
  6
Continuous
 62
   142
420
    32960
370
     0
100
AcDbSpline
210
0.0
220
0.0
230
1.0
 70
     8
 71
     3
 72
    16
 73
    12
 74
     0
 42
0.00000001
 43
0.00000001
 40
0.0
 40
0.0
 40
0.0
 40
0.0
 40
0.0000533626820387
 40
0.125113882171232
 40
0.2500827922204681
 40
0.3750495712342518
 40
0.5000146284486365
 40
0.6249778304954867
 40
0.7499408549700262
 40
0.8749031490732572
 40
1.0
 40
1.0
 40
1.0
 40
1.0
 10
647.7914413626381
 20
46.23786008361389
 30
0.0
 10
647.7914169249066
 20
46.23787192653223
 30
0.0
 10
647.7341203397292
 20
46.26563877462711
 30
0.0
 10
647.9353324728656
 20
46.16735840097769
 30
0.0
 10
648.4046412353296
 20
45.94340311738426
 30
0.0
 10
649.1724860465466
 20
45.59559163164442
 30
0.0
 10
650.0746678026617
 20
45.21718886964088
 30
0.0
 10
650.9931006039478
 20
44.86521083337195
 30
0.0
 10
651.7737308783236
 20
44.59225864979496
 30
0.0
 10
652.3248934100038
 20
44.41460159679325
 30
0.0
 10
652.3974078785701
 20
44.3921838753486
 30
0.0
 10
652.4336846228706
 20
44.38096898313845
 30
0.0
  0
SPLINE
  5
B4
330
1F
100
AcDbEntity
  8
0
  6
Continuous
 62
   142
420
    32960
370
     0
100
AcDbSpline
210
0.0
220
0.0
230
1.0
 70
     8
 71
     3
 72
    10
 73
     6
 74
     0
 42
0.00000001
 43
0.00000001
 40
0.0
 40
0.0
 40
0.0
 40
0.0
 40
0.5
 40
0.5
 40
1.0
 40
1.0
 40
1.0
 40
1.0
 10
655.470109441231
 20
-9.033379258803848
 30
0.0
 10
655.2608623024341
 20
-8.920738237165383
 30
0.0
 10
655.1034795144013
 20
-8.769763744685577
 30
0.0
 10
654.8917414864011
 20
-8.392548126418376
 30
0.0
 10
654.8415001175852
 20
-8.174594672116648
 30
0.0
 10
654.8415001175852
 20
-7.92866765089456
 30
0.0
  0
SPLINE
  5
B5
330
1F
100
AcDbEntity
  8
0
  6
Continuous
 62
   142
420
    32960
370
     0
100
AcDbSpline
210
0.0
220
0.0
230
1.0
 70
     8
 71
     3
 72
    10
 73
     6
 74
     0
 42
0.00000001
 43
0.00000001
 40
0.0
 40
0.0
 40
0.0
 40
0.0
 40
0.5
 40
0.5
 40
1.0
 40
1.0
 40
1.0
 40
1.0
 10
654.8415001175852
 20
37.26146576248313
 30
0.0
 10
654.8415001175852
 20
37.50739278370527
 30
0.0
 10
654.8917414864012
 20
37.72534623800697
 30
0.0
 10
655.1034795144013
 20
38.10256185627411
 30
0.0
 10
655.2608623024341
 20
38.25353634875395
 30
0.0
 10
655.470109441231
 20
38.36617737039239
 30
0.0
  0
LINE
  5
B6
330
1F
100
AcDbEntity
  8
0
  6
Continuous
 62
   142
420
    32960
370
     0
100
AcDbLine
 10
645.4701094412
 20
-17.8336009442
 30
0.0
 11
645.4701094412
 21
9.2663990558
 31
0.0
  0
LINE
  5
B7
330
1F
100
AcDbEntity
  8
0
  6
Continuous
 62
   142
420
    32960
370
     0
100
AcDbLine
 10
645.4701094412
 20
20.0663990558
 30
0.0
 11
645.4701094412
 21
47.1663990558
 31
0.0
  0
LINE
  5
B8
330
1F
100
AcDbEntity
  8
0
  6
Continuous
 62
     7
370
    15
100
AcDbLine
 10
655.4701094412
 20
36.5317983077
 30
0.0
 11
655.4701094412
 21
-7.1990001962
 31
0.0
  0
ARC
  5
B9
330
1F
100
AcDbEntity
  8
0
  6
Continuous
 62
   142
420
    32960
370
     0
100
AcDbCircle
 10
654.6582920743
 20
36.4680242864
 30
0.0
 40
0.8143184653804901
100
AcDbArc
 50
4.491765777
 51
76.998104743
  0
ARC
  5
BA
330
1F
100
AcDbEntity
  8
0
  6
Continuous
 62
   142
420
    32960
370
     0
100
AcDbCircle
 10
654.6582920743
 20
-7.1352261748
 30
0.0
 40
0.8143184653804899
100
AcDbArc
 50
283.001895257
 51
355.508234223
  0
SPLINE
  5
BB
330
1F
100
AcDbEntity
  8
0
  6
Continuous
 62
     7
370
    15
100
AcDbSpline
210
0.0
220
0.0
230
1.0
 70
     8
 71
     3
 72
    14
 73
    10
 74
     0
 42
0.00000001
 43
0.00000001
 40
0.0
 40
0.0
 40
0.0
 40
0.0
 40
0.25
 40
0.25
 40
0.5
 40
0.5
 40
0.75
 40
0.75
 40
1.0
 40
1.0
 40
1.0
 40
1.0
 10
658.4177522219192
 20
36.82490977564928
 30
0.0
 10
658.1846632229654
 20
36.95256234562213
 30
0.0
 10
657.9532101997536
 20
37.06420892499224
 30
0.0
 10
657.4936390487009
 20
37.25377112520361
 30
0.0
 10
657.2635534363469
 20
37.33187875219154
 30
0.0
 10
656.8305683750748
 20
37.43962409971596
 30
0.0
 10
656.6232254772858
 20
37.47092685308898
 30
0.0
 10
656.2405029570655
 20
37.47415278784119
 30
0.0
 10
656.0706090871101
 20
37.44618672011002
 30
0.0
 10
655.9268197130385
 20
37.38253463763206
 30
0.0
  0
LINE
  5
BC
330
1F
100
AcDbEntity
  8
0
  6
Continuous
 62
     7
370
    15
100
AcDbLine
 10
658.4177522219
 20
36.8249097756
 30
0.0
 11
658.4177522219
 21
-7.4921116641
 31
0.0
  0
SPLINE
  5
BD
330
1F
100
AcDbEntity
  8
0
  6
Continuous
 62
   142
420
    32960
370
     0
100
AcDbSpline
210
0.0
220
0.0
230
1.0
 70
     8
 71
     3
 72
    10
 73
     6
 74
     0
 42
0.00000001
 43
0.00000001
 40
0.0
 40
0.0
 40
0.0
 40
0.0
 40
0.5
 40
0.5
 40
1.0
 40
1.0
 40
1.0
 40
1.0
 10
655.470109441231
 20
-7.199000196155103
 30
0.0
 10
655.470109441231
 20
-7.395919605473922
 30
0.0
 10
655.5054405225726
 20
-7.5686022963935
 30
0.0
 10
655.6589673682003
 20
-7.860605115387137
 30
0.0
 10
655.7741741241185
 20
-7.972641058254959
 30
0.0
 10
655.9268197130385
 20
-8.049736526043489
 30
0.0
  0
SPLINE
  5
BE
330
1F
100
AcDbEntity
  8
0
  6
Continuous
 62
   142
420
    32960
370
     0
100
AcDbSpline
210
0.0
220
0.0
230
1.0
 70
     8
 71
     3
 72
    14
 73
    10
 74
     0
 42
0.00000001
 43
0.00000001
 40
0.0
 40
0.0
 40
0.0
 40
0.0
 40
0.25
 40
0.25
 40
0.5
 40
0.5
 40
0.75
 40
0.75
 40
1.0
 40
1.0
 40
1.0
 40
1.0
 10
655.9268197130384
 20
-8.049736526043711
 30
0.0
 10
656.0694324040327
 20
-8.112867719347715
 30
0.0
 10
656.2384164793702
 20
-8.14123449819562
 30
0.0
 10
656.6226828357223
 20
-8.13827014109944
 30
0.0
 10
656.829536349333
 20
-8.107025119327426
 30
0.0
 10
657.2627633708815
 20
-7.999334682174536
 30
0.0
 10
657.4929966738115
 20
-7.921214809937127
 30
0.0
 10
657.95288552513
 20
-7.731567853405036
 30
0.0
 10
658.184499730151
 20
-7.619853771841156
 30
0.0
 10
658.4177522219192
 20
-7.492111664060719
 30
0.0
  0
SPLINE
  5
BF
330
1F
100
AcDbEntity
  8
0
  6
Continuous
 62
   142
420
    32960
370
     0
100
AcDbSpline
210
0.0
220
0.0
230
1.0
 70
     8
 71
     3
 72
    10
 73
     6
 74
     0
 42
0.00000001
 43
0.00000001
 40
0.0
 40
0.0
 40
0.0
 40
0.0
 40
0.5
 40
0.5
 40
1.0
 40
1.0
 40
1.0
 40
1.0
 10
655.9268197130385
 20
37.38253463763203
 30
0.0
 10
655.7741741241183
 20
37.30543916984347
 30
0.0
 10
655.6589673682003
 20
37.19340322697573
 30
0.0
 10
655.5054405225726
 20
36.90140040798209
 30
0.0
 10
655.470109441231
 20
36.72871771706249
 30
0.0
 10
655.470109441231
 20
36.53179830774367
 30
0.0
  0
SPLINE
  5
C0
330
1F
100
AcDbEntity
  8
0
  6
Continuous
 62
     7
370
    15
100
AcDbSpline
210
0.0
220
0.0
230
1.0
 70
     8
 71
     3
 72
    10
 73
     6
 74
     0
 42
0.00000001
 43
0.00000001
 40
0.0
 40
0.0
 40
0.0
 40
0.0
 40
0.5
 40
0.5
 40
1.0
 40
1.0
 40
1.0
 40
1.0
 10
674.8804741185596
 20
-1.654258921820417
 30
0.0
 10
672.2149164217846
 20
-2.872539831731108
 30
0.0
 10
669.5403314654984
 20
-4.05739770380692
 30
0.0
 10
664.1818664668997
 20
-6.381752484887343
 30
0.0
 10
661.4978144854857
 20
-7.520837421067545
 30
0.0
 10
658.8106644928107
 20
-8.641122895966053
 30
0.0
  0
SPLINE
  5
C1
330
1F
100
AcDbEntity
  8
0
  6
Continuous
 62
   142
420
    32960
370
     0
100
AcDbSpline
210
0.0
220
0.0
230
1.0
 70
     8
 71
     3
 72
    16
 73
    12
 74
     0
 42
0.00000001
 43
0.00000001
 40
0.0
 40
0.0
 40
0.0
 40
0.0
 40
0.2499999999999998
 40
0.2499999999999998
 40
0.4999999999999996
 40
0.4999999999999996
 40
0.6249999999999994
 40
0.6249999999999994
 40
0.7499999999999993
 40
0.7499999999999993
 40
1.0
 40
1.0
 40
1.0
 40
1.0
 10
658.8106644928107
 20
-8.641122895966053
 30
0.0
 10
658.4877316322371
 20
-8.775755124927759
 30
0.0
 10
658.1692544489243
 20
-8.887938649953908
 30
0.0
 10
657.5410970310152
 20
-9.066339833400743
 30
0.0
 10
657.2294475037017
 20
-9.132160587278616
 30
0.0
 10
656.795911025676
 20
-9.185937854511966
 30
0.0
 10
656.6559352866377
 20
-9.196700660212166
 30
0.0
 10
656.3853009553304
 20
-9.202849730888445
 30
0.0
 10
656.253626757484
 20
-9.19810483194594
 30
0.0
 10
655.8820400204625
 20
-9.158762799569258
 30
0.0
 10
655.6661056194476
 20
-9.100317924467305
 30
0.0
 10
655.4831676301063
 20
-9.005621745016152
 30
0.0
  0
SPLINE
  5
C2
330
1F
100
AcDbEntity
  8
0
  6
Continuous
 62
   142
420
    32960
370
     0
100
AcDbSpline
210
0.0
220
0.0
230
1.0
 70
     8
 71
     3
 72
    14
 73
    10
 74
     0
 42
0.00000001
 43
0.00000001
 40
0.0
 40
0.0
 40
0.0
 40
0.0
 40
0.0000095361705259
 40
0.0000095361705259
 40
0.0000095361705259
 40
0.0000219642949668
 40
0.0000219642949668
 40
0.0000219642949668
 40
0.0000450544384129
 40
0.0000450544384129
 40
0.0000450544384129
 40
0.0000450544384129
 10
655.4831676301063
 20
-9.005621745016152
 30
0.0
 10
655.4807967147593
 20
-9.00752608044142
 30
0.0
 10
655.4787472630077
 20
-9.009627031873968
 30
0.0
 10
655.4771355566106
 20
-9.01169976820801
 30
0.0
 10
655.475033669596
 20
-9.014402901727447
 30
0.0
 10
655.4735706177372
 20
-9.017140132457996
 30
0.0
 10
655.4725480814765
 20
-9.01974188759147
 30
0.0
 10
655.4706526773041
 20
-9.024564579680206
 30
0.0
 10
655.4701094412303
 20
-9.029111307826188
 30
0.0
 10
655.4701094412304
 20
-9.033379258803958
 30
0.0
  0
SPLINE
  5
C3
330
1F
100
AcDbEntity
  8
0
  6
Continuous
 62
     7
370
    15
100
AcDbSpline
210
0.0
220
0.0
230
1.0
 70
     8
 71
     3
 72
     8
 73
     4
 74
     0
 42
0.00000001
 43
0.00000001
 40
0.0
 40
0.0
 40
0.0
 40
0.0
 40
1.0
 40
1.0
 40
1.0
 40
1.0
 10
656.1388720590887
 20
42.86420952363893
 30
0.0
 10
661.9421251942429
 20
40.24875990967011
 30
0.0
 10
667.7421053524772
 20
37.62618519385941
 30
0.0
 10
673.5326072519985
 20
34.98297679798598
 30
0.0
  0
LINE
  5
C4
330
1F
100
AcDbEntity
  8
0
  6
Continuous
 62
     7
370
    15
100
AcDbLine
 10
673.532607252
 20
34.982976798
 30
0.0
 11
674.8804741186
 21
34.374734933
 31
0.0
  0
LINE
  5
C5
330
1F
100
AcDbEntity
  8
0
  6
Continuous
 62
     7
370
    15
100
AcDbLine
 10
674.8804741186
 20
30.9870570334
 30
0.0
 11
674.8804741186
 21
34.374734933
 31
0.0
  0
SPLINE
  5
C6
330
1F
100
AcDbEntity
  8
0
  6
Continuous
 62
     7
370
    15
100
AcDbSpline
210
0.0
220
0.0
230
1.0
 70
     8
 71
     3
 72
    10
 73
     6
 74
     0
 42
0.00000001
 43
0.00000001
 40
0.0
 40
0.0
 40
0.0
 40
0.0
 40
0.5
 40
0.5
 40
1.0
 40
1.0
 40
1.0
 40
1.0
 10
658.8106644928107
 20
37.97392100755462
 30
0.0
 10
661.4978144854855
 20
36.853635532656
 30
0.0
 10
664.1818664668997
 20
35.71455059647597
 30
0.0
 10
669.5403314654983
 20
33.39019581539546
 30
0.0
 10
672.2149164217847
 20
32.20533794331965
 30
0.0
 10
674.8804741185596
 20
30.98705703340898
 30
0.0
  0
SPLINE
  5
C7
330
1F
100
AcDbEntity
  8
0
  6
Continuous
 62
     7
370
    15
100
AcDbSpline
210
0.0
220
0.0
230
1.0
 70
     8
 71
     3
 72
    16
 73
    12
 74
     0
 42
0.00000001
 43
0.00000001
 40
0.0
 40
0.0
 40
0.0
 40
0.0
 40
0.2500000000000161
 40
0.2500000000000161
 40
0.3750000000000241
 40
0.3750000000000241
 40
0.5000000000000322
 40
0.5000000000000322
 40
0.7500000000000161
 40
0.7500000000000161
 40
1.0
 40
1.0
 40
1.0
 40
1.0
 10
655.4831676301063
 20
38.33841985660472
 30
0.0
 10
655.6661056194478
 20
38.4331160360559
 30
0.0
 10
655.8820400204626
 20
38.4915609111578
 30
0.0
 10
656.253626757484
 20
38.53090294353454
 30
0.0
 10
656.3853009553304
 20
38.53564784247693
 30
0.0
 10
656.6559352866377
 20
38.52949877180059
 30
0.0
 10
656.7959110256761
 20
38.51873596610048
 30
0.0
 10
657.2294475037017
 20
38.46495869886721
 30
0.0
 10
657.541097031015
 20
38.39913794498933
 30
0.0
 10
658.1692544489241
 20
38.22073676154242
 30
0.0
 10
658.4877316322369
 20
38.10855323651624
 30
0.0
 10
658.8106644928107
 20
37.97392100755462
 30
0.0
  0
SPLINE
  5
C8
330
1F
100
AcDbEntity
  8
0
  6
Continuous
 62
   142
420
    32960
370
     0
100
AcDbSpline
210
0.0
220
0.0
230
1.0
 70
     8
 71
     3
 72
    17
 73
    13
 74
     0
 42
0.00000001
 43
0.00000001
 40
0.0
 40
0.0
 40
0.0
 40
0.0
 40
0.0000166887075715
 40
0.0000166887075715
 40
0.0000166887075715
 40
0.0000336582619935
 40
0.0000336582619935
 40
0.0000336582619935
 40
0.0000426621382241
 40
0.0000426621382241
 40
0.0000426621382241
 40
0.0000451385286556
 40
0.0000451385286556
 40
0.0000451385286556
 40
0.0000451385286556
 10
655.470109441231
 20
38.36617737039239
 30
0.0
 10
655.470109441231
 20
38.36308763301518
 30
0.0
 10
655.470411505439
 20
38.35986568343444
 30
0.0
 10
655.4712731831487
 20
38.35649586322282
 30
0.0
 10
655.4721427363835
 20
38.35309524367306
 30
0.0
 10
655.4736091835633
 20
38.34944733293199
 30
0.0
 10
655.4761834159629
 20
38.34578506098158
 30
0.0
 10
655.4775606696099
 20
38.34382568955822
 30
0.0
 10
655.4793005588975
 20
38.34182666348834
 30
0.0
 10
655.4813653687769
 20
38.33995643630806
 30
0.0
 10
655.4819409597843
 20
38.33943508760776
 30
0.0
 10
655.4825431535048
 20
38.33892144048281
 30
0.0
 10
655.4831676301063
 20
38.33841985660472
 30
0.0
  0
SPLINE
  5
C9
330
1F
100
AcDbEntity
  8
0
  6
Continuous
 62
   142
420
    32960
370
     0
100
AcDbSpline
210
0.0
220
0.0
230
1.0
 70
     8
 71
     3
 72
    10
 73
     6
 74
     0
 42
0.00000001
 43
0.00000001
 40
0.0
 40
0.0
 40
0.0
 40
0.0
 40
0.5
 40
0.5
 40
1.0
 40
1.0
 40
1.0
 40
1.0
 10
656.1388720590887
 20
42.86420952363893
 30
0.0
 10
656.0812713315706
 20
42.89016941148849
 30
0.0
 10
656.0265208072001
 20
42.91509529797274
 30
0.0
 10
655.948552620458
 20
42.95078548670303
 30
0.0
 10
655.9260554752419
 20
42.96118400918181
 30
0.0
 10
655.9260685752951
 20
42.96121312041124
 30
0.0
  0
ARC
  5
CA
330
1F
100
AcDbEntity
  8
0
  6
Continuous
 62
     7
370
    15
100
AcDbCircle
 10
654.6892553203
 20
38.7415800007
 30
0.0
 40
4.192292200804485
100
AcDbArc
 50
332.7941276521
 51
349.4489224794
  0
SPLINE
  5
CB
330
1F
100
AcDbEntity
  8
0
  6
Continuous
 62
   142
420
    32960
370
     0
100
AcDbSpline
210
0.0
220
0.0
230
1.0
 70
     8
 71
     3
 72
    12
 73
     8
 74
     0
 42
0.00000001
 43
0.00000001
 40
0.0
 40
0.0
 40
0.0
 40
0.0
 40
0.2500000000000159
 40
0.2500000000000159
 40
0.5000000000000318
 40
0.5000000000000318
 40
1.0
 40
1.0
 40
1.0
 40
1.0
 10
655.4831676301063
 20
38.33841985660472
 30
0.0
 10
655.5528147922724
 20
38.28247877952193
 30
0.0
 10
655.6156480130426
 20
38.21816757787119
 30
0.0
 10
655.7280261112498
 20
38.07322216523926
 30
0.0
 10
655.7766082057109
 20
37.99329191612924
 30
0.0
 10
655.8930535258041
 20
37.74262114631421
 30
0.0
 10
655.9324380695706
 20
37.55600918154641
 30
0.0
 10
655.9268197130383
 20
37.38253463762814
 30
0.0
  0
SPLINE
  5
CC
330
1F
100
AcDbEntity
  8
0
  6
Continuous
 62
     7
370
    15
100
AcDbSpline
210
0.0
220
0.0
230
1.0
 70
     8
 71
     3
 72
    10
 73
     6
 74
     0
 42
0.00000001
 43
0.00000001
 40
0.0
 40
0.0
 40
0.0
 40
0.0
 40
0.5
 40
0.5
 40
1.0
 40
1.0
 40
1.0
 40
1.0
 10
674.4875618476682
 20
29.9851460030813
 30
0.0
 10
671.8205471934364
 20
31.17406828180261
 30
0.0
 10
669.1455596516428
 20
32.33300521134746
 30
0.0
 10
663.7873189555236
 20
34.60906106692391
 30
0.0
 10
661.1039175283273
 20
35.72582954117179
 30
0.0
 10
658.4177522219192
 20
36.82490977564928
 30
0.0
  0
ARC
  5
CD
330
1F
100
AcDbEntity
  8
0
  6
Continuous
 62
   142
420
    32960
370
     0
100
AcDbCircle
 10
669.4465550954
 20
32.5400398168
 30
0.0
 40
5.651480467557377
100
AcDbArc
 50
333.1230991873
 51
344.0503686318
  0
SPLINE
  5
CE
330
1F
100
AcDbEntity
  8
0
  6
Continuous
 62
     7
370
    15
100
AcDbSpline
210
0.0
220
0.0
230
1.0
 70
     8
 71
     3
 72
    10
 73
     6
 74
     0
 42
0.00000001
 43
0.00000001
 40
0.0
 40
0.0
 40
0.0
 40
0.0
 40
0.5
 40
0.5
 40
1.0
 40
1.0
 40
1.0
 40
1.0
 10
658.4177522219192
 20
-7.492111664060719
 30
0.0
 10
661.1039175283273
 20
-6.393031429583251
 30
0.0
 10
663.7873189555237
 20
-5.27626295533537
 30
0.0
 10
669.1455596516428
 20
-3.000207099758956
 30
0.0
 10
671.8205471934365
 20
-1.841270170214127
 30
0.0
 10
674.4875618476682
 20
-0.6523478914927383
 30
0.0
  0
ARC
  5
CF
330
1F
100
AcDbEntity
  8
0
  6
Continuous
 62
   142
420
    32960
370
     0
100
AcDbCircle
 10
669.4465550954
 20
-3.2072417052
 30
0.0
 40
5.651480467557378
100
AcDbArc
 50
15.9496313682
 51
26.8769008127
  0
ARC
  5
D0
330
1F
100
AcDbEntity
  8
0
  6
Continuous
 62
   142
420
    32960
370
     0
100
AcDbCircle
 10
654.6892553203
 20
-9.4087818891
 30
0.0
 40
4.192292200806268
100
AcDbArc
 50
10.5510775206
 51
27.2058723479
  0
LINE
  5
D1
330
1F
100
AcDbEntity
  8
0
  6
Continuous
 62
     7
370
    15
100
AcDbLine
 10
674.4875618477
 20
-0.6523478915
 30
0.0
 11
674.4875618477
 21
29.9851460031
 31
0.0
  0
LINE
  5
D2
330
1F
100
AcDbEntity
  8
0
  6
Continuous
 62
     7
370
    15
100
AcDbLine
 10
675.4701094412
 20
30.2340640629
 30
0.0
 11
675.4701094412
 21
-0.9012659513
 31
0.0
  0
ARC
  5
D3
330
1F
100
AcDbEntity
  8
0
  6
Continuous
 62
   142
420
    32960
370
     0
100
AcDbCircle
 10
674.7142557578
 20
31.1539741361
 30
0.0
 40
1.190608807907542
100
AcDbArc
 50
259.0237736414
 51
309.4085911735
  0
ARC
  5
D4
330
1F
100
AcDbEntity
  8
0
  6
Continuous
 62
   142
420
    32960
370
     0
100
AcDbCircle
 10
674.7142557578
 20
-1.8211760245
 30
0.0
 40
1.190608807907786
100
AcDbArc
 50
50.5914088265
 51
100.9762263586
  0
LINE
  5
D5
330
1F
100
AcDbEntity
  8
0
  6
Continuous
 62
     7
370
    15
100
AcDbLine
 10
675.4701094412
 20
33.4600478277
 30
0.0
 11
675.4701094412
 21
30.2340640629
 31
0.0
  0
SPLINE
  5
D6
330
1F
100
AcDbEntity
  8
0
  6
Continuous
 62
     7
370
    15
100
AcDbSpline
210
0.0
220
0.0
230
1.0
 70
     8
 71
     3
 72
    10
 73
     6
 74
     0
 42
0.00000001
 43
0.00000001
 40
0.0
 40
0.0
 40
0.0
 40
0.0
 40
0.5
 40
0.5
 40
1.0
 40
1.0
 40
1.0
 40
1.0
 10
674.8804741185596
 20
34.37473493303573
 30
0.0
 10
675.0567262561565
 20
34.29519208245746
 30
0.0
 10
675.2060683380786
 20
34.16556954775635
 30
0.0
 10
675.4132414812333
 20
33.8444631672759
 30
0.0
 10
675.470109441231
 20
33.65340353799823
 30
0.0
 10
675.470109441231
 20
33.46004782770856
 30
0.0
  0
ARC
  5
D7
330
1F
100
AcDbEntity
  8
0
  6
Continuous
 62
   142
420
    32960
370
     0
100
AcDbCircle
 10
674.635627501
 20
30.1879734408
 30
0.0
 40
0.8357538238402228
100
AcDbArc
 50
3.1613837536
 51
72.9644501976
  0
LINE
  5
D8
330
1F
100
AcDbEntity
  8
0
  6
Continuous
 62
     7
370
    15
100
AcDbLine
 10
675.4701094412
 20
-0.9012659513
 30
0.0
 11
675.4701094412
 21
-4.1870153342
 31
0.0
  0
ARC
  5
D9
330
1F
100
AcDbEntity
  8
0
  6
Continuous
 62
   142
420
    32960
370
     0
100
AcDbCircle
 10
674.635627501
 20
-0.8551753292
 30
0.0
 40
0.835753823840554
100
AcDbArc
 50
287.0355498025
 51
356.8386162463
  0
LINE
  5
DA
330
1F
100
AcDbEntity
  8
0
  6
Continuous
 62
     7
370
    15
100
AcDbLine
 10
548.7701094412
 20
-143.3524162092
 30
0.0
 11
491.7701094412
 21
-143.3524162092
 31
0.0
  0
LINE
  5
DB
330
1F
100
AcDbEntity
  8
0
  6
Continuous
 62
     7
370
    15
100
AcDbLine
 10
546.7701094412
 20
-149.3524162092
 30
0.0
 11
493.7701094412
 21
-149.3524162092
 31
0.0
  0
LINE
  5
DC
330
1F
100
AcDbEntity
  8
0
  6
Continuous
 62
     7
370
    15
100
AcDbLine
 10
574.0201094412
 20
-46.8524162092
 30
0.0
 11
576.0701094412
 21
-46.8524162092
 31
0.0
  0
LINE
  5
DD
330
1F
100
AcDbEntity
  8
0
  6
Continuous
 62
     7
370
    15
100
AcDbLine
 10
574.7760521864
 20
-48.8524162092
 30
0.0
 11
575.9467226603
 21
-48.8524162092
 31
0.0
  0
LINE
  5
DE
330
1F
100
AcDbEntity
  8
0
  6
Continuous
 62
     7
370
    15
100
AcDbLine
 10
576.9934962222
 20
-48.8524162092
 30
0.0
 11
577.6558710378
 21
-48.8524162092
 31
0.0
  0
LINE
  5
DF
330
1F
100
AcDbEntity
  8
0
  6
Continuous
 62
     7
370
    15
100
AcDbLine
 10
-8.7298905588
 20
-51.3524162092
 30
0.0
 11
-8.7298905588
 21
-49.6524162092
 31
0.0
  0
LINE
  5
E0
330
1F
100
AcDbEntity
  8
0
  6
Continuous
 62
     7
370
    15
100
AcDbLine
 10
-98.7298905588
 20
-51.3524162092
 30
0.0
 11
-8.7298905588
 21
-51.3524162092
 31
0.0
  0
LINE
  5
E1
330
1F
100
AcDbEntity
  8
0
  6
Continuous
 62
     7
370
    15
100
AcDbLine
 10
-98.7298905588
 20
-51.3524162092
 30
0.0
 11
-98.7298905588
 21
-49.6524162092
 31
0.0
  0
LINE
  5
E2
330
1F
100
AcDbEntity
  8
0
  6
Continuous
 62
     7
370
    15
100
AcDbLine
 10
-22.7702403384
 20
-114.3524162092
 30
0.0
 11
-84.6895407791
 21
-114.3524162092
 31
0.0
  0
LINE
  5
E3
330
1F
100
AcDbEntity
  8
0
  6
Continuous
 62
   142
420
    32960
370
     0
100
AcDbLine
 10
576.0701094412
 20
-7.8524162092
 30
0.0
 11
574.0201094412
 21
-7.8524162092
 31
0.0
  0
LINE
  5
E4
330
1F
100
AcDbEntity
  8
0
  6
Continuous
 62
   142
420
    32960
370
     0
100
AcDbLine
 10
574.0201094412
 20
59.1475837908
 30
0.0
 11
575.2701094412
 21
59.1475837908
 31
0.0
  0
LINE
  5
E5
330
1F
100
AcDbEntity
  8
0
  6
Continuous
 62
     7
370
    15
100
AcDbLine
 10
-25.2298905588
 20
-143.3524162092
 30
0.0
 11
-82.2298905588
 21
-143.3524162092
 31
0.0
  0
LINE
  5
E6
330
1F
100
AcDbEntity
  8
0
  6
Continuous
 62
     7
370
    15
100
AcDbLine
 10
-27.2298905588
 20
-149.3524162092
 30
0.0
 11
-80.2298905588
 21
-149.3524162092
 31
0.0
  0
LINE
  5
E7
330
1F
100
AcDbEntity
  8
0
  6
Continuous
 62
     7
370
    15
100
AcDbLine
 10
-79.8298905588
 20
231.9475837908
 30
0.0
 11
-130.7298905588
 21
231.9475837908
 31
0.0
  0
LINE
  5
E8
330
1F
100
AcDbEntity
  8
0
  6
Continuous
 62
     7
370
    15
100
AcDbLine
 10
-132.7798905588
 20
231.9475837908
 30
0.0
 11
-132.7798905588
 21
440.8560706667
 31
0.0
  0
LINE
  5
E9
330
1F
100
AcDbEntity
  8
0
  6
Continuous
 62
     7
370
    15
100
AcDbLine
 10
-130.7298905588
 20
440.8560706667
 30
0.0
 11
-130.7298905588
 21
231.9475837908
 31
0.0
  0
LINE
  5
EA
330
1F
100
AcDbEntity
  8
0
  6
Continuous
 62
   142
420
    32960
370
     0
100
AcDbLine
 10
-132.7798905588
 20
440.8560706667
 30
0.0
 11
-130.7298905588
 21
440.8560706667
 31
0.0
  0
LINE
  5
EB
330
1F
100
AcDbEntity
  8
0
  6
Continuous
 62
   142
420
    32960
370
     0
100
AcDbLine
 10
-130.7298905588
 20
231.9475837908
 30
0.0
 11
-132.7798905588
 21
231.9475837908
 31
0.0
  0
ARC
  5
EC
330
1F
100
AcDbEntity
  8
0
  6
Continuous
 62
     7
370
    15
100
AcDbCircle
 10
-103.5798905588
 20
419.4644090914
 30
0.0
 40
24.89999999999986
100
AcDbArc
 50
0.0
 51
75.0
  0
LINE
  5
ED
330
1F
100
AcDbEntity
  8
0
  6
Continuous
 62
     7
370
    15
100
AcDbLine
 10
-79.8298905588
 20
418.9644090914
 30
0.0
 11
-79.8298905588
 21
231.9475837908
 31
0.0
  0
ARC
  5
EE
330
1F
100
AcDbEntity
  8
0
  6
Continuous
 62
   142
420
    32960
370
     0
100
AcDbCircle
 10
-106.8798905588
 20
430.7014032305
 30
0.0
 40
2.600000000000026
100
AcDbArc
 50
11.299052931
 51
168.6851502045
  0
ARC
  5
EF
330
1F
100
AcDbEntity
  8
0
  6
Continuous
 62
   142
420
    32960
370
     0
100
AcDbCircle
 10
-109.6781735865
 20
431.2397159075
 30
0.0
 40
0.2504090746769088
100
AcDbArc
 50
169.1108926947
 51
353.5357377927
  0
ARC
  5
F0
330
1F
100
AcDbEntity
  8
0
  6
Continuous
 62
   142
420
    32960
370
     0
100
AcDbCircle
 10
-106.8798905588
 20
430.7014032305
 30
0.0
 40
3.100000000000025
100
AcDbArc
 50
10.8889929002
 51
169.1108926947
  0
ARC
  5
F1
330
1F
100
AcDbEntity
  8
0
  6
Continuous
 62
   142
420
    32960
370
     0
100
AcDbCircle
 10
-104.0815774108
 20
431.2397159075
 30
0.0
 40
0.2503794968157605
100
AcDbArc
 50
186.6269392398
 51
10.8889929002
  0
ARC
  5
F2
330
1F
100
AcDbEntity
  8
0
  6
Continuous
 62
   142
420
    32960
370
     0
100
AcDbCircle
 10
-104.0744496225
 20
430.2014032305
 30
0.0
 40
0.2503511010932702
100
AcDbArc
 50
349.8945592916
 51
173.994223505
  0
ARC
  5
F3
330
1F
100
AcDbEntity
  8
0
  6
Continuous
 62
   142
420
    32960
370
     0
100
AcDbCircle
 10
-106.8798905588
 20
430.7014032305
 30
0.0
 40
3.100000000000013
100
AcDbArc
 50
190.1054407084
 51
349.8945592916
  0
ARC
  5
F4
330
1F
100
AcDbEntity
  8
0
  6
Continuous
 62
   142
420
    32960
370
     0
100
AcDbCircle
 10
-109.6853314951
 20
430.2014032305
 30
0.0
 40
0.250351101093244
100
AcDbArc
 50
6.005776495
 51
190.1054407084
  0
ARC
  5
F5
330
1F
100
AcDbEntity
  8
0
  6
Continuous
 62
   142
420
    32960
370
     0
100
AcDbCircle
 10
-106.8798905588
 20
430.7014032305
 30
0.0
 40
2.600000000000021
100
AcDbArc
 50
190.4998591652
 51
349.5001408348
  0
LINE
  5
F6
330
1F
100
AcDbEntity
  8
0
  6
Continuous
 62
   142
420
    32960
370
     0
100
AcDbLine
 10
-130.3298905588
 20
441.2560706667
 30
0.0
 11
-131.8798905588
 21
441.2560706667
 31
0.0
  0
LINE
  5
F7
330
1F
100
AcDbEntity
  8
0
  6
Continuous
 62
   142
420
    32960
370
     0
100
AcDbLine
 10
-130.3298905588
 20
440.8560706667
 30
0.0
 11
-130.3298905588
 21
441.2560706667
 31
0.0
  0
LINE
  5
F8
330
1F
100
AcDbEntity
  8
0
  6
Continuous
 62
   142
420
    32960
370
     0
100
AcDbLine
 10
-130.7298905588
 20
440.8560706667
 30
0.0
 11
-130.3298905588
 21
440.8560706667
 31
0.0
  0
LINE
  5
F9
330
1F
100
AcDbEntity
  8
0
  6
Continuous
 62
   142
420
    32960
370
     0
100
AcDbLine
 10
-79.8798905588
 20
418.9644090914
 30
0.0
 11
-79.8298905588
 21
418.9644090914
 31
0.0
  0
LINE
  5
FA
330
1F
100
AcDbEntity
  8
0
  6
Continuous
 62
   142
420
    32960
370
     0
100
AcDbLine
 10
-79.8798905588
 20
419.4644090914
 30
0.0
 11
-79.8798905588
 21
418.9644090914
 31
0.0
  0
LINE
  5
FB
330
1F
100
AcDbEntity
  8
0
  6
Continuous
 62
   142
420
    32960
370
     0
100
AcDbLine
 10
-78.6798905588
 20
419.4644090914
 30
0.0
 11
-79.8798905588
 21
419.4644090914
 31
0.0
  0
LINE
  5
FC
330
1F
100
AcDbEntity
  8
0
  6
Continuous
 62
   142
420
    32960
370
     0
100
AcDbLine
 10
-130.4322486569
 20
452.4378536508
 30
0.0
 11
-97.1352963357
 21
443.515962166
 31
0.0
  0
ARC
  5
FD
330
1F
100
AcDbEntity
  8
0
  6
Continuous
 62
   142
420
    32960
370
     0
100
AcDbCircle
 10
-130.7298905588
 20
451.3270389506
 30
0.0
 40
1.15000000000006
100
AcDbArc
 50
75.0
 51
180.0
  0
LINE
  5
FE
330
1F
100
AcDbEntity
  8
0
  6
Continuous
 62
   142
420
    32960
370
     0
100
AcDbLine
 10
-131.8798905588
 20
441.2560706667
 30
0.0
 11
-131.8798905588
 21
451.3270389506
 31
0.0
  0
LINE
  5
FF
330
1F
100
AcDbEntity
  8
0
  6
Continuous
 62
     7
370
    15
100
AcDbLine
 10
-79.8298905588
 20
418.9644090914
 30
0.0
 11
-77.7798905588
 21
418.9644090914
 31
0.0
  0
LINE
  5
100
330
1F
100
AcDbEntity
  8
0
  6
Continuous
 62
     7
370
    15
100
AcDbLine
 10
-77.7798905588
 20
418.9644090914
 30
0.0
 11
-77.7798905588
 21
231.9475837908
 31
0.0
  0
LINE
  5
101
330
1F
100
AcDbEntity
  8
0
  6
Continuous
 62
   142
420
    32960
370
     0
100
AcDbLine
 10
-77.7798905588
 20
231.9475837908
 30
0.0
 11
-79.8298905588
 21
231.9475837908
 31
0.0
  0
LINE
  5
102
330
1F
100
AcDbEntity
  8
0
  6
Continuous
 62
   142
420
    32960
370
     0
100
AcDbLine
 10
-132.7798905588
 20
440.9560706667
 30
0.0
 11
-131.9798905588
 21
440.9560706667
 31
0.0
  0
LINE
  5
103
330
1F
100
AcDbEntity
  8
0
  6
Continuous
 62
     7
370
    15
100
AcDbLine
 10
-130.4063667524
 20
452.5344462335
 30
0.0
 11
-97.1094144312
 21
443.6125547486
 31
0.0
  0
LINE
  5
104
330
1F
100
AcDbEntity
  8
0
  6
Continuous
 62
     7
370
    15
100
AcDbLine
 10
-130.1993115163
 20
453.3071868945
 30
0.0
 11
-96.9023591951
 21
444.3852954096
 31
0.0
  0
LINE
  5
105
330
1F
100
AcDbEntity
  8
0
  6
Continuous
 62
     7
370
    15
100
AcDbLine
 10
-97.1094144312
 20
443.6125547486
 30
0.0
 11
-96.9023591951
 21
444.3852954096
 31
0.0
  0
LINE
  5
106
330
1F
100
AcDbEntity
  8
0
  6
Continuous
 62
   142
420
    32960
370
     0
100
AcDbLine
 10
-130.1993115163
 20
453.3071868945
 30
0.0
 11
-130.4063667524
 21
452.5344462335
 31
0.0
  0
LINE
  5
107
330
1F
100
AcDbEntity
  8
0
  6
Continuous
 62
   142
420
    32960
370
     0
100
AcDbLine
 10
-132.7798905588
 20
440.9560706667
 30
0.0
 11
-132.7798905588
 21
451.3270389506
 31
0.0
  0
ARC
  5
108
330
1F
100
AcDbEntity
  8
0
  6
Continuous
 62
   142
420
    32960
370
     0
100
AcDbCircle
 10
-130.7298905588
 20
451.3270389506
 30
0.0
 40
2.049999999999988
100
AcDbArc
 50
75.0
 51
180.0
  0
ARC
  5
109
330
1F
100
AcDbEntity
  8
0
  6
Continuous
 62
     7
370
    15
100
AcDbCircle
 10
-103.5798905588
 20
419.4644090914
 30
0.0
 40
25.80000000000005
100
AcDbArc
 50
0.0
 51
75.0
  0
ARC
  5
10A
330
1F
100
AcDbEntity
  8
0
  6
Continuous
 62
     7
370
    15
100
AcDbCircle
 10
-103.5798905588
 20
419.4644090914
 30
0.0
 40
25.00000000000003
100
AcDbArc
 50
0.0
 51
75.0
  0
LINE
  5
10B
330
1F
100
AcDbEntity
  8
0
  6
Continuous
 62
   142
420
    32960
370
     0
100
AcDbLine
 10
-77.7798905588
 20
419.4644090914
 30
0.0
 11
-78.5798905588
 21
419.4644090914
 31
0.0
  0
LINE
  5
10C
330
1F
100
AcDbEntity
  8
0
  6
Continuous
 62
   142
420
    32960
370
     0
100
AcDbLine
 10
-77.7798905588
 20
419.4644090914
 30
0.0
 11
-77.7798905588
 21
419.3644090914
 31
0.0
  0
LINE
  5
10D
330
1F
100
AcDbEntity
  8
0
  6
Continuous
 62
   142
420
    32960
370
     0
100
AcDbLine
 10
-77.7798905588
 20
418.9644090914
 30
0.0
 11
-77.7798905588
 21
419.3644090914
 31
0.0
  0
LINE
  5
10E
330
1F
100
AcDbEntity
  8
0
  6
Continuous
 62
   142
420
    32960
370
     0
100
AcDbLine
 10
-78.5798905588
 20
419.3644090914
 30
0.0
 11
-78.5798905588
 21
418.9644090914
 31
0.0
  0
LINE
  5
10F
330
1F
100
AcDbEntity
  8
0
  6
Continuous
 62
   142
420
    32960
370
     0
100
AcDbLine
 10
-78.5798905588
 20
419.4644090914
 30
0.0
 11
-78.5798905588
 21
419.3644090914
 31
0.0
  0
LINE
  5
110
330
1F
100
AcDbEntity
  8
0
  6
Continuous
 62
   142
420
    32960
370
     0
100
AcDbLine
 10
-131.9798905588
 20
445.9560706667
 30
0.0
 11
-131.9798905588
 21
449.1560706667
 31
0.0
  0
LINE
  5
111
330
1F
100
AcDbEntity
  8
0
  6
Continuous
 62
   142
420
    32960
370
     0
100
AcDbLine
 10
-131.9798905588
 20
442.7560706667
 30
0.0
 11
-131.9798905588
 21
445.9560706667
 31
0.0
  0
LINE
  5
112
330
1F
100
AcDbEntity
  8
0
  6
Continuous
 62
   142
420
    32960
370
     0
100
AcDbLine
 10
576.877180509
 20
74.7163990558
 30
0.0
 11
577.5961747557
 21
74.7163990558
 31
0.0
  0
LINE
  5
113
330
1F
100
AcDbEntity
  8
0
  6
Continuous
 62
   142
420
    32960
370
     0
100
AcDbLine
 10
576.877180509
 20
74.7163990558
 30
0.0
 11
576.877180509
 21
75.5163990558
 31
0.0
  0
LINE
  5
114
330
1F
100
AcDbEntity
  8
0
  6
Continuous
 62
     7
370
    15
100
AcDbLine
 10
575.2701094412
 20
35.9433011942
 30
0.0
 11
574.0201094412
 21
38.2455148017
 31
0.0
  0
LINE
  5
115
330
1F
100
AcDbEntity
  8
0
  6
Continuous
 62
   142
420
    32960
370
     0
100
AcDbLine
 10
574.0201094412
 20
51.5321609964
 30
0.0
 11
575.2701094412
 21
52.2108556209
 31
0.0
  0
LWPOLYLINE
  5
116
330
1F
100
AcDbEntity
  8
0
  6
Continuous
 62
   142
420
    32960
370
     0
100
AcDbPolyline
 90
        2
 70
   128
 43
0.0
 10
578.1201094412
 20
-47.7336009442
 10
578.1201094412
 20
-47.7336009442
  0
SPLINE
  5
117
330
1F
100
AcDbEntity
  8
0
  6
Continuous
 62
   142
420
    32960
370
     0
100
AcDbSpline
210
0.0
220
0.0
230
1.0
 70
     8
 71
     3
 72
    26
 73
    22
 74
     0
 42
0.00000001
 43
0.00000001
 40
0.0
 40
0.0
 40
0.0
 40
0.0
 40
0.25
 40
0.25
 40
0.5
 40
0.5
 40
0.5625
 40
0.5625
 40
0.59375
 40
0.59375
 40
0.6015625
 40
0.6015625
 40
0.609375
 40
0.609375
 40
0.625
 40
0.625
 40
0.75
 40
0.75
 40
0.875
 40
0.875
 40
1.0
 40
1.0
 40
1.0
 40
1.0
 10
576.8701094412289
 20
-48.97652987639384
 30
0.0
 10
576.8701094412289
 20
-48.95379312414371
 30
0.0
 10
576.9131028323362
 20
-48.90646922553344
 30
0.0
 10
577.0656909306675
 20
-48.76249586159409
 30
0.0
 10
577.1750031338257
 20
-48.66587160859803
 30
0.0
 10
577.3357639646292
 20
-48.51429432857013
 30
0.0
 10
577.3691138970594
 20
-48.48243902437544
 30
0.0
 10
577.4206001018707
 20
-48.43234629579957
 30
0.0
 10
577.4380057337478
 20
-48.41526375756039
 30
0.0
 10
577.4600325483245
 20
-48.3934293822022
 30
0.0
 10
577.465218644771
 20
-48.3882727918099
 30
0.0
 10
577.4702353542093
 20
-48.38327740436466
 30
0.0
 10
577.4727749717194
 20
-48.38074510510387
 30
0.0
 10
577.4804884278622
 20
-48.373044390707
 30
0.0
 10
577.4857568722188
 20
-48.36777215895638
 30
0.0
 10
577.5343275168129
 20
-48.31907627382714
 30
0.0
 10
577.5857445627186
 20
-48.26693202483023
 30
0.0
 10
577.7069204153722
 20
-48.14492549129479
 30
0.0
 10
577.7767274409445
 20
-48.0750632067562
 30
0.0
 10
577.935041940557
 20
-47.91762060213722
 30
0.0
 10
578.0235757286986
 20
-47.83007250794213
 30
0.0
 10
578.1201094412289
 20
-47.73360094420575
 30
0.0
  0
LINE
  5
118
330
1F
100
AcDbEntity
  8
0
  6
Continuous
 62
   142
420
    32960
370
     0
100
AcDbLine
 10
576.0701094412
 20
-48.9765298764
 30
0.0
 11
576.8701094412
 21
-48.9765298764
 31
0.0
  0
SPLINE
  5
119
330
1F
100
AcDbEntity
  8
0
  6
Continuous
 62
     7
370
    15
100
AcDbSpline
210
0.0
220
0.0
230
1.0
 70
     8
 71
     3
 72
    26
 73
    22
 74
     0
 42
0.00000001
 43
0.00000001
 40
0.0
 40
0.0
 40
0.0
 40
0.0
 40
0.125
 40
0.125
 40
0.25
 40
0.25
 40
0.375
 40
0.375
 40
0.390625
 40
0.390625
 40
0.3984375
 40
0.3984375
 40
0.40625
 40
0.40625
 40
0.4375
 40
0.4375
 40
0.5
 40
0.5
 40
0.75
 40
0.75
 40
1.0
 40
1.0
 40
1.0
 40
1.0
 10
578.1201094412289
 20
-47.73360094420575
 30
0.0
 10
577.9617699577049
 20
-47.8300872514772
 30
0.0
 10
577.8165987401269
 20
-47.91762060213722
 30
0.0
 10
577.5569629607625
 20
-48.0750632067562
 30
0.0
 10
577.442479438824
 20
-48.14492549129479
 30
0.0
 10
577.2437510404719
 20
-48.26693202483023
 30
0.0
 10
577.1594270851866
 20
-48.31907627382714
 30
0.0
 10
577.0797712280522
 20
-48.36777215895638
 30
0.0
 10
577.0711309793074
 20
-48.373044390707
 30
0.0
 10
577.0584809112333
 20
-48.38074510510387
 30
0.0
 10
577.0543159385167
 20
-48.38327740436466
 30
0.0
 10
577.0460885350379
 20
-48.3882727918099
 30
0.0
 10
577.0375833368659
 20
-48.3934293822022
 30
0.0
 10
577.00145936096
 20
-48.41526375756039
 30
0.0
 10
576.9729141246816
 20
-48.43234629579957
 30
0.0
 10
576.8884767487907
 20
-48.48243902437544
 30
0.0
 10
576.8337828596054
 20
-48.51429432857013
 30
0.0
 10
576.5701350970878
 20
-48.66587160859803
 30
0.0
 10
576.3908630839082
 20
-48.76249586159409
 30
0.0
 10
576.140618602645
 20
-48.90646922553344
 30
0.0
 10
576.0701094412289
 20
-48.9537928944015
 30
0.0
 10
576.0701094412289
 20
-48.97652987639384
 30
0.0
  0
SPLINE
  5
11A
330
1F
100
AcDbEntity
  8
0
  6
Continuous
 62
   142
420
    32960
370
     0
100
AcDbSpline
210
0.0
220
0.0
230
1.0
 70
     8
 71
     3
 72
    14
 73
    10
 74
     0
 42
0.00000001
 43
0.00000001
 40
0.0
 40
0.0
 40
0.0
 40
0.0
 40
0.25
 40
0.25
 40
0.5
 40
0.5
 40
0.75
 40
0.75
 40
1.0
 40
1.0
 40
1.0
 40
1.0
 10
633.3278760242899
 20
75.516399055794
 30
0.0
 10
633.352228809035
 20
75.516399055794
 30
0.0
 10
633.37658159378
 20
75.46304304296403
 30
0.0
 10
633.4252871632696
 20
75.25766115192026
 30
0.0
 10
633.4496399480145
 20
75.10571608271027
 30
0.0
 10
633.4983455175043
 20
74.72621983174257
 30
0.0
 10
633.5226983022494
 20
74.49881796555435
 30
0.0
 10
633.5714038717391
 20
74.00298221873052
 30
0.0
 10
633.595756656484
 20
73.73474342828811
 30
0.0
 10
633.6201094412289
 20
73.466399055794
 30
0.0
  0
LINE
  5
11B
330
1F
100
AcDbEntity
  8
0
  6
Continuous
 62
     7
370
    15
100
AcDbLine
 10
633.6201094412
 20
73.4663990558
 30
0.0
 11
578.1201094412
 21
73.4663990558
 31
0.0
  0
SPLINE
  5
11C
330
1F
100
AcDbEntity
  8
0
  6
Continuous
 62
   142
420
    32960
370
     0
100
AcDbSpline
210
0.0
220
0.0
230
1.0
 70
     8
 71
     3
 72
    22
 73
    18
 74
     0
 42
0.00000001
 43
0.00000001
 40
0.0
 40
0.0
 40
0.0
 40
0.0
 40
0.125
 40
0.125
 40
0.25
 40
0.25
 40
0.375
 40
0.375
 40
0.5
 40
0.5
 40
0.625
 40
0.625
 40
0.75
 40
0.75
 40
0.875
 40
0.875
 40
1.0
 40
1.0
 40
1.0
 40
1.0
 10
578.1201094412289
 20
73.466399055794
 30
0.0
 10
578.0678586450991
 20
73.60176840865068
 30
0.0
 10
578.0164152504868
 20
73.73502491593167
 30
0.0
 10
577.9133895055578
 20
73.9968345623824
 30
0.0
 10
577.8614212485373
 20
74.12632821807966
 30
0.0
 10
577.7573880421688
 20
74.37534062069892
 30
0.0
 10
577.7060340894747
 20
74.49320355867161
 30
0.0
 10
577.6029256018091
 20
74.71541248595967
 30
0.0
 10
577.5506303227132
 20
74.8207149028585
 30
0.0
 10
577.4469723982747
 20
75.01064797632115
 30
0.0
 10
577.3956665560908
 20
75.09539769319007
 30
0.0
 10
577.2923902399982
 20
75.24426649379387
 30
0.0
 10
577.2399609725916
 20
75.30869243834032
 30
0.0
 10
577.1365902879422
 20
75.41129179373767
 30
0.0
 10
577.0852925208056
 20
75.45018353229122
 30
0.0
 10
576.9817630566207
 20
75.50283938485423
 30
0.0
 10
576.9294313065838
 20
75.51639905579397
 30
0.0
 10
576.8771805090408
 20
75.516399055794
 30
0.0
  0
LINE
  5
11D
330
1F
100
AcDbEntity
  8
0
  6
Continuous
 62
   142
420
    32960
370
     0
100
AcDbLine
 10
576.877180509
 20
75.5163990558
 30
0.0
 11
633.3278760243
 21
75.5163990558
 31
0.0
  0
LINE
  5
11E
330
1F
100
AcDbEntity
  8
0
  6
Continuous
 62
     7
370
    15
100
AcDbLine
 10
576.877180509
 20
-49.7836009442
 30
0.0
 11
633.1701094412
 21
-49.7836009442
 31
0.0
  0
LINE
  5
11F
330
1F
100
AcDbEntity
  8
0
  6
Continuous
 62
     7
370
    15
100
AcDbLine
 10
578.1201094412
 20
-47.7336009442
 30
0.0
 11
633.6201094412
 21
-47.7336009442
 31
0.0
  0
SPLINE
  5
120
330
1F
100
AcDbEntity
  8
0
  6
Continuous
 62
   142
420
    32960
370
     0
100
AcDbSpline
210
0.0
220
0.0
230
1.0
 70
     8
 71
     3
 72
    14
 73
    10
 74
     0
 42
0.00000001
 43
0.00000001
 40
0.0
 40
0.0
 40
0.0
 40
0.0
 40
0.25
 40
0.25
 40
0.5
 40
0.5
 40
0.75
 40
0.75
 40
1.0
 40
1.0
 40
1.0
 40
1.0
 10
633.6201094412288
 20
-47.73360094420575
 30
0.0
 10
633.5826094412289
 20
-48.00194531669982
 30
0.0
 10
633.545109441229
 20
-48.27018410714234
 30
0.0
 10
633.4701094412287
 20
-48.766019853966
 30
0.0
 10
633.4326094412288
 20
-48.99342172015436
 30
0.0
 10
633.3576094412289
 20
-49.37291797112198
 30
0.0
 10
633.3201094412289
 20
-49.52486304033199
 30
0.0
 10
633.2451094412289
 20
-49.73024493137579
 30
0.0
 10
633.2076094412289
 20
-49.78360094420575
 30
0.0
 10
633.1701094412289
 20
-49.78360094420575
 30
0.0
  0
SPLINE
  5
121
330
1F
100
AcDbEntity
  8
0
  6
Continuous
 62
   142
420
    32960
370
     0
100
AcDbSpline
210
0.0
220
0.0
230
1.0
 70
     8
 71
     3
 72
    22
 73
    18
 74
     0
 42
0.00000001
 43
0.00000001
 40
0.0
 40
0.0
 40
0.0
 40
0.0
 40
0.125
 40
0.125
 40
0.25
 40
0.25
 40
0.375
 40
0.375
 40
0.5
 40
0.5
 40
0.625
 40
0.625
 40
0.75
 40
0.75
 40
0.875
 40
0.875
 40
1.0
 40
1.0
 40
1.0
 40
1.0
 10
576.8771805090408
 20
-49.78360094420575
 30
0.0
 10
576.92943130593
 20
-49.78360094420581
 30
0.0
 10
576.9808746992567
 20
-49.77030239552299
 30
0.0
 10
577.0839004377228
 20
-49.71827997261513
 30
0.0
 10
577.1358686819697
 20
-49.67914830396685
 30
0.0
 10
577.2399019023304
 20
-49.57601409547574
 30
0.0
 10
577.2912558577854
 20
-49.51293054607425
 30
0.0
 10
577.3943643432206
 20
-49.36464563507504
 30
0.0
 10
577.4466596162646
 20
-49.27838533288642
 30
0.0
 10
577.5503175519859
 20
-49.08852730111962
 30
0.0
 10
577.601623395734
 20
-48.98530492835557
 30
0.0
 10
577.7048997071377
 20
-48.76296328084106
 30
0.0
 10
577.7573289741899
 20
-48.6426584026114
 30
0.0
 10
577.8606996675052
 20
-48.39528257173015
 30
0.0
 10
577.911997435026
 20
-48.26753577098869
 30
0.0
 10
578.0155268920462
 20
-48.00452169241193
 30
0.0
 10
578.0678586429267
 20
-47.86897030269072
 30
0.0
 10
578.1201094412289
 20
-47.73360094420575
 30
0.0
  0
LINE
  5
122
330
1F
100
AcDbEntity
  8
0
  6
Continuous
 62
     7
370
    15
100
AcDbLine
 10
578.1201094412
 20
73.4663990558
 30
0.0
 11
578.1201094412
 21
-47.7336009442
 31
0.0
  0
SPLINE
  5
123
330
1F
100
AcDbEntity
  8
0
  6
Continuous
 62
   142
420
    32960
370
     0
100
AcDbSpline
210
0.0
220
0.0
230
1.0
 70
     8
 71
     3
 72
    28
 73
    24
 74
     0
 42
0.00000001
 43
0.00000001
 40
0.0
 40
0.0
 40
0.0
 40
0.0
 40
0.0424511562984638
 40
0.0838283245508758
 40
0.1241382140250725
 40
0.16338808570097
 40
0.2015858094461932
 40
0.2387399281033024
 40
0.2748597293761813
 40
0.3099553265048777
 40
0.3440377488220506
 40
0.3771190433880514
 40
0.4092123889937583
 40
0.4403322238929825
 40
0.4704943886616196
 40
0.4997162855533745
 40
0.5280170556020951
 40
0.5866939435666956
 40
0.6532950615732025
 40
0.7278860865759401
 40
0.8105131339233816
 40
0.9012095503590818
 40
1.0
 40
1.0
 40
1.0
 40
1.0
 10
576.070109441229
 20
74.70932798798214
 30
0.0
 10
576.0711193059649
 20
74.70257662128412
 30
0.0
 10
576.0731134864823
 20
74.68924469329747
 30
0.0
 10
576.0888542901669
 20
74.66727927518043
 30
0.0
 10
576.1128822583146
 20
74.64417764857397
 30
0.0
 10
576.1452012907238
 20
74.61979182786244
 30
0.0
 10
576.1846773006247
 20
74.59415991743023
 30
0.0
 10
576.2304850560896
 20
74.5672720866645
 30
0.0
 10
576.2817464298171
 20
74.53913081675506
 30
0.0
 10
576.337632476946
 20
74.50973541726546
 30
0.0
 10
576.3973444834363
 20
74.4790859236403
 30
0.0
 10
576.460124694215
 20
74.447182363958
 30
0.0
 10
576.5252575154769
 20
74.41402395699356
 30
0.0
 10
576.5920735422687
 20
74.3796128078521
 30
0.0
 10
576.6599457128078
 20
74.34394047522407
 30
0.0
 10
576.7283077724402
 20
74.3070358187137
 30
0.0
 10
576.8217377716431
 20
74.25471090728259
 30
0.0
 10
576.9503069093012
 20
74.1791880781735
 30
0.0
 10
577.1262146279015
 20
74.07382117226335
 30
0.0
 10
577.3322149559432
 20
73.94941281514245
 30
0.0
 10
577.5688597823099
 20
73.80595642289752
 30
0.0
 10
577.8353846163417
 20
73.64368992071496
 30
0.0
 10
578.0225364032514
 20
73.52715529052986
 30
0.0
 10
578.1201094412289
 20
73.46639905579394
 30
0.0
  0
LINE
  5
124
330
1F
100
AcDbEntity
  8
0
  6
Continuous
 62
   142
420
    32960
370
     0
100
AcDbLine
 10
576.0701094412
 20
74.709327988
 30
0.0
 11
576.0701094412
 21
-48.9765298764
 31
0.0
  0
LINE
  5
125
330
1F
100
AcDbEntity
  8
0
  6
Continuous
 62
     7
370
    15
100
AcDbLine
 10
633.6201094412
 20
73.4663990558
 30
0.0
 11
633.6201094412
 21
-47.7336009442
 31
0.0
  0
LINE
  5
126
330
1F
100
AcDbEntity
  8
0
  6
Continuous
 62
     7
370
    15
100
AcDbLine
 10
633.6201094412
 20
73.4663990558
 30
0.0
 11
635.6701094412
 21
73.4663990558
 31
0.0
  0
LINE
  5
127
330
1F
100
AcDbEntity
  8
0
  6
Continuous
 62
     7
370
    15
100
AcDbLine
 10
635.6701094412
 20
-47.7336009442
 30
0.0
 11
633.6201094412
 21
-47.7336009442
 31
0.0
  0
LINE
  5
128
330
1F
100
AcDbEntity
  8
0
  6
Continuous
 62
     7
370
    15
100
AcDbLine
 10
635.6701094412
 20
73.4663990558
 30
0.0
 11
635.6701094412
 21
-47.7336009442
 31
0.0
  0
SPLINE
  5
129
330
1F
100
AcDbEntity
  8
0
  6
Continuous
 62
   142
420
    32960
370
     0
100
AcDbSpline
210
0.0
220
0.0
230
1.0
 70
     8
 71
     3
 72
    20
 73
    16
 74
     0
 42
0.00000001
 43
0.00000001
 40
0.0
 40
0.0
 40
0.0
 40
0.0
 40
0.1249999999999969
 40
0.1249999999999969
 40
0.2499999999999939
 40
0.2499999999999939
 40
0.3749999999999908
 40
0.3749999999999908
 40
0.4999999999999878
 40
0.4999999999999878
 40
0.6249999999999847
 40
0.6249999999999847
 40
0.7499999999999817
 40
0.7499999999999817
 40
1.0
 40
1.0
 40
1.0
 40
1.0
 10
635.6701094412291
 20
73.46639905579435
 30
0.0
 10
635.6701094412289
 20
73.60174946250439
 30
0.0
 10
635.6568289325721
 20
73.73488875345028
 30
0.0
 10
635.604823335598
 20
73.9967044033659
 30
0.0
 10
635.5655288967064
 20
74.12663768728086
 30
0.0
 10
635.4626473762147
 20
74.37503862481795
 30
0.0
 10
635.3997018089292
 20
74.49277110630842
 30
0.0
 10
635.2512562438388
 20
74.71529804674142
 30
0.0
 10
635.1647558776433
 20
74.82082662445558
 30
0.0
 10
634.9755754878423
 20
75.01013428204121
 30
0.0
 10
634.8724838424218
 20
75.0949260452651
 30
0.0
 10
634.6492807744513
 20
75.24441709931115
 30
0.0
 10
634.5294228483712
 20
75.30853600441706
 30
0.0
 10
634.1595621559999
 20
75.46208650829878
 30
0.0
 10
633.890810262411
 20
75.51639905579447
 30
0.0
 10
633.620109441229
 20
75.51639905579447
 30
0.0
  0
SPLINE
  5
12A
330
1F
100
AcDbEntity
  8
0
  6
Continuous
 62
   142
420
    32960
370
     0
100
AcDbSpline
210
0.0
220
0.0
230
1.0
 70
     8
 71
     3
 72
    14
 73
    10
 74
     0
 42
0.00000001
 43
0.00000001
 40
0.0
 40
0.0
 40
0.0
 40
0.0
 40
0.25
 40
0.25
 40
0.5
 40
0.5
 40
0.75
 40
0.75
 40
1.0
 40
1.0
 40
1.0
 40
1.0
 10
634.8701094412291
 20
73.46639905579435
 30
0.0
 10
634.870109441229
 20
73.63138163912211
 30
0.0
 10
634.8372854052215
 20
73.79451471199522
 30
0.0
 10
634.7121131740648
 20
74.0962443214252
 30
0.0
 10
634.6192200989682
 20
74.2350501050151
 30
0.0
 10
634.3888059795331
 20
74.46547471552967
 30
0.0
 10
634.2494959467296
 20
74.55857336402244
 30
0.0
 10
633.9489425293295
 20
74.68329711768365
 30
0.0
 10
633.7850920387078
 20
74.71639905579455
 30
0.0
 10
633.620109441229
 20
74.71639905579455
 30
0.0
  0
LINE
  5
12B
330
1F
100
AcDbEntity
  8
0
  6
Continuous
 62
   142
420
    32960
370
     0
100
AcDbLine
 10
576.877180509
 20
-48.9836009442
 30
0.0
 11
576.877180509
 21
-49.7836009442
 31
0.0
  0
SPLINE
  5
12C
330
1F
100
AcDbEntity
  8
0
  6
Continuous
 62
   142
420
    32960
370
     0
100
AcDbSpline
210
0.0
220
0.0
230
1.0
 70
     8
 71
     3
 72
    14
 73
    10
 74
     0
 42
0.00000001
 43
0.00000001
 40
0.0
 40
0.0
 40
0.0
 40
0.0
 40
0.25
 40
0.25
 40
0.5
 40
0.5
 40
0.75
 40
0.75
 40
1.0
 40
1.0
 40
1.0
 40
1.0
 10
633.6201094412289
 20
-49.78360094420575
 30
0.0
 10
633.888453813723
 20
-49.78360094420575
 30
0.0
 10
634.1566926041655
 20
-49.73024493137584
 30
0.0
 10
634.6525283509892
 20
-49.52486304033194
 30
0.0
 10
634.8799302171775
 20
-49.37291797112204
 30
0.0
 10
635.2594264681453
 20
-48.99342172015431
 30
0.0
 10
635.4113715373553
 20
-48.76601985396606
 30
0.0
 10
635.6167534283991
 20
-48.27018410714234
 30
0.0
 10
635.6701094412289
 20
-48.00194531669993
 30
0.0
 10
635.6701094412289
 20
-47.73360094420575
 30
0.0
  0
LINE
  5
12D
330
1F
100
AcDbEntity
  8
0
  6
Continuous
 62
   142
420
    32960
370
     0
100
AcDbLine
 10
633.6201094412
 20
-49.7836009442
 30
0.0
 11
633.1701094412
 21
-49.7836009442
 31
0.0
  0
LINE
  5
12E
330
1F
100
AcDbEntity
  8
0
  6
Continuous
 62
   142
420
    32960
370
     0
100
AcDbLine
 10
652.9143451968
 20
-14.8497369503
 30
0.0
 11
648.2674836181
 21
-16.7094851342
 31
0.0
  0
LINE
  5
12F
330
1F
100
AcDbEntity
  8
0
  6
Continuous
 62
   142
420
    32960
370
     0
100
AcDbLine
 10
652.9143451717
 20
-14.8497368874
 30
0.0
 11
652.9143451968
 21
-14.8497369503
 31
0.0
  0
LINE
  5
130
330
1F
100
AcDbEntity
  8
0
  6
Continuous
 62
   142
420
    32960
370
     0
100
AcDbLine
 10
648.2674835708
 20
-16.709485016
 30
0.0
 11
652.9143451466
 21
-14.8497368246
 31
0.0
  0
LINE
  5
131
330
1F
100
AcDbEntity
  8
0
  6
Continuous
 62
   142
420
    32960
370
     0
100
AcDbLine
 10
648.2674836181
 20
-16.7094851342
 30
0.0
 11
648.2674835945
 21
-16.7094850751
 31
0.0
  0
LINE
  5
132
330
1F
100
AcDbEntity
  8
0
  6
Continuous
 62
   142
420
    32960
370
     0
100
AcDbLine
 10
576.8701094412
 20
74.2248026949
 30
0.0
 11
576.8701094412
 21
74.709327988
 31
0.0
  0
LINE
  5
133
330
1F
100
AcDbEntity
  8
0
  6
Continuous
 62
     7
370
    15
100
AcDbLine
 10
-131.5298905588
 20
231.9475837908
 30
0.0
 11
-131.5298905588
 21
230.6768731127
 31
0.0
  0
LINE
  5
134
330
1F
100
AcDbEntity
  8
0
  6
Continuous
 62
     7
370
    15
100
AcDbLine
 10
-131.5298905588
 20
217.1475837908
 30
0.0
 11
-131.5298905588
 21
215.1475837908
 31
0.0
  0
LINE
  5
135
330
1F
100
AcDbEntity
  8
0
  6
Continuous
 62
   142
420
    32960
370
     0
100
AcDbLine
 10
-131.5298905588
 20
441.2560706667
 30
0.0
 11
-131.5298905588
 21
440.8560706667
 31
0.0
  0
LINE
  5
136
330
1F
100
AcDbEntity
  8
0
  6
Continuous
 62
     7
370
    15
100
AcDbLine
 10
-130.7298905588
 20
217.1475837908
 30
0.0
 11
-130.7298905588
 21
216.7183538408
 31
0.0
  0
LINE
  5
137
330
1F
100
AcDbEntity
  8
0
  6
Continuous
 62
     7
370
    15
100
AcDbLine
 10
-130.7298905588
 20
218.091133999
 30
0.0
 11
-130.7298905588
 21
217.1475837908
 31
0.0
  0
LINE
  5
138
330
1F
100
AcDbEntity
  8
0
  6
Continuous
 62
     7
370
    15
100
AcDbLine
 10
-130.7298905588
 20
231.9475837908
 30
0.0
 11
-130.7298905588
 21
229.4975837908
 31
0.0
  0
LINE
  5
139
330
1F
100
AcDbEntity
  8
0
  6
Continuous
 62
   142
420
    32960
370
     0
100
AcDbLine
 10
-130.7298905588
 20
441.2560706667
 30
0.0
 11
-130.7298905588
 21
440.8560706667
 31
0.0
  0
SPLINE
  5
13A
330
1F
100
AcDbEntity
  8
0
  6
Continuous
 62
   142
420
    32960
370
     0
100
AcDbSpline
210
0.0
220
0.0
230
1.0
 70
     8
 71
     3
 72
    12
 73
     8
 74
     0
 42
0.00000001
 43
0.00000001
 40
0.0
 40
0.0
 40
0.0
 40
0.0
 40
0.2500000000000173
 40
0.2500000000000173
 40
0.5000000000000345
 40
0.5000000000000345
 40
1.0
 40
1.0
 40
1.0
 40
1.0
 10
655.4831676301038
 20
-9.005621745016429
 30
0.0
 10
655.5528147922704
 20
-8.949680667933835
 30
0.0
 10
655.61564801304
 20
-8.88536946628285
 30
0.0
 10
655.7280261112472
 20
-8.740424053650885
 30
0.0
 10
655.7766082057082
 20
-8.66049380454087
 30
0.0
 10
655.8930535258012
 20
-8.409823034725816
 30
0.0
 10
655.9324380695784
 20
-8.223211069963599
 30
0.0
 10
655.9268197130359
 20
-8.049736526040046
 30
0.0
  0
LINE
  5
13B
330
1F
100
AcDbEntity
  8
0
  6
Continuous
 62
     7
370
    15
100
AcDbLine
 10
468.7388810295
 20
232.3213216157
 30
0.0
 11
458.8623378196
 21
232.3213216157
 31
0.0
  0
LINE
  5
13C
330
1F
100
AcDbEntity
  8
0
  6
Continuous
 62
     7
370
    15
100
AcDbLine
 10
486.7388810295
 20
232.3213216157
 30
0.0
 11
468.7388810295
 21
232.3213216157
 31
0.0
  0
LINE
  5
13D
330
1F
100
AcDbEntity
  8
0
  6
Continuous
 62
     7
370
    15
100
AcDbLine
 10
496.6154242393
 20
232.3213216157
 30
0.0
 11
486.7388810295
 21
232.3213216157
 31
0.0
  0
SPLINE
  5
13E
330
1F
100
AcDbEntity
  8
0
  6
Continuous
 62
     7
370
    15
100
AcDbSpline
210
0.0
220
0.0
230
1.0
 70
     8
 71
     3
 72
     8
 73
     4
 74
     0
 42
0.00000001
 43
0.00000001
 40
0.0
 40
0.0
 40
0.0
 40
0.0
 40
1.0
 40
1.0
 40
1.0
 40
1.0
 10
458.8623378195933
 20
232.3213216157216
 30
0.0
 10
458.7800329458029
 20
232.3213216157216
 30
0.0
 10
458.7388810294699
 20
232.3245482617897
 30
0.0
 10
458.7388810294699
 20
232.3245482617897
 30
0.0
  0
LINE
  5
13F
330
1F
100
AcDbEntity
  8
0
  6
Continuous
 62
     7
370
    15
100
AcDbLine
 10
458.7388810295
 20
231.9475837908
 30
0.0
 11
458.7388810295
 21
232.3245482618
 31
0.0
  0
SPLINE
  5
140
330
1F
100
AcDbEntity
  8
0
  6
Continuous
 62
     7
370
    15
100
AcDbSpline
210
0.0
220
0.0
230
1.0
 70
     8
 71
     3
 72
     8
 73
     4
 74
     0
 42
0.00000001
 43
0.00000001
 40
0.0
 40
0.0
 40
0.0
 40
0.0
 40
1.0
 40
1.0
 40
1.0
 40
1.0
 10
496.7388810294699
 20
232.3245482617897
 30
0.0
 10
496.7388810294699
 20
232.3245482617897
 30
0.0
 10
496.6977291131369
 20
232.3213216157216
 30
0.0
 10
496.6154242393464
 20
232.3213216157216
 30
0.0
  0
LINE
  5
141
330
1F
100
AcDbEntity
  8
0
  6
Continuous
 62
     7
370
    15
100
AcDbLine
 10
496.7388810295
 20
232.3245482618
 30
0.0
 11
496.7388810295
 21
231.9475837908
 31
0.0
  0
LWPOLYLINE
  5
142
330
1F
100
AcDbEntity
  8
0
  6
Continuous
 62
     7
370
    15
100
AcDbPolyline
 90
        3
 70
   128
 43
0.0
 10
458.522672108
 20
233.9475837908
 10
458.6245784072
 20
233.5095746017
 10
458.7388810295
 20
232.3245482618
  0
LWPOLYLINE
  5
143
330
1F
100
AcDbEntity
  8
0
  6
Continuous
 62
     7
370
    15
100
AcDbPolyline
 90
        3
 70
   128
 43
0.0
 10
496.9550899509
 20
233.9475837908
 10
496.8531836518
 20
233.509574602
 10
496.7388810295
 20
232.3245482618
  0
LINE
  5
144
330
1F
100
AcDbEntity
  8
0
  6
Continuous
 62
   142
420
    32960
370
     0
100
AcDbLine
 10
457.5388810295
 20
231.9475837908
 30
0.0
 11
457.5388810295
 21
232.3245482618
 31
0.0
  0
LWPOLYLINE
  5
145
330
1F
100
AcDbEntity
  8
0
  6
Continuous
 62
   142
420
    32960
370
     0
100
AcDbPolyline
 90
        3
 70
   128
 43
0.0
 10
457.2681257547
 20
233.9475837908
 10
457.4471386765
 20
233.2779667799
 10
457.5388810295
 20
232.3245482618
  0
LINE
  5
146
330
1F
100
AcDbEntity
  8
0
  6
Continuous
 62
   142
420
    32960
370
     0
100
AcDbLine
 10
496.7388810295
 20
232.3213216157
 30
0.0
 11
497.8006094245
 21
232.3213216157
 31
0.0
  0
SPLINE
  5
147
330
1F
100
AcDbEntity
  8
0
  6
Continuous
 62
   142
420
    32960
370
     0
100
AcDbSpline
210
0.0
220
0.0
230
1.0
 70
     8
 71
     3
 72
     8
 73
     4
 74
     0
 42
0.00000001
 43
0.00000001
 40
0.0
 40
0.0
 40
0.0
 40
0.0
 40
1.0
 40
1.0
 40
1.0
 40
1.0
 10
497.8006094245316
 20
232.3213216157216
 30
0.0
 10
497.892659487464
 20
232.3213216157216
 30
0.0
 10
497.9388810294699
 20
232.3245482617897
 30
0.0
 10
497.9388810294699
 20
232.3245482617897
 30
0.0
  0
LINE
  5
148
330
1F
100
AcDbEntity
  8
0
  6
Continuous
 62
   142
420
    32960
370
     0
100
AcDbLine
 10
497.9388810295
 20
231.9475837908
 30
0.0
 11
497.9388810295
 21
232.3245482618
 31
0.0
  0
LINE
  5
149
330
1F
100
AcDbEntity
  8
0
  6
Continuous
 62
   142
420
    32960
370
     0
100
AcDbLine
 10
575.0701094412
 20
217.1475837908
 30
0.0
 11
575.0701094412
 21
215.9475837908
 31
0.0
  0
LINE
  5
14A
330
1F
100
AcDbEntity
  8
0
  6
Continuous
 62
   142
420
    32960
370
     0
100
AcDbLine
 10
575.0701094412
 20
215.6878459907
 30
0.0
 11
575.0701094412
 21
215.1475837908
 31
0.0
  0
LINE
  5
14B
330
1F
100
AcDbEntity
  8
0
  6
Continuous
 62
   142
420
    32960
370
     0
100
AcDbLine
 10
575.0701094412
 20
214.9889327583
 30
0.0
 11
575.0701094412
 21
214.6975837908
 31
0.0
  0
LINE
  5
14C
330
1F
100
AcDbEntity
  8
0
  6
Continuous
 62
   142
420
    32960
370
     0
100
AcDbLine
 10
575.0701094412
 20
217.1475837908
 30
0.0
 11
574.9701094412
 21
217.1475837908
 31
0.0
  0
ARC
  5
14D
330
1F
100
AcDbEntity
  8
0
  6
Continuous
 62
   142
420
    32960
370
     0
100
AcDbCircle
 10
573.0701094412
 20
209.9475837908
 30
0.0
 40
2.0
100
AcDbArc
 50
298.3593500283
 51
0.0
  0
LINE
  5
14E
330
1F
100
AcDbEntity
  8
0
  6
Continuous
 62
   142
420
    32960
370
     0
100
AcDbLine
 10
575.0701094412
 20
209.9475837908
 30
0.0
 11
575.0701094412
 21
214.6975837908
 31
0.0
  0
LINE
  5
14F
330
1F
100
AcDbEntity
  8
0
  6
Continuous
 62
     7
370
    15
100
AcDbLine
 10
638.9701094412
 20
3.2372553805
 30
0.0
 11
638.9701094412
 21
26.095542731
 31
0.0
  0
SPLINE
  5
150
330
1F
100
AcDbEntity
  8
0
  6
Continuous
 62
     7
370
    15
100
AcDbSpline
210
0.0
220
0.0
230
1.0
 70
    24
 71
     3
 72
    10
 73
     6
 74
     0
 42
0.00000001
 43
0.00000001
 40
0.0
 40
0.0
 40
0.0
 40
0.0
 40
0.5
 40
0.5
 40
1.0
 40
1.0
 40
1.0
 40
1.0
 10
653.4701094412292
 20
9.76639905579349
 30
0.0
 10
653.4701094412289
 20
9.766399055793407
 30
0.0
 10
653.4701094412288
 20
11.96201550717335
 30
0.0
 10
653.4701094412288
 20
17.37078260442024
 30
0.0
 10
653.4701094412289
 20
19.56639905579763
 30
0.0
 10
653.4701094412292
 20
19.56639905579441
 30
0.0
  0
LINE
  5
151
330
1F
100
AcDbEntity
  8
0
  6
Continuous
 62
     7
370
    15
100
AcDbLine
 10
610.5701094412
 20
253.0475837908
 30
0.0
 11
519.5701094412
 21
253.0475837908
 31
0.0
  0
ARC
  5
152
330
1F
100
AcDbEntity
  8
0
  6
Continuous
 62
     7
370
    15
100
AcDbCircle
 10
610.5701094412
 20
230.0475837908
 30
0.0
 40
23.00000000000001
100
AcDbArc
 50
299.5911871723
 51
90.0
  0
LINE
  5
153
330
1F
100
AcDbEntity
  8
0
  6
Continuous
 62
     7
370
    15
100
AcDbLine
 10
594.8701094412
 20
198.5475837908
 30
0.0
 11
621.9276962298
 21
210.0474532327
 31
0.0
  0
LINE
  5
154
330
1F
100
AcDbEntity
  8
0
  6
Continuous
 62
     7
370
    15
100
AcDbLine
 10
576.5701094412
 20
218.8975837908
 30
0.0
 11
576.5701094412
 21
200.5475837908
 31
0.0
  0
LINE
  5
155
330
1F
100
AcDbEntity
  8
0
  6
Continuous
 62
     7
370
    15
100
AcDbLine
 10
517.5701094412
 20
218.3975837908
 30
0.0
 11
574.9701094412
 21
218.3975837908
 31
0.0
  0
ARC
  5
156
330
1F
100
AcDbEntity
  8
0
  6
Continuous
 62
     7
370
    15
100
AcDbCircle
 10
598.0701094412
 20
217.5475837908
 30
0.0
 40
2.600000000000052
100
AcDbArc
 50
101.3148497955
 51
258.700947069
  0
ARC
  5
157
330
1F
100
AcDbEntity
  8
0
  6
Continuous
 62
   142
420
    32960
370
     0
100
AcDbCircle
 10
598.5701094412
 20
220.3530247271
 30
0.0
 40
0.2503511010932462
100
AcDbArc
 50
79.8945592916
 51
263.9942235051
  0
ARC
  5
158
330
1F
100
AcDbEntity
  8
0
  6
Continuous
 62
   142
420
    32960
370
     0
100
AcDbCircle
 10
598.0701094412
 20
217.5475837908
 30
0.0
 40
3.099999999999989
100
AcDbArc
 50
280.1054407084
 51
79.8945592916
  0
ARC
  5
159
330
1F
100
AcDbEntity
  8
0
  6
Continuous
 62
   142
420
    32960
370
     0
100
AcDbCircle
 10
598.5701094412
 20
214.7421428545
 30
0.0
 40
0.2503511010932298
100
AcDbArc
 50
96.005776495
 51
280.1054407084
  0
ARC
  5
15A
330
1F
100
AcDbEntity
  8
0
  6
Continuous
 62
   142
420
    32960
370
     0
100
AcDbCircle
 10
598.0701094412
 20
217.5475837908
 30
0.0
 40
2.599999999999997
100
AcDbArc
 50
280.4998591652
 51
79.5001408348
  0
ARC
  5
15B
330
1F
100
AcDbEntity
  8
0
  6
Continuous
 62
   142
420
    32960
370
     0
100
AcDbCircle
 10
598.0701094412
 20
217.5475837908
 30
0.0
 40
3.100000000000038
100
AcDbArc
 50
100.8891073053
 51
259.1110070997
  0
ARC
  5
15C
330
1F
100
AcDbEntity
  8
0
  6
Continuous
 62
   142
420
    32960
370
     0
100
AcDbCircle
 10
597.5317967642
 20
220.3458668186
 30
0.0
 40
0.2504090746769212
100
AcDbArc
 50
276.4642622073
 51
100.8891073053
  0
ARC
  5
15D
330
1F
100
AcDbEntity
  8
0
  6
Continuous
 62
   142
420
    32960
370
     0
100
AcDbCircle
 10
597.5317967642
 20
214.7492706429
 30
0.0
 40
0.2503794968157466
100
AcDbArc
 50
259.1110070998
 51
83.3730607603
  0
LINE
  5
15E
330
1F
100
AcDbEntity
  8
0
  6
Continuous
 62
   142
420
    32960
370
     0
100
AcDbLine
 10
574.9701094412
 20
218.8975837908
 30
0.0
 11
574.9701094412
 21
218.3975837908
 31
0.0
  0
LINE
  5
15F
330
1F
100
AcDbEntity
  8
0
  6
Continuous
 62
   142
420
    32960
370
     0
100
AcDbLine
 10
576.5701094412
 20
218.8975837908
 30
0.0
 11
574.9701094412
 21
218.8975837908
 31
0.0
  0
ARC
  5
160
330
1F
100
AcDbEntity
  8
0
  6
Continuous
 62
   142
420
    32960
370
     0
100
AcDbCircle
 10
578.5701094412
 20
200.5475837908
 30
0.0
 40
2.0
100
AcDbArc
 50
180.0
 51
270.0
  0
LINE
  5
161
330
1F
100
AcDbEntity
  8
0
  6
Continuous
 62
   142
420
    32960
370
     0
100
AcDbLine
 10
578.5701094412
 20
198.5475837908
 30
0.0
 11
594.8701094412
 21
198.5475837908
 31
0.0
  0
ARC
  5
162
330
1F
100
AcDbEntity
  8
0
  6
Continuous
 62
   142
420
    32960
370
     0
100
AcDbCircle
 10
519.5701094412
 20
251.0475837908
 30
0.0
 40
2.0
100
AcDbArc
 50
90.0
 51
180.0
  0
LINE
  5
163
330
1F
100
AcDbEntity
  8
0
  6
Continuous
 62
   142
420
    32960
370
     0
100
AcDbLine
 10
517.5701094412
 20
251.0475837908
 30
0.0
 11
517.5701094412
 21
218.3975837908
 31
0.0
  0
LINE
  5
164
330
1F
100
AcDbEntity
  8
0
  6
Continuous
 62
   142
420
    32960
370
     0
100
AcDbLine
 10
517.5701094412
 20
215.9475837908
 30
0.0
 11
517.5701094412
 21
218.3975837908
 31
0.0
  0
LINE
  5
165
330
1F
100
AcDbEntity
  8
0
  6
Continuous
 62
   142
420
    32960
370
     0
100
AcDbLine
 10
574.9701094412
 20
218.3975837908
 30
0.0
 11
574.9701094412
 21
215.9475837908
 31
0.0
  0
LINE
  5
166
330
1F
100
AcDbEntity
  8
0
  6
Continuous
 62
   142
420
    32960
370
     0
100
AcDbLine
 10
575.0701094412
 20
217.1475837908
 30
0.0
 11
575.0701094412
 21
218.3975837908
 31
0.0
  0
LINE
  5
167
330
1F
100
AcDbEntity
  8
0
  6
Continuous
 62
   142
420
    32960
370
     0
100
AcDbLine
 10
575.0701094412
 20
218.3975837908
 30
0.0
 11
574.9701094412
 21
218.3975837908
 31
0.0
  0
LINE
  5
168
330
1F
100
AcDbEntity
  8
0
  6
Continuous
 62
   142
420
    32960
370
     0
100
AcDbLine
 10
575.0701094412
 20
218.8975837908
 30
0.0
 11
575.0701094412
 21
218.3975837908
 31
0.0
  0
LINE
  5
169
330
1F
100
AcDbEntity
  8
0
  6
Continuous
 62
   142
420
    32960
370
     0
100
AcDbLine
 10
575.2701094412
 20
71.1475837908
 30
0.0
 11
576.0701094412
 21
71.1475837908
 31
0.0
  0
LINE
  5
16A
330
1F
100
AcDbEntity
  8
0
  6
Continuous
 62
   142
420
    32960
370
     0
100
AcDbLine
 10
529.8201094412
 20
254.4181361517
 30
0.0
 11
534.8201094412
 21
254.4181361517
 31
0.0
  0
SPLINE
  5
16B
330
1F
100
AcDbEntity
  8
0
  6
Continuous
 62
     7
370
    15
100
AcDbSpline
210
0.0
220
0.0
230
1.0
 70
     8
 71
     3
 72
    16
 73
    12
 74
     0
 42
0.00000001
 43
0.00000001
 40
0.0
 40
0.0
 40
0.0
 40
0.0
 40
0.125
 40
0.125
 40
0.25
 40
0.25
 40
0.5
 40
0.5
 40
0.75
 40
0.75
 40
1.0
 40
1.0
 40
1.0
 40
1.0
 10
637.270109441229
 20
40.77202117606954
 30
0.0
 10
637.376768687424
 20
40.75762316815135
 30
0.0
 10
637.4790525081556
 20
40.74176409692495
 30
0.0
 10
637.6735222541676
 20
40.70743123896644
 30
0.0
 10
637.7657081794478
 20
40.68895745223433
 30
0.0
 10
638.0250985453249
 20
40.63007513544537
 30
0.0
 10
638.1751355759579
 20
40.58620564879595
 30
0.0
 10
638.4186535211254
 20
40.49169674680225
 30
0.0
 10
638.5119572442973
 20
40.44112716536446
 30
0.0
 10
638.6376852043489
 20
40.33661789690188
 30
0.0
 10
638.6701094412289
 20
40.28267820987708
 30
0.0
 10
638.6701094412289
 20
40.22868354770615
 30
0.0
  0
LINE
  5
16C
330
1F
100
AcDbEntity
  8
0
  6
Continuous
 62
     7
370
    15
100
AcDbLine
 10
638.6701094412
 20
40.2286835477
 30
0.0
 11
638.6701094412
 21
-14.6958854361
 31
0.0
  0
SPLINE
  5
16D
330
1F
100
AcDbEntity
  8
0
  6
Continuous
 62
     7
370
    15
100
AcDbSpline
210
0.0
220
0.0
230
1.0
 70
     8
 71
     3
 72
    19
 73
    15
 74
     0
 42
0.00000001
 43
0.00000001
 40
0.0
 40
0.0
 40
0.0
 40
0.0
 40
0.057095908092662
 40
0.115651805237113
 40
0.1756735616979767
 40
0.2371666253302755
 40
0.3001360595090994
 40
0.3645865770444565
 40
0.4305225705602838
 40
0.4979481397533506
 40
0.616204390729849
 40
0.7486213188526917
 40
0.8538534972356744
 40
1.0
 40
1.0
 40
1.0
 40
1.0
 10
637.270109441229
 20
-15.23961761429701
 30
0.0
 10
637.3187350082104
 20
-15.23279165813454
 30
0.0
 10
637.4172295376776
 20
-15.21896520052948
 30
0.0
 10
637.559010656938
 20
-15.19560201025233
 30
0.0
 10
637.6976564860408
 20
-15.17001214997349
 30
0.0
 10
637.831613555173
 20
-15.1420125265393
 30
0.0
 10
637.9599600244011
 20
-15.11165398157313
 30
0.0
 10
638.081531382556
 20
-15.07892228294785
 30
0.0
 10
638.1951881195462
 20
-15.04382150192651
 30
0.0
 10
638.3251732992366
 20
-14.9972102001025
 30
0.0
 10
638.4632615686519
 20
-14.93506131977865
 30
0.0
 10
638.5747175214867
 20
-14.86225041407799
 30
0.0
 10
638.653578957323
 20
-14.78114206139503
 30
0.0
 10
638.6640321598147
 20
-14.72722925564193
 30
0.0
 10
638.6701094412289
 20
-14.69588543611405
 30
0.0
  0
LINE
  5
16E
330
1F
100
AcDbEntity
  8
0
  6
Continuous
 62
   142
420
    32960
370
     0
100
AcDbLine
 10
637.2701094412
 20
40.7720211761
 30
0.0
 11
637.2701094412
 21
-15.2396176143
 31
0.0
  0
SPLINE
  5
16F
330
1F
100
AcDbEntity
  8
0
  6
Continuous
 62
     7
370
    15
100
AcDbSpline
210
0.0
220
0.0
230
1.0
 70
     8
 71
     3
 72
    19
 73
    15
 74
     0
 42
0.00000001
 43
0.00000001
 40
0.0
 40
0.0
 40
0.0
 40
0.0
 40
0.0571115640935943
 40
0.1156812592866335
 40
0.1757147833893927
 40
0.2372174247608606
 40
0.3001940990521333
 40
0.3646493820584508
 40
0.4305875391447039
 40
0.4980125516486578
 40
0.6162616165384447
 40
0.7486631924159511
 40
0.8538790033185848
 40
1.0
 40
1.0
 40
1.0
 40
1.0
 10
637.270109441229
 20
42.76639905579604
 30
0.0
 10
637.3187346372897
 20
42.73458612040068
 30
0.0
 10
637.4172264927074
 20
42.67014802477956
 30
0.0
 10
637.5590079579794
 20
42.56152906846086
 30
0.0
 10
637.6976537141175
 20
42.44242967075121
 30
0.0
 10
637.8316108859224
 20
42.31189615361436
 30
0.0
 10
637.9599574560604
 20
42.17009394198043
 30
0.0
 10
638.0815289620742
 20
42.01699566966907
 30
0.0
 10
638.1951858752044
 20
41.85274776680028
 30
0.0
 10
638.3251695829581
 20
41.63490567946304
 30
0.0
 10
638.4632577584956
 20
41.34539740222015
 30
0.0
 10
638.5747157514686
 20
41.00504432787783
 30
0.0
 10
638.653578600961
 20
40.6273139062629
 30
0.0
 10
638.6640320593535
 20
40.37523562109527
 30
0.0
 10
638.6701094412289
 20
40.22868354770615
 30
0.0
  0
SPLINE
  5
170
330
1F
100
AcDbEntity
  8
0
  6
Continuous
 62
   142
420
    32960
370
     0
100
AcDbSpline
210
0.0
220
0.0
230
1.0
 70
     8
 71
     3
 72
    10
 73
     6
 74
     0
 42
0.00000001
 43
0.00000001
 40
0.0
 40
0.0
 40
0.0
 40
0.0
 40
0.5
 40
0.5
 40
1.0
 40
1.0
 40
1.0
 40
1.0
 10
637.270109441229
 20
42.76639905579604
 30
0.0
 10
637.2695678440268
 20
42.76674052650886
 30
0.0
 10
637.270109441229
 20
42.5437978750324
 30
0.0
 10
637.270109441229
 20
41.82080149987507
 30
0.0
 10
637.2706512324824
 20
41.32160678845614
 30
0.0
 10
637.270109441229
 20
40.77202117606954
 30
0.0
  0
SPLINE
  5
171
330
1F
100
AcDbEntity
  8
0
  6
Continuous
 62
     7
370
    15
100
AcDbSpline
210
0.0
220
0.0
230
1.0
 70
     8
 71
     3
 72
    19
 73
    15
 74
     0
 42
0.00000001
 43
0.00000001
 40
0.0
 40
0.0
 40
0.0
 40
0.0
 40
0.0571143122037922
 40
0.1156859695386074
 40
0.1757206699038294
 40
0.2372237019665125
 40
0.300199981864315
 40
0.3646540860234619
 40
0.4305902805559926
 40
0.4980125476392017
 40
0.6162771910106096
 40
0.7486631870564231
 40
0.8538896613728933
 40
1.0
 40
1.0
 40
1.0
 40
1.0
 10
637.270109441229
 20
-17.23360094420395
 30
0.0
 10
637.3187369557911
 20
-17.20178643697742
 30
0.0
 10
637.4172327784898
 20
-17.13734563445574
 30
0.0
 10
637.5590185905367
 20
-17.02872246182335
 30
0.0
 10
637.6976664407267
 20
-16.90961997151261
 30
0.0
 10
637.8316236647173
 20
-16.77908478264586
 30
0.0
 10
637.9599685512296
 20
-16.63728266366643
 30
0.0
 10
638.0815369887285
 20
-16.4841865587092
 30
0.0
 10
638.1951898645939
 20
-16.31994315042484
 30
0.0
 10
638.3251787906162
 20
-16.10209163947646
 30
0.0
 10
638.4632636374423
 20
-15.81258451827985
 30
0.0
 10
638.5747222636448
 20
-15.47222071297405
 30
0.0
 10
638.6535800791639
 20
-15.09450505922871
 30
0.0
 10
638.6640328831782
 20
-14.84242680113962
 30
0.0
 10
638.6701094412289
 20
-14.69588543611405
 30
0.0
  0
SPLINE
  5
172
330
1F
100
AcDbEntity
  8
0
  6
Continuous
 62
   142
420
    32960
370
     0
100
AcDbSpline
210
0.0
220
0.0
230
1.0
 70
     8
 71
     3
 72
    10
 73
     6
 74
     0
 42
0.00000001
 43
0.00000001
 40
0.0
 40
0.0
 40
0.0
 40
0.0
 40
0.5
 40
0.5
 40
1.0
 40
1.0
 40
1.0
 40
1.0
 10
637.270109441229
 20
-15.23961761429701
 30
0.0
 10
637.2706513394519
 20
-15.78920322616545
 30
0.0
 10
637.270109441229
 20
-16.28829941863935
 30
0.0
 10
637.270109441229
 20
-17.01109863765576
 30
0.0
 10
637.2695677370954
 20
-17.23394248233567
 30
0.0
 10
637.270109441229
 20
-17.23360094420395
 30
0.0
  0
LINE
  5
173
330
1F
100
AcDbEntity
  8
0
  6
Continuous
 62
     7
370
    15
100
AcDbLine
 10
574.0201094412
 20
-1.3336009442
 30
0.0
 11
576.0701094412
 21
-1.3336009442
 31
0.0
  0
LINE
  5
174
330
1F
100
AcDbEntity
  8
0
  6
Continuous
 62
   142
420
    32960
370
     0
100
AcDbLine
 10
574.0201094412
 20
3.6663990558
 30
0.0
 11
576.0701094412
 21
3.6663990558
 31
0.0
  0
LINE
  5
175
330
1F
100
AcDbEntity
  8
0
  6
Continuous
 62
   142
420
    32960
370
     0
100
AcDbLine
 10
574.9701094412
 20
209.9475837908
 30
0.0
 11
574.9701094412
 21
214.6975837908
 31
0.0
  0
ARC
  5
176
330
1F
100
AcDbEntity
  8
0
  6
Continuous
 62
   142
420
    32960
370
     0
100
AcDbCircle
 10
572.9701094412
 20
209.9475837908
 30
0.0
 40
2.0
100
AcDbArc
 50
301.6682432535
 51
0.0
  0
LINE
  5
177
330
1F
100
AcDbEntity
  8
0
  6
Continuous
 62
     7
370
    15
100
AcDbLine
 10
575.2630383734
 20
-49.6524162092
 30
0.0
 11
-130.722819491
 21
-49.6524162092
 31
0.0
  0
SPLINE
  5
178
330
1F
100
AcDbEntity
  8
0
  6
Continuous
 62
   142
420
    32960
370
     0
100
AcDbSpline
210
0.0
220
0.0
230
1.0
 70
     8
 71
     3
 72
    22
 73
    18
 74
     0
 42
0.00000001
 43
0.00000001
 40
0.0
 40
0.0
 40
0.0
 40
0.0
 40
0.125
 40
0.125
 40
0.25
 40
0.25
 40
0.375
 40
0.375
 40
0.5
 40
0.5
 40
0.625
 40
0.625
 40
0.75
 40
0.75
 40
0.875
 40
0.875
 40
1.0
 40
1.0
 40
1.0
 40
1.0
 10
-130.7228194909657
 20
-49.65241620916166
 30
0.0
 10
-130.6705686940765
 20
-49.65241620916172
 30
0.0
 10
-130.6191253007501
 20
-49.63911766047913
 30
0.0
 10
-130.5160995622837
 20
-49.58709523757127
 30
0.0
 10
-130.4641313180369
 20
-49.54796356892288
 30
0.0
 10
-130.3600980976763
 20
-49.44482936043182
 30
0.0
 10
-130.3087441422213
 20
-49.38174581103011
 30
0.0
 10
-130.2056356567861
 20
-49.23346090003066
 30
0.0
 10
-130.153340383742
 20
-49.14720059784244
 30
0.0
 10
-130.0496824480206
 20
-48.9573425660757
 30
0.0
 10
-129.9983766042727
 20
-48.8541201933117
 30
0.0
 10
-129.895100292869
 20
-48.63177854579725
 30
0.0
 10
-129.8426710258167
 20
-48.51147366756725
 30
0.0
 10
-129.7393003325016
 20
-48.26409783668601
 30
0.0
 10
-129.6880025649808
 20
-48.1363510359446
 30
0.0
 10
-129.5844731079606
 20
-47.8733369573679
 30
0.0
 10
-129.5321413570799
 20
-47.73778556764663
 30
0.0
 10
-129.4798905587777
 20
-47.60241620916161
 30
0.0
  0
LINE
  5
179
330
1F
100
AcDbEntity
  8
0
  6
Continuous
 62
     7
370
    15
100
AcDbLine
 10
-129.4798905588
 20
-47.6024162092
 30
0.0
 11
574.0201094412
 21
-47.6024162092
 31
0.0
  0
SPLINE
  5
17A
330
1F
100
AcDbEntity
  8
0
  6
Continuous
 62
   142
420
    32960
370
     0
100
AcDbSpline
210
0.0
220
0.0
230
1.0
 70
     8
 71
     3
 72
    16
 73
    12
 74
     0
 42
0.00000001
 43
0.00000001
 40
0.0
 40
0.0
 40
0.0
 40
0.0
 40
0.2500000000000047
 40
0.2500000000000047
 40
0.5000000000000094
 40
0.5000000000000094
 40
0.7500000000000142
 40
0.7500000000000142
 40
0.8750000000000071
 40
0.8750000000000071
 40
1.0
 40
1.0
 40
1.0
 40
1.0
 10
574.0201094412216
 20
-47.60241620916983
 30
0.0
 10
574.1727382304997
 20
-47.8528958761798
 30
0.0
 10
574.3212458038007
 20
-48.10008782621444
 30
0.0
 10
574.6116168299047
 20
-48.57395215018562
 30
0.0
 10
574.7462853018803
 20
-48.79232660197874
 30
0.0
 10
574.9739159696753
 20
-49.19088428222557
 30
0.0
 10
575.0628539192057
 20
-49.35534717116297
 30
0.0
 10
575.1647885674747
 20
-49.5310418668376
 30
0.0
 10
575.1922768586894
 20
-49.57562922084807
 30
0.0
 10
575.2361305593826
 20
-49.63637862928289
 30
0.0
 10
575.2525118385556
 20
-49.65241620916999
 30
0.0
 10
575.2630383734098
 20
-49.65241620916994
 30
0.0
  0
LINE
  5
17B
330
1F
100
AcDbEntity
  8
0
  6
Continuous
 62
     7
370
    15
100
AcDbLine
 10
574.0201094412
 20
213.8975837908
 30
0.0
 11
-129.4798905588
 21
213.8975837908
 31
0.0
  0
LINE
  5
17C
330
1F
100
AcDbEntity
  8
0
  6
Continuous
 62
   142
420
    32960
370
     0
100
AcDbLine
 10
574.0201094412
 20
-47.6024162092
 30
0.0
 11
574.0201094412
 21
213.8975837908
 31
0.0
  0
LINE
  5
17D
330
1F
100
AcDbEntity
  8
0
  6
Continuous
 62
     7
370
    15
100
AcDbLine
 10
-129.4798905588
 20
213.8975837908
 30
0.0
 11
-129.4798905588
 21
-47.6024162092
 31
0.0
  0
SPLINE
  5
17E
330
1F
100
AcDbEntity
  8
0
  6
Continuous
 62
   142
420
    32960
370
     0
100
AcDbSpline
210
0.0
220
0.0
230
1.0
 70
     8
 71
     3
 72
    29
 73
    25
 74
     0
 42
0.00000001
 43
0.00000001
 40
0.0
 40
0.0
 40
0.0
 40
0.0
 40
0.0472276439763437
 40
0.0923445303536422
 40
0.1353511668900456
 40
0.1762481539282277
 40
0.2150362038395555
 40
0.2517161660396491
 40
0.2862890596021583
 40
0.318756116410422
 40
0.3491188392020661
 40
0.3773790811053209
 40
0.4035391569351463
 40
0.4276020027011904
 40
0.4495714105912483
 40
0.4694523863972247
 40
0.5232332007879532
 40
0.5803767025116003
 40
0.6410164490829331
 40
0.7052640149737405
 40
0.7732130187510375
 40
0.8449423993188203
 40
0.9205190606522138
 40
1.0
 40
1.0
 40
1.0
 40
1.0
 10
-129.4798905587774
 20
-47.60241620916161
 30
0.0
 10
-129.5270105285382
 20
-47.63063083675134
 30
0.0
 10
-129.619144522773
 20
-47.68579908810822
 30
0.0
 10
-129.7538961108676
 20
-47.76608851057485
 30
0.0
 10
-129.8814875771167
 20
-47.84216652215112
 30
0.0
 10
-130.0016217271861
 20
-47.9139975588247
 30
0.0
 10
-130.1141051081226
 20
-47.98159077383063
 30
0.0
 10
-130.2188642214901
 20
-48.04494426536654
 30
0.0
 10
-130.3159206001348
 20
-48.10405896269548
 30
0.0
 10
-130.4053768578112
 20
-48.15893523009751
 30
0.0
 10
-130.4874010903034
 20
-48.20957370817203
 30
0.0
 10
-130.5622127748031
 20
-48.25597530872838
 30
0.0
 10
-130.6300700751146
 20
-48.29814085354079
 30
0.0
 10
-130.6912568014422
 20
-48.33607282913754
 30
0.0
 10
-130.7460755893822
 20
-48.36977019082439
 30
0.0
 10
-130.8242325272984
 20
-48.41702656535863
 30
0.0
 10
-130.9280776020781
 20
-48.4760871528892
 30
0.0
 10
-131.05536257572
 20
-48.54397913412723
 30
0.0
 10
-131.1777642619353
 20
-48.60690897459652
 30
0.0
 10
-131.2906161494226
 20
-48.66485876101917
 30
0.0
 10
-131.3889108050735
 20
-48.71786895576358
 30
0.0
 10
-131.4661901364946
 20
-48.76581070729063
 30
0.0
 10
-131.5194169126549
 20
-48.80920908641612
 30
0.0
 10
-131.5263412264072
 20
-48.83309927510493
 30
0.0
 10
-131.5298905587775
 20
-48.8453451413498
 30
0.0
  0
LINE
  5
17F
330
1F
100
AcDbEntity
  8
0
  6
Continuous
 62
     7
370
    15
100
AcDbLine
 10
-131.5298905588
 20
215.140512723
 30
0.0
 11
-131.5298905588
 21
-48.8453451413
 31
0.0
  0
SPLINE
  5
180
330
1F
100
AcDbEntity
  8
0
  6
Continuous
 62
   142
420
    32960
370
     0
100
AcDbSpline
210
0.0
220
0.0
230
1.0
 70
     8
 71
     3
 72
    18
 73
    14
 74
     0
 42
0.00000001
 43
0.00000001
 40
0.0
 40
0.0
 40
0.0
 40
0.0
 40
0.1250000000000377
 40
0.1250000000000377
 40
0.2500000000000754
 40
0.2500000000000754
 40
0.500000000000066
 40
0.500000000000066
 40
0.6250000000000472
 40
0.6250000000000472
 40
0.7500000000000285
 40
0.7500000000000285
 40
1.0
 40
1.0
 40
1.0
 40
1.0
 10
-131.5298905587743
 20
215.1405127230267
 30
0.0
 10
-131.5298905587743
 20
215.1300214517741
 30
0.0
 10
-131.5143592540948
 20
215.1140547760685
 30
0.0
 10
-131.4542007741341
 20
215.0704610684579
 30
0.0
 10
-131.4087589548209
 20
215.0424245813636
 30
0.0
 10
-131.2357437845453
 20
214.9419826534183
 30
0.0
 10
-131.0676056746275
 20
214.8509253039904
 30
0.0
 10
-130.7727902601527
 20
214.6825977843964
 30
0.0
 10
-130.6658965383039
 20
214.6202134270178
 30
0.0
 10
-130.4459858431952
 20
214.4868420192905
 30
0.0
 10
-130.3323395592623
 20
214.4161184857523
 30
0.0
 10
-129.9779031910832
 20
214.1989340987475
 30
0.0
 10
-129.7300015925344
 20
214.0499902313489
 30
0.0
 10
-129.4798905587743
 20
213.8975837908385
 30
0.0
  0
SPLINE
  5
181
330
1F
100
AcDbEntity
  8
0
  6
Continuous
 62
     7
370
    15
100
AcDbSpline
210
0.0
220
0.0
230
1.0
 70
     8
 71
     3
 72
    14
 73
    10
 74
     0
 42
0.00000001
 43
0.00000001
 40
0.0
 40
0.0
 40
0.0
 40
0.0
 40
0.25
 40
0.25
 40
0.5
 40
0.5
 40
0.75
 40
0.75
 40
1.0
 40
1.0
 40
1.0
 40
1.0
 10
-129.4798905587746
 20
213.8975837908384
 30
0.0
 10
-129.5834679697903
 20
214.0612084082129
 30
0.0
 10
-129.687045380806
 20
214.2247686462876
 30
0.0
 10
-129.8942002028373
 20
214.5271075163021
 30
0.0
 10
-129.997777613853
 20
214.6657671908071
 30
0.0
 10
-130.2049324358843
 20
214.8971673438362
 30
0.0
 10
-130.3085098469
 20
214.9898167762814
 30
0.0
 10
-130.5156646689314
 20
215.1150496366739
 30
0.0
 10
-130.6192420799471
 20
215.1475837908385
 30
0.0
 10
-130.7228194909627
 20
215.1475837908385
 30
0.0
  0
LINE
  5
182
330
1F
100
AcDbEntity
  8
0
  6
Continuous
 62
     7
370
    15
100
AcDbLine
 10
-130.722819491
 20
215.1475837908
 30
0.0
 11
-130.722819491
 21
215.9475837908
 31
0.0
  0
SPLINE
  5
183
330
1F
100
AcDbEntity
  8
0
  6
Continuous
 62
     7
370
    15
100
AcDbSpline
210
0.0
220
0.0
230
1.0
 70
     8
 71
     3
 72
    14
 73
    10
 74
     0
 42
0.00000001
 43
0.00000001
 40
0.0
 40
0.0
 40
0.0
 40
0.0
 40
0.25
 40
0.25
 40
0.5
 40
0.5
 40
0.75
 40
0.75
 40
1.0
 40
1.0
 40
1.0
 40
1.0
 10
-129.4798905587746
 20
213.8975837908384
 30
0.0
 10
-129.5834842230144
 20
214.1659702715606
 30
0.0
 10
-129.687045380806
 20
214.4341669537749
 30
0.0
 10
-129.8942002028373
 20
214.9300027005988
 30
0.0
 10
-129.9977776138529
 20
215.1574045667871
 30
0.0
 10
-130.2049324358843
 20
215.5369008177548
 30
0.0
 10
-130.3085098469
 20
215.6888458869648
 30
0.0
 10
-130.5156646689313
 20
215.8942277780086
 30
0.0
 10
-130.6192258267228
 20
215.9475837908386
 30
0.0
 10
-130.7228194909627
 20
215.9475837908386
 30
0.0
  0
LINE
  5
184
330
1F
100
AcDbEntity
  8
0
  6
Continuous
 62
   142
420
    32960
370
     0
100
AcDbLine
 10
575.2630383734
 20
215.9475837908
 30
0.0
 11
-130.722819491
 21
215.9475837908
 31
0.0
  0
SPLINE
  5
185
330
1F
100
AcDbEntity
  8
0
  6
Continuous
 62
   142
420
    32960
370
     0
100
AcDbSpline
210
0.0
220
0.0
230
1.0
 70
     8
 71
     3
 72
    29
 73
    25
 74
     0
 42
0.00000001
 43
0.00000001
 40
0.0
 40
0.0
 40
0.0
 40
0.0
 40
0.0405149277767429
 40
0.0802269711522954
 40
0.1191458266481644
 40
0.1572817978065321
 40
0.1946458378213388
 40
0.2312495948376807
 40
0.2671054599331958
 40
0.3022266177448991
 40
0.3366270996438611
 40
0.3703218392803094
 40
0.403326730227014
 40
0.435658685328304
 40
0.4673356972244794
 40
0.4983768993545089
 40
0.5288026265533179
 40
0.5678987070852813
 40
0.6163669288434769
 40
0.674238129697062
 40
0.7415292581972172
 40
0.818250035668953
 40
0.9044059904893124
 40
1.0
 40
1.0
 40
1.0
 40
1.0
 10
575.263038373413
 20
215.9475837908303
 30
0.0
 10
575.2574908403161
 20
215.9466585214612
 30
0.0
 10
575.2465057095967
 20
215.944826318788
 30
0.0
 10
575.2275478006126
 20
215.930303666927
 30
0.0
 10
575.2069642742736
 20
215.90794589866
 30
0.0
 10
575.184576060288
 20
215.8775991896088
 30
0.0
 10
575.1604296082837
 20
215.8401770745378
 30
0.0
 10
575.1345127309007
 20
215.7963167184827
 30
0.0
 10
575.1068284700194
 20
215.7467198009011
 30
0.0
 10
575.0773758505376
 20
215.692056624708
 30
0.0
 10
575.046155057573
 20
215.6329846384751
 30
0.0
 10
575.0131654417272
 20
215.570138485605
 30
0.0
 10
574.9784083785248
 20
215.5041273016089
 30
0.0
 10
574.941878044498
 20
215.4355348173454
 30
0.0
 10
574.903594498866
 20
215.3649056593427
 30
0.0
 10
574.8634840066113
 20
215.2927861749513
 30
0.0
 10
574.8175838665979
 20
215.2121406158373
 30
0.0
 10
574.758653311553
 20
215.1148915286717
 30
0.0
 10
574.681273623868
 20
214.9908824099052
 30
0.0
 10
574.58535849315
 20
214.8367248193723
 30
0.0
 10
574.4707532738566
 20
214.6500995272137
 30
0.0
 10
574.3374470695799
 20
214.4294849241811
 30
0.0
 10
574.1855312009617
 20
214.1747301830591
 30
0.0
 10
574.0771264697709
 20
213.9931096985598
 30
0.0
 10
574.0201094412249
 20
213.8975837908301
 30
0.0
  0
LINE
  5
186
330
1F
100
AcDbEntity
  8
0
  6
Continuous
 62
     7
370
    15
100
AcDbLine
 10
-130.7298905588
 20
-48.8453451413
 30
0.0
 11
-130.7298905588
 21
-48.3590821387
 31
0.0
  0
LINE
  5
187
330
1F
100
AcDbEntity
  8
0
  6
Continuous
 62
     7
370
    15
100
AcDbLine
 10
-130.7298905588
 20
214.6565427214
 30
0.0
 11
-130.7298905588
 21
215.140512723
 31
0.0
  0
SPLINE
  5
188
330
1F
100
AcDbEntity
  8
0
  6
Continuous
 62
   142
420
    32960
370
     0
100
AcDbSpline
210
0.0
220
0.0
230
1.0
 70
     8
 71
     3
 72
    24
 73
    20
 74
     0
 42
0.00000001
 43
0.00000001
 40
0.0
 40
0.0
 40
0.0
 40
0.0
 40
0.0644512564079551
 40
0.1250748349618298
 40
0.1818723400885764
 40
0.2348457697409592
 40
0.2839976347069084
 40
0.3293311279772425
 40
0.3708503715759628
 40
0.408560787421501
 40
0.4424696748697147
 40
0.4725871493092095
 40
0.4989277482530396
 40
0.5714944947878869
 40
0.647786523457439
 40
0.7283531857573008
 40
0.8136604203297753
 40
0.9041000269768766
 40
1.0
 40
1.0
 40
1.0
 40
1.0
 10
-129.4798905587774
 20
-47.60241620916161
 30
0.0
 10
-129.5162227593877
 20
-47.63807607581172
 30
0.0
 10
-129.5867294375874
 20
-47.70727801514685
 30
0.0
 10
-129.6891141703285
 20
-47.80726459356899
 30
0.0
 10
-129.784224178811
 20
-47.90041457686483
 30
0.0
 10
-129.8718095791466
 20
-47.98669043388109
 30
0.0
 10
-129.9517601854302
 20
-48.06610233914954
 30
0.0
 10
-130.0241294791245
 20
-48.13864923331873
 30
0.0
 10
-130.0890881318141
 20
-48.2043335725656
 30
0.0
 10
-130.1468985564135
 20
-48.2631570626707
 30
0.0
 10
-130.1978837733155
 20
-48.31512553770051
 30
0.0
 10
-130.2424139517148
 20
-48.36023813491291
 30
0.0
 10
-130.305158737166
 20
-48.4227340403004
 30
0.0
 10
-130.3894147960912
 20
-48.50016982089117
 30
0.0
 10
-130.4919356118552
 20
-48.58757490850291
 30
0.0
 10
-130.5859370094548
 20
-48.6661056432261
 30
0.0
 10
-130.6632178563525
 20
-48.73554451003853
 30
0.0
 10
-130.7186511762891
 20
-48.79681584900308
 30
0.0
 10
-130.7260716167931
 20
-48.82885575216783
 30
0.0
 10
-130.7298905587774
 20
-48.84534514134975
 30
0.0
  0
SPLINE
  5
189
330
1F
100
AcDbEntity
  8
0
  6
Continuous
 62
   142
420
    32960
370
     0
100
AcDbSpline
210
0.0
220
0.0
230
1.0
 70
     8
 71
     3
 72
    18
 73
    14
 74
     0
 42
0.00000001
 43
0.00000001
 40
0.0
 40
0.0
 40
0.0
 40
0.0
 40
0.1250000000000181
 40
0.1250000000000181
 40
0.2500000000000362
 40
0.2500000000000362
 40
0.3750000000000544
 40
0.3750000000000544
 40
0.500000000000073
 40
0.500000000000073
 40
0.7500000000000365
 40
0.7500000000000365
 40
1.0
 40
1.0
 40
1.0
 40
1.0
 10
-130.7298905587743
 20
215.1405127230267
 30
0.0
 10
-130.7298905587744
 20
215.1288384726782
 30
0.0
 10
-130.7181978794756
 20
215.110513493374
 30
0.0
 10
-130.6741853514577
 20
215.0603025825419
 30
0.0
 10
-130.6413388592198
 20
215.0280239100005
 30
0.0
 10
-130.5605997985053
 20
214.9522767915359
 30
0.0
 10
-130.5118214489476
 20
214.9079223080647
 30
0.0
 10
-130.4046351317118
 20
214.8098284677296
 30
0.0
 10
-130.3463246485593
 20
214.7561629683692
 30
0.0
 10
-130.1611153324737
 20
214.5806608038704
 30
0.0
 10
-130.032391217941
 20
214.4487414816874
 30
0.0
 10
-129.761032180185
 20
214.1766177814205
 30
0.0
 10
-129.6204683956825
 20
214.0380691847126
 30
0.0
 10
-129.4798905587743
 20
213.8975837908385
 30
0.0
  0
LINE
  5
18A
330
1F
100
AcDbEntity
  8
0
  6
Continuous
 62
     7
370
    15
100
AcDbLine
 10
574.7770958112
 20
215.1475837908
 30
0.0
 11
575.2630383734
 21
215.1475837908
 31
0.0
  0
SPLINE
  5
18B
330
1F
100
AcDbEntity
  8
0
  6
Continuous
 62
   142
420
    32960
370
     0
100
AcDbSpline
210
0.0
220
0.0
230
1.0
 70
     8
 71
     3
 72
    24
 73
    20
 74
     0
 42
0.00000001
 43
0.00000001
 40
0.0
 40
0.0
 40
0.0
 40
0.0
 40
0.0459084819137735
 40
0.0908676285698355
 40
0.1349219452764788
 40
0.178118740798213
 40
0.2205082016902273
 40
0.2621434405670334
 40
0.3030805121973517
 40
0.3433783912463578
 40
0.383098905791017
 40
0.4223066214818101
 40
0.4610686724855588
 40
0.4994545371301122
 40
0.5585300488469783
 40
0.6380531470530063
 40
0.7381162600158515
 40
0.8587594596871028
 40
0.9999999999999999
 40
0.9999999999999999
 40
0.9999999999999999
 40
0.9999999999999999
 10
575.263038373413
 20
215.1475837908303
 30
0.0
 10
575.256053778074
 20
215.146703000354
 30
0.0
 10
575.2422290208939
 20
215.1449596331479
 30
0.0
 10
575.2176694317484
 20
215.1312763370016
 30
0.0
 10
575.1905612692084
 20
215.1104445937168
 30
0.0
 10
575.1606308760702
 20
215.0824894647676
 30
0.0
 10
575.1279486216318
 20
215.0484465359786
 30
0.0
 10
575.0924955359329
 20
215.009078654133
 30
0.0
 10
575.0542754140453
 20
214.9651965956394
 30
0.0
 10
575.0132879617587
 20
214.9175629281859
 30
0.0
 10
574.9695274097627
 20
214.8669132857221
 30
0.0
 10
574.9230136830071
 20
214.8139246327376
 30
0.0
 10
574.8736715817845
 20
214.759288554743
 30
0.0
 10
574.8123211113405
 20
214.6932538823105
 30
0.0
 10
574.724762772281
 20
214.6065053906171
 30
0.0
 10
574.6006194799722
 20
214.4854893692188
 30
0.0
 10
574.4400457709083
 20
214.3260025660588
 30
0.0
 10
574.2429722589943
 20
214.1255510567185
 30
0.0
 10
574.0981927181097
 20
213.9774554864373
 30
0.0
 10
574.0201094412249
 20
213.8975837908301
 30
0.0
  0
LINE
  5
18C
330
1F
100
AcDbEntity
  8
0
  6
Continuous
 62
   142
420
    32960
370
     0
100
AcDbLine
 10
-131.5298905588
 20
-48.8453451413
 30
0.0
 11
-130.7298905588
 21
-48.8453451413
 31
0.0
  0
LINE
  5
18D
330
1F
100
AcDbEntity
  8
0
  6
Continuous
 62
   142
420
    32960
370
     0
100
AcDbLine
 10
-131.5298905588
 20
215.140512723
 30
0.0
 11
-130.7298905588
 21
215.140512723
 31
0.0
  0
LINE
  5
18E
330
1F
100
AcDbEntity
  8
0
  6
Continuous
 62
   142
420
    32960
370
     0
100
AcDbLine
 10
575.2630383734
 20
-49.6524162092
 30
0.0
 11
575.2630383734
 21
-48.8524162092
 31
0.0
  0
SPLINE
  5
18F
330
1F
100
AcDbEntity
  8
0
  6
Continuous
 62
   142
420
    32960
370
     0
100
AcDbSpline
210
0.0
220
0.0
230
1.0
 70
     8
 71
     3
 72
    10
 73
     6
 74
     0
 42
0.00000001
 43
0.00000001
 40
0.0
 40
0.0
 40
0.0
 40
0.0
 40
0.2730325391341754
 40
0.6365162695670874
 40
1.0
 40
1.0
 40
1.0
 40
1.0
 10
574.9701094412285
 20
214.2856402568504
 30
0.0
 10
575.1452257657978
 20
214.3634429235416
 30
0.0
 10
575.5534715741861
 20
214.5448230012485
 30
0.0
 10
575.9747241702476
 20
214.8297804899711
 30
0.0
 10
576.0383143509005
 20
215.0369353120024
 30
0.0
 10
576.0701094412271
 20
215.1405127230181
 30
0.0
  0
LINE
  5
190
330
1F
100
AcDbEntity
  8
0
  6
Continuous
 62
   142
420
    32960
370
     0
100
AcDbLine
 10
576.0701094412
 20
74.709832988
 30
0.0
 11
576.0701094412
 21
77.8163990558
 31
0.0
  0
LINE
  5
191
330
1F
100
AcDbEntity
  8
0
  6
Continuous
 62
   142
420
    32960
370
     0
100
AcDbLine
 10
576.0701094412
 20
196.5040735829
 30
0.0
 11
576.0701094412
 21
197.5040735829
 31
0.0
  0
LINE
  5
192
330
1F
100
AcDbEntity
  8
0
  6
Continuous
 62
   142
420
    32960
370
     0
100
AcDbLine
 10
576.0701094412
 20
198.3040735829
 30
0.0
 11
576.0701094412
 21
215.140512723
 31
0.0
  0
LINE
  5
193
330
1F
100
AcDbEntity
  8
0
  6
Continuous
 62
   142
420
    32960
370
     0
100
AcDbLine
 10
575.2701094412
 20
215.140512723
 30
0.0
 11
575.2701094412
 21
-48.8453451414
 31
0.0
  0
LINE
  5
194
330
1F
100
AcDbEntity
  8
0
  6
Continuous
 62
   142
420
    32960
370
     0
100
AcDbLine
 10
576.0701094412
 20
70.140512723
 30
0.0
 11
575.2701094412
 21
70.140512723
 31
0.0
  0
LINE
  5
195
330
1F
100
AcDbEntity
  8
0
  6
Continuous
 62
   142
420
    32960
370
     0
100
AcDbLine
 10
575.2701094412
 20
10.140512723
 30
0.0
 11
576.0701094412
 21
10.140512723
 31
0.0
  0
LINE
  5
196
330
1F
100
AcDbEntity
  8
0
  6
Continuous
 62
   142
420
    32960
370
     0
100
AcDbLine
 10
576.0701094412
 20
172.140512723
 30
0.0
 11
575.2701094412
 21
172.140512723
 31
0.0
  0
LINE
  5
197
330
1F
100
AcDbEntity
  8
0
  6
Continuous
 62
   142
420
    32960
370
     0
100
AcDbLine
 10
575.2701094412
 20
92.140512723
 30
0.0
 11
576.0701094412
 21
92.140512723
 31
0.0
  0
LINE
  5
198
330
1F
100
AcDbEntity
  8
0
  6
Continuous
 62
     7
370
    15
100
AcDbLine
 10
-8.7298905588
 20
-50.0524162092
 30
0.0
 11
31.2701094412
 21
-50.0524162092
 31
0.0
  0
LINE
  5
199
330
1F
100
AcDbEntity
  8
0
  6
Continuous
 62
     7
370
    15
100
AcDbLine
 10
31.2701094412
 20
-50.0524162092
 30
0.0
 11
36.2701094412
 21
-50.0524162092
 31
0.0
  0
LINE
  5
19A
330
1F
100
AcDbEntity
  8
0
  6
Continuous
 62
     7
370
    15
100
AcDbLine
 10
36.2701094412
 20
-50.0524162092
 30
0.0
 11
456.2701094412
 21
-50.0524162092
 31
0.0
  0
LINE
  5
19B
330
1F
100
AcDbEntity
  8
0
  6
Continuous
 62
     7
370
    15
100
AcDbLine
 10
456.2701094412
 20
-50.0524162092
 30
0.0
 11
461.2701094412
 21
-50.0524162092
 31
0.0
  0
LINE
  5
19C
330
1F
100
AcDbEntity
  8
0
  6
Continuous
 62
     7
370
    15
100
AcDbLine
 10
461.2701094412
 20
-50.0524162092
 30
0.0
 11
475.2701094412
 21
-50.0524162092
 31
0.0
  0
LINE
  5
19D
330
1F
100
AcDbEntity
  8
0
  6
Continuous
 62
     7
370
    15
100
AcDbLine
 10
565.2701094412
 20
-50.0524162092
 30
0.0
 11
586.2701094412
 21
-50.0524162092
 31
0.0
  0
LINE
  5
19E
330
1F
100
AcDbEntity
  8
0
  6
Continuous
 62
   142
420
    32960
370
     0
100
AcDbLine
 10
586.2701094412
 20
-50.0524162092
 30
0.0
 11
591.2701094412
 21
-50.0524162092
 31
0.0
  0
LINE
  5
19F
330
1F
100
AcDbEntity
  8
0
  6
Continuous
 62
     7
370
    15
100
AcDbLine
 10
31.2701094412
 20
-50.0524162092
 30
0.0
 11
31.2701094412
 21
-49.6524162092
 31
0.0
  0
LINE
  5
1A0
330
1F
100
AcDbEntity
  8
0
  6
Continuous
 62
     7
370
    15
100
AcDbLine
 10
461.2701094412
 20
-50.0524162092
 30
0.0
 11
461.2701094412
 21
-49.6524162092
 31
0.0
  0
LINE
  5
1A1
330
1F
100
AcDbEntity
  8
0
  6
Continuous
 62
   142
420
    32960
370
     0
100
AcDbLine
 10
586.2701094412
 20
-50.0524162092
 30
0.0
 11
586.2701094412
 21
-49.7836009442
 31
0.0
  0
LINE
  5
1A2
330
1F
100
AcDbEntity
  8
0
  6
Continuous
 62
   142
420
    32960
370
     0
100
AcDbLine
 10
591.2701094412
 20
-50.0524162092
 30
0.0
 11
591.2701094412
 21
-49.7836009442
 31
0.0
  0
LINE
  5
1A3
330
1F
100
AcDbEntity
  8
0
  6
Continuous
 62
   142
420
    32960
370
     0
100
AcDbLine
 10
635.6701094412
 20
42.7663990558
 30
0.0
 11
637.2701094412
 21
42.7663990558
 31
0.0
  0
LINE
  5
1A4
330
1F
100
AcDbEntity
  8
0
  6
Continuous
 62
   142
420
    32960
370
     0
100
AcDbLine
 10
635.6701094412
 20
-17.2336009442
 30
0.0
 11
637.2701094412
 21
-17.2336009442
 31
0.0
  0
LINE
  5
1A5
330
1F
100
AcDbEntity
  8
0
  6
Continuous
 62
     7
370
    15
100
AcDbLine
 10
635.6701094412
 20
-15.235246196
 30
0.0
 11
637.2701094412
 21
-15.235246196
 31
0.0
  0
LINE
  5
1A6
330
1F
100
AcDbEntity
  8
0
  6
Continuous
 62
     7
370
    15
100
AcDbLine
 10
635.6701094412
 20
40.7676506206
 30
0.0
 11
637.2701094412
 21
40.7676506206
 31
0.0
  0
LINE
  5
1A7
330
1F
100
AcDbEntity
  8
0
  6
Continuous
 62
   142
420
    32960
370
     0
100
AcDbLine
 10
607.1773936028
 20
203.7037052772
 30
0.0
 11
601.8796685461
 21
201.4001888634
 31
0.0
  0
LINE
  5
1A8
330
1F
100
AcDbEntity
  8
0
  6
Continuous
 62
     7
370
    15
100
AcDbLine
 10
617.7998223961
 20
130.5944121607
 30
0.0
 11
616.8748491442
 21
133.4383022892
 31
0.0
  0
LINE
  5
1A9
330
1F
100
AcDbEntity
  8
0
  6
Continuous
 62
   142
420
    32960
370
     0
100
AcDbLine
 10
619.3463248187
 20
125.8395903704
 30
0.0
 11
617.7998223961
 21
130.5944121607
 31
0.0
  0
LINE
  5
1AA
330
1F
100
AcDbEntity
  8
0
  6
Continuous
 62
   142
420
    32960
370
     0
100
AcDbLine
 10
619.2262689331
 20
131.0583628874
 30
0.0
 11
620.7727713558
 21
126.3035410972
 31
0.0
  0
LINE
  5
1AB
330
1F
100
AcDbEntity
  8
0
  6
Continuous
 62
     7
370
    15
100
AcDbLine
 10
619.2262689331
 20
131.0583628874
 30
0.0
 11
599.5083630446
 21
191.6823407128
 31
0.0
  0
LINE
  5
1AC
330
1F
100
AcDbEntity
  8
0
  6
Continuous
 62
   142
420
    32960
370
     0
100
AcDbLine
 10
599.5083630446
 20
191.6823407128
 30
0.0
 11
598.0991403839
 21
191.2239920396
 31
0.0
  0
LINE
  5
1AD
330
1F
100
AcDbEntity
  8
0
  6
Continuous
 62
   142
420
    32960
370
     0
100
AcDbLine
 10
617.7998223961
 20
130.5944121607
 30
0.0
 11
619.2262689331
 21
131.0583628874
 31
0.0
  0
ARC
  5
1AE
330
1F
100
AcDbEntity
  8
0
  6
Continuous
 62
     7
370
    15
100
AcDbCircle
 10
611.9414347313
 20
172.8546688325
 30
0.0
 40
24.50000000000014
100
AcDbArc
 50
18.0170795066
 51
108.0170795066
  0
LINE
  5
1AF
330
1F
100
AcDbEntity
  8
0
  6
Continuous
 62
     7
370
    15
100
AcDbLine
 10
637.4051648951
 20
173.7757801971
 30
0.0
 11
640.4981697404
 21
164.2661366166
 31
0.0
  0
LINE
  5
1B0
330
1F
100
AcDbEntity
  8
0
  6
Continuous
 62
     7
370
    15
100
AcDbLine
 10
640.4981697404
 20
164.2661366166
 30
0.0
 11
639.0717232033
 21
163.8021858898
 31
0.0
  0
LINE
  5
1B1
330
1F
100
AcDbEntity
  8
0
  6
Continuous
 62
   142
420
    32960
370
     0
100
AcDbLine
 10
639.0717232033
 20
163.8021858898
 30
0.0
 11
635.9787183581
 21
173.3118294703
 31
0.0
  0
LINE
  5
1B2
330
1F
100
AcDbEntity
  8
0
  6
Continuous
 62
   142
420
    32960
370
     0
100
AcDbLine
 10
635.9787183581
 20
173.3118294703
 30
0.0
 11
637.4051648951
 21
173.7757801971
 31
0.0
  0
LINE
  5
1B3
330
1F
100
AcDbEntity
  8
0
  6
Continuous
 62
   142
420
    32960
370
     0
100
AcDbLine
 10
635.2400615034
 20
180.4325307034
 30
0.0
 11
637.4051648951
 21
173.7757801971
 31
0.0
  0
ARC
  5
1B4
330
1F
100
AcDbEntity
  8
0
  6
Continuous
 62
     7
370
    15
100
AcDbCircle
 10
611.9414347313
 20
172.8546688325
 30
0.0
 40
23.00000000000003
100
AcDbArc
 50
18.0170795066
 51
108.0170795066
  0
LINE
  5
1B5
330
1F
100
AcDbEntity
  8
0
  6
Continuous
 62
   142
420
    32960
370
     0
100
AcDbLine
 10
604.8275235873
 20
194.7268490675
 30
0.0
 11
604.3635728605
 21
196.1532956046
 31
0.0
  0
LINE
  5
1B6
330
1F
100
AcDbEntity
  8
0
  6
Continuous
 62
   142
420
    32960
370
     0
100
AcDbLine
 10
635.2400615034
 20
180.4325307034
 30
0.0
 11
633.8136149664
 21
179.9685799766
 31
0.0
  0
ARC
  5
1B7
330
1F
100
AcDbEntity
  8
0
  6
Continuous
 62
   142
420
    32960
370
     0
100
AcDbCircle
 10
600.6970684922
 20
192.0689663185
 30
0.0
 40
1.250000000000055
100
AcDbArc
 50
108.0170795066
 51
198.0170795066
  0
LINE
  5
1B8
330
1F
100
AcDbEntity
  8
0
  6
Continuous
 62
   142
420
    32960
370
     0
100
AcDbLine
 10
600.3104428865
 20
193.257671766
 30
0.0
 11
604.8275235873
 21
194.7268490675
 31
0.0
  0
LINE
  5
1B9
330
1F
100
AcDbEntity
  8
0
  6
Continuous
 62
     7
370
    15
100
AcDbLine
 10
600.3104428865
 20
193.257671766
 30
0.0
 11
599.8464921598
 21
194.6841183031
 31
0.0
  0
LINE
  5
1BA
330
1F
100
AcDbEntity
  8
0
  6
Continuous
 62
   142
420
    32960
370
     0
100
AcDbLine
 10
599.8464921598
 20
194.6841183031
 30
0.0
 11
604.3635728605
 21
196.1532956046
 31
0.0
  0
ARC
  5
1BB
330
1F
100
AcDbEntity
  8
0
  6
Continuous
 62
   142
420
    32960
370
     0
100
AcDbCircle
 10
600.6970684922
 20
192.0689663185
 30
0.0
 40
2.750000000000087
100
AcDbArc
 50
108.0170795066
 51
191.4204723064
  0
SPLINE
  5
1BC
330
1F
100
AcDbEntity
  8
0
  6
Continuous
 62
   142
420
    32960
370
     0
100
AcDbSpline
210
0.0
220
0.0
230
1.0
 70
     8
 71
     3
 72
     8
 73
     4
 74
     0
 42
0.00000001
 43
0.00000001
 40
0.0
 40
0.0
 40
0.0
 40
0.0
 40
1.0
 40
1.0
 40
1.0
 40
1.0
 10
652.9120229064367
 20
-11.51122513960004
 30
0.0
 10
652.9118039912358
 20
-11.22078358932638
 30
0.0
 10
652.9115850760352
 20
-10.91260985212289
 30
0.0
 10
652.9113661608343
 20
-10.58732918855829
 30
0.0
  0
LINE
  5
1BD
330
1F
100
AcDbEntity
  8
0
  6
Continuous
 62
   142
420
    32960
370
     0
100
AcDbLine
 10
652.9113661608
 20
-10.5873291886
 30
0.0
 11
648.2645036007
 21
-12.1777131051
 31
0.0
  0
SPLINE
  5
1BE
330
1F
100
AcDbEntity
  8
0
  6
Continuous
 62
   142
420
    32960
370
     0
100
AcDbSpline
210
0.0
220
0.0
230
1.0
 70
     8
 71
     3
 72
     8
 73
     4
 74
     0
 42
0.00000001
 43
0.00000001
 40
0.0
 40
0.0
 40
0.0
 40
0.0
 40
1.0
 40
1.0
 40
1.0
 40
1.0
 10
648.2645036006802
 20
-12.17771310512067
 30
0.0
 10
648.2647224906235
 20
-12.52339391374807
 30
0.0
 10
648.2649413805668
 20
-12.85089484654126
 30
0.0
 10
648.26516027051
 20
-13.15955156333407
 30
0.0
  0
LINE
  5
1BF
330
1F
100
AcDbEntity
  8
0
  6
Continuous
 62
   142
420
    32960
370
     0
100
AcDbLine
 10
648.2651602705
 20
-13.1595515633
 30
0.0
 11
652.9120229064
 21
-11.5112251396
 31
0.0
  0
LINE
  5
1C0
330
1F
100
AcDbEntity
  8
0
  6
Continuous
 62
   142
420
    32960
370
     0
100
AcDbLine
 10
574.0201094412
 20
25.6663990558
 30
0.0
 11
575.2701094412
 21
25.6663990558
 31
0.0
  0
LINE
  5
1C1
330
1F
100
AcDbEntity
  8
0
  6
Continuous
 62
   142
420
    32960
370
     0
100
AcDbLine
 10
-130.5609060426
 20
217.1475837908
 30
0.0
 11
-131.372819491
 21
217.1475837908
 31
0.0
  0
LINE
  5
1C2
330
1F
100
AcDbEntity
  8
0
  6
Continuous
 62
     7
370
    15
100
AcDbLine
 10
578.0701094412
 20
198.3040735829
 30
0.0
 11
578.0701094412
 21
197.5040735829
 31
0.0
  0
LINE
  5
1C3
330
1F
100
AcDbEntity
  8
0
  6
Continuous
 62
   142
420
    32960
370
     0
100
AcDbLine
 10
578.0701094412
 20
197.5040735829
 30
0.0
 11
576.0701094412
 21
197.5040735829
 31
0.0
  0
LINE
  5
1C4
330
1F
100
AcDbEntity
  8
0
  6
Continuous
 62
   142
420
    32960
370
     0
100
AcDbLine
 10
576.0701094412
 20
197.5040735829
 30
0.0
 11
576.0701094412
 21
198.3040735829
 31
0.0
  0
LINE
  5
1C5
330
1F
100
AcDbEntity
  8
0
  6
Continuous
 62
   142
420
    32960
370
     0
100
AcDbLine
 10
576.0701094412
 20
198.3040735829
 30
0.0
 11
578.0701094412
 21
198.3040735829
 31
0.0
  0
LINE
  5
1C6
330
1F
100
AcDbEntity
  8
0
  6
Continuous
 62
   142
420
    32960
370
     0
100
AcDbLine
 10
578.0701094412
 20
198.3040735829
 30
0.0
 11
594.3092702571
 21
198.3040735829
 31
0.0
  0
LINE
  5
1C7
330
1F
100
AcDbEntity
  8
0
  6
Continuous
 62
   142
420
    32960
370
     0
100
AcDbLine
 10
578.0701094412
 20
197.5040735829
 30
0.0
 11
594.3092702571
 21
197.5040735829
 31
0.0
  0
LINE
  5
1C8
330
1F
100
AcDbEntity
  8
0
  6
Continuous
 62
   142
420
    32960
370
     0
100
AcDbLine
 10
594.3092702571
 20
197.5040735829
 30
0.0
 11
594.3092702571
 21
198.3040735829
 31
0.0
  0
LINE
  5
1C9
330
1F
100
AcDbEntity
  8
0
  6
Continuous
 62
     7
370
    15
100
AcDbLine
 10
-152.1298905588
 20
-2.8524162092
 30
0.0
 11
-152.1298905588
 21
19.1475837908
 31
0.0
  0
LINE
  5
1CA
330
1F
100
AcDbEntity
  8
0
  6
Continuous
 62
     7
370
    15
100
AcDbLine
 10
-154.1298905588
 20
-0.8524162092
 30
0.0
 11
-154.1298905588
 21
17.1475837908
 31
0.0
  0
LINE
  5
1CB
330
1F
100
AcDbEntity
  8
0
  6
Continuous
 62
   142
420
    32960
370
     0
100
AcDbLine
 10
648.2583434099
 20
-3.4210838725
 30
0.0
 11
652.9052431351
 21
-2.3958715215
 31
0.0
  0
SPLINE
  5
1CC
330
1F
100
AcDbEntity
  8
0
  6
Continuous
 62
   142
420
    32960
370
     0
100
AcDbSpline
210
0.0
220
0.0
230
1.0
 70
     8
 71
     3
 72
     8
 73
     4
 74
     0
 42
0.00000001
 43
0.00000001
 40
0.0
 40
0.0
 40
0.0
 40
0.0
 40
1.0
 40
1.0
 40
1.0
 40
1.0
 10
648.2570989781007
 20
-1.750497328912581
 30
0.0
 10
648.2575137887089
 20
-2.318859770221532
 30
0.0
 10
648.2579285993171
 20
-2.876098724190506
 30
0.0
 10
648.2583434099251
 20
-3.421083872542502
 30
0.0
  0
LINE
  5
1CD
330
1F
100
AcDbEntity
  8
0
  6
Continuous
 62
   142
420
    32960
370
     0
100
AcDbLine
 10
652.9039203673
 20
-0.7251778458
 30
0.0
 11
648.2570989781
 21
-1.7504973289
 31
0.0
  0
SPLINE
  5
1CE
330
1F
100
AcDbEntity
  8
0
  6
Continuous
 62
   142
420
    32960
370
     0
100
AcDbSpline
210
0.0
220
0.0
230
1.0
 70
     8
 71
     3
 72
     8
 73
     4
 74
     0
 42
0.00000001
 43
0.00000001
 40
0.0
 40
0.0
 40
0.0
 40
0.0
 40
1.0
 40
1.0
 40
1.0
 40
1.0
 10
652.9052431351067
 20
-2.395871521519821
 30
0.0
 10
652.904802212512
 20
-1.851609411392702
 30
0.0
 10
652.9043612899172
 20
-1.294285793796701
 30
0.0
 10
652.9039203673224
 20
-0.725177845775804
 30
0.0
  0
LINE
  5
1CF
330
1F
100
AcDbEntity
  8
0
  6
Continuous
 62
   142
420
    32960
370
     0
100
AcDbLine
 10
516.0701094412
 20
229.4475837908
 30
0.0
 11
516.0701094412
 21
229.4975837908
 31
0.0
  0
LINE
  5
1D0
330
1F
100
AcDbEntity
  8
0
  6
Continuous
 62
   142
420
    32960
370
     0
100
AcDbLine
 10
517.5701094412
 20
229.4475837908
 30
0.0
 11
516.0701094412
 21
229.4475837908
 31
0.0
  0
LINE
  5
1D1
330
1F
100
AcDbEntity
  8
0
  6
Continuous
 62
   142
420
    32960
370
     0
100
AcDbLine
 10
517.5701094412
 20
218.3975837908
 30
0.0
 11
517.5701094412
 21
229.4475837908
 31
0.0
  0
LINE
  5
1D2
330
1F
100
AcDbEntity
  8
0
  6
Continuous
 62
     7
370
    15
100
AcDbLine
 10
-130.1298905588
 20
218.3975837908
 30
0.0
 11
517.5701094412
 21
218.3975837908
 31
0.0
  0
LINE
  5
1D3
330
1F
100
AcDbEntity
  8
0
  6
Continuous
 62
     7
370
    15
100
AcDbLine
 10
-130.1298905588
 20
229.4975837908
 30
0.0
 11
-130.1298905588
 21
218.3975837908
 31
0.0
  0
LINE
  5
1D4
330
1F
100
AcDbEntity
  8
0
  6
Continuous
 62
     7
370
    15
100
AcDbLine
 10
516.0701094412
 20
229.4975837908
 30
0.0
 11
-130.1298905588
 21
229.4975837908
 31
0.0
  0
SPLINE
  5
1D5
330
1F
100
AcDbEntity
  8
0
  6
Continuous
 62
   142
420
    32960
370
     0
100
AcDbSpline
210
0.0
220
0.0
230
1.0
 70
     8
 71
     3
 72
    30
 73
    26
 74
     0
 42
0.00000001
 43
0.00000001
 40
0.0
 40
0.0
 40
0.0
 40
0.0
 40
0.0377923822129722
 40
0.0746684303709373
 40
0.1106319625154568
 40
0.1456870973114628
 40
0.1798382845458457
 40
0.2130903393642403
 40
0.2454484807646266
 40
0.2769183749439076
 40
0.3075061841792518
 40
0.3372186220246923
 40
0.366063015711468
 40
0.3940473767620201
 40
0.4211804809559085
 40
0.447471958923528
 40
0.4729323987792236
 40
0.4975734623335171
 40
0.5503324513893593
 40
0.6093754670211525
 40
0.6747449267219695
 40
0.7464717064049046
 40
0.8245788239508131
 40
0.9090837639904046
 40
1.0
 40
1.0
 40
1.0
 40
1.0
 10
-132.5798905587744
 20
217.1546548586462
 30
0.0
 10
-132.5789674108827
 20
217.1598089716683
 30
0.0
 10
-132.5771434982305
 20
217.1699922283666
 30
0.0
 10
-132.5627094380929
 20
217.1869431651983
 30
0.0
 10
-132.5405938989017
 20
217.2049004622747
 30
0.0
 10
-132.5107265849255
 20
217.2239884680779
 30
0.0
 10
-132.4740802122823
 20
217.2441750754435
 30
0.0
 10
-132.4313466645559
 20
217.2654685368266
 30
0.0
 10
-132.3832710557307
 20
217.2878667065732
 30
0.0
 10
-132.330559398955
 20
217.3113701292816
 30
0.0
 10
-132.2738971606016
 20
217.3359786478615
 30
0.0
 10
-132.2139402751733
 20
217.3616923672514
 30
0.0
 10
-132.1513140280827
 20
217.388511096534
 30
0.0
 10
-132.0866111655071
 20
217.4164356187676
 30
0.0
 10
-132.020389457533
 20
217.445463371926
 30
0.0
 10
-131.9531754207514
 20
217.4756038137509
 30
0.0
 10
-131.8854480504771
 20
217.5068237720619
 30
0.0
 10
-131.7911905866621
 20
217.5519240694
 30
0.0
 10
-131.6602362721266
 20
217.6173479954174
 30
0.0
 10
-131.4800244674806
 20
217.7086953796867
 30
0.0
 10
-131.2696566047738
 20
217.8157846661744
 30
0.0
 10
-131.0279417061911
 20
217.9385266846448
 30
0.0
 10
-130.7548524475223
 20
218.077023644031
 30
0.0
 10
-130.4516502597246
 20
218.2310122772752
 30
0.0
 10
-130.2397256010384
 20
218.3407233786145
 30
0.0
 10
-130.1298905587744
 20
218.3975837908343
 30
0.0
  0
LINE
  5
1D6
330
1F
100
AcDbEntity
  8
0
  6
Continuous
 62
     7
370
    15
100
AcDbLine
 10
-132.5798905588
 20
229.4975837908
 30
0.0
 11
-132.5798905588
 21
217.1546548586
 31
0.0
  0
LINE
  5
1D7
330
1F
100
AcDbEntity
  8
0
  6
Continuous
 62
   142
420
    32960
370
     0
100
AcDbLine
 10
-130.1298905588
 20
229.4975837908
 30
0.0
 11
-132.5798905588
 21
229.4975837908
 31
0.0
  0
LINE
  5
1D8
330
1F
100
AcDbEntity
  8
0
  6
Continuous
 62
     7
370
    15
100
AcDbLine
 10
-130.722819491
 20
215.9475837908
 30
0.0
 11
-131.372819491
 21
215.9475837908
 31
0.0
  0
SPLINE
  5
1D9
330
1F
100
AcDbEntity
  8
0
  6
Continuous
 62
   142
420
    32960
370
     0
100
AcDbSpline
210
0.0
220
0.0
230
1.0
 70
     8
 71
     3
 72
    22
 73
    18
 74
     0
 42
0.00000001
 43
0.00000001
 40
0.0
 40
0.0
 40
0.0
 40
0.0
 40
0.125
 40
0.125
 40
0.25
 40
0.25
 40
0.375
 40
0.375
 40
0.5
 40
0.5
 40
0.625
 40
0.625
 40
0.75
 40
0.75
 40
0.875
 40
0.875
 40
1.0
 40
1.0
 40
1.0
 40
1.0
 10
-130.1298905587743
 20
218.3975837908343
 30
0.0
 10
-130.1821366594478
 20
218.2358154441414
 30
0.0
 10
-130.2335593494242
 20
218.0766213562927
 30
0.0
 10
-130.3365811049945
 20
217.7637368736626
 30
0.0
 10
-130.3886306632674
 20
217.6087398426292
 30
0.0
 10
-130.4925502274147
 20
217.3114639817873
 30
0.0
 10
-130.5438710064997
 20
217.1706797478274
 30
0.0
 10
-130.6470243926885
 20
216.90498110625
 30
0.0
 10
-130.699399251884
 20
216.7789541650573
 30
0.0
 10
-130.8028897902916
 20
216.5523120641539
 30
0.0
 10
-130.8541728112562
 20
216.451023506864
 30
0.0
 10
-130.9575918803277
 20
216.272831196246
 30
0.0
 10
-131.0099952251654
 20
216.1958946877877
 30
0.0
 10
-131.1131941018841
 20
216.0734314047973
 30
0.0
 10
-131.1645025049885
 20
216.0268557670627
 30
0.0
 10
-131.2683238861956
 20
215.9637246533316
 30
0.0
 10
-131.3205733876641
 20
215.9475837908344
 30
0.0
 10
-131.3728194909625
 20
215.9475837908344
 30
0.0
  0
LINE
  5
1DA
330
1F
100
AcDbEntity
  8
0
  6
Continuous
 62
     7
370
    15
100
AcDbLine
 10
-77.7798905588
 20
231.9475837908
 30
0.0
 11
516.0701094412
 21
231.9475837908
 31
0.0
  0
LINE
  5
1DB
330
1F
100
AcDbEntity
  8
0
  6
Continuous
 62
   142
420
    32960
370
     0
100
AcDbLine
 10
-130.1298905588
 20
231.9475837908
 30
0.0
 11
-130.1298905588
 21
229.4975837908
 31
0.0
  0
LINE
  5
1DC
330
1F
100
AcDbEntity
  8
0
  6
Continuous
 62
   142
420
    32960
370
     0
100
AcDbLine
 10
516.0701094412
 20
231.9475837908
 30
0.0
 11
516.0701094412
 21
229.4975837908
 31
0.0
  0
LINE
  5
1DD
330
1F
100
AcDbEntity
  8
0
  6
Continuous
 62
   142
420
    32960
370
     0
100
AcDbLine
 10
517.3201094412
 20
250.8975837908
 30
0.0
 11
517.3201094412
 21
233.1975837908
 31
0.0
  0
ARC
  5
1DE
330
1F
100
AcDbEntity
  8
0
  6
Continuous
 62
   142
420
    32960
370
     0
100
AcDbCircle
 10
519.7701094412
 20
250.8975837908
 30
0.0
 40
2.450000000000074
100
AcDbArc
 50
90.0
 51
180.0
  0
LINE
  5
1DF
330
1F
100
AcDbEntity
  8
0
  6
Continuous
 62
     7
370
    15
100
AcDbLine
 10
611.0869179397
 20
253.3475837908
 30
0.0
 11
519.7701094412
 21
253.3475837908
 31
0.0
  0
LINE
  5
1E0
330
1F
100
AcDbEntity
  8
0
  6
Continuous
 62
   142
420
    32960
370
     0
100
AcDbLine
 10
519.7701094412
 20
253.3475837908
 30
0.0
 11
519.7701094412
 21
253.0475837908
 31
0.0
  0
LINE
  5
1E1
330
1F
100
AcDbEntity
  8
0
  6
Continuous
 62
   142
420
    32960
370
     0
100
AcDbLine
 10
597.2066684927
 20
198.6050018392
 30
0.0
 11
620.3777712457
 21
208.6800840577
 31
0.0
  0
ARC
  5
1E2
330
1F
100
AcDbEntity
  8
0
  6
Continuous
 62
     7
370
    15
100
AcDbCircle
 10
611.0869179397
 20
230.0475837908
 30
0.0
 40
23.30000000000007
100
AcDbArc
 50
293.5
 51
90.0
  0
LINE
  5
1E3
330
1F
100
AcDbEntity
  8
0
  6
Continuous
 62
   142
420
    32960
370
     0
100
AcDbLine
 10
620.3777712457
 20
208.6800840577
 30
0.0
 11
620.1177104834
 21
209.2781828637
 31
0.0
  0
LINE
  5
1E4
330
1F
100
AcDbEntity
  8
0
  6
Continuous
 62
   142
420
    32960
370
     0
100
AcDbLine
 10
-131.3798905588
 20
229.4975837908
 30
0.0
 11
-131.3798905588
 21
230.740512723
 31
0.0
  0
LINE
  5
1E5
330
1F
100
AcDbEntity
  8
0
  6
Continuous
 62
   142
420
    32960
370
     0
100
AcDbLine
 10
-131.3798905588
 20
217.1546548586
 30
0.0
 11
-131.3798905588
 21
217.7604356168
 31
0.0
  0
LINE
  5
1E6
330
1F
100
AcDbEntity
  8
0
  6
Continuous
 62
   142
420
    32960
370
     0
100
AcDbLine
 10
-132.5798905588
 20
217.1546548586
 30
0.0
 11
-131.3798905588
 21
217.1546548586
 31
0.0
  0
LINE
  5
1E7
330
1F
100
AcDbEntity
  8
0
  6
Continuous
 62
   142
420
    32960
370
     0
100
AcDbLine
 10
-132.5798905588
 20
229.4975837908
 30
0.0
 11
-132.5798905588
 21
230.740512723
 31
0.0
  0
LINE
  5
1E8
330
1F
100
AcDbEntity
  8
0
  6
Continuous
 62
   142
420
    32960
370
     0
100
AcDbLine
 10
-131.372819491
 20
230.7475837908
 30
0.0
 11
-130.1298905588
 21
230.7475837908
 31
0.0
  0
LINE
  5
1E9
330
1F
100
AcDbEntity
  8
0
  6
Continuous
 62
   142
420
    32960
370
     0
100
AcDbLine
 10
-131.372819491
 20
231.9475837908
 30
0.0
 11
-131.372819491
 21
230.7475837908
 31
0.0
  0
LINE
  5
1EA
330
1F
100
AcDbEntity
  8
0
  6
Continuous
 62
   142
420
    32960
370
     0
100
AcDbLine
 10
-132.5798905588
 20
230.740512723
 30
0.0
 11
-131.3798905588
 21
230.740512723
 31
0.0
  0
ARC
  5
1EB
330
1F
100
AcDbEntity
  8
0
  6
Continuous
 62
   142
420
    32960
370
     0
100
AcDbCircle
 10
516.0701094412
 20
233.1975837908
 30
0.0
 40
2.44999999999999
100
AcDbArc
 50
270.0
 51
307.7520013061
  0
LINE
  5
1EC
330
1F
100
AcDbEntity
  8
0
  6
Continuous
 62
   142
420
    32960
370
     0
100
AcDbLine
 10
601.8332221147
 20
201.5070083426
 30
0.0
 11
602.1587928944
 21
200.7582468114
 31
0.0
  0
LINE
  5
1ED
330
1F
100
AcDbEntity
  8
0
  6
Continuous
 62
   142
420
    32960
370
     0
100
AcDbLine
 10
604.8142607841
 20
202.676185884
 30
0.0
 11
605.0933851324
 21
202.0342438319
 31
0.0
  0
SPLINE
  5
1EE
330
1F
100
AcDbEntity
  8
0
  6
Continuous
 62
   142
420
    32960
370
     0
100
AcDbSpline
210
0.0
220
0.0
230
1.0
 70
     8
 71
     3
 72
    10
 73
     6
 74
     0
 42
0.00000001
 43
0.00000001
 40
0.0
 40
0.0
 40
0.0
 40
0.0
 40
0.4415699341100879
 40
0.8832134714156615
 40
1.0
 40
1.0
 40
1.0
 40
1.0
 10
-130.1298905587743
 20
229.4975837908344
 30
0.0
 10
-130.2182045081525
 20
229.7823283666003
 30
0.0
 10
-130.394847127542
 20
230.3518649808532
 30
0.0
 10
-130.5948468280114
 20
230.9629003715948
 30
0.0
 10
-130.7065331818174
 20
231.1849606161899
 30
0.0
 10
-130.729890558771
 20
231.231400889891
 30
0.0
  0
LINE
  5
1EF
330
1F
100
AcDbEntity
  8
0
  6
Continuous
 62
   142
420
    32960
370
     0
100
AcDbLine
 10
-130.7298905588
 20
229.7997320754
 30
0.0
 11
-130.1298905588
 21
229.4975837908
 31
0.0
  0
LINE
  5
1F0
330
1F
100
AcDbEntity
  8
0
  6
Continuous
 62
     7
370
    15
100
AcDbLine
 10
-67.6798905588
 20
233.9475837908
 30
0.0
 11
-71.1798905588
 21
233.9475837908
 31
0.0
  0
SPLINE
  5
1F1
330
1F
100
AcDbEntity
  8
0
  6
Continuous
 62
     7
370
    15
100
AcDbSpline
210
0.0
220
0.0
230
1.0
 70
     8
 71
     3
 72
    14
 73
    10
 74
     0
 42
0.00000001
 43
0.00000001
 40
0.0
 40
0.0
 40
0.0
 40
0.0
 40
0.25
 40
0.25
 40
0.5
 40
0.5
 40
0.75
 40
0.75
 40
1.0
 40
1.0
 40
1.0
 40
1.0
 10
-71.17989055877277
 20
412.1475837908344
 30
0.0
 10
-71.17989055877267
 20
412.1165074019455
 30
0.0
 10
-71.08879492711189
 20
412.0854310130566
 30
0.0
 10
-70.73814291801261
 20
412.0232782352788
 30
0.0
 10
-70.47872450716652
 20
411.9922018463899
 30
0.0
 10
-69.83080407868498
 20
411.9300490686122
 30
0.0
 10
-69.44255699007084
 20
411.8989726797233
 30
0.0
 10
-68.59600815403027
 20
411.8368199019455
 30
0.0
 10
-68.13803948742137
 20
411.8057435130566
 30
0.0
 10
-67.67989055877277
 20
411.7746671241677
 30
0.0
  0
LINE
  5
1F2
330
1F
100
AcDbEntity
  8
0
  6
Continuous
 62
     7
370
    15
100
AcDbLine
 10
-67.6798905588
 20
233.9475837908
 30
0.0
 11
-67.6798905588
 21
411.7746671242
 31
0.0
  0
LINE
  5
1F3
330
1F
100
AcDbEntity
  8
0
  6
Continuous
 62
     7
370
    15
100
AcDbLine
 10
-71.1798905588
 20
233.9475837908
 30
0.0
 11
-71.1798905588
 21
412.1475837908
 31
0.0
  0
LINE
  5
1F4
330
1F
100
AcDbEntity
  8
0
  6
Continuous
 62
     7
370
    15
100
AcDbLine
 10
502.2911423418
 20
270.0735353336
 30
0.0
 11
-67.6798905588
 21
411.7746671242
 31
0.0
  0
LINE
  5
1F5
330
1F
100
AcDbEntity
  8
0
  6
Continuous
 62
     7
370
    15
100
AcDbLine
 10
-67.6798905588
 20
233.9475837908
 30
0.0
 11
516.8201094412
 21
233.9475837908
 31
0.0
  0
ARC
  5
1F6
330
1F
100
AcDbEntity
  8
0
  6
Continuous
 62
     7
370
    15
100
AcDbCircle
 10
499.8784739011
 20
260.3689471922
 30
0.0
 40
10.00000000000001
100
AcDbArc
 50
26.0033458445
 51
76.0386774171
  0
LINE
  5
1F7
330
1F
100
AcDbEntity
  8
0
  6
Continuous
 62
     7
370
    15
100
AcDbLine
 10
515.8077938977
 20
250.5228306551
 30
0.0
 11
508.8661583576
 21
264.7531835124
 31
0.0
  0
ARC
  5
1F8
330
1F
100
AcDbEntity
  8
0
  6
Continuous
 62
   142
420
    32960
370
     0
100
AcDbCircle
 10
506.8201094412
 20
246.1385943349
 30
0.0
 40
10.00000000000006
100
AcDbArc
 50
0.0
 51
26.0033458445
  0
LINE
  5
1F9
330
1F
100
AcDbEntity
  8
0
  6
Continuous
 62
   142
420
    32960
370
     0
100
AcDbLine
 10
516.8201094412
 20
233.9475837908
 30
0.0
 11
516.8201094412
 21
246.1385943349
 31
0.0
  0
CIRCLE
  5
1FA
330
1F
100
AcDbEntity
  8
0
  6
Continuous
 62
     7
370
    15
100
AcDbCircle
 10
398.3201094412
 20
274.9475837908
 30
0.0
 40
7.0
  0
CIRCLE
  5
1FB
330
1F
100
AcDbEntity
  8
0
  6
Continuous
 62
     7
370
    15
100
AcDbCircle
 10
-21.6798905588
 20
378.9475837908
 30
0.0
 40
7.000000000000005
  0
SPLINE
  5
1FC
330
1F
100
AcDbEntity
  8
0
  6
Continuous
 62
     7
370
    15
100
AcDbSpline
210
0.0
220
0.0
230
1.0
 70
     8
 71
     3
 72
    14
 73
    10
 74
     0
 42
0.00000001
 43
0.00000001
 40
0.0
 40
0.0
 40
0.0
 40
0.0
 40
0.25
 40
0.25
 40
0.5
 40
0.5
 40
0.75
 40
0.75
 40
1.0
 40
1.0
 40
1.0
 40
1.0
 10
-69.17989055877277
 20
412.1475837908344
 30
0.0
 10
-69.17989055877277
 20
412.1165074019455
 30
0.0
 10
-69.14084957377526
 20
412.0854310130566
 30
0.0
 10
-68.99057014130405
 20
412.0232782352788
 30
0.0
 10
-68.87939082236998
 20
411.9922018463899
 30
0.0
 10
-68.60171063873521
 20
411.9300490686122
 30
0.0
 10
-68.43531902932915
 20
411.8989726797233
 30
0.0
 10
-68.07251238531175
 20
411.8368199019455
 30
0.0
 10
-67.87624009962218
 20
411.8057435130566
 30
0.0
 10
-67.67989055877277
 20
411.7746671241677
 30
0.0
  0
LINE
  5
1FD
330
1F
100
AcDbEntity
  8
0
  6
Continuous
 62
   142
420
    32960
370
     0
100
AcDbLine
 10
-69.1798905588
 20
412.1475837908
 30
0.0
 11
-71.1798905588
 21
412.1475837908
 31
0.0
  0
ARC
  5
1FE
330
1F
100
AcDbEntity
  8
0
  6
Continuous
 62
   142
420
    32960
370
     0
100
AcDbCircle
 10
-72.6798905588
 20
412.1475837908
 30
0.0
 40
3.499999999999804
100
AcDbArc
 50
360.0
 51
25.0
  0
LINE
  5
1FF
330
1F
100
AcDbEntity
  8
0
  6
Continuous
 62
     7
370
    15
100
AcDbLine
 10
-75.4060731762
 20
421.5432036552
 30
0.0
 11
-71.3204288782
 21
412.7815111834
 31
0.0
  0
LINE
  5
200
330
1F
100
AcDbEntity
  8
0
  6
Continuous
 62
     7
370
    15
100
AcDbLine
 10
-73.5934576021
 20
422.3884401786
 30
0.0
 11
-69.5078133041
 21
413.6267477069
 31
0.0
  0
LINE
  5
201
330
1F
100
AcDbEntity
  8
0
  6
Continuous
 62
   142
420
    32960
370
     0
100
AcDbLine
 10
-71.3204288782
 20
412.7815111834
 30
0.0
 11
-69.5078133041
 21
413.6267477069
 31
0.0
  0
LINE
  5
202
330
1F
100
AcDbEntity
  8
0
  6
Continuous
 62
   142
420
    32960
370
     0
100
AcDbLine
 10
-73.5934576021
 20
422.3884401786
 30
0.0
 11
-75.4060731762
 21
421.5432036552
 31
0.0
  0
LINE
  5
203
330
1F
100
AcDbEntity
  8
0
  6
Continuous
 62
   142
420
    32960
370
     0
100
AcDbLine
 10
-75.7065489108
 20
426.9199791138
 30
0.0
 11
-73.5934576021
 21
422.3884401786
 31
0.0
  0
LINE
  5
204
330
1F
100
AcDbEntity
  8
0
  6
Continuous
 62
   142
420
    32960
370
     0
100
AcDbLine
 10
-77.5191644849
 20
426.0747425903
 30
0.0
 11
-75.4060731762
 21
421.5432036552
 31
0.0
  0
LINE
  5
205
330
1F
100
AcDbEntity
  8
0
  6
Continuous
 62
   142
420
    32960
370
     0
100
AcDbLine
 10
-75.7065489108
 20
426.9199791138
 30
0.0
 11
-77.5191644849
 21
426.0747425903
 31
0.0
  0
LINE
  5
206
330
1F
100
AcDbEntity
  8
0
  6
Continuous
 62
     7
370
    15
100
AcDbLine
 10
578.0701094412
 20
76.0163990558
 30
0.0
 11
636.714178742
 21
76.0163990558
 31
0.0
  0
LINE
  5
207
330
1F
100
AcDbEntity
  8
0
  6
Continuous
 62
     7
370
    15
100
AcDbLine
 10
578.0701094412
 20
76.8163990558
 30
0.0
 11
636.714178742
 21
76.8163990558
 31
0.0
  0
LINE
  5
208
330
1F
100
AcDbEntity
  8
0
  6
Continuous
 62
   142
420
    32960
370
     0
100
AcDbLine
 10
578.0701094412
 20
76.8163990558
 30
0.0
 11
578.0701094412
 21
76.0163990558
 31
0.0
  0
LINE
  5
209
330
1F
100
AcDbEntity
  8
0
  6
Continuous
 62
   142
420
    32960
370
     0
100
AcDbLine
 10
636.714178742
 20
76.0163990558
 30
0.0
 11
636.714178742
 21
76.8163990558
 31
0.0
  0
LINE
  5
20A
330
1F
100
AcDbEntity
  8
0
  6
Continuous
 62
   142
420
    32960
370
     0
100
AcDbLine
 10
576.0701094412
 20
76.8163990558
 30
0.0
 11
578.0701094412
 21
76.8163990558
 31
0.0
  0
LINE
  5
20B
330
1F
100
AcDbEntity
  8
0
  6
Continuous
 62
   142
420
    32960
370
     0
100
AcDbLine
 10
578.0701094412
 20
76.0163990558
 30
0.0
 11
576.0701094412
 21
76.0163990558
 31
0.0
  0
LINE
  5
20C
330
1F
100
AcDbEntity
  8
0
  6
Continuous
 62
     7
370
    15
100
AcDbLine
 10
620.583053069
 20
122.0256241171
 30
0.0
 11
596.2589361155
 21
196.8875584214
 31
0.0
  0
LINE
  5
20D
330
1F
100
AcDbEntity
  8
0
  6
Continuous
 62
     7
370
    15
100
AcDbLine
 10
619.822207856
 20
121.7784105216
 30
0.0
 11
620.583053069
 21
122.0256241171
 31
0.0
  0
LINE
  5
20E
330
1F
100
AcDbEntity
  8
0
  6
Continuous
 62
     7
370
    15
100
AcDbLine
 10
619.822207856
 20
121.7784105216
 30
0.0
 11
595.4980909025
 21
196.6403448259
 31
0.0
  0
LINE
  5
20F
330
1F
100
AcDbEntity
  8
0
  6
Continuous
 62
   142
420
    32960
370
     0
100
AcDbLine
 10
595.4980909025
 20
196.6403448259
 30
0.0
 11
596.2589361155
 21
196.8875584214
 31
0.0
  0
ARC
  5
210
330
1F
100
AcDbEntity
  8
0
  6
Continuous
 62
   142
420
    32960
370
     0
100
AcDbCircle
 10
594.3092702571
 20
196.2540735829
 30
0.0
 40
2.049999999999992
100
AcDbArc
 50
18.0
 51
90.0
  0
LINE
  5
211
330
1F
100
AcDbEntity
  8
0
  6
Continuous
 62
   142
420
    32960
370
     0
100
AcDbLine
 10
595.1047870192
 20
197.8508097124
 30
0.0
 11
595.4419624054
 21
196.8130905773
 31
0.0
  0
LINE
  5
212
330
1F
100
AcDbEntity
  8
0
  6
Continuous
 62
   142
420
    32960
370
     0
100
AcDbLine
 10
595.8656322323
 20
198.0980233079
 30
0.0
 11
596.2589361155
 21
196.8875584214
 31
0.0
  0
LINE
  5
213
330
1F
100
AcDbEntity
  8
0
  6
Continuous
 62
     7
370
    15
100
AcDbLine
 10
646.1238095591
 20
108.6395038435
 30
0.0
 11
626.6734167987
 21
115.718867853
 31
0.0
  0
ARC
  5
214
330
1F
100
AcDbEntity
  8
0
  6
Continuous
 62
     7
370
    15
100
AcDbCircle
 10
630.093618232
 20
125.1157940609
 30
0.0
 40
10.80000000000004
100
AcDbArc
 50
198.0
 51
250.0
  0
ARC
  5
215
330
1F
100
AcDbEntity
  8
0
  6
Continuous
 62
     7
370
    15
100
AcDbCircle
 10
630.093618232
 20
125.1157940609
 30
0.0
 40
10.00000000000009
100
AcDbArc
 50
198.0
 51
250.0
  0
ARC
  5
216
330
1F
100
AcDbEntity
  8
0
  6
Continuous
 62
   142
420
    32960
370
     0
100
AcDbCircle
 10
636.714178742
 20
78.0663990558
 30
0.0
 40
2.050000000000062
100
AcDbArc
 50
270.0
 51
320.0
  0
LINE
  5
217
330
1F
100
AcDbEntity
  8
0
  6
Continuous
 62
     7
370
    15
100
AcDbLine
 10
626.6734167987
 20
115.718867853
 30
0.0
 11
626.3998006841
 21
114.9671137564
 31
0.0
  0
LINE
  5
218
330
1F
100
AcDbEntity
  8
0
  6
Continuous
 62
     7
370
    15
100
AcDbLine
 10
637.6717342959
 20
77.2629145437
 30
0.0
 11
650.0904364424
 21
92.0629474421
 31
0.0
  0
LINE
  5
219
330
1F
100
AcDbEntity
  8
0
  6
Continuous
 62
     7
370
    15
100
AcDbLine
 10
638.2845698504
 20
76.7486844559
 30
0.0
 11
650.7032719969
 21
91.5487173544
 31
0.0
  0
ARC
  5
21A
330
1F
100
AcDbEntity
  8
0
  6
Continuous
 62
   142
420
    32960
370
     0
100
AcDbCircle
 10
636.714178742
 20
78.0663990558
 30
0.0
 40
1.250000000000069
100
AcDbArc
 50
270.0
 51
320.0
  0
ARC
  5
21B
330
1F
100
AcDbEntity
  8
0
  6
Continuous
 62
     7
370
    15
100
AcDbCircle
 10
642.4299920112
 20
98.490823539
 30
0.0
 40
10.8
100
AcDbArc
 50
320.0
 51
70.0
  0
LINE
  5
21C
330
1F
100
AcDbEntity
  8
0
  6
Continuous
 62
     7
370
    15
100
AcDbLine
 10
645.8501934445
 20
107.8877497468
 30
0.0
 11
646.1238095591
 21
108.6395038435
 31
0.0
  0
LINE
  5
21D
330
1F
100
AcDbEntity
  8
0
  6
Continuous
 62
     7
370
    15
100
AcDbLine
 10
650.7032719969
 20
91.5487173544
 30
0.0
 11
650.0904364424
 21
92.0629474421
 31
0.0
  0
ARC
  5
21E
330
1F
100
AcDbEntity
  8
0
  6
Continuous
 62
   142
420
    32960
370
     0
100
AcDbCircle
 10
642.4299920112
 20
98.490823539
 30
0.0
 40
9.999999999999982
100
AcDbArc
 50
320.0
 51
70.0
  0
LINE
  5
21F
330
1F
100
AcDbEntity
  8
0
  6
Continuous
 62
   142
420
    32960
370
     0
100
AcDbLine
 10
637.6717342959
 20
77.2629145437
 30
0.0
 11
638.2845698504
 21
76.7486844559
 31
0.0
  0
LINE
  5
220
330
1F
100
AcDbEntity
  8
0
  6
Continuous
 62
   142
420
    32960
370
     0
100
AcDbLine
 10
645.8501934445
 20
107.8877497468
 30
0.0
 11
626.3998006841
 21
114.9671137564
 31
0.0
  0
ARC
  5
221
330
1F
100
AcDbEntity
  8
0
  6
Continuous
 62
   142
420
    32960
370
     0
100
AcDbCircle
 10
597.0544528776
 20
198.4842945509
 30
0.0
 40
1.250000000000256
100
AcDbArc
 50
156.1292699761
 51
198.0
  0
ARC
  5
222
330
1F
100
AcDbEntity
  8
0
  6
Continuous
 62
   142
420
    32960
370
     0
100
AcDbCircle
 10
594.3092702571
 20
196.2540735829
 30
0.0
 40
1.249999999999859
100
AcDbArc
 50
26.3551444683
 51
81.6448555316
  0
LINE
  5
223
330
1F
100
AcDbEntity
  8
0
  6
Continuous
 62
   142
420
    32960
370
     0
100
AcDbLine
 10
637.6717342959
 20
77.2629145437
 30
0.0
 11
637.4802231851
 21
77.4236114461
 31
0.0
  0
ARC
  5
224
330
1F
100
AcDbEntity
  8
0
  6
Continuous
 62
   142
420
    32960
370
     0
100
AcDbCircle
 10
594.4909058891
 20
196.5040735829
 30
0.0
 40
0.7500000000000026
100
AcDbArc
 50
18.0
 51
90.0
  0
ARC
  5
225
330
1F
100
AcDbEntity
  8
0
  6
Continuous
 62
   142
420
    32960
370
     0
100
AcDbCircle
 10
636.714178742
 20
78.0663990558
 30
0.0
 40
1.0
100
AcDbArc
 50
270.0
 51
320.0
  0
LWPOLYLINE
  5
226
330
1F
100
AcDbEntity
  8
0
  6
Continuous
 62
   142
420
    32960
370
     0
100
AcDbPolyline
 90
        3
 70
   128
 43
0.0
 10
513.5701094412
 20
256.6181361517
 10
513.0921381523
 20
256.5710600886
 10
512.8825072625
 20
256.5196682573
  0
LINE
  5
227
330
1F
100
AcDbEntity
  8
0
  6
Continuous
 62
     7
370
    15
100
AcDbLine
 10
513.5701094412
 20
256.6181361517
 30
0.0
 11
537.1555438192
 21
256.6181361517
 31
0.0
  0
LINE
  5
228
330
1F
100
AcDbEntity
  8
0
  6
Continuous
 62
     7
370
    15
100
AcDbLine
 10
537.1555438192
 20
255.4181361517
 30
0.0
 11
537.1555438192
 21
256.6181361517
 31
0.0
  0
LINE
  5
229
330
1F
100
AcDbEntity
  8
0
  6
Continuous
 62
   142
420
    32960
370
     0
100
AcDbLine
 10
513.5701094412
 20
255.4181361517
 30
0.0
 11
513.5701094412
 21
256.6181361517
 31
0.0
  0
LINE
  5
22A
330
1F
100
AcDbEntity
  8
0
  6
Continuous
 62
   142
420
    32960
370
     0
100
AcDbLine
 10
513.5701094412
 20
255.4181361517
 30
0.0
 11
537.1555438192
 21
255.4181361517
 31
0.0
  0
ARC
  5
22B
330
1F
100
AcDbEntity
  8
0
  6
Continuous
 62
     7
370
    15
100
AcDbCircle
 10
537.1555438192
 20
254.1681361517
 30
0.0
 40
2.450000000000045
100
AcDbArc
 50
75.0
 51
90.0
  0
ARC
  5
22C
330
1F
100
AcDbEntity
  8
0
  6
Continuous
 62
   142
420
    32960
370
     0
100
AcDbCircle
 10
537.1555438192
 20
254.1681361517
 30
0.0
 40
1.250000000000028
100
AcDbArc
 50
75.0
 51
90.0
  0
LINE
  5
22D
330
1F
100
AcDbEntity
  8
0
  6
Continuous
 62
   142
420
    32960
370
     0
100
AcDbLine
 10
537.4790676256
 20
255.3755434345
 30
0.0
 11
537.7896504797
 21
256.5346544261
 31
0.0
  0
LINE
  5
22E
330
1F
100
AcDbEntity
  8
0
  6
Continuous
 62
     7
370
    15
100
AcDbLine
 10
545.3580989057
 20
254.5066947824
 30
0.0
 11
540.5284697742
 21
255.8007900079
 31
0.0
  0
LINE
  5
22F
330
1F
100
AcDbEntity
  8
0
  6
Continuous
 62
     7
370
    15
100
AcDbLine
 10
545.3580989057
 20
254.5066947824
 30
0.0
 11
545.0475160515
 21
253.3475837908
 31
0.0
  0
LINE
  5
230
330
1F
100
AcDbEntity
  8
0
  6
Continuous
 62
   142
420
    32960
370
     0
100
AcDbLine
 10
545.0475160515
 20
253.3475837908
 30
0.0
 11
540.2178869201
 21
254.6416790163
 31
0.0
  0
LINE
  5
231
330
1F
100
AcDbEntity
  8
0
  6
Continuous
 62
   142
420
    32960
370
     0
100
AcDbLine
 10
540.5284697742
 20
255.8007900079
 30
0.0
 11
540.2178869201
 21
254.6416790163
 31
0.0
  0
LINE
  5
232
330
1F
100
AcDbEntity
  8
0
  6
Continuous
 62
   142
420
    32960
370
     0
100
AcDbLine
 10
540.5284697742
 20
255.8007900079
 30
0.0
 11
537.7896504797
 21
256.5346544261
 31
0.0
  0
LINE
  5
233
330
1F
100
AcDbEntity
  8
0
  6
Continuous
 62
     7
370
    15
100
AcDbLine
 10
-156.1298905588
 20
-2.8524162092
 30
0.0
 11
-156.1298905588
 21
19.1475837908
 31
0.0
  0
LINE
  5
234
330
1F
100
AcDbEntity
  8
0
  6
Continuous
 62
     7
370
    15
100
AcDbLine
 10
-158.1298905588
 20
-0.8524162092
 30
0.0
 11
-158.1298905588
 21
17.1475837908
 31
0.0
  0
SPLINE
  5
235
330
1F
100
AcDbEntity
  8
0
  6
Continuous
 62
   142
420
    32960
370
     0
100
AcDbSpline
210
0.0
220
0.0
230
1.0
 70
     8
 71
     3
 72
     8
 73
     4
 74
     0
 42
0.00000001
 43
0.00000001
 40
0.0
 40
0.0
 40
0.0
 40
0.0
 40
1.0
 40
1.0
 40
1.0
 40
1.0
 10
649.2101273138726
 20
-8.40841394697575
 30
0.0
 10
649.1048371837519
 20
-8.392775843278077
 30
0.0
 10
648.9995470536312
 20
-8.376768561866394
 30
0.0
 10
648.8942569235104
 20
-8.360391028442216
 30
0.0
  0
SPLINE
  5
236
330
1F
100
AcDbEntity
  8
0
  6
Continuous
 62
   142
420
    32960
370
     0
100
AcDbSpline
210
0.0
220
0.0
230
1.0
 70
     8
 71
     3
 72
     9
 73
     5
 74
     0
 42
0.00000001
 43
0.00000001
 40
0.0
 40
0.0
 40
0.0
 40
0.0
 40
0.4999989716799825
 40
1.0
 40
1.0
 40
1.0
 40
1.0
 10
649.2120471379696
 20
-8.038196589089386
 30
0.0
 10
649.2119356551968
 20
-8.100284221036564
 30
0.0
 10
649.2117126891927
 20
-8.224459740315188
 30
0.0
 10
649.2106557730373
 20
-8.347095794016129
 30
0.0
 10
649.2101273138726
 20
-8.40841394697575
 30
0.0
  0
LINE
  5
237
330
1F
100
AcDbEntity
  8
0
  6
Continuous
 62
   142
420
    32960
370
     0
100
AcDbLine
 10
652.1327179814
 20
-7.1845722428
 30
0.0
 11
649.212047138
 21
-8.0381965891
 31
0.0
  0
SPLINE
  5
238
330
1F
100
AcDbEntity
  8
0
  6
Continuous
 62
   142
420
    32960
370
     0
100
AcDbSpline
210
0.0
220
0.0
230
1.0
 70
     8
 71
     3
 72
     8
 73
     4
 74
     0
 42
0.00000001
 43
0.00000001
 40
0.0
 40
0.0
 40
0.0
 40
0.0
 40
1.0
 40
1.0
 40
1.0
 40
1.0
 10
652.1323840754769
 20
-6.947628328457772
 30
0.0
 10
652.1324953774518
 20
-7.027095475110768
 30
0.0
 10
652.132606679427
 20
-7.106078546019884
 30
0.0
 10
652.1327179814019
 20
-7.184572242802667
 30
0.0
  0
LINE
  5
239
330
1F
100
AcDbEntity
  8
0
  6
Continuous
 62
   142
420
    32960
370
     0
100
AcDbLine
 10
648.8946516775
 20
-7.8935513316
 30
0.0
 11
652.1323840755
 21
-6.9476283285
 31
0.0
  0
SPLINE
  5
23A
330
1F
100
AcDbEntity
  8
0
  6
Continuous
 62
   142
420
    32960
370
     0
100
AcDbSpline
210
0.0
220
0.0
230
1.0
 70
     8
 71
     3
 72
     9
 73
     5
 74
     0
 42
0.00000001
 43
0.00000001
 40
0.0
 40
0.0
 40
0.0
 40
0.0
 40
0.5000002109245747
 40
1.0
 40
1.0
 40
1.0
 40
1.0
 10
648.8942569235104
 20
-8.360391028442216
 30
0.0
 10
648.8946473312436
 20
-8.283178745456532
 30
0.0
 10
648.8954281463804
 20
-8.128754244629
 30
0.0
 10
648.8949105004195
 20
-7.971952280590888
 30
0.0
 10
648.8946516775485
 20
-7.893551331645265
 30
0.0
  0
LINE
  5
23B
330
1F
100
AcDbEntity
  8
0
  6
Continuous
 62
     7
370
    15
100
AcDbLine
 10
577.0701094412
 20
77.3163990558
 30
0.0
 11
636.714178742
 21
77.3163990558
 31
0.0
  0
LINE
  5
23C
330
1F
100
AcDbEntity
  8
0
  6
Continuous
 62
   142
420
    32960
370
     0
100
AcDbLine
 10
636.714178742
 20
77.3163990558
 30
0.0
 11
636.714178742
 21
76.8163990558
 31
0.0
  0
LINE
  5
23D
330
1F
100
AcDbEntity
  8
0
  6
Continuous
 62
     7
370
    15
100
AcDbLine
 10
577.0701094412
 20
77.3163990558
 30
0.0
 11
577.0701094412
 21
76.8163990558
 31
0.0
  0
LINE
  5
23E
330
1F
100
AcDbEntity
  8
0
  6
Continuous
 62
   142
420
    32960
370
     0
100
AcDbLine
 10
637.2887120743
 20
77.5843083485
 30
0.0
 11
649.7074142208
 21
92.384341247
 31
0.0
  0
ARC
  5
23F
330
1F
100
AcDbEntity
  8
0
  6
Continuous
 62
   142
420
    32960
370
     0
100
AcDbCircle
 10
636.714178742
 20
78.0663990558
 30
0.0
 40
0.75
100
AcDbArc
 50
270.0
 51
320.0
  0
ARC
  5
240
330
1F
100
AcDbEntity
  8
0
  6
Continuous
 62
     7
370
    15
100
AcDbCircle
 10
577.0701094412
 20
77.8163990558
 30
0.0
 40
0.5000000000001137
100
AcDbArc
 50
180.0
 51
270.0
  0
LINE
  5
241
330
1F
100
AcDbEntity
  8
0
  6
Continuous
 62
     7
370
    15
100
AcDbLine
 10
576.5701094412
 20
196.5040735829
 30
0.0
 11
576.5701094412
 21
77.8163990558
 31
0.0
  0
ARC
  5
242
330
1F
100
AcDbEntity
  8
0
  6
Continuous
 62
     7
370
    15
100
AcDbCircle
 10
577.0701094412
 20
196.5040735829
 30
0.0
 40
0.5000000000001137
100
AcDbArc
 50
90.0
 51
180.0
  0
LINE
  5
243
330
1F
100
AcDbEntity
  8
0
  6
Continuous
 62
     7
370
    15
100
AcDbLine
 10
594.4909058891
 20
197.0040735829
 30
0.0
 11
577.0701094412
 21
197.0040735829
 31
0.0
  0
ARC
  5
244
330
1F
100
AcDbEntity
  8
0
  6
Continuous
 62
   142
420
    32960
370
     0
100
AcDbCircle
 10
594.4909058891
 20
196.5040735829
 30
0.0
 40
0.5000000000000289
100
AcDbArc
 50
18.0
 51
90.0
  0
LINE
  5
245
330
1F
100
AcDbEntity
  8
0
  6
Continuous
 62
     7
370
    15
100
AcDbLine
 10
619.3466795979
 20
121.6239020245
 30
0.0
 11
594.9664341472
 21
196.6585820801
 31
0.0
  0
ARC
  5
246
330
1F
100
AcDbEntity
  8
0
  6
Continuous
 62
     7
370
    15
100
AcDbCircle
 10
630.093618232
 20
125.1157940609
 30
0.0
 40
11.30000000000009
100
AcDbArc
 50
198.0
 51
250.0
  0
LINE
  5
247
330
1F
100
AcDbEntity
  8
0
  6
Continuous
 62
     7
370
    15
100
AcDbLine
 10
645.6791833728
 20
107.4179034364
 30
0.0
 11
626.2287906124
 21
114.497267446
 31
0.0
  0
ARC
  5
248
330
1F
100
AcDbEntity
  8
0
  6
Continuous
 62
     7
370
    15
100
AcDbCircle
 10
642.4299920112
 20
98.490823539
 30
0.0
 40
9.500000000000004
100
AcDbArc
 50
320.0
 51
70.0
  0
ARC
  5
249
330
1F
100
AcDbEntity
  8
0
  6
Continuous
 62
   142
420
    32960
370
     0
100
AcDbCircle
 10
577.0701094412
 20
196.5040735829
 30
0.0
 40
1.000000000000114
100
AcDbArc
 50
90.0
 51
180.0
  0
LINE
  5
24A
330
1F
100
AcDbEntity
  8
0
  6
Continuous
 62
     7
370
    15
100
AcDbLine
 10
577.0701094412
 20
197.5040735829
 30
0.0
 11
577.0701094412
 21
197.0040735829
 31
0.0
  0
LINE
  5
24B
330
1F
100
AcDbEntity
  8
0
  6
Continuous
 62
     7
370
    15
100
AcDbLine
 10
576.0701094412
 20
196.5040735829
 30
0.0
 11
576.5701094412
 21
196.5040735829
 31
0.0
  0
LINE
  5
24C
330
1F
100
AcDbEntity
  8
0
  6
Continuous
 62
     7
370
    15
100
AcDbLine
 10
576.5701094412
 20
77.8163990558
 30
0.0
 11
576.0701094412
 21
77.8163990558
 31
0.0
  0
LINE
  5
24D
330
1F
100
AcDbEntity
  8
0
  6
Continuous
 62
   142
420
    32960
370
     0
100
AcDbLine
 10
576.0701094412
 20
77.8163990558
 30
0.0
 11
576.0701094412
 21
196.5040735829
 31
0.0
  0
LINE
  5
24E
330
1F
100
AcDbEntity
  8
0
  6
Continuous
 62
   142
420
    32960
370
     0
100
AcDbLine
 10
594.4909058891
 20
197.5040735829
 30
0.0
 11
594.4909058891
 21
197.0040735829
 31
0.0
  0
LINE
  5
24F
330
1F
100
AcDbEntity
  8
0
  6
Continuous
 62
   142
420
    32960
370
     0
100
AcDbLine
 10
594.3092702571
 20
197.5040735829
 30
0.0
 11
594.4909058891
 21
197.5040735829
 31
0.0
  0
ARC
  5
250
330
1F
100
AcDbEntity
  8
0
  6
Continuous
 62
   142
420
    32960
370
     0
100
AcDbCircle
 10
577.0701094412
 20
77.8163990558
 30
0.0
 40
1.000000000000114
100
AcDbArc
 50
180.0
 51
270.0
  0
LINE
  5
251
330
1F
100
AcDbEntity
  8
0
  6
Continuous
 62
     7
370
    15
100
AcDbLine
 10
619.822207856
 20
121.7784105216
 30
0.0
 11
619.3466795979
 21
121.6239020245
 31
0.0
  0
LINE
  5
252
330
1F
100
AcDbEntity
  8
0
  6
Continuous
 62
   142
420
    32960
370
     0
100
AcDbLine
 10
595.4419624054
 20
196.8130905773
 30
0.0
 11
594.9664341472
 21
196.6585820801
 31
0.0
  0
LINE
  5
253
330
1F
100
AcDbEntity
  8
0
  6
Continuous
 62
   142
420
    32960
370
     0
100
AcDbLine
 10
595.4419624054
 20
196.8130905773
 30
0.0
 11
595.4980909025
 21
196.6403448259
 31
0.0
  0
LINE
  5
254
330
1F
100
AcDbEntity
  8
0
  6
Continuous
 62
     7
370
    15
100
AcDbLine
 10
626.3998006841
 20
114.9671137564
 30
0.0
 11
626.2287906124
 21
114.497267446
 31
0.0
  0
LINE
  5
255
330
1F
100
AcDbEntity
  8
0
  6
Continuous
 62
     7
370
    15
100
AcDbLine
 10
645.6791833728
 20
107.4179034364
 30
0.0
 11
645.8501934445
 21
107.8877497468
 31
0.0
  0
LINE
  5
256
330
1F
100
AcDbEntity
  8
0
  6
Continuous
 62
   142
420
    32960
370
     0
100
AcDbLine
 10
649.7074142208
 20
92.384341247
 30
0.0
 11
650.0904364424
 21
92.0629474421
 31
0.0
  0
LINE
  5
257
330
1F
100
AcDbEntity
  8
0
  6
Continuous
 62
     7
370
    15
100
AcDbLine
 10
-160.1298905588
 20
-2.8524162092
 30
0.0
 11
-160.1298905588
 21
19.1475837908
 31
0.0
  0
LINE
  5
258
330
1F
100
AcDbEntity
  8
0
  6
Continuous
 62
     7
370
    15
100
AcDbLine
 10
-162.1298905588
 20
-0.8524162092
 30
0.0
 11
-162.1298905588
 21
17.1475837908
 31
0.0
  0
LINE
  5
259
330
1F
100
AcDbEntity
  8
0
  6
Continuous
 62
   142
420
    32960
370
     0
100
AcDbLine
 10
642.8140351734
 20
83.3912700886
 30
0.0
 11
642.4310129518
 21
83.7126638935
 31
0.0
  0
LINE
  5
25A
330
1F
100
AcDbEntity
  8
0
  6
Continuous
 62
     7
370
    15
100
AcDbLine
 10
-164.1298905588
 20
-2.8524162092
 30
0.0
 11
-164.1298905588
 21
19.1475837908
 31
0.0
  0
LINE
  5
25B
330
1F
100
AcDbEntity
  8
0
  6
Continuous
 62
     7
370
    15
100
AcDbLine
 10
-166.1298905588
 20
-0.8524162092
 30
0.0
 11
-166.1298905588
 21
17.1475837908
 31
0.0
  0
SPLINE
  5
25C
330
1F
100
AcDbEntity
  8
0
  6
Continuous
 62
   142
420
    32960
370
     0
100
AcDbSpline
210
0.0
220
0.0
230
1.0
 70
     8
 71
     3
 72
    16
 73
    12
 74
     0
 42
0.00000001
 43
0.00000001
 40
0.0
 40
0.0
 40
0.0
 40
0.0
 40
0.0001752464039591
 40
0.1252144210065701
 40
0.2502435855708483
 40
0.3752580360337704
 40
0.5002621062641206
 40
0.6252646105096281
 40
0.7502654112533469
 40
0.8753601771999034
 40
1.0
 40
1.0
 40
1.0
 40
1.0
 10
647.7953218227173
 20
46.24706408550344
 30
0.0
 10
647.795241709107
 20
46.24710291286632
 30
0.0
 10
647.7380001390228
 20
46.27484525536676
 30
0.0
 10
647.9392810650205
 20
46.17652482018197
 30
0.0
 10
648.4089956075751
 20
45.95237122847814
 30
0.0
 10
649.1774431718159
 20
45.6043011288671
 30
0.0
 10
650.0802382976824
 20
45.22568984272726
 30
0.0
 10
650.9989896185064
 20
44.87366869568607
 30
0.0
 10
651.7796085888359
 20
44.60080094156898
 30
0.0
 10
652.32926746136
 20
44.42368224945422
 30
0.0
 10
652.4013986408243
 20
44.40138304231211
 30
0.0
 10
652.437398529634
 20
44.39025375004732
 30
0.0
  0
LINE
  5
25D
330
1F
100
AcDbEntity
  8
0
  6
Continuous
 62
     7
370
    15
100
AcDbLine
 10
565.2701094412
 20
-51.3524162092
 30
0.0
 11
565.2701094412
 21
-49.6524162092
 31
0.0
  0
LINE
  5
25E
330
1F
100
AcDbEntity
  8
0
  6
Continuous
 62
     7
370
    15
100
AcDbLine
 10
475.2701094412
 20
-51.3524162092
 30
0.0
 11
565.2701094412
 21
-51.3524162092
 31
0.0
  0
LINE
  5
25F
330
1F
100
AcDbEntity
  8
0
  6
Continuous
 62
     7
370
    15
100
AcDbLine
 10
475.2701094412
 20
-51.3524162092
 30
0.0
 11
475.2701094412
 21
-49.6524162092
 31
0.0
  0
LINE
  5
260
330
1F
100
AcDbEntity
  8
0
  6
Continuous
 62
     7
370
    15
100
AcDbLine
 10
551.2297596616
 20
-114.3524162092
 30
0.0
 11
489.3104592209
 21
-114.3524162092
 31
0.0
  0
LINE
  5
261
330
1F
100
AcDbEntity
  8
0
  6
Continuous
 62
     8
370
    15
100
AcDbLine
 10
674.8804741186
 20
-5.0989368394
 30
0.0
 11
674.8804741186
 21
-1.6542589218
 31
0.0
  0
LINE
  5
262
330
1F
100
AcDbEntity
  8
0
  6
Continuous
 62
     8
370
    15
100
AcDbLine
 10
674.9701094412
 20
-1.6163615353
 30
0.0
 11
674.9701094412
 21
-0.6856637508
 31
0.0
  0
LINE
  5
263
330
1F
100
AcDbEntity
  8
0
  6
Continuous
 62
     8
370
    15
100
AcDbLine
 10
674.9701094412
 20
30.0184618624
 30
0.0
 11
674.9701094412
 21
30.9491596469
 31
0.0
  0
LINE
  5
264
330
1F
100
AcDbEntity
  8
0
  6
Continuous
 62
     8
370
    15
100
AcDbLine
 10
548.7701094412
 20
-147.3524162092
 30
0.0
 11
491.7701094412
 21
-147.3524162092
 31
0.0
  0
LINE
  5
265
330
1F
100
AcDbEntity
  8
0
  6
Continuous
 62
     8
370
    15
100
AcDbLine
 10
-21.8298905588
 20
-52.8524162092
 30
0.0
 11
-85.6298905588
 21
-52.8524162092
 31
0.0
  0
LINE
  5
266
330
1F
100
AcDbEntity
  8
0
  6
Continuous
 62
     8
370
    15
100
AcDbLine
 10
-21.8298905588
 20
-108.3198502635
 30
0.0
 11
-85.6298905588
 21
-108.3198502635
 31
0.0
  0
LINE
  5
267
330
1F
100
AcDbEntity
  8
0
  6
Continuous
 62
     8
370
    15
100
AcDbLine
 10
-21.8938037858
 20
-109.092313488
 30
0.0
 11
-85.5659773318
 21
-109.092313488
 31
0.0
  0
LINE
  5
268
330
1F
100
AcDbEntity
  8
0
  6
Continuous
 62
     8
370
    15
100
AcDbLine
 10
-25.2298905588
 20
-147.3524162092
 30
0.0
 11
-82.2298905588
 21
-147.3524162092
 31
0.0
  0
LINE
  5
269
330
1F
100
AcDbEntity
  8
0
  6
Continuous
 62
     8
370
    15
100
AcDbLine
 10
-131.5298905588
 20
217.1475837908
 30
0.0
 11
-131.372819491
 21
217.1475837908
 31
0.0
  0
LINE
  5
26A
330
1F
100
AcDbEntity
  8
0
  6
Continuous
 62
     8
370
    15
100
AcDbLine
 10
468.7388810295
 20
233.9475837908
 30
0.0
 11
468.7388810295
 21
232.3213216157
 31
0.0
  0
LWPOLYLINE
  5
26B
330
1F
100
AcDbEntity
  8
0
  6
Continuous
 62
     8
370
    15
100
AcDbPolyline
 90
        3
 70
   128
 43
0.0
 10
458.6479328351
 20
233.9475837908
 10
458.7446773144
 20
233.5308816122
 10
458.8623378196
 20
232.3213216157
  0
LINE
  5
26C
330
1F
100
AcDbEntity
  8
0
  6
Continuous
 62
     8
370
    15
100
AcDbLine
 10
486.7388810295
 20
233.9475837908
 30
0.0
 11
486.7388810295
 21
232.3213216157
 31
0.0
  0
LWPOLYLINE
  5
26D
330
1F
100
AcDbEntity
  8
0
  6
Continuous
 62
     8
370
    15
100
AcDbPolyline
 90
        3
 70
   128
 43
0.0
 10
496.8298292238
 20
233.9475837908
 10
496.7330847445
 20
233.5308816122
 10
496.6154242393
 20
232.3213216157
  0
LINE
  5
26E
330
1F
100
AcDbEntity
  8
0
  6
Continuous
 62
     8
370
    15
100
AcDbLine
 10
468.7388810295
 20
232.3213216157
 30
0.0
 11
468.7388810295
 21
231.9475837908
 31
0.0
  0
LINE
  5
26F
330
1F
100
AcDbEntity
  8
0
  6
Continuous
 62
     8
370
    15
100
AcDbLine
 10
486.7388810295
 20
231.9475837908
 30
0.0
 11
486.7388810295
 21
232.3213216157
 31
0.0
  0
LINE
  5
270
330
1F
100
AcDbEntity
  8
0
  6
Continuous
 62
     8
370
    15
100
AcDbLine
 10
574.9701094412
 20
214.6975837908
 30
0.0
 11
575.0701094412
 21
214.6975837908
 31
0.0
  0
LINE
  5
271
330
1F
100
AcDbEntity
  8
0
  6
Continuous
 62
     8
370
    15
100
AcDbLine
 10
652.9701094412
 20
9.2663990558
 30
0.0
 11
652.9701094412
 21
20.0663990558
 31
0.0
  0
LINE
  5
272
330
1F
100
AcDbEntity
  8
0
  6
Continuous
 62
     8
370
    15
100
AcDbLine
 10
36.2701094412
 20
-50.0524162092
 30
0.0
 11
36.2701094412
 21
-49.6524162092
 31
0.0
  0
LINE
  5
273
330
1F
100
AcDbEntity
  8
0
  6
Continuous
 62
     8
370
    15
100
AcDbLine
 10
456.2701094412
 20
-50.0524162092
 30
0.0
 11
456.2701094412
 21
-49.6524162092
 31
0.0
  0
LINE
  5
274
330
1F
100
AcDbEntity
  8
0
  6
Continuous
 62
     8
370
    15
100
AcDbLine
 10
611.0869179397
 20
253.0417767311
 30
0.0
 11
611.0869179397
 21
253.3475837908
 31
0.0
  0
LINE
  5
275
330
1F
100
AcDbEntity
  8
0
  6
Continuous
 62
     8
370
    15
100
AcDbLine
 10
642.6225240626
 20
83.5519669911
 30
0.0
 11
637.4802231851
 21
77.4236114461
 31
0.0
  0
LINE
  5
276
330
1F
100
AcDbEntity
  8
0
  6
Continuous
 62
     8
370
    15
100
AcDbLine
 10
552.1701094412
 20
-52.8524162092
 30
0.0
 11
488.3701094412
 21
-52.8524162092
 31
0.0
  0
LINE
  5
277
330
1F
100
AcDbEntity
  8
0
  6
Continuous
 62
     8
370
    15
100
AcDbLine
 10
552.1061962142
 20
-109.092313488
 30
0.0
 11
488.4340226682
 21
-109.092313488
 31
0.0
  0
LINE
  5
278
330
1F
100
AcDbEntity
  8
0
  6
Continuous
 62
     8
370
    15
100
AcDbLine
 10
552.1701094412
 20
-108.3198502635
 30
0.0
 11
488.3701094412
 21
-108.3198502635
 31
0.0
  0
ENDSEC
  0
SECTION
  2
OBJECTS
  0
DICTIONARY
  5
C
330
0
100
AcDbDictionary
281
     1
  3
ACAD_GROUP
350
D
  3
ACAD_LAYOUT
350
1A
  3
ACAD_MATERIAL
350
3B
  3
ACAD_MLEADERSTYLE
350
27A
  3
ACAD_MLINESTYLE
350
17
  3
ACAD_PLOTSETTINGS
350
19
  3
ACAD_PLOTSTYLENAME
350
E
  3
ACAD_TABLESTYLE
350
279
  3
ACAD_VISUALSTYLE
350
2A
  0
DICTIONARY
  5
D
102
{ACAD_REACTORS
330
C
102
}
330
C
100
AcDbDictionary
281
     1
  0
DICTIONARY
  5
1A
102
{ACAD_REACTORS
330
C
102
}
330
C
100
AcDbDictionary
281
     1
  3
Layout1
350
1E
  3
Layout2
350
26
  3
Model
350
22
  0
DICTIONARY
  5
3B
102
{ACAD_REACTORS
330
C
102
}
330
C
100
AcDbDictionary
281
     1
  3
ByBlock
350
3D
  3
ByLayer
350
3C
  3
Global
350
3E
  0
DICTIONARY
  5
27A
102
{ACAD_REACTORS
330
C
102
}
330
C
100
AcDbDictionary
281
     1
  0
DICTIONARY
  5
17
102
{ACAD_REACTORS
330
C
102
}
330
C
100
AcDbDictionary
281
     1
  3
Standard
350
18
  0
DICTIONARY
  5
19
102
{ACAD_REACTORS
330
C
102
}
330
C
100
AcDbDictionary
281
     1
  0
ACDBDICTIONARYWDFLT
  5
E
102
{ACAD_REACTORS
330
C
102
}
330
C
100
AcDbDictionary
281
     1
  3
Normal
350
F
100
AcDbDictionaryWithDefault
340
F
  0
DICTIONARY
  5
279
102
{ACAD_REACTORS
330
C
102
}
330
C
100
AcDbDictionary
281
     1
  0
DICTIONARY
  5
2A
102
{ACAD_REACTORS
330
C
102
}
330
C
100
AcDbDictionary
281
     1
  3
2dWireframe
350
2F
  3
3D Hidden
350
31
  3
3dWireframe
350
30
  3
Basic
350
32
  3
Brighten
350
36
  3
ColorChange
350
3A
  3
Conceptual
350
34
  3
Dim
350
35
  3
Facepattern
350
39
  3
Flat
350
2B
  3
FlatWithEdges
350
2C
  3
Gouraud
350
2D
  3
GouraudWithEdges
350
2E
  3
Linepattern
350
38
  3
Realistic
350
33
  3
Thicken
350
37
  0
LAYOUT
  5
1E
102
{ACAD_REACTORS
330
1A
102
}
330
1A
100
AcDbPlotSettings
  1

  2
none_device
  4

  6

 40
0.0
 41
0.0
 42
0.0
 43
0.0
 44
0.0
 45
0.0
 46
0.0
 47
0.0
 48
0.0
 49
0.0
140
0.0
141
0.0
142
1.0
143
1.0
 70
   688
 72
     0
 73
     0
 74
     5
  7

 75
    16
 76
     0
 77
     2
 78
   300
147
1.0
148
0.0
149
0.0
100
AcDbLayout
  1
Layout1
 70
     1
 71
     1
 10
0.0
 20
0.0
 11
420.0
 21
297.0
 12
0.0
 22
0.0
 32
0.0
 14
1.0000000000E+20
 24
1.0000000000E+20
 34
1.0000000000E+20
 15
-1.0000000000E+20
 25
-1.0000000000E+20
 35
-1.0000000000E+20
146
0.0
 13
0.0
 23
0.0
 33
0.0
 16
1.0
 26
0.0
 36
0.0
 17
0.0
 27
1.0
 37
0.0
 76
     0
330
1B
  0
LAYOUT
  5
26
102
{ACAD_REACTORS
330
1A
102
}
330
1A
100
AcDbPlotSettings
  1

  2
none_device
  4

  6

 40
0.0
 41
0.0
 42
0.0
 43
0.0
 44
0.0
 45
0.0
 46
0.0
 47
0.0
 48
0.0
 49
0.0
140
0.0
141
0.0
142
1.0
143
1.0
 70
   688
 72
     0
 73
     0
 74
     5
  7

 75
    16
 76
     0
 77
     2
 78
   300
147
1.0
148
0.0
149
0.0
100
AcDbLayout
  1
Layout2
 70
     1
 71
     2
 10
0.0
 20
0.0
 11
0.0
 21
0.0
 12
0.0
 22
0.0
 32
0.0
 14
0.0
 24
0.0
 34
0.0
 15
0.0
 25
0.0
 35
0.0
146
0.0
 13
0.0
 23
0.0
 33
0.0
 16
1.0
 26
0.0
 36
0.0
 17
0.0
 27
1.0
 37
0.0
 76
     0
330
23
  0
LAYOUT
  5
22
102
{ACAD_REACTORS
330
1A
102
}
330
1A
100
AcDbPlotSettings
  1

  2
none_device
  4

  6

 40
0.0
 41
0.0
 42
0.0
 43
0.0
 44
0.0
 45
0.0
 46
0.0
 47
0.0
 48
0.0
 49
0.0
140
0.0
141
0.0
142
1.0
143
1.0
 70
  1712
 72
     0
 73
     0
 74
     0
  7

 75
     0
 76
     0
 77
     2
 78
   300
147
1.0
148
0.0
149
0.0
100
AcDbLayout
  1
Model
 70
     1
 71
     0
 10
0.0
 20
0.0
 11
420.0
 21
297.0
 12
0.0
 22
0.0
 32
0.0
 14
0.0
 24
0.0
 34
0.0
 15
420.0
 25
297.0
 35
0.0
146
0.0
 13
0.0
 23
0.0
 33
0.0
 16
1.0
 26
0.0
 36
0.0
 17
0.0
 27
1.0
 37
0.0
 76
     0
330
1F
331
29
  0
MATERIAL
  5
3D
102
{ACAD_REACTORS
330
3B
102
}
330
3B
100
AcDbMaterial
  1
ByBlock
 72
     1
 94
      127
  0
MATERIAL
  5
3C
102
{ACAD_REACTORS
330
3B
102
}
330
3B
100
AcDbMaterial
  1
ByLayer
 72
     1
 94
      127
  0
MATERIAL
  5
3E
102
{ACAD_REACTORS
330
3B
102
}
330
3B
100
AcDbMaterial
  1
Global
 72
     1
 94
      127
  0
MLINESTYLE
  5
18
102
{ACAD_REACTORS
330
17
102
}
330
17
100
AcDbMlineStyle
  2
Standard
 70
     0
  3

 62
   256
 51
90.0
 52
90.0
 71
     2
 49
0.5
 62
   256
  6
BYLAYER
 49
-0.5
 62
   256
  6
BYLAYER
  0
ACDBPLACEHOLDER
  5
F
102
{ACAD_REACTORS
330
E
102
}
330
E
  0
VISUALSTYLE
  5
2F
102
{ACAD_REACTORS
330
2A
102
}
330
2A
100
AcDbVisualStyle
  2
2dWireframe
 70
     4
 71
     0
 72
     2
 73
     0
 90
        0
 40
-0.6
 41
-30.0
 62
     5
 63
     7
421
 16777215
 74
     1
 91
        4
 64
     7
 65
   257
 75
     1
175
     1
 42
1.0
 92
        0
 66
   257
 43
1.0
 76
     1
 77
     6
 78
     2
 67
     7
 79
     5
170
     0
171
     0
290
     0
174
     0
 93
        1
 44
0.0
173
     0
291
     0
 45
0.0
  0
VISUALSTYLE
  5
31
102
{ACAD_REACTORS
330
2A
102
}
330
2A
100
AcDbVisualStyle
  2
3D Hidden
 70
     6
 71
     1
 72
     2
 73
     2
 90
        0
 40
-0.6
 41
-30.0
 62
     5
 63
     7
421
 16777215
 74
     2
 91
        2
 64
     7
 65
   257
 75
     2
175
     1
 42
40.0
 92
        0
 66
   257
 43
1.0
 76
     1
 77
     6
 78
     2
 67
     7
 79
     3
170
     0
171
     0
290
     0
174
     0
 93
        1
 44
0.0
173
     0
291
     0
 45
0.0
  0
VISUALSTYLE
  5
30
102
{ACAD_REACTORS
330
2A
102
}
330
2A
100
AcDbVisualStyle
  2
3dWireframe
 70
     5
 71
     0
 72
     2
 73
     0
 90
        0
 40
-0.6
 41
-30.0
 62
     5
 63
     7
421
 16777215
 74
     1
 91
        4
 64
     7
 65
   257
 75
     1
175
     1
 42
1.0
 92
        0
 66
   257
 43
1.0
 76
     1
 77
     6
 78
     2
 67
     7
 79
     5
170
     0
171
     0
290
     0
174
     0
 93
        1
 44
0.0
173
     0
291
     0
 45
0.0
  0
VISUALSTYLE
  5
32
102
{ACAD_REACTORS
330
2A
102
}
330
2A
100
AcDbVisualStyle
  2
Basic
 70
     7
 71
     1
 72
     0
 73
     1
 90
        0
 40
-0.6
 41
-30.0
 62
     5
 63
     7
421
 16777215
 74
     0
 91
        4
 64
     7
 65
   257
 75
     1
175
     1
 42
1.0
 92
        8
 66
     7
 43
1.0
 76
     1
 77
     6
 78
     2
 67
     7
 79
     5
170
     0
171
     0
290
     0
174
     0
 93
        1
 44
0.0
173
     0
291
     1
 45
0.0
  0
VISUALSTYLE
  5
36
102
{ACAD_REACTORS
330
2A
102
}
330
2A
100
AcDbVisualStyle
  2
Brighten
 70
    12
 71
     2
 72
     2
 73
     0
 90
        0
 40
-0.6
 41
-30.0
 62
     5
 63
     7
421
 16777215
 74
     1
 91
        4
 64
     7
 65
   257
 75
     1
175
     1
 42
1.0
 92
        8
 66
     7
 43
1.0
 76
     1
 77
     6
 78
     2
 67
     7
 79
     5
170
     0
171
     0
290
     0
174
     0
 93
        1
 44
50.0
173
     0
291
     1
 45
0.0
  0
VISUALSTYLE
  5
3A
102
{ACAD_REACTORS
330
2A
102
}
330
2A
100
AcDbVisualStyle
  2
ColorChange
 70
    16
 71
     2
 72
     2
 73
     3
 90
        0
 40
-0.6
 41
-30.0
 62
     5
 63
     8
421
  8421504
 74
     1
 91
        4
 64
     7
 65
   257
 75
     1
175
     1
 42
1.0
 92
        8
 66
     8
424
  8421504
 43
1.0
 76
     1
 77
     6
 78
     2
 67
     7
 79
     5
170
     0
171
     0
290
     0
174
     0
 93
        1
 44
0.0
173
     0
291
     1
 45
0.0
  0
VISUALSTYLE
  5
34
102
{ACAD_REACTORS
330
2A
102
}
330
2A
100
AcDbVisualStyle
  2
Conceptual
 70
     9
 71
     3
 72
     2
 73
     0
 90
        0
 40
-0.6
 41
-30.0
 62
     5
 63
     7
421
 16777215
 74
     2
 91
        2
 64
     7
 65
   257
 75
     1
175
     1
 42
40.0
 92
        8
 66
     7
 43
1.0
 76
     1
 77
     6
 78
     2
 67
     7
 79
     3
170
     0
171
     0
290
     0
174
     0
 93
        1
 44
0.0
173
     0
291
     0
 45
0.0
  0
VISUALSTYLE
  5
35
102
{ACAD_REACTORS
330
2A
102
}
330
2A
100
AcDbVisualStyle
  2
Dim
 70
    11
 71
     2
 72
     2
 73
     0
 90
        0
 40
-0.6
 41
-30.0
 62
     5
 63
     7
421
 16777215
 74
     1
 91
        4
 64
     7
 65
   257
 75
     1
175
     1
 42
1.0
 92
        8
 66
     7
 43
1.0
 76
     1
 77
     6
 78
     2
 67
     7
 79
     5
170
     0
171
     0
290
     0
174
     0
 93
        1
 44
-50.0
173
     0
291
     1
 45
0.0
  0
VISUALSTYLE
  5
39
102
{ACAD_REACTORS
330
2A
102
}
330
2A
100
AcDbVisualStyle
  2
Facepattern
 70
    15
 71
     2
 72
     2
 73
     0
 90
        0
 40
-0.6
 41
-30.0
 62
     5
 63
     7
421
 16777215
 74
     1
 91
        4
 64
     7
 65
   257
 75
     1
175
     1
 42
1.0
 92
        8
 66
     7
 43
1.0
 76
     1
 77
     6
 78
     2
 67
     7
 79
     5
170
     0
171
     0
290
     0
174
     0
 93
        1
 44
0.0
173
     0
291
     1
 45
0.0
  0
VISUALSTYLE
  5
2B
102
{ACAD_REACTORS
330
2A
102
}
330
2A
100
AcDbVisualStyle
  2
Flat
 70
     0
 71
     2
 72
     1
 73
     1
 90
        2
 40
-0.6
 41
30.0
 62
     5
 63
     7
421
 16777215
 74
     0
 91
        4
 64
     7
 65
   257
 75
     1
175
     1
 42
1.0
 92
        8
 66
     7
 43
1.0
 76
     1
 77
     6
 78
     2
 67
     7
 79
     5
170
     0
171
     0
290
     0
174
     0
 93
       13
 44
0.0
173
     0
291
     1
 45
0.0
  0
VISUALSTYLE
  5
2C
102
{ACAD_REACTORS
330
2A
102
}
330
2A
100
AcDbVisualStyle
  2
FlatWithEdges
 70
     1
 71
     2
 72
     1
 73
     1
 90
        2
 40
-0.6
 41
30.0
 62
     5
 63
     7
421
 16777215
 74
     1
 91
        4
 64
     7
 65
   257
 75
     1
175
     1
 42
1.0
 92
        0
 66
   257
 43
1.0
 76
     1
 77
     6
 78
     2
 67
     7
 79
     5
170
     0
171
     0
290
     0
174
     0
 93
       13
 44
0.0
173
     0
291
     1
 45
0.0
  0
VISUALSTYLE
  5
2D
102
{ACAD_REACTORS
330
2A
102
}
330
2A
100
AcDbVisualStyle
  2
Gouraud
 70
     2
 71
     2
 72
     2
 73
     1
 90
        2
 40
-0.6
 41
30.0
 62
     5
 63
     7
421
 16777215
 74
     0
 91
        4
 64
     7
 65
   257
 75
     1
175
     1
 42
1.0
 92
        0
 66
     7
 43
1.0
 76
     1
 77
     6
 78
     2
 67
     7
 79
     5
170
     0
171
     0
290
     0
174
     0
 93
       13
 44
0.0
173
     0
291
     1
 45
0.0
  0
VISUALSTYLE
  5
2E
102
{ACAD_REACTORS
330
2A
102
}
330
2A
100
AcDbVisualStyle
  2
GouraudWithEdges
 70
     3
 71
     2
 72
     2
 73
     1
 90
        2
 40
-0.6
 41
30.0
 62
     5
 63
     7
421
 16777215
 74
     1
 91
        4
 64
     7
 65
   257
 75
     1
175
     1
 42
1.0
 92
        0
 66
   257
 43
1.0
 76
     1
 77
     6
 78
     2
 67
     7
 79
     5
170
     0
171
     0
290
     0
174
     0
 93
       13
 44
0.0
173
     0
291
     1
 45
0.0
  0
VISUALSTYLE
  5
38
102
{ACAD_REACTORS
330
2A
102
}
330
2A
100
AcDbVisualStyle
  2
Linepattern
 70
    14
 71
     2
 72
     2
 73
     0
 90
        0
 40
-0.6
 41
-30.0
 62
     5
 63
     7
421
 16777215
 74
     1
 91
        4
 64
     7
 65
   257
 75
     7
175
     7
 42
1.0
 92
        8
 66
     7
 43
1.0
 76
     1
 77
     6
 78
     2
 67
     7
 79
     5
170
     0
171
     0
290
     0
174
     0
 93
        1
 44
0.0
173
     0
291
     1
 45
0.0
  0
VISUALSTYLE
  5
33
102
{ACAD_REACTORS
330
2A
102
}
330
2A
100
AcDbVisualStyle
  2
Realistic
 70
     8
 71
     2
 72
     2
 73
     0
 90
        0
 40
-0.6
 41
-30.0
 62
     5
 63
     7
421
 16777215
 74
     1
 91
        0
 64
     7
 65
   257
 75
     1
175
     1
 42
1.0
 92
        8
 66
     8
424
  7895160
 43
1.0
 76
     1
 77
     6
 78
     2
 67
     7
 79
     5
170
     0
171
     0
290
     0
174
     0
 93
       13
 44
0.0
173
     0
291
     0
 45
0.0
  0
VISUALSTYLE
  5
37
102
{ACAD_REACTORS
330
2A
102
}
330
2A
100
AcDbVisualStyle
  2
Thicken
 70
    13
 71
     2
 72
     2
 73
     0
 90
        0
 40
-0.6
 41
-30.0
 62
     5
 63
     7
421
 16777215
 74
     1
 91
        4
 64
     7
 65
   257
 75
     1
175
     1
 42
1.0
 92
       12
 66
     7
 43
1.0
 76
     1
 77
     6
 78
     2
 67
     7
 79
     5
170
     0
171
     0
290
     0
174
     0
 93
        1
 44
0.0
173
     0
291
     1
 45
0.0
  0
ENDSEC
  0
EOF
