  0
SECTION
  2
HEADER
  9
$ACADVER
  1
AC1015
  9
$ACADMAINTVER
 70
     6
  9
$DWGCODEPAGE
  3
ANSI_1252
  9
$INSBASE
 10
0.0
 20
0.0
 30
0.0
  9
$EXTMIN
 10
0.0
 20
0.0
 30
0.0
  9
$EXTMAX
 10
1000.0
 20
1000.0
 30
0.0
  9
$LIMMIN
 10
0.0
 20
0.0
  9
$LIMMAX
 10
1000.0
 20
1000.0
  9
$ORTHOMODE
 70
     0
  9
$REGENMODE
 70
     1
  9
$FILLMODE
 70
     1
  9
$QTEXTMODE
 70
     0
  9
$MIRRTEXT
 70
     1
  9
$LTSCALE
 40
1.0
  9
$ATTMODE
 70
     1
  9
$TEXTSIZE
 40
3.5
  9
$TRACEWID
 40
1.0
  9
$TEXTSTYLE
  7
Standard
  9
$CLAYER
  8
0
  9
$CELTYPE
  6
ByLayer
  9
$CECOLOR
 62
   256
  9
$CELTSCALE
 40
1.0
  9
$DISPSILH
 70
     0
  9
$DIMSCALE
 40
1.0
  9
$DIMASZ
 40
3.302
  9
$DIMEXO
 40
1.0
  9
$DIMDLI
 40
3.75
  9
$DIMRND
 40
0.0
  9
$DIMDLE
 40
0.0
  9
$DIMEXE
 40
1.0
  9
$DIMTP
 40
0.0
  9
$DIMTM
 40
0.0
  9
$DIMTXT
 40
3.5
  9
$DIMCEN
 40
2.5
  9
$DIMTSZ
 40
0.0
  9
$DIMTOL
 70
     0
  9
$DIMLIM
 70
     0
  9
$DIMTIH
 70
     1
  9
$DIMTOH
 70
     1
  9
$DIMSE1
 70
     0
  9
$DIMSE2
 70
     0
  9
$DIMTAD
 70
     1
  9
$DIMZIN
 70
     0
  9
$DIMBLK
  1

  9
$DIMASO
 70
     1
  9
$DIMSHO
 70
     1
  9
$DIMPOST
  1

  9
$DIMAPOST
  1

  9
$DIMALT
 70
     0
  9
$DIMALTD
 70
     3
  9
$DIMALTF
 40
0.0393700787
  9
$DIMLFAC
 40
1.0
  9
$DIMTOFL
 70
     1
  9
$DIMTVP
 40
0.0
  9
$DIMTIX
 70
     0
  9
$DIMSOXD
 70
     0
  9
$DIMSAH
 70
     0
  9
$DIMBLK1
  1

  9
$DIMBLK2
  1

  9
$DIMSTYLE
  2
ISO-25
  9
$DIMCLRD
 70
     0
  9
$DIMCLRE
 70
     0
  9
$DIMCLRT
 70
     0
  9
$DIMTFAC
 40
1.0
  9
$DIMGAP
 40
1.524
  9
$DIMJUST
 70
     0
  9
$DIMSD1
 70
     0
  9
$DIMSD2
 70
     0
  9
$DIMTOLJ
 70
     0
  9
$DIMTZIN
 70
     0
  9
$DIMALTZ
 70
     0
  9
$DIMALTTZ
 70
     0
  9
$DIMUPT
 70
     0
  9
$DIMDEC
 70
     3
  9
$DIMTDEC
 70
     3
  9
$DIMALTU
 70
     2
  9
$DIMALTTD
 70
     3
  9
$DIMTXSTY
  7
Standard
  9
$DIMAUNIT
 70
     0
  9
$DIMADEC
 70
     2
  9
$DIMALTRND
 40
0.0
  9
$DIMAZIN
 70
     0
  9
$DIMDSEP
 70
    44
  9
$DIMATFIT
 70
     3
  9
$DIMFRAC
 70
     0
  9
$DIMLDRBLK
  1

  9
$DIMLUNIT
 70
     2
  9
$DIMLWD
 70
    -2
  9
$DIMLWE
 70
    -2
  9
$DIMTMOVE
 70
     0
  9
$LUNITS
 70
     2
  9
$LUPREC
 70
     8
  9
$SKETCHINC
 40
1.0
  9
$FILLETRAD
 40
10.0
  9
$AUNITS
 70
     0
  9
$AUPREC
 70
     8
  9
$MENU
  1
.
  9
$ELEVATION
 40
0.0
  9
$PELEVATION
 40
0.0
  9
$THICKNESS
 40
0.0
  9
$LIMCHECK
 70
     0
  9
$CHAMFERA
 40
10.0
  9
$CHAMFERB
 40
10.0
  9
$CHAMFERC
 40
20.0
  9
$CHAMFERD
 40
0.0
  9
$SKPOLY
 70
     0
  9
$TDCREATE
 40
2457053.449847338
  9
$TDUCREATE
 40
2457053.449847338
  9
$TDUPDATE
 40
2457053.449849861
  9
$TDUUPDATE
 40
2457053.449849861
  9
$TDINDWG
 40
0.0000000116
  9
$TDUSRTIMER
 40
0.0000000116
  9
$USRTIMER
 70
     1
  9
$ANGBASE
 50
0.0
  9
$ANGDIR
 70
     0
  9
$PDMODE
 70
     0
  9
$PDSIZE
 40
-1.0
  9
$PLINEWID
 40
0.0
  9
$SPLFRAME
 70
     0
  9
$SPLINETYPE
 70
     6
  9
$SPLINESEGS
 70
     8
  9
$HANDSEED
  5
2B6
  9
$SURFTAB1
 70
     6
  9
$SURFTAB2
 70
     6
  9
$SURFTYPE
 70
     6
  9
$SURFU
 70
     6
  9
$SURFV
 70
     6
  9
$UCSBASE
  2

  9
$UCSNAME
  2

  9
$UCSORG
 10
0.0
 20
0.0
 30
0.0
  9
$UCSXDIR
 10
1.0
 20
0.0
 30
0.0
  9
$UCSYDIR
 10
0.0
 20
1.0
 30
0.0
  9
$UCSORTHOREF
  2

  9
$UCSORTHOVIEW
 70
     0
  9
$UCSORGTOP
 10
0.0
 20
0.0
 30
0.0
  9
$UCSORGBOTTOM
 10
0.0
 20
0.0
 30
0.0
  9
$UCSORGLEFT
 10
0.0
 20
0.0
 30
0.0
  9
$UCSORGRIGHT
 10
0.0
 20
0.0
 30
0.0
  9
$UCSORGFRONT
 10
0.0
 20
0.0
 30
0.0
  9
$UCSORGBACK
 10
0.0
 20
0.0
 30
0.0
  9
$PUCSBASE
  2

  9
$PUCSNAME
  2

  9
$PUCSORG
 10
0.0
 20
0.0
 30
0.0
  9
$PUCSXDIR
 10
1.0
 20
0.0
 30
0.0
  9
$PUCSYDIR
 10
0.0
 20
1.0
 30
0.0
  9
$PUCSORTHOREF
  2

  9
$PUCSORTHOVIEW
 70
     0
  9
$PUCSORGTOP
 10
0.0
 20
0.0
 30
0.0
  9
$PUCSORGBOTTOM
 10
0.0
 20
0.0
 30
0.0
  9
$PUCSORGLEFT
 10
0.0
 20
0.0
 30
0.0
  9
$PUCSORGRIGHT
 10
0.0
 20
0.0
 30
0.0
  9
$PUCSORGFRONT
 10
0.0
 20
0.0
 30
0.0
  9
$PUCSORGBACK
 10
0.0
 20
0.0
 30
0.0
  9
$USERI1
 70
     0
  9
$USERI2
 70
     0
  9
$USERI3
 70
     0
  9
$USERI4
 70
     0
  9
$USERI5
 70
     0
  9
$USERR1
 40
0.0
  9
$USERR2
 40
0.0
  9
$USERR3
 40
0.0
  9
$USERR4
 40
0.0
  9
$USERR5
 40
0.0
  9
$WORLDVIEW
 70
     1
  9
$SHADEDGE
 70
     3
  9
$SHADEDIF
 70
    70
  9
$TILEMODE
 70
     1
  9
$MAXACTVP
 70
    64
  9
$PINSBASE
 10
0.0
 20
0.0
 30
0.0
  9
$PLIMCHECK
 70
     0
  9
$PEXTMIN
 10
1.0000000000E+20
 20
1.0000000000E+20
 30
1.0000000000E+20
  9
$PEXTMAX
 10
-1.0000000000E+20
 20
-1.0000000000E+20
 30
-1.0000000000E+20
  9
$PLIMMIN
 10
0.0
 20
0.0
  9
$PLIMMAX
 10
420.0
 20
297.0
  9
$UNITMODE
 70
     0
  9
$VISRETAIN
 70
     1
  9
$PLINEGEN
 70
     0
  9
$PSLTSCALE
 70
     1
  9
$TREEDEPTH
 70
  3020
  9
$CMLSTYLE
  2
Standard
  9
$CMLJUST
 70
     0
  9
$CMLSCALE
 40
20.0
  9
$PROXYGRAPHICS
 70
     1
  9
$MEASUREMENT
 70
     1
  9
$CELWEIGHT
370
    -1
  9
$ENDCAPS
280
     0
  9
$JOINSTYLE
280
     0
  9
$LWDISPLAY
290
     1
  9
$INSUNITS
 70
     4
  9
$HYPERLINKBASE
  1

  9
$STYLESHEET
  1

  9
$XEDIT
290
     1
  9
$CEPSNTYPE
380
     0
  9
$PSTYLEMODE
290
     1
  9
$FINGERPRINTGUID
  2
{ED965745-A222-4840-964F-1056C846F007}
  9
$VERSIONGUID
  2
{FAEB1C32-E019-11D5-929B-00C0DF256EC4}
  9
$EXTNAMES
290
     1
  9
$PSVPSCALE
 40
0.0
  9
$OLESTARTUP
290
     0
  0
ENDSEC
  0
SECTION
  2
CLASSES
  0
CLASS
  1
ACDBDICTIONARYWDFLT
  2
AcDbDictionaryWithDefault
  3
ObjectDBX Classes
 90
        0
280
     0
281
     0
  0
CLASS
  1
VISUALSTYLE
  2
AcDbVisualStyle
  3
ObjectDBX Classes
 90
     4095
280
     0
281
     0
  0
CLASS
  1
MATERIAL
  2
AcDbMaterial
  3
ObjectDBX Classes
 90
     1153
280
     0
281
     0
  0
CLASS
  1
ACDBPLACEHOLDER
  2
AcDbPlaceHolder
  3
ObjectDBX Classes
 90
        0
280
     0
281
     0
  0
CLASS
  1
LAYOUT
  2
AcDbLayout
  3
ObjectDBX Classes
 90
        0
280
     0
281
     0
  0
ENDSEC
  0
SECTION
  2
TABLES
  0
TABLE
  2
VPORT
  5
8
330
0
100
AcDbSymbolTable
 70
     1
  0
VPORT
  5
29
330
8
100
AcDbSymbolTableRecord
100
AcDbViewportTableRecord
  2
*Active
 70
     0
 10
0.0
 20
0.0
 11
1.0
 21
1.0
 12
500.0
 22
500.0
 13
0.0
 23
0.0
 14
10.0
 24
10.0
 15
10.0
 25
10.0
 16
0.0
 26
0.0
 36
1.0
 17
0.0
 27
0.0
 37
0.0
 40
1000.0
 41
1.0
 42
50.0
 43
0.0
 44
0.0
 50
0.0
 51
0.0
 71
     0
 72
  2000
 73
     1
 74
     3
 75
     0
 76
     0
 77
     0
 78
     0
281
     0
 65
     1
110
0.0
120
0.0
130
0.0
111
1.0
121
0.0
131
0.0
112
0.0
122
1.0
132
0.0
 79
     0
146
0.0
  0
ENDTAB
  0
TABLE
  2
LTYPE
  5
5
330
0
100
AcDbSymbolTable
 70
     6
  0
LTYPE
  5
14
330
5
100
AcDbSymbolTableRecord
100
AcDbLinetypeTableRecord
  2
ByBlock
 70
     0
  3

 72
    65
 73
     0
 40
0.0
  0
LTYPE
  5
15
330
5
100
AcDbSymbolTableRecord
100
AcDbLinetypeTableRecord
  2
ByLayer
 70
     0
  3

 72
    65
 73
     0
 40
0.0
  0
LTYPE
  5
16
330
5
100
AcDbSymbolTableRecord
100
AcDbLinetypeTableRecord
  2
Continuous
 70
     0
  3
Solid line
 72
    65
 73
     0
 40
0.0
  0
LTYPE
  5
3F
330
5
100
AcDbSymbolTableRecord
100
AcDbLinetypeTableRecord
  2
HIDDEN
 70
     0
  3
Hidden __ __ __ __ __ __ __ __ __ __ __ __ __ __
 72
    65
 73
     2
 40
1.905
 49
1.27
 74
     0
 49
-0.635
 74
     0
  0
LTYPE
  5
40
330
5
100
AcDbSymbolTableRecord
100
AcDbLinetypeTableRecord
  2
PHANTOM
 70
     0
  3
Phantom ______  __  __  ______  __  __  ______
 72
    65
 73
     6
 40
12.7
 49
6.35
 74
     0
 49
-1.27
 74
     0
 49
1.27
 74
     0
 49
-1.27
 74
     0
 49
1.27
 74
     0
 49
-1.27
 74
     0
  0
LTYPE
  5
41
330
5
100
AcDbSymbolTableRecord
100
AcDbLinetypeTableRecord
  2
CENTER
 70
     0
  3
Center ____ _ ____ _ ____ _ ____ _ ____ _ ____
 72
    65
 73
     4
 40
10.16
 49
6.35
 74
     0
 49
-1.27
 74
     0
 49
1.27
 74
     0
 49
-1.27
 74
     0
  0
LTYPE
  5
42
330
5
100
AcDbSymbolTableRecord
100
AcDbLinetypeTableRecord
  2
CENTERX2
 70
     0
  3
Center (2x) ________  __  ________  __  _____
 72
    65
 73
     4
 40
20.32
 49
12.7
 74
     0
 49
-2.54
 74
     0
 49
2.54
 74
     0
 49
-2.54
 74
     0
  0
LTYPE
  5
43
330
5
100
AcDbSymbolTableRecord
100
AcDbLinetypeTableRecord
  2
DOT2
 70
     0
  3
Dot (.5x) ........................................
 72
    65
 73
     2
 40
0.635
 49
0.0
 74
     0
 49
-0.635
 74
     0
  0
ENDTAB
  0
TABLE
  2
LAYER
  5
2
330
0
100
AcDbSymbolTable
 70
     1
  0
LAYER
  5
10
330
2
100
AcDbSymbolTableRecord
100
AcDbLayerTableRecord
  2
0
 70
     0
 62
     7
  6
Continuous
370
    -3
390
F
  0
ENDTAB
  0
TABLE
  2
STYLE
  5
3
330
0
100
AcDbSymbolTable
 70
     1
  0
STYLE
  5
11
330
3
100
AcDbSymbolTableRecord
100
AcDbTextStyleTableRecord
  2
Standard
 70
     0
 40
0.0
 41
1.0
 50
0.0
 71
     0
 42
3.5
  3
txt
  4

  0
ENDTAB
  0
TABLE
  2
VIEW
  5
6
330
0
100
AcDbSymbolTable
 70
     0
  0
ENDTAB
  0
TABLE
  2
UCS
  5
7
330
0
100
AcDbSymbolTable
 70
     0
  0
ENDTAB
  0
TABLE
  2
APPID
  5
9
330
0
100
AcDbSymbolTable
 70
     1
  0
APPID
  5
12
330
9
100
AcDbSymbolTableRecord
100
AcDbRegAppTableRecord
  2
ACAD
 70
     0
  0
ENDTAB
  0
TABLE
  2
DIMSTYLE
  5
A
330
0
100
AcDbSymbolTable
 70
     1
100
AcDbDimStyleTable
  0
DIMSTYLE
105
27
330
A
100
AcDbSymbolTableRecord
100
AcDbDimStyleTableRecord
  2
ISO-25
 70
     0
 41
2.5
 42
0.625
 43
3.75
 44
1.25
 73
     0
 74
     0
 77
     1
 78
     8
140
2.5
141
2.5
143
0.0393700787
147
0.625
171
     3
172
     1
178
     0
271
     2
272
     2
274
     3
278
    44
283
     0
284
     8
340
11
  0
ENDTAB
  0
TABLE
  2
BLOCK_RECORD
  5
1
330
0
100
AcDbSymbolTable
 70
     1
  0
BLOCK_RECORD
  5
1F
330
1
100
AcDbSymbolTableRecord
100
AcDbBlockTableRecord
  2
*Model_Space
340
22
  0
BLOCK_RECORD
  5
1B
330
1
100
AcDbSymbolTableRecord
100
AcDbBlockTableRecord
  2
*Paper_Space
340
1E
  0
BLOCK_RECORD
  5
23
330
1
100
AcDbSymbolTableRecord
100
AcDbBlockTableRecord
  2
*Paper_Space0
340
26
  0
ENDTAB
  0
ENDSEC
  0
SECTION
  2
BLOCKS
  0
BLOCK
  5
20
330
1F
100
AcDbEntity
  8
0
100
AcDbBlockBegin
  2
*Model_Space
 70
     0
 10
0.0
 20
0.0
 30
0.0
  3
*Model_Space
  1

  0
ENDBLK
  5
21
330
1F
100
AcDbEntity
  8
0
100
AcDbBlockEnd
  0
BLOCK
  5
1C
330
1B
100
AcDbEntity
 67
     1
  8
0
100
AcDbBlockBegin
  2
*Paper_Space
 70
     0
 10
0.0
 20
0.0
 30
0.0
  3
*Paper_Space
  1

  0
ENDBLK
  5
1D
330
1B
100
AcDbEntity
 67
     1
  8
0
100
AcDbBlockEnd
  0
BLOCK
  5
24
330
23
100
AcDbEntity
  8
0
100
AcDbBlockBegin
  2
*Paper_Space0
 70
     0
 10
0.0
 20
0.0
 30
0.0
  3
*Paper_Space0
  1

  0
ENDBLK
  5
25
330
23
100
AcDbEntity
  8
0
100
AcDbBlockEnd
  0
ENDSEC
  0
SECTION
  2
ENTITIES
  0
LWPOLYLINE
  5
44
330
1F
100
AcDbEntity
  8
0
  6
Continuous
 62
     7
100
AcDbPolyline
 90
       17
 70
   128
 43
0.0
 10
610.808266529
 20
733.5463286137
 10
611.5654552366
 20
732.9507763481
 10
612.8042826211
 20
732.5230171771
 10
614.3361484432
 20
732.3281735569
 10
615.9278400178
 20
732.3959086624
 10
617.3370367316
 20
732.7159104378
 10
618.3492011592
 20
733.2394615136
 10
618.8102404418
 20
733.8868559846
 10
618.6499655279
 20
734.5595339111
 10
617.8927768204
 20
735.1550861767
 10
616.6539494359
 20
735.5828453477
 10
615.1220836138
 20
735.7776889679
 10
613.5303920391
 20
735.7099538624
 10
612.1211953253
 20
735.389952087
 10
611.1090308978
 20
734.8664010112
 10
610.6479916152
 20
734.2190065402
 10
610.808266529
 20
733.5463286137
  0
LWPOLYLINE
  5
45
330
1F
100
AcDbEntity
  8
0
  6
Continuous
 62
     7
100
AcDbPolyline
 90
       17
 70
   128
 43
0.0
 10
367.5980302952
 20
817.6112663722
 10
367.0439897775
 20
818.5457780467
 10
366.1375307157
 20
819.2169969509
 10
365.0166532849
 20
819.5227360914
 10
363.8520009132
 20
819.4164494554
 10
362.8208813665
 20
818.9143182199
 10
362.0802732488
 20
818.0927873135
 10
361.7429274322
 20
817.0769273697
 10
361.8602017594
 20
816.021393856
 10
362.4142422772
 20
815.0868821815
 10
363.320701339
 20
814.4156632772
 10
364.4415787698
 20
814.1099241368
 10
365.6062311415
 20
814.2162107727
 10
366.6373506882
 20
814.7183420083
 10
367.3779588059
 20
815.5398729146
 10
367.7153046224
 20
816.5557328585
 10
367.5980302952
 20
817.6112663722
  0
LWPOLYLINE
  5
46
330
1F
100
AcDbEntity
  8
0
  6
Continuous
 62
     7
100
AcDbPolyline
 90
       17
 70
   128
 43
0.0
 10
370.4669445631
 20
742.9879465771
 10
369.3588635277
 20
744.8569699261
 10
367.545945404
 20
746.1994077346
 10
365.3041905425
 20
746.8108860155
 10
362.974885799
 20
746.5983127435
 10
360.9126467057
 20
745.5940502724
 10
359.4314304702
 20
743.9509884597
 10
358.7567388371
 20
741.919268572
 10
358.9912874916
 20
739.8082015447
 10
360.099368527
 20
737.9391781956
 10
361.9122866506
 20
736.5967403871
 10
364.1540415122
 20
735.9852621063
 10
366.4833462557
 20
736.1978353782
 10
368.545585349
 20
737.2020978493
 10
370.0268015845
 20
738.845159662
 10
370.7014932175
 20
740.8768795497
 10
370.4669445631
 20
742.9879465771
  0
LWPOLYLINE
  5
47
330
1F
100
AcDbEntity
  8
0
  6
Continuous
 62
     7
100
AcDbPolyline
 90
       17
 70
   128
 43
0.0
 10
367.5980302952
 20
742.193010319
 10
367.0439897775
 20
743.1275219935
 10
366.1375307157
 20
743.7987408977
 10
365.0166532849
 20
744.1044800382
 10
363.8520009132
 20
743.9981934022
 10
362.8208813665
 20
743.4960621666
 10
362.0802732488
 20
742.6745312603
 10
361.7429274322
 20
741.6586713164
 10
361.8602017594
 20
740.6031378028
 10
362.4142422772
 20
739.6686261283
 10
363.320701339
 20
738.997407224
 10
364.4415787698
 20
738.6916680836
 10
365.6062311415
 20
738.7979547195
 10
366.6373506882
 20
739.3000859551
 10
367.3779588059
 20
740.1216168614
 10
367.7153046224
 20
741.1374768053
 10
367.5980302952
 20
742.193010319
  0
LWPOLYLINE
  5
48
330
1F
100
AcDbEntity
  8
0
  6
CENTERX2
 62
     7
100
AcDbPolyline
 90
       17
 70
   128
 43
0.0
 10
367.1198779172
 20
727.0352443681
 10
366.6581774858
 20
726.2564846393
 10
365.9027949343
 20
725.6971355525
 10
364.9687304086
 20
725.4423529354
 10
363.9981867655
 20
725.5309251321
 10
363.1389204766
 20
725.9493678284
 10
362.5217470452
 20
726.633976917
 10
362.2406255314
 20
727.4805268702
 10
362.3383541374
 20
728.3601381316
 10
362.8000545689
 20
729.1388978604
 10
363.5554371204
 20
729.6982469472
 10
364.489501646
 20
729.9530295643
 10
365.4600452891
 20
729.8644573676
 10
366.319311578
 20
729.4460146713
 10
366.9364850095
 20
728.7614055827
 10
367.2176065233
 20
727.9148556295
 10
367.1198779172
 20
727.0352443681
  0
LWPOLYLINE
  5
49
330
1F
100
AcDbEntity
  8
0
  6
CENTERX2
 62
     7
100
AcDbPolyline
 90
       17
 70
   128
 43
0.0
 10
367.1198779172
 20
815.8534074977
 10
366.6581774858
 20
815.0746477689
 10
365.9027949343
 20
814.5152986821
 10
364.9687304086
 20
814.260516065
 10
363.9981867655
 20
814.3490882617
 10
363.1389204766
 20
814.767530958
 10
362.5217470452
 20
815.4521400466
 10
362.2406255314
 20
816.2986899998
 10
362.3383541374
 20
817.1783012612
 10
362.8000545689
 20
817.9570609899
 10
363.5554371204
 20
818.5164100768
 10
364.489501646
 20
818.7711926939
 10
365.4600452891
 20
818.6826204972
 10
366.319311578
 20
818.2641778009
 10
366.9364850095
 20
817.5795687123
 10
367.2176065233
 20
816.7330187591
 10
367.1198779172
 20
815.8534074977
  0
LINE
  5
4A
330
1F
100
AcDbEntity
  8
0
  6
Continuous
 62
     7
100
AcDbLine
 10
858.7291160285
 20
729.5529312624
 30
0.0
 11
863.7291160285
 21
729.5529312624
 31
0.0
  0
LINE
  5
4B
330
1F
100
AcDbEntity
  8
0
  6
Continuous
 62
     7
100
AcDbLine
 10
863.7291160285
 20
664.5529312624
 30
0.0
 11
859.7291160285
 21
664.5529312624
 31
0.0
  0
LINE
  5
4C
330
1F
100
AcDbEntity
  8
0
  6
Continuous
 62
     7
100
AcDbLine
 10
859.7291160285
 20
664.5529312624
 30
0.0
 11
859.7291160285
 21
699.5529312624
 31
0.0
  0
LINE
  5
4D
330
1F
100
AcDbEntity
  8
0
  6
Continuous
 62
     7
100
AcDbLine
 10
859.7291160285
 20
699.5529312624
 30
0.0
 11
858.7291160285
 21
699.5529312624
 31
0.0
  0
LINE
  5
4E
330
1F
100
AcDbEntity
  8
0
  6
Continuous
 62
     7
100
AcDbLine
 10
858.7291160285
 20
699.5529312624
 30
0.0
 11
858.7291160285
 21
729.5529312624
 31
0.0
  0
LINE
  5
4F
330
1F
100
AcDbEntity
  8
0
  6
CENTERX2
 62
     7
100
AcDbLine
 10
847.7291160285
 20
734.0529312624
 30
0.0
 11
847.7291160285
 21
664.5529312624
 31
0.0
  0
LINE
  5
50
330
1F
100
AcDbEntity
  8
0
  6
CENTERX2
 62
     7
100
AcDbLine
 10
847.7291160285
 20
734.0529312624
 30
0.0
 11
847.7291160285
 21
664.5529312624
 31
0.0
  0
LINE
  5
51
330
1F
100
AcDbEntity
  8
0
  6
Continuous
 62
     7
100
AcDbLine
 10
863.7291160285
 20
729.5529312624
 30
0.0
 11
863.7291160285
 21
664.5529312624
 31
0.0
  0
ARC
  5
52
330
1F
100
AcDbEntity
  8
0
  6
Continuous
 62
     7
370
    15
100
AcDbCircle
 10
179.2291160284
 20
13.4529312625
 30
0.0
 40
2.000000000000002
100
AcDbArc
 50
270.0
 51
0.0
  0
ARC
  5
53
330
1F
100
AcDbEntity
  8
0
  6
Continuous
 62
     7
370
    15
100
AcDbCircle
 10
126.2291160284
 20
13.4529312625
 30
0.0
 40
2.000000000000014
100
AcDbArc
 50
180.0
 51
270.0
  0
LINE
  5
54
330
1F
100
AcDbEntity
  8
0
  6
Continuous
 62
     7
370
    15
100
AcDbLine
 10
181.2291147792
 20
13.4529191259
 30
0.0
 11
181.2291147792
 21
17.4529272322
 31
0.0
  0
LINE
  5
55
330
1F
100
AcDbEntity
  8
0
  6
Continuous
 62
     7
370
    15
100
AcDbLine
 10
124.2291035735
 20
17.4529272322
 30
0.0
 11
124.2291035735
 21
13.4529191259
 31
0.0
  0
LINE
  5
56
330
1F
100
AcDbEntity
  8
0
  6
Continuous
 62
     7
370
    15
100
AcDbLine
 10
855.2291097724
 20
13.4529191259
 30
0.0
 11
855.2291097724
 21
17.4529272322
 31
0.0
  0
LINE
  5
57
330
1F
100
AcDbEntity
  8
0
  6
Continuous
 62
     7
370
    15
100
AcDbLine
 10
798.2291283691
 20
17.4529272322
 30
0.0
 11
798.2291283691
 21
13.4529191259
 31
0.0
  0
ARC
  5
58
330
1F
100
AcDbEntity
  8
0
  6
Continuous
 62
     7
370
    15
100
AcDbCircle
 10
853.2291160284
 20
13.4529312625
 30
0.0
 40
2.000000000000002
100
AcDbArc
 50
270.0
 51
0.0
  0
ARC
  5
59
330
1F
100
AcDbEntity
  8
0
  6
Continuous
 62
     7
370
    15
100
AcDbCircle
 10
800.2291160284
 20
13.4529312625
 30
0.0
 40
2.000000000000002
100
AcDbArc
 50
180.0
 51
270.0
  0
LINE
  5
5A
330
1F
100
AcDbEntity
  8
0
  6
Continuous
 62
     7
370
    15
100
AcDbLine
 10
181.0291113937
 20
17.4529272322
 30
0.0
 11
181.0291113937
 21
85.4529458288
 31
0.0
  0
LINE
  5
5B
330
1F
100
AcDbEntity
  8
0
  6
Continuous
 62
     7
370
    15
100
AcDbLine
 10
124.4291069591
 20
85.4529458288
 30
0.0
 11
124.4291069591
 21
17.4529272322
 31
0.0
  0
LINE
  5
5C
330
1F
100
AcDbEntity
  8
0
  6
Continuous
 62
     7
370
    15
100
AcDbLine
 10
855.0291063869
 20
17.4529272322
 30
0.0
 11
855.0291063869
 21
85.4529458288
 31
0.0
  0
LINE
  5
5D
330
1F
100
AcDbEntity
  8
0
  6
Continuous
 62
     7
370
    15
100
AcDbLine
 10
798.4291019523
 20
85.4529458288
 30
0.0
 11
798.4291019523
 21
17.4529272322
 31
0.0
  0
ARC
  5
5E
330
1F
100
AcDbEntity
  8
0
  6
Continuous
 62
     7
370
    15
100
AcDbCircle
 10
186.1291160284
 20
177.9529312625
 30
0.0
 40
1.5
100
AcDbArc
 50
90.0
 51
180.0
  0
ARC
  5
5F
330
1F
100
AcDbEntity
  8
0
  6
Continuous
 62
     7
370
    15
100
AcDbCircle
 10
119.3291160284
 20
177.9529312625
 30
0.0
 40
1.5
100
AcDbArc
 50
0.0
 51
90.0
  0
LINE
  5
60
330
1F
100
AcDbEntity
  8
0
  6
Continuous
 62
     7
370
    15
100
AcDbLine
 10
184.6291127288
 20
91.4854723219
 30
0.0
 11
184.6291127288
 21
177.9529172186
 31
0.0
  0
LINE
  5
61
330
1F
100
AcDbEntity
  8
0
  6
Continuous
 62
     7
370
    15
100
AcDbLine
 10
120.8291056239
 20
177.9529172186
 30
0.0
 11
120.8291056239
 21
91.4854723219
 31
0.0
  0
ARC
  5
62
330
1F
100
AcDbEntity
  8
0
  6
Continuous
 62
     7
370
    15
100
AcDbCircle
 10
179.9291160284
 20
91.4854972082
 30
0.0
 40
4.699999999999977
100
AcDbArc
 50
350.5402980318
 51
0.0
  0
ARC
  5
63
330
1F
100
AcDbEntity
  8
0
  6
Continuous
 62
     7
370
    15
100
AcDbCircle
 10
125.5291160284
 20
91.4854972082
 30
0.0
 40
4.699999999999991
100
AcDbArc
 50
180.0
 51
189.4597019682
  0
LINE
  5
64
330
1F
100
AcDbEntity
  8
0
  6
Continuous
 62
     7
370
    15
100
AcDbLine
 10
120.8930316055
 20
90.7130557302
 30
0.0
 11
121.7694583022
 21
85.4529458288
 31
0.0
  0
LINE
  5
65
330
1F
100
AcDbEntity
  8
0
  6
Continuous
 62
     7
370
    15
100
AcDbLine
 10
183.6887600505
 20
85.4529458288
 30
0.0
 11
184.5652016485
 21
90.7130557302
 31
0.0
  0
ARC
  5
66
330
1F
100
AcDbEntity
  8
0
  6
Continuous
 62
     7
370
    15
100
AcDbCircle
 10
860.1291160284
 20
177.9529312625
 30
0.0
 40
1.500000000000114
100
AcDbArc
 50
90.0
 51
180.0
  0
ARC
  5
67
330
1F
100
AcDbEntity
  8
0
  6
Continuous
 62
     7
370
    15
100
AcDbCircle
 10
793.3291160284
 20
177.9529312625
 30
0.0
 40
1.499999999999943
100
AcDbArc
 50
0.0
 51
90.0
  0
LINE
  5
68
330
1F
100
AcDbEntity
  8
0
  6
Continuous
 62
     7
370
    15
100
AcDbLine
 10
858.629107722
 20
91.4854723219
 30
0.0
 11
858.629107722
 21
177.9529172186
 31
0.0
  0
LINE
  5
69
330
1F
100
AcDbEntity
  8
0
  6
Continuous
 62
     7
370
    15
100
AcDbLine
 10
794.8291304195
 20
177.9529172186
 30
0.0
 11
794.8291304195
 21
91.4854723219
 31
0.0
  0
ARC
  5
6A
330
1F
100
AcDbEntity
  8
0
  6
Continuous
 62
     7
370
    15
100
AcDbCircle
 10
853.9291160284
 20
91.4854972082
 30
0.0
 40
4.700000000000006
100
AcDbArc
 50
350.5402980318
 51
0.0
  0
ARC
  5
6B
330
1F
100
AcDbEntity
  8
0
  6
Continuous
 62
     7
370
    15
100
AcDbCircle
 10
799.5291160284
 20
91.4854972082
 30
0.0
 40
4.700000000000045
100
AcDbArc
 50
180.0
 51
189.4597019682
  0
LINE
  5
6C
330
1F
100
AcDbEntity
  8
0
  6
Continuous
 62
     7
370
    15
100
AcDbLine
 10
794.8930265987
 20
90.7130557302
 30
0.0
 11
795.7694532955
 21
85.4529458288
 31
0.0
  0
LINE
  5
6D
330
1F
100
AcDbEntity
  8
0
  6
Continuous
 62
     7
370
    15
100
AcDbLine
 10
857.6887550437
 20
85.4529458288
 30
0.0
 11
858.5652115428
 21
90.7130557302
 31
0.0
  0
SPLINE
  5
6E
330
1F
100
AcDbEntity
  8
0
  6
Continuous
 62
     7
370
    15
100
AcDbSpline
210
0.0
220
0.0
230
1.0
 70
     8
 71
     3
 72
    13
 73
     9
 74
     0
 42
0.00000001
 43
0.00000001
 12
1.0
 22
0.0
 32
0.0
 13
1.0
 23
0.0
 33
0.0
 40
0.0
 40
0.0
 40
0.0
 40
0.0
 40
0.1537480336525048
 40
0.4678233204250574
 40
0.6523021572448847
 40
0.8142495025349498
 40
0.9818739069059989
 40
1.0
 40
1.0
 40
1.0
 40
1.0
 10
237.0670589291897
 20
168.3505493406232
 30
0.0
 10
237.0741369933985
 20
168.3509033433446
 30
0.0
 10
237.0956740720961
 20
168.3519805000707
 30
0.0
 10
237.1362836839541
 20
168.3297692465246
 30
0.0
 10
237.1843659884323
 20
168.2676165346814
 30
0.0
 10
237.2120080623459
 20
168.1961499901822
 30
0.0
 10
237.2231599621649
 20
168.1374327835791
 30
0.0
 10
237.221276068472
 20
168.1062887937911
 30
0.0
 10
237.2210922324505
 20
168.1032496694501
 30
0.0
  0
LINE
  5
6F
330
1F
100
AcDbEntity
  8
0
  6
Continuous
 62
     7
370
    15
100
AcDbLine
 10
237.2217329824
 20
168.1029516462
 30
0.0
 11
237.2217329824
 21
163.0029398207
 31
0.0
  0
ARC
  5
70
330
1F
100
AcDbEntity
  8
0
  6
Continuous
 62
     7
370
    15
100
AcDbCircle
 10
237.4717339238
 20
163.0029312625
 30
0.0
 40
0.2499999999999716
100
AcDbArc
 50
180.0
 51
270.0
  0
ARC
  5
71
330
1F
100
AcDbEntity
  8
0
  6
Continuous
 62
     7
370
    15
100
AcDbCircle
 10
241.9095551384
 20
163.0029312625
 30
0.0
 40
0.25
100
AcDbArc
 50
270.0
 51
0.0
  0
LINE
  5
72
330
1F
100
AcDbEntity
  8
0
  6
Continuous
 62
     7
370
    15
100
AcDbLine
 10
242.1595605695
 20
163.0029398207
 30
0.0
 11
242.1595605695
 21
168.1029516462
 31
0.0
  0
ARC
  5
73
330
1F
100
AcDbEntity
  8
0
  6
Continuous
 62
     7
370
    15
100
AcDbCircle
 10
241.1791160284
 20
169.3029312625
 30
0.0
 40
0.2499999999999969
100
AcDbArc
 50
31.0756875732
 51
90.0
  0
ARC
  5
74
330
1F
100
AcDbEntity
  8
0
  6
Continuous
 62
     7
370
    15
100
AcDbCircle
 10
223.5486769183
 20
163.0029312625
 30
0.0
 40
0.2500000000000284
100
AcDbArc
 50
180.0
 51
270.0
  0
LINE
  5
75
330
1F
100
AcDbEntity
  8
0
  6
Continuous
 62
     7
370
    15
100
AcDbLine
 10
223.2986840093
 20
168.1029516462
 30
0.0
 11
223.2986840093
 21
163.0029398207
 31
0.0
  0
SPLINE
  5
76
330
1F
100
AcDbEntity
  8
0
  6
Continuous
 62
     7
370
    15
100
AcDbSpline
210
0.0
220
0.0
230
1.0
 70
     8
 71
     3
 72
    13
 73
     9
 74
     0
 42
0.00000001
 43
0.00000001
 12
1.0
 22
0.0
 32
0.0
 13
1.0
 23
0.0
 33
0.0
 40
0.0
 40
0.0
 40
0.0
 40
0.0
 40
0.1560244532282971
 40
0.4086652056107353
 40
0.5953676603886964
 40
0.7560839529184477
 40
0.9248925406868685
 40
1.0
 40
1.0
 40
1.0
 40
1.0
 10
229.1730644786205
 20
168.3540064100201
 30
0.0
 10
229.1708494389395
 20
168.353750072374
 30
0.0
 10
229.1650477224265
 20
168.3530786630235
 30
0.0
 10
229.1419921297554
 20
168.3633608940188
 30
0.0
 10
229.1022348218865
 20
168.4091638485409
 30
0.0
 10
229.0716997464868
 20
168.4768839259731
 30
0.0
 10
229.0551000142351
 20
168.5457390291882
 30
0.0
 10
229.0562445678769
 20
168.589454415941
 30
0.0
 10
229.0565970027294
 20
168.6029154066022
 30
0.0
  0
ARC
  5
77
330
1F
100
AcDbEntity
  8
0
  6
Continuous
 62
     7
370
    15
100
AcDbCircle
 10
228.8047066924
 20
173.7029312625
 30
0.0
 40
0.2500000000000853
100
AcDbArc
 50
0.0
 51
90.0
  0
LINE
  5
78
330
1F
100
AcDbEntity
  8
0
  6
Continuous
 62
     7
370
    15
100
AcDbLine
 10
229.0547045553
 20
168.6029154066
 30
0.0
 11
229.0547045553
 21
173.7029272322
 31
0.0
  0
ARC
  5
79
330
1F
100
AcDbEntity
  8
0
  6
Continuous
 62
     7
370
    15
100
AcDbCircle
 10
223.9785397203
 20
173.7029312625
 30
0.0
 40
0.2499999999999716
100
AcDbArc
 50
90.0
 51
180.0
  0
LINE
  5
7A
330
1F
100
AcDbEntity
  8
0
  6
Continuous
 62
     7
370
    15
100
AcDbLine
 10
223.7285378063
 20
173.7029272322
 30
0.0
 11
223.7285378063
 21
168.6029154066
 31
0.0
  0
ARC
  5
7B
330
1F
100
AcDbEntity
  8
0
  6
Continuous
 62
     7
370
    15
100
AcDbCircle
 10
224.2791160284
 20
167.4029312625
 30
0.0
 40
0.2499999999999716
100
AcDbArc
 50
180.0
 51
270.0
  0
LINE
  5
7C
330
1F
100
AcDbEntity
  8
0
  6
Continuous
 62
     7
370
    15
100
AcDbLine
 10
224.0291091287
 20
167.6661688093
 30
0.0
 11
224.0291091287
 21
167.402954698
 31
0.0
  0
ARC
  5
7D
330
1F
100
AcDbEntity
  8
0
  6
Continuous
 62
     7
370
    15
100
AcDbCircle
 10
241.4796923365
 20
173.7029312625
 30
0.0
 40
0.2500000000000853
100
AcDbArc
 50
0.0
 51
90.0
  0
LINE
  5
7E
330
1F
100
AcDbEntity
  8
0
  6
Continuous
 62
     7
370
    15
100
AcDbLine
 10
241.7296918714
 20
169.1744643454
 30
0.0
 11
241.7296918714
 21
173.7029272322
 31
0.0
  0
LINE
  5
7F
330
1F
100
AcDbEntity
  8
0
  6
Continuous
 62
     7
370
    15
100
AcDbLine
 10
238.0692216241
 20
180.0065952543
 30
0.0
 11
237.729117521
 21
180.2029329542
 31
0.0
  0
LINE
  5
80
330
1F
100
AcDbEntity
  8
0
  6
Continuous
 62
     7
370
    15
100
AcDbLine
 10
237.729117521
 20
175.0029045347
 30
0.0
 11
238.0692216241
 21
175.1993018392
 31
0.0
  0
LINE
  5
81
330
1F
100
AcDbEntity
  8
0
  6
Continuous
 62
     7
370
    15
100
AcDbLine
 10
227.7291121566
 20
180.2029329542
 30
0.0
 11
227.3890229547
 21
180.0065952543
 31
0.0
  0
LINE
  5
82
330
1F
100
AcDbEntity
  8
0
  6
Continuous
 62
     7
370
    15
100
AcDbLine
 10
227.3890229547
 20
175.1993018392
 30
0.0
 11
227.7291121566
 21
175.0029045347
 31
0.0
  0
LINE
  5
83
330
1F
100
AcDbEntity
  8
0
  6
Continuous
 62
     7
370
    15
100
AcDbLine
 10
227.7291121566
 20
174.7529226545
 30
0.0
 11
227.5763454521
 21
174.6647077803
 31
0.0
  0
LINE
  5
84
330
1F
100
AcDbEntity
  8
0
  6
Continuous
 62
     7
370
    15
100
AcDbLine
 10
237.8818991268
 20
174.6647077803
 30
0.0
 11
237.729117521
 21
174.7529226545
 31
0.0
  0
LINE
  5
85
330
1F
100
AcDbEntity
  8
0
  6
Continuous
 62
     7
370
    15
100
AcDbLine
 10
237.729117521
 20
169.5529538397
 30
0.0
 11
237.8818991268
 21
169.6411091093
 31
0.0
  0
LINE
  5
86
330
1F
100
AcDbEntity
  8
0
  6
Continuous
 62
     7
370
    15
100
AcDbLine
 10
238.8291212404
 20
180.2029329542
 30
0.0
 11
238.8291212404
 21
180.7529050116
 31
0.0
  0
LINE
  5
87
330
1F
100
AcDbEntity
  8
0
  6
Continuous
 62
     7
370
    15
100
AcDbLine
 10
226.6291233384
 20
180.7529050116
 30
0.0
 11
226.6291233384
 21
180.2029329542
 31
0.0
  0
LINE
  5
88
330
1F
100
AcDbEntity
  8
0
  6
Continuous
 62
     7
370
    15
100
AcDbLine
 10
229.7291162097
 20
175.0029045347
 30
0.0
 11
229.7291162097
 21
174.7529226545
 31
0.0
  0
LINE
  5
89
330
1F
100
AcDbEntity
  8
0
  6
Continuous
 62
     7
370
    15
100
AcDbLine
 10
235.7291134679
 20
174.7529226545
 30
0.0
 11
235.7291134679
 21
175.0029045347
 31
0.0
  0
ARC
  5
8A
330
1F
100
AcDbEntity
  8
0
  6
Continuous
 62
     7
370
    15
100
AcDbCircle
 10
92.2291160284
 20
938.2529312625
 30
0.0
 40
2.0
100
AcDbArc
 50
90.0
 51
180.0
  0
ARC
  5
8B
330
1F
100
AcDbEntity
  8
0
  6
Continuous
 62
     7
370
    15
100
AcDbCircle
 10
107.2291160284
 20
938.2529312625
 30
0.0
 40
2.0
100
AcDbArc
 50
0.0
 51
90.0
  0
LINE
  5
8C
330
1F
100
AcDbEntity
  8
0
  6
Continuous
 62
     7
370
    15
100
AcDbLine
 10
109.2291178787
 20
928.7529307608
 30
0.0
 11
109.2291178787
 21
938.2529276613
 31
0.0
  0
LINE
  5
8D
330
1F
100
AcDbEntity
  8
0
  6
Continuous
 62
     7
370
    15
100
AcDbLine
 10
90.2291240775
 20
938.2529276613
 30
0.0
 11
90.2291240775
 21
928.7529307608
 31
0.0
  0
LINE
  5
8E
330
1F
100
AcDbEntity
  8
0
  6
Continuous
 62
     7
370
    15
100
AcDbLine
 10
889.2291190708
 20
928.7529307608
 30
0.0
 11
889.2291190708
 21
938.2529276613
 31
0.0
  0
LINE
  5
8F
330
1F
100
AcDbEntity
  8
0
  6
Continuous
 62
     7
370
    15
100
AcDbLine
 10
870.2291252696
 20
938.2529276613
 30
0.0
 11
870.2291252696
 21
928.7529307608
 31
0.0
  0
ARC
  5
90
330
1F
100
AcDbEntity
  8
0
  6
Continuous
 62
     7
370
    15
100
AcDbCircle
 10
872.2291160284
 20
938.2529312625
 30
0.0
 40
2.000000000000114
100
AcDbArc
 50
90.0
 51
180.0
  0
ARC
  5
91
330
1F
100
AcDbEntity
  8
0
  6
Continuous
 62
     7
370
    15
100
AcDbCircle
 10
887.2291160284
 20
938.2529312625
 30
0.0
 40
2.0
100
AcDbArc
 50
0.0
 51
90.0
  0
ARC
  5
92
330
1F
100
AcDbEntity
  8
0
  6
Continuous
 62
     7
370
    15
100
AcDbCircle
 10
209.7289751882
 20
949.2850399278
 30
0.0
 40
4.967787601702746
100
AcDbArc
 50
182.9350565889
 51
194.1754148978
  0
ARC
  5
93
330
1F
100
AcDbEntity
  8
0
  6
Continuous
 62
     7
370
    15
100
AcDbCircle
 10
769.7284852994
 20
949.2852424358
 30
0.0
 40
4.968579607549084
100
AcDbArc
 50
345.8014421487
 51
357.0630733622
  0
LINE
  5
94
330
1F
100
AcDbEntity
  8
0
  6
Continuous
 62
     7
370
    15
100
AcDbLine
 10
205.4202261054
 20
946.0349696878
 30
0.0
 11
204.9105169856
 21
948.079259992
 31
0.0
  0
LINE
  5
95
330
1F
100
AcDbEntity
  8
0
  6
Continuous
 62
     7
370
    15
100
AcDbLine
 10
774.5471897209
 20
948.0772036318
 30
0.0
 11
774.0380170429
 21
946.0349696878
 31
0.0
  0
ARC
  5
96
330
1F
100
AcDbEntity
  8
0
  6
Continuous
 62
     7
370
    15
100
AcDbCircle
 10
602.6420348703
 20
976.2243430355
 30
0.0
 40
2.000000000000035
100
AcDbArc
 50
90.0
 51
178.0
  0
ARC
  5
97
330
1F
100
AcDbEntity
  8
0
  6
Continuous
 62
     7
370
    15
100
AcDbCircle
 10
287.6420348703
 20
976.2243430355
 30
0.0
 40
2.0
100
AcDbArc
 50
90.0
 51
178.0
  0
ARC
  5
98
330
1F
100
AcDbEntity
  8
0
  6
Continuous
 62
     7
370
    15
100
AcDbCircle
 10
687.6420348703
 20
976.2243430355
 30
0.0
 40
2.000000000000035
100
AcDbArc
 50
90.0
 51
178.0
  0
ARC
  5
99
330
1F
100
AcDbEntity
  8
0
  6
Continuous
 62
     7
370
    15
100
AcDbCircle
 10
777.6420348703
 20
976.2243430355
 30
0.0
 40
2.000000000000148
100
AcDbArc
 50
90.0
 51
178.0
  0
LINE
  5
9A
330
1F
100
AcDbEntity
  8
0
  6
Continuous
 62
     7
370
    15
100
AcDbLine
 10
782.0682528102
 20
978.2243388895
 30
0.0
 11
777.6420416915
 21
978.2243388895
 31
0.0
  0
ARC
  5
9B
330
1F
100
AcDbEntity
  8
0
  6
Continuous
 62
     7
370
    15
100
AcDbCircle
 10
376.8161971864
 20
976.2243430355
 30
0.0
 40
2.0
100
AcDbArc
 50
2.0
 51
90.0
  0
ARC
  5
9C
330
1F
100
AcDbEntity
  8
0
  6
Continuous
 62
     7
370
    15
100
AcDbCircle
 10
691.8161971864
 20
976.2243430355
 30
0.0
 40
2.0
100
AcDbArc
 50
2.0
 51
90.0
  0
LINE
  5
9D
330
1F
100
AcDbEntity
  8
0
  6
Continuous
 62
     7
370
    15
100
AcDbLine
 10
291.8161901319
 20
978.2243388895
 30
0.0
 11
287.6420321548
 21
978.2243388895
 31
0.0
  0
LINE
  5
9E
330
1F
100
AcDbEntity
  8
0
  6
Continuous
 62
     7
370
    15
100
AcDbLine
 10
201.8162014568
 20
978.2243388895
 30
0.0
 11
197.3899605357
 21
978.2243388895
 31
0.0
  0
LINE
  5
9F
330
1F
100
AcDbEntity
  8
0
  6
Continuous
 62
     7
370
    15
100
AcDbLine
 10
606.8162026489
 20
978.2243388895
 30
0.0
 11
602.6420297706
 21
978.2243388895
 31
0.0
  0
ARC
  5
A0
330
1F
100
AcDbEntity
  8
0
  6
Continuous
 62
     7
370
    15
100
AcDbCircle
 10
291.8161971864
 20
976.2243430355
 30
0.0
 40
2.0
100
AcDbArc
 50
2.0
 51
90.0
  0
ARC
  5
A1
330
1F
100
AcDbEntity
  8
0
  6
Continuous
 62
     7
370
    15
100
AcDbCircle
 10
197.3899660752
 20
976.2243430355
 30
0.0
 40
2.00000000000002
100
AcDbArc
 50
90.0
 51
175.0
  0
ARC
  5
A2
330
1F
100
AcDbEntity
  8
0
  6
Continuous
 62
     7
370
    15
100
AcDbCircle
 10
487.6420348703
 20
976.2243430355
 30
0.0
 40
2.000000000000035
100
AcDbArc
 50
90.0
 51
178.0
  0
LINE
  5
A3
330
1F
100
AcDbEntity
  8
0
  6
Continuous
 62
     7
370
    15
100
AcDbLine
 10
376.8161984765
 20
978.2243388895
 30
0.0
 11
372.6420330489
 21
978.2243388895
 31
0.0
  0
ARC
  5
A4
330
1F
100
AcDbEntity
  8
0
  6
Continuous
 62
     7
370
    15
100
AcDbCircle
 10
491.8161971864
 20
976.2243430355
 30
0.0
 40
2.000000000000035
100
AcDbArc
 50
2.0
 51
90.0
  0
ARC
  5
A5
330
1F
100
AcDbEntity
  8
0
  6
Continuous
 62
     7
370
    15
100
AcDbCircle
 10
782.0682659816
 20
976.2243430355
 30
0.0
 40
2.00000000000002
100
AcDbArc
 50
5.0
 51
90.0
  0
LINE
  5
A6
330
1F
100
AcDbEntity
  8
0
  6
Continuous
 62
     7
370
    15
100
AcDbLine
 10
491.8162005627
 20
978.2243388895
 30
0.0
 11
487.642035135
 21
978.2243388895
 31
0.0
  0
ARC
  5
A7
330
1F
100
AcDbEntity
  8
0
  6
Continuous
 62
     7
370
    15
100
AcDbCircle
 10
606.8161971864
 20
976.2243430355
 30
0.0
 40
2.000000000000035
100
AcDbArc
 50
2.0
 51
90.0
  0
ARC
  5
A8
330
1F
100
AcDbEntity
  8
0
  6
Continuous
 62
     7
370
    15
100
AcDbCircle
 10
372.6420348703
 20
976.2243430355
 30
0.0
 40
2.000000000000035
100
AcDbArc
 50
90.0
 51
178.0
  0
ARC
  5
A9
330
1F
100
AcDbEntity
  8
0
  6
Continuous
 62
     7
370
    15
100
AcDbCircle
 10
201.8161971864
 20
976.2243430355
 30
0.0
 40
2.000000000000006
100
AcDbArc
 50
2.0
 51
90.0
  0
LINE
  5
AA
330
1F
100
AcDbEntity
  8
0
  6
Continuous
 62
     7
370
    15
100
AcDbLine
 10
691.8162109935
 20
978.2243388895
 30
0.0
 11
687.6420381152
 21
978.2243388895
 31
0.0
  0
LINE
  5
AB
330
1F
100
AcDbEntity
  8
0
  6
Continuous
 62
     7
370
    15
100
AcDbLine
 10
361.7291154945
 20
741.3980755214
 30
0.0
 11
361.7291154945
 21
741.3558121029
 31
0.0
  0
LINE
  5
AC
330
1F
100
AcDbEntity
  8
0
  6
Continuous
 62
     7
370
    15
100
AcDbLine
 10
367.729116478
 20
741.3558121029
 30
0.0
 11
367.729116478
 21
741.3980755214
 31
0.0
  0
SPLINE
  5
AD
330
1F
100
AcDbEntity
  8
0
  6
Continuous
 62
     7
370
    15
100
AcDbSpline
210
0.0
220
0.0
230
1.0
 70
     8
 71
     3
 72
    16
 73
    12
 74
     0
 42
0.00000001
 43
0.00000001
 12
1.0
 22
0.0
 32
0.0
 13
1.0
 23
0.0
 33
0.0
 40
0.0
 40
0.0
 40
0.0
 40
0.0
 40
0.0759633922213702
 40
0.225947445493359
 40
0.2312142429558948
 40
0.2376379827959077
 40
0.3730638192273835
 40
0.5347884133833329
 40
0.721006277821665
 40
0.9273004219140241
 40
1.0
 40
1.0
 40
1.0
 40
1.0
 10
374.6988626801815
 20
824.1423982385571
 30
0.0
 10
374.6924655916795
 20
824.181105359766
 30
0.0
 10
374.6734379289678
 20
824.2962368053714
 30
0.0
 10
374.6541898738521
 20
824.3946560359176
 30
0.0
 10
374.6162426733016
 20
824.5323810243904
 30
0.0
 10
374.5746090250535
 20
824.6788042914552
 30
0.0
 10
374.4506829034432
 20
824.9933397651412
 30
0.0
 10
374.1206254856613
 20
825.4522526010131
 30
0.0
 10
373.6016250486846
 20
825.830205252693
 30
0.0
 10
373.0767529019132
 20
826.0342974348085
 30
0.0
 10
372.7545825523376
 20
826.0026149962342
 30
0.0
 10
372.6706321024742
 20
825.9943592552121
 30
0.0
  0
LINE
  5
AE
330
1F
100
AcDbEntity
  8
0
  6
Continuous
 62
     7
370
    15
100
AcDbLine
 10
374.7030089283
 20
824.1177368168
 30
0.0
 11
374.6988626802
 21
824.1423982386
 31
0.0
  0
LINE
  5
AF
330
1F
100
AcDbEntity
  8
0
  6
Continuous
 62
     7
370
    15
100
AcDbLine
 10
372.6718465471
 20
826.024012566
 30
0.0
 11
356.7863854253
 21
826.024012566
 31
0.0
  0
SPLINE
  5
B0
330
1F
100
AcDbEntity
  8
0
  6
Continuous
 62
     7
370
    15
100
AcDbSpline
210
0.0
220
0.0
230
1.0
 70
     8
 71
     3
 72
    18
 73
    14
 74
     0
 42
0.00000001
 43
0.00000001
 12
1.0
 22
0.0
 32
0.0
 13
1.0
 23
0.0
 33
0.0
 40
0.0
 40
0.0
 40
0.0
 40
0.0
 40
0.0656139215401843
 40
0.2662918562569783
 40
0.4265296721795891
 40
0.5621618824263486
 40
0.677847608733372
 40
0.7409117186226389
 40
0.7568014067363866
 40
0.7625285789672263
 40
0.766953072647803
 40
0.9247869127493153
 40
1.0
 40
1.0
 40
1.0
 40
1.0
 10
356.7879127943363
 20
825.9955364469464
 30
0.0
 10
356.7109261845986
 20
826.0037882756966
 30
0.0
 10
356.3984786622931
 20
826.0372780404266
 30
0.0
 10
355.9068461701962
 20
825.8505950626795
 30
0.0
 10
355.4236308262552
 20
825.5231674260738
 30
0.0
 10
355.1102819530564
 20
825.1510830235256
 30
0.0
 10
354.9397545086656
 20
824.8261820000994
 30
0.0
 10
354.8693635152587
 20
824.6269119806498
 30
0.0
 10
354.8441766440988
 20
824.5403409482965
 30
0.0
 10
354.837735866372
 20
824.5169654132118
 30
0.0
 10
354.8084134298043
 20
824.408549668753
 30
0.0
 10
354.7788263291939
 20
824.2709417766567
 30
0.0
 10
354.7616748868667
 20
824.1553091675657
 30
0.0
 10
354.7561394655552
 20
824.1179901365216
 30
0.0
  0
LINE
  5
B1
330
1F
100
AcDbEntity
  8
0
  6
Continuous
 62
     7
370
    15
100
AcDbLine
 10
354.7448220336
 20
823.9943701033
 30
0.0
 11
354.7417896473
 21
823.970036507
 31
0.0
  0
LINE
  5
B2
330
1F
100
AcDbEntity
  8
0
  6
Continuous
 62
     7
370
    15
100
AcDbLine
 10
374.7164460504
 20
823.970036507
 30
0.0
 11
374.7134322905
 21
823.9941763882
 31
0.0
  0
ARC
  5
B3
330
1F
100
AcDbEntity
  8
0
  6
Continuous
 62
     7
370
    15
100
AcDbCircle
 10
354.0943127681
 20
782.7608818497
 30
0.0
 40
1.000000000000016
100
AcDbArc
 50
164.165473762
 51
170.8313575782
  0
ARC
  5
B4
330
1F
100
AcDbEntity
  8
0
  6
Continuous
 62
     7
370
    15
100
AcDbCircle
 10
375.3639192889
 20
782.7608818497
 30
0.0
 40
0.9999999999999845
100
AcDbArc
 50
9.1686424218
 51
15.834526238
  0
LINE
  5
B5
330
1F
100
AcDbEntity
  8
0
  6
Continuous
 62
     7
370
    15
100
AcDbLine
 10
380.2081237221
 20
810.5460274223
 30
0.0
 11
379.377518096
 21
810.9970781211
 31
0.0
  0
LINE
  5
B6
330
1F
100
AcDbEntity
  8
0
  6
Continuous
 62
     7
370
    15
100
AcDbLine
 10
350.0807138765
 20
810.9970781211
 30
0.0
 11
348.0248006666
 21
809.8806309704
 31
0.0
  0
SPLINE
  5
B7
330
1F
100
AcDbEntity
  8
0
  6
Continuous
 62
     7
370
    15
100
AcDbSpline
210
0.0
220
0.0
230
1.0
 70
     8
 71
     3
 72
     9
 73
     5
 74
     0
 42
0.00000001
 43
0.00000001
 12
1.0
 22
0.0
 32
0.0
 13
1.0
 23
0.0
 33
0.0
 40
0.0
 40
0.0
 40
0.0
 40
0.0
 40
0.4108022579718235
 40
0.9999999999999999
 40
0.9999999999999999
 40
0.9999999999999999
 40
0.9999999999999999
 10
378.9740654313412
 20
769.6206438545163
 30
0.0
 10
378.9530141416785
 20
769.6491956349522
 30
0.0
 10
378.9017698039123
 20
769.718698126435
 30
0.0
 10
378.8861923620547
 20
769.830740064146
 30
0.0
 10
378.8770141684856
 20
769.8967549208577
 30
0.0
  0
SPLINE
  5
B8
330
1F
100
AcDbEntity
  8
0
  6
Continuous
 62
     7
370
    15
100
AcDbSpline
210
0.0
220
0.0
230
1.0
 70
     8
 71
     3
 72
     9
 73
     5
 74
     0
 42
0.00000001
 43
0.00000001
 12
1.0
 22
0.0
 32
0.0
 13
1.0
 23
0.0
 33
0.0
 40
0.0
 40
0.0
 40
0.0
 40
0.0
 40
0.3107864787752316
 40
1.0
 40
1.0
 40
1.0
 40
1.0
 10
350.5858483397808
 20
769.892627299207
 30
0.0
 10
350.5807133440269
 20
769.8594543695923
 30
0.0
 10
350.5641907598587
 20
769.7527157182022
 30
0.0
 10
350.5167840246398
 20
769.6810889825539
 30
0.0
 10
350.4841106617298
 20
769.6317228678639
 30
0.0
  0
LINE
  5
B9
330
1F
100
AcDbEntity
  8
0
  6
Continuous
 62
     7
370
    15
100
AcDbLine
 10
372.2002881253
 20
813.766689897
 30
0.0
 11
369.9105272674
 21
814.3304157261
 31
0.0
  0
LINE
  5
BA
330
1F
100
AcDbEntity
  8
0
  6
Continuous
 62
     7
370
    15
100
AcDbLine
 10
359.547704705
 20
814.3304157261
 30
0.0
 11
357.2579401219
 21
813.766689897
 31
0.0
  0
ARC
  5
BB
330
1F
100
AcDbEntity
  8
0
  6
Continuous
 62
     7
370
    15
100
AcDbCircle
 10
364.2291160285
 20
814.4752913464
 30
0.0
 40
1.0
100
AcDbArc
 50
180.0
 51
255.7347564573
  0
ARC
  5
BC
330
1F
100
AcDbEntity
  8
0
  6
Continuous
 62
     7
370
    15
100
AcDbCircle
 10
365.2291160285
 20
814.4752913464
 30
0.0
 40
1.0
100
AcDbArc
 50
284.2548345862
 51
0.0
  0
LINE
  5
BD
330
1F
100
AcDbEntity
  8
0
  6
Continuous
 62
     7
370
    15
100
AcDbLine
 10
380.7359973574
 20
810.270750821
 30
0.0
 11
380.2128958189
 21
810.5548116569
 31
0.0
  0
LINE
  5
BE
330
1F
100
AcDbEntity
  8
0
  6
Continuous
 62
     7
370
    15
100
AcDbLine
 10
179.2291107261
 20
11.4529448751
 30
0.0
 11
126.2291076267
 21
11.4529448751
 31
0.0
  0
LINE
  5
BF
330
1F
100
AcDbEntity
  8
0
  6
Continuous
 62
     7
370
    15
100
AcDbLine
 10
181.2291147792
 20
17.4529272322
 30
0.0
 11
124.2291035735
 21
17.4529272322
 31
0.0
  0
LINE
  5
C0
330
1F
100
AcDbEntity
  8
0
  6
Continuous
 62
     7
370
    15
100
AcDbLine
 10
855.2291097724
 20
17.4529272322
 30
0.0
 11
798.2291283691
 21
17.4529272322
 31
0.0
  0
LINE
  5
C1
330
1F
100
AcDbEntity
  8
0
  6
Continuous
 62
     7
370
    15
100
AcDbLine
 10
853.2291057193
 20
11.4529448751
 30
0.0
 11
800.2291026199
 21
11.4529448751
 31
0.0
  0
LINE
  5
C2
330
1F
100
AcDbEntity
  8
0
  6
Continuous
 62
     7
370
    15
100
AcDbLine
 10
117.7291276538
 20
179.452927709
 30
0.0
 11
187.7291205013
 21
179.452927709
 31
0.0
  0
LINE
  5
C3
330
1F
100
AcDbEntity
  8
0
  6
Continuous
 62
     7
370
    15
100
AcDbLine
 10
187.7291205013
 20
179.452927709
 30
0.0
 11
187.7291205013
 21
180.7529050116
 31
0.0
  0
LINE
  5
C4
330
1F
100
AcDbEntity
  8
0
  6
Continuous
 62
     7
370
    15
100
AcDbLine
 10
117.7291276538
 20
179.452927709
 30
0.0
 11
117.7291276538
 21
180.7529050116
 31
0.0
  0
LINE
  5
C5
330
1F
100
AcDbEntity
  8
0
  6
Continuous
 62
     7
370
    15
100
AcDbLine
 10
183.6887600505
 20
85.4529458288
 30
0.0
 11
121.7694583022
 21
85.4529458288
 31
0.0
  0
LINE
  5
C6
330
1F
100
AcDbEntity
  8
0
  6
Continuous
 62
     7
370
    15
100
AcDbLine
 10
861.7291154945
 20
179.452927709
 30
0.0
 11
861.7291154945
 21
180.7529050116
 31
0.0
  0
LINE
  5
C7
330
1F
100
AcDbEntity
  8
0
  6
Continuous
 62
     7
370
    15
100
AcDbLine
 10
791.729122647
 20
179.452927709
 30
0.0
 11
861.7291154945
 21
179.452927709
 31
0.0
  0
LINE
  5
C8
330
1F
100
AcDbEntity
  8
0
  6
Continuous
 62
     7
370
    15
100
AcDbLine
 10
791.729122647
 20
179.452927709
 30
0.0
 11
791.729122647
 21
180.7529050116
 31
0.0
  0
LINE
  5
C9
330
1F
100
AcDbEntity
  8
0
  6
Continuous
 62
     7
370
    15
100
AcDbLine
 10
857.6887550437
 20
85.4529458288
 30
0.0
 11
795.7694532955
 21
85.4529458288
 31
0.0
  0
CIRCLE
  5
CA
330
1F
100
AcDbEntity
  8
0
  6
Continuous
 62
     7
370
    15
100
AcDbCircle
 10
862.2291160284
 20
188.7529312625
 30
0.0
 40
2.949999999999989
  0
CIRCLE
  5
CB
330
1F
100
AcDbEntity
  8
0
  6
Continuous
 62
     7
370
    15
100
AcDbCircle
 10
862.2291160284
 20
188.7529312625
 30
0.0
 40
2.750000000000028
  0
CIRCLE
  5
CC
330
1F
100
AcDbEntity
  8
0
  6
Continuous
 62
     7
370
    15
100
AcDbCircle
 10
862.2291160284
 20
188.7529312625
 30
0.0
 40
2.099999999999966
  0
CIRCLE
  5
CD
330
1F
100
AcDbEntity
  8
0
  6
Continuous
 62
     7
370
    15
100
AcDbCircle
 10
117.2291160284
 20
188.7529312625
 30
0.0
 40
2.949999999999989
  0
CIRCLE
  5
CE
330
1F
100
AcDbEntity
  8
0
  6
Continuous
 62
     7
370
    15
100
AcDbCircle
 10
117.2291160284
 20
188.7529312625
 30
0.0
 40
2.750000000000028
  0
CIRCLE
  5
CF
330
1F
100
AcDbEntity
  8
0
  6
Continuous
 62
     7
370
    15
100
AcDbCircle
 10
117.2291160284
 20
188.7529312625
 30
0.0
 40
2.099999999999966
  0
LINE
  5
D0
330
1F
100
AcDbEntity
  8
0
  6
Continuous
 62
     7
370
    15
100
AcDbLine
 10
886.7219986999
 20
180.7599979643
 30
0.0
 11
886.7219986999
 21
180.7529050116
 31
0.0
  0
LINE
  5
D1
330
1F
100
AcDbEntity
  8
0
  6
Continuous
 62
     7
370
    15
100
AcDbLine
 10
106.0291233146
 20
180.7529050116
 30
0.0
 11
873.4291198337
 21
180.7529050116
 31
0.0
  0
LINE
  5
D2
330
1F
100
AcDbEntity
  8
0
  6
Continuous
 62
     7
370
    15
100
AcDbLine
 10
92.7362146461
 20
180.7529050116
 30
0.0
 11
92.7362146461
 21
180.7599979643
 31
0.0
  0
LINE
  5
D3
330
1F
100
AcDbEntity
  8
0
  6
Continuous
 62
     7
370
    15
100
AcDbLine
 10
121.8291225517
 20
210.752936006
 30
0.0
 11
857.6291205966
 21
210.752936006
 31
0.0
  0
LINE
  5
D4
330
1F
100
AcDbEntity
  8
0
  6
Continuous
 62
     7
370
    15
100
AcDbLine
 10
855.7291033351
 20
182.752938867
 30
0.0
 11
855.7291033351
 21
210.5529326204
 31
0.0
  0
LINE
  5
D5
330
1F
100
AcDbEntity
  8
0
  6
Continuous
 62
     7
370
    15
100
AcDbLine
 10
857.2291138255
 20
210.9529393915
 30
0.0
 11
857.6291205966
 21
210.9529393915
 31
0.0
  0
CIRCLE
  5
D6
330
1F
100
AcDbEntity
  8
0
  6
Continuous
 62
     7
370
    15
100
AcDbCircle
 10
862.2291160284
 20
188.7529312625
 30
0.0
 40
2.999999999999886
  0
LINE
  5
D7
330
1F
100
AcDbEntity
  8
0
  6
Continuous
 62
     7
370
    15
100
AcDbLine
 10
857.5610818946
 20
180.7599979643
 30
0.0
 11
886.9291248405
 21
180.7599979643
 31
0.0
  0
LINE
  5
D8
330
1F
100
AcDbEntity
  8
0
  6
Continuous
 62
     7
370
    15
100
AcDbLine
 10
857.2291138255
 20
660.7458609346
 30
0.0
 11
886.9291248405
 21
660.7458609346
 31
0.0
  0
ARC
  5
D9
330
1F
100
AcDbEntity
  8
0
  6
Continuous
 62
     7
370
    15
100
AcDbCircle
 10
857.7291160284
 20
182.7529312625
 30
0.0
 40
2.000000000000059
100
AcDbArc
 50
180.0
 51
265.180597798
  0
LINE
  5
DA
330
1F
100
AcDbEntity
  8
0
  6
Continuous
 62
     7
370
    15
100
AcDbLine
 10
857.6291205966
 20
210.5529326204
 30
0.0
 11
855.7291033351
 21
210.5529326204
 31
0.0
  0
LINE
  5
DB
330
1F
100
AcDbEntity
  8
0
  6
Continuous
 62
     7
370
    15
100
AcDbLine
 10
857.6291205966
 20
210.9529393915
 30
0.0
 11
857.6291205966
 21
210.5529326204
 31
0.0
  0
LINE
  5
DC
330
1F
100
AcDbEntity
  8
0
  6
Continuous
 62
     7
370
    15
100
AcDbLine
 10
854.9291195953
 20
210.9529393915
 30
0.0
 11
854.9291195953
 21
211.9529265169
 31
0.0
  0
LINE
  5
DD
330
1F
100
AcDbEntity
  8
0
  6
Continuous
 62
     7
370
    15
100
AcDbLine
 10
854.9291195953
 20
211.9529265169
 30
0.0
 11
854.9291195953
 21
660.7458609346
 31
0.0
  0
LINE
  5
DE
330
1F
100
AcDbEntity
  8
0
  6
Continuous
 62
     7
370
    15
100
AcDbLine
 10
854.9291195953
 20
660.7458609346
 30
0.0
 11
857.2291138255
 21
660.7458609346
 31
0.0
  0
LINE
  5
DF
330
1F
100
AcDbEntity
  8
0
  6
Continuous
 62
     7
370
    15
100
AcDbLine
 10
857.2291138255
 20
210.9529393915
 30
0.0
 11
854.9291195953
 21
210.9529393915
 31
0.0
  0
LINE
  5
E0
330
1F
100
AcDbEntity
  8
0
  6
Continuous
 62
     7
370
    15
100
AcDbLine
 10
889.2291190708
 20
659.2529322211
 30
0.0
 11
889.2291190708
 21
182.252915502
 31
0.0
  0
SPLINE
  5
E1
330
1F
100
AcDbEntity
  8
0
  6
Continuous
 62
     7
370
    15
100
AcDbSpline
210
0.0
220
0.0
230
1.0
 70
     8
 71
     3
 72
    12
 73
     8
 74
     0
 42
0.00000001
 43
0.00000001
 12
1.0
 22
0.0
 32
0.0
 13
1.0
 23
0.0
 33
0.0
 40
0.0
 40
0.0
 40
0.0
 40
0.0
 40
0.2096821002207794
 40
0.4420456582679788
 40
0.6744335738461175
 40
0.9068215196897134
 40
1.0
 40
1.0
 40
1.0
 40
1.0
 10
889.2291190707531
 20
182.2529155019696
 30
0.0
 10
889.2047750778722
 20
182.1486330038111
 30
0.0
 10
889.1534537855612
 20
181.9287876975317
 30
0.0
 10
888.7325269537176
 20
181.5928460863093
 30
0.0
 10
888.0807436927823
 20
181.245924831545
 30
0.0
 10
887.4313060544147
 20
180.9675513807414
 30
0.0
 10
887.0408694411504
 20
180.8061824351373
 30
0.0
 10
886.9291248404827
 20
180.7599979642804
 30
0.0
  0
SPLINE
  5
E2
330
1F
100
AcDbEntity
  8
0
  6
Continuous
 62
     7
370
    15
100
AcDbSpline
210
0.0
220
0.0
230
1.0
 70
     8
 71
     3
 72
    12
 73
     8
 74
     0
 42
0.00000001
 43
0.00000001
 12
1.0
 22
0.0
 32
0.0
 13
1.0
 23
0.0
 33
0.0
 40
0.0
 40
0.0
 40
0.0
 40
0.0
 40
0.2096841538024979
 40
0.442044256648838
 40
0.6744326775238668
 40
0.9068213122737251
 40
1.0
 40
1.0
 40
1.0
 40
1.0
 10
886.9291248404827
 20
660.7458609346326
 30
0.0
 10
887.1814569305518
 20
660.6415763254832
 30
0.0
 10
887.7134091508815
 20
660.4217294190988
 30
0.0
 10
888.43477073726
 20
660.0857519232317
 30
0.0
 10
888.9781355784658
 20
659.7388523461066
 30
0.0
 10
889.2067445636867
 20
659.4604729177884
 30
0.0
 10
889.2241403314787
 20
659.2991138426249
 30
0.0
 10
889.2291190707531
 20
659.2529322210725
 30
0.0
  0
LINE
  5
E3
330
1F
100
AcDbEntity
  8
0
  6
Continuous
 62
     7
370
    15
100
AcDbLine
 10
886.9291248405
 20
179.952951074
 30
0.0
 11
886.9291248405
 21
180.7529050116
 31
0.0
  0
SPLINE
  5
E4
330
1F
100
AcDbEntity
  8
0
  6
Continuous
 62
     7
370
    15
100
AcDbSpline
210
0.0
220
0.0
230
1.0
 70
     8
 71
     3
 72
    10
 73
     6
 74
     0
 42
0.00000001
 43
0.00000001
 12
1.0
 22
0.0
 32
0.0
 13
1.0
 23
0.0
 33
0.0
 40
0.0
 40
0.0
 40
0.0
 40
0.0
 40
0.4884305653899514
 40
0.9772670257142163
 40
1.0
 40
1.0
 40
1.0
 40
1.0
 10
886.9291248404827
 20
180.7529050115521
 30
0.0
 10
887.1246651286226
 20
180.7791596626756
 30
0.0
 10
887.515908202539
 20
180.8316907830284
 30
0.0
 10
887.9034664738678
 20
181.0469752918002
 30
0.0
 10
888.0146224952596
 20
181.2227649451111
 30
0.0
 10
888.0195620143261
 20
181.2305766347821
 30
0.0
  0
SPLINE
  5
E5
330
1F
100
AcDbEntity
  8
0
  6
Continuous
 62
     7
370
    15
100
AcDbSpline
210
0.0
220
0.0
230
1.0
 70
     8
 71
     3
 72
    12
 73
     8
 74
     0
 42
0.00000001
 43
0.00000001
 12
1.0
 22
0.0
 32
0.0
 13
1.0
 23
0.0
 33
0.0
 40
0.0
 40
0.0
 40
0.0
 40
0.0
 40
0.2096847639940068
 40
0.4420480480138156
 40
0.6744359781197838
 40
0.9068268761886191
 40
1.0
 40
1.0
 40
1.0
 40
1.0
 10
886.9291248404827
 20
179.9529510740216
 30
0.0
 10
887.1814577334027
 20
179.9772945828801
 30
0.0
 10
887.7134146607463
 20
180.028614480271
 30
0.0
 10
888.4347634173438
 20
180.4495432542274
 30
0.0
 10
888.9781399302947
 20
181.1013305809362
 30
0.0
 10
889.2067413662039
 20
181.7507608385044
 30
0.0
 10
889.2241398119078
 20
182.1411811619118
 30
0.0
 10
889.2291190707531
 20
182.2529155019696
 30
0.0
  0
SPLINE
  5
E6
330
1F
100
AcDbEntity
  8
0
  6
Continuous
 62
     7
370
    15
100
AcDbSpline
210
0.0
220
0.0
230
1.0
 70
     8
 71
     3
 72
    10
 73
     6
 74
     0
 42
0.00000001
 43
0.00000001
 12
1.0
 22
0.0
 32
0.0
 13
1.0
 23
0.0
 33
0.0
 40
0.0
 40
0.0
 40
0.0
 40
0.0
 40
0.0579743827036069
 40
0.5462139277035369
 40
1.0
 40
1.0
 40
1.0
 40
1.0
 10
888.0147042357769
 20
660.2699737254555
 30
0.0
 10
888.0017322176581
 20
660.289717707784
 30
0.0
 10
887.8795144960288
 20
660.4757384575223
 30
0.0
 10
887.4901491554469
 20
660.683441979585
 30
0.0
 10
887.1115169369585
 20
660.7303400980107
 30
0.0
 10
886.9291248404827
 20
660.752931535619
 30
0.0
  0
SPLINE
  5
E7
330
1F
100
AcDbEntity
  8
0
  6
Continuous
 62
     7
370
    15
100
AcDbSpline
210
0.0
220
0.0
230
1.0
 70
     8
 71
     3
 72
    10
 73
     6
 74
     0
 42
0.00000001
 43
0.00000001
 12
1.0
 22
0.0
 32
0.0
 13
1.0
 23
0.0
 33
0.0
 40
0.0
 40
0.0
 40
0.0
 40
0.0
 40
0.4615939580636275
 40
0.9731229922568094
 40
0.9999999999999999
 40
0.9999999999999999
 40
0.9999999999999999
 40
0.9999999999999999
 10
889.2291190707531
 20
659.2529322210725
 30
0.0
 10
889.2011005077771
 20
659.5011330669128
 30
0.0
 10
889.1420323432882
 20
660.0243850410028
 30
0.0
 10
888.900907758336
 20
660.5578996579779
 30
0.0
 10
888.6740221666909
 20
660.7436585293109
 30
0.0
 10
888.6626961314525
 20
660.752931535619
 30
0.0
  0
LINE
  5
E8
330
1F
100
AcDbEntity
  8
0
  6
Continuous
 62
     7
370
    15
100
AcDbLine
 10
875.2610983932
 20
180.7529050116
 30
0.0
 11
875.2610983932
 21
179.952951074
 31
0.0
  0
LINE
  5
E9
330
1F
100
AcDbEntity
  8
0
  6
Continuous
 62
     7
370
    15
100
AcDbLine
 10
875.2610983932
 20
179.952951074
 30
0.0
 11
886.9291248405
 21
179.952951074
 31
0.0
  0
LINE
  5
EA
330
1F
100
AcDbEntity
  8
0
  6
Continuous
 62
     7
370
    15
100
AcDbLine
 10
886.9291248405
 20
180.7529050116
 30
0.0
 11
875.2610983932
 21
180.7529050116
 31
0.0
  0
LINE
  5
EB
330
1F
100
AcDbEntity
  8
0
  6
Continuous
 62
     7
370
    15
100
AcDbLine
 10
873.4291198337
 20
179.952951074
 30
0.0
 11
873.4291198337
 21
180.7529050116
 31
0.0
  0
LINE
  5
EC
330
1F
100
AcDbEntity
  8
0
  6
Continuous
 62
     7
370
    15
100
AcDbLine
 10
873.4291198337
 20
179.952951074
 30
0.0
 11
875.2610983932
 21
179.952951074
 31
0.0
  0
LINE
  5
ED
330
1F
100
AcDbEntity
  8
0
  6
Continuous
 62
     7
370
    15
100
AcDbLine
 10
873.4291198337
 20
180.7529050116
 30
0.0
 11
875.2610983932
 21
180.7529050116
 31
0.0
  0
LINE
  5
EE
330
1F
100
AcDbEntity
  8
0
  6
Continuous
 62
     7
370
    15
100
AcDbLine
 10
889.2291190708
 20
659.2529322211
 30
0.0
 11
889.2291190708
 21
660.7529315356
 31
0.0
  0
LINE
  5
EF
330
1F
100
AcDbEntity
  8
0
  6
Continuous
 62
     7
370
    15
100
AcDbLine
 10
122.2291293228
 20
660.7458609346
 30
0.0
 11
124.529123553
 21
660.7458609346
 31
0.0
  0
LINE
  5
F0
330
1F
100
AcDbEntity
  8
0
  6
Continuous
 62
     7
370
    15
100
AcDbLine
 10
124.529123553
 20
211.9529265169
 30
0.0
 11
124.529123553
 21
660.7458609346
 31
0.0
  0
LINE
  5
F1
330
1F
100
AcDbEntity
  8
0
  6
Continuous
 62
     7
370
    15
100
AcDbLine
 10
124.529123553
 20
210.9529393915
 30
0.0
 11
124.529123553
 21
211.9529265169
 31
0.0
  0
LINE
  5
F2
330
1F
100
AcDbEntity
  8
0
  6
Continuous
 62
     7
370
    15
100
AcDbLine
 10
124.529123553
 20
210.9529393915
 30
0.0
 11
122.2291293228
 21
210.9529393915
 31
0.0
  0
LINE
  5
F3
330
1F
100
AcDbEntity
  8
0
  6
Continuous
 62
     7
370
    15
100
AcDbLine
 10
123.7291100108
 20
182.752938867
 30
0.0
 11
123.7291100108
 21
210.5529326204
 31
0.0
  0
ARC
  5
F4
330
1F
100
AcDbEntity
  8
0
  6
Continuous
 62
     7
370
    15
100
AcDbCircle
 10
121.7291160284
 20
182.7529312625
 30
0.0
 40
2.000000000000014
100
AcDbArc
 50
274.819402202
 51
0.0
  0
LINE
  5
F5
330
1F
100
AcDbEntity
  8
0
  6
Continuous
 62
     7
370
    15
100
AcDbLine
 10
92.5291183078
 20
180.7599979643
 30
0.0
 11
121.8971612537
 21
180.7599979643
 31
0.0
  0
LINE
  5
F6
330
1F
100
AcDbEntity
  8
0
  6
Continuous
 62
     7
370
    15
100
AcDbLine
 10
92.5291183078
 20
660.7458609346
 30
0.0
 11
122.2291293228
 21
660.7458609346
 31
0.0
  0
LINE
  5
F7
330
1F
100
AcDbEntity
  8
0
  6
Continuous
 62
     7
370
    15
100
AcDbLine
 10
121.8291225517
 20
210.9529393915
 30
0.0
 11
121.8291225517
 21
210.5529326204
 31
0.0
  0
LINE
  5
F8
330
1F
100
AcDbEntity
  8
0
  6
Continuous
 62
     7
370
    15
100
AcDbLine
 10
121.8291225517
 20
210.5529326204
 30
0.0
 11
123.7291100108
 21
210.5529326204
 31
0.0
  0
CIRCLE
  5
F9
330
1F
100
AcDbEntity
  8
0
  6
Continuous
 62
     7
370
    15
100
AcDbCircle
 10
117.2291160284
 20
188.7529312625
 30
0.0
 40
3.0
  0
LINE
  5
FA
330
1F
100
AcDbEntity
  8
0
  6
Continuous
 62
     7
370
    15
100
AcDbLine
 10
122.2291293228
 20
210.9529393915
 30
0.0
 11
121.8291225517
 21
210.9529393915
 31
0.0
  0
LINE
  5
FB
330
1F
100
AcDbEntity
  8
0
  6
Continuous
 62
     7
370
    15
100
AcDbLine
 10
90.2291240775
 20
182.252915502
 30
0.0
 11
90.2291240775
 21
659.2529322211
 31
0.0
  0
SPLINE
  5
FC
330
1F
100
AcDbEntity
  8
0
  6
Continuous
 62
     7
370
    15
100
AcDbSpline
210
0.0
220
0.0
230
1.0
 70
     8
 71
     3
 72
    12
 73
     8
 74
     0
 42
0.00000001
 43
0.00000001
 12
1.0
 22
0.0
 32
0.0
 13
1.0
 23
0.0
 33
0.0
 40
0.0
 40
0.0
 40
0.0
 40
0.0
 40
0.2096821001227949
 40
0.4420515336330371
 40
0.6744335739982544
 40
0.9068215197332556
 40
0.9999999999999999
 40
0.9999999999999999
 40
0.9999999999999999
 40
0.9999999999999999
 10
92.52911830781363
 20
180.7599979642804
 30
0.0
 10
92.27678566620823
 20
180.8642741798677
 30
0.0
 10
91.74481831590985
 20
181.0841091633726
 30
0.0
 10
91.02346052081111
 20
181.4201583791944
 30
0.0
 10
90.48007722041312
 20
181.7669673875826
 30
0.0
 10
90.25144736751167
 20
182.0453641637298
 30
0.0
 10
90.23409142210714
 20
182.2067314935553
 30
0.0
 10
90.22912407754325
 20
182.2529155019696
 30
0.0
  0
SPLINE
  5
FD
330
1F
100
AcDbEntity
  8
0
  6
Continuous
 62
     7
370
    15
100
AcDbSpline
210
0.0
220
0.0
230
1.0
 70
     8
 71
     3
 72
    12
 73
     8
 74
     0
 42
0.00000001
 43
0.00000001
 12
1.0
 22
0.0
 32
0.0
 13
1.0
 23
0.0
 33
0.0
 40
0.0
 40
0.0
 40
0.0
 40
0.0
 40
0.2096807305936576
 40
0.4420446909622696
 40
0.674436241220151
 40
0.9068225696280856
 40
1.0
 40
1.0
 40
1.0
 40
1.0
 10
90.22912407754325
 20
659.2529322210725
 30
0.0
 10
90.25345638917997
 20
659.3572169169206
 30
0.0
 10
90.30475327825226
 20
659.5770678112674
 30
0.0
 10
90.72568398169872
 20
659.9130384618423
 30
0.0
 10
91.37749948940433
 20
660.25993473412
 30
0.0
 10
92.02693506660314
 20
660.5383166593468
 30
0.0
 10
92.41737352319713
 20
660.6996786082684
 30
0.0
 10
92.52911830781363
 20
660.7458609346326
 30
0.0
  0
SPLINE
  5
FE
330
1F
100
AcDbEntity
  8
0
  6
Continuous
 62
     7
370
    15
100
AcDbSpline
210
0.0
220
0.0
230
1.0
 70
     8
 71
     3
 72
    10
 73
     6
 74
     0
 42
0.00000001
 43
0.00000001
 12
1.0
 22
0.0
 32
0.0
 13
1.0
 23
0.0
 33
0.0
 40
0.0
 40
0.0
 40
0.0
 40
0.0
 40
0.4884197109100248
 40
0.9772617678921215
 40
1.0
 40
1.0
 40
1.0
 40
1.0
 10
92.52911830781358
 20
660.752931535619
 30
0.0
 10
92.33357933717573
 20
660.7266967946961
 30
0.0
 10
91.94233230952963
 20
660.674204627157
 30
0.0
 10
91.55475214619929
 20
660.4589223395878
 30
0.0
 10
91.44362060268102
 20
660.283084689551
 30
0.0
 10
91.43868113397019
 20
660.2752692256148
 30
0.0
  0
SPLINE
  5
FF
330
1F
100
AcDbEntity
  8
0
  6
Continuous
 62
     7
370
    15
100
AcDbSpline
210
0.0
220
0.0
230
1.0
 70
     8
 71
     3
 72
    10
 73
     6
 74
     0
 42
0.00000001
 43
0.00000001
 12
1.0
 22
0.0
 32
0.0
 13
1.0
 23
0.0
 33
0.0
 40
0.0
 40
0.0
 40
0.0
 40
0.0
 40
0.2941461033367336
 40
0.7979808005019635
 40
1.0
 40
1.0
 40
1.0
 40
1.0
 10
90.83488608239554
 20
660.752931535619
 30
0.0
 10
90.72324745307692
 20
660.6333156237263
 30
0.0
 10
90.42038611383063
 20
660.3088129359732
 30
0.0
 10
90.25357140936575
 20
659.753335493769
 30
0.0
 10
90.23456407838198
 20
659.3642815594368
 30
0.0
 10
90.22912407754325
 20
659.2529322210725
 30
0.0
  0
SPLINE
  5
100
330
1F
100
AcDbEntity
  8
0
  6
Continuous
 62
     7
370
    15
100
AcDbSpline
210
0.0
220
0.0
230
1.0
 70
     8
 71
     3
 72
    12
 73
     8
 74
     0
 42
0.00000001
 43
0.00000001
 12
1.0
 22
0.0
 32
0.0
 13
1.0
 23
0.0
 33
0.0
 40
0.0
 40
0.0
 40
0.0
 40
0.0
 40
0.2096806221465328
 40
0.4420467640192467
 40
0.674435241238958
 40
0.9068221764368279
 40
1.0
 40
1.0
 40
1.0
 40
1.0
 10
90.22912407754325
 20
182.2529155019696
 30
0.0
 10
90.25345712363008
 20
182.0005849295467
 30
0.0
 10
90.30475582816116
 20
181.4686239316213
 30
0.0
 10
90.7256753309269
 20
180.7472234932638
 30
0.0
 10
91.3775073841565
 20
180.2039462982195
 30
0.0
 10
92.02693531589846
 20
179.9752175284893
 30
0.0
 10
92.41737347890849
 20
179.9579057642139
 30
0.0
 10
92.52911830781363
 20
179.9529510740216
 30
0.0
  0
SPLINE
  5
101
330
1F
100
AcDbEntity
  8
0
  6
Continuous
 62
     7
370
    15
100
AcDbSpline
210
0.0
220
0.0
230
1.0
 70
     8
 71
     3
 72
    10
 73
     6
 74
     0
 42
0.00000001
 43
0.00000001
 12
1.0
 22
0.0
 32
0.0
 13
1.0
 23
0.0
 33
0.0
 40
0.0
 40
0.0
 40
0.0
 40
0.0
 40
0.057973581895767
 40
0.5461911117958014
 40
1.0
 40
1.0
 40
1.0
 40
1.0
 10
91.44353891251944
 20
181.2358814481671
 30
0.0
 10
91.45651095982387
 20
181.2161380377698
 30
0.0
 10
91.57872553942632
 20
181.0301278772283
 30
0.0
 10
91.96807790260515
 20
180.8224515020082
 30
0.0
 10
92.34671489576746
 20
180.7755157130939
 30
0.0
 10
92.52911830781363
 20
180.7529050115521
 30
0.0
  0
LINE
  5
102
330
1F
100
AcDbEntity
  8
0
  6
Continuous
 62
     7
370
    15
100
AcDbLine
 10
92.5291183078
 20
179.952951074
 30
0.0
 11
92.5291183078
 21
180.7529050116
 31
0.0
  0
LINE
  5
103
330
1F
100
AcDbEntity
  8
0
  6
Continuous
 62
     7
370
    15
100
AcDbLine
 10
106.0291233146
 20
179.952951074
 30
0.0
 11
106.0291233146
 21
180.7529050116
 31
0.0
  0
LINE
  5
104
330
1F
100
AcDbEntity
  8
0
  6
Continuous
 62
     7
370
    15
100
AcDbLine
 10
104.1971447551
 20
179.952951074
 30
0.0
 11
104.1971447551
 21
180.7529050116
 31
0.0
  0
LINE
  5
105
330
1F
100
AcDbEntity
  8
0
  6
Continuous
 62
     7
370
    15
100
AcDbLine
 10
106.0291233146
 20
179.952951074
 30
0.0
 11
104.1971447551
 21
179.952951074
 31
0.0
  0
LINE
  5
106
330
1F
100
AcDbEntity
  8
0
  6
Continuous
 62
     7
370
    15
100
AcDbLine
 10
106.0291233146
 20
180.7529050116
 30
0.0
 11
104.1971447551
 21
180.7529050116
 31
0.0
  0
LINE
  5
107
330
1F
100
AcDbEntity
  8
0
  6
Continuous
 62
     7
370
    15
100
AcDbLine
 10
104.1971447551
 20
179.952951074
 30
0.0
 11
92.5291183078
 21
179.952951074
 31
0.0
  0
LINE
  5
108
330
1F
100
AcDbEntity
  8
0
  6
Continuous
 62
     7
370
    15
100
AcDbLine
 10
92.5291183078
 20
180.7529050116
 30
0.0
 11
104.1971447551
 21
180.7529050116
 31
0.0
  0
LINE
  5
109
330
1F
100
AcDbEntity
  8
0
  6
Continuous
 62
     7
370
    15
100
AcDbLine
 10
90.2291240775
 20
659.2529322211
 30
0.0
 11
90.2291240775
 21
660.7529315356
 31
0.0
  0
LINE
  5
10A
330
1F
100
AcDbEntity
  8
0
  6
Continuous
 62
     7
370
    15
100
AcDbLine
 10
124.529123553
 20
659.952931032
 30
0.0
 11
854.9291195953
 21
659.952931032
 31
0.0
  0
LINE
  5
10B
330
1F
100
AcDbEntity
  8
0
  6
Continuous
 62
     7
370
    15
100
AcDbLine
 10
886.9291248405
 20
660.7529315356
 30
0.0
 11
886.9291248405
 21
660.7458609346
 31
0.0
  0
LINE
  5
10C
330
1F
100
AcDbEntity
  8
0
  6
Continuous
 62
     7
370
    15
100
AcDbLine
 10
885.3291275585
 20
660.7458609346
 30
0.0
 11
885.3291275585
 21
660.7529315356
 31
0.0
  0
LINE
  5
10D
330
1F
100
AcDbEntity
  8
0
  6
Continuous
 62
     7
370
    15
100
AcDbLine
 10
886.1291112983
 20
660.7529315356
 30
0.0
 11
886.1291112983
 21
660.7458609346
 31
0.0
  0
LINE
  5
10E
330
1F
100
AcDbEntity
  8
0
  6
Continuous
 62
     7
370
    15
100
AcDbLine
 10
855.7291033351
 20
660.7458609346
 30
0.0
 11
855.7291033351
 21
660.7529315356
 31
0.0
  0
LINE
  5
10F
330
1F
100
AcDbEntity
  8
0
  6
Continuous
 62
     7
370
    15
100
AcDbLine
 10
856.5291168773
 20
660.7529315356
 30
0.0
 11
856.5291168773
 21
660.7458609346
 31
0.0
  0
LINE
  5
110
330
1F
100
AcDbEntity
  8
0
  6
Continuous
 62
     7
370
    15
100
AcDbLine
 10
122.929126271
 20
660.7458609346
 30
0.0
 11
122.929126271
 21
660.7529315356
 31
0.0
  0
LINE
  5
111
330
1F
100
AcDbEntity
  8
0
  6
Continuous
 62
     7
370
    15
100
AcDbLine
 10
123.7291100108
 20
660.7529315356
 30
0.0
 11
123.7291100108
 21
660.7458609346
 31
0.0
  0
LINE
  5
112
330
1F
100
AcDbEntity
  8
0
  6
Continuous
 62
     7
370
    15
100
AcDbLine
 10
93.3291020477
 20
660.7458609346
 30
0.0
 11
93.3291020477
 21
660.7529315356
 31
0.0
  0
LINE
  5
113
330
1F
100
AcDbEntity
  8
0
  6
Continuous
 62
     7
370
    15
100
AcDbLine
 10
94.1291155898
 20
660.7529315356
 30
0.0
 11
94.1291155898
 21
660.7458609346
 31
0.0
  0
SPLINE
  5
114
330
1F
100
AcDbEntity
  8
0
  6
Continuous
 62
     7
370
    15
100
AcDbSpline
210
0.0
220
0.0
230
1.0
 70
     8
 71
     3
 72
    13
 73
     9
 74
     0
 42
0.00000001
 43
0.00000001
 12
1.0
 22
0.0
 32
0.0
 13
1.0
 23
0.0
 33
0.0
 40
0.0
 40
0.0
 40
0.0
 40
0.0
 40
0.0075332491649392
 40
0.2722693803614748
 40
0.481538531676082
 40
0.6613500091486149
 40
0.8305497077714591
 40
1.0
 40
1.0
 40
1.0
 40
1.0
 10
236.8224414670315
 20
168.3529335264141
 30
0.0
 10
236.8223321805581
 20
168.3529318040634
 30
0.0
 10
236.8183823098279
 20
168.3528695542462
 30
0.0
 10
236.8114747842773
 20
168.3646968116617
 30
0.0
 10
236.8025807647604
 20
168.4073200843881
 30
0.0
 10
236.7962961034769
 20
168.4630281613939
 30
0.0
 10
236.792094435143
 20
168.5291579797853
 30
0.0
 10
236.7915239094343
 20
168.5783174720125
 30
0.0
 10
236.7912384354916
 20
168.6029154066021
 30
0.0
  0
LINE
  5
115
330
1F
100
AcDbEntity
  8
0
  6
Continuous
 62
     7
370
    15
100
AcDbLine
 10
236.822441467
 20
168.3529335264
 30
0.0
 11
229.3323727929
 21
168.3529335264
 31
0.0
  0
SPLINE
  5
116
330
1F
100
AcDbEntity
  8
0
  6
Continuous
 62
     7
370
    15
100
AcDbSpline
210
0.0
220
0.0
230
1.0
 70
     8
 71
     3
 72
    13
 73
     9
 74
     0
 42
0.00000001
 43
0.00000001
 12
1.0
 22
0.0
 32
0.0
 13
1.0
 23
0.0
 33
0.0
 40
0.0
 40
0.0
 40
0.0
 40
0.0
 40
0.1695828495553961
 40
0.3386597927543045
 40
0.5184682639590557
 40
0.7277339165030828
 40
0.9924656215766975
 40
1.0
 40
1.0
 40
1.0
 40
1.0
 10
236.7912384354916
 20
169.3029123548444
 30
0.0
 10
236.7915232244827
 20
169.327531791313
 30
0.0
 10
236.7920919528711
 20
169.3766972185606
 30
0.0
 10
236.7962983403787
 20
169.4428188950652
 30
0.0
 10
236.8025805197592
 20
169.4984587963465
 30
0.0
 10
236.8114746711223
 20
169.5413774777185
 30
0.0
 10
236.818382959847
 20
169.5522680500556
 30
0.0
 10
236.8223321808325
 20
169.5529353729509
 30
0.0
 10
236.8224414670315
 20
169.5529538396771
 30
0.0
  0
LINE
  5
117
330
1F
100
AcDbEntity
  8
0
  6
Continuous
 62
     7
370
    15
100
AcDbLine
 10
229.0547045553
 20
169.5529538397
 30
0.0
 11
236.822441467
 21
169.5529538397
 31
0.0
  0
LINE
  5
118
330
1F
100
AcDbEntity
  8
0
  6
Continuous
 62
     7
370
    15
100
AcDbLine
 10
236.7912384355
 20
168.6029154066
 30
0.0
 11
236.7912384355
 21
169.3029123548
 31
0.0
  0
SPLINE
  5
119
330
1F
100
AcDbEntity
  8
0
  6
Continuous
 62
     7
370
    15
100
AcDbSpline
210
0.0
220
0.0
230
1.0
 70
     8
 71
     3
 72
    12
 73
     8
 74
     0
 42
0.00000001
 43
0.00000001
 12
1.0
 22
0.0
 32
0.0
 13
1.0
 23
0.0
 33
0.0
 40
0.0
 40
0.0
 40
0.0
 40
0.0
 40
0.2289501263141381
 40
0.459419200735378
 40
0.6825481016401844
 40
0.8947197650661921
 40
1.0
 40
1.0
 40
1.0
 40
1.0
 10
237.0668354117718
 20
169.5529538396771
 30
0.0
 10
237.1957122509394
 20
169.5356071317229
 30
0.0
 10
237.4543209505582
 20
169.5007986307098
 30
0.0
 10
237.79695983871
 20
169.2269749648027
 30
0.0
 10
238.0439896979381
 20
168.82989443428
 30
0.0
 10
238.1550838028551
 20
168.4290387606449
 30
0.0
 10
238.1645381439373
 20
168.1841627142075
 30
0.0
 10
238.1676735961285
 20
168.1029516462261
 30
0.0
  0
SPLINE
  5
11A
330
1F
100
AcDbEntity
  8
0
  6
Continuous
 62
     7
370
    15
100
AcDbSpline
210
0.0
220
0.0
230
1.0
 70
     8
 71
     3
 72
    12
 73
     8
 74
     0
 42
0.00000001
 43
0.00000001
 12
1.0
 22
0.0
 32
0.0
 13
1.0
 23
0.0
 33
0.0
 40
0.0
 40
0.0
 40
0.0
 40
0.0
 40
0.2028073638168464
 40
0.4049497812379687
 40
0.6098318648238281
 40
0.8226878559037655
 40
1.0
 40
1.0
 40
1.0
 40
1.0
 10
242.1402188622799
 20
168.1029516462261
 30
0.0
 10
242.1279935177887
 20
168.2600797575912
 30
0.0
 10
242.1035829121573
 20
168.5738208029168
 30
0.0
 10
241.9139480854454
 20
168.9942214476561
 30
0.0
 10
241.6318104984396
 20
169.3213177174138
 30
0.0
 10
241.2921596149837
 20
169.5194696412538
 30
0.0
 10
241.0514205182376
 20
169.5424915289457
 30
0.0
 10
240.9420164906826
 20
169.5529538396771
 30
0.0
  0
LINE
  5
11B
330
1F
100
AcDbEntity
  8
0
  6
Continuous
 62
     7
370
    15
100
AcDbLine
 10
237.0668354118
 20
169.5529538397
 30
0.0
 11
240.9420164907
 21
169.5529538397
 31
0.0
  0
LINE
  5
11C
330
1F
100
AcDbEntity
  8
0
  6
Continuous
 62
     7
370
    15
100
AcDbLine
 10
241.909548887
 20
162.7529579405
 30
0.0
 11
238.0343678081
 21
162.7529579405
 31
0.0
  0
LINE
  5
11D
330
1F
100
AcDbEntity
  8
0
  6
Continuous
 62
     7
370
    15
100
AcDbLine
 10
238.0343678081
 20
162.7529579405
 30
0.0
 11
237.4717297637
 21
162.7529579405
 31
0.0
  0
LINE
  5
11E
330
1F
100
AcDbEntity
  8
0
  6
Continuous
 62
     7
370
    15
100
AcDbLine
 10
237.0668354118
 20
168.3529335264
 30
0.0
 11
236.822441467
 21
168.3529335264
 31
0.0
  0
LINE
  5
11F
330
1F
100
AcDbEntity
  8
0
  6
Continuous
 62
     7
370
    15
100
AcDbLine
 10
236.822441467
 20
169.5529538397
 30
0.0
 11
237.0668354118
 21
169.5529538397
 31
0.0
  0
LINE
  5
120
330
1F
100
AcDbEntity
  8
0
  6
Continuous
 62
     7
370
    15
100
AcDbLine
 10
242.1595605695
 20
168.1029516462
 30
0.0
 11
242.1402188623
 21
168.1029516462
 31
0.0
  0
LINE
  5
121
330
1F
100
AcDbEntity
  8
0
  6
Continuous
 62
     7
370
    15
100
AcDbLine
 10
240.9420164907
 20
169.5529538397
 30
0.0
 11
241.1791088664
 21
169.5529538397
 31
0.0
  0
SPLINE
  5
122
330
1F
100
AcDbEntity
  8
0
  6
Continuous
 62
     7
370
    15
100
AcDbSpline
210
0.0
220
0.0
230
1.0
 70
     8
 71
     3
 72
    10
 73
     6
 74
     0
 42
0.00000001
 43
0.00000001
 12
1.0
 22
0.0
 32
0.0
 13
1.0
 23
0.0
 33
0.0
 40
0.0
 40
0.0
 40
0.0
 40
0.0
 40
0.3816604002691818
 40
0.7620694470235139
 40
1.0
 40
1.0
 40
1.0
 40
1.0
 10
223.3180108153667
 20
168.1029516462262
 30
0.0
 10
223.3308696719926
 20
168.2591896625864
 30
0.0
 10
223.3565452247911
 20
168.5711534362651
 30
0.0
 10
223.5135019083293
 20
168.9491106872675
 30
0.0
 10
223.668786091285
 20
169.1118456492395
 30
0.0
 10
223.7285378062572
 20
169.1744643453534
 30
0.0
  0
LINE
  5
123
330
1F
100
AcDbEntity
  8
0
  6
Continuous
 62
     7
370
    15
100
AcDbLine
 10
224.111318835
 20
162.7529579405
 30
0.0
 11
223.5486807906
 21
162.7529579405
 31
0.0
  0
LINE
  5
124
330
1F
100
AcDbEntity
  8
0
  6
Continuous
 62
     7
370
    15
100
AcDbLine
 10
227.4124028766
 20
162.7529579405
 30
0.0
 11
224.111318835
 21
162.7529579405
 31
0.0
  0
SPLINE
  5
125
330
1F
100
AcDbEntity
  8
0
  6
Continuous
 62
     7
370
    15
100
AcDbSpline
210
0.0
220
0.0
230
1.0
 70
     8
 71
     3
 72
    13
 73
     9
 74
     0
 42
0.00000001
 43
0.00000001
 12
1.0
 22
0.0
 32
0.0
 13
1.0
 23
0.0
 33
0.0
 40
0.0
 40
0.0
 40
0.0
 40
0.0
 40
0.0075720764019022
 40
0.2722974231445331
 40
0.4815427050136977
 40
0.6613782885515138
 40
0.8305417387543905
 40
1.0
 40
1.0
 40
1.0
 40
1.0
 10
229.3958070361462
 20
168.3529335264142
 30
0.0
 10
229.3960205530572
 20
168.3529352658061
 30
0.0
 10
229.4036987778404
 20
168.3529978156168
 30
0.0
 10
229.417732834551
 20
168.3411749523184
 30
0.0
 10
229.4350791388283
 20
168.2985365482722
 30
0.0
 10
229.4472385127879
 20
168.2428538470407
 30
0.0
 10
229.4553542528967
 20
168.1766968413841
 30
0.0
 10
229.4564253745758
 20
168.1275476413811
 30
0.0
 10
229.4569614016857
 20
168.1029516462262
 30
0.0
  0
LINE
  5
126
330
1F
100
AcDbEntity
  8
0
  6
Continuous
 62
     7
370
    15
100
AcDbLine
 10
229.3958070361
 20
168.3529335264
 30
0.0
 11
236.822441467
 21
168.3529335264
 31
0.0
  0
SPLINE
  5
127
330
1F
100
AcDbEntity
  8
0
  6
Continuous
 62
     7
370
    15
100
AcDbSpline
210
0.0
220
0.0
230
1.0
 70
     8
 71
     3
 72
    13
 73
     9
 74
     0
 42
0.00000001
 43
0.00000001
 12
1.0
 22
0.0
 32
0.0
 13
1.0
 23
0.0
 33
0.0
 40
0.0
 40
0.0
 40
0.0
 40
0.0
 40
0.16958413243222
 40
0.3386181485754902
 40
0.5184436449127232
 40
0.7277394992764905
 40
0.9924270996247142
 40
0.9999999999999999
 40
0.9999999999999999
 40
0.9999999999999999
 40
0.9999999999999999
 10
229.4569614016857
 20
167.402954697984
 30
0.0
 10
229.456426666245
 20
167.3783375692425
 30
0.0
 10
229.4553589299992
 20
167.3291831676004
 30
0.0
 10
229.4472345923776
 20
167.2630287303563
 30
0.0
 10
229.4350765347487
 20
167.2074316879457
 30
0.0
 10
229.4177385932096
 20
167.1643852961893
 30
0.0
 10
229.4036968528528
 20
167.1535955764762
 30
0.0
 10
229.3960205517439
 20
167.1529316793867
 30
0.0
 10
229.3958070361462
 20
167.1529132131512
 30
0.0
  0
LINE
  5
128
330
1F
100
AcDbEntity
  8
0
  6
Continuous
 62
     7
370
    15
100
AcDbLine
 10
237.2217329824
 20
167.1529132132
 30
0.0
 11
229.3958070361
 21
167.1529132132
 31
0.0
  0
LINE
  5
129
330
1F
100
AcDbEntity
  8
0
  6
Continuous
 62
     7
370
    15
100
AcDbLine
 10
229.4569614017
 20
168.1029516462
 30
0.0
 11
229.4569614017
 21
167.402954698
 31
0.0
  0
SPLINE
  5
12A
330
1F
100
AcDbEntity
  8
0
  6
Continuous
 62
     7
370
    15
100
AcDbSpline
210
0.0
220
0.0
230
1.0
 70
     8
 71
     3
 72
    12
 73
     8
 74
     0
 42
0.00000001
 43
0.00000001
 12
1.0
 22
0.0
 32
0.0
 13
1.0
 23
0.0
 33
0.0
 40
0.0
 40
0.0
 40
0.0
 40
0.0
 40
0.2289516426087752
 40
0.4594235956605615
 40
0.6825496068813194
 40
0.8947195548431003
 40
1.0
 40
1.0
 40
1.0
 40
1.0
 10
229.1733177983608
 20
167.1529132131512
 30
0.0
 10
229.0572697266906
 20
167.1702603384357
 30
0.0
 10
228.8244029878951
 20
167.2050697793368
 30
0.0
 10
228.5154849021352
 20
167.4788866438992
 30
0.0
 10
228.2926569055871
 20
167.8759739195603
 30
0.0
 10
228.1923892460445
 20
168.2768304051511
 30
0.0
 10
228.1838624365485
 20
168.5217044539027
 30
0.0
 10
228.1810345733013
 20
168.6029154066021
 30
0.0
  0
SPLINE
  5
12B
330
1F
100
AcDbEntity
  8
0
  6
Continuous
 62
     7
370
    15
100
AcDbSpline
210
0.0
220
0.0
230
1.0
 70
     8
 71
     3
 72
    12
 73
     8
 74
     0
 42
0.00000001
 43
0.00000001
 12
1.0
 22
0.0
 32
0.0
 13
1.0
 23
0.0
 33
0.0
 40
0.0
 40
0.0
 40
0.0
 40
0.0
 40
0.2028058068396468
 40
0.4049467094875955
 40
0.6098302083897847
 40
0.8226928418095665
 40
1.0
 40
1.0
 40
1.0
 40
1.0
 10
223.7586828553524
 20
168.6029154066022
 30
0.0
 10
223.769894519841
 20
168.4457873651513
 30
0.0
 10
223.7922810910802
 20
168.1320464306815
 30
0.0
 10
223.9663505202636
 20
167.7116426560473
 30
0.0
 10
224.2253832273609
 20
167.3845456883054
 30
0.0
 10
224.5373985364895
 20
167.1864014937892
 30
0.0
 10
224.7587617410843
 20
167.163376566552
 30
0.0
 10
224.8593571269359
 20
167.1529132131511
 30
0.0
  0
LINE
  5
12C
330
1F
100
AcDbEntity
  8
0
  6
Continuous
 62
     7
370
    15
100
AcDbLine
 10
229.1733177984
 20
167.1529132132
 30
0.0
 11
224.8593571269
 21
167.1529132132
 31
0.0
  0
LINE
  5
12D
330
1F
100
AcDbEntity
  8
0
  6
Continuous
 62
     7
370
    15
100
AcDbLine
 10
223.9785345876
 20
173.9529091124
 30
0.0
 11
228.2925101602
 21
173.9529091124
 31
0.0
  0
LINE
  5
12E
330
1F
100
AcDbEntity
  8
0
  6
Continuous
 62
     7
370
    15
100
AcDbLine
 10
228.2925101602
 20
173.9529091124
 30
0.0
 11
228.8047077739
 21
173.9529091124
 31
0.0
  0
LINE
  5
12F
330
1F
100
AcDbEntity
  8
0
  6
Continuous
 62
     7
370
    15
100
AcDbLine
 10
229.1733177984
 20
168.3529335264
 30
0.0
 11
229.3958070361
 21
168.3529335264
 31
0.0
  0
LINE
  5
130
330
1F
100
AcDbEntity
  8
0
  6
Continuous
 62
     7
370
    15
100
AcDbLine
 10
229.3958070361
 20
167.1529132132
 30
0.0
 11
229.1733177984
 21
167.1529132132
 31
0.0
  0
LINE
  5
131
330
1F
100
AcDbEntity
  8
0
  6
Continuous
 62
     7
370
    15
100
AcDbLine
 10
223.7285378063
 20
168.6029154066
 30
0.0
 11
223.7586828554
 21
168.6029154066
 31
0.0
  0
LINE
  5
132
330
1F
100
AcDbEntity
  8
0
  6
Continuous
 62
     7
370
    15
100
AcDbLine
 10
224.8593571269
 20
167.1529132132
 30
0.0
 11
224.2791208112
 21
167.1529132132
 31
0.0
  0
LINE
  5
133
330
1F
100
AcDbEntity
  8
0
  6
Continuous
 62
     7
370
    15
100
AcDbLine
 10
240.9674825752
 20
173.9529091124
 30
0.0
 11
241.47969509
 21
173.9529091124
 31
0.0
  0
LINE
  5
134
330
1F
100
AcDbEntity
  8
0
  6
Continuous
 62
     7
370
    15
100
AcDbLine
 10
238.2304372871
 20
173.9529091124
 30
0.0
 11
240.9674825752
 21
173.9529091124
 31
0.0
  0
LINE
  5
135
330
1F
100
AcDbEntity
  8
0
  6
Continuous
 62
     7
370
    15
100
AcDbLine
 10
228.1215342367
 20
166.7063552145
 30
0.0
 11
230.7798864925
 21
167.1529132132
 31
0.0
  0
SPLINE
  5
136
330
1F
100
AcDbEntity
  8
0
  6
Continuous
 62
     7
370
    15
100
AcDbSpline
210
0.0
220
0.0
230
1.0
 70
     8
 71
     3
 72
     9
 73
     5
 74
     0
 42
0.00000001
 43
0.00000001
 12
1.0
 22
0.0
 32
0.0
 13
1.0
 23
0.0
 33
0.0
 40
0.0
 40
0.0
 40
0.0
 40
0.0
 40
0.0702020664681607
 40
1.0
 40
1.0
 40
1.0
 40
1.0
 10
230.7798864924755
 20
167.1529132131512
 30
0.0
 10
230.8429082989075
 20
167.152482974228
 30
0.0
 10
231.74062840321
 20
167.1463543950448
 30
0.0
 10
232.6203113563261
 20
166.9183516736689
 30
0.0
 10
233.4382387482967
 20
166.706355214494
 30
0.0
  0
LINE
  5
137
330
1F
100
AcDbEntity
  8
0
  6
Continuous
 62
     7
370
    15
100
AcDbLine
 10
233.4382387483
 20
166.7063552145
 30
0.0
 11
233.4382387483
 21
162.399502397
 31
0.0
  0
SPLINE
  5
138
330
1F
100
AcDbEntity
  8
0
  6
Continuous
 62
     7
370
    15
100
AcDbSpline
210
0.0
220
0.0
230
1.0
 70
     8
 71
     3
 72
     9
 73
     5
 74
     0
 42
0.00000001
 43
0.00000001
 12
1.0
 22
0.0
 32
0.0
 13
1.0
 23
0.0
 33
0.0
 40
0.0
 40
0.0
 40
0.0
 40
0.0
 40
0.07020252336255
 40
1.0
 40
1.0
 40
1.0
 40
1.0
 10
230.7798864924755
 20
161.9529443983014
 30
0.0
 10
230.8429082838308
 20
161.9533952503758
 30
0.0
 10
231.7406223308007
 20
161.9598174137525
 30
0.0
 10
232.6203086388448
 20
162.1876573754734
 30
0.0
 10
233.4382387482967
 20
162.3995023969586
 30
0.0
  0
LINE
  5
139
330
1F
100
AcDbEntity
  8
0
  6
Continuous
 62
     7
370
    15
100
AcDbLine
 10
228.1215342367
 20
162.399502397
 30
0.0
 11
230.7798864925
 21
161.9529443983
 31
0.0
  0
LINE
  5
13A
330
1F
100
AcDbEntity
  8
0
  6
Continuous
 62
     7
370
    15
100
AcDbLine
 10
228.1215342367
 20
166.7063552145
 30
0.0
 11
228.1215342367
 21
162.399502397
 31
0.0
  0
SPLINE
  5
13B
330
1F
100
AcDbEntity
  8
0
  6
Continuous
 62
     7
370
    15
100
AcDbSpline
210
0.0
220
0.0
230
1.0
 70
     8
 71
     3
 72
     9
 73
     5
 74
     0
 42
0.00000001
 43
0.00000001
 12
1.0
 22
0.0
 32
0.0
 13
1.0
 23
0.0
 33
0.0
 40
0.0
 40
0.0
 40
0.0
 40
0.0
 40
0.2575588588741259
 40
1.0
 40
1.0
 40
1.0
 40
1.0
 10
233.4382387482967
 20
166.706355214494
 30
0.0
 10
233.6316496392773
 20
166.7737752445535
 30
0.0
 10
234.3825882473533
 20
167.0355407701279
 30
0.0
 10
235.162783626831
 20
167.1029016928318
 30
0.0
 10
235.7420327746715
 20
167.1529132131512
 30
0.0
  0
SPLINE
  5
13C
330
1F
100
AcDbEntity
  8
0
  6
Continuous
 62
     7
370
    15
100
AcDbSpline
210
0.0
220
0.0
230
1.0
 70
     8
 71
     3
 72
     9
 73
     5
 74
     0
 42
0.00000001
 43
0.00000001
 12
1.0
 22
0.0
 32
0.0
 13
1.0
 23
0.0
 33
0.0
 40
0.0
 40
0.0
 40
0.0
 40
0.0
 40
0.2575588588741259
 40
1.0
 40
1.0
 40
1.0
 40
1.0
 10
233.4382387482967
 20
162.3995023969586
 30
0.0
 10
233.6316496392773
 20
162.332082366899
 30
0.0
 10
234.3825882473533
 20
162.0703168413247
 30
0.0
 10
235.162783626831
 20
162.002955918621
 30
0.0
 10
235.7420327746715
 20
161.9529443983014
 30
0.0
  0
LINE
  5
13D
330
1F
100
AcDbEntity
  8
0
  6
Continuous
 62
     7
370
    15
100
AcDbLine
 10
235.7420327747
 20
161.9529443983
 30
0.0
 11
230.7798864925
 21
161.9529443983
 31
0.0
  0
SPLINE
  5
13E
330
1F
100
AcDbEntity
  8
0
  6
Continuous
 62
     7
370
    15
100
AcDbSpline
210
0.0
220
0.0
230
1.0
 70
     8
 71
     3
 72
     9
 73
     5
 74
     0
 42
0.00000001
 43
0.00000001
 12
1.0
 22
0.0
 32
0.0
 13
1.0
 23
0.0
 33
0.0
 40
0.0
 40
0.0
 40
0.0
 40
0.0
 40
0.4193717636570667
 40
0.9999999999999999
 40
0.9999999999999999
 40
0.9999999999999999
 40
0.9999999999999999
 10
235.7420327746715
 20
167.1529132131512
 30
0.0
 10
235.9517878563537
 20
167.1491925788555
 30
0.0
 10
236.4519528647297
 20
167.1403206551396
 30
0.0
 10
236.9389618273389
 20
166.9936032363786
 30
0.0
 10
237.2217329823818
 20
166.9084149602826
 30
0.0
  0
LINE
  5
13F
330
1F
100
AcDbEntity
  8
0
  6
Continuous
 62
     7
370
    15
100
AcDbLine
 10
238.045826801
 20
162.7529579405
 30
0.0
 11
238.045826801
 21
162.399502397
 31
0.0
  0
SPLINE
  5
140
330
1F
100
AcDbEntity
  8
0
  6
Continuous
 62
     7
370
    15
100
AcDbSpline
210
0.0
220
0.0
230
1.0
 70
     8
 71
     3
 72
     9
 73
     5
 74
     0
 42
0.00000001
 43
0.00000001
 12
1.0
 22
0.0
 32
0.0
 13
1.0
 23
0.0
 33
0.0
 40
0.0
 40
0.0
 40
0.0
 40
0.0
 40
0.2686357767753445
 40
1.0
 40
1.0
 40
1.0
 40
1.0
 10
235.7420327746715
 20
161.9529443983014
 30
0.0
 10
235.9515106197846
 20
161.9595697536022
 30
0.0
 10
236.731294487844
 20
161.9842327206141
 30
0.0
 10
237.4905410378011
 20
162.2240838569457
 30
0.0
 10
238.0458268010464
 20
162.3995023969585
 30
0.0
  0
SPLINE
  5
141
330
1F
100
AcDbEntity
  8
0
  6
Continuous
 62
     7
370
    15
100
AcDbSpline
210
0.0
220
0.0
230
1.0
 70
     8
 71
     3
 72
     9
 73
     5
 74
     0
 42
0.00000001
 43
0.00000001
 12
1.0
 22
0.0
 32
0.0
 13
1.0
 23
0.0
 33
0.0
 40
0.0
 40
0.0
 40
0.0
 40
0.0
 40
0.0701973251140971
 40
1.0
 40
1.0
 40
1.0
 40
1.0
 10
227.7669760072079
 20
167.1529132131512
 30
0.0
 10
227.7753791809525
 20
167.1524829211109
 30
0.0
 10
227.8950870719728
 20
167.1463531712995
 30
0.0
 10
228.0124292062896
 20
166.9183516442358
 30
0.0
 10
228.1215342366543
 20
166.706355214494
 30
0.0
  0
SPLINE
  5
142
330
1F
100
AcDbEntity
  8
0
  6
Continuous
 62
     7
370
    15
100
AcDbSpline
210
0.0
220
0.0
230
1.0
 70
     8
 71
     3
 72
     9
 73
     5
 74
     0
 42
0.00000001
 43
0.00000001
 12
1.0
 22
0.0
 32
0.0
 13
1.0
 23
0.0
 33
0.0
 40
0.0
 40
0.0
 40
0.0
 40
0.0
 40
0.070197782017071
 40
1.0
 40
1.0
 40
1.0
 40
1.0
 10
227.7669760072079
 20
161.9529443983014
 30
0.0
 10
227.7753791789413
 20
161.953395303439
 30
0.0
 10
227.8950862621569
 20
161.9598186564933
 30
0.0
 10
228.0124288438926
 20
162.1876574144594
 30
0.0
 10
228.1215342366543
 20
162.3995023969586
 30
0.0
  0
LINE
  5
143
330
1F
100
AcDbEntity
  8
0
  6
Continuous
 62
     7
370
    15
100
AcDbLine
 10
230.7798864925
 20
161.9529443983
 30
0.0
 11
227.7669760072
 21
161.9529443983
 31
0.0
  0
LINE
  5
144
330
1F
100
AcDbEntity
  8
0
  6
Continuous
 62
     7
370
    15
100
AcDbLine
 10
238.045826801
 20
162.399502397
 30
0.0
 11
237.6912536704
 21
161.9529443983
 31
0.0
  0
LINE
  5
145
330
1F
100
AcDbEntity
  8
0
  6
Continuous
 62
     7
370
    15
100
AcDbLine
 10
235.7420327747
 20
161.9529443983
 30
0.0
 11
237.7289685094
 21
161.9529443983
 31
0.0
  0
LINE
  5
146
330
1F
100
AcDbEntity
  8
0
  6
Continuous
 62
     7
370
    15
100
AcDbLine
 10
227.4124028766
 20
166.7063552145
 30
0.0
 11
227.7669760072
 21
167.1529132132
 31
0.0
  0
LINE
  5
147
330
1F
100
AcDbEntity
  8
0
  6
Continuous
 62
     7
370
    15
100
AcDbLine
 10
227.4124028766
 20
162.399502397
 30
0.0
 11
227.7669760072
 21
161.9529443983
 31
0.0
  0
LINE
  5
148
330
1F
100
AcDbEntity
  8
0
  6
Continuous
 62
     7
370
    15
100
AcDbLine
 10
227.4124028766
 20
166.7063552145
 30
0.0
 11
227.4124028766
 21
162.399502397
 31
0.0
  0
LINE
  5
149
330
1F
100
AcDbEntity
  8
0
  6
Continuous
 62
     7
370
    15
100
AcDbLine
 10
234.6329542482
 20
179.7563749556
 30
0.0
 11
236.5171613777
 21
180.2029329542
 31
0.0
  0
SPLINE
  5
14A
330
1F
100
AcDbEntity
  8
0
  6
Continuous
 62
     7
370
    15
100
AcDbSpline
210
0.0
220
0.0
230
1.0
 70
     8
 71
     3
 72
     9
 73
     5
 74
     0
 42
0.00000001
 43
0.00000001
 12
1.0
 22
0.0
 32
0.0
 13
1.0
 23
0.0
 33
0.0
 40
0.0
 40
0.0
 40
0.0
 40
0.0
 40
0.0701958916678256
 40
1.0
 40
1.0
 40
1.0
 40
1.0
 10
236.5171613776531
 20
180.2029329542095
 30
0.0
 10
236.5618262447676
 20
180.2024820279171
 30
0.0
 10
237.1981151507609
 20
180.1960582005175
 30
0.0
 10
237.8216257709194
 20
179.9682199224939
 30
0.0
 10
238.4013685071316
 20
179.7563749555524
 30
0.0
  0
LINE
  5
14B
330
1F
100
AcDbEntity
  8
0
  6
Continuous
 62
     7
370
    15
100
AcDbLine
 10
238.4013685071
 20
179.7563749556
 30
0.0
 11
238.4013685071
 21
175.449522138
 31
0.0
  0
SPLINE
  5
14C
330
1F
100
AcDbEntity
  8
0
  6
Continuous
 62
     7
370
    15
100
AcDbSpline
210
0.0
220
0.0
230
1.0
 70
     8
 71
     3
 72
     9
 73
     5
 74
     0
 42
0.00000001
 43
0.00000001
 12
1.0
 22
0.0
 32
0.0
 13
1.0
 23
0.0
 33
0.0
 40
0.0
 40
0.0
 40
0.0
 40
0.0
 40
0.0701956577946079
 40
1.0
 40
1.0
 40
1.0
 40
1.0
 10
236.5171613776531
 20
175.002904534715
 30
0.0
 10
236.5618262502371
 20
175.0033554109793
 30
0.0
 10
237.1981173540929
 20
175.0097785470908
 30
0.0
 10
237.8216267569496
 20
175.2376480680099
 30
0.0
 10
238.4013685071316
 20
175.449522138017
 30
0.0
  0
LINE
  5
14D
330
1F
100
AcDbEntity
  8
0
  6
Continuous
 62
     7
370
    15
100
AcDbLine
 10
234.6329542482
 20
175.449522138
 30
0.0
 11
236.5171613777
 21
175.0029045347
 31
0.0
  0
LINE
  5
14E
330
1F
100
AcDbEntity
  8
0
  6
Continuous
 62
     7
370
    15
100
AcDbLine
 10
234.6329542482
 20
179.7563749556
 30
0.0
 11
234.6329542482
 21
175.449522138
 31
0.0
  0
SPLINE
  5
14F
330
1F
100
AcDbEntity
  8
0
  6
Continuous
 62
     7
370
    15
100
AcDbSpline
210
0.0
220
0.0
230
1.0
 70
     8
 71
     3
 72
     9
 73
     5
 74
     0
 42
0.00000001
 43
0.00000001
 12
1.0
 22
0.0
 32
0.0
 13
1.0
 23
0.0
 33
0.0
 40
0.0
 40
0.0
 40
0.0
 40
0.0
 40
0.2686365062641918
 40
0.9999999999999999
 40
0.9999999999999999
 40
0.9999999999999999
 40
0.9999999999999999
 10
231.7968162381496
 20
180.2029329542096
 30
0.0
 10
232.054703549888
 20
180.1963076380709
 30
0.0
 10
233.01468964904
 20
180.1716448838129
 30
0.0
 10
233.9493660500325
 20
179.9317935009212
 30
0.0
 10
234.6329542481747
 20
179.7563749555522
 30
0.0
  0
SPLINE
  5
150
330
1F
100
AcDbEntity
  8
0
  6
Continuous
 62
     7
370
    15
100
AcDbSpline
210
0.0
220
0.0
230
1.0
 70
     8
 71
     3
 72
     9
 73
     5
 74
     0
 42
0.00000001
 43
0.00000001
 12
1.0
 22
0.0
 32
0.0
 13
1.0
 23
0.0
 33
0.0
 40
0.0
 40
0.0
 40
0.0
 40
0.0
 40
0.268637177248063
 40
1.0
 40
1.0
 40
1.0
 40
1.0
 10
231.7968162381496
 20
175.002904534715
 30
0.0
 10
232.0547034354685
 20
175.0095523517178
 30
0.0
 10
233.014686710906
 20
175.0342988036829
 30
0.0
 10
233.9493651711356
 20
175.2741233678226
 30
0.0
 10
234.6329542481747
 20
175.4495221380168
 30
0.0
  0
LINE
  5
151
330
1F
100
AcDbEntity
  8
0
  6
Continuous
 62
     7
370
    15
100
AcDbLine
 10
236.5171613777
 20
175.0029045347
 30
0.0
 11
231.7968162381
 21
175.0029045347
 31
0.0
  0
SPLINE
  5
152
330
1F
100
AcDbEntity
  8
0
  6
Continuous
 62
     7
370
    15
100
AcDbSpline
210
0.0
220
0.0
230
1.0
 70
     8
 71
     3
 72
     9
 73
     5
 74
     0
 42
0.00000001
 43
0.00000001
 12
1.0
 22
0.0
 32
0.0
 13
1.0
 23
0.0
 33
0.0
 40
0.0
 40
0.0
 40
0.0
 40
0.0
 40
0.2575500626925794
 40
1.0
 40
1.0
 40
1.0
 40
1.0
 10
228.9606931292858
 20
179.7563749555524
 30
0.0
 10
229.1987931544464
 20
179.8237717006946
 30
0.0
 10
230.1232737104648
 20
180.0854557571366
 30
0.0
 10
231.0837274324644
 20
180.1528764586201
 30
0.0
 10
231.7968162381496
 20
180.2029329542096
 30
0.0
  0
SPLINE
  5
153
330
1F
100
AcDbEntity
  8
0
  6
Continuous
 62
     7
370
    15
100
AcDbSpline
210
0.0
220
0.0
230
1.0
 70
     8
 71
     3
 72
     9
 73
     5
 74
     0
 42
0.00000001
 43
0.00000001
 12
1.0
 22
0.0
 32
0.0
 13
1.0
 23
0.0
 33
0.0
 40
0.0
 40
0.0
 40
0.0
 40
0.0
 40
0.2575538619722142
 40
0.9999999999999999
 40
0.9999999999999999
 40
0.9999999999999999
 40
0.9999999999999999
 10
228.9606931292858
 20
175.449522138017
 30
0.0
 10
229.198792515657
 20
175.3821029788405
 30
0.0
 10
230.1232569540774
 20
175.1203357560152
 30
0.0
 10
231.0837223868663
 20
175.0529412932899
 30
0.0
 10
231.7968162381496
 20
175.002904534715
 30
0.0
  0
LINE
  5
154
330
1F
100
AcDbEntity
  8
0
  6
Continuous
 62
     7
370
    15
100
AcDbLine
 10
228.9606931293
 20
179.7563749556
 30
0.0
 11
228.9606931293
 21
175.449522138
 31
0.0
  0
SPLINE
  5
155
330
1F
100
AcDbEntity
  8
0
  6
Continuous
 62
     7
370
    15
100
AcDbSpline
210
0.0
220
0.0
230
1.0
 70
     8
 71
     3
 72
     9
 73
     5
 74
     0
 42
0.00000001
 43
0.00000001
 12
1.0
 22
0.0
 32
0.0
 13
1.0
 23
0.0
 33
0.0
 40
0.0
 40
0.0
 40
0.0
 40
0.0
 40
0.0702066980403039
 40
1.0
 40
1.0
 40
1.0
 40
1.0
 10
228.0087771499004
 20
180.2029329542096
 30
0.0
 10
228.0313430527864
 20
180.2024821488596
 30
0.0
 10
228.3527639928943
 20
180.1960610328902
 30
0.0
 10
228.6677869208805
 20
179.9682200113198
 30
0.0
 10
228.9606931292858
 20
179.7563749555524
 30
0.0
  0
SPLINE
  5
156
330
1F
100
AcDbEntity
  8
0
  6
Continuous
 62
     7
370
    15
100
AcDbSpline
210
0.0
220
0.0
230
1.0
 70
     8
 71
     3
 72
     9
 73
     5
 74
     0
 42
0.00000001
 43
0.00000001
 12
1.0
 22
0.0
 32
0.0
 13
1.0
 23
0.0
 33
0.0
 40
0.0
 40
0.0
 40
0.0
 40
0.0
 40
0.0702064641327099
 40
1.0
 40
1.0
 40
1.0
 40
1.0
 10
228.0087771499004
 20
175.002904534715
 30
0.0
 10
228.0313430555508
 20
175.0033552900211
 30
0.0
 10
228.3527651059157
 20
175.0097757145751
 30
0.0
 10
228.6677874189617
 20
175.2376479792855
 30
0.0
 10
228.9606931292858
 20
175.4495221380168
 30
0.0
  0
LINE
  5
157
330
1F
100
AcDbEntity
  8
0
  6
Continuous
 62
     7
370
    15
100
AcDbLine
 10
231.7968162381
 20
175.0029045347
 30
0.0
 11
228.0087771499
 21
175.0029045347
 31
0.0
  0
LINE
  5
158
330
1F
100
AcDbEntity
  8
0
  6
Continuous
 62
     7
370
    15
100
AcDbLine
 10
227.0568611705
 20
179.7563749556
 30
0.0
 11
227.4319084966
 21
179.9322682623
 31
0.0
  0
LINE
  5
159
330
1F
100
AcDbEntity
  8
0
  6
Continuous
 62
     7
370
    15
100
AcDbLine
 10
227.0568611705
 20
175.449522138
 30
0.0
 11
228.0087771499
 21
175.0029045347
 31
0.0
  0
LINE
  5
15A
330
1F
100
AcDbEntity
  8
0
  6
Continuous
 62
     7
370
    15
100
AcDbLine
 10
227.0568611705
 20
179.7563749556
 30
0.0
 11
227.0568611705
 21
175.449522138
 31
0.0
  0
LINE
  5
15B
330
1F
100
AcDbEntity
  8
0
  6
Continuous
 62
     7
370
    15
100
AcDbLine
 10
238.4013685071
 20
179.7563749556
 30
0.0
 11
238.0263360822
 21
179.9322682623
 31
0.0
  0
LINE
  5
15C
330
1F
100
AcDbEntity
  8
0
  6
Continuous
 62
     7
370
    15
100
AcDbLine
 10
238.4013685071
 20
175.449522138
 30
0.0
 11
238.0263360822
 21
175.2735692266
 31
0.0
  0
LINE
  5
15D
330
1F
100
AcDbEntity
  8
0
  6
Continuous
 62
     7
370
    15
100
AcDbLine
 10
237.729117521
 20
175.0029045347
 30
0.0
 11
236.5171613777
 21
175.0029045347
 31
0.0
  0
LINE
  5
15E
330
1F
100
AcDbEntity
  8
0
  6
Continuous
 62
     7
370
    15
100
AcDbLine
 10
228.0087771499
 20
175.0029045347
 30
0.0
 11
227.7291121566
 21
175.0029045347
 31
0.0
  0
LINE
  5
15F
330
1F
100
AcDbEntity
  8
0
  6
Continuous
 62
     7
370
    15
100
AcDbLine
 10
227.2277923906
 20
174.3063646559
 30
0.0
 11
229.361683377
 21
174.7529226545
 31
0.0
  0
SPLINE
  5
160
330
1F
100
AcDbEntity
  8
0
  6
Continuous
 62
     7
370
    15
100
AcDbSpline
210
0.0
220
0.0
230
1.0
 70
     8
 71
     3
 72
     9
 73
     5
 74
     0
 42
0.00000001
 43
0.00000001
 12
1.0
 22
0.0
 32
0.0
 13
1.0
 23
0.0
 33
0.0
 40
0.0
 40
0.0
 40
0.0
 40
0.0
 40
0.0701973753330661
 40
1.0
 40
1.0
 40
1.0
 40
1.0
 10
229.3616833770122
 20
174.752922654527
 30
0.0
 10
229.4122667534654
 20
174.7524717448383
 30
0.0
 10
230.1328546132411
 20
174.746048289736
 30
0.0
 10
230.8389915163804
 20
174.5182096350227
 30
0.0
 10
231.4955594622936
 20
174.3063646558697
 30
0.0
  0
LINE
  5
161
330
1F
100
AcDbEntity
  8
0
  6
Continuous
 62
     7
370
    15
100
AcDbLine
 10
231.4955594623
 20
174.3063646559
 30
0.0
 11
231.4955594623
 21
169.9995118383
 31
0.0
  0
SPLINE
  5
162
330
1F
100
AcDbEntity
  8
0
  6
Continuous
 62
     7
370
    15
100
AcDbSpline
210
0.0
220
0.0
230
1.0
 70
     8
 71
     3
 72
     9
 73
     5
 74
     0
 42
0.00000001
 43
0.00000001
 12
1.0
 22
0.0
 32
0.0
 13
1.0
 23
0.0
 33
0.0
 40
0.0
 40
0.0
 40
0.0
 40
0.0
 40
0.0701969184356466
 40
1.0
 40
1.0
 40
1.0
 40
1.0
 10
229.3616833770122
 20
169.5529538396771
 30
0.0
 10
229.4122667655669
 20
169.5533841362734
 30
0.0
 10
230.1328594878965
 20
169.5595139864974
 30
0.0
 10
230.838993697866
 20
169.7875154111195
 30
0.0
 10
231.4955594622936
 20
169.9995118383342
 30
0.0
  0
LINE
  5
163
330
1F
100
AcDbEntity
  8
0
  6
Continuous
 62
     7
370
    15
100
AcDbLine
 10
229.0547045553
 20
169.6171480421
 30
0.0
 11
229.361683377
 21
169.5529538397
 31
0.0
  0
LINE
  5
164
330
1F
100
AcDbEntity
  8
0
  6
Continuous
 62
     7
370
    15
100
AcDbLine
 10
227.2277923906
 20
174.3063646559
 30
0.0
 11
227.2277923906
 21
173.9529091124
 31
0.0
  0
SPLINE
  5
165
330
1F
100
AcDbEntity
  8
0
  6
Continuous
 62
     7
370
    15
100
AcDbSpline
210
0.0
220
0.0
230
1.0
 70
     8
 71
     3
 72
     9
 73
     5
 74
     0
 42
0.00000001
 43
0.00000001
 12
1.0
 22
0.0
 32
0.0
 13
1.0
 23
0.0
 33
0.0
 40
0.0
 40
0.0
 40
0.0
 40
0.0
 40
0.2575560686529154
 40
1.0
 40
1.0
 40
1.0
 40
1.0
 10
231.4955594622936
 20
174.3063646558697
 30
0.0
 10
231.7264854123994
 20
174.3737846952448
 30
0.0
 10
232.6230899898555
 20
174.6355530928122
 30
0.0
 10
233.5546174798679
 20
174.7029122540473
 30
0.0
 10
234.2462244117107
 20
174.752922654527
 30
0.0
  0
LINE
  5
166
330
1F
100
AcDbEntity
  8
0
  6
Continuous
 62
     7
370
    15
100
AcDbLine
 10
229.361683377
 20
174.7529226545
 30
0.0
 11
234.2462244117
 21
174.7529226545
 31
0.0
  0
SPLINE
  5
167
330
1F
100
AcDbEntity
  8
0
  6
Continuous
 62
     7
370
    15
100
AcDbSpline
210
0.0
220
0.0
230
1.0
 70
     8
 71
     3
 72
     9
 73
     5
 74
     0
 42
0.00000001
 43
0.00000001
 12
1.0
 22
0.0
 32
0.0
 13
1.0
 23
0.0
 33
0.0
 40
0.0
 40
0.0
 40
0.0
 40
0.0
 40
0.2575560686529154
 40
1.0
 40
1.0
 40
1.0
 40
1.0
 10
231.4955594622936
 20
169.9995118383343
 30
0.0
 10
231.7264854123994
 20
169.9320917989594
 30
0.0
 10
232.6230899898555
 20
169.6703234013919
 30
0.0
 10
233.5546174798679
 20
169.6029642401567
 30
0.0
 10
234.2462244117107
 20
169.5529538396771
 30
0.0
  0
SPLINE
  5
168
330
1F
100
AcDbEntity
  8
0
  6
Continuous
 62
     7
370
    15
100
AcDbSpline
210
0.0
220
0.0
230
1.0
 70
     8
 71
     3
 72
     9
 73
     5
 74
     0
 42
0.00000001
 43
0.00000001
 12
1.0
 22
0.0
 32
0.0
 13
1.0
 23
0.0
 33
0.0
 40
0.0
 40
0.0
 40
0.0
 40
0.0
 40
0.268633432701332
 40
1.0
 40
1.0
 40
1.0
 40
1.0
 10
234.2462244117107
 20
174.752922654527
 30
0.0
 10
234.4963344450493
 20
174.7462971733875
 30
0.0
 10
235.4273802602463
 20
174.7216335227287
 30
0.0
 10
236.333894877385
 20
174.4817831786696
 30
0.0
 10
236.9968893611278
 20
174.3063646558697
 30
0.0
  0
LINE
  5
169
330
1F
100
AcDbEntity
  8
0
  6
Continuous
 62
     7
370
    15
100
AcDbLine
 10
236.9968893611
 20
174.3063646559
 30
0.0
 11
236.9968893611
 21
169.9995118383
 31
0.0
  0
SPLINE
  5
16A
330
1F
100
AcDbEntity
  8
0
  6
Continuous
 62
     7
370
    15
100
AcDbSpline
210
0.0
220
0.0
230
1.0
 70
     8
 71
     3
 72
     9
 73
     5
 74
     0
 42
0.00000001
 43
0.00000001
 12
1.0
 22
0.0
 32
0.0
 13
1.0
 23
0.0
 33
0.0
 40
0.0
 40
0.0
 40
0.0
 40
0.0
 40
0.268633432701332
 40
1.0
 40
1.0
 40
1.0
 40
1.0
 10
234.2462244117107
 20
169.5529538396771
 30
0.0
 10
234.4963344450493
 20
169.5595793208165
 30
0.0
 10
235.4273802602463
 20
169.5842429714755
 30
0.0
 10
236.333894877385
 20
169.8240933155344
 30
0.0
 10
236.9968893611278
 20
169.9995118383343
 30
0.0
  0
LINE
  5
16B
330
1F
100
AcDbEntity
  8
0
  6
Continuous
 62
     7
370
    15
100
AcDbLine
 10
236.9968893611
 20
174.3063646559
 30
0.0
 11
237.6136633241
 21
174.7529226545
 31
0.0
  0
LINE
  5
16C
330
1F
100
AcDbEntity
  8
0
  6
Continuous
 62
     7
370
    15
100
AcDbLine
 10
234.2462244117
 20
174.7529226545
 30
0.0
 11
237.6136633241
 21
174.7529226545
 31
0.0
  0
LINE
  5
16D
330
1F
100
AcDbEntity
  8
0
  6
Continuous
 62
     7
370
    15
100
AcDbLine
 10
236.9968893611
 20
169.9995118383
 30
0.0
 11
237.6136633241
 21
169.5529538397
 31
0.0
  0
LINE
  5
16E
330
1F
100
AcDbEntity
  8
0
  6
Continuous
 62
     7
370
    15
100
AcDbLine
 10
227.6115121925
 20
174.6037918333
 30
0.0
 11
227.2277923906
 21
174.3063646559
 31
0.0
  0
LINE
  5
16F
330
1F
100
AcDbEntity
  8
0
  6
Continuous
 62
     7
370
    15
100
AcDbLine
 10
227.7291121566
 20
174.7529226545
 30
0.0
 11
229.361683377
 21
174.7529226545
 31
0.0
  0
SPLINE
  5
170
330
1F
100
AcDbEntity
  8
0
  6
Continuous
 62
     7
370
    15
100
AcDbSpline
210
0.0
220
0.0
230
1.0
 70
     8
 71
     3
 72
     9
 73
     5
 74
     0
 42
0.00000001
 43
0.00000001
 12
1.0
 22
0.0
 32
0.0
 13
1.0
 23
0.0
 33
0.0
 40
0.0
 40
0.0
 40
0.0
 40
0.0
 40
0.0702054591320452
 40
1.0
 40
1.0
 40
1.0
 40
1.0
 10
237.6136633241024
 20
174.752922654527
 30
0.0
 10
237.628283170578
 20
174.7524718353103
 30
0.0
 10
237.8365268977238
 20
174.7460504085126
 30
0.0
 10
238.0406472747956
 20
174.5182097014675
 30
0.0
 10
238.2304372870769
 20
174.3063646558696
 30
0.0
  0
LINE
  5
171
330
1F
100
AcDbEntity
  8
0
  6
Continuous
 62
     7
370
    15
100
AcDbLine
 10
238.2304372871
 20
174.3063646559
 30
0.0
 11
238.2304372871
 21
169.9995118383
 31
0.0
  0
LINE
  5
172
330
1F
100
AcDbEntity
  8
0
  6
Continuous
 62
     7
370
    15
100
AcDbLine
 10
237.8467174852
 20
169.7020250563
 30
0.0
 11
238.2304372871
 21
169.9995118383
 31
0.0
  0
LINE
  5
173
330
1F
100
AcDbEntity
  8
0
  6
Continuous
 62
     7
370
    15
100
AcDbLine
 10
237.6136633241
 20
174.7529226545
 30
0.0
 11
237.729117521
 21
174.7529226545
 31
0.0
  0
LINE
  5
174
330
1F
100
AcDbEntity
  8
0
  6
Continuous
 62
     7
370
    15
100
AcDbLine
 10
232.7291222894
 20
180.2029329542
 30
0.0
 11
238.8291212404
 21
180.2029329542
 31
0.0
  0
LINE
  5
175
330
1F
100
AcDbEntity
  8
0
  6
Continuous
 62
     7
370
    15
100
AcDbLine
 10
226.6291233384
 20
180.2029329542
 30
0.0
 11
232.7291222894
 21
180.2029329542
 31
0.0
  0
SPLINE
  5
176
330
1F
100
AcDbEntity
  8
0
  6
Continuous
 62
     7
370
    15
100
AcDbSpline
210
0.0
220
0.0
230
1.0
 70
     8
 71
     3
 72
    11
 73
     7
 74
     0
 42
0.00000001
 43
0.00000001
 12
1.0
 22
0.0
 32
0.0
 13
1.0
 23
0.0
 33
0.0
 40
0.0
 40
0.0
 40
0.0
 40
0.0
 40
0.2832724837013622
 40
0.5580001261670694
 40
0.7754023956013123
 40
0.9999999999999999
 40
0.9999999999999999
 40
0.9999999999999999
 40
0.9999999999999999
 10
844.2314269625988
 20
727.1145153049405
 30
0.0
 10
843.934319482911
 20
727.1492133486724
 30
0.0
 10
843.3490666938484
 20
727.2175627786177
 30
0.0
 10
842.6988700891335
 20
727.7005692585304
 30
0.0
 10
842.302332708252
 20
728.2900445874459
 30
0.0
 10
842.2537930495874
 20
728.7088620173323
 30
0.0
 10
842.2291281306591
 20
728.9216797057564
 30
0.0
  0
SPLINE
  5
177
330
1F
100
AcDbEntity
  8
0
  6
Continuous
 62
     7
370
    15
100
AcDbSpline
210
0.0
220
0.0
230
1.0
 70
     8
 71
     3
 72
    11
 73
     7
 74
     0
 42
0.00000001
 43
0.00000001
 12
1.0
 22
0.0
 32
0.0
 13
1.0
 23
0.0
 33
0.0
 40
0.0
 40
0.0
 40
0.0
 40
0.0
 40
0.2832723495778059
 40
0.5580000932077379
 40
0.7754033790641832
 40
1.0
 40
1.0
 40
1.0
 40
1.0
 10
844.2314269625988
 20
727.7907076481755
 30
0.0
 10
843.9343194833069
 20
727.8254042151782
 30
0.0
 10
843.3490664524884
 20
727.8937507645338
 30
0.0
 10
842.6988687775172
 20
728.3767580051318
 30
0.0
 10
842.3023340370007
 20
728.9662358126615
 30
0.0
 10
842.2537934244507
 20
729.3850521421705
 30
0.0
 10
842.2291281306591
 20
729.5978683237012
 30
0.0
  0
LINE
  5
178
330
1F
100
AcDbEntity
  8
0
  6
Continuous
 62
     7
370
    15
100
AcDbLine
 10
844.2314269626
 20
782.1691724662
 30
0.0
 11
880.2307548606
 21
782.1691724662
 31
0.0
  0
SPLINE
  5
179
330
1F
100
AcDbEntity
  8
0
  6
Continuous
 62
     7
370
    15
100
AcDbSpline
210
0.0
220
0.0
230
1.0
 70
     8
 71
     3
 72
    11
 73
     7
 74
     0
 42
0.00000001
 43
0.00000001
 12
1.0
 22
0.0
 32
0.0
 13
1.0
 23
0.0
 33
0.0
 40
0.0
 40
0.0
 40
0.0
 40
0.0
 40
0.2833058543124292
 40
0.5580364833865703
 40
0.7754311315687716
 40
1.0
 40
1.0
 40
1.0
 40
1.0
 10
880.2307548606243
 20
782.1691724661763
 30
0.0
 10
880.5278776090385
 20
782.1338745792661
 30
0.0
 10
881.113129664848
 20
782.0643472172917
 30
0.0
 10
881.7622738274397
 20
781.5799000830499
 30
0.0
 10
882.1574140160503
 20
780.9895238467109
 30
0.0
 10
882.2049605943764
 20
780.5705684974074
 30
0.0
 10
882.2291197860088
 20
780.3576904539044
 30
0.0
  0
LINE
  5
17A
330
1F
100
AcDbEntity
  8
0
  6
Continuous
 62
     7
370
    15
100
AcDbLine
 10
882.229119786
 20
780.3576904539
 30
0.0
 11
882.229119786
 21
729.6018320326
 31
0.0
  0
SPLINE
  5
17B
330
1F
100
AcDbEntity
  8
0
  6
Continuous
 62
     7
370
    15
100
AcDbSpline
210
0.0
220
0.0
230
1.0
 70
     8
 71
     3
 72
    11
 73
     7
 74
     0
 42
0.00000001
 43
0.00000001
 12
1.0
 22
0.0
 32
0.0
 13
1.0
 23
0.0
 33
0.0
 40
0.0
 40
0.0
 40
0.0
 40
0.0
 40
0.2833194824233238
 40
0.5580439072167206
 40
0.7754280514022063
 40
1.0
 40
1.0
 40
1.0
 40
1.0
 10
882.2291197860088
 20
729.6018320325787
 30
0.0
 10
882.1901975684885
 20
729.3325545391397
 30
0.0
 10
882.113533916004
 20
728.8021686183447
 30
0.0
 10
881.5791754766833
 20
728.2138206651758
 30
0.0
 10
880.9278452269497
 20
727.8556889726443
 30
0.0
 10
880.4656241117215
 20
727.8126016747617
 30
0.0
 10
880.2307548606243
 20
727.7907076481755
 30
0.0
  0
LINE
  5
17C
330
1F
100
AcDbEntity
  8
0
  6
Continuous
 62
     7
370
    15
100
AcDbLine
 10
880.2307548606
 20
727.7907076482
 30
0.0
 11
844.2314269626
 21
727.7907076482
 31
0.0
  0
LINE
  5
17D
330
1F
100
AcDbEntity
  8
0
  6
Continuous
 62
     7
370
    15
100
AcDbLine
 10
842.2291281307
 20
729.5978683237
 30
0.0
 11
842.2291281307
 21
780.3616541628
 31
0.0
  0
SPLINE
  5
17E
330
1F
100
AcDbEntity
  8
0
  6
Continuous
 62
     7
370
    15
100
AcDbSpline
210
0.0
220
0.0
230
1.0
 70
     8
 71
     3
 72
    11
 73
     7
 74
     0
 42
0.00000001
 43
0.00000001
 12
1.0
 22
0.0
 32
0.0
 13
1.0
 23
0.0
 33
0.0
 40
0.0
 40
0.0
 40
0.0
 40
0.0
 40
0.283356224408971
 40
0.5581122393338647
 40
0.7754832744387351
 40
1.0
 40
1.0
 40
1.0
 40
1.0
 10
842.2291281306591
 20
780.361654162782
 30
0.0
 10
842.2687041425377
 20
780.6308701717277
 30
0.0
 10
842.3466549857193
 20
781.161131153044
 30
0.0
 10
842.8823164607584
 20
781.7485247521156
 30
0.0
 10
843.5343307445277
 20
782.1055253321565
 30
0.0
 10
843.9965699598068
 20
782.1477292640118
 30
0.0
 10
844.2314269625988
 20
782.1691724661763
 30
0.0
  0
LINE
  5
17F
330
1F
100
AcDbEntity
  8
0
  6
Continuous
 62
     7
370
    15
100
AcDbLine
 10
880.2307548606
 20
727.1145153049
 30
0.0
 11
844.2314269626
 21
727.1145153049
 31
0.0
  0
SPLINE
  5
180
330
1F
100
AcDbEntity
  8
0
  6
Continuous
 62
     7
370
    15
100
AcDbSpline
210
0.0
220
0.0
230
1.0
 70
     8
 71
     3
 72
    11
 73
     7
 74
     0
 42
0.00000001
 43
0.00000001
 12
1.0
 22
0.0
 32
0.0
 13
1.0
 23
0.0
 33
0.0
 40
0.0
 40
0.0
 40
0.0
 40
0.0
 40
0.2833186714117144
 40
0.5580433340379561
 40
0.7754276664159898
 40
1.0
 40
1.0
 40
1.0
 40
1.0
 10
882.2291197860088
 20
728.9256396893437
 30
0.0
 10
882.1901973534019
 20
728.656363592916
 30
0.0
 10
882.1135331365584
 20
728.1259794502876
 30
0.0
 10
881.5791755374969
 20
727.537631690666
 30
0.0
 10
880.9278448954109
 20
727.1795012173347
 30
0.0
 10
880.4656240650203
 20
727.136410883387
 30
0.0
 10
880.2307548606243
 20
727.1145153049405
 30
0.0
  0
LINE
  5
181
330
1F
100
AcDbEntity
  8
0
  6
Continuous
 62
     7
370
    15
100
AcDbLine
 10
882.229119786
 20
728.9256396893
 30
0.0
 11
882.229119786
 21
729.6018320326
 31
0.0
  0
SPLINE
  5
182
330
1F
100
AcDbEntity
  8
0
  6
Continuous
 62
     7
370
    15
100
AcDbSpline
210
0.0
220
0.0
230
1.0
 70
     8
 71
     3
 72
    13
 73
     9
 74
     0
 42
0.00000001
 43
0.00000001
 12
1.0
 22
0.0
 32
0.0
 13
1.0
 23
0.0
 33
0.0
 40
0.0
 40
0.0
 40
0.0
 40
0.0
 40
0.1275871206361282
 40
0.2546772985903664
 40
0.5000480109762016
 40
0.7454031046217566
 40
0.8725460047649789
 40
1.0
 40
1.0
 40
1.0
 40
1.0
 10
842.2291281306591
 20
729.5978683237012
 30
0.0
 10
842.236971221209
 20
729.4771729216034
 30
0.0
 10
842.2526268540339
 20
729.2362522173405
 30
0.0
 10
842.4152105978786
 20
728.7833466294738
 30
0.0
 10
842.7831686295228
 20
728.2872054581144
 30
0.0
 10
843.3321876587331
 20
727.9557364980737
 30
0.0
 10
843.8325692272781
 20
727.8104918386763
 30
0.0
 10
844.098366123988
 20
727.7973077482767
 30
0.0
 10
844.2314269625988
 20
727.7907076481755
 30
0.0
  0
SPLINE
  5
183
330
1F
100
AcDbEntity
  8
0
  6
Continuous
 62
     7
370
    15
100
AcDbSpline
210
0.0
220
0.0
230
1.0
 70
     8
 71
     3
 72
    13
 73
     9
 74
     0
 42
0.00000001
 43
0.00000001
 12
1.0
 22
0.0
 32
0.0
 13
1.0
 23
0.0
 33
0.0
 40
0.0
 40
0.0
 40
0.0
 40
0.0
 40
0.1275805269472144
 40
0.2546498347771646
 40
0.5000041257893945
 40
0.7453563311374463
 40
0.872515838775908
 40
0.9999999999999999
 40
0.9999999999999999
 40
0.9999999999999999
 40
0.9999999999999999
 10
880.2307548606243
 20
727.7907076481755
 30
0.0
 10
880.3639509893823
 20
727.7975527936569
 30
0.0
 10
880.6298095258909
 20
727.8112156559098
 30
0.0
 10
881.1299166876706
 20
727.9575964310627
 30
0.0
 10
881.6781503440261
 20
728.2900467072556
 30
0.0
 10
882.0450546208016
 20
728.7869867256005
 30
0.0
 10
882.206431016933
 20
729.2402645433957
 30
0.0
 10
882.2215504375681
 20
729.4812071409713
 30
0.0
 10
882.2291197860088
 20
729.6018320325787
 30
0.0
  0
SPLINE
  5
184
330
1F
100
AcDbEntity
  8
0
  6
Continuous
 62
     7
370
    15
100
AcDbSpline
210
0.0
220
0.0
230
1.0
 70
     8
 71
     3
 72
    13
 73
     9
 74
     0
 42
0.00000001
 43
0.00000001
 12
1.0
 22
0.0
 32
0.0
 13
1.0
 23
0.0
 33
0.0
 40
0.0
 40
0.0
 40
0.0
 40
0.0
 40
0.1275695277111799
 40
0.2546487778885099
 40
0.5000135961349105
 40
0.7453705943052289
 40
0.872525027386602
 40
1.0
 40
1.0
 40
1.0
 40
1.0
 10
882.2291197860088
 20
780.3576904539044
 30
0.0
 10
882.2215683606589
 20
780.4784066400032
 30
0.0
 10
882.2064945317347
 20
780.7193750735544
 30
0.0
 10
882.0449553963647
 20
781.1726628602224
 30
0.0
 10
881.6781719614761
 20
781.6696390561757
 30
0.0
 10
881.1298651920434
 20
782.0023004557344
 30
0.0
 10
880.6297002192077
 20
782.1485963981569
 30
0.0
 10
880.363848202514
 20
782.1623080232225
 30
0.0
 10
880.2307548606243
 20
782.1691724661763
 30
0.0
  0
SPLINE
  5
185
330
1F
100
AcDbEntity
  8
0
  6
Continuous
 62
     7
370
    15
100
AcDbSpline
210
0.0
220
0.0
230
1.0
 70
     8
 71
     3
 72
    13
 73
     9
 74
     0
 42
0.00000001
 43
0.00000001
 12
1.0
 22
0.0
 32
0.0
 13
1.0
 23
0.0
 33
0.0
 40
0.0
 40
0.0
 40
0.0
 40
0.0
 40
0.1275290012325496
 40
0.2545841307398809
 40
0.4999421723971291
 40
0.7453273108416264
 40
0.8725045275884584
 40
1.0
 40
1.0
 40
1.0
 40
1.0
 10
844.2314269625988
 20
782.1691724661763
 30
0.0
 10
844.0982718713512
 20
782.1625856268579
 30
0.0
 10
843.8324564659829
 20
782.1494364235708
 30
0.0
 10
843.332109534016
 20
782.0039802112265
 30
0.0
 10
842.7831668526724
 20
781.6724893859329
 30
0.0
 10
842.4151200716092
 20
781.1762043403083
 30
0.0
 10
842.2526945819363
 20
780.7231847367209
 30
0.0
 10
842.2369901561775
 20
780.4822647105738
 30
0.0
 10
842.2291281306591
 20
780.361654162782
 30
0.0
  0
LINE
  5
186
330
1F
100
AcDbEntity
  8
0
  6
Continuous
 62
     7
370
    15
100
AcDbLine
 10
99.7291209781
 20
940.2529317144
 30
0.0
 11
107.2291138255
 21
940.2529317144
 31
0.0
  0
LINE
  5
187
330
1F
100
AcDbEntity
  8
0
  6
Continuous
 62
     7
370
    15
100
AcDbLine
 10
92.2291281307
 20
940.2529317144
 30
0.0
 11
99.7291209781
 21
940.2529317144
 31
0.0
  0
LINE
  5
188
330
1F
100
AcDbEntity
  8
0
  6
Continuous
 62
     7
370
    15
100
AcDbLine
 10
879.7291221702
 20
940.2529317144
 30
0.0
 11
887.2291150176
 21
940.2529317144
 31
0.0
  0
LINE
  5
189
330
1F
100
AcDbEntity
  8
0
  6
Continuous
 62
     7
370
    15
100
AcDbLine
 10
872.2291293228
 20
940.2529317144
 30
0.0
 11
879.7291221702
 21
940.2529317144
 31
0.0
  0
ARC
  5
18A
330
1F
100
AcDbEntity
  8
0
  6
Continuous
 62
     7
370
    15
100
AcDbCircle
 10
861.7291160284
 20
911.2529312626
 30
0.0
 40
0.4999999999998863
100
AcDbArc
 50
270.0
 51
0.0
  0
ARC
  5
18B
330
1F
100
AcDbEntity
  8
0
  6
Continuous
 62
     7
370
    15
100
AcDbCircle
 10
117.7291160284
 20
911.2529312626
 30
0.0
 40
0.5
100
AcDbArc
 50
180.0
 51
270.0
  0
LINE
  5
18C
330
1F
100
AcDbEntity
  8
0
  6
Continuous
 62
     7
370
    15
100
AcDbLine
 10
117.2291042888
 20
911.2529325489
 30
0.0
 11
117.2291042888
 21
927.2529351715
 31
0.0
  0
LINE
  5
18D
330
1F
100
AcDbEntity
  8
0
  6
Continuous
 62
     7
370
    15
100
AcDbLine
 10
862.2291090572
 20
927.7529287342
 30
0.0
 11
862.2291090572
 21
927.2529351715
 31
0.0
  0
ARC
  5
18E
330
1F
100
AcDbEntity
  8
0
  6
Continuous
 62
     7
370
    15
100
AcDbCircle
 10
861.7291160284
 20
927.7529312626
 30
0.0
 40
0.4999999999998863
100
AcDbArc
 50
0.0
 51
90.0
  0
LINE
  5
18F
330
1F
100
AcDbEntity
  8
0
  6
Continuous
 62
     7
370
    15
100
AcDbLine
 10
861.7291154945
 20
928.2529371981
 30
0.0
 11
117.7291276538
 21
928.2529371981
 31
0.0
  0
LINE
  5
190
330
1F
100
AcDbEntity
  8
0
  6
Continuous
 62
     7
370
    15
100
AcDbLine
 10
117.2291042888
 20
927.2529351715
 30
0.0
 11
117.2291042888
 21
927.7529287342
 31
0.0
  0
ARC
  5
191
330
1F
100
AcDbEntity
  8
0
  6
Continuous
 62
     7
370
    15
100
AcDbCircle
 10
117.7291160284
 20
927.7529312626
 30
0.0
 40
0.5
100
AcDbArc
 50
90.0
 51
180.0
  0
LINE
  5
192
330
1F
100
AcDbEntity
  8
0
  6
Continuous
 62
     7
370
    15
100
AcDbLine
 10
862.2291090572
 20
927.2529351715
 30
0.0
 11
862.2291090572
 21
911.2529325489
 31
0.0
  0
LINE
  5
193
330
1F
100
AcDbEntity
  8
0
  6
Continuous
 62
     7
370
    15
100
AcDbLine
 10
117.2291042888
 20
910.752924085
 30
0.0
 11
117.2291042888
 21
911.2529325489
 31
0.0
  0
LINE
  5
194
330
1F
100
AcDbEntity
  8
0
  6
Continuous
 62
     7
370
    15
100
AcDbLine
 10
862.2291090572
 20
911.2529325489
 30
0.0
 11
862.2291090572
 21
910.752924085
 31
0.0
  0
SPLINE
  5
195
330
1F
100
AcDbEntity
  8
0
  6
Continuous
 62
     7
370
    15
100
AcDbSpline
210
0.0
220
0.0
230
1.0
 70
     8
 71
     3
 72
    13
 73
     9
 74
     0
 42
0.00000001
 43
0.00000001
 12
1.0
 22
0.0
 32
0.0
 13
1.0
 23
0.0
 33
0.0
 40
0.0
 40
0.0
 40
0.0
 40
0.0
 40
0.0016185904365355
 40
0.1076402532921862
 40
0.2135403888972067
 40
0.5545563389614278
 40
0.77688245712359
 40
1.0
 40
1.0
 40
1.0
 40
1.0
 10
615.0029304110851
 20
941.9272559884961
 30
0.0
 10
614.9988623845132
 20
941.9296302104437
 30
0.0
 10
614.7283285912159
 20
942.0875218215938
 30
0.0
 10
614.191886251395
 20
942.4015352383545
 30
0.0
 10
612.8273351501456
 20
943.252487038496
 30
0.0
 10
611.3055502975078
 20
944.5079899961194
 30
0.0
 10
610.0623232997054
 20
946.4923494240929
 30
0.0
 10
609.8795101857684
 20
947.7848236209692
 30
0.0
 10
609.7879412257519
 20
948.4322088960583
 30
0.0
  0
SPLINE
  5
196
330
1F
100
AcDbEntity
  8
0
  6
Continuous
 62
     7
370
    15
100
AcDbSpline
210
0.0
220
0.0
230
1.0
 70
     8
 71
     3
 72
    13
 73
     9
 74
     0
 42
0.00000001
 43
0.00000001
 12
1.0
 22
0.0
 32
0.0
 13
1.0
 23
0.0
 33
0.0
 40
0.0
 40
0.0
 40
0.0
 40
0.0
 40
0.2231175849019097
 40
0.4454437449405023
 40
0.7864610373595445
 40
0.8923611929114776
 40
0.9983814092585935
 40
1.0
 40
1.0
 40
1.0
 40
1.0
 10
284.6702935778942
 20
948.4322088960583
 30
0.0
 10
284.5787245384108
 20
947.7848236975894
 30
0.0
 10
284.3959112658218
 20
946.4923496536821
 30
0.0
 10
283.1526836451497
 20
944.5079856532976
 30
0.0
 10
281.630888788218
 20
943.252487109557
 30
0.0
 10
280.2663356830962
 20
942.40154022218
 30
0.0
 10
279.7299025409297
 20
942.0875196464583
 30
0.0
 10
279.4593724193434
 20
941.9296302100877
 30
0.0
 10
279.4553043925609
 20
941.9272559884961
 30
0.0
  0
LINE
  5
197
330
1F
100
AcDbEntity
  8
0
  6
Continuous
 62
     7
370
    15
100
AcDbLine
 10
284.6702935779
 20
948.4322088961
 30
0.0
 11
285.1325424993
 21
961.6694766287
 31
0.0
  0
ELLIPSE
  5
198
330
1F
100
AcDbEntity
  8
0
  6
Continuous
 62
     7
370
    15
100
AcDbEllipse
 10
287.1312741587
 20
961.5980699311
 30
0.0
 11
0.05906140895541512
 21
2.111581110097177
 31
0.0
210
0.0
220
0.0
230
1.0
 40
0.9467846371
 41
1.258678047986729
 42
1.563462417227159
  0
ELLIPSE
  5
199
330
1F
100
AcDbEntity
  8
0
  6
Continuous
 62
     7
370
    15
100
AcDbEllipse
 10
292.326957898
 20
961.5980699311
 30
0.0
 11
-0.05906140895541512
 21
2.111581110097177
 31
0.0
210
0.0
220
0.0
230
1.0
 40
0.9467846371
 41
4.719722889952441
 42
5.024507259192861
  0
LINE
  5
19A
330
1F
100
AcDbEntity
  8
0
  6
Continuous
 62
     7
370
    15
100
AcDbLine
 10
294.3256797874
 20
961.6694766287
 30
0.0
 11
294.7879436099
 21
948.4322088961
 31
0.0
  0
SPLINE
  5
19B
330
1F
100
AcDbEntity
  8
0
  6
Continuous
 62
     7
370
    15
100
AcDbSpline
210
0.0
220
0.0
230
1.0
 70
     8
 71
     3
 72
    13
 73
     9
 74
     0
 42
0.00000001
 43
0.00000001
 12
1.0
 22
0.0
 32
0.0
 13
1.0
 23
0.0
 33
0.0
 40
0.0
 40
0.0
 40
0.0
 40
0.0
 40
0.0016178557897862
 40
0.10763884633453
 40
0.2135390427991482
 40
0.5545558279023503
 40
0.776882506218948
 40
1.0
 40
1.0
 40
1.0
 40
1.0
 10
300.0029253446903
 20
941.9272559884961
 30
0.0
 10
299.9988598070143
 20
941.9296302195852
 30
0.0
 10
299.7283722963613
 20
942.0875920706818
 30
0.0
 10
299.1918769243157
 20
942.4015068221461
 30
0.0
 10
297.827360323631
 20
943.2525170212364
 30
0.0
 10
296.3055521684488
 20
944.5079836743295
 30
0.0
 10
295.0623160743213
 20
946.4923478885692
 30
0.0
 10
294.8795092795537
 20
947.784823698306
 30
0.0
 10
294.7879436099377
 20
948.4322088960583
 30
0.0
  0
SPLINE
  5
19C
330
1F
100
AcDbEntity
  8
0
  6
Continuous
 62
     7
370
    15
100
AcDbSpline
210
0.0
220
0.0
230
1.0
 70
     8
 71
     3
 72
    13
 73
     9
 74
     0
 42
0.00000001
 43
0.00000001
 12
1.0
 22
0.0
 32
0.0
 13
1.0
 23
0.0
 33
0.0
 40
0.0
 40
0.0
 40
0.0
 40
0.0
 40
0.2231175789919576
 40
0.4454437331415613
 40
0.7864610165277168
 40
0.8923597292843221
 40
0.9983814093014669
 40
1.0
 40
1.0
 40
1.0
 40
1.0
 10
599.6702911937084
 20
948.4322088960583
 30
0.0
 10
599.5787220388244
 20
947.7848238814902
 30
0.0
 10
599.3959085358431
 20
946.492350204732
 30
0.0
 10
598.1526829447068
 20
944.5079829701123
 30
0.0
 10
596.6308825828838
 20
943.2525011183208
 30
0.0
 10
595.2663441360961
 20
942.4015306768256
 30
0.0
 10
594.7299038241475
 20
942.0875218279111
 30
0.0
 10
594.4593700348862
 20
941.9296302105373
 30
0.0
 10
594.4553020083752
 20
941.9272559884961
 30
0.0
  0
LINE
  5
19D
330
1F
100
AcDbEntity
  8
0
  6
Continuous
 62
     7
370
    15
100
AcDbLine
 10
599.6702911937
 20
948.4322088961
 30
0.0
 11
600.1325550163
 21
961.6694766287
 31
0.0
  0
ELLIPSE
  5
19E
330
1F
100
AcDbEntity
  8
0
  6
Continuous
 62
     7
370
    15
100
AcDbEllipse
 10
602.1312741587
 20
961.5980699311
 30
0.0
 11
0.05906140895547196
 21
2.111581110097177
 31
0.0
210
0.0
220
0.0
230
1.0
 40
0.9467846371
 41
1.258678047986764
 42
1.563462417227185
  0
ELLIPSE
  5
19F
330
1F
100
AcDbEntity
  8
0
  6
Continuous
 62
     7
370
    15
100
AcDbEllipse
 10
607.326957898
 20
961.5980699311
 30
0.0
 11
-0.05906140895558565
 21
2.111581110097177
 31
0.0
210
0.0
220
0.0
230
1.0
 40
0.9467846371
 41
4.719722889952367
 42
5.024507259192802
  0
LINE
  5
1A0
330
1F
100
AcDbEntity
  8
0
  6
Continuous
 62
     7
370
    15
100
AcDbLine
 10
609.3256774032
 20
961.6694766287
 30
0.0
 11
609.7879412258
 21
948.4322088961
 31
0.0
  0
LINE
  5
1A1
330
1F
100
AcDbEntity
  8
0
  6
Continuous
 62
     7
370
    15
100
AcDbLine
 10
191.2291201436
 20
928.7529307608
 30
0.0
 11
194.1640826547
 21
962.2997063402
 31
0.0
  0
LINE
  5
1A2
330
1F
100
AcDbEntity
  8
0
  6
Continuous
 62
     7
370
    15
100
AcDbLine
 10
785.2941455924
 20
962.2997063402
 30
0.0
 11
788.2291081035
 21
928.7529307608
 31
0.0
  0
ARC
  5
1A3
330
1F
100
AcDbEntity
  8
0
  6
Continuous
 62
     7
370
    15
100
AcDbCircle
 10
614.7797868346
 20
948.7529312626
 30
0.0
 40
5.000000000000028
100
AcDbArc
 50
182.0
 51
270.0
  0
ARC
  5
1A4
330
1F
100
AcDbEntity
  8
0
  6
Continuous
 62
     7
370
    15
100
AcDbCircle
 10
299.7797868346
 20
948.7529312626
 30
0.0
 40
5.000000000000028
100
AcDbArc
 50
182.0
 51
270.0
  0
ARC
  5
1A5
330
1F
100
AcDbEntity
  8
0
  6
Continuous
 62
     7
370
    15
100
AcDbCircle
 10
279.6784452221
 20
948.7529312626
 30
0.0
 40
4.999999999999971
100
AcDbArc
 50
270.0
 51
358.0
  0
ARC
  5
1A6
330
1F
100
AcDbEntity
  8
0
  6
Continuous
 62
     7
370
    15
100
AcDbCircle
 10
594.6784452221
 20
948.7529312626
 30
0.0
 40
4.999999999999914
100
AcDbArc
 50
270.0
 51
358.0
  0
LINE
  5
1A7
330
1F
100
AcDbEntity
  8
0
  6
Continuous
 62
     7
370
    15
100
AcDbLine
 10
614.7797855222
 20
943.7529164556
 30
0.0
 11
679.7032656753
 21
943.7529164556
 31
0.0
  0
LINE
  5
1A8
330
1F
100
AcDbEntity
  8
0
  6
Continuous
 62
     7
370
    15
100
AcDbLine
 10
699.7549536311
 20
943.7529164556
 30
0.0
 11
770.0881364429
 21
943.7529164556
 31
0.0
  0
LINE
  5
1A9
330
1F
100
AcDbEntity
  8
0
  6
Continuous
 62
     7
370
    15
100
AcDbLine
 10
499.7549581015
 20
943.7529164556
 30
0.0
 11
594.6784468973
 21
943.7529164556
 31
0.0
  0
LINE
  5
1AA
330
1F
100
AcDbEntity
  8
0
  6
Continuous
 62
     7
370
    15
100
AcDbLine
 10
484.6754002058
 20
948.5784190897
 30
0.0
 11
485.1509037101
 21
962.1951895956
 31
0.0
  0
LINE
  5
1AB
330
1F
100
AcDbEntity
  8
0
  6
Continuous
 62
     7
370
    15
100
AcDbLine
 10
299.7797879064
 20
943.7529164556
 30
0.0
 11
364.7032755101
 21
943.7529164556
 31
0.0
  0
LINE
  5
1AC
330
1F
100
AcDbEntity
  8
0
  6
Continuous
 62
     7
370
    15
100
AcDbLine
 10
384.7549597406
 20
943.7529164556
 30
0.0
 11
479.7032738709
 21
943.7529164556
 31
0.0
  0
LINE
  5
1AD
330
1F
100
AcDbEntity
  8
0
  6
Continuous
 62
     7
370
    15
100
AcDbLine
 10
204.3073179805
 20
962.1951895956
 30
0.0
 11
204.7963144862
 21
948.1923896078
 31
0.0
  0
LINE
  5
1AE
330
1F
100
AcDbEntity
  8
0
  6
Continuous
 62
     7
370
    15
100
AcDbLine
 10
369.6753981197
 20
948.5784190897
 30
0.0
 11
370.1509053492
 21
962.1951895956
 31
0.0
  0
LINE
  5
1AF
330
1F
100
AcDbEntity
  8
0
  6
Continuous
 62
     7
370
    15
100
AcDbLine
 10
494.307324537
 20
962.1951895956
 30
0.0
 11
494.7828354919
 21
948.5784190897
 31
0.0
  0
LINE
  5
1B0
330
1F
100
AcDbEntity
  8
0
  6
Continuous
 62
     7
370
    15
100
AcDbLine
 10
684.6753957355
 20
948.5784190897
 30
0.0
 11
685.1509215915
 21
962.1951895956
 31
0.0
  0
LINE
  5
1B1
330
1F
100
AcDbEntity
  8
0
  6
Continuous
 62
     7
370
    15
100
AcDbLine
 10
694.3073275173
 20
962.1951895956
 30
0.0
 11
694.782823571
 21
948.5784190897
 31
0.0
  0
LINE
  5
1B2
330
1F
100
AcDbEntity
  8
0
  6
Continuous
 62
     7
370
    15
100
AcDbLine
 10
209.3701067054
 20
943.7529164556
 30
0.0
 11
279.6784492814
 21
943.7529164556
 31
0.0
  0
LINE
  5
1B3
330
1F
100
AcDbEntity
  8
0
  6
Continuous
 62
     7
370
    15
100
AcDbLine
 10
379.3073261762
 20
962.1951895956
 30
0.0
 11
379.7828334057
 21
948.5784190897
 31
0.0
  0
LINE
  5
1B4
330
1F
100
AcDbEntity
  8
0
  6
Continuous
 62
     7
370
    15
100
AcDbLine
 10
774.661928662
 20
948.1923896078
 30
0.0
 11
775.1508953655
 21
962.1951895956
 31
0.0
  0
ELLIPSE
  5
1B5
330
1F
100
AcDbEntity
  8
0
  6
Continuous
 62
     7
370
    15
100
AcDbEllipse
 10
602.1496885642
 20
962.1253895095
 30
0.0
 11
1.614767790761334
 21
1.559363129458347
 31
0.0
210
0.0
220
0.0
230
1.0
 40
0.7755619389
 41
0.9279666223642521
 42
2.160169074272217
  0
LINE
  5
1B6
330
1F
100
AcDbEntity
  8
0
  6
Continuous
 62
     7
370
    15
100
AcDbLine
 10
600.1325550163
 20
961.6694766287
 30
0.0
 11
600.6432476127
 21
976.2941318754
 31
0.0
  0
ELLIPSE
  5
1B7
330
1F
100
AcDbEntity
  8
0
  6
Continuous
 62
     7
370
    15
100
AcDbEllipse
 10
607.3085434925
 20
962.1253895095
 30
0.0
 11
1.614767790761334
 21
-1.55936312945812
 31
0.0
210
0.0
220
0.0
230
1.0
 40
0.7755619389
 41
0.9814235793174803
 42
2.213626031225505
  0
LINE
  5
1B8
330
1F
100
AcDbEntity
  8
0
  6
Continuous
 62
     7
370
    15
100
AcDbLine
 10
608.8149848068
 20
976.2941318754
 30
0.0
 11
609.3256774032
 21
961.6694766287
 31
0.0
  0
ELLIPSE
  5
1B9
330
1F
100
AcDbEntity
  8
0
  6
Continuous
 62
     7
370
    15
100
AcDbEllipse
 10
292.3085434925
 20
962.1253895095
 30
0.0
 11
1.614767790761391
 21
-1.55936312945812
 31
0.0
210
0.0
220
0.0
230
1.0
 40
0.7755619389
 41
0.9814235793174672
 42
2.21362603122548
  0
LINE
  5
1BA
330
1F
100
AcDbEntity
  8
0
  6
Continuous
 62
     7
370
    15
100
AcDbLine
 10
293.8149722898
 20
976.2941318754
 30
0.0
 11
294.3256797874
 21
961.6694766287
 31
0.0
  0
ELLIPSE
  5
1BB
330
1F
100
AcDbEntity
  8
0
  6
Continuous
 62
     7
370
    15
100
AcDbEllipse
 10
287.1496885642
 20
962.1253895095
 30
0.0
 11
1.614767790761334
 21
1.559363129458347
 31
0.0
210
0.0
220
0.0
230
1.0
 40
0.7755619389
 41
0.927966622364263
 42
2.160169074272205
  0
LINE
  5
1BC
330
1F
100
AcDbEntity
  8
0
  6
Continuous
 62
     7
370
    15
100
AcDbLine
 10
285.1325424993
 20
961.6694766287
 30
0.0
 11
285.6432499969
 21
976.2941318754
 31
0.0
  0
ARC
  5
1BD
330
1F
100
AcDbEntity
  8
0
  6
Continuous
 62
     7
370
    15
100
AcDbCircle
 10
679.6784452221
 20
948.7529312626
 30
0.0
 40
4.999999999999914
100
AcDbArc
 50
270.0
 51
358.0
  0
ARC
  5
1BE
330
1F
100
AcDbEntity
  8
0
  6
Continuous
 62
     7
370
    15
100
AcDbCircle
 10
499.7797868346
 20
948.7529312626
 30
0.0
 40
5.000000000000028
100
AcDbArc
 50
182.0
 51
270.0
  0
ARC
  5
1BF
330
1F
100
AcDbEntity
  8
0
  6
Continuous
 62
     7
370
    15
100
AcDbCircle
 10
699.7797868346
 20
948.7529312626
 30
0.0
 40
5.000000000000028
100
AcDbArc
 50
182.0
 51
270.0
  0
ARC
  5
1C0
330
1F
100
AcDbEntity
  8
0
  6
Continuous
 62
     7
370
    15
100
AcDbCircle
 10
364.6784452221
 20
948.7529312626
 30
0.0
 40
5.000000000000028
100
AcDbArc
 50
270.0
 51
358.0
  0
ARC
  5
1C1
330
1F
100
AcDbEntity
  8
0
  6
Continuous
 62
     7
370
    15
100
AcDbCircle
 10
770.064720732
 20
948.3529312626
 30
0.0
 40
4.60000000000009
100
AcDbArc
 50
270.0
 51
358.0
  0
ARC
  5
1C2
330
1F
100
AcDbEntity
  8
0
  6
Continuous
 62
     7
370
    15
100
AcDbCircle
 10
479.6784452221
 20
948.7529312626
 30
0.0
 40
5.000000000000023
100
AcDbArc
 50
270.0
 51
358.0
  0
ARC
  5
1C3
330
1F
100
AcDbEntity
  8
0
  6
Continuous
 62
     7
370
    15
100
AcDbCircle
 10
384.7797868346
 20
948.7529312626
 30
0.0
 40
5.000000000000028
100
AcDbArc
 50
182.0
 51
270.0
  0
ARC
  5
1C4
330
1F
100
AcDbEntity
  8
0
  6
Continuous
 62
     7
370
    15
100
AcDbCircle
 10
209.3935113247
 20
948.3529312626
 30
0.0
 40
4.60000000000009
100
AcDbArc
 50
182.0
 51
270.0
  0
LINE
  5
1C5
330
1F
100
AcDbEntity
  8
0
  6
Continuous
 62
     7
370
    15
100
AcDbLine
 10
194.1640826547
 20
962.2997063402
 30
0.0
 11
195.397570976
 21
976.39864862
 31
0.0
  0
LINE
  5
1C6
330
1F
100
AcDbEntity
  8
0
  6
Continuous
 62
     7
370
    15
100
AcDbLine
 10
370.1509053492
 20
962.1951895956
 30
0.0
 11
370.6432546162
 21
976.2941318754
 31
0.0
  0
LINE
  5
1C7
330
1F
100
AcDbEntity
  8
0
  6
Continuous
 62
     7
370
    15
100
AcDbLine
 10
203.8149836147
 20
976.2941318754
 30
0.0
 11
204.3073179805
 21
962.1951895956
 31
0.0
  0
LINE
  5
1C8
330
1F
100
AcDbEntity
  8
0
  6
Continuous
 62
     7
370
    15
100
AcDbLine
 10
775.1508953655
 20
962.1951895956
 30
0.0
 11
775.6432595336
 21
976.2941318754
 31
0.0
  0
LINE
  5
1C9
330
1F
100
AcDbEntity
  8
0
  6
Continuous
 62
     7
370
    15
100
AcDbLine
 10
485.1509037101
 20
962.1951895956
 30
0.0
 11
485.6432529771
 21
976.2941318754
 31
0.0
  0
LINE
  5
1CA
330
1F
100
AcDbEntity
  8
0
  6
Continuous
 62
     7
370
    15
100
AcDbLine
 10
693.8149931514
 20
976.2941318754
 30
0.0
 11
694.3073275173
 21
962.1951895956
 31
0.0
  0
LINE
  5
1CB
330
1F
100
AcDbEntity
  8
0
  6
Continuous
 62
     7
370
    15
100
AcDbLine
 10
493.81497527
 20
976.2941318754
 30
0.0
 11
494.307324537
 21
962.1951895956
 31
0.0
  0
LINE
  5
1CC
330
1F
100
AcDbEntity
  8
0
  6
Continuous
 62
     7
370
    15
100
AcDbLine
 10
784.0606572711
 20
976.39864862
 30
0.0
 11
785.2941455924
 21
962.2997063402
 31
0.0
  0
LINE
  5
1CD
330
1F
100
AcDbEntity
  8
0
  6
Continuous
 62
     7
370
    15
100
AcDbLine
 10
378.8149806344
 20
976.2941318754
 30
0.0
 11
379.3073261762
 21
962.1951895956
 31
0.0
  0
LINE
  5
1CE
330
1F
100
AcDbEntity
  8
0
  6
Continuous
 62
     7
370
    15
100
AcDbLine
 10
685.1509215915
 20
962.1951895956
 30
0.0
 11
685.6432559573
 21
976.2941318754
 31
0.0
  0
LINE
  5
1CF
330
1F
100
AcDbEntity
  8
0
  6
Continuous
 62
     7
370
    15
100
AcDbLine
 10
889.7291126335
 20
711.1886534099
 30
0.0
 11
889.7291126335
 21
720.3172090653
 31
0.0
  0
LINE
  5
1D0
330
1F
100
AcDbEntity
  8
0
  6
Continuous
 62
     7
370
    15
100
AcDbLine
 10
89.7291305148
 20
711.1886534099
 30
0.0
 11
89.7291305148
 21
720.3172090653
 31
0.0
  0
LINE
  5
1D1
330
1F
100
AcDbEntity
  8
0
  6
Continuous
 62
     7
370
    15
100
AcDbLine
 10
89.7291305148
 20
666.988653988
 30
0.0
 11
89.7291305148
 21
711.1886534099
 31
0.0
  0
LINE
  5
1D2
330
1F
100
AcDbEntity
  8
0
  6
Continuous
 62
     7
370
    15
100
AcDbLine
 10
889.7291126335
 20
666.988653988
 30
0.0
 11
889.7291126335
 21
711.1886534099
 31
0.0
  0
LINE
  5
1D3
330
1F
100
AcDbEntity
  8
0
  6
Continuous
 62
     7
370
    15
100
AcDbLine
 10
889.7291126335
 20
720.3172090653
 30
0.0
 11
889.7291126335
 21
840.209873319
 31
0.0
  0
LINE
  5
1D4
330
1F
100
AcDbEntity
  8
0
  6
Continuous
 62
     7
370
    15
100
AcDbLine
 10
89.7291305148
 20
720.3172090653
 30
0.0
 11
89.7291305148
 21
840.209873319
 31
0.0
  0
LINE
  5
1D5
330
1F
100
AcDbEntity
  8
0
  6
Continuous
 62
     7
370
    15
100
AcDbLine
 10
889.7291126335
 20
660.7529315356
 30
0.0
 11
89.7291305148
 21
660.7529315356
 31
0.0
  0
LINE
  5
1D6
330
1F
100
AcDbEntity
  8
0
  6
Continuous
 62
     7
370
    15
100
AcDbLine
 10
89.7291305148
 20
660.7529315356
 30
0.0
 11
89.7291305148
 21
666.988653988
 31
0.0
  0
LINE
  5
1D7
330
1F
100
AcDbEntity
  8
0
  6
Continuous
 62
     7
370
    15
100
AcDbLine
 10
889.7291126335
 20
660.7529315356
 30
0.0
 11
889.7291126335
 21
666.988653988
 31
0.0
  0
LINE
  5
1D8
330
1F
100
AcDbEntity
  8
0
  6
Continuous
 62
     7
370
    15
100
AcDbLine
 10
89.7291305148
 20
847.7665650848
 30
0.0
 11
89.7291305148
 21
848.491610885
 31
0.0
  0
LINE
  5
1D9
330
1F
100
AcDbEntity
  8
0
  6
Continuous
 62
     7
370
    15
100
AcDbLine
 10
89.7291305148
 20
848.491610885
 30
0.0
 11
89.7419455135
 21
848.5871720318
 31
0.0
  0
ARC
  5
1DA
330
1F
100
AcDbEntity
  8
0
  6
Continuous
 62
     7
370
    15
100
AcDbCircle
 10
90.3176665862
 20
847.6967193492
 30
0.0
 40
0.5926661235981828
100
AcDbArc
 50
117.0312968648
 51
173.231960635
  0
LINE
  5
1DB
330
1F
100
AcDbEntity
  8
0
  6
Continuous
 62
     7
370
    15
100
AcDbLine
 10
889.7162976348
 20
848.5871422295
 30
0.0
 11
889.7291126335
 21
848.491610885
 31
0.0
  0
LINE
  5
1DC
330
1F
100
AcDbEntity
  8
0
  6
Continuous
 62
     7
370
    15
100
AcDbLine
 10
889.7291126335
 20
848.491610885
 30
0.0
 11
889.7291126335
 21
847.7665650848
 31
0.0
  0
ARC
  5
1DD
330
1F
100
AcDbEntity
  8
0
  6
Continuous
 62
     7
370
    15
100
AcDbCircle
 10
889.1405765621
 20
847.6967193492
 30
0.0
 40
0.5926661235982111
100
AcDbArc
 50
6.768039365
 51
62.9687031352
  0
LINE
  5
1DE
330
1F
100
AcDbEntity
  8
0
  6
Continuous
 62
     7
370
    15
100
AcDbLine
 10
889.7291126335
 20
841.8710398678
 30
0.0
 11
889.7291126335
 21
847.7665650848
 31
0.0
  0
LINE
  5
1DF
330
1F
100
AcDbEntity
  8
0
  6
Continuous
 62
     7
370
    15
100
AcDbLine
 10
89.7291305148
 20
841.8710398678
 30
0.0
 11
89.7291305148
 21
847.7665650848
 31
0.0
  0
LWPOLYLINE
  5
1E0
330
1F
100
AcDbEntity
  8
0
  6
Continuous
 62
     7
370
    15
100
AcDbPolyline
 90
       18
 70
   128
 43
0.0
 10
100.7291081035
 20
844.9138867859
 10
101.722538718
 20
844.9923712019
 10
102.5817694747
 20
845.2172148231
 10
103.190809735
 20
845.5580490831
 10
103.4673752868
 20
845.9688591961
 10
103.3741238201
 20
846.3941383366
 10
102.9236617172
 20
846.7764723305
 10
102.1768155181
 20
847.0642137531
 10
101.2344362819
 20
847.2185003761
 10
100.2238097274
 20
847.2185003761
 10
99.2814304912
 20
847.0642137531
 10
98.5345544898
 20
846.7764723305
 10
98.0840923869
 20
846.3941383366
 10
97.9908409202
 20
845.9688591961
 10
98.267406472
 20
845.5580490831
 10
98.8764467323
 20
845.2172148231
 10
99.7357072913
 20
844.9923712019
 10
100.7291081035
 20
844.9138867859
  0
LWPOLYLINE
  5
1E1
330
1F
100
AcDbEntity
  8
0
  6
Continuous
 62
     7
370
    15
100
AcDbPolyline
 90
       18
 70
   128
 43
0.0
 10
878.7291052425
 20
847.2382891182
 10
877.7357044303
 20
847.1598047022
 10
876.8764438712
 20
846.9349610809
 10
876.2674036109
 20
846.5941268209
 10
875.9908380592
 20
846.183316708
 10
876.0840895259
 20
845.7580375675
 10
876.5345814311
 20
845.3757035736
 10
877.2814276302
 20
845.0879621509
 10
878.2238068664
 20
844.9336755279
 10
879.2344334209
 20
844.9336755279
 10
880.1768126571
 20
845.0879621509
 10
880.9236588561
 20
845.3757035736
 10
881.3741507614
 20
845.7580375675
 10
881.4673724258
 20
846.183316708
 10
881.190806874
 20
846.5941268209
 10
880.5817666137
 20
846.9349610809
 10
879.7225358569
 20
847.1598047022
 10
878.7291052425
 20
847.2382891182
  0
ARC
  5
1E2
330
1F
100
AcDbEntity
  8
0
  6
Continuous
 62
     7
370
    15
100
AcDbCircle
 10
101.1369453311
 20
848.9746804425
 30
0.0
 40
3.36058699723712
100
AcDbArc
 50
263.0294634758
 51
311.004941565
  0
ARC
  5
1E3
330
1F
100
AcDbEntity
  8
0
  6
Continuous
 62
     7
370
    15
100
AcDbCircle
 10
100.3212248918
 20
848.9744480241
 30
0.0
 40
3.360361878073518
100
AcDbArc
 50
228.9934334743
 51
276.9717957054
  0
ARC
  5
1E4
330
1F
100
AcDbEntity
  8
0
  6
Continuous
 62
     7
370
    15
100
AcDbCircle
 10
878.7291201436
 20
849.8046079242
 30
0.0
 40
4.261059647010345
100
AcDbArc
 50
232.1804105463
 51
307.8195894537
  0
LINE
  5
1E5
330
1F
100
AcDbEntity
  8
0
  6
Continuous
 62
     7
370
    15
100
AcDbLine
 10
889.7291126335
 20
840.209873319
 30
0.0
 11
889.7291126335
 21
841.8710398678
 31
0.0
  0
LINE
  5
1E6
330
1F
100
AcDbEntity
  8
0
  6
Continuous
 62
     7
370
    15
100
AcDbLine
 10
89.7291305148
 20
840.209873319
 30
0.0
 11
89.7291305148
 21
841.8710398678
 31
0.0
  0
SPLINE
  5
1E7
330
1F
100
AcDbEntity
  8
0
  6
Continuous
 62
     7
370
    15
100
AcDbSpline
210
0.0
220
0.0
230
1.0
 70
     8
 71
     3
 72
     9
 73
     5
 74
     0
 42
0.00000001
 43
0.00000001
 12
1.0
 22
0.0
 32
0.0
 13
1.0
 23
0.0
 33
0.0
 40
0.0
 40
0.0
 40
0.0
 40
0.0
 40
0.5000303501464187
 40
1.0
 40
1.0
 40
1.0
 40
1.0
 10
356.899082907423
 20
729.8754806820328
 30
0.0
 10
356.9260149770773
 20
729.5835230368824
 30
0.0
 10
356.9798758470154
 20
728.9996431882594
 30
0.0
 10
357.3160113957011
 20
728.4849313603187
 30
0.0
 10
357.4840689682808
 20
728.2275910679276
 30
0.0
  0
SPLINE
  5
1E8
330
1F
100
AcDbEntity
  8
0
  6
Continuous
 62
     7
370
    15
100
AcDbSpline
210
0.0
220
0.0
230
1.0
 70
     8
 71
     3
 72
    20
 73
    16
 74
     0
 42
0.00000001
 43
0.00000001
 12
1.0
 22
0.0
 32
0.0
 13
1.0
 23
0.0
 33
0.0
 40
0.0
 40
0.0
 40
0.0
 40
0.0
 40
0.1249012278972804
 40
0.2498485390551133
 40
0.3748437476873308
 40
0.4998486956330486
 40
0.6248536772601696
 40
0.7498486777020517
 40
0.8747929740446704
 40
0.9374038225520325
 40
0.9686856672450469
 40
0.9843388908726491
 40
0.9952055081584557
 40
0.9983674213845917
 40
1.0
 40
1.0
 40
1.0
 40
1.0
 10
357.4840689682808
 20
728.2275910679276
 30
0.0
 10
357.9374342088985
 20
727.7114620866253
 30
0.0
 10
358.8443319626969
 20
726.6790136942968
 30
0.0
 10
360.6386473355056
 20
725.5203250008411
 30
0.0
 10
362.6222388572613
 20
724.7928068932512
 30
0.0
 10
364.7295921077506
 20
724.5539820593075
 30
0.0
 10
366.8346139219449
 20
724.793693409449
 30
0.0
 10
368.8251522680442
 20
725.5169957478378
 30
0.0
 10
370.3000059419004
 20
726.4964227589937
 30
0.0
 10
371.1951272663266
 20
727.3205681337027
 30
0.0
 10
371.5954483104535
 20
727.7685092789643
 30
0.0
 10
371.7963528137624
 20
728.0105453470205
 30
0.0
 10
371.898497031889
 20
728.1349944018104
 30
0.0
 10
371.9521565119347
 20
728.200662524107
 30
0.0
 10
371.968573003409
 20
728.2207507874172
 30
0.0
 10
371.9741630041447
 20
728.2275910679276
 30
0.0
  0
SPLINE
  5
1E9
330
1F
100
AcDbEntity
  8
0
  6
Continuous
 62
     7
370
    15
100
AcDbSpline
210
0.0
220
0.0
230
1.0
 70
     8
 71
     3
 72
     9
 73
     5
 74
     0
 42
0.00000001
 43
0.00000001
 12
1.0
 22
0.0
 32
0.0
 13
1.0
 23
0.0
 33
0.0
 40
0.0
 40
0.0
 40
0.0
 40
0.0
 40
0.4995034851813093
 40
1.0
 40
1.0
 40
1.0
 40
1.0
 10
371.9741630041447
 20
728.2275910679276
 30
0.0
 10
372.1420825145373
 20
728.4846771159963
 30
0.0
 10
372.4782553649262
 20
728.9993603077971
 30
0.0
 10
372.5321666531414
 20
729.5832472849298
 30
0.0
 10
372.5591490650024
 20
729.8754806820328
 30
0.0
  0
LINE
  5
1EA
330
1F
100
AcDbEntity
  8
0
  6
Continuous
 62
     7
370
    15
100
AcDbLine
 10
372.559149065
 20
729.875480682
 30
0.0
 11
372.559149065
 21
729.9661244456
 31
0.0
  0
LINE
  5
1EB
330
1F
100
AcDbEntity
  8
0
  6
Continuous
 62
     7
370
    15
100
AcDbLine
 10
356.8990829074
 20
729.9661244456
 30
0.0
 11
356.8990829074
 21
729.875480682
 31
0.0
  0
SPLINE
  5
1EC
330
1F
100
AcDbEntity
  8
0
  6
Continuous
 62
     7
370
    15
100
AcDbSpline
210
0.0
220
0.0
230
1.0
 70
     8
 71
     3
 72
    13
 73
     9
 74
     0
 42
0.00000001
 43
0.00000001
 12
1.0
 22
0.0
 32
0.0
 13
1.0
 23
0.0
 33
0.0
 40
0.0
 40
0.0
 40
0.0
 40
0.0
 40
0.0307398744124306
 40
0.2652349846112776
 40
0.5002295231331683
 40
0.7352241882872276
 40
0.9697187993271361
 40
1.0
 40
1.0
 40
1.0
 40
1.0
 10
360.4393007838573
 20
725.7437165085252
 30
0.0
 10
360.5156243007246
 20
725.6931056910564
 30
0.0
 10
361.1741717804622
 20
725.256416874037
 30
0.0
 10
362.6401524822672
 20
724.8383152703342
 30
0.0
 10
364.7292226276602
 20
724.5637727637251
 30
0.0
 10
366.8181790427879
 20
724.8384641024401
 30
0.0
 10
368.283032429947
 20
725.2558117520032
 30
0.0
 10
368.9404586476779
 20
725.691701405388
 30
0.0
 10
369.0156454825249
 20
725.7415521148617
 30
0.0
  0
SPLINE
  5
1ED
330
1F
100
AcDbEntity
  8
0
  6
Continuous
 62
     7
370
    15
100
AcDbSpline
210
0.0
220
0.0
230
1.0
 70
     8
 71
     3
 72
     9
 73
     5
 74
     0
 42
0.00000001
 43
0.00000001
 12
1.0
 22
0.0
 32
0.0
 13
1.0
 23
0.0
 33
0.0
 40
0.0
 40
0.0
 40
0.0
 40
0.0
 40
0.4999662626773057
 40
1.0
 40
1.0
 40
1.0
 40
1.0
 10
358.289074399456
 20
728.7512029711182
 30
0.0
 10
358.1770470819561
 20
728.9189454780769
 30
0.0
 10
357.9529773279292
 20
729.2544531302541
 30
0.0
 10
357.9170498733611
 20
729.6405256210268
 30
0.0
 10
357.8990849339809
 20
729.8335748914654
 30
0.0
  0
SPLINE
  5
1EE
330
1F
100
AcDbEntity
  8
0
  6
Continuous
 62
     7
370
    15
100
AcDbSpline
210
0.0
220
0.0
230
1.0
 70
     8
 71
     3
 72
    11
 73
     7
 74
     0
 42
0.00000001
 43
0.00000001
 12
1.0
 22
0.0
 32
0.0
 13
1.0
 23
0.0
 33
0.0
 40
0.0
 40
0.0
 40
0.0
 40
0.0
 40
0.2906883914205974
 40
0.5815764515248225
 40
0.8731197819642833
 40
1.0
 40
1.0
 40
1.0
 40
1.0
 10
371.1691575729694
 20
728.7512029711182
 30
0.0
 10
370.7670981815289
 20
728.3020199949441
 30
0.0
 10
369.9627032312059
 20
727.403345506802
 30
0.0
 10
368.3650940367058
 20
726.4213476523482
 30
0.0
 10
366.9403756632562
 20
725.8454982726245
 30
0.0
 10
366.0489562301125
 20
725.7702573881148
 30
0.0
 10
365.7786476099338
 20
725.7474417988236
 30
0.0
  0
SPLINE
  5
1EF
330
1F
100
AcDbEntity
  8
0
  6
Continuous
 62
     7
370
    15
100
AcDbSpline
210
0.0
220
0.0
230
1.0
 70
     8
 71
     3
 72
    11
 73
     7
 74
     0
 42
0.00000001
 43
0.00000001
 12
1.0
 22
0.0
 32
0.0
 13
1.0
 23
0.0
 33
0.0
 40
0.0
 40
0.0
 40
0.0
 40
0.0
 40
0.1266480105176405
 40
0.41827259376906
 40
0.7092350506742188
 40
1.0
 40
1.0
 40
1.0
 40
1.0
 10
363.677829750761
 20
725.7476429644997
 30
0.0
 10
363.4080946054924
 20
725.7704244570931
 30
0.0
 10
362.5172569335777
 20
725.8456634913107
 30
0.0
 10
361.0930870289914
 20
726.4213545355198
 30
0.0
 10
359.4956332573637
 20
727.4034979261602
 30
0.0
 10
358.6911696418312
 20
728.3020696502272
 30
0.0
 10
358.289074399456
 20
728.7512029711182
 30
0.0
  0
SPLINE
  5
1F0
330
1F
100
AcDbEntity
  8
0
  6
Continuous
 62
     7
370
    15
100
AcDbSpline
210
0.0
220
0.0
230
1.0
 70
     8
 71
     3
 72
     9
 73
     5
 74
     0
 42
0.00000001
 43
0.00000001
 12
1.0
 22
0.0
 32
0.0
 13
1.0
 23
0.0
 33
0.0
 40
0.0
 40
0.0
 40
0.0
 40
0.0
 40
0.5000337373226944
 40
1.0
 40
1.0
 40
1.0
 40
1.0
 10
371.5591470384445
 20
729.8335748914654
 30
0.0
 10
371.5411820990643
 20
729.6405256210268
 30
0.0
 10
371.5052546444962
 20
729.2544531302541
 30
0.0
 10
371.2811848904693
 20
728.9189454780769
 30
0.0
 10
371.1691575729694
 20
728.7512029711182
 30
0.0
  0
ARC
  5
1F1
330
1F
100
AcDbEntity
  8
0
  6
Continuous
 62
     7
370
    15
100
AcDbCircle
 10
364.7291141236
 20
737.5375623644
 30
0.0
 40
16.1935634094608
100
AcDbArc
 50
235.2478836768
 51
304.7521163232
  0
SPLINE
  5
1F2
330
1F
100
AcDbEntity
  8
0
  6
Continuous
 62
     7
370
    15
100
AcDbSpline
210
0.0
220
0.0
230
1.0
 70
     8
 71
     3
 72
     9
 73
     5
 74
     0
 42
0.00000001
 43
0.00000001
 12
1.0
 22
0.0
 32
0.0
 13
1.0
 23
0.0
 33
0.0
 40
0.0
 40
0.0
 40
0.0
 40
0.0
 40
0.4999931625858383
 40
1.0
 40
1.0
 40
1.0
 40
1.0
 10
371.5591470384445
 20
729.8754806820328
 30
0.0
 10
371.5411769171048
 20
729.6816527028515
 30
0.0
 10
371.505236182942
 20
729.2939914432875
 30
0.0
 10
371.2811847975817
 20
728.9565619701885
 30
0.0
 10
371.1691575729694
 20
728.7878449264939
 30
0.0
  0
SPLINE
  5
1F3
330
1F
100
AcDbEntity
  8
0
  6
Continuous
 62
     7
370
    15
100
AcDbSpline
210
0.0
220
0.0
230
1.0
 70
     8
 71
     3
 72
    15
 73
    11
 74
     0
 42
0.00000001
 43
0.00000001
 12
1.0
 22
0.0
 32
0.0
 13
1.0
 23
0.0
 33
0.0
 40
0.0
 40
0.0
 40
0.0
 40
0.0
 40
0.1249655547105916
 40
0.2499531111624046
 40
0.3749749828571367
 40
0.5000028948047498
 40
0.6250306752666214
 40
0.7500521848357199
 40
0.8750367005257573
 40
0.9999999999999999
 40
0.9999999999999999
 40
0.9999999999999999
 40
0.9999999999999999
 10
371.1691575729694
 20
728.7878449264939
 30
0.0
 10
370.766941639531
 20
728.3366244854706
 30
0.0
 10
369.9624389575329
 20
727.4341041604494
 30
0.0
 10
368.3688744418526
 20
726.41921803959
 30
0.0
 10
366.6027474139019
 20
725.7708216666613
 30
0.0
 10
364.729086471348
 20
725.551895603342
 30
0.0
 10
362.85544072958
 20
725.7708448700384
 30
0.0
 10
361.0893007173804
 20
726.4192079845768
 30
0.0
 10
359.4958999218997
 20
727.4342600710702
 30
0.0
 10
358.6913268088563
 20
728.3366755078033
 30
0.0
 10
358.289074399456
 20
728.7878449264939
 30
0.0
  0
SPLINE
  5
1F4
330
1F
100
AcDbEntity
  8
0
  6
Continuous
 62
     7
370
    15
100
AcDbSpline
210
0.0
220
0.0
230
1.0
 70
     8
 71
     3
 72
     9
 73
     5
 74
     0
 42
0.00000001
 43
0.00000001
 12
1.0
 22
0.0
 32
0.0
 13
1.0
 23
0.0
 33
0.0
 40
0.0
 40
0.0
 40
0.0
 40
0.0
 40
0.5000068374141617
 40
1.0
 40
1.0
 40
1.0
 40
1.0
 10
358.289074399456
 20
728.7878449264939
 30
0.0
 10
358.1770471748437
 20
728.9565619701885
 30
0.0
 10
357.9529957894833
 20
729.2939914432875
 30
0.0
 10
357.9170550553206
 20
729.6816527028515
 30
0.0
 10
357.8990849339809
 20
729.8754806820328
 30
0.0
  0
LINE
  5
1F5
330
1F
100
AcDbEntity
  8
0
  6
Continuous
 62
     7
370
    15
100
AcDbLine
 10
357.899084934
 20
729.875480682
 30
0.0
 11
357.899084934
 21
729.9661244456
 31
0.0
  0
LINE
  5
1F6
330
1F
100
AcDbEntity
  8
0
  6
Continuous
 62
     7
370
    15
100
AcDbLine
 10
371.5591470384
 20
729.9661244456
 30
0.0
 11
371.5591470384
 21
729.875480682
 31
0.0
  0
LINE
  5
1F7
330
1F
100
AcDbEntity
  8
0
  6
Continuous
 62
     7
370
    15
100
AcDbLine
 10
358.2890743995
 20
728.7512029711
 30
0.0
 11
358.2890743995
 21
728.7878449265
 31
0.0
  0
LINE
  5
1F8
330
1F
100
AcDbEntity
  8
0
  6
Continuous
 62
     7
370
    15
100
AcDbLine
 10
371.169157573
 20
728.7512029711
 30
0.0
 11
371.169157573
 21
728.7878449265
 31
0.0
  0
LINE
  5
1F9
330
1F
100
AcDbEntity
  8
0
  6
Continuous
 62
     7
370
    15
100
AcDbLine
 10
357.899084934
 20
729.8335748915
 30
0.0
 11
357.899084934
 21
729.875480682
 31
0.0
  0
LINE
  5
1FA
330
1F
100
AcDbEntity
  8
0
  6
Continuous
 62
     7
370
    15
100
AcDbLine
 10
371.5591470384
 20
729.8335748915
 30
0.0
 11
371.5591470384
 21
729.875480682
 31
0.0
  0
LINE
  5
1FB
330
1F
100
AcDbEntity
  8
0
  6
Continuous
 62
     7
370
    15
100
AcDbLine
 10
372.5655789161
 20
729.9615125362
 30
0.0
 11
372.5655789161
 21
756.0281175379
 31
0.0
  0
LINE
  5
1FC
330
1F
100
AcDbEntity
  8
0
  6
Continuous
 62
     7
370
    15
100
AcDbLine
 10
372.559149065
 20
813.676053584
 30
0.0
 11
372.559149065
 21
821.1903887991
 31
0.0
  0
LINE
  5
1FD
330
1F
100
AcDbEntity
  8
0
  6
Continuous
 62
     7
370
    15
100
AcDbLine
 10
356.8926530564
 20
756.0281175379
 30
0.0
 11
356.8926530564
 21
729.9615125362
 31
0.0
  0
LINE
  5
1FE
330
1F
100
AcDbEntity
  8
0
  6
Continuous
 62
     7
370
    15
100
AcDbLine
 10
356.8926530564
 20
821.1971390251
 30
0.0
 11
356.8926530564
 21
813.6743846539
 31
0.0
  0
LINE
  5
1FF
330
1F
100
AcDbEntity
  8
0
  6
Continuous
 62
     7
370
    15
100
AcDbLine
 10
357.899084934
 20
729.9682664875
 30
0.0
 11
357.899084934
 21
755.8168339733
 31
0.0
  0
LINE
  5
200
330
1F
100
AcDbEntity
  8
0
  6
Continuous
 62
     7
370
    15
100
AcDbLine
 10
371.5591470384
 20
755.8168339733
 30
0.0
 11
371.5591470384
 21
729.9682664875
 31
0.0
  0
LWPOLYLINE
  5
201
330
1F
100
AcDbEntity
  8
0
  6
Continuous
 62
     7
370
    15
100
AcDbPolyline
 90
       26
 70
   128
 43
0.0
 10
364.7291178489
 20
735.9602282945
 10
366.2212568009
 20
736.1310663823
 10
367.6196376467
 20
736.6328518096
 10
368.8363994145
 20
737.4340537194
 10
369.7950842464
 20
738.4843285386
 10
370.4354541981
 20
739.7176864747
 10
370.7172761345
 20
741.0566303138
 10
370.6228400254
 20
742.4170243744
 10
370.1580765331
 20
743.7133955959
 10
369.3521956587
 20
744.8642867807
 10
368.2558278227
 20
745.7973863188
 10
366.9378648186
 20
746.4540544156
 10
365.4811161244
 20
746.7930409316
 10
363.977115848
 20
746.7930409316
 10
362.5203671539
 20
746.4540544156
 10
361.2024041498
 20
745.7973863188
 10
360.1060363138
 20
744.8642867807
 10
359.3001554394
 20
743.7133955959
 10
358.835391947
 20
742.4170243744
 10
358.7409558379
 20
741.0566303138
 10
359.0227777743
 20
739.7176864747
 10
359.663147726
 20
738.4843285386
 10
360.6218325579
 20
737.4340537194
 10
361.8385943258
 20
736.6328518096
 10
363.2369751716
 20
736.1310663823
 10
364.7291178489
 20
735.9602282945
  0
LINE
  5
202
330
1F
100
AcDbEntity
  8
0
  6
Continuous
 62
     7
370
    15
100
AcDbLine
 10
372.5655789161
 20
729.9192491177
 30
0.0
 11
372.5655789161
 21
729.9615125362
 31
0.0
  0
ARC
  5
203
330
1F
100
AcDbEntity
  8
0
  6
Continuous
 62
     7
370
    15
100
AcDbCircle
 10
372.9704696589
 20
725.6866572391
 30
0.0
 40
1.758829466090726
100
AcDbArc
 50
304.2317449923
 51
359.1726590062
  0
ARC
  5
204
330
1F
100
AcDbEntity
  8
0
  6
Continuous
 62
     7
370
    15
100
AcDbCircle
 10
356.4877510769
 20
725.6866486096
 30
0.0
 40
1.758818106020096
100
AcDbArc
 50
180.827065191
 51
235.7682991716
  0
LINE
  5
205
330
1F
100
AcDbEntity
  8
0
  6
Continuous
 62
     7
370
    15
100
AcDbLine
 10
354.7291162097
 20
753.379786313
 30
0.0
 11
354.7291162097
 21
725.6612609331
 31
0.0
  0
LINE
  5
206
330
1F
100
AcDbEntity
  8
0
  6
Continuous
 62
     7
370
    15
100
AcDbLine
 10
374.7291157627
 20
725.6612609331
 30
0.0
 11
374.7291157627
 21
753.379786313
 31
0.0
  0
LWPOLYLINE
  5
207
330
1F
100
AcDbEntity
  8
0
  6
Continuous
 62
     7
370
    15
100
AcDbPolyline
 90
       14
 70
   128
 43
0.0
 10
370.729115107
 20
741.3558121029
 10
370.6228400254
 20
742.3747646812
 10
370.1580765331
 20
743.6711359028
 10
369.3521956587
 20
744.8220270876
 10
368.2558278227
 20
745.7551229004
 10
366.9378648186
 20
746.4117947225
 10
365.4811161244
 20
746.7507812385
 10
363.977115848
 20
746.7507812385
 10
362.5203671539
 20
746.4117947225
 10
361.2024041498
 20
745.7551229004
 10
360.1060363138
 20
744.8220270876
 10
359.3001554394
 20
743.6711359028
 10
358.835391947
 20
742.3747646812
 10
358.7291168654
 20
741.3558121029
  0
ARC
  5
208
330
1F
100
AcDbEntity
  8
0
  6
Continuous
 62
     7
370
    15
100
AcDbCircle
 10
364.8889469646
 20
741.4750656326
 30
0.0
 40
2.842672029811057
100
AcDbArc
 50
266.7768474788
 51
357.5956671687
  0
ARC
  5
209
330
1F
100
AcDbEntity
  8
0
  6
Continuous
 62
     7
370
    15
100
AcDbCircle
 10
364.5911333977
 20
741.4991724777
 30
0.0
 40
2.865606161915131
100
AcDbArc
 50
182.867586866
 51
272.7599692914
  0
LWPOLYLINE
  5
20A
330
1F
100
AcDbEntity
  8
0
  6
Continuous
 62
     7
370
    15
100
AcDbPolyline
 90
       19
 70
   128
 43
0.0
 10
364.7291178489
 20
738.6791500453
 10
365.7551782811
 20
738.8431224231
 10
366.657477119
 20
739.3152582649
 10
367.3271911824
 20
740.0386127833
 10
367.6835375511
 20
740.9259396795
 10
367.6835375511
 20
741.8702113632
 10
367.3271911824
 20
742.7575345341
 10
366.657477119
 20
743.4808890525
 10
365.7551782811
 20
743.9530248944
 10
364.7291178489
 20
744.1169972722
 10
363.7030574167
 20
743.9530248944
 10
362.8007548535
 20
743.4808890525
 10
362.1310407901
 20
742.7575345341
 10
361.7746944213
 20
741.8702113632
 10
361.7746944213
 20
740.9259396795
 10
362.1310407901
 20
740.0386127833
 10
362.8007548535
 20
739.3152582649
 10
363.7030574167
 20
738.8431224231
 10
364.7291178489
 20
738.6791500453
  0
SPLINE
  5
20B
330
1F
100
AcDbEntity
  8
0
  6
Continuous
 62
     7
370
    15
100
AcDbSpline
210
0.0
220
0.0
230
1.0
 70
     8
 71
     3
 72
    11
 73
     7
 74
     0
 42
0.00000001
 43
0.00000001
 12
1.0
 22
0.0
 32
0.0
 13
1.0
 23
0.0
 33
0.0
 40
0.0
 40
0.0
 40
0.0
 40
0.0
 40
0.2842291253984238
 40
0.5684737632357006
 40
0.8525192777678378
 40
1.0
 40
1.0
 40
1.0
 40
1.0
 10
375.9775089704838
 20
755.0578582290585
 30
0.0
 10
375.7773934094636
 20
754.9629810361452
 30
0.0
 10
375.3771513656699
 20
754.7732214721839
 30
0.0
 10
374.9544179160628
 20
754.2810605827049
 30
0.0
 10
374.7528989778257
 20
753.7931035619305
 30
0.0
 10
374.7351736618102
 20
753.4850636769709
 30
0.0
 10
374.7291157626953
 20
753.3797863129552
 30
0.0
  0
SPLINE
  5
20C
330
1F
100
AcDbEntity
  8
0
  6
Continuous
 62
     7
370
    15
100
AcDbSpline
210
0.0
220
0.0
230
1.0
 70
     8
 71
     3
 72
    11
 73
     7
 74
     0
 42
0.00000001
 43
0.00000001
 12
1.0
 22
0.0
 32
0.0
 13
1.0
 23
0.0
 33
0.0
 40
0.0
 40
0.0
 40
0.0
 40
0.0
 40
0.2842285969153563
 40
0.5684681129184159
 40
0.8525120086600326
 40
1.0
 40
1.0
 40
1.0
 40
1.0
 10
354.7291162097301
 20
753.3797863129552
 30
0.0
 10
354.7070989296406
 20
753.5834947893783
 30
0.0
 10
354.663063523633
 20
753.9909195680051
 30
0.0
 10
354.3181415589494
 20
754.5306375132352
 30
0.0
 10
353.8945807777295
 20
754.8829090629683
 30
0.0
 10
353.5861381124491
 20
755.0132951629967
 30
0.0
 10
353.4807192766514
 20
755.0578582290585
 30
0.0
  0
ARC
  5
20D
330
1F
100
AcDbEntity
  8
0
  6
Continuous
 62
     7
370
    15
100
AcDbCircle
 10
366.4237938632
 20
782.3115535501
 30
0.0
 40
28.87970534829938
100
AcDbArc
 50
289.3179881446
 51
329.5793303449
  0
ARC
  5
20E
330
1F
100
AcDbEntity
  8
0
  6
Continuous
 62
     7
370
    15
100
AcDbCircle
 10
363.2340854542
 20
782.5541849134
 30
0.0
 40
29.17492301490814
100
AcDbArc
 50
210.633039494
 51
250.4696283717
  0
LINE
  5
20F
330
1F
100
AcDbEntity
  8
0
  6
Continuous
 62
     7
370
    15
100
AcDbLine
 10
371.5591470384
 20
821.1903887991
 30
0.0
 11
371.5591470384
 21
813.9245304469
 31
0.0
  0
LWPOLYLINE
  5
210
330
1F
100
AcDbEntity
  8
0
  6
Continuous
 62
     7
370
    15
100
AcDbPolyline
 90
       15
 70
   128
 43
0.0
 10
366.8095173919
 20
814.8573803905
 10
367.3271911824
 20
815.4568690065
 10
367.6835375511
 20
816.3441884521
 10
367.6835375511
 20
817.2884601358
 10
367.3271911824
 20
818.1757944826
 10
366.657477119
 20
818.8991415504
 10
365.7551782811
 20
819.3712848429
 10
364.7291178489
 20
819.5352572206
 10
363.7030574167
 20
819.3712848429
 10
362.8007548535
 20
818.8991415504
 10
362.1310407901
 20
818.1757944826
 10
361.7746944213
 20
817.2884601358
 10
361.7746944213
 20
816.3441884521
 10
362.1310407901
 20
815.4568690065
 10
362.6487145805
 20
814.8573803905
  0
LINE
  5
211
330
1F
100
AcDbEntity
  8
0
  6
Continuous
 62
     7
370
    15
100
AcDbLine
 10
357.899084934
 20
813.9245304469
 30
0.0
 11
357.899084934
 21
821.1903887991
 31
0.0
  0
LINE
  5
212
330
1F
100
AcDbEntity
  8
0
  6
Continuous
 62
     7
370
    15
100
AcDbLine
 10
356.8990829074
 20
821.154879332
 30
0.0
 11
356.8926530564
 21
821.154879332
 31
0.0
  0
LINE
  5
213
330
1F
100
AcDbEntity
  8
0
  6
Continuous
 62
     7
370
    15
100
AcDbLine
 10
354.7291162097
 20
823.7663227323
 30
0.0
 11
354.7291162097
 21
813.0277860168
 31
0.0
  0
LINE
  5
214
330
1F
100
AcDbEntity
  8
0
  6
Continuous
 62
     7
370
    15
100
AcDbLine
 10
374.7291157627
 20
813.0277860168
 30
0.0
 11
374.7291157627
 21
823.7663227323
 31
0.0
  0
LWPOLYLINE
  5
215
330
1F
100
AcDbEntity
  8
0
  6
Continuous
 62
     7
370
    15
100
AcDbPolyline
 90
       11
 70
   128
 43
0.0
 10
367.729116478
 20
816.7740720514
 10
367.6835375511
 20
817.2462004427
 10
367.3271911824
 20
818.1335347895
 10
366.657477119
 20
818.8568818573
 10
365.7551782811
 20
819.3290251497
 10
364.7291178489
 20
819.4929975275
 10
363.7030574167
 20
819.3290251497
 10
362.8007548535
 20
818.8568818573
 10
362.1310407901
 20
818.1335347895
 10
361.7746944213
 20
817.2462004427
 10
361.7291154945
 20
816.7740720514
  0
SPLINE
  5
216
330
1F
100
AcDbEntity
  8
0
  6
Continuous
 62
     7
370
    15
100
AcDbSpline
210
0.0
220
0.0
230
1.0
 70
     8
 71
     3
 72
    10
 73
     6
 74
     0
 42
0.00000001
 43
0.00000001
 12
1.0
 22
0.0
 32
0.0
 13
1.0
 23
0.0
 33
0.0
 40
0.0
 40
0.0
 40
0.0
 40
0.0
 40
0.3852666751047736
 40
0.8904001614273025
 40
1.0
 40
1.0
 40
1.0
 40
1.0
 10
374.6760974311676
 20
824.1099733117993
 30
0.0
 10
374.6908537948347
 20
824.0700912154512
 30
0.0
 10
374.7249576232742
 20
823.9779186313137
 30
0.0
 10
374.7253720669944
 20
823.8673679582012
 30
0.0
 10
374.7262223528979
 20
823.8003667029226
 30
0.0
 10
374.7263739490356
 20
823.7884211543973
 30
0.0
  0
LINE
  5
217
330
1F
100
AcDbEntity
  8
0
  6
Continuous
 62
     7
370
    15
100
AcDbLine
 10
369.5591467106
 20
825.8080947403
 30
0.0
 11
359.8990852618
 21
825.8080947403
 31
0.0
  0
SPLINE
  5
218
330
1F
100
AcDbEntity
  8
0
  6
Continuous
 62
     7
370
    15
100
AcDbSpline
210
0.0
220
0.0
230
1.0
 70
     8
 71
     3
 72
    13
 73
     9
 74
     0
 42
0.00000001
 43
0.00000001
 12
1.0
 22
0.0
 32
0.0
 13
1.0
 23
0.0
 33
0.0
 40
0.0
 40
0.0
 40
0.0
 40
0.0
 40
0.2494004732452385
 40
0.4988202307593001
 40
0.6241388963325449
 40
0.7493988477502589
 40
0.8746793122137119
 40
1.0
 40
1.0
 40
1.0
 40
1.0
 10
359.8990852618065
 20
825.808094740289
 30
0.0
 10
359.506984432343
 20
825.7963033159361
 30
0.0
 10
358.7227524551984
 20
825.7727195554878
 30
0.0
 10
357.8893491889155
 20
825.5699447127103
 30
0.0
 10
357.3900540654853
 20
825.2782344151615
 30
0.0
 10
357.1123900444137
 20
824.9811703192657
 30
0.0
 10
356.9328496127692
 20
824.6137982169264
 30
0.0
 10
356.9103396802082
 20
824.3243922513708
 30
0.0
 10
356.899082907423
 20
824.1796660427029
 30
0.0
  0
LINE
  5
219
330
1F
100
AcDbEntity
  8
0
  6
Continuous
 62
     7
370
    15
100
AcDbLine
 10
356.8990829074
 20
824.1796660427
 30
0.0
 11
356.8990829074
 21
821.1925196651
 31
0.0
  0
SPLINE
  5
21A
330
1F
100
AcDbEntity
  8
0
  6
Continuous
 62
     7
370
    15
100
AcDbSpline
210
0.0
220
0.0
230
1.0
 70
     8
 71
     3
 72
    13
 73
     9
 74
     0
 42
0.00000001
 43
0.00000001
 12
1.0
 22
0.0
 32
0.0
 13
1.0
 23
0.0
 33
0.0
 40
0.0
 40
0.0
 40
0.0
 40
0.0
 40
0.1252386775714427
 40
0.2505132237013689
 40
0.3758005817126454
 40
0.5011269236950654
 40
0.7505487341436461
 40
1.0
 40
1.0
 40
1.0
 40
1.0
 10
372.5591490650024
 20
824.1796660427029
 30
0.0
 10
372.5479054489684
 20
824.324296401454
 30
0.0
 10
372.5254149967107
 20
824.6135985413233
 30
0.0
 10
372.3459913956043
 20
824.9809601522
 30
0.0
 10
372.0683448996123
 20
825.2781092392705
 30
0.0
 10
371.5691059082262
 20
825.5698775773084
 30
0.0
 10
370.7356376833498
 20
825.772708881762
 30
0.0
 10
369.951325804471
 20
825.7962989898294
 30
0.0
 10
369.559146710619
 20
825.808094740289
 30
0.0
  0
LINE
  5
21B
330
1F
100
AcDbEntity
  8
0
  6
Continuous
 62
     7
370
    15
100
AcDbLine
 10
372.559149065
 20
821.1925196651
 30
0.0
 11
372.559149065
 21
824.1796660427
 31
0.0
  0
SPLINE
  5
21C
330
1F
100
AcDbEntity
  8
0
  6
Continuous
 62
     7
370
    15
100
AcDbSpline
210
0.0
220
0.0
230
1.0
 70
     8
 71
     3
 72
     9
 73
     5
 74
     0
 42
0.00000001
 43
0.00000001
 12
1.0
 22
0.0
 32
0.0
 13
1.0
 23
0.0
 33
0.0
 40
0.0
 40
0.0
 40
0.0
 40
0.0
 40
0.1093180493830506
 40
1.0
 40
1.0
 40
1.0
 40
1.0
 10
354.7318580233898
 20
823.7884211543973
 30
0.0
 10
354.7318756706247
 20
823.8003897923577
 30
0.0
 10
354.7320371008276
 20
823.9098743470863
 30
0.0
 10
354.7639289191463
 20
824.0161105778116
 30
0.0
 10
354.792334386095
 20
824.1107332710202
 30
0.0
  0
LINE
  5
21D
330
1F
100
AcDbEntity
  8
0
  6
Continuous
 62
     7
370
    15
100
AcDbLine
 10
356.8990829074
 20
821.1971390251
 30
0.0
 11
356.8990829074
 21
821.154879332
 31
0.0
  0
SPLINE
  5
21E
330
1F
100
AcDbEntity
  8
0
  6
Continuous
 62
     7
370
    15
100
AcDbSpline
210
0.0
220
0.0
230
1.0
 70
     8
 71
     3
 72
    13
 73
     9
 74
     0
 42
0.00000001
 43
0.00000001
 12
1.0
 22
0.0
 32
0.0
 13
1.0
 23
0.0
 33
0.0
 40
0.0
 40
0.0
 40
0.0
 40
0.0
 40
0.1254580952843796
 40
0.2502375811777804
 40
0.3760688912613098
 40
0.5019117068474738
 40
0.7508283388456869
 40
0.9999999999999999
 40
0.9999999999999999
 40
0.9999999999999999
 40
0.9999999999999999
 10
357.8990849339809
 20
824.1796660427029
 30
0.0
 10
357.9064270263164
 20
824.2769371252855
 30
0.0
 10
357.9210714972263
 20
824.4709531460837
 30
0.0
 10
358.0413128876932
 20
824.7303443389724
 30
0.0
 10
358.2270311129676
 20
824.9538205097361
 30
0.0
 10
358.5604599251748
 20
825.1922782042295
 30
0.0
 10
359.1161218476852
 20
825.3898462957555
 30
0.0
 10
359.6380083856869
 20
825.4168145628851
 30
0.0
 10
359.8990852618065
 20
825.4303056005414
 30
0.0
  0
LINE
  5
21F
330
1F
100
AcDbEntity
  8
0
  6
Continuous
 62
     7
370
    15
100
AcDbLine
 10
359.8990852618
 20
825.4303056005
 30
0.0
 11
369.5591467106
 21
825.4303056005
 31
0.0
  0
SPLINE
  5
220
330
1F
100
AcDbEntity
  8
0
  6
Continuous
 62
     7
370
    15
100
AcDbSpline
210
0.0
220
0.0
230
1.0
 70
     8
 71
     3
 72
    13
 73
     9
 74
     0
 42
0.00000001
 43
0.00000001
 12
1.0
 22
0.0
 32
0.0
 13
1.0
 23
0.0
 33
0.0
 40
0.0
 40
0.0
 40
0.0
 40
0.0
 40
0.2497359775104721
 40
0.4987714533770925
 40
0.6241108363596403
 40
0.7493662887649056
 40
0.8741847591346956
 40
1.0
 40
1.0
 40
1.0
 40
1.0
 10
369.559146710619
 20
825.4303056005414
 30
0.0
 10
369.8208107169976
 20
825.416756823205
 30
0.0
 10
370.3434047703613
 20
825.389697272431
 30
0.0
 10
370.8989336728638
 20
825.1917485486681
 30
0.0
 10
371.2312496023686
 20
824.9534706999722
 30
0.0
 10
371.4167941207864
 20
824.730756384309
 30
0.0
 10
371.536497461134
 20
824.4714540274371
 30
0.0
 10
371.5515771886444
 20
824.2771862386713
 30
0.0
 10
371.5591470384445
 20
824.1796660427029
 30
0.0
  0
LINE
  5
221
330
1F
100
AcDbEntity
  8
0
  6
Continuous
 62
     7
370
    15
100
AcDbLine
 10
371.5591470384
 20
824.1796660427
 30
0.0
 11
371.5591470384
 21
821.1925196651
 31
0.0
  0
LINE
  5
222
330
1F
100
AcDbEntity
  8
0
  6
Continuous
 62
     7
370
    15
100
AcDbLine
 10
357.899084934
 20
821.1925196651
 30
0.0
 11
357.899084934
 21
824.1796660427
 31
0.0
  0
SPLINE
  5
223
330
1F
100
AcDbEntity
  8
0
  6
Continuous
 62
     7
370
    15
100
AcDbSpline
210
0.0
220
0.0
230
1.0
 70
     8
 71
     3
 72
    13
 73
     9
 74
     0
 42
0.00000001
 43
0.00000001
 12
1.0
 22
0.0
 32
0.0
 13
1.0
 23
0.0
 33
0.0
 40
0.0
 40
0.0
 40
0.0
 40
0.0
 40
0.251585565339396
 40
0.5017865233309255
 40
0.6267335875676348
 40
0.7512403597017387
 40
0.8755683300948134
 40
1.0
 40
1.0
 40
1.0
 40
1.0
 10
359.8990852618065
 20
825.7122951749737
 30
0.0
 10
359.5072654837963
 20
825.7007618546442
 30
0.0
 10
358.725782317563
 20
825.6777586878973
 30
0.0
 10
357.8911724801484
 20
825.4796276040888
 30
0.0
 10
357.3903952276816
 20
825.1933634677351
 30
0.0
 10
357.1123759394453
 20
824.9020406717716
 30
0.0
 10
356.9327334601413
 20
824.5409984699053
 30
0.0
 10
356.9103028751808
 20
824.25634032599
 30
0.0
 10
356.899082907423
 20
824.1139519218381
 30
0.0
  0
LINE
  5
224
330
1F
100
AcDbEntity
  8
0
  6
Continuous
 62
     7
370
    15
100
AcDbLine
 10
369.5591467106
 20
825.712295175
 30
0.0
 11
359.8990852618
 21
825.712295175
 31
0.0
  0
SPLINE
  5
225
330
1F
100
AcDbEntity
  8
0
  6
Continuous
 62
     7
370
    15
100
AcDbSpline
210
0.0
220
0.0
230
1.0
 70
     8
 71
     3
 72
    13
 73
     9
 74
     0
 42
0.00000001
 43
0.00000001
 12
1.0
 22
0.0
 32
0.0
 13
1.0
 23
0.0
 33
0.0
 40
0.0
 40
0.0
 40
0.0
 40
0.0
 40
0.1244316516525279
 40
0.2487593656149076
 40
0.373266504366793
 40
0.4982135502752411
 40
0.7484144715652401
 40
1.0
 40
1.0
 40
1.0
 40
1.0
 10
372.5591490650024
 20
824.1139519218381
 30
0.0
 10
372.5479286372185
 20
824.2563402269788
 30
0.0
 10
372.525497154068
 20
824.5409979003874
 30
0.0
 10
372.3458616403583
 20
824.9020417917317
 30
0.0
 10
372.0678357461857
 20
825.1933628331473
 30
0.0
 10
371.5670602914016
 20
825.4796278431269
 30
0.0
 10
370.7324494008323
 20
825.6777586119105
 30
0.0
 10
369.9509664037968
 20
825.7007618292687
 30
0.0
 10
369.559146710619
 20
825.7122951749737
 30
0.0
  0
LINE
  5
226
330
1F
100
AcDbEntity
  8
0
  6
Continuous
 62
     7
370
    15
100
AcDbLine
 10
354.7417896473
 20
823.970036507
 30
0.0
 11
354.7291162097
 21
823.7663227323
 31
0.0
  0
LINE
  5
227
330
1F
100
AcDbEntity
  8
0
  6
Continuous
 62
     7
370
    15
100
AcDbLine
 10
374.7291157627
 20
823.7663227323
 30
0.0
 11
374.7164460504
 21
823.970036507
 31
0.0
  0
SPLINE
  5
228
330
1F
100
AcDbEntity
  8
0
  6
Continuous
 62
     7
370
    15
100
AcDbSpline
210
0.0
220
0.0
230
1.0
 70
     8
 71
     3
 72
    11
 73
     7
 74
     0
 42
0.00000001
 43
0.00000001
 12
1.0
 22
0.0
 32
0.0
 13
1.0
 23
0.0
 33
0.0
 40
0.0
 40
0.0
 40
0.0
 40
0.0
 40
0.3703146132422603
 40
0.7441387057439071
 40
0.9441455118413967
 40
1.0
 40
1.0
 40
1.0
 40
1.0
 10
380.5585357034054
 20
767.3609349135335
 30
0.0
 10
380.5631181823933
 20
767.3638689905479
 30
0.0
 10
380.5723265686176
 20
767.3697649508853
 30
0.0
 10
380.5829545127709
 20
767.3796345624684
 30
0.0
 10
380.5879804229837
 20
767.3875905928162
 30
0.0
 10
380.5891943401985
 20
767.3908950433075
 30
0.0
 10
380.5894593381729
 20
767.3916164044316
 30
0.0
  0
ARC
  5
229
330
1F
100
AcDbEntity
  8
0
  6
Continuous
 62
     7
370
    15
100
AcDbCircle
 10
364.7291178489
 20
793.868079458
 30
0.0
 40
30.87392397337893
100
AcDbArc
 50
239.1553849372
 51
300.8446150628
  0
SPLINE
  5
22A
330
1F
100
AcDbEntity
  8
0
  6
Continuous
 62
     7
370
    15
100
AcDbSpline
210
0.0
220
0.0
230
1.0
 70
     8
 71
     3
 72
    10
 73
     6
 74
     0
 42
0.00000001
 43
0.00000001
 12
1.0
 22
0.0
 32
0.0
 13
1.0
 23
0.0
 33
0.0
 40
0.0
 40
0.0
 40
0.0
 40
0.0
 40
0.2117823460846472
 40
0.487996118801648
 40
1.0
 40
1.0
 40
1.0
 40
1.0
 10
348.8687726342525
 20
767.3916164044316
 30
0.0
 10
348.8700220335314
 20
767.3888743535848
 30
0.0
 10
348.8729009420439
 20
767.3825560263232
 30
0.0
 10
348.8836581726654
 20
767.3713996770166
 30
0.0
 10
348.8933830131484
 20
767.3650557493869
 30
0.0
 10
348.8996999943104
 20
767.3609349135335
 30
0.0
  0
LINE
  5
22B
330
1F
100
AcDbEntity
  8
0
  6
Continuous
 62
     7
370
    15
100
AcDbLine
 10
350.6342324102
 20
770.0035291914
 30
0.0
 11
353.1259449804
 21
782.9938548807
 31
0.0
  0
LINE
  5
22C
330
1F
100
AcDbEntity
  8
0
  6
Continuous
 62
     7
370
    15
100
AcDbLine
 10
353.1070875609
 20
782.9202207927
 30
0.0
 11
353.1132268393
 21
782.9509097341
 31
0.0
  0
LINE
  5
22D
330
1F
100
AcDbEntity
  8
0
  6
Continuous
 62
     7
370
    15
100
AcDbLine
 10
376.3511444115
 20
782.9202207927
 30
0.0
 11
376.3450051331
 21
782.9509097341
 31
0.0
  0
LINE
  5
22E
330
1F
100
AcDbEntity
  8
0
  6
Continuous
 62
     7
370
    15
100
AcDbLine
 10
376.3322869921
 20
782.9938548807
 30
0.0
 11
378.823995837
 21
770.0035291914
 31
0.0
  0
ARC
  5
22F
330
1F
100
AcDbEntity
  8
0
  6
Continuous
 62
     7
370
    15
100
AcDbCircle
 10
304.3194273057
 20
796.8773524467
 30
0.0
 40
50.74275980066963
100
AcDbArc
 50
344.121072408
 51
15.878927592
  0
ARC
  5
230
330
1F
100
AcDbEntity
  8
0
  6
Continuous
 62
     7
370
    15
100
AcDbCircle
 10
304.1965959329
 20
790.0665487906
 30
0.0
 40
50.58660729337316
100
AcDbArc
 50
1.5092568854
 51
13.5934417228
  0
ARC
  5
231
330
1F
100
AcDbEntity
  8
0
  6
Continuous
 62
     7
370
    15
100
AcDbCircle
 10
425.1388046667
 20
796.8773524467
 30
0.0
 40
50.74275980066963
100
AcDbArc
 50
164.121072408
 51
195.878927592
  0
ARC
  5
232
330
1F
100
AcDbEntity
  8
0
  6
Continuous
 62
     7
370
    15
100
AcDbCircle
 10
425.2488181688
 20
790.0677362306
 30
0.0
 40
50.57376632515427
100
AcDbArc
 50
166.8159716273
 51
178.4917055523
  0
ARC
  5
233
330
1F
100
AcDbEntity
  8
0
  6
Continuous
 62
     7
370
    15
100
AcDbCircle
 10
364.7291159862
 20
782.0043062451
 30
0.0
 40
1.504709461403962
100
AcDbArc
 50
184.5337330847
 51
355.4662669153
  0
LINE
  5
234
330
1F
100
AcDbEntity
  8
0
  6
Continuous
 62
     7
370
    15
100
AcDbLine
 10
366.2291171634
 20
781.8853649501
 30
0.0
 11
366.2291171634
 21
814.3254238371
 31
0.0
  0
LINE
  5
235
330
1F
100
AcDbEntity
  8
0
  6
Continuous
 62
     7
370
    15
100
AcDbLine
 10
363.229114809
 20
814.3254238371
 30
0.0
 11
363.229114809
 21
781.8853649501
 31
0.0
  0
LWPOLYLINE
  5
236
330
1F
100
AcDbEntity
  8
0
  6
Continuous
 62
     7
370
    15
100
AcDbPolyline
 90
       51
 70
   128
 43
0.0
 10
381.4334350312
 20
809.8806309704
 10
383.8321382785
 20
808.4436449412
 10
386.4758613193
 20
806.5033796433
 10
388.8813222432
 20
804.3232950572
 10
391.0221683466
 20
801.927262843
 10
392.8749414766
 20
799.3415462974
 10
394.4193425262
 20
796.5944799785
 10
395.6384530896
 20
793.7161418799
 10
396.5189124131
 20
790.7380852107
 10
397.0510775828
 20
787.6929360632
 10
397.2291166568
 20
784.6140506867
 10
397.0510775828
 20
781.5351653103
 10
396.5189124131
 20
778.4900087122
 10
395.6384530896
 20
775.511952043
 10
394.4193425262
 20
772.633621395
 10
392.8749414766
 20
769.8865476254
 10
391.0221683466
 20
767.3008310799
 10
388.8813222432
 20
764.9048063163
 10
386.4758613193
 20
762.7247142795
 10
383.8321382785
 20
760.7844489817
 10
380.9791172528
 20
759.105266929
 10
377.9480571532
 20
757.7055636052
 10
374.7721689427
 20
756.600672305
 10
371.4862468326
 20
755.8027076725
 10
368.1262920284
 20
755.3204017881
 10
364.7291178489
 20
755.1590445641
 10
361.331939944
 20
755.3204017881
 10
357.9719851398
 20
755.8027076725
 10
354.686066755
 20
756.600672305
 10
351.5101748192
 20
757.7055636052
 10
348.4791147196
 20
759.105266929
 10
345.626093694
 20
760.7844489817
 10
342.9823743784
 20
762.7247142795
 10
340.5769097292
 20
764.9048063163
 10
338.4360673511
 20
767.3008310799
 10
336.5832867706
 20
769.8865476254
 10
335.038885721
 20
772.633621395
 10
333.8197770202
 20
775.511952043
 10
332.9393195593
 20
778.4900087122
 10
332.4071543896
 20
781.5351653103
 10
332.2291153157
 20
784.6140506867
 10
332.4071543896
 20
787.6929360632
 10
332.9393195593
 20
790.7380852107
 10
333.8197770202
 20
793.7161418799
 10
335.038885721
 20
796.5944799785
 10
336.5832867706
 20
799.3415462974
 10
338.4360673511
 20
801.927262843
 10
340.5769097292
 20
804.3232950572
 10
342.9823743784
 20
806.5033796433
 10
345.626093694
 20
808.4436449412
 10
348.0248006666
 20
809.8806309704
  0
ARC
  5
237
330
1F
100
AcDbEntity
  8
0
  6
Continuous
 62
     7
370
    15
100
AcDbCircle
 10
367.9803171614
 20
788.004986399
 30
0.0
 40
25.57487319109399
100
AcDbArc
 50
11.2056358644
 51
55.384461545
  0
SPLINE
  5
238
330
1F
100
AcDbEntity
  8
0
  6
Continuous
 62
     7
370
    15
100
AcDbSpline
210
0.0
220
0.0
230
1.0
 70
     8
 71
     3
 72
     9
 73
     5
 74
     0
 42
0.00000001
 43
0.00000001
 12
1.0
 22
0.0
 32
0.0
 13
1.0
 23
0.0
 33
0.0
 40
0.0
 40
0.0
 40
0.0
 40
0.0
 40
0.4790265695844696
 40
1.0
 40
1.0
 40
1.0
 40
1.0
 10
380.5585357034054
 20
810.3195223215993
 30
0.0
 10
380.872272239877
 20
810.1293314724227
 30
0.0
 10
381.5272182416066
 20
809.7322953553207
 30
0.0
 10
382.1724230001882
 20
809.2854499716283
 30
0.0
 10
382.5085575365867
 20
809.0526553992207
 30
0.0
  0
ARC
  5
239
330
1F
100
AcDbEntity
  8
0
  6
Continuous
 62
     7
370
    15
100
AcDbCircle
 10
364.3917151777
 20
784.613080768
 30
0.0
 40
30.01372472369719
100
AcDbArc
 50
103.7498744421
 51
121.0753146089
  0
ARC
  5
23A
330
1F
100
AcDbEntity
  8
0
  6
Continuous
 62
     7
370
    15
100
AcDbCircle
 10
365.0665115593
 20
784.6130436226
 30
0.0
 40
30.01376116356769
100
AcDbArc
 50
58.9247073413
 51
76.2501396118
  0
SPLINE
  5
23B
330
1F
100
AcDbEntity
  8
0
  6
Continuous
 62
     7
370
    15
100
AcDbSpline
210
0.0
220
0.0
230
1.0
 70
     8
 71
     3
 72
     9
 73
     5
 74
     0
 42
0.00000001
 43
0.00000001
 12
1.0
 22
0.0
 32
0.0
 13
1.0
 23
0.0
 33
0.0
 40
0.0
 40
0.0
 40
0.0
 40
0.0
 40
0.5209740534626656
 40
1.0
 40
1.0
 40
1.0
 40
1.0
 10
346.9496744358387
 20
809.0526553992207
 30
0.0
 10
347.285810315039
 20
809.2854498398057
 30
0.0
 10
347.9310168794852
 20
809.7322944360723
 30
0.0
 10
348.5859635469815
 20
810.1293313419507
 30
0.0
 10
348.8996999943104
 20
810.3195223215993
 30
0.0
  0
ARC
  5
23C
330
1F
100
AcDbEntity
  8
0
  6
Continuous
 62
     7
370
    15
100
AcDbCircle
 10
361.6515602773
 20
787.9045084457
 30
0.0
 40
25.75635002994478
100
AcDbArc
 50
124.8064678968
 51
170.1764853321
  0
SPLINE
  5
23D
330
1F
100
AcDbEntity
  8
0
  6
Continuous
 62
     7
370
    15
100
AcDbSpline
210
0.0
220
0.0
230
1.0
 70
     8
 71
     3
 72
    14
 73
    10
 74
     0
 42
0.00000001
 43
0.00000001
 12
1.0
 22
0.0
 32
0.0
 13
1.0
 23
0.0
 33
0.0
 40
0.0
 40
0.0
 40
0.0
 40
0.0
 40
0.1175325178450985
 40
0.2938798622546953
 40
0.470164023137272
 40
0.6464416926049676
 40
0.8228169888998903
 40
0.9121599738801616
 40
0.9999999999999999
 40
0.9999999999999999
 40
0.9999999999999999
 40
0.9999999999999999
 10
381.1784277343597
 20
761.9284930828984
 30
0.0
 10
381.120340644739
 20
761.9944794580206
 30
0.0
 10
380.9750989175174
 20
762.159472663196
 30
0.0
 10
380.5677489871102
 20
762.2315672235487
 30
0.0
 10
380.052653249519
 20
762.1440213920846
 30
0.0
 10
379.5258718526979
 20
761.8797967114675
 30
0.0
 10
379.1553876771324
 20
761.5465601540506
 30
0.0
 10
378.9243786309882
 20
761.2475786541668
 30
0.0
 10
378.8472947715432
 20
761.0898747690538
 30
0.0
 10
378.8090797746029
 20
761.0116916898663
 30
0.0
  0
SPLINE
  5
23E
330
1F
100
AcDbEntity
  8
0
  6
Continuous
 62
     7
370
    15
100
AcDbSpline
210
0.0
220
0.0
230
1.0
 70
     8
 71
     3
 72
    10
 73
     6
 74
     0
 42
0.00000001
 43
0.00000001
 12
1.0
 22
0.0
 32
0.0
 13
1.0
 23
0.0
 33
0.0
 40
0.0
 40
0.0
 40
0.0
 40
0.0
 40
0.3936580578115293
 40
0.7873173852724916
 40
1.0
 40
1.0
 40
1.0
 40
1.0
 10
394.6169598632898
 20
782.9515579346593
 30
0.0
 10
394.5595061224398
 20
782.8193076087648
 30
0.0
 10
394.4445984554366
 20
782.5548065304345
 30
0.0
 10
394.2430696858844
 20
782.3681475016655
 30
0.0
 10
394.1152910369894
 20
782.378506354577
 30
0.0
 10
394.0704709523764
 20
782.3821398619588
 30
0.0
  0
SPLINE
  5
23F
330
1F
100
AcDbEntity
  8
0
  6
Continuous
 62
     7
370
    15
100
AcDbSpline
210
0.0
220
0.0
230
1.0
 70
     8
 71
     3
 72
    11
 73
     7
 74
     0
 42
0.00000001
 43
0.00000001
 12
1.0
 22
0.0
 32
0.0
 13
1.0
 23
0.0
 33
0.0
 40
0.0
 40
0.0
 40
0.0
 40
0.0
 40
0.2499851144911523
 40
0.4999935431453588
 40
0.7500029565518656
 40
1.0
 40
1.0
 40
1.0
 40
1.0
 10
393.5219666594114
 20
783.6176919940884
 30
0.0
 10
393.4815281756872
 20
783.3110128710259
 30
0.0
 10
393.4006474368567
 20
782.6976260233296
 30
0.0
 10
393.443390017493
 20
781.7209886554595
 30
0.0
 10
393.6145821084497
 20
780.8552008932244
 30
0.0
 10
393.8332726822841
 20
780.5011080334835
 30
0.0
 10
393.9426152640428
 20
780.3240659836705
 30
0.0
  0
SPLINE
  5
240
330
1F
100
AcDbEntity
  8
0
  6
Continuous
 62
     7
370
    15
100
AcDbSpline
210
0.0
220
0.0
230
1.0
 70
     8
 71
     3
 72
     9
 73
     5
 74
     0
 42
0.00000001
 43
0.00000001
 12
1.0
 22
0.0
 32
0.0
 13
1.0
 23
0.0
 33
0.0
 40
0.0
 40
0.0
 40
0.0
 40
0.0
 40
0.7087151007440354
 40
1.0
 40
1.0
 40
1.0
 40
1.0
 10
393.9426152640428
 20
780.3240659836705
 30
0.0
 10
394.1827348147059
 20
780.0690001381067
 30
0.0
 10
394.5215445146981
 20
779.7091011528925
 30
0.0
 10
394.8936274527142
 20
779.7604946759667
 30
0.0
 10
395.0020095938291
 20
779.7754648331578
 30
0.0
  0
LINE
  5
241
330
1F
100
AcDbEntity
  8
0
  6
Continuous
 62
     7
370
    15
100
AcDbLine
 10
396.6935987258
 20
781.6336023811
 30
0.0
 11
396.5132406586
 21
781.6225159172
 31
0.0
  0
SPLINE
  5
242
330
1F
100
AcDbEntity
  8
0
  6
Continuous
 62
     7
370
    15
100
AcDbSpline
210
0.0
220
0.0
230
1.0
 70
     8
 71
     3
 72
    11
 73
     7
 74
     0
 42
0.00000001
 43
0.00000001
 12
1.0
 22
0.0
 32
0.0
 13
1.0
 23
0.0
 33
0.0
 40
0.0
 40
0.0
 40
0.0
 40
0.0
 40
0.110746812017691
 40
0.4089677093253898
 40
0.70335911649543
 40
1.0
 40
1.0
 40
1.0
 40
1.0
 10
394.311174997076
 20
785.0250545147832
 30
0.0
 10
394.2762504912375
 20
785.0288097456732
 30
0.0
 10
394.1472806826093
 20
785.0426771261161
 30
0.0
 10
393.9428535242403
 20
784.8470428989812
 30
0.0
 10
393.7229564901858
 20
784.4276713963862
 30
0.0
 10
393.6162101167118
 20
784.0270176107065
 30
0.0
 10
393.5626337909546
 20
783.8259282711919
 30
0.0
  0
LINE
  5
243
330
1F
100
AcDbEntity
  8
0
  6
Continuous
 62
     7
370
    15
100
AcDbLine
 10
393.562633791
 20
783.8259282712
 30
0.0
 11
393.6160358274
 21
783.7921994928
 31
0.0
  0
SPLINE
  5
244
330
1F
100
AcDbEntity
  8
0
  6
Continuous
 62
     7
370
    15
100
AcDbSpline
210
0.0
220
0.0
230
1.0
 70
     8
 71
     3
 72
    12
 73
     8
 74
     0
 42
0.00000001
 43
0.00000001
 12
1.0
 22
0.0
 32
0.0
 13
1.0
 23
0.0
 33
0.0
 40
0.0
 40
0.0
 40
0.0
 40
0.0
 40
0.1680990067983822
 40
0.3760639037825816
 40
0.5840485108692787
 40
0.7920166702093087
 40
1.0
 40
1.0
 40
1.0
 40
1.0
 10
393.8584404671039
 20
784.1192576292927
 30
0.0
 10
393.8831488583792
 20
784.1181364686427
 30
0.0
 10
393.9384254138815
 20
784.1156282560194
 30
0.0
 10
394.0221932620003
 20
784.031318171106
 30
0.0
 10
394.1002165120148
 20
783.8891980137635
 30
0.0
 10
394.1624781196017
 20
783.6981079735925
 30
0.0
 10
394.1836276123144
 20
783.5479793576312
 30
0.0
 10
394.1942027443495
 20
783.472912311929
 30
0.0
  0
SPLINE
  5
245
330
1F
100
AcDbEntity
  8
0
  6
Continuous
 62
     7
370
    15
100
AcDbSpline
210
0.0
220
0.0
230
1.0
 70
     8
 71
     3
 72
    11
 73
     7
 74
     0
 42
0.00000001
 43
0.00000001
 12
1.0
 22
0.0
 32
0.0
 13
1.0
 23
0.0
 33
0.0
 40
0.0
 40
0.0
 40
0.0
 40
0.0
 40
0.250015986982042
 40
0.5000224217230155
 40
0.7499949731095352
 40
1.0
 40
1.0
 40
1.0
 40
1.0
 10
394.1942027443495
 20
783.472912311929
 30
0.0
 10
394.219996072734
 20
783.3911162406068
 30
0.0
 10
394.2715817440298
 20
783.2275272231061
 30
0.0
 10
394.3786024808501
 20
783.0638423295627
 30
0.0
 10
394.4975510795367
 20
782.9749149665479
 30
0.0
 10
394.5766237485963
 20
782.9925181826941
 30
0.0
 10
394.616162651166
 20
783.0013203624661
 30
0.0
  0
SPLINE
  5
246
330
1F
100
AcDbEntity
  8
0
  6
Continuous
 62
     7
370
    15
100
AcDbSpline
210
0.0
220
0.0
230
1.0
 70
     8
 71
     3
 72
    12
 73
     8
 74
     0
 42
0.00000001
 43
0.00000001
 12
1.0
 22
0.0
 32
0.0
 13
1.0
 23
0.0
 33
0.0
 40
0.0
 40
0.0
 40
0.0
 40
0.0
 40
0.2648481474583492
 40
0.5021999442838173
 40
0.6218872233534809
 40
0.7416790250521164
 40
1.0
 40
1.0
 40
1.0
 40
1.0
 10
394.616162651166
 20
783.0013203624661
 30
0.0
 10
394.61736833486
 20
782.9972736490085
 30
0.0
 10
394.6196545290049
 20
782.9896003490724
 30
0.0
 10
394.6207697969402
 20
782.9779892326301
 30
0.0
 10
394.6205963519808
 20
782.9693186240394
 30
0.0
 10
394.6196968844113
 20
782.9605733558889
 30
0.0
 10
394.6180707879741
 20
782.9552171881098
 30
0.0
 10
394.6169598632898
 20
782.9515579346593
 30
0.0
  0
LINE
  5
247
330
1F
100
AcDbEntity
  8
0
  6
Continuous
 62
     7
370
    15
100
AcDbLine
 10
380.678437897
 20
810.2888482813
 30
0.0
 11
381.9720337772
 21
809.5289561156
 31
0.0
  0
LINE
  5
248
330
1F
100
AcDbEntity
  8
0
  6
Continuous
 62
     7
370
    15
100
AcDbLine
 10
381.2884616339
 20
809.9476042394
 30
0.0
 11
382.0686640823
 21
809.502692819
 31
0.0
  0
LINE
  5
249
330
1F
100
AcDbEntity
  8
0
  6
Continuous
 62
     7
370
    15
100
AcDbLine
 10
380.2059630537
 20
810.5420637134
 30
0.0
 11
380.5905210459
 21
810.3321361545
 31
0.0
  0
LINE
  5
24A
330
1F
100
AcDbEntity
  8
0
  6
Continuous
 62
     7
370
    15
100
AcDbLine
 10
380.5905210459
 20
810.3321361545
 30
0.0
 11
380.678437897
 21
810.2888482813
 31
0.0
  0
SPLINE
  5
24B
330
1F
100
AcDbEntity
  8
0
  6
Continuous
 62
     7
370
    15
100
AcDbSpline
210
0.0
220
0.0
230
1.0
 70
     8
 71
     3
 72
    11
 73
     7
 74
     0
 42
0.00000001
 43
0.00000001
 12
1.0
 22
0.0
 32
0.0
 13
1.0
 23
0.0
 33
0.0
 40
0.0
 40
0.0
 40
0.0
 40
0.0
 40
0.2500019946694642
 40
0.5000047163165464
 40
0.7499995379768795
 40
0.9999999999999999
 40
0.9999999999999999
 40
0.9999999999999999
 40
0.9999999999999999
 10
370.9341774368133
 20
761.3701018694813
 30
0.0
 10
370.7402231685266
 20
761.3123781060965
 30
0.0
 10
370.3523140679559
 20
761.1969304114726
 30
0.0
 10
369.8886426542816
 20
760.8494029407826
 30
0.0
 10
369.5847806003233
 20
760.4242069839676
 30
0.0
 10
369.5716849009638
 20
760.1268100439895
 30
0.0
 10
369.5651369774189
 20
759.9781098965581
 30
0.0
  0
LINE
  5
24C
330
1F
100
AcDbEntity
  8
0
  6
Continuous
 62
     7
370
    15
100
AcDbLine
 10
369.5651369774
 20
759.9781098966
 30
0.0
 11
369.6326243365
 21
759.7803118829
 31
0.0
  0
SPLINE
  5
24D
330
1F
100
AcDbEntity
  8
0
  6
Continuous
 62
     7
370
    15
100
AcDbSpline
210
0.0
220
0.0
230
1.0
 70
     8
 71
     3
 72
     9
 73
     5
 74
     0
 42
0.00000001
 43
0.00000001
 12
1.0
 22
0.0
 32
0.0
 13
1.0
 23
0.0
 33
0.0
 40
0.0
 40
0.0
 40
0.0
 40
0.0
 40
0.6158628273032459
 40
1.0
 40
1.0
 40
1.0
 40
1.0
 10
372.4125626170483
 20
758.0077144507344
 30
0.0
 10
372.2938060228418
 20
758.1044291958019
 30
0.0
 10
372.100976404067
 20
758.261468622083
 30
0.0
 10
372.0353240966835
 20
758.4814364726116
 30
0.0
 10
372.0101046049442
 20
758.5659343007977
 30
0.0
  0
SPLINE
  5
24E
330
1F
100
AcDbEntity
  8
0
  6
Continuous
 62
     7
370
    15
100
AcDbSpline
210
0.0
220
0.0
230
1.0
 70
     8
 71
     3
 72
    12
 73
     8
 74
     0
 42
0.00000001
 43
0.00000001
 12
1.0
 22
0.0
 32
0.0
 13
1.0
 23
0.0
 33
0.0
 40
0.0
 40
0.0
 40
0.0
 40
0.0
 40
0.1009845942865283
 40
0.3257403936200879
 40
0.5504959083934864
 40
0.7752498316872974
 40
1.0
 40
1.0
 40
1.0
 40
1.0
 10
372.5574503326263
 20
760.7621568445142
 30
0.0
 10
372.5438098339649
 20
760.8103198481044
 30
0.0
 10
372.499810435497
 20
760.9656765721497
 30
0.0
 10
372.2893835531661
 20
761.1707150772686
 30
0.0
 10
371.9539662222333
 20
761.3485049444624
 30
0.0
 10
371.5349739834553
 20
761.4354854409805
 30
0.0
 10
371.2304875389821
 20
761.4093505473526
 30
0.0
 10
371.0782455885258
 20
761.3962832096989
 30
0.0
  0
SPLINE
  5
24F
330
1F
100
AcDbEntity
  8
0
  6
Continuous
 62
     7
370
    15
100
AcDbSpline
210
0.0
220
0.0
230
1.0
 70
     8
 71
     3
 72
    11
 73
     7
 74
     0
 42
0.00000001
 43
0.00000001
 12
1.0
 22
0.0
 32
0.0
 13
1.0
 23
0.0
 33
0.0
 40
0.0
 40
0.0
 40
0.0
 40
0.0
 40
0.2499828949295003
 40
0.4999276362774591
 40
0.7489689250737028
 40
1.0
 40
1.0
 40
1.0
 40
1.0
 10
371.5282457554188
 20
761.1525002125676
 30
0.0
 10
371.5397761845446
 20
761.1193791143435
 30
0.0
 10
371.5628352829673
 20
761.0531419729951
 30
0.0
 10
371.5443799261395
 20
760.9427175212855
 30
0.0
 10
371.4910620676845
 20
760.833764715177
 30
0.0
 10
371.4254633148589
 20
760.77215043475
 30
0.0
 10
371.3925334298458
 20
760.7412207130368
 30
0.0
  0
SPLINE
  5
250
330
1F
100
AcDbEntity
  8
0
  6
Continuous
 62
     7
370
    15
100
AcDbSpline
210
0.0
220
0.0
230
1.0
 70
     8
 71
     3
 72
     9
 73
     5
 74
     0
 42
0.00000001
 43
0.00000001
 12
1.0
 22
0.0
 32
0.0
 13
1.0
 23
0.0
 33
0.0
 40
0.0
 40
0.0
 40
0.0
 40
0.0
 40
0.4991474719268892
 40
1.0
 40
1.0
 40
1.0
 40
1.0
 10
371.3925334298458
 20
760.7412207130368
 30
0.0
 10
371.367791225042
 20
760.6949237093653
 30
0.0
 10
371.3182222976303
 20
760.6021715543903
 30
0.0
 10
371.3235284232163
 20
760.5095879377009
 30
0.0
 10
371.3261860096302
 20
760.4632171992238
 30
0.0
  0
SPLINE
  5
251
330
1F
100
AcDbEntity
  8
0
  6
Continuous
 62
     7
370
    15
100
AcDbSpline
210
0.0
220
0.0
230
1.0
 70
     8
 71
     3
 72
    11
 73
     7
 74
     0
 42
0.00000001
 43
0.00000001
 12
1.0
 22
0.0
 32
0.0
 13
1.0
 23
0.0
 33
0.0
 40
0.0
 40
0.0
 40
0.0
 40
0.0
 40
0.2782767595796078
 40
0.5151599250715887
 40
0.7437938017773718
 40
1.0
 40
1.0
 40
1.0
 40
1.0
 10
371.4747096085396
 20
760.2349463108952
 30
0.0
 10
371.4733057519459
 20
760.2326539581759
 30
0.0
 10
371.4707068620541
 20
760.2284102395953
 30
0.0
 10
371.4643100288128
 20
760.2232793556052
 30
0.0
 10
371.456400270207
 20
760.2202434663536
 30
0.0
 10
371.450998856501
 20
760.2200405951338
 30
0.0
 10
371.4481445634212
 20
760.2199333909924
 30
0.0
  0
SPLINE
  5
252
330
1F
100
AcDbEntity
  8
0
  6
Continuous
 62
     7
370
    15
100
AcDbSpline
210
0.0
220
0.0
230
1.0
 70
     8
 71
     3
 72
    11
 73
     7
 74
     0
 42
0.00000001
 43
0.00000001
 12
1.0
 22
0.0
 32
0.0
 13
1.0
 23
0.0
 33
0.0
 40
0.0
 40
0.0
 40
0.0
 40
0.0
 40
0.2499991996535444
 40
0.499989580713786
 40
0.7499891924948713
 40
1.0
 40
1.0
 40
1.0
 40
1.0
 10
371.4481445634212
 20
760.2199333909924
 30
0.0
 10
371.3292437546933
 20
760.2312098573966
 30
0.0
 10
371.0914463314026
 20
760.2537623924333
 30
0.0
 10
370.8036469129691
 20
760.4011124062591
 30
0.0
 10
370.5957567134953
 20
760.6122069655463
 30
0.0
 10
370.552834539996
 20
760.7908006791282
 30
0.0
 10
370.5313729727116
 20
760.8800995353635
 30
0.0
  0
SPLINE
  5
253
330
1F
100
AcDbEntity
  8
0
  6
Continuous
 62
     7
370
    15
100
AcDbSpline
210
0.0
220
0.0
230
1.0
 70
     8
 71
     3
 72
    10
 73
     6
 74
     0
 42
0.00000001
 43
0.00000001
 12
1.0
 22
0.0
 32
0.0
 13
1.0
 23
0.0
 33
0.0
 40
0.0
 40
0.0
 40
0.0
 40
0.0
 40
0.3334609948067361
 40
0.6667152911551069
 40
1.0
 40
1.0
 40
1.0
 40
1.0
 10
386.3147462391701
 20
765.9716475013669
 30
0.0
 10
386.2814616226667
 20
765.8000006223032
 30
0.0
 10
386.214913021395
 20
765.4568132608634
 30
0.0
 10
386.3245291777666
 20
765.0279375993259
 30
0.0
 10
386.5233968329344
 20
764.8857012199014
 30
0.0
 10
386.6228351974335
 20
764.8145797852452
 30
0.0
  0
SPLINE
  5
254
330
1F
100
AcDbEntity
  8
0
  6
Continuous
 62
     7
370
    15
100
AcDbSpline
210
0.0
220
0.0
230
1.0
 70
     8
 71
     3
 72
    14
 73
    10
 74
     0
 42
0.00000001
 43
0.00000001
 12
1.0
 22
0.0
 32
0.0
 13
1.0
 23
0.0
 33
0.0
 40
0.0
 40
0.0
 40
0.0
 40
0.0
 40
0.0273984575773108
 40
0.2217577808471113
 40
0.4160493255152682
 40
0.6103309247857382
 40
0.8047216890647921
 40
0.903209832609397
 40
1.0
 40
1.0
 40
1.0
 40
1.0
 10
388.1373482429829
 20
767.3818337921078
 30
0.0
 10
388.1255381944781
 20
767.3937949926287
 30
0.0
 10
388.0299499614281
 20
767.4906066206663
 30
0.0
 10
387.7373876016398
 20
767.4843196580573
 30
0.0
 10
387.313921860069
 20
767.3322396587293
 30
0.0
 10
386.8813746598742
 20
766.9805589264072
 30
0.0
 10
386.5840491465186
 20
766.5803168227174
 30
0.0
 10
386.4018784105642
 20
766.2347230683906
 30
0.0
 10
386.3436214450899
 20
766.0588295496132
 30
0.0
 10
386.3147462391701
 20
765.9716475013669
 30
0.0
  0
SPLINE
  5
255
330
1F
100
AcDbEntity
  8
0
  6
Continuous
 62
     7
370
    15
100
AcDbSpline
210
0.0
220
0.0
230
1.0
 70
     8
 71
     3
 72
    10
 73
     6
 74
     0
 42
0.00000001
 43
0.00000001
 12
1.0
 22
0.0
 32
0.0
 13
1.0
 23
0.0
 33
0.0
 40
0.0
 40
0.0
 40
0.0
 40
0.0
 40
0.3334408904761941
 40
0.6667007399334419
 40
1.0
 40
1.0
 40
1.0
 40
1.0
 10
391.8924892926063
 20
772.7128434184964
 30
0.0
 10
391.8825825016823
 20
772.5300190099094
 30
0.0
 10
391.8627742987052
 20
772.1644694568574
 30
0.0
 10
391.9919012150735
 20
771.7262495257764
 30
0.0
 10
392.1660732715058
 20
771.5964450426371
 30
0.0
 10
392.2531644487228
 20
771.5315389636929
 30
0.0
  0
SPLINE
  5
256
330
1F
100
AcDbEntity
  8
0
  6
Continuous
 62
     7
370
    15
100
AcDbSpline
210
0.0
220
0.0
230
1.0
 70
     8
 71
     3
 72
    13
 73
     9
 74
     0
 42
0.00000001
 43
0.00000001
 12
1.0
 22
0.0
 32
0.0
 13
1.0
 23
0.0
 33
0.0
 40
0.0
 40
0.0
 40
0.0
 40
0.0
 40
0.1510517639064512
 40
0.3629900156435432
 40
0.5749153956257848
 40
0.7869592637791707
 40
0.8944216550246593
 40
0.9999999999999999
 40
0.9999999999999999
 40
0.9999999999999999
 40
0.9999999999999999
 10
393.0782007658329
 20
774.383591413873
 30
0.0
 10
393.0094631400534
 20
774.3970552211372
 30
0.0
 10
392.8442808792725
 20
774.429409875483
 30
0.0
 10
392.5460434880034
 20
774.2178685250445
 30
0.0
 10
392.2432078819095
 20
773.8231388737107
 30
0.0
 10
392.0469031495873
 20
773.3747678171148
 30
0.0
 10
391.9362473186479
 20
772.9964706814177
 30
0.0
 10
391.9069890518534
 20
772.8068267948112
 30
0.0
 10
391.8924892926063
 20
772.7128434184964
 30
0.0
  0
SPLINE
  5
257
330
1F
100
AcDbEntity
  8
0
  6
Continuous
 62
     7
370
    15
100
AcDbSpline
210
0.0
220
0.0
230
1.0
 70
     8
 71
     3
 72
    12
 73
     8
 74
     0
 42
0.00000001
 43
0.00000001
 12
1.0
 22
0.0
 32
0.0
 13
1.0
 23
0.0
 33
0.0
 40
0.0
 40
0.0
 40
0.0
 40
0.0
 40
0.3037198916368208
 40
0.6074489564497704
 40
0.911193061809647
 40
0.9695311506621395
 40
1.0
 40
1.0
 40
1.0
 40
1.0
 10
380.5894593381729
 20
767.3916164044316
 30
0.0
 10
380.6164755282966
 20
767.4937927910181
 30
0.0
 10
380.6705087245074
 20
767.6981486501994
 30
0.0
 10
380.6685793777702
 20
768.0433306140017
 30
0.0
 10
380.6208389140062
 20
768.2814823462676
 30
0.0
 10
380.5774032634562
 20
768.4082195442019
 30
0.0
 10
380.5666449699395
 20
768.4359275953689
 30
0.0
 10
380.5629538976993
 20
768.4454339746411
 30
0.0
  0
SPLINE
  5
258
330
1F
100
AcDbEntity
  8
0
  6
Continuous
 62
     7
370
    15
100
AcDbSpline
210
0.0
220
0.0
230
1.0
 70
     8
 71
     3
 72
    12
 73
     8
 74
     0
 42
0.00000001
 43
0.00000001
 12
1.0
 22
0.0
 32
0.0
 13
1.0
 23
0.0
 33
0.0
 40
0.0
 40
0.0
 40
0.0
 40
0.0
 40
0.0304699129121832
 40
0.0888079377678735
 40
0.3925517099208893
 40
0.6962804415434776
 40
1.0
 40
1.0
 40
1.0
 40
1.0
 10
348.8952818000164
 20
768.4454339746411
 30
0.0
 10
348.8915892875453
 20
768.4359276583699
 30
0.0
 10
348.8808270507552
 20
768.4082204461356
 30
0.0
 10
348.8373965475142
 20
768.2814812723213
 30
0.0
 10
348.7896511825775
 20
768.0433310486403
 30
0.0
 10
348.7877236009177
 20
767.6981485415458
 30
0.0
 10
348.8417565617942
 20
767.4937927548007
 30
0.0
 10
348.8687726342525
 20
767.3916164044316
 30
0.0
  0
ARC
  5
259
330
1F
100
AcDbEntity
  8
0
  6
Continuous
 62
     7
370
    15
100
AcDbCircle
 10
364.8401564925
 20
793.8422173298
 30
0.0
 40
21.10874977779043
100
AcDbArc
 50
58.4717660605
 51
86.227198466
  0
SPLINE
  5
25A
330
1F
100
AcDbEntity
  8
0
  6
Continuous
 62
     7
370
    15
100
AcDbSpline
210
0.0
220
0.0
230
1.0
 70
    24
 71
     3
 72
    11
 73
     7
 74
     0
 42
0.00000001
 43
0.00000001
 12
1.0
 22
0.0
 32
0.0
 13
1.0
 23
0.0
 33
0.0
 40
0.0
 40
0.0
 40
0.0
 40
0.0
 40
0.2947310880028842
 40
0.5894853990893537
 40
0.883777239747531
 40
1.0
 40
1.0
 40
1.0
 40
1.0
 10
366.2291171634045
 20
814.3254238370831
 30
0.0
 10
366.2291171634045
 20
814.4232591828488
 30
0.0
 10
366.2291171634045
 20
814.6189375832327
 30
0.0
 10
366.2291171634045
 20
814.8173643780318
 30
0.0
 10
366.2291171634045
 20
814.8995755196007
 30
0.0
 10
366.2291171634045
 20
814.9039750082063
 30
0.0
 10
366.2291171634045
 20
814.9052205685551
 30
0.0
  0
ARC
  5
25B
330
1F
100
AcDbEntity
  8
0
  6
Continuous
 62
     7
370
    15
100
AcDbCircle
 10
364.6180683254
 20
793.8422398151
 30
0.0
 40
21.10872687045978
100
AcDbArc
 50
93.7727861722
 51
121.5282493013
  0
SPLINE
  5
25C
330
1F
100
AcDbEntity
  8
0
  6
Continuous
 62
     7
370
    15
100
AcDbSpline
210
0.0
220
0.0
230
1.0
 70
    24
 71
     3
 72
    11
 73
     7
 74
     0
 42
0.00000001
 43
0.00000001
 12
1.0
 22
0.0
 32
0.0
 13
1.0
 23
0.0
 33
0.0
 40
0.0
 40
0.0
 40
0.0
 40
0.0
 40
0.2933129200002615
 40
0.586596629449008
 40
0.8805064431463548
 40
1.0
 40
1.0
 40
1.0
 40
1.0
 10
363.229114809021
 20
814.9052205685551
 30
0.0
 10
363.229114809021
 20
814.8955523530217
 30
0.0
 10
363.229114809021
 20
814.8762168847967
 30
0.0
 10
363.229114809021
 20
814.7070066211846
 30
0.0
 10
363.229114809021
 20
814.5064177287471
 30
0.0
 10
363.229114809021
 20
814.366008803465
 30
0.0
 10
363.229114809021
 20
814.3254238370831
 30
0.0
  0
SPLINE
  5
25D
330
1F
100
AcDbEntity
  8
0
  6
Continuous
 62
     7
370
    15
100
AcDbSpline
210
0.0
220
0.0
230
1.0
 70
     8
 71
     3
 72
    10
 73
     6
 74
     0
 42
0.00000001
 43
0.00000001
 12
1.0
 22
0.0
 32
0.0
 13
1.0
 23
0.0
 33
0.0
 40
0.0
 40
0.0
 40
0.0
 40
0.0
 40
0.2119760622186867
 40
0.48830338236143
 40
1.0
 40
1.0
 40
1.0
 40
1.0
 10
380.5894593381729
 20
810.2998825911458
 30
0.0
 10
380.5882098507392
 20
810.3007922167213
 30
0.0
 10
380.5853315590413
 20
810.3028876101381
 30
0.0
 10
380.5745879992962
 20
810.3097483687927
 30
0.0
 10
380.5648554507375
 20
810.3156743416846
 30
0.0
 10
380.5585357034054
 20
810.3195223215993
 30
0.0
  0
SPLINE
  5
25E
330
1F
100
AcDbEntity
  8
0
  6
Continuous
 62
     7
370
    15
100
AcDbSpline
210
0.0
220
0.0
230
1.0
 70
     8
 71
     3
 72
    10
 73
     6
 74
     0
 42
0.00000001
 43
0.00000001
 12
1.0
 22
0.0
 32
0.0
 13
1.0
 23
0.0
 33
0.0
 40
0.0
 40
0.0
 40
0.0
 40
0.0
 40
0.3554450524201749
 40
0.7142342342461039
 40
1.0
 40
1.0
 40
1.0
 40
1.0
 10
378.3520350837555
 20
811.3757985834058
 30
0.0
 10
378.4754442183049
 20
811.3330491692733
 30
0.0
 10
378.723423556078
 20
811.2471481422101
 30
0.0
 10
379.5613535035333
 20
810.8599309376923
 30
0.0
 10
380.2736570058148
 20
810.4719121314068
 30
0.0
 10
380.5894593381729
 20
810.2998825911458
 30
0.0
  0
LINE
  5
25F
330
1F
100
AcDbEntity
  8
0
  6
Continuous
 62
     7
370
    15
100
AcDbLine
 10
364.9942393088
 20
814.6787601713
 30
0.0
 11
366.2291171634
 21
814.8868474368
 31
0.0
  0
SPLINE
  5
260
330
1F
100
AcDbEntity
  8
0
  6
Continuous
 62
     7
370
    15
100
AcDbSpline
210
0.0
220
0.0
230
1.0
 70
     8
 71
     3
 72
    12
 73
     8
 74
     0
 42
0.00000001
 43
0.00000001
 12
1.0
 22
0.0
 32
0.0
 13
1.0
 23
0.0
 33
0.0
 40
0.0
 40
0.0
 40
0.0
 40
0.0
 40
0.2238944353574212
 40
0.4477797328281712
 40
0.6716934128843952
 40
0.8955897796651459
 40
1.0
 40
1.0
 40
1.0
 40
1.0
 10
364.7447603428211
 20
814.6767410639699
 30
0.0
 10
364.7728664229363
 20
814.6767415444886
 30
0.0
 10
364.8290774360627
 20
814.6767425055062
 30
0.0
 10
364.903986793908
 20
814.6769588140141
 30
0.0
 10
364.9605841357024
 20
814.6774333311754
 30
0.0
 10
364.9881864241485
 20
814.6780837627941
 30
0.0
 10
364.9927788085304
 20
814.6785969607289
 30
0.0
 10
364.9942393088188
 20
814.6787601713116
 30
0.0
  0
ELLIPSE
  5
261
330
1F
100
AcDbEntity
  8
0
  6
Continuous
 62
     7
370
    15
100
AcDbEllipse
 10
364.7291160285
 20
775.7740815368
 30
0.0
 11
5.684341886080801E-14
 21
38.90266028161409
 31
0.0
210
0.0
220
0.0
230
1.0
 40
0.893109678
 41
6.282735029799744
 42
6.283635584559445
  0
SPLINE
  5
262
330
1F
100
AcDbEntity
  8
0
  6
Continuous
 62
     7
370
    15
100
AcDbSpline
210
0.0
220
0.0
230
1.0
 70
     8
 71
     3
 72
    12
 73
     8
 74
     0
 42
0.00000001
 43
0.00000001
 12
1.0
 22
0.0
 32
0.0
 13
1.0
 23
0.0
 33
0.0
 40
0.0
 40
0.0
 40
0.0
 40
0.0
 40
0.2238807070559335
 40
0.4477601440461912
 40
0.6716973626141148
 40
0.8955759431879641
 40
1.0
 40
1.0
 40
1.0
 40
1.0
 10
364.4639926636066
 20
814.6787601713116
 30
0.0
 10
364.4685626463071
 20
814.6784249210998
 30
0.0
 10
364.4777025857827
 20
814.6777544225778
 30
0.0
 10
364.5255645559052
 20
814.6771504860167
 30
0.0
 10
364.5924970731726
 20
814.6768166776144
 30
0.0
 10
364.6593809087577
 20
814.6767206255158
 30
0.0
 10
364.7004186504782
 20
814.6767361318354
 30
0.0
 10
364.7134716296043
 20
814.6767410639699
 30
0.0
  0
LINE
  5
263
330
1F
100
AcDbEntity
  8
0
  6
Continuous
 62
     7
370
    15
100
AcDbLine
 10
364.4639926636
 20
814.6787601713
 30
0.0
 11
363.229114809
 21
814.8868474368
 31
0.0
  0
SPLINE
  5
264
330
1F
100
AcDbEntity
  8
0
  6
Continuous
 62
     7
370
    15
100
AcDbSpline
210
0.0
220
0.0
230
1.0
 70
     8
 71
     3
 72
    11
 73
     7
 74
     0
 42
0.00000001
 43
0.00000001
 12
1.0
 22
0.0
 32
0.0
 13
1.0
 23
0.0
 33
0.0
 40
0.0
 40
0.0
 40
0.0
 40
0.0
 40
0.3701579253853868
 40
0.7441843774774568
 40
0.944023960253561
 40
1.0
 40
1.0
 40
1.0
 40
1.0
 10
348.8996999943104
 20
810.3195223215993
 30
0.0
 10
348.895113516732
 20
810.3167367782971
 30
0.0
 10
348.8858926282209
 20
810.311136579933
 30
0.0
 10
348.8752942734206
 20
810.3044377682055
 30
0.0
 10
348.8702473147968
 20
810.3010177468748
 30
0.0
 10
348.8690373840414
 20
810.3000863859546
 30
0.0
 10
348.8687726342525
 20
810.2998825911458
 30
0.0
  0
SPLINE
  5
265
330
1F
100
AcDbEntity
  8
0
  6
Continuous
 62
     7
370
    15
100
AcDbSpline
210
0.0
220
0.0
230
1.0
 70
     8
 71
     3
 72
    15
 73
    11
 74
     0
 42
0.00000001
 43
0.00000001
 12
1.0
 22
0.0
 32
0.0
 13
1.0
 23
0.0
 33
0.0
 40
0.0
 40
0.0
 40
0.0
 40
0.0
 40
0.125658727692224
 40
0.2500586894642961
 40
0.3750521644728016
 40
0.5000126912884391
 40
0.6249946320214882
 40
0.7499576114488676
 40
0.8744991616511827
 40
1.0
 40
1.0
 40
1.0
 40
1.0
 10
371.1046020173874
 20
761.3331991437848
 30
0.0
 10
371.1520348244458
 20
761.3340852995735
 30
0.0
 10
371.2464252881126
 20
761.3358487342294
 30
0.0
 10
371.3715146567832
 20
761.2983205614925
 30
0.0
 10
371.4712745303225
 20
761.235392217673
 30
0.0
 10
371.5369270399954
 20
761.1485078151279
 30
0.0
 10
371.5631989096353
 20
761.0458113311715
 30
0.0
 10
371.5469608839738
 20
760.9362754982574
 30
0.0
 10
371.4930247994617
 20
760.8270670958098
 30
0.0
 10
371.4274877544112
 20
760.7654942376066
 30
0.0
 10
371.3945935153808
 20
760.7345896963055
 30
0.0
  0
LINE
  5
266
330
1F
100
AcDbEntity
  8
0
  6
Continuous
 62
     7
370
    15
100
AcDbLine
 10
371.0802348935
 20
761.3896298412
 30
0.0
 11
371.1046020174
 21
761.3332065944
 31
0.0
  0
SPLINE
  5
267
330
1F
100
AcDbEntity
  8
0
  6
Continuous
 62
     7
370
    15
100
AcDbSpline
210
0.0
220
0.0
230
1.0
 70
     8
 71
     3
 72
    15
 73
    11
 74
     0
 42
0.00000001
 43
0.00000001
 12
1.0
 22
0.0
 32
0.0
 13
1.0
 23
0.0
 33
0.0
 40
0.0
 40
0.0
 40
0.0
 40
0.0
 40
0.125004038670321
 40
0.2499982503897607
 40
0.3749828704690664
 40
0.4999654172077944
 40
0.6249578178670777
 40
0.7499654531489459
 40
0.8749783427955498
 40
1.0
 40
1.0
 40
1.0
 40
1.0
 10
372.1629048371162
 20
759.5737743381436
 30
0.0
 10
372.262582359067
 20
759.6762868373314
 30
0.0
 10
372.4619295670129
 20
759.8813037768853
 30
0.0
 10
372.6154026120715
 20
760.237226191587
 30
0.0
 10
372.6423791946646
 20
760.5877990595886
 30
0.0
 10
372.5320935919796
 20
760.9068382158599
 30
0.0
 10
372.2963884181507
 20
761.1658218291248
 30
0.0
 10
371.9549619988155
 20
761.3414599378201
 30
0.0
 10
371.537394554616
 20
761.4289762616027
 30
0.0
 10
371.2326250095227
 20
761.4027456212806
 30
0.0
 10
371.0802348935451
 20
761.3896298412259
 30
0.0
  0
SPLINE
  5
268
330
1F
100
AcDbEntity
  8
0
  6
Continuous
 62
     7
370
    15
100
AcDbSpline
210
0.0
220
0.0
230
1.0
 70
     8
 71
     3
 72
    11
 73
     7
 74
     0
 42
0.00000001
 43
0.00000001
 12
1.0
 22
0.0
 32
0.0
 13
1.0
 23
0.0
 33
0.0
 40
0.0
 40
0.0
 40
0.0
 40
0.0
 40
0.250005798881423
 40
0.5000008694670719
 40
0.7499949192682351
 40
1.0
 40
1.0
 40
1.0
 40
1.0
 10
372.4148275935497
 20
758.0011206869061
 30
0.0
 10
372.3011948072835
 20
758.0998249124831
 30
0.0
 10
372.0739341109825
 20
758.2972291280227
 30
0.0
 10
371.9297581450119
 20
758.7006349639403
 30
0.0
 10
371.9388920086379
 20
759.1399693781393
 30
0.0
 10
372.088232796043
 20
759.4291705580331
 30
0.0
 10
372.1629048371162
 20
759.5737743381436
 30
0.0
  0
SPLINE
  5
269
330
1F
100
AcDbEntity
  8
0
  6
Continuous
 62
     7
370
    15
100
AcDbSpline
210
0.0
220
0.0
230
1.0
 70
     8
 71
     3
 72
    11
 73
     7
 74
     0
 42
0.00000001
 43
0.00000001
 12
1.0
 22
0.0
 32
0.0
 13
1.0
 23
0.0
 33
0.0
 40
0.0
 40
0.0
 40
0.0
 40
0.0
 40
0.2590592284857725
 40
0.500041451764117
 40
0.7408518975114959
 40
1.0
 40
1.0
 40
1.0
 40
1.0
 10
372.36839930056
 20
757.945576608556
 30
0.0
 10
372.3757002796174
 20
757.9483420782512
 30
0.0
 10
372.3897927795778
 20
757.9536800447436
 30
0.0
 10
372.4059109706249
 20
757.9677361586419
 30
0.0
 10
372.4154481617094
 20
757.984375149762
 30
0.0
 10
372.4150394466021
 20
757.9954040011521
 30
0.0
 10
372.4148275935497
 20
758.0011206869061
 30
0.0
  0
SPLINE
  5
26A
330
1F
100
AcDbEntity
  8
0
  6
Continuous
 62
     7
370
    15
100
AcDbSpline
210
0.0
220
0.0
230
1.0
 70
     8
 71
     3
 72
    11
 73
     7
 74
     0
 42
0.00000001
 43
0.00000001
 12
1.0
 22
0.0
 32
0.0
 13
1.0
 23
0.0
 33
0.0
 40
0.0
 40
0.0
 40
0.0
 40
0.0
 40
0.2499771891910258
 40
0.4999685495329434
 40
0.7499755104254163
 40
1.0
 40
1.0
 40
1.0
 40
1.0
 10
369.5666196429577
 20
759.9713671211179
 30
0.0
 10
369.6323803959668
 20
759.6978183568075
 30
0.0
 10
369.7639056299473
 20
759.1507053207685
 30
0.0
 10
370.4011970212533
 20
758.4965584550132
 30
0.0
 10
371.2821055372041
 20
758.039560362093
 30
0.0
 10
372.0062929172734
 20
757.9769052585299
 30
0.0
 10
372.36839930056
 20
757.945576608556
 30
0.0
  0
SPLINE
  5
26B
330
1F
100
AcDbEntity
  8
0
  6
Continuous
 62
     7
370
    15
100
AcDbSpline
210
0.0
220
0.0
230
1.0
 70
     8
 71
     3
 72
    11
 73
     7
 74
     0
 42
0.00000001
 43
0.00000001
 12
1.0
 22
0.0
 32
0.0
 13
1.0
 23
0.0
 33
0.0
 40
0.0
 40
0.0
 40
0.0
 40
0.0
 40
0.2500353518506832
 40
0.5000479912481914
 40
0.7500311679821859
 40
1.0
 40
1.0
 40
1.0
 40
1.0
 10
370.9361220383491
 20
761.3634410504277
 30
0.0
 10
370.7421130462646
 20
761.3057081507405
 30
0.0
 10
370.354112685284
 20
761.1902475956477
 30
0.0
 10
369.8902707383057
 20
760.8427182413332
 30
0.0
 10
369.5862925214001
 20
760.4174954149769
 30
0.0
 10
369.5731771436688
 20
760.1200737078445
 30
0.0
 10
369.5666196429577
 20
759.9713671211179
 30
0.0
  0
LINE
  5
26C
330
1F
100
AcDbEntity
  8
0
  6
Continuous
 62
     7
370
    15
100
AcDbLine
 10
370.9243389451
 20
761.3128143553
 30
0.0
 11
370.9361220383
 21
761.3634410504
 31
0.0
  0
SPLINE
  5
26D
330
1F
100
AcDbEntity
  8
0
  6
Continuous
 62
     7
370
    15
100
AcDbSpline
210
0.0
220
0.0
230
1.0
 70
     8
 71
     3
 72
    11
 73
     7
 74
     0
 42
0.00000001
 43
0.00000001
 12
1.0
 22
0.0
 32
0.0
 13
1.0
 23
0.0
 33
0.0
 40
0.0
 40
0.0
 40
0.0
 40
0.0
 40
0.249951187244921
 40
0.4999495424747747
 40
0.7499577497610272
 40
0.9999999999999999
 40
0.9999999999999999
 40
0.9999999999999999
 40
0.9999999999999999
 10
370.5331797385063
 20
760.873416364568
 30
0.0
 10
370.5346951980893
 20
760.9181544112721
 30
0.0
 10
370.5377264032359
 20
761.0076389471426
 30
0.0
 10
370.6225257386618
 20
761.1386113333209
 30
0.0
 10
370.7538013935141
 20
761.2496763542782
 30
0.0
 10
370.8674905146462
 20
761.2917673997679
 30
0.0
 10
370.9243389451351
 20
761.3128143552716
 30
0.0
  0
SPLINE
  5
26E
330
1F
100
AcDbEntity
  8
0
  6
Continuous
 62
     7
370
    15
100
AcDbSpline
210
0.0
220
0.0
230
1.0
 70
     8
 71
     3
 72
    11
 73
     7
 74
     0
 42
0.00000001
 43
0.00000001
 12
1.0
 22
0.0
 32
0.0
 13
1.0
 23
0.0
 33
0.0
 40
0.0
 40
0.0
 40
0.0
 40
0.0
 40
0.2500220505587843
 40
0.5000343284376569
 40
0.7500166762847524
 40
1.0
 40
1.0
 40
1.0
 40
1.0
 10
371.4502083742466
 20
760.2133023742612
 30
0.0
 10
371.3312710651114
 20
760.2245673312325
 30
0.0
 10
371.0934010957761
 20
760.2470968048584
 30
0.0
 10
370.8055389658722
 20
760.3944323617851
 30
0.0
 10
370.5975704700577
 20
760.6055145467828
 30
0.0
 10
370.5546433436195
 20
760.7841156424375
 30
0.0
 10
370.5331797385063
 20
760.873416364568
 30
0.0
  0
SPLINE
  5
26F
330
1F
100
AcDbEntity
  8
0
  6
Continuous
 62
     7
370
    15
100
AcDbSpline
210
0.0
220
0.0
230
1.0
 70
     8
 71
     3
 72
    12
 73
     8
 74
     0
 42
0.00000001
 43
0.00000001
 12
1.0
 22
0.0
 32
0.0
 13
1.0
 23
0.0
 33
0.0
 40
0.0
 40
0.0
 40
0.0
 40
0.0
 40
0.2781216280294515
 40
0.5145836460246315
 40
0.6279297846965372
 40
0.7437828931739658
 40
1.0
 40
1.0
 40
1.0
 40
1.0
 10
371.4767808699455
 20
760.2283078435834
 30
0.0
 10
371.4753870412421
 20
760.2260070965332
 30
0.0
 10
371.4728081642909
 20
760.2217502294421
 30
0.0
 10
371.4673808158316
 20
760.2173774683769
 30
0.0
 10
371.462584968383
 20
760.2151358008459
 30
0.0
 10
371.4572228104286
 20
760.2135282456542
 30
0.0
 10
371.4530688784797
 20
760.2133944851677
 30
0.0
 10
371.4502083742466
 20
760.2133023742612
 30
0.0
  0
SPLINE
  5
270
330
1F
100
AcDbEntity
  8
0
  6
Continuous
 62
     7
370
    15
100
AcDbSpline
210
0.0
220
0.0
230
1.0
 70
     8
 71
     3
 72
    11
 73
     7
 74
     0
 42
0.00000001
 43
0.00000001
 12
1.0
 22
0.0
 32
0.0
 13
1.0
 23
0.0
 33
0.0
 40
0.0
 40
0.0
 40
0.0
 40
0.0
 40
0.2500102860373378
 40
0.5000539851755078
 40
0.750007740517393
 40
0.9999999999999999
 40
0.9999999999999999
 40
0.9999999999999999
 40
0.9999999999999999
 10
371.3945935153808
 20
760.7345896963055
 30
0.0
 10
371.3704771019313
 20
760.6883635071742
 30
0.0
 10
371.3222410519482
 20
760.5959049509248
 30
0.0
 10
371.3201056547708
 20
760.4547326373631
 30
0.0
 10
371.3666400938878
 20
760.3247377468174
 30
0.0
 10
371.4400653929374
 20
760.2604527949974
 30
0.0
 10
371.4767808699455
 20
760.2283078435834
 30
0.0
  0
SPLINE
  5
271
330
1F
100
AcDbEntity
  8
0
  6
Continuous
 62
     7
370
    15
100
AcDbSpline
210
0.0
220
0.0
230
1.0
 70
     8
 71
     3
 72
     9
 73
     5
 74
     0
 42
0.00000001
 43
0.00000001
 12
1.0
 22
0.0
 32
0.0
 13
1.0
 23
0.0
 33
0.0
 40
0.0
 40
0.0
 40
0.0
 40
0.0
 40
0.8627499552699018
 40
1.0
 40
1.0
 40
1.0
 40
1.0
 10
364.1965205454674
 20
813.4758192304547
 30
0.0
 10
364.2058943752214
 20
813.47549459021
 30
0.0
 10
364.2167594349028
 20
813.4751183047723
 30
0.0
 10
364.2276254715615
 20
813.474719171519
 30
0.0
 10
364.2291168355789
 20
813.4746643904622
 30
0.0
  0
SPLINE
  5
272
330
1F
100
AcDbEntity
  8
0
  6
Continuous
 62
     7
370
    15
100
AcDbSpline
210
0.0
220
0.0
230
1.0
 70
     8
 71
     3
 72
     9
 73
     5
 74
     0
 42
0.00000001
 43
0.00000001
 12
1.0
 22
0.0
 32
0.0
 13
1.0
 23
0.0
 33
0.0
 40
0.0
 40
0.0
 40
0.0
 40
0.0
 40
0.1372500447300982
 40
1.0
 40
1.0
 40
1.0
 40
1.0
 10
365.2291151368465
 20
813.4746643904622
 30
0.0
 10
365.230606500864
 20
813.474719171519
 30
0.0
 10
365.2414725375227
 20
813.4751183047722
 30
0.0
 10
365.252337597204
 20
813.47549459021
 30
0.0
 10
365.2617114269581
 20
813.4758192304547
 30
0.0
  0
LINE
  5
273
330
1F
100
AcDbEntity
  8
0
  6
Continuous
 62
     7
370
    15
100
AcDbLine
 10
371.0782455885
 20
761.3962832097
 30
0.0
 11
371.0802348935
 21
761.3896298412
 31
0.0
  0
LINE
  5
274
330
1F
100
AcDbEntity
  8
0
  6
Continuous
 62
     7
370
    15
100
AcDbLine
 10
370.9341774368
 20
761.3701018695
 30
0.0
 11
370.9361220383
 21
761.3634410504
 31
0.0
  0
LINE
  5
275
330
1F
100
AcDbEntity
  8
0
  6
Continuous
 62
     7
370
    15
100
AcDbLine
 10
371.3925334298
 20
760.741220713
 30
0.0
 11
371.3945935154
 21
760.7345896963
 31
0.0
  0
LINE
  5
276
330
1F
100
AcDbEntity
  8
0
  6
Continuous
 62
     7
370
    15
100
AcDbLine
 10
372.412562617
 20
758.0077144507
 30
0.0
 11
372.4148275935
 21
758.0011206869
 31
0.0
  0
LINE
  5
277
330
1F
100
AcDbEntity
  8
0
  6
Continuous
 62
     7
370
    15
100
AcDbLine
 10
364.4639926636
 20
814.4183251265
 30
0.0
 11
364.4639926636
 21
814.6787601713
 31
0.0
  0
SPLINE
  5
278
330
1F
100
AcDbEntity
  8
0
  6
Continuous
 62
     7
370
    15
100
AcDbSpline
210
0.0
220
0.0
230
1.0
 70
    11
 71
     3
 72
    23
 73
    19
 74
     0
 42
0.00000001
 43
0.00000001
 12
1.0
 22
0.0
 32
0.0
 13
1.0
 23
0.0
 33
0.0
 40
0.0
 40
0.0
 40
0.0
 40
0.0
 40
0.0623347725821908
 40
0.1250102879141905
 40
0.1875725346487605
 40
0.2500722789096532
 40
0.3126393259229036
 40
0.3751571819659116
 40
0.4377020608710036
 40
0.5002574574377191
 40
0.5627516550012152
 40
0.6253204667734611
 40
0.687795386621724
 40
0.7503586583564636
 40
0.812889711902341
 40
0.8754710733193646
 40
0.9382162478805539
 40
1.0
 40
1.0
 40
1.0
 40
1.0
 10
378.8132893526401
 20
761.0057610277112
 30
0.0
 10
378.7651867422225
 20
760.8479239553999
 30
0.0
 10
378.6687185764036
 20
760.5313870204628
 30
0.0
 10
378.7819261173328
 20
760.1157686992294
 30
0.0
 10
379.0846180516751
 20
759.8297523618631
 30
0.0
 10
379.5383724009187
 20
759.7173444828468
 30
0.0
 10
380.0680839947335
 20
759.7964364337702
 30
0.0
 10
380.5923693596621
 20
760.0622642083845
 30
0.0
 10
381.0326245783609
 20
760.4692449125743
 30
0.0
 10
381.3197651853014
 20
760.9568105149516
 30
0.0
 10
381.4174037280827
 20
761.4453173458231
 30
0.0
 10
381.3096460619901
 20
761.8584826755911
 30
0.0
 10
381.0133036806099
 20
762.1320070735842
 30
0.0
 10
380.5739527627096
 20
762.2296709234596
 30
0.0
 10
380.0517405432024
 20
762.136227652977
 30
0.0
 10
379.5292060946372
 20
761.8709889498252
 30
0.0
 10
379.0736646924386
 20
761.4737324887658
 30
0.0
 10
378.8996332641534
 20
761.160946562775
 30
0.0
 10
378.8132893526401
 20
761.0057610277112
 30
0.0
  0
SPLINE
  5
279
330
1F
100
AcDbEntity
  8
0
  6
Continuous
 62
     7
370
    15
100
AcDbSpline
210
0.0
220
0.0
230
1.0
 70
    11
 71
     3
 72
    23
 73
    19
 74
     0
 42
0.00000001
 43
0.00000001
 12
1.0
 22
0.0
 32
0.0
 13
1.0
 23
0.0
 33
0.0
 40
0.0
 40
0.0
 40
0.0
 40
0.0
 40
0.0623371246965227
 40
0.1250102667846022
 40
0.187573817957851
 40
0.2500701650265579
 40
0.3126351103847859
 40
0.3751529215400332
 40
0.4376994439788499
 40
0.500256546360016
 40
0.5627521953538995
 40
0.6253228789483872
 40
0.6877969291505361
 40
0.7503566928399821
 40
0.8128856742024925
 40
0.87546727231892
 40
0.9382141464504565
 40
1.0
 40
1.0
 40
1.0
 40
1.0
 10
386.3212058925476
 20
765.9671697024281
 30
0.0
 10
386.2875092148095
 20
765.7952827546275
 30
0.0
 10
386.2199342232727
 20
765.4505823324318
 30
0.0
 10
386.3360765512986
 20
765.0324070180569
 30
0.0
 10
386.6092737756737
 20
764.7763643098573
 30
0.0
 10
387.0038909764107
 20
764.7220144370144
 30
0.0
 10
387.4532043287782
 20
764.8769373956184
 30
0.0
 10
387.886292215326
 20
765.2249377765922
 30
0.0
 10
388.2376208789765
 20
765.7084030593637
 30
0.0
 10
388.4522804096499
 20
766.2557615245992
 30
0.0
 10
388.5053770695988
 20
766.7797742124856
 30
0.0
 10
388.3897624638195
 20
767.1987307077785
 30
0.0
 10
388.124420561647
 20
767.4469671209849
 30
0.0
 10
387.7495172891353
 20
767.4914630629952
 30
0.0
 10
387.3150076961224
 20
767.3232507529524
 30
0.0
 10
386.8875590217456
 20
766.9735090039169
 30
0.0
 10
386.5209300280619
 20
766.493684263951
 30
0.0
 10
386.387437215831
 20
766.1417693122743
 30
0.0
 10
386.3212058925476
 20
765.9671697024281
 30
0.0
  0
LINE
  5
27A
330
1F
100
AcDbEntity
  8
0
  6
Continuous
 62
     7
370
    15
100
AcDbLine
 10
393.5717980051
 20
783.826144338
 30
0.0
 11
393.6252000415
 21
783.7924230102
 31
0.0
  0
SPLINE
  5
27B
330
1F
100
AcDbEntity
  8
0
  6
Continuous
 62
     7
370
    15
100
AcDbSpline
210
0.0
220
0.0
230
1.0
 70
     8
 71
     3
 72
    15
 73
    11
 74
     0
 42
0.00000001
 43
0.00000001
 12
1.0
 22
0.0
 32
0.0
 13
1.0
 23
0.0
 33
0.0
 40
0.0
 40
0.0
 40
0.0
 40
0.0
 40
0.1253590748828507
 40
0.249291535006415
 40
0.3751213781427503
 40
0.5000080643082342
 40
0.6248181161270058
 40
0.750628201411592
 40
0.8748359987816946
 40
1.0
 40
1.0
 40
1.0
 40
1.0
 10
395.3948973351564
 20
783.1039595607693
 30
0.0
 10
395.350086112448
 20
783.3393445880561
 30
0.0
 10
395.2609736289288
 20
783.8074359075292
 30
0.0
 10
395.0447104301542
 20
784.4127700732587
 30
0.0
 10
394.7786178795938
 20
784.8289856298629
 30
0.0
 10
394.4938496413668
 20
785.0611295597198
 30
0.0
 10
394.2122484957357
 20
785.0619496871205
 30
0.0
 10
393.9515563259397
 20
784.8563275917983
 30
0.0
 10
393.7322784405555
 20
784.425904097658
 30
0.0
 10
393.6254280544209
 20
784.0265746609078
 30
0.0
 10
393.5717980050888
 20
783.8261443380292
 30
0.0
  0
SPLINE
  5
27C
330
1F
100
AcDbEntity
  8
0
  6
Continuous
 62
     7
370
    15
100
AcDbSpline
210
0.0
220
0.0
230
1.0
 70
     8
 71
     3
 72
    11
 73
     7
 74
     0
 42
0.00000001
 43
0.00000001
 12
1.0
 22
0.0
 32
0.0
 13
1.0
 23
0.0
 33
0.0
 40
0.0
 40
0.0
 40
0.0
 40
0.0
 40
0.2500110228303934
 40
0.5000005860621116
 40
0.7499932356225897
 40
1.0
 40
1.0
 40
1.0
 40
1.0
 10
396.7028225445595
 20
781.6342133287366
 30
0.0
 10
396.5840436496811
 20
781.6067613789189
 30
0.0
 10
396.3464960552647
 20
781.5518598356113
 30
0.0
 10
395.9791353694716
 20
781.8307947117266
 30
0.0
 10
395.6452248269632
 20
782.3392186131588
 30
0.0
 10
395.4783414027798
 20
782.8490411141926
 30
0.0
 10
395.3948973351564
 20
783.1039595607693
 30
0.0
  0
SPLINE
  5
27D
330
1F
100
AcDbEntity
  8
0
  6
Continuous
 62
     7
370
    15
100
AcDbSpline
210
0.0
220
0.0
230
1.0
 70
     8
 71
     3
 72
    11
 73
     7
 74
     0
 42
0.00000001
 43
0.00000001
 12
1.0
 22
0.0
 32
0.0
 13
1.0
 23
0.0
 33
0.0
 40
0.0
 40
0.0
 40
0.0
 40
0.0
 40
0.2554415892930682
 40
0.4998089730333017
 40
0.7475280397063944
 40
0.9999999999999999
 40
0.9999999999999999
 40
0.9999999999999999
 40
0.9999999999999999
 10
396.7284935200062
 20
781.5146985653813
 30
0.0
 10
396.729119696235
 20
781.5265868481214
 30
0.0
 10
396.730344901961
 20
781.5498480187235
 30
0.0
 10
396.7252391975467
 20
781.5856681367029
 30
0.0
 10
396.7160379765242
 20
781.6167372001254
 30
0.0
 10
396.7072555060187
 20
781.6283511666222
 30
0.0
 10
396.7028225445595
 20
781.6342133287366
 30
0.0
  0
SPLINE
  5
27E
330
1F
100
AcDbEntity
  8
0
  6
Continuous
 62
     7
370
    15
100
AcDbSpline
210
0.0
220
0.0
230
1.0
 70
     8
 71
     3
 72
    11
 73
     7
 74
     0
 42
0.00000001
 43
0.00000001
 12
1.0
 22
0.0
 32
0.0
 13
1.0
 23
0.0
 33
0.0
 40
0.0
 40
0.0
 40
0.0
 40
0.0
 40
0.2499762902610043
 40
0.500011995619988
 40
0.7500126173998006
 40
0.9999999999999999
 40
0.9999999999999999
 40
0.9999999999999999
 40
0.9999999999999999
 10
393.9516118401136
 20
780.3235518936093
 30
0.0
 10
394.1925757931517
 20
780.0960490315637
 30
0.0
 10
394.6745609722472
 20
779.6409892339249
 30
0.0
 10
395.4827735597057
 20
779.7024754930915
 30
0.0
 10
396.233056289964
 20
780.2867679436209
 30
0.0
 10
396.5633506919467
 20
781.1053955836068
 30
0.0
 10
396.7284935200062
 20
781.5146985653813
 30
0.0
  0
SPLINE
  5
27F
330
1F
100
AcDbEntity
  8
0
  6
Continuous
 62
     7
370
    15
100
AcDbSpline
210
0.0
220
0.0
230
1.0
 70
     8
 71
     3
 72
    11
 73
     7
 74
     0
 42
0.00000001
 43
0.00000001
 12
1.0
 22
0.0
 32
0.0
 13
1.0
 23
0.0
 33
0.0
 40
0.0
 40
0.0
 40
0.0
 40
0.0
 40
0.2500336401362676
 40
0.5000486790354458
 40
0.7500350990810783
 40
1.0
 40
1.0
 40
1.0
 40
1.0
 10
393.5311178350296
 20
783.6178410057004
 30
0.0
 10
393.4906609841866
 20
783.3110653814814
 30
0.0
 10
393.4097502922855
 20
782.6975369555969
 30
0.0
 10
393.4524240689094
 20
781.7207114315405
 30
0.0
 10
393.6235678856701
 20
780.8547516343374
 30
0.0
 10
393.8422669930804
 20
780.5006133928601
 30
0.0
 10
393.9516118401136
 20
780.3235518936093
 30
0.0
  0
LINE
  5
280
330
1F
100
AcDbEntity
  8
0
  6
Continuous
 62
     7
370
    15
100
AcDbLine
 10
393.5648428881
 20
783.5458758477
 30
0.0
 11
393.531117835
 21
783.6178410057
 31
0.0
  0
SPLINE
  5
281
330
1F
100
AcDbEntity
  8
0
  6
Continuous
 62
     7
370
    15
100
AcDbSpline
210
0.0
220
0.0
230
1.0
 70
     8
 71
     3
 72
    11
 73
     7
 74
     0
 42
0.00000001
 43
0.00000001
 12
1.0
 22
0.0
 32
0.0
 13
1.0
 23
0.0
 33
0.0
 40
0.0
 40
0.0
 40
0.0
 40
0.0
 40
0.2499642502694165
 40
0.4999546005246557
 40
0.7499608936294991
 40
1.0
 40
1.0
 40
1.0
 40
1.0
 10
393.7289288872328
 20
782.5610953573163
 30
0.0
 10
393.6954937310983
 20
782.6136919762381
 30
0.0
 10
393.6286199277018
 20
782.718890705951
 30
0.0
 10
393.5666674084231
 20
782.973125345391
 30
0.0
 10
393.5398694788783
 20
783.262526295219
 30
0.0
 10
393.5565180541975
 20
783.451421865071
 30
0.0
 10
393.5648428881016
 20
783.5458758477147
 30
0.0
  0
SPLINE
  5
282
330
1F
100
AcDbEntity
  8
0
  6
Continuous
 62
     7
370
    15
100
AcDbSpline
210
0.0
220
0.0
230
1.0
 70
     8
 71
     3
 72
    11
 73
     7
 74
     0
 42
0.00000001
 43
0.00000001
 12
1.0
 22
0.0
 32
0.0
 13
1.0
 23
0.0
 33
0.0
 40
0.0
 40
0.0
 40
0.0
 40
0.0
 40
0.2500302945711816
 40
0.5000438746248611
 40
0.7500307173739449
 40
1.0
 40
1.0
 40
1.0
 40
1.0
 10
394.6261427038755
 20
782.9518783096249
 30
0.0
 10
394.5686544094557
 20
782.8176124913044
 30
0.0
 10
394.4536816637071
 20
782.5490898303293
 30
0.0
 10
394.216064578574
 20
782.3579966237849
 30
0.0
 10
393.9623934381329
 20
782.3379007593215
 30
0.0
 10
393.8067485819444
 20
782.48669890008
 30
0.0
 10
393.7289288872328
 20
782.5610953573163
 30
0.0
  0
SPLINE
  5
283
330
1F
100
AcDbEntity
  8
0
  6
Continuous
 62
     7
370
    15
100
AcDbSpline
210
0.0
220
0.0
230
1.0
 70
     8
 71
     3
 72
    11
 73
     7
 74
     0
 42
0.00000001
 43
0.00000001
 12
1.0
 22
0.0
 32
0.0
 13
1.0
 23
0.0
 33
0.0
 40
0.0
 40
0.0
 40
0.0
 40
0.0
 40
0.2647827750828197
 40
0.4995375981415584
 40
0.7414437759591658
 40
0.9999999999999999
 40
0.9999999999999999
 40
0.9999999999999999
 40
0.9999999999999999
 10
394.6253473543968
 20
783.001655638593
 30
0.0
 10
394.626564876336
 20
782.9976216113812
 30
0.0
 10
394.6288618459367
 20
782.9900110397963
 30
0.0
 10
394.6301756465755
 20
782.9762476352223
 30
0.0
 10
394.6293775501202
 20
782.9626655298011
 30
0.0
 10
394.6272446394563
 20
782.9555529268497
 30
0.0
 10
394.6261427038755
 20
782.9518783096249
 30
0.0
  0
SPLINE
  5
284
330
1F
100
AcDbEntity
  8
0
  6
Continuous
 62
     7
370
    15
100
AcDbSpline
210
0.0
220
0.0
230
1.0
 70
     8
 71
     3
 72
    11
 73
     7
 74
     0
 42
0.00000001
 43
0.00000001
 12
1.0
 22
0.0
 32
0.0
 13
1.0
 23
0.0
 33
0.0
 40
0.0
 40
0.0
 40
0.0
 40
0.0
 40
0.2500101768973068
 40
0.4999871209380854
 40
0.7499826752450732
 40
1.0
 40
1.0
 40
1.0
 40
1.0
 10
394.2033855849352
 20
783.4732326868947
 30
0.0
 10
394.2291301806821
 20
783.3913025463889
 30
0.0
 10
394.2806159500496
 20
783.2274531560244
 30
0.0
 10
394.3878081788769
 20
783.0642990001309
 30
0.0
 10
394.5067072956477
 20
782.9748950126082
 30
0.0
 10
394.5857995202613
 20
782.9927351710126
 30
0.0
 10
394.6253473543968
 20
783.001655638593
 30
0.0
  0
SPLINE
  5
285
330
1F
100
AcDbEntity
  8
0
  6
Continuous
 62
     7
370
    15
100
AcDbSpline
210
0.0
220
0.0
230
1.0
 70
     8
 71
     3
 72
    15
 73
    11
 74
     0
 42
0.00000001
 43
0.00000001
 12
1.0
 22
0.0
 32
0.0
 13
1.0
 23
0.0
 33
0.0
 40
0.0
 40
0.0
 40
0.0
 40
0.0
 40
0.1250185979136274
 40
0.250029390761821
 40
0.3750403222696425
 40
0.5000221207025967
 40
0.6250104448649831
 40
0.7500039591657243
 40
0.8749948890443265
 40
1.0
 40
1.0
 40
1.0
 40
1.0
 10
393.6252000415172
 20
783.7924230102475
 30
0.0
 10
393.6441055589573
 20
783.8516658507167
 30
0.0
 10
393.6819154135426
 20
783.9701478330517
 30
0.0
 10
393.7610415780205
 20
784.0828606379421
 30
0.0
 10
393.8493642380391
 20
784.1344630696591
 30
0.0
 10
393.9420511490651
 20
784.1170409137978
 30
0.0
 10
394.0313664692896
 20
784.0331173514836
 30
0.0
 10
394.1094039488911
 20
783.8892149015537
 30
0.0
 10
394.1717282795793
 20
783.6986324916091
 30
0.0
 10
394.1928327507647
 20
783.5483687963791
 30
0.0
 10
394.2033855849352
 20
783.4732326868947
 30
0.0
  0
LINE
  5
286
330
1F
100
AcDbEntity
  8
0
  6
Continuous
 62
     7
370
    15
100
AcDbLine
 10
393.942615264
 20
780.3240659837
 30
0.0
 11
393.9516118401
 21
780.3235518936
 31
0.0
  0
LINE
  5
287
330
1F
100
AcDbEntity
  8
0
  6
Continuous
 62
     7
370
    15
100
AcDbLine
 10
393.5219666594
 20
783.6176919941
 30
0.0
 11
393.531117835
 21
783.6178410057
 31
0.0
  0
SPLINE
  5
288
330
1F
100
AcDbEntity
  8
0
  6
Continuous
 62
     7
370
    15
100
AcDbSpline
210
0.0
220
0.0
230
1.0
 70
    11
 71
     3
 72
    23
 73
    19
 74
     0
 42
0.00000001
 43
0.00000001
 12
1.0
 22
0.0
 32
0.0
 13
1.0
 23
0.0
 33
0.0
 40
0.0
 40
0.0
 40
0.0
 40
0.0
 40
0.0623391735347596
 40
0.1250126386194758
 40
0.1875735691857325
 40
0.2500700465668917
 40
0.3126346153675537
 40
0.3751507698996152
 40
0.4376983403030089
 40
0.5002573186032226
 40
0.5627559768833782
 40
0.625323993637508
 40
0.6877975236514421
 40
0.750358103673854
 40
0.8128854862522515
 40
0.8754641594686433
 40
0.9382123371121572
 40
1.0
 40
1.0
 40
1.0
 40
1.0
 10
391.9006309145536
 20
772.7103698257382
 30
0.0
 10
391.8904091566652
 20
772.5272511197314
 30
0.0
 10
391.8699108270836
 20
772.1600317403196
 30
0.0
 10
392.0032717980321
 20
771.7335869123582
 30
0.0
 10
392.2482772055395
 20
771.4919376679393
 30
0.0
 10
392.5721731303192
 20
771.4722099741452
 30
0.0
 10
392.9193352477262
 20
771.6750244900107
 30
0.0
 10
393.2324543085555
 20
772.0764405087785
 30
0.0
 10
393.4633112669218
 20
772.6105465732307
 30
0.0
 10
393.5752250001726
 20
773.1987958394449
 30
0.0
 10
393.5588352275512
 20
773.7491928644266
 30
0.0
 10
393.4192431094991
 20
774.1767923945329
 30
0.0
 10
393.1805035998726
 20
774.4146639239162
 30
0.0
 10
392.878503525527
 20
774.4307616338332
 30
0.0
 10
392.5527426389629
 20
774.2186259653952
 30
0.0
 10
392.2507108693197
 20
773.8156439744714
 30
0.0
 10
392.0082141360929
 20
773.2802590328321
 30
0.0
 10
391.936307121274
 20
772.8993536177192
 30
0.0
 10
391.9006309145536
 20
772.7103698257382
 30
0.0
  0
SPLINE
  5
289
330
1F
100
AcDbEntity
  8
0
  6
Continuous
 62
     7
370
    15
100
AcDbSpline
210
0.0
220
0.0
230
1.0
 70
     8
 71
     3
 72
     9
 73
     5
 74
     0
 42
0.00000001
 43
0.00000001
 12
1.0
 22
0.0
 32
0.0
 13
1.0
 23
0.0
 33
0.0
 40
0.0
 40
0.0
 40
0.0
 40
0.0
 40
0.4999919490871354
 40
1.0
 40
1.0
 40
1.0
 40
1.0
 10
393.5626337909546
 20
783.8259282711919
 30
0.0
 10
393.5641611722733
 20
783.8259624199961
 30
0.0
 10
393.5672159840987
 20
783.8260307187046
 30
0.0
 10
393.5702706483635
 20
783.8261064645144
 30
0.0
 10
393.5717980050888
 20
783.8261443380292
 30
0.0
  0
LINE
  5
28A
330
1F
100
AcDbEntity
  8
0
  6
Continuous
 62
     7
370
    15
100
AcDbLine
 10
393.6160358274
 20
783.7921994928
 30
0.0
 11
393.6252000415
 21
783.7924230102
 31
0.0
  0
LINE
  5
28B
330
1F
100
AcDbEntity
  8
0
  6
Continuous
 62
     7
370
    15
100
AcDbLine
 10
394.1942027443
 20
783.4729123119
 30
0.0
 11
394.2033855849
 21
783.4732326869
 31
0.0
  0
LINE
  5
28C
330
1F
100
AcDbEntity
  8
0
  6
Continuous
 62
     7
370
    15
100
AcDbLine
 10
394.6169598633
 20
782.9515579347
 30
0.0
 11
394.6261427039
 21
782.9518783096
 31
0.0
  0
LINE
  5
28D
330
1F
100
AcDbEntity
  8
0
  6
Continuous
 62
     7
370
    15
100
AcDbLine
 10
396.6935987258
 20
781.6336023811
 30
0.0
 11
396.7028225446
 21
781.6342133287
 31
0.0
  0
SPLINE
  5
28E
330
1F
100
AcDbEntity
  8
0
  6
Continuous
 62
     7
370
    15
100
AcDbSpline
210
0.0
220
0.0
230
1.0
 70
     8
 71
     3
 72
    12
 73
     8
 74
     0
 42
0.00000001
 43
0.00000001
 12
1.0
 22
0.0
 32
0.0
 13
1.0
 23
0.0
 33
0.0
 40
0.0
 40
0.0
 40
0.0
 40
0.0
 40
0.0304717690451884
 40
0.0888077902912931
 40
0.3925668812738121
 40
0.6962793184156445
 40
1.0
 40
1.0
 40
1.0
 40
1.0
 10
380.5629538976993
 20
809.6210527423794
 30
0.0
 10
380.5666448904955
 20
809.6307653346347
 30
0.0
 10
380.5774020248685
 20
809.6590719897199
 30
0.0
 10
380.6208435460175
 20
809.7825747788601
 30
0.0
 10
380.6685758857816
 20
809.9793447026666
 30
0.0
 10
380.670508257367
 20
810.194687377505
 30
0.0
 10
380.6164758890241
 20
810.264817202651
 30
0.0
 10
380.5894593381729
 20
810.2998825911458
 30
0.0
  0
SPLINE
  5
28F
330
1F
100
AcDbEntity
  8
0
  6
Continuous
 62
     7
370
    15
100
AcDbSpline
210
0.0
220
0.0
230
1.0
 70
     8
 71
     3
 72
    12
 73
     8
 74
     0
 42
0.00000001
 43
0.00000001
 12
1.0
 22
0.0
 32
0.0
 13
1.0
 23
0.0
 33
0.0
 40
0.0
 40
0.0
 40
0.0
 40
0.0
 40
0.0304728325313238
 40
0.0888087897880078
 40
0.392567547573853
 40
0.6962796515701867
 40
1.0
 40
1.0
 40
1.0
 40
1.0
 10
348.8952818000164
 20
809.6210527423794
 30
0.0
 10
348.8915893669742
 20
809.6307652737553
 30
0.0
 10
348.8808282895616
 20
809.6590710820973
 30
0.0
 10
348.8373919152843
 20
809.7825758818284
 30
0.0
 10
348.7896546747995
 20
809.9793442563284
 30
0.0
 10
348.7877240680081
 20
810.1946874890859
 30
0.0
 10
348.8417562010523
 20
810.264817239845
 30
0.0
 10
348.8687726342525
 20
810.2998825911458
 30
0.0
  0
SPLINE
  5
290
330
1F
100
AcDbEntity
  8
0
  6
Continuous
 62
     7
370
    15
100
AcDbSpline
210
0.0
220
0.0
230
1.0
 70
     8
 71
     3
 72
    11
 73
     7
 74
     0
 42
0.00000001
 43
0.00000001
 12
1.0
 22
0.0
 32
0.0
 13
1.0
 23
0.0
 33
0.0
 40
0.0
 40
0.0
 40
0.0
 40
0.0
 40
0.2499948773724374
 40
0.500000309069007
 40
0.7500225493458988
 40
1.0
 40
1.0
 40
1.0
 40
1.0
 10
364.7134716296043
 20
814.414853155988
 30
0.0
 10
364.7134972632623
 20
814.3831631508638
 30
0.0
 10
364.7135485316604
 20
814.3197818027216
 30
0.0
 10
364.7136334178286
 20
814.2395532430642
 30
0.0
 10
364.7137087088104
 20
814.182309696236
 30
0.0
 10
364.7137642409749
 20
814.1730183204274
 30
0.0
 10
364.71379200457
 20
814.1683730486806
 30
0.0
  0
SPLINE
  5
291
330
1F
100
AcDbEntity
  8
0
  6
Continuous
 62
     7
370
    15
100
AcDbSpline
210
0.0
220
0.0
230
1.0
 70
     8
 71
     3
 72
    11
 73
     7
 74
     0
 42
0.00000001
 43
0.00000001
 12
1.0
 22
0.0
 32
0.0
 13
1.0
 23
0.0
 33
0.0
 40
0.0
 40
0.0
 40
0.0
 40
0.0
 40
0.2499948773724374
 40
0.500000309069007
 40
0.7500225493458988
 40
1.0
 40
1.0
 40
1.0
 40
1.0
 10
364.7447603428211
 20
814.414853155988
 30
0.0
 10
364.7447347091631
 20
814.3831631508638
 30
0.0
 10
364.7446834407651
 20
814.3197818027216
 30
0.0
 10
364.7445985545968
 20
814.2395532430642
 30
0.0
 10
364.7445232636151
 20
814.182309696236
 30
0.0
 10
364.7444677314505
 20
814.1730183204274
 30
0.0
 10
364.7444399678554
 20
814.1683730486806
 30
0.0
  0
LINE
  5
292
330
1F
100
AcDbEntity
  8
0
  6
Continuous
 62
     7
370
    15
100
AcDbLine
 10
381.2934460723
 20
809.9562767152
 30
0.0
 11
382.0737863564
 21
809.5112833384
 31
0.0
  0
LINE
  5
293
330
1F
100
AcDbEntity
  8
0
  6
Continuous
 62
     7
370
    15
100
AcDbLine
 10
381.977278986
 20
809.5374721292
 30
0.0
 11
381.2934460723
 21
809.9562767152
 31
0.0
  0
LINE
  5
294
330
1F
100
AcDbEntity
  8
0
  6
Continuous
 62
     7
370
    15
100
AcDbLine
 10
380.6832956755
 20
810.2975952629
 30
0.0
 11
381.977278986
 21
809.5374721292
 31
0.0
  0
LINE
  5
295
330
1F
100
AcDbEntity
  8
0
  6
Continuous
 62
     7
370
    15
100
AcDbLine
 10
380.595449605
 20
810.3408309821
 30
0.0
 11
380.6832956755
 21
810.2975952629
 31
0.0
  0
LINE
  5
296
330
1F
100
AcDbEntity
  8
0
  6
Continuous
 62
     7
370
    15
100
AcDbLine
 10
379.8914926731
 20
810.7251170281
 30
0.0
 11
380.595449605
 21
810.3408309821
 31
0.0
  0
LINE
  5
297
330
1F
100
AcDbEntity
  8
0
  6
Continuous
 62
     7
370
    15
100
AcDbLine
 10
380.5905210459
 20
810.3321361545
 30
0.0
 11
380.595449605
 21
810.3408309821
 31
0.0
  0
LINE
  5
298
330
1F
100
AcDbEntity
  8
0
  6
Continuous
 62
     7
370
    15
100
AcDbLine
 10
380.678437897
 20
810.2888482813
 30
0.0
 11
380.6832956755
 21
810.2975952629
 31
0.0
  0
LINE
  5
299
330
1F
100
AcDbEntity
  8
0
  6
Continuous
 62
     7
370
    15
100
AcDbLine
 10
381.9720337772
 20
809.5289561156
 30
0.0
 11
381.977278986
 21
809.5374721292
 31
0.0
  0
LINE
  5
29A
330
1F
100
AcDbEntity
  8
0
  6
Continuous
 62
     7
370
    15
100
AcDbLine
 10
382.0686640823
 20
809.502692819
 30
0.0
 11
382.0737863564
 21
809.5112833384
 31
0.0
  0
LINE
  5
29B
330
1F
100
AcDbEntity
  8
0
  6
Continuous
 62
     7
370
    15
100
AcDbLine
 10
89.7291305148
 20
910.752924085
 30
0.0
 11
889.7291126335
 21
910.752924085
 31
0.0
  0
LINE
  5
29C
330
1F
100
AcDbEntity
  8
0
  6
Continuous
 62
     7
370
    15
100
AcDbLine
 10
889.7291126335
 20
910.752924085
 30
0.0
 11
889.7291126335
 21
893.6815130714
 31
0.0
  0
LINE
  5
29D
330
1F
100
AcDbEntity
  8
0
  6
Continuous
 62
     7
370
    15
100
AcDbLine
 10
89.7291305148
 20
910.752924085
 30
0.0
 11
89.7291305148
 21
893.6815130714
 31
0.0
  0
LINE
  5
29E
330
1F
100
AcDbEntity
  8
0
  6
Continuous
 62
     7
370
    15
100
AcDbLine
 10
89.7291305148
 20
893.6815130714
 30
0.0
 11
89.7291305148
 21
862.685786486
 31
0.0
  0
LINE
  5
29F
330
1F
100
AcDbEntity
  8
0
  6
Continuous
 62
     7
370
    15
100
AcDbLine
 10
889.7291126335
 20
893.6815130714
 30
0.0
 11
889.7291126335
 21
862.685786486
 31
0.0
  0
LINE
  5
2A0
330
1F
100
AcDbEntity
  8
0
  6
Continuous
 62
     7
370
    15
100
AcDbLine
 10
89.7291305148
 20
862.685786486
 30
0.0
 11
89.7291305148
 21
856.8815159801
 31
0.0
  0
LINE
  5
2A1
330
1F
100
AcDbEntity
  8
0
  6
Continuous
 62
     7
370
    15
100
AcDbLine
 10
889.7291126335
 20
862.685786486
 30
0.0
 11
889.7291126335
 21
856.8815159801
 31
0.0
  0
LWPOLYLINE
  5
2A2
330
1F
100
AcDbEntity
  8
0
  6
Continuous
 62
     7
370
    15
100
AcDbPolyline
 90
        9
 70
   128
 43
0.0
 10
89.7291305148
 20
848.6827182774
 10
89.7675457084
 20
848.5178220276
 10
89.8813607776
 20
848.3592587713
 10
90.0661649787
 20
848.2131230835
 10
90.3148951614
 20
848.085047603
 10
90.6179847801
 20
847.979934812
 10
90.9637513244
 20
847.901822925
 10
91.3389327609
 20
847.8537219767
 10
91.7291047656
 20
847.837479711
  0
LINE
  5
2A3
330
1F
100
AcDbEntity
  8
0
  6
Continuous
 62
     7
370
    15
100
AcDbLine
 10
89.7291305148
 20
856.8815159801
 30
0.0
 11
89.7291305148
 21
848.6827182774
 31
0.0
  0
LINE
  5
2A4
330
1F
100
AcDbEntity
  8
0
  6
Continuous
 62
     7
370
    15
100
AcDbLine
 10
889.7291126335
 20
856.8815159801
 30
0.0
 11
889.7291126335
 21
848.6827182774
 31
0.0
  0
LWPOLYLINE
  5
2A5
330
1F
100
AcDbEntity
  8
0
  6
Continuous
 62
     7
370
    15
100
AcDbPolyline
 90
        9
 70
   128
 43
0.0
 10
887.7291085803
 20
847.837479711
 10
888.1193103874
 20
847.8537219767
 10
888.4944918239
 20
847.901822925
 10
888.8402583682
 20
847.979934812
 10
889.1433181846
 20
848.085047603
 10
889.3920483672
 20
848.2131230835
 10
889.5768823707
 20
848.3592587713
 10
889.6906974399
 20
848.5178220276
 10
889.7291126335
 20
848.6827182774
  0
LINE
  5
2A6
330
1F
100
AcDbEntity
  8
0
  6
Continuous
 62
     7
370
    15
100
AcDbLine
 10
91.7291047656
 20
847.837479711
 30
0.0
 11
887.7291085803
 21
847.837479711
 31
0.0
  0
LINE
  5
2A7
330
1F
100
AcDbEntity
  8
0
  6
Continuous
 62
     7
370
    15
100
AcDbLine
 10
89.7291305148
 20
928.7529307608
 30
0.0
 11
89.7291305148
 21
924.5029258732
 31
0.0
  0
LINE
  5
2A8
330
1F
100
AcDbEntity
  8
0
  6
Continuous
 62
     7
370
    15
100
AcDbLine
 10
89.7291305148
 20
928.7529307608
 30
0.0
 11
889.7291126335
 21
928.7529307608
 31
0.0
  0
LINE
  5
2A9
330
1F
100
AcDbEntity
  8
0
  6
Continuous
 62
     7
370
    15
100
AcDbLine
 10
889.7291126335
 20
928.7529307608
 30
0.0
 11
889.7291126335
 21
924.5029258732
 31
0.0
  0
LINE
  5
2AA
330
1F
100
AcDbEntity
  8
0
  6
Continuous
 62
     7
370
    15
100
AcDbLine
 10
889.7291126335
 20
924.5029258732
 30
0.0
 11
889.7291126335
 21
910.752924085
 31
0.0
  0
ARC
  5
2AB
330
1F
100
AcDbEntity
  8
0
  6
Continuous
 62
     7
370
    15
100
AcDbCircle
 10
91.7291160284
 20
912.7529312626
 30
0.0
 40
2.0
100
AcDbArc
 50
180.0
 51
270.0
  0
LINE
  5
2AC
330
1F
100
AcDbEntity
  8
0
  6
Continuous
 62
     7
370
    15
100
AcDbLine
 10
89.7291305148
 20
924.5029258732
 30
0.0
 11
89.7291305148
 21
912.7529281382
 31
0.0
  0
LINE
  5
2AD
330
1F
100
AcDbEntity
  8
0
  6
Continuous
 62
     7
370
    15
100
AcDbLine
 10
878.7291052425
 20
845.7419145111
 30
0.0
 11
881.2767269695
 21
846.3635313515
 31
0.0
  0
LINE
  5
2AE
330
1F
100
AcDbEntity
  8
0
  6
Continuous
 62
     7
370
    15
100
AcDbLine
 10
876.1815133178
 20
846.3635313515
 30
0.0
 11
878.7291052425
 21
845.7419145111
 31
0.0
  0
LINE
  5
2AF
330
1F
100
AcDbEntity
  8
0
  6
Continuous
 62
     7
370
    15
100
AcDbLine
 10
878.7291052425
 20
847.2382891182
 30
0.0
 11
878.7291052425
 21
845.7419145111
 31
0.0
  0
LINE
  5
2B0
330
1F
100
AcDbEntity
  8
0
  6
Continuous
 62
     7
370
    15
100
AcDbLine
 10
100.7291081035
 20
845.7419145111
 30
0.0
 11
103.2767298305
 21
846.3635313515
 31
0.0
  0
LINE
  5
2B1
330
1F
100
AcDbEntity
  8
0
  6
Continuous
 62
     7
370
    15
100
AcDbLine
 10
98.1815161788
 20
846.3635313515
 30
0.0
 11
100.7291081035
 21
845.7419145111
 31
0.0
  0
LINE
  5
2B2
330
1F
100
AcDbEntity
  8
0
  6
Continuous
 62
     7
370
    15
100
AcDbLine
 10
100.7291081035
 20
847.2382891182
 30
0.0
 11
100.7291081035
 21
845.7419145111
 31
0.0
  0
LINE
  5
2B3
330
1F
100
AcDbEntity
  8
0
  6
Continuous
 62
     7
370
    15
100
AcDbLine
 10
89.7291305148
 20
912.7529281382
 30
0.0
 11
89.7291305148
 21
910.752924085
 31
0.0
  0
LINE
  5
2B4
330
1F
100
AcDbEntity
  8
0
  6
Continuous
 62
     7
370
    15
100
AcDbLine
 10
90.5291142547
 20
911.1529308561
 30
0.0
 11
90.5291142547
 21
910.752924085
 31
0.0
  0
LWPOLYLINE
  5
2B5
330
1F
100
AcDbEntity
  8
0
  6
Continuous
 62
     7
370
    15
100
AcDbPolyline
 90
        3
 70
   128
 43
0.0
 10
90.5291142547
 20
911.1529308561
 10
90.5579331004
 20
910.8603018526
 10
90.5834438884
 20
910.752924085
  0
ENDSEC
  0
SECTION
  2
OBJECTS
  0
DICTIONARY
  5
C
330
0
100
AcDbDictionary
281
     1
  3
ACAD_GROUP
350
D
  3
ACAD_LAYOUT
350
1A
  3
ACAD_MLINESTYLE
350
17
  3
ACAD_PLOTSETTINGS
350
19
  3
ACAD_PLOTSTYLENAME
350
E
  0
DICTIONARY
  5
D
102
{ACAD_REACTORS
330
C
102
}
330
C
100
AcDbDictionary
281
     1
  0
DICTIONARY
  5
1A
102
{ACAD_REACTORS
330
C
102
}
330
C
100
AcDbDictionary
281
     1
  3
Layout1
350
1E
  3
Layout2
350
26
  3
Model
350
22
  0
DICTIONARY
  5
17
102
{ACAD_REACTORS
330
C
102
}
330
C
100
AcDbDictionary
281
     1
  3
Standard
350
18
  0
DICTIONARY
  5
19
102
{ACAD_REACTORS
330
C
102
}
330
C
100
AcDbDictionary
281
     1
  0
ACDBDICTIONARYWDFLT
  5
E
102
{ACAD_REACTORS
330
C
102
}
330
C
100
AcDbDictionary
281
     1
  3
Normal
350
F
100
AcDbDictionaryWithDefault
340
F
  0
LAYOUT
  5
1E
102
{ACAD_REACTORS
330
1A
102
}
330
1A
100
AcDbPlotSettings
  1

  2
none_device
  4

  6

 40
0.0
 41
0.0
 42
0.0
 43
0.0
 44
0.0
 45
0.0
 46
0.0
 47
0.0
 48
0.0
 49
0.0
140
0.0
141
0.0
142
1.0
143
1.0
 70
   688
 72
     0
 73
     0
 74
     5
  7

 75
    16
147
1.0
148
0.0
149
0.0
100
AcDbLayout
  1
Layout1
 70
     1
 71
     1
 10
0.0
 20
0.0
 11
420.0
 21
297.0
 12
0.0
 22
0.0
 32
0.0
 14
1.0000000000E+20
 24
1.0000000000E+20
 34
1.0000000000E+20
 15
-1.0000000000E+20
 25
-1.0000000000E+20
 35
-1.0000000000E+20
146
0.0
 13
0.0
 23
0.0
 33
0.0
 16
1.0
 26
0.0
 36
0.0
 17
0.0
 27
1.0
 37
0.0
 76
     0
330
1B
  0
LAYOUT
  5
26
102
{ACAD_REACTORS
330
1A
102
}
330
1A
100
AcDbPlotSettings
  1

  2
none_device
  4

  6

 40
0.0
 41
0.0
 42
0.0
 43
0.0
 44
0.0
 45
0.0
 46
0.0
 47
0.0
 48
0.0
 49
0.0
140
0.0
141
0.0
142
1.0
143
1.0
 70
   688
 72
     0
 73
     0
 74
     5
  7

 75
    16
147
1.0
148
0.0
149
0.0
100
AcDbLayout
  1
Layout2
 70
     1
 71
     2
 10
0.0
 20
0.0
 11
0.0
 21
0.0
 12
0.0
 22
0.0
 32
0.0
 14
0.0
 24
0.0
 34
0.0
 15
0.0
 25
0.0
 35
0.0
146
0.0
 13
0.0
 23
0.0
 33
0.0
 16
1.0
 26
0.0
 36
0.0
 17
0.0
 27
1.0
 37
0.0
 76
     0
330
23
  0
LAYOUT
  5
22
102
{ACAD_REACTORS
330
1A
102
}
330
1A
100
AcDbPlotSettings
  1

  2
none_device
  4

  6

 40
0.0
 41
0.0
 42
0.0
 43
0.0
 44
0.0
 45
0.0
 46
0.0
 47
0.0
 48
0.0
 49
0.0
140
0.0
141
0.0
142
1.0
143
1.0
 70
  1712
 72
     0
 73
     0
 74
     0
  7

 75
     0
147
1.0
148
0.0
149
0.0
100
AcDbLayout
  1
Model
 70
     1
 71
     0
 10
0.0
 20
0.0
 11
1000.0
 21
1000.0
 12
0.0
 22
0.0
 32
0.0
 14
0.0
 24
0.0
 34
0.0
 15
1000.0
 25
1000.0
 35
0.0
146
0.0
 13
0.0
 23
0.0
 33
0.0
 16
1.0
 26
0.0
 36
0.0
 17
0.0
 27
1.0
 37
0.0
 76
     0
330
1F
331
29
  0
MLINESTYLE
  5
18
102
{ACAD_REACTORS
330
17
102
}
330
17
100
AcDbMlineStyle
  2
Standard
 70
     0
  3

 62
   256
 51
90.0
 52
90.0
 71
     2
 49
0.5
 62
   256
  6
BYLAYER
 49
-0.5
 62
   256
  6
BYLAYER
  0
ACDBPLACEHOLDER
  5
F
102
{ACAD_REACTORS
330
E
102
}
330
E
  0
ENDSEC
  0
EOF
