  0
SECTION
  2
HEADER
  9
$ACADVER
  1
AC1015
  9
$ACADMAINTVER
 70
     6
  9
$DWGCODEPAGE
  3
ANSI_1252
  9
$INSBASE
 10
0.0
 20
0.0
 30
0.0
  9
$EXTMIN
 10
0.0
 20
0.0
 30
0.0
  9
$EXTMAX
 10
841.0
 20
594.0
 30
0.0
  9
$LIMMIN
 10
0.0
 20
0.0
  9
$LIMMAX
 10
841.0
 20
594.0
  9
$ORTHOMODE
 70
     0
  9
$REGENMODE
 70
     1
  9
$FILLMODE
 70
     1
  9
$QTEXTMODE
 70
     0
  9
$MIRRTEXT
 70
     1
  9
$LTSCALE
 40
1.0
  9
$ATTMODE
 70
     1
  9
$TEXTSIZE
 40
3.5
  9
$TRACEWID
 40
1.0
  9
$TEXTSTYLE
  7
Standard
  9
$CLAYER
  8
0
  9
$CELTYPE
  6
ByLayer
  9
$CECOLOR
 62
   256
  9
$CELTSCALE
 40
1.0
  9
$DISPSILH
 70
     0
  9
$DIMSCALE
 40
1.0
  9
$DIMASZ
 40
3.302
  9
$DIMEXO
 40
1.0
  9
$DIMDLI
 40
3.75
  9
$DIMRND
 40
0.0
  9
$DIMDLE
 40
0.0
  9
$DIMEXE
 40
1.0
  9
$DIMTP
 40
0.0
  9
$DIMTM
 40
0.0
  9
$DIMTXT
 40
3.5
  9
$DIMCEN
 40
2.5
  9
$DIMTSZ
 40
0.0
  9
$DIMTOL
 70
     0
  9
$DIMLIM
 70
     0
  9
$DIMTIH
 70
     1
  9
$DIMTOH
 70
     1
  9
$DIMSE1
 70
     0
  9
$DIMSE2
 70
     0
  9
$DIMTAD
 70
     1
  9
$DIMZIN
 70
     0
  9
$DIMBLK
  1

  9
$DIMASO
 70
     1
  9
$DIMSHO
 70
     1
  9
$DIMPOST
  1

  9
$DIMAPOST
  1

  9
$DIMALT
 70
     0
  9
$DIMALTD
 70
     3
  9
$DIMALTF
 40
0.0393700787
  9
$DIMLFAC
 40
1.0
  9
$DIMTOFL
 70
     1
  9
$DIMTVP
 40
0.0
  9
$DIMTIX
 70
     0
  9
$DIMSOXD
 70
     0
  9
$DIMSAH
 70
     0
  9
$DIMBLK1
  1

  9
$DIMBLK2
  1

  9
$DIMSTYLE
  2
ISO-25
  9
$DIMCLRD
 70
     0
  9
$DIMCLRE
 70
     0
  9
$DIMCLRT
 70
     0
  9
$DIMTFAC
 40
1.0
  9
$DIMGAP
 40
1.524
  9
$DIMJUST
 70
     0
  9
$DIMSD1
 70
     0
  9
$DIMSD2
 70
     0
  9
$DIMTOLJ
 70
     0
  9
$DIMTZIN
 70
     0
  9
$DIMALTZ
 70
     0
  9
$DIMALTTZ
 70
     0
  9
$DIMUPT
 70
     0
  9
$DIMDEC
 70
     1
  9
$DIMTDEC
 70
     1
  9
$DIMALTU
 70
     2
  9
$DIMALTTD
 70
     3
  9
$DIMTXSTY
  7
Standard
  9
$DIMAUNIT
 70
     0
  9
$DIMADEC
 70
     1
  9
$DIMALTRND
 40
0.0
  9
$DIMAZIN
 70
     0
  9
$DIMDSEP
 70
    44
  9
$DIMATFIT
 70
     3
  9
$DIMFRAC
 70
     0
  9
$DIMLDRBLK
  1

  9
$DIMLUNIT
 70
     2
  9
$DIMLWD
 70
    -2
  9
$DIMLWE
 70
    -2
  9
$DIMTMOVE
 70
     0
  9
$LUNITS
 70
     2
  9
$LUPREC
 70
     1
  9
$SKETCHINC
 40
1.0
  9
$FILLETRAD
 40
10.0
  9
$AUNITS
 70
     0
  9
$AUPREC
 70
     1
  9
$MENU
  1
.
  9
$ELEVATION
 40
0.0
  9
$PELEVATION
 40
0.0
  9
$THICKNESS
 40
0.0
  9
$LIMCHECK
 70
     0
  9
$CHAMFERA
 40
10.0
  9
$CHAMFERB
 40
10.0
  9
$CHAMFERC
 40
20.0
  9
$CHAMFERD
 40
0.0
  9
$SKPOLY
 70
     0
  9
$TDCREATE
 40
2457053.469361273
  9
$TDUCREATE
 40
2457053.469361273
  9
$TDUPDATE
 40
2457053.469361991
  9
$TDUUPDATE
 40
2457053.469361991
  9
$TDINDWG
 40
0.0000000116
  9
$TDUSRTIMER
 40
0.0000000116
  9
$USRTIMER
 70
     1
  9
$ANGBASE
 50
0.0
  9
$ANGDIR
 70
     0
  9
$PDMODE
 70
     0
  9
$PDSIZE
 40
-1.0
  9
$PLINEWID
 40
0.0
  9
$SPLFRAME
 70
     0
  9
$SPLINETYPE
 70
     6
  9
$SPLINESEGS
 70
     8
  9
$HANDSEED
  5
20F
  9
$SURFTAB1
 70
     6
  9
$SURFTAB2
 70
     6
  9
$SURFTYPE
 70
     6
  9
$SURFU
 70
     6
  9
$SURFV
 70
     6
  9
$UCSBASE
  2

  9
$UCSNAME
  2

  9
$UCSORG
 10
0.0
 20
0.0
 30
0.0
  9
$UCSXDIR
 10
1.0
 20
0.0
 30
0.0
  9
$UCSYDIR
 10
0.0
 20
1.0
 30
0.0
  9
$UCSORTHOREF
  2

  9
$UCSORTHOVIEW
 70
     0
  9
$UCSORGTOP
 10
0.0
 20
0.0
 30
0.0
  9
$UCSORGBOTTOM
 10
0.0
 20
0.0
 30
0.0
  9
$UCSORGLEFT
 10
0.0
 20
0.0
 30
0.0
  9
$UCSORGRIGHT
 10
0.0
 20
0.0
 30
0.0
  9
$UCSORGFRONT
 10
0.0
 20
0.0
 30
0.0
  9
$UCSORGBACK
 10
0.0
 20
0.0
 30
0.0
  9
$PUCSBASE
  2

  9
$PUCSNAME
  2

  9
$PUCSORG
 10
0.0
 20
0.0
 30
0.0
  9
$PUCSXDIR
 10
1.0
 20
0.0
 30
0.0
  9
$PUCSYDIR
 10
0.0
 20
1.0
 30
0.0
  9
$PUCSORTHOREF
  2

  9
$PUCSORTHOVIEW
 70
     0
  9
$PUCSORGTOP
 10
0.0
 20
0.0
 30
0.0
  9
$PUCSORGBOTTOM
 10
0.0
 20
0.0
 30
0.0
  9
$PUCSORGLEFT
 10
0.0
 20
0.0
 30
0.0
  9
$PUCSORGRIGHT
 10
0.0
 20
0.0
 30
0.0
  9
$PUCSORGFRONT
 10
0.0
 20
0.0
 30
0.0
  9
$PUCSORGBACK
 10
0.0
 20
0.0
 30
0.0
  9
$USERI1
 70
     0
  9
$USERI2
 70
     0
  9
$USERI3
 70
     0
  9
$USERI4
 70
     0
  9
$USERI5
 70
     0
  9
$USERR1
 40
0.0
  9
$USERR2
 40
0.0
  9
$USERR3
 40
0.0
  9
$USERR4
 40
0.0
  9
$USERR5
 40
0.0
  9
$WORLDVIEW
 70
     1
  9
$SHADEDGE
 70
     3
  9
$SHADEDIF
 70
    70
  9
$TILEMODE
 70
     1
  9
$MAXACTVP
 70
    64
  9
$PINSBASE
 10
0.0
 20
0.0
 30
0.0
  9
$PLIMCHECK
 70
     0
  9
$PEXTMIN
 10
1.0000000000E+20
 20
1.0000000000E+20
 30
1.0000000000E+20
  9
$PEXTMAX
 10
-1.0000000000E+20
 20
-1.0000000000E+20
 30
-1.0000000000E+20
  9
$PLIMMIN
 10
0.0
 20
0.0
  9
$PLIMMAX
 10
420.0
 20
297.0
  9
$UNITMODE
 70
     0
  9
$VISRETAIN
 70
     1
  9
$PLINEGEN
 70
     0
  9
$PSLTSCALE
 70
     1
  9
$TREEDEPTH
 70
  3020
  9
$CMLSTYLE
  2
Standard
  9
$CMLJUST
 70
     0
  9
$CMLSCALE
 40
20.0
  9
$PROXYGRAPHICS
 70
     1
  9
$MEASUREMENT
 70
     1
  9
$CELWEIGHT
370
    -1
  9
$ENDCAPS
280
     0
  9
$JOINSTYLE
280
     0
  9
$LWDISPLAY
290
     1
  9
$INSUNITS
 70
     4
  9
$HYPERLINKBASE
  1

  9
$STYLESHEET
  1

  9
$XEDIT
290
     1
  9
$CEPSNTYPE
380
     0
  9
$PSTYLEMODE
290
     1
  9
$FINGERPRINTGUID
  2
{B68FB245-23F2-4430-AA55-66319706EF6F}
  9
$VERSIONGUID
  2
{FAEB1C32-E019-11D5-929B-00C0DF256EC4}
  9
$EXTNAMES
290
     1
  9
$PSVPSCALE
 40
0.0
  9
$OLESTARTUP
290
     0
  0
ENDSEC
  0
SECTION
  2
CLASSES
  0
CLASS
  1
ACDBDICTIONARYWDFLT
  2
AcDbDictionaryWithDefault
  3
ObjectDBX Classes
 90
        0
280
     0
281
     0
  0
CLASS
  1
VISUALSTYLE
  2
AcDbVisualStyle
  3
ObjectDBX Classes
 90
     4095
280
     0
281
     0
  0
CLASS
  1
MATERIAL
  2
AcDbMaterial
  3
ObjectDBX Classes
 90
     1153
280
     0
281
     0
  0
CLASS
  1
ACDBPLACEHOLDER
  2
AcDbPlaceHolder
  3
ObjectDBX Classes
 90
        0
280
     0
281
     0
  0
CLASS
  1
LAYOUT
  2
AcDbLayout
  3
ObjectDBX Classes
 90
        0
280
     0
281
     0
  0
ENDSEC
  0
SECTION
  2
TABLES
  0
TABLE
  2
VPORT
  5
8
330
0
100
AcDbSymbolTable
 70
     1
  0
VPORT
  5
29
330
8
100
AcDbSymbolTableRecord
100
AcDbViewportTableRecord
  2
*Active
 70
     0
 10
0.0
 20
0.0
 11
1.0
 21
1.0
 12
420.5
 22
297.0
 13
0.0
 23
0.0
 14
10.0
 24
10.0
 15
10.0
 25
10.0
 16
0.0
 26
0.0
 36
1.0
 17
0.0
 27
0.0
 37
0.0
 40
594.0
 41
1.4158249158
 42
50.0
 43
0.0
 44
0.0
 50
0.0
 51
0.0
 71
     0
 72
  2000
 73
     1
 74
     3
 75
     0
 76
     0
 77
     0
 78
     0
281
     0
 65
     1
110
0.0
120
0.0
130
0.0
111
1.0
121
0.0
131
0.0
112
0.0
122
1.0
132
0.0
 79
     0
146
0.0
  0
ENDTAB
  0
TABLE
  2
LTYPE
  5
5
330
0
100
AcDbSymbolTable
 70
     6
  0
LTYPE
  5
14
330
5
100
AcDbSymbolTableRecord
100
AcDbLinetypeTableRecord
  2
ByBlock
 70
     0
  3

 72
    65
 73
     0
 40
0.0
  0
LTYPE
  5
15
330
5
100
AcDbSymbolTableRecord
100
AcDbLinetypeTableRecord
  2
ByLayer
 70
     0
  3

 72
    65
 73
     0
 40
0.0
  0
LTYPE
  5
16
330
5
100
AcDbSymbolTableRecord
100
AcDbLinetypeTableRecord
  2
Continuous
 70
     0
  3
Solid line
 72
    65
 73
     0
 40
0.0
  0
LTYPE
  5
3F
330
5
100
AcDbSymbolTableRecord
100
AcDbLinetypeTableRecord
  2
HIDDEN
 70
     0
  3
Hidden __ __ __ __ __ __ __ __ __ __ __ __ __ __
 72
    65
 73
     2
 40
1.905
 49
1.27
 74
     0
 49
-0.635
 74
     0
  0
LTYPE
  5
40
330
5
100
AcDbSymbolTableRecord
100
AcDbLinetypeTableRecord
  2
PHANTOM
 70
     0
  3
Phantom ______  __  __  ______  __  __  ______
 72
    65
 73
     6
 40
12.7
 49
6.35
 74
     0
 49
-1.27
 74
     0
 49
1.27
 74
     0
 49
-1.27
 74
     0
 49
1.27
 74
     0
 49
-1.27
 74
     0
  0
LTYPE
  5
41
330
5
100
AcDbSymbolTableRecord
100
AcDbLinetypeTableRecord
  2
CENTER
 70
     0
  3
Center ____ _ ____ _ ____ _ ____ _ ____ _ ____
 72
    65
 73
     4
 40
10.16
 49
6.35
 74
     0
 49
-1.27
 74
     0
 49
1.27
 74
     0
 49
-1.27
 74
     0
  0
LTYPE
  5
42
330
5
100
AcDbSymbolTableRecord
100
AcDbLinetypeTableRecord
  2
CENTERX2
 70
     0
  3
Center (2x) ________  __  ________  __  _____
 72
    65
 73
     4
 40
20.32
 49
12.7
 74
     0
 49
-2.54
 74
     0
 49
2.54
 74
     0
 49
-2.54
 74
     0
  0
LTYPE
  5
43
330
5
100
AcDbSymbolTableRecord
100
AcDbLinetypeTableRecord
  2
DOT2
 70
     0
  3
Dot (.5x) ........................................
 72
    65
 73
     2
 40
0.635
 49
0.0
 74
     0
 49
-0.635
 74
     0
  0
ENDTAB
  0
TABLE
  2
LAYER
  5
2
330
0
100
AcDbSymbolTable
 70
     4
  0
LAYER
  5
10
330
2
100
AcDbSymbolTableRecord
100
AcDbLayerTableRecord
  2
0
 70
     0
 62
     7
  6
Continuous
370
    -3
390
F
  0
LAYER
  5
44
330
2
100
AcDbSymbolTableRecord
100
AcDbLayerTableRecord
  2
FORMAT
 70
     0
 62
     7
  6
Continuous
370
    -3
390
F
  0
LAYER
  5
45
330
2
100
AcDbSymbolTableRecord
100
AcDbLayerTableRecord
  2
SLD-0
 70
     0
 62
     1
  6
Continuous
370
    -3
390
F
  0
LAYER
  5
46
330
2
100
AcDbSymbolTableRecord
100
AcDbLayerTableRecord
  2
WATERMARK
 70
     0
 62
     1
  6
Continuous
370
    -3
390
F
  0
ENDTAB
  0
TABLE
  2
STYLE
  5
3
330
0
100
AcDbSymbolTable
 70
     1
  0
STYLE
  5
11
330
3
100
AcDbSymbolTableRecord
100
AcDbTextStyleTableRecord
  2
Standard
 70
     0
 40
0.0
 41
1.0
 50
0.0
 71
     0
 42
3.5
  3
txt
  4

  0
ENDTAB
  0
TABLE
  2
VIEW
  5
6
330
0
100
AcDbSymbolTable
 70
     0
  0
ENDTAB
  0
TABLE
  2
UCS
  5
7
330
0
100
AcDbSymbolTable
 70
     0
  0
ENDTAB
  0
TABLE
  2
APPID
  5
9
330
0
100
AcDbSymbolTable
 70
     1
  0
APPID
  5
12
330
9
100
AcDbSymbolTableRecord
100
AcDbRegAppTableRecord
  2
ACAD
 70
     0
  0
ENDTAB
  0
TABLE
  2
DIMSTYLE
  5
A
330
0
100
AcDbSymbolTable
 70
     1
100
AcDbDimStyleTable
  0
DIMSTYLE
105
27
330
A
100
AcDbSymbolTableRecord
100
AcDbDimStyleTableRecord
  2
ISO-25
 70
     0
 41
2.5
 42
0.625
 43
3.75
 44
1.25
 73
     0
 74
     0
 77
     1
 78
     8
140
2.5
141
2.5
143
0.0393700787
147
0.625
171
     3
172
     1
178
     0
271
     2
272
     2
274
     3
278
    44
283
     0
284
     8
340
11
  0
ENDTAB
  0
TABLE
  2
BLOCK_RECORD
  5
1
330
0
100
AcDbSymbolTable
 70
     1
  0
BLOCK_RECORD
  5
1F
330
1
100
AcDbSymbolTableRecord
100
AcDbBlockTableRecord
  2
*Model_Space
340
22
  0
BLOCK_RECORD
  5
1B
330
1
100
AcDbSymbolTableRecord
100
AcDbBlockTableRecord
  2
*Paper_Space
340
1E
  0
BLOCK_RECORD
  5
23
330
1
100
AcDbSymbolTableRecord
100
AcDbBlockTableRecord
  2
*Paper_Space0
340
26
  0
ENDTAB
  0
ENDSEC
  0
SECTION
  2
BLOCKS
  0
BLOCK
  5
20
330
1F
100
AcDbEntity
  8
0
100
AcDbBlockBegin
  2
*Model_Space
 70
     0
 10
0.0
 20
0.0
 30
0.0
  3
*Model_Space
  1

  0
ENDBLK
  5
21
330
1F
100
AcDbEntity
  8
0
100
AcDbBlockEnd
  0
BLOCK
  5
1C
330
1B
100
AcDbEntity
 67
     1
  8
0
100
AcDbBlockBegin
  2
*Paper_Space
 70
     0
 10
0.0
 20
0.0
 30
0.0
  3
*Paper_Space
  1

  0
ENDBLK
  5
1D
330
1B
100
AcDbEntity
 67
     1
  8
0
100
AcDbBlockEnd
  0
BLOCK
  5
24
330
23
100
AcDbEntity
  8
0
100
AcDbBlockBegin
  2
*Paper_Space0
 70
     0
 10
0.0
 20
0.0
 30
0.0
  3
*Paper_Space0
  1

  0
ENDBLK
  5
25
330
23
100
AcDbEntity
  8
0
100
AcDbBlockEnd
  0
ENDSEC
  0
SECTION
  2
ENTITIES
  0
LINE
  5
47
330
1F
100
AcDbEntity
  8
0
  6
Continuous
 62
     7
370
    15
100
AcDbLine
 10
-55.7185694105
 20
385.1844714856
 30
0.0
 11
-55.7185694105
 21
394.6844714856
 31
0.0
  0
LINE
  5
48
330
1F
100
AcDbEntity
  8
0
  6
Continuous
 62
     7
370
    15
100
AcDbLine
 10
-74.7185694105
 20
394.6844714856
 30
0.0
 11
-74.7185694105
 21
385.1844714856
 31
0.0
  0
ARC
  5
49
330
1F
100
AcDbEntity
  8
0
  6
Continuous
 62
     7
370
    15
100
AcDbCircle
 10
-72.7185694105
 20
394.6844714856
 30
0.0
 40
2.0
100
AcDbArc
 50
90.0
 51
180.0
  0
ARC
  5
4A
330
1F
100
AcDbEntity
  8
0
  6
Continuous
 62
     7
370
    15
100
AcDbCircle
 10
-57.7185694105
 20
394.6844714856
 30
0.0
 40
2.0
100
AcDbArc
 50
0.0
 51
90.0
  0
ARC
  5
4B
330
1F
100
AcDbEntity
  8
0
  6
Continuous
 62
     7
370
    15
100
AcDbCircle
 10
764.6196391627
 20
261.3122902212
 30
0.0
 40
2.000000000000051
100
AcDbArc
 50
205.0
 51
292.0
  0
ARC
  5
4C
330
1F
100
AcDbEntity
  8
0
  6
Continuous
 62
     7
370
    15
100
AcDbCircle
 10
784.8190417019
 20
217.9945316858
 30
0.0
 40
2.000000000000046
100
AcDbArc
 50
118.0
 51
205.0
  0
LINE
  5
4D
330
1F
100
AcDbEntity
  8
0
  6
Continuous
 62
     7
370
    15
100
AcDbLine
 10
783.8800985763
 20
219.7604268716
 30
0.0
 11
786.6251231288
 21
221.2199823163
 31
0.0
  0
LINE
  5
4E
330
1F
100
AcDbEntity
  8
0
  6
Continuous
 62
     7
370
    15
100
AcDbLine
 10
768.251404458
 20
260.6225491612
 30
0.0
 11
765.3688523496
 21
259.4579225121
 31
0.0
  0
LINE
  5
4F
330
1F
100
AcDbEntity
  8
0
  6
Continuous
 62
     7
370
    15
100
AcDbLine
 10
795.8453729362
 20
177.785076964
 30
0.0
 11
796.2874525874
 21
178.0201348841
 31
0.0
  0
LINE
  5
50
330
1F
100
AcDbEntity
  8
0
  6
Continuous
 62
     7
370
    15
100
AcDbLine
 10
779.2348978765
 20
272.5613952613
 30
0.0
 11
768.4813469592
 21
271.960443792
 31
0.0
  0
LINE
  5
51
330
1F
100
AcDbEntity
  8
0
  6
Continuous
 62
     7
370
    15
100
AcDbLine
 10
779.7348524604
 20
272.5681342507
 30
0.0
 11
779.2348978765
 21
272.5613952613
 31
0.0
  0
LINE
  5
52
330
1F
100
AcDbEntity
  8
0
  6
Continuous
 62
     7
370
    15
100
AcDbLine
 10
796.1628431032
 20
212.5972837411
 30
0.0
 11
803.5354479266
 21
220.4486975067
 31
0.0
  0
LINE
  5
53
330
1F
100
AcDbEntity
  8
0
  6
Continuous
 62
     7
370
    15
100
AcDbLine
 10
779.4462070074
 20
272.1082413678
 30
0.0
 11
768.69265609
 21
271.5072898985
 31
0.0
  0
LINE
  5
54
330
1F
100
AcDbEntity
  8
0
  6
Continuous
 62
     7
370
    15
100
AcDbLine
 10
803.5354479266
 20
220.4486975067
 30
0.0
 11
817.435784022
 21
236.5681661817
 31
0.0
  0
LINE
  5
55
330
1F
100
AcDbEntity
  8
0
  6
Continuous
 62
     7
370
    15
100
AcDbLine
 10
779.9461615913
 20
272.1149803571
 30
0.0
 11
779.4462070074
 21
272.1082413678
 31
0.0
  0
ARC
  5
56
330
1F
100
AcDbEntity
  8
0
  6
Continuous
 62
     7
370
    15
100
AcDbCircle
 10
816.6784726381
 20
237.2212201364
 30
0.0
 40
1.000000000000116
100
AcDbArc
 50
319.227745318
 51
25.0
  0
LINE
  5
57
330
1F
100
AcDbEntity
  8
0
  6
Continuous
 62
     7
370
    15
100
AcDbLine
 10
783.6207147083
 20
234.7615617155
 30
0.0
 11
785.4480839408
 21
235.5751589165
 31
0.0
  0
LINE
  5
58
330
1F
100
AcDbEntity
  8
0
  6
Continuous
 62
     7
370
    15
100
AcDbLine
 10
780.7372765496
 20
245.6775179679
 30
0.0
 11
776.2057376145
 21
243.5644266592
 31
0.0
  0
LINE
  5
59
330
1F
100
AcDbEntity
  8
0
  6
Continuous
 62
     7
370
    15
100
AcDbLine
 10
779.5866837084
 20
236.3139643629
 30
0.0
 11
782.1382676074
 21
237.5037874755
 31
0.0
  0
LINE
  5
5A
330
1F
100
AcDbEntity
  8
0
  6
Continuous
 62
     7
370
    15
100
AcDbLine
 10
780.5259674188
 20
246.1306718615
 30
0.0
 11
775.9944284836
 21
244.0175805527
 31
0.0
  0
ARC
  5
5B
330
1F
100
AcDbEntity
  8
0
  6
Continuous
 62
     7
370
    15
100
AcDbCircle
 10
642.8256821279
 20
20.2844714859
 30
0.0
 40
2.000000000000004
100
AcDbArc
 50
270.0
 51
0.0
  0
ARC
  5
5C
330
1F
100
AcDbEntity
  8
0
  6
Continuous
 62
     7
370
    15
100
AcDbCircle
 10
589.8256821279
 20
20.2844714859
 30
0.0
 40
2.000000000000004
100
AcDbArc
 50
180.0
 51
270.0
  0
LINE
  5
5D
330
1F
100
AcDbEntity
  8
0
  6
Continuous
 62
     7
370
    15
100
AcDbLine
 10
644.8256821279
 20
20.2844714859
 30
0.0
 11
644.8256821279
 21
24.2844714859
 31
0.0
  0
LINE
  5
5E
330
1F
100
AcDbEntity
  8
0
  6
Continuous
 62
     7
370
    15
100
AcDbLine
 10
587.8256821279
 20
24.2844714859
 30
0.0
 11
587.8256821279
 21
20.2844714859
 31
0.0
  0
LINE
  5
5F
330
1F
100
AcDbEntity
  8
0
  6
Continuous
 62
     7
370
    15
100
AcDbLine
 10
65.8256821279
 20
20.2844714859
 30
0.0
 11
65.8256821279
 21
24.2844714859
 31
0.0
  0
LINE
  5
60
330
1F
100
AcDbEntity
  8
0
  6
Continuous
 62
     7
370
    15
100
AcDbLine
 10
8.8256821279
 20
24.2844714859
 30
0.0
 11
8.8256821279
 21
20.2844714859
 31
0.0
  0
ARC
  5
61
330
1F
100
AcDbEntity
  8
0
  6
Continuous
 62
     7
370
    15
100
AcDbCircle
 10
63.8256821279
 20
20.2844714859
 30
0.0
 40
2.0
100
AcDbArc
 50
270.0
 51
0.0
  0
ARC
  5
62
330
1F
100
AcDbEntity
  8
0
  6
Continuous
 62
     7
370
    15
100
AcDbCircle
 10
10.8256821279
 20
20.2844714859
 30
0.0
 40
2.0
100
AcDbArc
 50
180.0
 51
270.0
  0
LINE
  5
63
330
1F
100
AcDbEntity
  8
0
  6
Continuous
 62
     7
370
    15
100
AcDbLine
 10
644.6256821279
 20
24.2844714859
 30
0.0
 11
644.6256821279
 21
53.2844714859
 31
0.0
  0
LINE
  5
64
330
1F
100
AcDbEntity
  8
0
  6
Continuous
 62
     7
370
    15
100
AcDbLine
 10
588.0256821279
 20
53.2844714859
 30
0.0
 11
588.0256821279
 21
24.2844714859
 31
0.0
  0
LINE
  5
65
330
1F
100
AcDbEntity
  8
0
  6
Continuous
 62
     7
370
    15
100
AcDbLine
 10
65.6256821279
 20
24.2844714859
 30
0.0
 11
65.6256821279
 21
53.2844714859
 31
0.0
  0
LINE
  5
66
330
1F
100
AcDbEntity
  8
0
  6
Continuous
 62
     7
370
    15
100
AcDbLine
 10
9.0256821279
 20
53.2844714859
 30
0.0
 11
9.0256821279
 21
24.2844714859
 31
0.0
  0
ARC
  5
67
330
1F
100
AcDbEntity
  8
0
  6
Continuous
 62
     7
370
    15
100
AcDbCircle
 10
70.7256821279
 20
114.7844714859
 30
0.0
 40
1.5
100
AcDbArc
 50
90.0
 51
180.0
  0
ARC
  5
68
330
1F
100
AcDbEntity
  8
0
  6
Continuous
 62
     7
370
    15
100
AcDbCircle
 10
3.9256821279
 20
114.7844714859
 30
0.0
 40
1.500000000000002
100
AcDbArc
 50
0.0
 51
90.0
  0
ARC
  5
69
330
1F
100
AcDbEntity
  8
0
  6
Continuous
 62
     7
370
    15
100
AcDbCircle
 10
64.5256821279
 20
59.3170374316
 30
0.0
 40
4.699999999999975
100
AcDbArc
 50
350.5402980318
 51
0.0
  0
ARC
  5
6A
330
1F
100
AcDbEntity
  8
0
  6
Continuous
 62
     7
370
    15
100
AcDbCircle
 10
10.1256821279
 20
59.3170374316
 30
0.0
 40
4.699999999999988
100
AcDbArc
 50
180.0
 51
189.4597019682
  0
LINE
  5
6B
330
1F
100
AcDbEntity
  8
0
  6
Continuous
 62
     7
370
    15
100
AcDbLine
 10
69.2256821279
 20
59.3170374316
 30
0.0
 11
69.2256821279
 21
114.7844714859
 31
0.0
  0
LINE
  5
6C
330
1F
100
AcDbEntity
  8
0
  6
Continuous
 62
     7
370
    15
100
AcDbLine
 10
5.4256821279
 20
114.7844714859
 30
0.0
 11
5.4256821279
 21
59.3170374316
 31
0.0
  0
LINE
  5
6D
330
1F
100
AcDbEntity
  8
0
  6
Continuous
 62
     7
370
    15
100
AcDbLine
 10
5.4895953549
 20
58.5445742071
 30
0.0
 11
6.3660319076
 21
53.2844714859
 31
0.0
  0
LINE
  5
6E
330
1F
100
AcDbEntity
  8
0
  6
Continuous
 62
     7
370
    15
100
AcDbLine
 10
68.2853323483
 20
53.2844714859
 30
0.0
 11
69.1617689009
 21
58.5445742071
 31
0.0
  0
ARC
  5
6F
330
1F
100
AcDbEntity
  8
0
  6
Continuous
 62
     7
370
    15
100
AcDbCircle
 10
649.7256821279
 20
114.7844714859
 30
0.0
 40
1.5
100
AcDbArc
 50
90.0
 51
180.0
  0
ARC
  5
70
330
1F
100
AcDbEntity
  8
0
  6
Continuous
 62
     7
370
    15
100
AcDbCircle
 10
582.9256821279
 20
114.7844714859
 30
0.0
 40
1.5
100
AcDbArc
 50
0.0
 51
90.0
  0
ARC
  5
71
330
1F
100
AcDbEntity
  8
0
  6
Continuous
 62
     7
370
    15
100
AcDbCircle
 10
643.5256821279
 20
59.3170374316
 30
0.0
 40
4.700000000000045
100
AcDbArc
 50
350.5402980318
 51
0.0
  0
ARC
  5
72
330
1F
100
AcDbEntity
  8
0
  6
Continuous
 62
     7
370
    15
100
AcDbCircle
 10
589.1256821279
 20
59.3170374316
 30
0.0
 40
4.700000000000117
100
AcDbArc
 50
180.0
 51
189.4597019682
  0
LINE
  5
73
330
1F
100
AcDbEntity
  8
0
  6
Continuous
 62
     7
370
    15
100
AcDbLine
 10
648.2256821279
 20
59.3170374316
 30
0.0
 11
648.2256821279
 21
114.7844714859
 31
0.0
  0
LINE
  5
74
330
1F
100
AcDbEntity
  8
0
  6
Continuous
 62
     7
370
    15
100
AcDbLine
 10
584.4256821279
 20
114.7844714859
 30
0.0
 11
584.4256821279
 21
59.3170374316
 31
0.0
  0
LINE
  5
75
330
1F
100
AcDbEntity
  8
0
  6
Continuous
 62
     7
370
    15
100
AcDbLine
 10
584.4895953549
 20
58.5445742071
 30
0.0
 11
585.3660319076
 21
53.2844714859
 31
0.0
  0
LINE
  5
76
330
1F
100
AcDbEntity
  8
0
  6
Continuous
 62
     7
370
    15
100
AcDbLine
 10
647.2853323483
 20
53.2844714859
 30
0.0
 11
648.1617689009
 21
58.5445742071
 31
0.0
  0
LINE
  5
77
330
1F
100
AcDbEntity
  8
0
  6
Continuous
 62
     7
370
    15
100
AcDbLine
 10
746.6727784853
 20
291.0445112878
 30
0.0
 11
745.3035383113
 21
292.2496100834
 31
0.0
  0
LINE
  5
78
330
1F
100
AcDbEntity
  8
0
  6
Continuous
 62
     7
370
    15
100
AcDbLine
 10
745.3035383113
 20
292.2496100834
 30
0.0
 11
744.335290073
 21
291.7981085149
 31
0.0
  0
ARC
  5
79
330
1F
100
AcDbEntity
  8
0
  6
Continuous
 62
     7
370
    15
100
AcDbCircle
 10
766.2620818195
 20
282.1619368837
 30
0.0
 40
0.5000000000000067
100
AcDbArc
 50
295.0
 51
25.0
  0
ARC
  5
7A
330
1F
100
AcDbEntity
  8
0
  6
Continuous
 62
     7
370
    15
100
AcDbCircle
 10
762.1204228545
 20
291.0437531967
 30
0.0
 40
0.5000000000000308
100
AcDbArc
 50
25.0
 51
115.0
  0
LINE
  5
7B
330
1F
100
AcDbEntity
  8
0
  6
Continuous
 62
     7
370
    15
100
AcDbLine
 10
755.3258051698
 20
276.5105783708
 30
0.0
 11
766.4733909504
 21
281.7087829902
 31
0.0
  0
LINE
  5
7C
330
1F
100
AcDbEntity
  8
0
  6
Continuous
 62
     7
370
    15
100
AcDbLine
 10
761.9091137236
 20
291.4969070902
 30
0.0
 11
749.2208047051
 21
285.5802514258
 31
0.0
  0
LINE
  5
7D
330
1F
100
AcDbEntity
  8
0
  6
Continuous
 62
     7
370
    15
100
AcDbLine
 10
132.5256821279
 20
78.4844714859
 30
0.0
 11
132.5256821279
 21
117.9844714858
 31
0.0
  0
LINE
  5
7E
330
1F
100
AcDbEntity
  8
0
  6
Continuous
 62
     7
370
    15
100
AcDbLine
 10
150.5256821279
 20
76.4844714859
 30
0.0
 11
134.5256821279
 21
76.4844714859
 31
0.0
  0
LINE
  5
7F
330
1F
100
AcDbEntity
  8
0
  6
Continuous
 62
     7
370
    15
100
AcDbLine
 10
152.5256821279
 20
117.9844714858
 30
0.0
 11
152.5256821279
 21
78.4844714859
 31
0.0
  0
ARC
  5
80
330
1F
100
AcDbEntity
  8
0
  6
Continuous
 62
     7
370
    15
100
AcDbCircle
 10
173.5256821279
 20
78.4844714859
 30
0.0
 40
2.0
100
AcDbArc
 50
180.0
 51
270.0
  0
LINE
  5
81
330
1F
100
AcDbEntity
  8
0
  6
Continuous
 62
     7
370
    15
100
AcDbLine
 10
191.5256821279
 20
117.9844714858
 30
0.0
 11
191.5256821279
 21
78.4844714859
 31
0.0
  0
ARC
  5
82
330
1F
100
AcDbEntity
  8
0
  6
Continuous
 62
     7
370
    15
100
AcDbCircle
 10
212.5256821279
 20
78.4844714859
 30
0.0
 40
2.0
100
AcDbArc
 50
180.0
 51
270.0
  0
LINE
  5
83
330
1F
100
AcDbEntity
  8
0
  6
Continuous
 62
     7
370
    15
100
AcDbLine
 10
228.5256821279
 20
76.4844714859
 30
0.0
 11
212.5256821279
 21
76.4844714859
 31
0.0
  0
ARC
  5
84
330
1F
100
AcDbEntity
  8
0
  6
Continuous
 62
     7
370
    15
100
AcDbCircle
 10
228.5256821279
 20
78.4844714859
 30
0.0
 40
2.0
100
AcDbArc
 50
270.0
 51
0.0
  0
LINE
  5
85
330
1F
100
AcDbEntity
  8
0
  6
Continuous
 62
     7
370
    15
100
AcDbLine
 10
230.5256821279
 20
117.9844714858
 30
0.0
 11
230.5256821279
 21
78.4844714859
 31
0.0
  0
LINE
  5
86
330
1F
100
AcDbEntity
  8
0
  6
Continuous
 62
     7
370
    15
100
AcDbLine
 10
249.5256821279
 20
78.4844714859
 30
0.0
 11
249.5256821279
 21
117.9844714858
 31
0.0
  0
LINE
  5
87
330
1F
100
AcDbEntity
  8
0
  6
Continuous
 62
     7
370
    15
100
AcDbLine
 10
267.5256821279
 20
76.4844714859
 30
0.0
 11
251.5256821279
 21
76.4844714859
 31
0.0
  0
ARC
  5
88
330
1F
100
AcDbEntity
  8
0
  6
Continuous
 62
     7
370
    15
100
AcDbCircle
 10
267.5256821279
 20
78.4844714859
 30
0.0
 40
2.0
100
AcDbArc
 50
270.0
 51
0.0
  0
LINE
  5
89
330
1F
100
AcDbEntity
  8
0
  6
Continuous
 62
     7
370
    15
100
AcDbLine
 10
269.5256821279
 20
117.9844714858
 30
0.0
 11
269.5256821279
 21
78.4844714859
 31
0.0
  0
ARC
  5
8A
330
1F
100
AcDbEntity
  8
0
  6
Continuous
 62
     7
370
    15
100
AcDbCircle
 10
329.5256821279
 20
78.4844714859
 30
0.0
 40
2.0
100
AcDbArc
 50
180.0
 51
270.0
  0
ARC
  5
8B
330
1F
100
AcDbEntity
  8
0
  6
Continuous
 62
     7
370
    15
100
AcDbCircle
 10
368.5256821279
 20
78.4844714859
 30
0.0
 40
2.000000000000057
100
AcDbArc
 50
180.0
 51
270.0
  0
LINE
  5
8C
330
1F
100
AcDbEntity
  8
0
  6
Continuous
 62
     7
370
    15
100
AcDbLine
 10
384.5256821279
 20
76.4844714859
 30
0.0
 11
368.5256821279
 21
76.4844714859
 31
0.0
  0
ARC
  5
8D
330
1F
100
AcDbEntity
  8
0
  6
Continuous
 62
     7
370
    15
100
AcDbCircle
 10
384.5256821279
 20
78.4844714859
 30
0.0
 40
2.0
100
AcDbArc
 50
270.0
 51
0.0
  0
LINE
  5
8E
330
1F
100
AcDbEntity
  8
0
  6
Continuous
 62
     7
370
    15
100
AcDbLine
 10
405.5256821279
 20
78.4844714859
 30
0.0
 11
405.5256821279
 21
117.9844714858
 31
0.0
  0
ARC
  5
8F
330
1F
100
AcDbEntity
  8
0
  6
Continuous
 62
     7
370
    15
100
AcDbCircle
 10
407.5256821279
 20
78.4844714859
 30
0.0
 40
2.0
100
AcDbArc
 50
180.0
 51
270.0
  0
LINE
  5
90
330
1F
100
AcDbEntity
  8
0
  6
Continuous
 62
     7
370
    15
100
AcDbLine
 10
423.5256821279
 20
76.4844714859
 30
0.0
 11
407.5256821279
 21
76.4844714859
 31
0.0
  0
ARC
  5
91
330
1F
100
AcDbEntity
  8
0
  6
Continuous
 62
     7
370
    15
100
AcDbCircle
 10
423.5256821279
 20
78.4844714859
 30
0.0
 40
2.0
100
AcDbArc
 50
270.0
 51
0.0
  0
LINE
  5
92
330
1F
100
AcDbEntity
  8
0
  6
Continuous
 62
     7
370
    15
100
AcDbLine
 10
425.5256821279
 20
117.9844714858
 30
0.0
 11
425.5256821279
 21
78.4844714859
 31
0.0
  0
LINE
  5
93
330
1F
100
AcDbEntity
  8
0
  6
Continuous
 62
     7
370
    15
100
AcDbLine
 10
444.5256821279
 20
78.4844714859
 30
0.0
 11
444.5256821279
 21
117.9844714858
 31
0.0
  0
ARC
  5
94
330
1F
100
AcDbEntity
  8
0
  6
Continuous
 62
     7
370
    15
100
AcDbCircle
 10
446.5256821279
 20
78.4844714859
 30
0.0
 40
2.0
100
AcDbArc
 50
180.0
 51
270.0
  0
ARC
  5
95
330
1F
100
AcDbEntity
  8
0
  6
Continuous
 62
     7
370
    15
100
AcDbCircle
 10
462.5256821279
 20
78.4844714859
 30
0.0
 40
2.0
100
AcDbArc
 50
270.0
 51
0.0
  0
LINE
  5
96
330
1F
100
AcDbEntity
  8
0
  6
Continuous
 62
     7
370
    15
100
AcDbLine
 10
464.5256821279
 20
117.9844714858
 30
0.0
 11
464.5256821279
 21
78.4844714859
 31
0.0
  0
LINE
  5
97
330
1F
100
AcDbEntity
  8
0
  6
Continuous
 62
     7
370
    15
100
AcDbLine
 10
483.5256821279
 20
78.4844714859
 30
0.0
 11
483.5256821279
 21
117.9844714858
 31
0.0
  0
LINE
  5
98
330
1F
100
AcDbEntity
  8
0
  6
Continuous
 62
     7
370
    15
100
AcDbLine
 10
503.5256821279
 20
117.9844714858
 30
0.0
 11
503.5256821279
 21
78.4844714859
 31
0.0
  0
LINE
  5
99
330
1F
100
AcDbEntity
  8
0
  6
Continuous
 62
     7
370
    15
100
AcDbLine
 10
522.5256821279
 20
78.4844714859
 30
0.0
 11
522.5256821279
 21
117.9844714858
 31
0.0
  0
LINE
  5
9A
330
1F
100
AcDbEntity
  8
0
  6
Continuous
 62
     7
370
    15
100
AcDbLine
 10
542.5256821279
 20
117.9844714858
 30
0.0
 11
542.5256821279
 21
78.4844714859
 31
0.0
  0
LINE
  5
9B
330
1F
100
AcDbEntity
  8
0
  6
Continuous
 62
     7
370
    15
100
AcDbLine
 10
93.5256821279
 20
78.4844714859
 30
0.0
 11
93.5256821279
 21
117.9844714858
 31
0.0
  0
ARC
  5
9C
330
1F
100
AcDbEntity
  8
0
  6
Continuous
 62
     7
370
    15
100
AcDbCircle
 10
95.5256821279
 20
78.4844714859
 30
0.0
 40
2.000000000000057
100
AcDbArc
 50
180.0
 51
270.0
  0
LINE
  5
9D
330
1F
100
AcDbEntity
  8
0
  6
Continuous
 62
     7
370
    15
100
AcDbLine
 10
113.5256821279
 20
117.9844714858
 30
0.0
 11
113.5256821279
 21
78.4844714859
 31
0.0
  0
ARC
  5
9E
330
1F
100
AcDbEntity
  8
0
  6
Continuous
 62
     7
370
    15
100
AcDbCircle
 10
251.5256821279
 20
78.4844714859
 30
0.0
 40
2.0
100
AcDbArc
 50
180.0
 51
270.0
  0
LINE
  5
9F
330
1F
100
AcDbEntity
  8
0
  6
Continuous
 62
     7
370
    15
100
AcDbLine
 10
345.5256821279
 20
76.4844714859
 30
0.0
 11
329.5256821279
 21
76.4844714859
 31
0.0
  0
LINE
  5
A0
330
1F
100
AcDbEntity
  8
0
  6
Continuous
 62
     7
370
    15
100
AcDbLine
 10
501.5256821279
 20
76.4844714859
 30
0.0
 11
485.5256821279
 21
76.4844714859
 31
0.0
  0
ARC
  5
A1
330
1F
100
AcDbEntity
  8
0
  6
Continuous
 62
     7
370
    15
100
AcDbCircle
 10
189.5256821279
 20
78.4844714859
 30
0.0
 40
2.0
100
AcDbArc
 50
270.0
 51
0.0
  0
LINE
  5
A2
330
1F
100
AcDbEntity
  8
0
  6
Continuous
 62
     7
370
    15
100
AcDbLine
 10
111.5256821279
 20
76.4844714859
 30
0.0
 11
95.5256821279
 21
76.4844714859
 31
0.0
  0
LINE
  5
A3
330
1F
100
AcDbEntity
  8
0
  6
Continuous
 62
     7
370
    15
100
AcDbLine
 10
366.5256821279
 20
78.4844714859
 30
0.0
 11
366.5256821279
 21
117.9844714858
 31
0.0
  0
ARC
  5
A4
330
1F
100
AcDbEntity
  8
0
  6
Continuous
 62
     7
370
    15
100
AcDbCircle
 10
111.5256821279
 20
78.4844714859
 30
0.0
 40
2.0
100
AcDbArc
 50
270.0
 51
0.0
  0
ARC
  5
A5
330
1F
100
AcDbEntity
  8
0
  6
Continuous
 62
     7
370
    15
100
AcDbCircle
 10
150.5256821279
 20
78.4844714859
 30
0.0
 40
2.0
100
AcDbArc
 50
270.0
 51
0.0
  0
LINE
  5
A6
330
1F
100
AcDbEntity
  8
0
  6
Continuous
 62
     7
370
    15
100
AcDbLine
 10
540.5256821279
 20
76.4844714859
 30
0.0
 11
524.5256821279
 21
76.4844714859
 31
0.0
  0
LINE
  5
A7
330
1F
100
AcDbEntity
  8
0
  6
Continuous
 62
     7
370
    15
100
AcDbLine
 10
210.5256821279
 20
78.4844714859
 30
0.0
 11
210.5256821279
 21
117.9844714858
 31
0.0
  0
LINE
  5
A8
330
1F
100
AcDbEntity
  8
0
  6
Continuous
 62
     7
370
    15
100
AcDbLine
 10
462.5256821279
 20
76.4844714859
 30
0.0
 11
446.5256821279
 21
76.4844714859
 31
0.0
  0
LINE
  5
A9
330
1F
100
AcDbEntity
  8
0
  6
Continuous
 62
     7
370
    15
100
AcDbLine
 10
386.5256821279
 20
117.9844714858
 30
0.0
 11
386.5256821279
 21
78.4844714859
 31
0.0
  0
LINE
  5
AA
330
1F
100
AcDbEntity
  8
0
  6
Continuous
 62
     7
370
    15
100
AcDbLine
 10
327.5256821279
 20
78.4844714859
 30
0.0
 11
327.5256821279
 21
117.9844714858
 31
0.0
  0
ARC
  5
AB
330
1F
100
AcDbEntity
  8
0
  6
Continuous
 62
     7
370
    15
100
AcDbCircle
 10
134.5256821279
 20
78.4844714859
 30
0.0
 40
2.0
100
AcDbArc
 50
180.0
 51
270.0
  0
LINE
  5
AC
330
1F
100
AcDbEntity
  8
0
  6
Continuous
 62
     7
370
    15
100
AcDbLine
 10
171.5256821279
 20
78.4844714859
 30
0.0
 11
171.5256821279
 21
117.9844714858
 31
0.0
  0
ARC
  5
AD
330
1F
100
AcDbEntity
  8
0
  6
Continuous
 62
     7
370
    15
100
AcDbCircle
 10
345.5256821279
 20
78.4844714859
 30
0.0
 40
2.0
100
AcDbArc
 50
270.0
 51
0.0
  0
ARC
  5
AE
330
1F
100
AcDbEntity
  8
0
  6
Continuous
 62
     7
370
    15
100
AcDbCircle
 10
485.5256821279
 20
78.4844714859
 30
0.0
 40
2.0
100
AcDbArc
 50
180.0
 51
270.0
  0
LINE
  5
AF
330
1F
100
AcDbEntity
  8
0
  6
Continuous
 62
     7
370
    15
100
AcDbLine
 10
347.5256821279
 20
117.9844714858
 30
0.0
 11
347.5256821279
 21
78.4844714859
 31
0.0
  0
ARC
  5
B0
330
1F
100
AcDbEntity
  8
0
  6
Continuous
 62
     7
370
    15
100
AcDbCircle
 10
540.5256821279
 20
78.4844714859
 30
0.0
 40
2.0
100
AcDbArc
 50
270.0
 51
0.0
  0
ARC
  5
B1
330
1F
100
AcDbEntity
  8
0
  6
Continuous
 62
     7
370
    15
100
AcDbCircle
 10
501.5256821279
 20
78.4844714859
 30
0.0
 40
2.0
100
AcDbArc
 50
270.0
 51
0.0
  0
LINE
  5
B2
330
1F
100
AcDbEntity
  8
0
  6
Continuous
 62
     7
370
    15
100
AcDbLine
 10
189.5256821279
 20
76.4844714859
 30
0.0
 11
173.5256821279
 21
76.4844714859
 31
0.0
  0
ARC
  5
B3
330
1F
100
AcDbEntity
  8
0
  6
Continuous
 62
     7
370
    15
100
AcDbCircle
 10
524.5256821279
 20
78.4844714859
 30
0.0
 40
2.0
100
AcDbArc
 50
180.0
 51
270.0
  0
LINE
  5
B4
330
1F
100
AcDbEntity
  8
0
  6
Continuous
 62
     7
370
    15
100
AcDbLine
 10
584.4256821279
 20
65.2844714859
 30
0.0
 11
69.2256821279
 21
65.2844714859
 31
0.0
  0
LINE
  5
B5
330
1F
100
AcDbEntity
  8
0
  6
Continuous
 62
     7
370
    15
100
AcDbLine
 10
712.3549714498
 20
90.6844714859
 30
0.0
 11
711.1756821279
 21
90.6844714859
 31
0.0
  0
SPLINE
  5
B6
330
1F
100
AcDbEntity
  8
0
  6
Continuous
 62
     7
370
    15
100
AcDbSpline
210
0.0
220
0.0
230
1.0
 70
     8
 71
     3
 72
    16
 73
    12
 74
     0
 42
0.00000001
 43
0.00000001
 12
1.0
 22
0.0
 32
0.0
 13
1.0
 23
0.0
 33
0.0
 40
0.0
 40
0.0
 40
0.0
 40
0.0
 40
0.1263423556779854
 40
0.2476546057383271
 40
0.3659208376757142
 40
0.4841746980997594
 40
0.6042965336302292
 40
0.7264205906177483
 40
0.8498578912034854
 40
0.9858935051327548
 40
1.0
 40
1.0
 40
1.0
 40
1.0
 10
711.1756821279105
 20
90.68447148588183
 30
0.0
 10
708.414729658254
 20
90.70415974125912
 30
0.0
 10
703.0027473371566
 20
90.74275239767266
 30
0.0
 10
695.0051152679865
 20
90.67120856861327
 30
0.0
 10
687.1969946743034
 20
90.00142369725911
 30
0.0
 10
679.5680859711802
 20
88.30609044385528
 30
0.0
 10
672.0856051587723
 20
85.814066299234
 30
0.0
 10
664.6799038443393
 20
82.80339431814177
 30
0.0
 10
657.0319563350783
 20
79.4830426122004
 30
0.0
 10
651.5881774977461
 20
76.99722280065069
 30
0.0
 10
648.5144701152519
 20
75.84858838996139
 30
0.0
 10
648.2256821279104
 20
75.7406692622189
 30
0.0
  0
LINE
  5
B7
330
1F
100
AcDbEntity
  8
0
  6
Continuous
 62
     7
370
    15
100
AcDbLine
 10
712.3549714498
 20
109.4344714859
 30
0.0
 11
712.3549714498
 21
90.6844714859
 31
0.0
  0
LINE
  5
B8
330
1F
100
AcDbEntity
  8
0
  6
Continuous
 62
     7
370
    15
100
AcDbLine
 10
648.2256821279
 20
111.4844714859
 30
0.0
 11
711.1756821279
 21
111.4844714859
 31
0.0
  0
SPLINE
  5
B9
330
1F
100
AcDbEntity
  8
0
  6
Continuous
 62
     7
370
    15
100
AcDbSpline
210
0.0
220
0.0
230
1.0
 70
     8
 71
     3
 72
    11
 73
     7
 74
     0
 42
0.00000001
 43
0.00000001
 12
1.0
 22
0.0
 32
0.0
 13
1.0
 23
0.0
 33
0.0
 40
0.0
 40
0.0
 40
0.0
 40
0.0
 40
0.2500000000000112
 40
0.4999999999999959
 40
0.7500000000000032
 40
1.0
 40
1.0
 40
1.0
 40
1.0
 10
712.3549714497917
 20
109.43447148588
 30
0.0
 10
712.256697339635
 20
109.7030974256829
 30
0.0
 10
712.0601491193214
 20
110.2403493052886
 30
0.0
 10
711.7653267888512
 20
110.9179664263376
 30
0.0
 10
711.4705044583807
 20
111.3920273132385
 30
0.0
 10
711.2739562380674
 20
111.4536567616666
 30
0.0
 10
711.1756821279105
 20
111.4844714858806
 30
0.0
  0
LINE
  5
BA
330
1F
100
AcDbEntity
  8
0
  6
Continuous
 62
     7
370
    15
100
AcDbLine
 10
542.5256821279
 20
111.4844714859
 30
0.0
 11
522.5256821279
 21
111.4844714859
 31
0.0
  0
LINE
  5
BB
330
1F
100
AcDbEntity
  8
0
  6
Continuous
 62
     7
370
    15
100
AcDbLine
 10
503.5256821279
 20
111.4844714859
 30
0.0
 11
483.5256821279
 21
111.4844714859
 31
0.0
  0
LINE
  5
BC
330
1F
100
AcDbEntity
  8
0
  6
Continuous
 62
     7
370
    15
100
AcDbLine
 10
464.5256821279
 20
111.4844714859
 30
0.0
 11
444.5256821279
 21
111.4844714859
 31
0.0
  0
LINE
  5
BD
330
1F
100
AcDbEntity
  8
0
  6
Continuous
 62
     7
370
    15
100
AcDbLine
 10
425.5256821279
 20
111.4844714859
 30
0.0
 11
405.5256821279
 21
111.4844714859
 31
0.0
  0
LINE
  5
BE
330
1F
100
AcDbEntity
  8
0
  6
Continuous
 62
     7
370
    15
100
AcDbLine
 10
386.5256821279
 20
111.4844714859
 30
0.0
 11
366.5256821279
 21
111.4844714859
 31
0.0
  0
LINE
  5
BF
330
1F
100
AcDbEntity
  8
0
  6
Continuous
 62
     7
370
    15
100
AcDbLine
 10
347.5256821279
 20
111.4844714859
 30
0.0
 11
327.5256821279
 21
111.4844714859
 31
0.0
  0
LINE
  5
C0
330
1F
100
AcDbEntity
  8
0
  6
Continuous
 62
     7
370
    15
100
AcDbLine
 10
269.5256821279
 20
111.4844714859
 30
0.0
 11
249.5256821279
 21
111.4844714859
 31
0.0
  0
LINE
  5
C1
330
1F
100
AcDbEntity
  8
0
  6
Continuous
 62
     7
370
    15
100
AcDbLine
 10
230.5256821279
 20
111.4844714859
 30
0.0
 11
210.5256821279
 21
111.4844714859
 31
0.0
  0
LINE
  5
C2
330
1F
100
AcDbEntity
  8
0
  6
Continuous
 62
     7
370
    15
100
AcDbLine
 10
191.5256821279
 20
111.4844714859
 30
0.0
 11
171.5256821279
 21
111.4844714859
 31
0.0
  0
LINE
  5
C3
330
1F
100
AcDbEntity
  8
0
  6
Continuous
 62
     7
370
    15
100
AcDbLine
 10
152.5256821279
 20
111.4844714859
 30
0.0
 11
132.5256821279
 21
111.4844714859
 31
0.0
  0
LINE
  5
C4
330
1F
100
AcDbEntity
  8
0
  6
Continuous
 62
     7
370
    15
100
AcDbLine
 10
113.5256821279
 20
111.4844714859
 30
0.0
 11
93.5256821279
 21
111.4844714859
 31
0.0
  0
SPLINE
  5
C5
330
1F
100
AcDbEntity
  8
0
  6
Continuous
 62
     7
370
    15
100
AcDbSpline
210
0.0
220
0.0
230
1.0
 70
     8
 71
     3
 72
    12
 73
     8
 74
     0
 42
0.00000001
 43
0.00000001
 12
1.0
 22
0.0
 32
0.0
 13
1.0
 23
0.0
 33
0.0
 40
0.0
 40
0.0
 40
0.0
 40
0.0
 40
0.2286702771455534
 40
0.4574139526359453
 40
0.6861579520287117
 40
0.9149017666624972
 40
1.0
 40
1.0
 40
1.0
 40
1.0
 10
711.1756821279105
 20
111.4844714858805
 30
0.0
 10
711.4211545474809
 20
111.4587352211664
 30
0.0
 10
711.9121781781012
 20
111.4072544309391
 30
0.0
 10
712.5553438794401
 20
111.0076413809469
 30
0.0
 10
713.0195115435171
 20
110.4262746675313
 30
0.0
 10
713.208291417424
 20
109.8607721221252
 30
0.0
 10
713.2219725031667
 20
109.5254059758649
 30
0.0
 10
713.2256821279105
 20
109.4344714858805
 30
0.0
  0
LINE
  5
C6
330
1F
100
AcDbEntity
  8
0
  6
Continuous
 62
     7
370
    15
100
AcDbLine
 10
712.4256821279
 20
109.4344714859
 30
0.0
 11
713.2256821279
 21
109.4344714859
 31
0.0
  0
LINE
  5
C7
330
1F
100
AcDbEntity
  8
0
  6
Continuous
 62
     7
370
    15
100
AcDbLine
 10
712.4256821279
 20
89.8465533627
 30
0.0
 11
713.2256821279
 21
89.8465533627
 31
0.0
  0
LINE
  5
C8
330
1F
100
AcDbEntity
  8
0
  6
Continuous
 62
     7
370
    15
100
AcDbLine
 10
712.4256821279
 20
109.4344714859
 30
0.0
 11
712.4256821279
 21
89.8465533627
 31
0.0
  0
LINE
  5
C9
330
1F
100
AcDbEntity
  8
0
  6
Continuous
 62
     7
370
    15
100
AcDbLine
 10
713.2256821279
 20
109.4344714859
 30
0.0
 11
713.2256821279
 21
89.8465533627
 31
0.0
  0
LINE
  5
CA
330
1F
100
AcDbEntity
  8
0
  6
Continuous
 62
     7
370
    15
100
AcDbLine
 10
713.2256821279
 20
85.6844714859
 30
0.0
 11
712.4256821279
 21
85.6844714859
 31
0.0
  0
LINE
  5
CB
330
1F
100
AcDbEntity
  8
0
  6
Continuous
 62
     7
370
    15
100
AcDbLine
 10
712.4256821279
 20
85.6844714859
 30
0.0
 11
712.4256821279
 21
89.8465533627
 31
0.0
  0
LINE
  5
CC
330
1F
100
AcDbEntity
  8
0
  6
Continuous
 62
     7
370
    15
100
AcDbLine
 10
713.2256821279
 20
85.6844714859
 30
0.0
 11
713.2256821279
 21
89.8465533627
 31
0.0
  0
LINE
  5
CD
330
1F
100
AcDbEntity
  8
0
  6
Continuous
 62
     7
370
    15
100
AcDbLine
 10
669.2814305895
 20
370.6844714856
 30
0.0
 11
669.2814305895
 21
400.6844714856
 31
0.0
  0
LINE
  5
CE
330
1F
100
AcDbEntity
  8
0
  6
Continuous
 62
     7
370
    15
100
AcDbLine
 10
-24.2185694105
 20
370.6844714856
 30
0.0
 11
669.2814305895
 21
370.6844714856
 31
0.0
  0
LINE
  5
CF
330
1F
100
AcDbEntity
  8
0
  6
Continuous
 62
     7
370
    15
100
AcDbLine
 10
-24.2185694105
 20
570.6844714856
 30
0.0
 11
-24.2185694105
 21
370.6844714856
 31
0.0
  0
LINE
  5
D0
330
1F
100
AcDbEntity
  8
0
  6
Continuous
 62
     7
370
    15
100
AcDbLine
 10
669.2814305895
 20
400.6844714856
 30
0.0
 11
-24.2185694105
 21
570.6844714856
 31
0.0
  0
SPLINE
  5
D1
330
1F
100
AcDbEntity
  8
0
  6
Continuous
 62
     7
370
    15
100
AcDbSpline
210
0.0
220
0.0
230
1.0
 70
     8
 71
     3
 72
    12
 73
     8
 74
     0
 42
0.00000001
 43
0.00000001
 12
1.0
 22
0.0
 32
0.0
 13
1.0
 23
0.0
 33
0.0
 40
0.0
 40
0.0
 40
0.0
 40
0.0
 40
0.2416887957353073
 40
0.4825023922282369
 40
0.7084274265575291
 40
0.9128277113204132
 40
1.0
 40
1.0
 40
1.0
 40
1.0
 10
669.2814305895021
 20
370.6844714856498
 30
0.0
 10
669.459587805538
 20
370.2595568730693
 30
0.0
 10
669.8152570978135
 20
369.4112663412759
 30
0.0
 10
670.2925133582002
 20
368.3069856489203
 30
0.0
 10
670.5703696736006
 20
367.5296328651038
 30
0.0
 10
670.6803624168522
 20
367.2155365693705
 30
0.0
 10
670.703732800688
 20
367.1916214557663
 30
0.0
 10
670.7107199113831
 20
367.1844714856497
 30
0.0
  0
SPLINE
  5
D2
330
1F
100
AcDbEntity
  8
0
  6
Continuous
 62
     7
370
    15
100
AcDbSpline
210
0.0
220
0.0
230
1.0
 70
     8
 71
     3
 72
    11
 73
     7
 74
     0
 42
0.00000001
 43
0.00000001
 12
1.0
 22
0.0
 32
0.0
 13
1.0
 23
0.0
 33
0.0
 40
0.0
 40
0.0
 40
0.0
 40
0.0
 40
0.250000000000002
 40
0.4999999999999999
 40
0.7499999999999989
 40
0.9999999999999999
 40
0.9999999999999999
 40
0.9999999999999999
 40
0.9999999999999999
 10
-23.5114626293117
 20
367.1844714856497
 30
0.0
 10
-23.5703881944106
 20
367.2370819904054
 30
0.0
 10
-23.68823932460845
 20
367.3423029999167
 30
0.0
 10
-23.86501601990499
 20
368.151675245845
 30
0.0
 10
-24.04179271520157
 20
369.3085825256841
 30
0.0
 10
-24.15964384539937
 20
370.2258418323278
 30
0.0
 10
-24.21856941049827
 20
370.6844714856496
 30
0.0
  0
LINE
  5
D3
330
1F
100
AcDbEntity
  8
0
  6
Continuous
 62
     7
370
    15
100
AcDbLine
 10
669.2814305895
 20
400.6844714856
 30
0.0
 11
672.7814305895
 21
400.6844714856
 31
0.0
  0
LINE
  5
D4
330
1F
100
AcDbEntity
  8
0
  6
Continuous
 62
     7
370
    15
100
AcDbLine
 10
672.7814305895
 20
369.2551821638
 30
0.0
 11
672.7814305895
 21
400.6844714856
 31
0.0
  0
SPLINE
  5
D5
330
1F
100
AcDbEntity
  8
0
  6
Continuous
 62
     7
370
    15
100
AcDbSpline
210
0.0
220
0.0
230
1.0
 70
     8
 71
     3
 72
    13
 73
     9
 74
     0
 42
0.00000001
 43
0.00000001
 12
1.0
 22
0.0
 32
0.0
 13
1.0
 23
0.0
 33
0.0
 40
0.0
 40
0.0
 40
0.0
 40
0.0
 40
0.1446410885655569
 40
0.2829375220885615
 40
0.415471012860346
 40
0.5429032421391804
 40
0.7331646029143652
 40
1.0
 40
1.0
 40
1.0
 40
1.0
 10
672.7814305895018
 20
369.2551821637683
 30
0.0
 10
672.7625901839765
 20
369.2683886106089
 30
0.0
 10
672.7257358038877
 20
369.2942222059014
 30
0.0
 10
672.4448570563967
 20
369.3929542804155
 30
0.0
 10
672.0442020795547
 20
369.535134127514
 30
0.0
 10
671.4611336335472
 20
369.7599724880221
 30
0.0
 10
670.5590728732504
 20
370.1490172283605
 30
0.0
 10
669.7523589545261
 20
370.4871074807651
 30
0.0
 10
669.2814305895018
 20
370.6844714856497
 30
0.0
  0
SPLINE
  5
D6
330
1F
100
AcDbEntity
  8
0
  6
Continuous
 62
     7
370
    15
100
AcDbSpline
210
0.0
220
0.0
230
1.0
 70
     8
 71
     3
 72
    13
 73
     9
 74
     0
 42
0.00000001
 43
0.00000001
 12
1.0
 22
0.0
 32
0.0
 13
1.0
 23
0.0
 33
0.0
 40
0.0
 40
0.0
 40
0.0
 40
0.0
 40
0.1264704778939905
 40
0.250376081567258
 40
0.3742089692298405
 40
0.5004663812856404
 40
0.7030662058441483
 40
1.0
 40
1.0
 40
1.0
 40
1.0
 10
670.7814305895018
 20
369.2551821637683
 30
0.0
 10
670.7731886764054
 20
369.2685238261968
 30
0.0
 10
670.7568719996599
 20
369.2949365765562
 30
0.0
 10
670.6341132837179
 20
369.395418679832
 30
0.0
 10
670.4597601198973
 20
369.5399888356703
 30
0.0
 10
670.2045392437167
 20
369.7705305020873
 30
0.0
 10
669.8187279527077
 20
370.1594458063269
 30
0.0
 10
669.4817422934946
 20
370.4887348309273
 30
0.0
 10
669.2814305895018
 20
370.6844714856497
 30
0.0
  0
LWPOLYLINE
  5
D7
330
1F
100
AcDbEntity
  8
0
  6
Continuous
 62
     7
370
    15
100
AcDbPolyline
 90
        2
 70
   128
 43
0.0
 10
669.2814305895
 20
370.6844714856
 10
669.2814305895
 20
370.6844714856
  0
LINE
  5
D8
330
1F
100
AcDbEntity
  8
0
  6
Continuous
 62
     7
370
    15
100
AcDbLine
 10
672.7814305895
 20
369.2551821638
 30
0.0
 11
670.7814305895
 21
369.2551821638
 31
0.0
  0
SPLINE
  5
D9
330
1F
100
AcDbEntity
  8
0
  6
Continuous
 62
     7
370
    15
100
AcDbSpline
210
0.0
220
0.0
230
1.0
 70
     8
 71
     3
 72
    12
 73
     8
 74
     0
 42
0.00000001
 43
0.00000001
 12
1.0
 22
0.0
 32
0.0
 13
1.0
 23
0.0
 33
0.0
 40
0.0
 40
0.0
 40
0.0
 40
0.0
 40
0.3400873345560401
 40
0.5596636451635676
 40
0.7367088164845832
 40
0.9144461290549817
 40
1.0
 40
1.0
 40
1.0
 40
1.0
 10
669.281430589502
 20
370.6844714856497
 30
0.0
 10
669.5058564983508
 20
370.4554836078182
 30
0.0
 10
669.875182284563
 20
370.0786504317966
 30
0.0
 10
670.3201820387519
 20
369.6325293196739
 30
0.0
 10
670.5660237267548
 20
369.3377124210714
 30
0.0
 10
670.6777106863224
 20
369.2002871635074
 30
0.0
 10
670.7026244347676
 20
369.1883502634769
 30
0.0
 10
670.7107199113831
 20
369.1844714856497
 30
0.0
  0
LINE
  5
DA
330
1F
100
AcDbEntity
  8
0
  6
Continuous
 62
     7
370
    15
100
AcDbLine
 10
670.7107199114
 20
367.1844714856
 30
0.0
 11
670.7107199114
 21
369.1844714856
 31
0.0
  0
LINE
  5
DB
330
1F
100
AcDbEntity
  8
0
  6
Continuous
 62
     7
370
    15
100
AcDbLine
 10
-27.7185694105
 20
570.6844714856
 30
0.0
 11
-24.2185694105
 21
570.6844714856
 31
0.0
  0
LINE
  5
DC
330
1F
100
AcDbEntity
  8
0
  6
Continuous
 62
     7
370
    15
100
AcDbLine
 10
-27.7185694105
 20
380.5607271928
 30
0.0
 11
-27.7185694105
 21
570.6844714856
 31
0.0
  0
LINE
  5
DD
330
1F
100
AcDbEntity
  8
0
  6
Continuous
 62
     7
370
    15
100
AcDbLine
 10
-24.2185694105
 20
370.6844714856
 30
0.0
 11
-27.7185694105
 21
370.6844714856
 31
0.0
  0
SPLINE
  5
DE
330
1F
100
AcDbEntity
  8
0
  6
Continuous
 62
     7
370
    15
100
AcDbSpline
210
0.0
220
0.0
230
1.0
 70
     8
 71
     3
 72
    12
 73
     8
 74
     0
 42
0.00000001
 43
0.00000001
 12
1.0
 22
0.0
 32
0.0
 13
1.0
 23
0.0
 33
0.0
 40
0.0
 40
0.0
 40
0.0
 40
0.0
 40
0.2242829316483514
 40
0.4485658503777069
 40
0.6727831784752851
 40
0.8970002579183222
 40
1.0
 40
1.0
 40
1.0
 40
1.0
 10
-25.71856941049811
 20
370.6844714856496
 30
0.0
 10
-25.70045920197362
 20
370.508298670397
 30
0.0
 10
-25.66423878596769
 20
370.1559530500397
 30
0.0
 10
-25.38272028717931
 20
369.6918954466213
 30
0.0
 10
-24.9717430459197
 20
369.3520939858731
 30
0.0
 10
-24.55506369483668
 20
369.200912385962
 30
0.0
 10
-24.29913075432066
 20
369.1884076625313
 30
0.0
 10
-24.21856941049816
 20
369.1844714856496
 30
0.0
  0
LINE
  5
DF
330
1F
100
AcDbEntity
  8
0
  6
Continuous
 62
     7
370
    15
100
AcDbLine
 10
-24.2185694105
 20
367.1844714856
 30
0.0
 11
-24.2185694105
 21
369.1844714856
 31
0.0
  0
SPLINE
  5
E0
330
1F
100
AcDbEntity
  8
0
  6
Continuous
 62
     7
370
    15
100
AcDbSpline
210
0.0
220
0.0
230
1.0
 70
     8
 71
     3
 72
    12
 73
     8
 74
     0
 42
0.00000001
 43
0.00000001
 12
1.0
 22
0.0
 32
0.0
 13
1.0
 23
0.0
 33
0.0
 40
0.0
 40
0.0
 40
0.0
 40
0.0
 40
0.1846098780640704
 40
0.4010403449957552
 40
0.6174740344697404
 40
0.8339076852805702
 40
0.9999999999999999
 40
0.9999999999999999
 40
0.9999999999999999
 40
0.9999999999999999
 10
-27.71856941049811
 20
370.6844714856496
 30
0.0
 10
-27.68984123838886
 20
370.3465825319921
 30
0.0
 10
-27.62743311497417
 20
369.6125638328517
 30
0.0
 10
-27.09732451277075
 20
368.5812433204856
 30
0.0
 10
-26.23676473519881
 20
367.7452296260842
 30
0.0
 10
-25.22192469231299
 20
367.2615570008736
 30
0.0
 10
-24.52233180275154
 20
367.2078088626854
 30
0.0
 10
-24.21856941049816
 20
367.1844714856496
 30
0.0
  0
LINE
  5
E1
330
1F
100
AcDbEntity
  8
0
  6
Continuous
 62
     7
370
    15
100
AcDbLine
 10
-24.2185694105
 20
369.1844714856
 30
0.0
 11
-24.0167885706
 21
369.1844714856
 31
0.0
  0
ARC
  5
E2
330
1F
100
AcDbEntity
  8
0
  6
Continuous
 62
     7
370
    15
100
AcDbCircle
 10
-22.2185694105
 20
372.6844714856
 30
0.0
 40
3.500000000000071
100
AcDbArc
 50
214.849904579
 51
236.6604895165
  0
LINE
  5
E3
330
1F
100
AcDbEntity
  8
0
  6
Continuous
 62
     7
370
    15
100
AcDbLine
 10
765.9296981457
 20
117.1844714859
 30
0.0
 11
765.9296981457
 21
117.9844714859
 31
0.0
  0
LINE
  5
E4
330
1F
100
AcDbEntity
  8
0
  6
Continuous
 62
     7
370
    15
100
AcDbLine
 10
707.3004007538
 20
117.1844714859
 30
0.0
 11
765.9296981457
 21
117.1844714859
 31
0.0
  0
LINE
  5
E5
330
1F
100
AcDbEntity
  8
0
  6
Continuous
 62
     7
370
    15
100
AcDbLine
 10
707.3004007538
 20
117.9844714859
 30
0.0
 11
707.3004007538
 21
117.1844714859
 31
0.0
  0
LINE
  5
E6
330
1F
100
AcDbEntity
  8
0
  6
Continuous
 62
     7
370
    15
100
AcDbLine
 10
707.3004007538
 20
117.9844714859
 30
0.0
 11
765.9296981457
 21
117.9844714859
 31
0.0
  0
LINE
  5
E7
330
1F
100
AcDbEntity
  8
0
  6
Continuous
 62
     7
370
    15
100
AcDbLine
 10
740.42175111
 20
296.64141753
 30
0.0
 11
739.6967048804
 21
296.3033229206
 31
0.0
  0
LINE
  5
E8
330
1F
100
AcDbEntity
  8
0
  6
Continuous
 62
     7
370
    15
100
AcDbLine
 10
796.3286207361
 20
176.7487487127
 30
0.0
 11
740.42175111
 21
296.64141753
 31
0.0
  0
LINE
  5
E9
330
1F
100
AcDbEntity
  8
0
  6
Continuous
 62
     7
370
    15
100
AcDbLine
 10
795.6035745065
 20
176.4106541033
 30
0.0
 11
796.3286207361
 21
176.7487487127
 31
0.0
  0
LINE
  5
EA
330
1F
100
AcDbEntity
  8
0
  6
Continuous
 62
     7
370
    15
100
AcDbLine
 10
795.6035745065
 20
176.4106541033
 30
0.0
 11
739.6967048804
 21
296.3033229206
 31
0.0
  0
ARC
  5
EB
330
1F
100
AcDbEntity
  8
0
  6
Continuous
 62
     7
370
    15
100
AcDbCircle
 10
786.5404966361
 20
172.1844714859
 30
0.0
 40
10.80000000000006
100
AcDbArc
 50
335.0
 51
25.0
  0
LINE
  5
EC
330
1F
100
AcDbEntity
  8
0
  6
Continuous
 62
     7
370
    15
100
AcDbLine
 10
796.3286207361
 20
167.6201942591
 30
0.0
 11
795.6035745065
 21
167.9582888685
 31
0.0
  0
ARC
  5
ED
330
1F
100
AcDbEntity
  8
0
  6
Continuous
 62
     7
370
    15
100
AcDbCircle
 10
786.5404966361
 20
172.1844714859
 30
0.0
 40
10.00000000000003
100
AcDbArc
 50
335.0
 51
25.0
  0
ARC
  5
EE
330
1F
100
AcDbEntity
  8
0
  6
Continuous
 62
     7
370
    15
100
AcDbCircle
 10
741.5546358438
 20
297.1696903571
 30
0.0
 40
1.25000000000008
100
AcDbArc
 50
115.0
 51
205.0
  0
ARC
  5
EF
330
1F
100
AcDbEntity
  8
0
  6
Continuous
 62
     7
370
    15
100
AcDbCircle
 10
741.5546358438
 20
297.1696903571
 30
0.0
 40
2.050000000000009
100
AcDbArc
 50
115.0
 51
205.0
  0
LINE
  5
F0
330
1F
100
AcDbEntity
  8
0
  6
Continuous
 62
     7
370
    15
100
AcDbLine
 10
740.6882684072
 20
299.0276213206
 30
0.0
 11
741.0263630166
 21
298.3025750909
 31
0.0
  0
LINE
  5
F1
330
1F
100
AcDbEntity
  8
0
  6
Continuous
 62
     7
370
    15
100
AcDbLine
 10
753.6693566458
 20
304.1980998422
 30
0.0
 11
753.3312620364
 21
304.9231460718
 31
0.0
  0
LINE
  5
F2
330
1F
100
AcDbEntity
  8
0
  6
Continuous
 62
     7
370
    15
100
AcDbLine
 10
741.0263630166
 20
298.3025750909
 30
0.0
 11
753.6693566458
 21
304.1980998422
 31
0.0
  0
LINE
  5
F3
330
1F
100
AcDbEntity
  8
0
  6
Continuous
 62
     7
370
    15
100
AcDbLine
 10
740.6882684072
 20
299.0276213206
 30
0.0
 11
753.3312620364
 21
304.9231460718
 31
0.0
  0
LINE
  5
F4
330
1F
100
AcDbEntity
  8
0
  6
Continuous
 62
     7
370
    15
100
AcDbLine
 10
755.1438776105
 20
305.7683825953
 30
0.0
 11
755.4819722198
 21
305.0433363657
 31
0.0
  0
LINE
  5
F5
330
1F
100
AcDbEntity
  8
0
  6
Continuous
 62
     7
370
    15
100
AcDbLine
 10
755.4819722198
 20
305.0433363657
 30
0.0
 11
753.6693566458
 21
304.1980998422
 31
0.0
  0
LINE
  5
F6
330
1F
100
AcDbEntity
  8
0
  6
Continuous
 62
     7
370
    15
100
AcDbLine
 10
753.3312620364
 20
304.9231460718
 30
0.0
 11
755.1438776105
 21
305.7683825953
 31
0.0
  0
ARC
  5
F7
330
1F
100
AcDbEntity
  8
0
  6
Continuous
 62
     7
370
    15
100
AcDbCircle
 10
765.9296981457
 20
127.9844714859
 30
0.0
 40
10.79999999999997
100
AcDbArc
 50
270.0
 51
335.0
  0
LINE
  5
F8
330
1F
100
AcDbEntity
  8
0
  6
Continuous
 62
     7
370
    15
100
AcDbLine
 10
774.992776016
 20
123.7582888685
 30
0.0
 11
775.7178222457
 21
123.4201942591
 31
0.0
  0
ARC
  5
F9
330
1F
100
AcDbEntity
  8
0
  6
Continuous
 62
     7
370
    15
100
AcDbCircle
 10
765.9296981457
 20
127.9844714859
 30
0.0
 40
10.00000000000002
100
AcDbArc
 50
270.0
 51
335.0
  0
LINE
  5
FA
330
1F
100
AcDbEntity
  8
0
  6
Continuous
 62
     7
370
    15
100
AcDbLine
 10
775.7178222457
 20
123.4201942591
 30
0.0
 11
796.3286207361
 21
167.6201942591
 31
0.0
  0
LINE
  5
FB
330
1F
100
AcDbEntity
  8
0
  6
Continuous
 62
     7
370
    15
100
AcDbLine
 10
774.992776016
 20
123.7582888685
 30
0.0
 11
795.6035745065
 21
167.9582888685
 31
0.0
  0
LINE
  5
FC
330
1F
100
AcDbEntity
  8
0
  6
Continuous
 62
     7
370
    15
100
AcDbLine
 10
705.3004007538
 20
117.1844714859
 30
0.0
 11
705.3004007538
 21
117.9844714859
 31
0.0
  0
LINE
  5
FD
330
1F
100
AcDbEntity
  8
0
  6
Continuous
 62
     7
370
    15
100
AcDbLine
 10
707.3004007538
 20
117.1844714859
 30
0.0
 11
705.3004007538
 21
117.1844714859
 31
0.0
  0
LINE
  5
FE
330
1F
100
AcDbEntity
  8
0
  6
Continuous
 62
     7
370
    15
100
AcDbLine
 10
705.3004007538
 20
117.9844714859
 30
0.0
 11
707.3004007538
 21
117.9844714859
 31
0.0
  0
LINE
  5
FF
330
1F
100
AcDbEntity
  8
0
  6
Continuous
 62
     7
370
    15
100
AcDbLine
 10
-87.7185694105
 20
365.1844714856
 30
0.0
 11
-98.4685694105
 21
365.1844714856
 31
0.0
  0
LINE
  5
100
330
1F
100
AcDbEntity
  8
0
  6
Continuous
 62
     7
370
    15
100
AcDbLine
 10
-98.4685694105
 20
367.1844714856
 30
0.0
 11
-98.4685694105
 21
365.1844714856
 31
0.0
  0
LINE
  5
101
330
1F
100
AcDbEntity
  8
0
  6
Continuous
 62
     7
370
    15
100
AcDbLine
 10
-87.7185694105
 20
367.1844714856
 30
0.0
 11
-98.4685694105
 21
367.1844714856
 31
0.0
  0
LINE
  5
102
330
1F
100
AcDbEntity
  8
0
  6
Continuous
 62
     7
370
    15
100
AcDbLine
 10
-87.7185694105
 20
365.1844714856
 30
0.0
 11
-87.7185694105
 21
367.1844714856
 31
0.0
  0
LINE
  5
103
330
1F
100
AcDbEntity
  8
0
  6
Continuous
 62
     7
370
    15
100
AcDbLine
 10
779.9095582637
 20
319.9956954548
 30
0.0
 11
781.7221738378
 21
319.1504589313
 31
0.0
  0
LINE
  5
104
330
1F
100
AcDbEntity
  8
0
  6
Continuous
 62
     7
370
    15
100
AcDbLine
 10
794.3476526887
 20
350.9582888682
 30
0.0
 11
779.9095582637
 21
319.9956954548
 31
0.0
  0
LINE
  5
105
330
1F
100
AcDbEntity
  8
0
  6
Continuous
 62
     7
370
    15
100
AcDbLine
 10
796.1602682628
 20
350.1130523447
 30
0.0
 11
794.3476526887
 21
350.9582888682
 31
0.0
  0
LINE
  5
106
330
1F
100
AcDbEntity
  8
0
  6
Continuous
 62
     7
370
    15
100
AcDbLine
 10
796.1602682628
 20
350.1130523447
 30
0.0
 11
781.7221738378
 21
319.1504589313
 31
0.0
  0
ARC
  5
107
330
1F
100
AcDbEntity
  8
0
  6
Continuous
 62
     7
370
    15
100
AcDbCircle
 10
-25.4685694105
 20
369.4344714856
 30
0.0
 40
4.249999999999975
100
AcDbArc
 50
180.0
 51
270.0
  0
LINE
  5
108
330
1F
100
AcDbEntity
  8
0
  6
Continuous
 62
     7
370
    15
100
AcDbLine
 10
-29.7185694105
 20
369.4344714856
 30
0.0
 11
-27.7185694105
 21
369.4344714856
 31
0.0
  0
ARC
  5
109
330
1F
100
AcDbEntity
  8
0
  6
Continuous
 62
     7
370
    15
100
AcDbCircle
 10
-25.4685694105
 20
369.4344714856
 30
0.0
 40
2.249999999999975
100
AcDbArc
 50
180.0
 51
270.0
  0
LINE
  5
10A
330
1F
100
AcDbEntity
  8
0
  6
Continuous
 62
     7
370
    15
100
AcDbLine
 10
-25.4685694105
 20
367.1844714856
 30
0.0
 11
-25.4685694105
 21
365.1844714856
 31
0.0
  0
ARC
  5
10B
330
1F
100
AcDbEntity
  8
0
  6
Continuous
 62
     7
370
    15
100
AcDbCircle
 10
-32.3587472088
 20
380.5607271928
 30
0.0
 40
2.640177798317679
100
AcDbArc
 50
0.0
 51
73.3118701736
  0
LINE
  5
10C
330
1F
100
AcDbEntity
  8
0
  6
Continuous
 62
     7
370
    15
100
AcDbLine
 10
-31.0262641093
 20
385.0054700188
 30
0.0
 11
-31.6005882656
 21
383.0897060032
 31
0.0
  0
LINE
  5
10D
330
1F
100
AcDbEntity
  8
0
  6
Continuous
 62
     7
370
    15
100
AcDbLine
 10
-27.7185694105
 20
380.5607271928
 30
0.0
 11
-29.7185694105
 21
380.5607271928
 31
0.0
  0
ARC
  5
10E
330
1F
100
AcDbEntity
  8
0
  6
Continuous
 62
     7
370
    15
100
AcDbCircle
 10
-32.3587472088
 20
380.5607271928
 30
0.0
 40
4.640177798317697
100
AcDbArc
 50
0.0
 51
73.3118701736
  0
LINE
  5
10F
330
1F
100
AcDbEntity
  8
0
  6
Continuous
 62
     7
370
    15
100
AcDbLine
 10
-98.8365505554
 20
383.0897060032
 30
0.0
 11
-99.4108747117
 21
385.0054700188
 31
0.0
  0
LINE
  5
110
330
1F
100
AcDbEntity
  8
0
  6
Continuous
 62
     7
370
    15
100
AcDbLine
 10
-100.7185694105
 20
380.5607271928
 30
0.0
 11
-102.7185694105
 21
380.5607271928
 31
0.0
  0
ARC
  5
111
330
1F
100
AcDbEntity
  8
0
  6
Continuous
 62
     7
370
    15
100
AcDbCircle
 10
-98.0783916122
 20
380.5607271928
 30
0.0
 40
2.640177798317609
100
AcDbArc
 50
106.6881298264
 51
180.0
  0
ARC
  5
112
330
1F
100
AcDbEntity
  8
0
  6
Continuous
 62
     7
370
    15
100
AcDbCircle
 10
-98.0783916122
 20
380.5607271928
 30
0.0
 40
4.640177798317609
100
AcDbArc
 50
106.6881298264
 51
180.0
  0
LINE
  5
113
330
1F
100
AcDbEntity
  8
0
  6
Continuous
 62
     7
370
    15
100
AcDbLine
 10
-102.7185694105
 20
369.4344714856
 30
0.0
 11
-100.7185694105
 21
369.4344714856
 31
0.0
  0
ARC
  5
114
330
1F
100
AcDbEntity
  8
0
  6
Continuous
 62
     7
370
    15
100
AcDbCircle
 10
-98.4685694105
 20
369.4344714856
 30
0.0
 40
4.250000000000028
100
AcDbArc
 50
180.0
 51
270.0
  0
ARC
  5
115
330
1F
100
AcDbEntity
  8
0
  6
Continuous
 62
     7
370
    15
100
AcDbCircle
 10
-98.4685694105
 20
369.4344714856
 30
0.0
 40
2.250000000000028
100
AcDbArc
 50
180.0
 51
270.0
  0
LINE
  5
116
330
1F
100
AcDbEntity
  8
0
  6
Continuous
 62
     7
370
    15
100
AcDbLine
 10
-100.7185694105
 20
369.4344714856
 30
0.0
 11
-100.7185694105
 21
380.5607271928
 31
0.0
  0
LINE
  5
117
330
1F
100
AcDbEntity
  8
0
  6
Continuous
 62
     7
370
    15
100
AcDbLine
 10
-102.7185694105
 20
369.4344714856
 30
0.0
 11
-102.7185694105
 21
380.5607271928
 31
0.0
  0
LINE
  5
118
330
1F
100
AcDbEntity
  8
0
  6
Continuous
 62
     7
370
    15
100
AcDbLine
 10
-32.2467029414
 20
383.1844714856
 30
0.0
 11
-32.2467029414
 21
385.1844714856
 31
0.0
  0
ARC
  5
119
330
1F
100
AcDbEntity
  8
0
  6
Continuous
 62
     7
370
    15
100
AcDbCircle
 10
-32.2467029414
 20
380.9344714856
 30
0.0
 40
2.250000000000057
100
AcDbArc
 50
73.3118701736
 51
90.0
  0
ARC
  5
11A
330
1F
100
AcDbEntity
  8
0
  6
Continuous
 62
     7
370
    15
100
AcDbCircle
 10
-32.2467029414
 20
380.9344714856
 30
0.0
 40
4.250000000000059
100
AcDbArc
 50
73.3118701736
 51
90.0
  0
LINE
  5
11B
330
1F
100
AcDbEntity
  8
0
  6
Continuous
 62
     7
370
    15
100
AcDbLine
 10
-29.7185694105
 20
380.5607271928
 30
0.0
 11
-29.7185694105
 21
369.4344714856
 31
0.0
  0
LINE
  5
11C
330
1F
100
AcDbEntity
  8
0
  6
Continuous
 62
     7
370
    15
100
AcDbLine
 10
-27.7185694105
 20
380.5607271928
 30
0.0
 11
-27.7185694105
 21
369.4344714856
 31
0.0
  0
LINE
  5
11D
330
1F
100
AcDbEntity
  8
0
  6
Continuous
 62
     7
370
    15
100
AcDbLine
 10
785.2845748183
 20
365.1844714856
 30
0.0
 11
785.2845748183
 21
367.1844714856
 31
0.0
  0
ARC
  5
11E
330
1F
100
AcDbEntity
  8
0
  6
Continuous
 62
     7
370
    15
100
AcDbCircle
 10
785.2845748183
 20
355.1844714856
 30
0.0
 40
10.00000000000008
100
AcDbArc
 50
335.0
 51
90.0
  0
ARC
  5
11F
330
1F
100
AcDbEntity
  8
0
  6
Continuous
 62
     7
370
    15
100
AcDbCircle
 10
785.2845748183
 20
355.1844714856
 30
0.0
 40
12.00000000000008
100
AcDbArc
 50
335.0
 51
90.0
  0
ARC
  5
120
330
1F
100
AcDbEntity
  8
0
  6
Continuous
 62
     7
370
    15
100
AcDbCircle
 10
-98.1904358796
 20
380.9344714856
 30
0.0
 40
2.25
100
AcDbArc
 50
90.0
 51
106.6881298264
  0
LINE
  5
121
330
1F
100
AcDbEntity
  8
0
  6
Continuous
 62
     7
370
    15
100
AcDbLine
 10
-98.1904358796
 20
385.1844714856
 30
0.0
 11
-98.1904358796
 21
383.1844714856
 31
0.0
  0
ARC
  5
122
330
1F
100
AcDbEntity
  8
0
  6
Continuous
 62
     7
370
    15
100
AcDbCircle
 10
-98.1904358796
 20
380.9344714856
 30
0.0
 40
4.250000000000029
100
AcDbArc
 50
90.0
 51
106.6881298264
  0
LINE
  5
123
330
1F
100
AcDbEntity
  8
0
  6
Continuous
 62
     7
370
    15
100
AcDbLine
 10
-98.1904358796
 20
383.1844714856
 30
0.0
 11
-32.2467029414
 21
383.1844714856
 31
0.0
  0
LINE
  5
124
330
1F
100
AcDbEntity
  8
0
  6
Continuous
 62
     7
370
    15
100
AcDbLine
 10
-98.1904358796
 20
385.1844714856
 30
0.0
 11
-32.2467029414
 21
385.1844714856
 31
0.0
  0
LINE
  5
125
330
1F
100
AcDbEntity
  8
0
  6
Continuous
 62
     7
370
    15
100
AcDbLine
 10
-25.4685694105
 20
367.1844714856
 30
0.0
 11
785.2845748183
 21
367.1844714856
 31
0.0
  0
LINE
  5
126
330
1F
100
AcDbEntity
  8
0
  6
Continuous
 62
     7
370
    15
100
AcDbLine
 10
-25.4685694105
 20
365.1844714856
 30
0.0
 11
785.2845748183
 21
365.1844714856
 31
0.0
  0
LINE
  5
127
330
1F
100
AcDbEntity
  8
0
  6
Continuous
 62
     7
370
    15
100
AcDbLine
 10
775.9178995342
 20
313.3461846278
 30
0.0
 11
775.0726630107
 21
315.1588002018
 31
0.0
  0
LINE
  5
128
330
1F
100
AcDbEntity
  8
0
  6
Continuous
 62
     7
370
    15
100
AcDbLine
 10
755.7136589105
 20
306.1315483356
 30
0.0
 11
756.5588954339
 21
304.3189327616
 31
0.0
  0
LINE
  5
129
330
1F
100
AcDbEntity
  8
0
  6
Continuous
 62
     7
370
    15
100
AcDbLine
 10
775.0726630107
 20
315.1588002018
 30
0.0
 11
755.7136589105
 21
306.1315483356
 31
0.0
  0
LINE
  5
12A
330
1F
100
AcDbEntity
  8
0
  6
Continuous
 62
     7
370
    15
100
AcDbLine
 10
775.9178995342
 20
313.3461846278
 30
0.0
 11
756.5588954339
 21
304.3189327616
 31
0.0
  0
ARC
  5
12B
330
1F
100
AcDbEntity
  8
0
  6
Continuous
 62
     7
370
    15
100
AcDbCircle
 10
770.8464803933
 20
324.2218780722
 30
0.0
 40
10.00000000000012
100
AcDbArc
 50
295.0
 51
335.0
  0
ARC
  5
12C
330
1F
100
AcDbEntity
  8
0
  6
Continuous
 62
     7
370
    15
100
AcDbCircle
 10
770.8464803933
 20
324.2218780722
 30
0.0
 40
12.00000000000008
100
AcDbArc
 50
295.0
 51
335.0
  0
LINE
  5
12D
330
1F
100
AcDbEntity
  8
0
  6
Continuous
 62
     7
370
    15
100
AcDbLine
 10
-31.9701764663
 20
365.3844714851
 30
0.0
 11
-87.6201764674
 21
365.3844714851
 31
0.0
  0
LINE
  5
12E
330
1F
100
AcDbEntity
  8
0
  6
Continuous
 62
     7
370
    15
100
AcDbLine
 10
-87.6201764674
 20
365.3844714851
 30
0.0
 11
-87.6201764674
 21
367.3844714856
 31
0.0
  0
LINE
  5
12F
330
1F
100
AcDbEntity
  8
0
  6
Continuous
 62
     7
370
    15
100
AcDbLine
 10
-87.6201764674
 20
367.6844714851
 30
0.0
 11
-31.9701764663
 21
367.6844714851
 31
0.0
  0
LINE
  5
130
330
1F
100
AcDbEntity
  8
0
  6
Continuous
 62
     7
370
    15
100
AcDbLine
 10
-87.6201764674
 20
367.3844714856
 30
0.0
 11
-98.4701764663
 21
367.3844714856
 31
0.0
  0
ARC
  5
131
330
1F
100
AcDbEntity
  8
0
  6
Continuous
 62
     7
370
    15
100
AcDbCircle
 10
-98.4701764663
 20
369.5344714856
 30
0.0
 40
2.149999999999977
100
AcDbArc
 50
180.0
 51
270.0
  0
LINE
  5
132
330
1F
100
AcDbEntity
  8
0
  6
Continuous
 62
     7
370
    15
100
AcDbLine
 10
-31.9701764663
 20
380.8844714856
 30
0.0
 11
-98.4685694105
 21
380.8844714856
 31
0.0
  0
ARC
  5
133
330
1F
100
AcDbEntity
  8
0
  6
Continuous
 62
     7
370
    15
100
AcDbCircle
 10
-31.9701764663
 20
381.0344714856
 30
0.0
 40
2.149999999999984
100
AcDbArc
 50
359.9999999959
 51
90.0
  0
LINE
  5
134
330
1F
100
AcDbEntity
  8
0
  6
Continuous
 62
     7
370
    15
100
AcDbLine
 10
-29.8201764663
 20
381.0344714855
 30
0.0
 11
-29.8201764663
 21
369.5344714855
 31
0.0
  0
ARC
  5
135
330
1F
100
AcDbEntity
  8
0
  6
Continuous
 62
     7
370
    15
100
AcDbCircle
 10
-25.4701764663
 20
369.5344714851
 30
0.0
 40
4.349999999999966
100
AcDbArc
 50
179.999999996
 51
252.5584061437
  0
LINE
  5
136
330
1F
100
AcDbEntity
  8
0
  6
Continuous
 62
     7
370
    15
100
AcDbLine
 10
-87.6201764674
 20
367.6844714851
 30
0.0
 11
-87.6201764674
 21
367.3844714856
 31
0.0
  0
LINE
  5
137
330
1F
100
AcDbEntity
  8
0
  6
Continuous
 62
     7
370
    15
100
AcDbLine
 10
-98.4685694105
 20
383.1844714856
 30
0.0
 11
-98.4685694105
 21
380.8844714856
 31
0.0
  0
LINE
  5
138
330
1F
100
AcDbEntity
  8
0
  6
Continuous
 62
     7
370
    15
100
AcDbLine
 10
-31.9701764663
 20
380.8844714856
 30
0.0
 11
-31.9701764663
 21
383.1844714856
 31
0.0
  0
LINE
  5
139
330
1F
100
AcDbEntity
  8
0
  6
Continuous
 62
     7
370
    15
100
AcDbLine
 10
-100.6201764663
 20
369.5344714856
 30
0.0
 11
-100.6201764663
 21
381.0344714856
 31
0.0
  0
ARC
  5
13A
330
1F
100
AcDbEntity
  8
0
  6
Continuous
 62
     7
370
    15
100
AcDbCircle
 10
-98.4701764663
 20
381.0344714856
 30
0.0
 40
2.149999999999977
100
AcDbArc
 50
90.0
 51
180.0
  0
LINE
  5
13B
330
1F
100
AcDbEntity
  8
0
  6
Continuous
 62
     7
370
    15
100
AcDbLine
 10
-98.4701764663
 20
383.1844714856
 30
0.0
 11
-98.4685694105
 21
383.1844714856
 31
0.0
  0
LINE
  5
13C
330
1F
100
AcDbEntity
  8
0
  6
Continuous
 62
     7
370
    15
100
AcDbLine
 10
-26.7740169473
 20
365.3844714851
 30
0.0
 11
-31.9701764663
 21
365.3844714851
 31
0.0
  0
LINE
  5
13D
330
1F
100
AcDbEntity
  8
0
  6
Continuous
 62
     7
370
    15
100
AcDbLine
 10
-31.9701764663
 20
365.3844714851
 30
0.0
 11
-31.9701764663
 21
367.6844714851
 31
0.0
  0
LINE
  5
13E
330
1F
100
AcDbEntity
  8
0
  6
Continuous
 62
     7
370
    15
100
AcDbLine
 10
-72.7185685071
 20
396.6844714856
 30
0.0
 11
-57.7185694105
 21
396.6844714856
 31
0.0
  0
LINE
  5
13F
330
1F
100
AcDbEntity
  8
0
  6
Continuous
 62
     7
370
    15
100
AcDbLine
 10
782.8950425294
 20
212.9034297387
 30
0.0
 11
759.4829059777
 21
263.1109185978
 31
0.0
  0
LINE
  5
140
330
1F
100
AcDbEntity
  8
0
  6
Continuous
 62
     7
370
    15
100
AcDbLine
 10
780.1287889089
 20
211.4894001772
 30
0.0
 11
782.8950425294
 21
212.9034297387
 31
0.0
  0
LINE
  5
141
330
1F
100
AcDbEntity
  8
0
  6
Continuous
 62
     7
370
    15
100
AcDbLine
 10
761.984241493
 20
262.231515596
 30
0.0
 11
783.8292082235
 21
215.3848332641
 31
0.0
  0
ARC
  5
142
330
1F
100
AcDbEntity
  8
0
  6
Continuous
 62
     7
370
    15
100
AcDbCircle
 10
782.05776988
 20
214.6351778569
 30
0.0
 40
1.923532436518447
100
AcDbArc
 50
295.8030276957
 51
22.9376068066
  0
ARC
  5
143
330
1F
100
AcDbEntity
  8
0
  6
Continuous
 62
     7
370
    15
100
AcDbCircle
 10
760.2713135155
 20
261.3563843039
 30
0.0
 40
1.923532436518471
100
AcDbArc
 50
27.0623931934
 51
114.1969723043
  0
LINE
  5
144
330
1F
100
AcDbEntity
  8
0
  6
Continuous
 62
     7
370
    15
100
AcDbLine
 10
768.251404458
 20
260.6225491612
 30
0.0
 11
786.6251231288
 21
221.2199823163
 31
0.0
  0
SPLINE
  5
145
330
1F
100
AcDbEntity
  8
0
  6
Continuous
 62
     7
370
    15
100
AcDbSpline
210
0.0
220
0.0
230
1.0
 70
     8
 71
     3
 72
    11
 73
     7
 74
     0
 42
0.00000001
 43
0.00000001
 12
1.0
 22
0.0
 32
0.0
 13
1.0
 23
0.0
 33
0.0
 40
0.0
 40
0.0
 40
0.0
 40
0.0
 40
0.2835227646035715
 40
0.5667788824160988
 40
0.8499302227267652
 40
1.0
 40
1.0
 40
1.0
 40
1.0
 10
782.8950425293992
 20
212.9034297387334
 30
0.0
 10
782.9450267179978
 20
212.8123086914972
 30
0.0
 10
783.0449480861881
 20
212.6301522943226
 30
0.0
 10
783.2766744674194
 20
212.1404084219654
 30
0.0
 10
783.4974387568308
 20
211.6470480855381
 30
0.0
 10
783.6320109994521
 20
211.332119260888
 30
0.0
 10
783.6786274400123
 20
211.2230264751167
 30
0.0
  0
LWPOLYLINE
  5
146
330
1F
100
AcDbEntity
  8
0
  6
Continuous
 62
     7
370
    15
100
AcDbPolyline
 90
        3
 70
   128
 43
0.0
 10
783.67862744
 20
211.2230264751
 10
783.1850426455
 20
210.9712005391
 10
780.911288581
 20
209.8113242151
  0
SPLINE
  5
147
330
1F
100
AcDbEntity
  8
0
  6
Continuous
 62
     7
370
    15
100
AcDbSpline
210
0.0
220
0.0
230
1.0
 70
     8
 71
     3
 72
    11
 73
     7
 74
     0
 42
0.00000001
 43
0.00000001
 12
1.0
 22
0.0
 32
0.0
 13
1.0
 23
0.0
 33
0.0
 40
0.0
 40
0.0
 40
0.0
 40
0.0
 40
0.2835227523786771
 40
0.5667788888047357
 40
0.8499302218874426
 40
1.0
 40
1.0
 40
1.0
 40
1.0
 10
758.699321067069
 20
264.7913218614214
 30
0.0
 10
758.8005476120805
 20
264.5903096129591
 30
0.0
 10
759.0029055118184
 20
264.1884741416828
 30
0.0
 10
759.2575867085027
 20
263.6495099574533
 30
0.0
 10
759.4148063525512
 20
263.2924245208307
 30
0.0
 10
759.4653852246349
 20
263.1576166589207
 30
0.0
 10
759.4829059776976
 20
263.1109185978109
 30
0.0
  0
LINE
  5
148
330
1F
100
AcDbEntity
  8
0
  6
Continuous
 62
     7
370
    15
100
AcDbLine
 10
785.3963780447
 20
212.0240267369
 30
0.0
 11
783.67862744
 21
211.2230264751
 31
0.0
  0
SPLINE
  5
149
330
1F
100
AcDbEntity
  8
0
  6
Continuous
 62
     7
370
    15
100
AcDbSpline
210
0.0
220
0.0
230
1.0
 70
    24
 71
     3
 72
    15
 73
    11
 74
     0
 42
0.00000001
 43
0.00000001
 12
1.0
 22
0.0
 32
0.0
 13
1.0
 23
0.0
 33
0.0
 40
0.0
 40
0.0
 40
0.0
 40
0.0
 40
0.0745161114513692
 40
0.1496239856739158
 40
0.2892666568875171
 40
0.4329558037951879
 40
0.5726906068482278
 40
0.7164837842598639
 40
0.8562164859834676
 40
0.9999999999999999
 40
0.9999999999999999
 40
0.9999999999999999
 40
0.9999999999999999
 10
785.3963780447157
 20
212.0240267368904
 30
0.0
 10
785.3465166338893
 20
212.1309548774741
 30
0.0
 10
785.2463978424779
 20
212.3456603185287
 30
0.0
 10
785.054405083755
 20
212.7573901182983
 30
0.0
 10
784.8215917763466
 20
213.256659867221
 30
0.0
 10
784.5631125277373
 20
213.8109704046736
 30
0.0
 10
784.3257104901905
 20
214.3200807171344
 30
0.0
 10
784.1215545491673
 20
214.7578945455221
 30
0.0
 10
783.9487092162993
 20
215.1285625580352
 30
0.0
 10
783.8694195119084
 20
215.2985998778262
 30
0.0
 10
783.8292082234894
 20
215.3848332641236
 30
0.0
  0
LINE
  5
14A
330
1F
100
AcDbEntity
  8
0
  6
Continuous
 62
     7
370
    15
100
AcDbLine
 10
760.4170716718
 20
265.5923221232
 30
0.0
 11
758.6993210671
 21
264.7913218614
 31
0.0
  0
SPLINE
  5
14B
330
1F
100
AcDbEntity
  8
0
  6
Continuous
 62
     7
370
    15
100
AcDbSpline
210
0.0
220
0.0
230
1.0
 70
    24
 71
     3
 72
    15
 73
    11
 74
     0
 42
0.00000001
 43
0.00000001
 12
1.0
 22
0.0
 32
0.0
 13
1.0
 23
0.0
 33
0.0
 40
0.0
 40
0.0
 40
0.0
 40
0.0
 40
0.0745160978335497
 40
0.1496239580074808
 40
0.289266635213867
 40
0.4329557893442372
 40
0.5726905957269051
 40
0.7164837765102806
 40
0.8562164820678125
 40
0.9999999999999999
 40
0.9999999999999999
 40
0.9999999999999999
 40
0.9999999999999999
 10
761.9842414929985
 20
262.2315155959616
 30
0.0
 10
761.9645172552422
 20
262.2738143603319
 30
0.0
 10
761.9249121416148
 20
262.3587478005938
 30
0.0
 10
761.8288430020492
 20
262.5647687352385
 30
0.0
 10
761.6850224688233
 20
262.8731928640531
 30
0.0
 10
761.4788582014748
 20
263.3153135621442
 30
0.0
 10
761.2406195663644
 20
263.8262179638706
 30
0.0
 10
760.9811514952897
 20
264.3826490379425
 30
0.0
 10
760.7032436636581
 20
264.9786243061395
 30
0.0
 10
760.5133666416455
 20
265.3858168938917
 30
0.0
 10
760.4170716717723
 20
265.5923221231948
 30
0.0
  0
SPLINE
  5
14C
330
1F
100
AcDbEntity
  8
0
  6
Continuous
 62
     7
370
    15
100
AcDbSpline
210
0.0
220
0.0
230
1.0
 70
     8
 71
     3
 72
    12
 73
     8
 74
     0
 42
0.00000001
 43
0.00000001
 12
1.0
 22
0.0
 32
0.0
 13
1.0
 23
0.0
 33
0.0
 40
0.0
 40
0.0
 40
0.0
 40
0.0
 40
0.1175335017814549
 40
0.3293297023551765
 40
0.537394332022754
 40
0.8742805681199532
 40
1.0
 40
1.0
 40
1.0
 40
1.0
 10
748.7194592737137
 20
282.3962273232129
 30
0.0
 10
749.0459100571625
 20
282.4188374591279
 30
0.0
 10
749.9606274587305
 20
282.4821912197004
 30
0.0
 10
751.4214169024496
 20
281.9880238908137
 30
0.0
 10
753.1113774416328
 20
280.7006467898794
 30
0.0
 10
754.1047877177076
 20
279.0823196282013
 30
0.0
 10
754.6598744025665
 20
277.9286838083004
 30
0.0
 10
754.8107268185552
 20
277.615167459682
 30
0.0
  0
LINE
  5
14D
330
1F
100
AcDbEntity
  8
0
  6
Continuous
 62
     7
370
    15
100
AcDbLine
 10
754.8107268186
 20
277.6151674597
 30
0.0
 11
753.0929762139
 21
276.8141671979
 31
0.0
  0
LINE
  5
14E
330
1F
100
AcDbEntity
  8
0
  6
Continuous
 62
     7
370
    15
100
AcDbLine
 10
758.6993210671
 20
264.7913218614
 30
0.0
 11
753.0929762139
 21
276.8141671979
 31
0.0
  0
LINE
  5
14F
330
1F
100
AcDbEntity
  8
0
  6
Continuous
 62
     7
370
    15
100
AcDbLine
 10
795.6242462193
 20
185.6055643331
 30
0.0
 11
783.67862744
 21
211.2230264751
 31
0.0
  0
LINE
  5
150
330
1F
100
AcDbEntity
  8
0
  6
Continuous
 62
     7
370
    15
100
AcDbLine
 10
796.4856661799
 20
183.3280601795
 30
0.0
 11
795.6242462193
 21
185.6055643331
 31
0.0
  0
LINE
  5
151
330
1F
100
AcDbEntity
  8
0
  6
Continuous
 62
     7
370
    15
100
AcDbLine
 10
796.4856661799
 20
183.3280601795
 30
0.0
 11
793.8366475309
 21
182.0928024969
 31
0.0
  0
SPLINE
  5
152
330
1F
100
AcDbEntity
  8
0
  6
Continuous
 62
     7
370
    15
100
AcDbSpline
210
0.0
220
0.0
230
1.0
 70
     8
 71
     3
 72
     9
 73
     5
 74
     0
 42
0.00000001
 43
0.00000001
 12
1.0
 22
0.0
 32
0.0
 13
1.0
 23
0.0
 33
0.0
 40
0.0
 40
0.0
 40
0.0
 40
0.0
 40
0.0000220488581531
 40
1.0
 40
1.0
 40
1.0
 40
1.0
 10
797.3419968240435
 20
186.4065645948535
 30
0.0
 10
797.3420052764046
 20
186.4065464686952
 30
0.0
 10
797.7253521606953
 20
185.5844559008552
 30
0.0
 10
798.0162902222023
 20
184.7233616577563
 30
0.0
 10
798.3072218688573
 20
183.8622864008022
 30
0.0
  0
SPLINE
  5
153
330
1F
100
AcDbEntity
  8
0
  6
Continuous
 62
     7
370
    15
100
AcDbSpline
210
0.0
220
0.0
230
1.0
 70
     8
 71
     3
 72
    11
 73
     7
 74
     0
 42
0.00000001
 43
0.00000001
 12
1.0
 22
0.0
 32
0.0
 13
1.0
 23
0.0
 33
0.0
 40
0.0
 40
0.0
 40
0.0
 40
0.0
 40
0.2499768814501117
 40
0.4998058427201332
 40
0.7495361389842164
 40
1.0
 40
1.0
 40
1.0
 40
1.0
 10
798.3072218688573
 20
183.8622864008022
 30
0.0
 10
798.2818722998909
 20
183.8482554793894
 30
0.0
 10
798.231188162197
 20
183.8202019391574
 30
0.0
 10
797.8163668367122
 20
183.6929376633614
 30
0.0
 10
797.2163355896968
 20
183.5225392740052
 30
0.0
 10
796.729460660249
 20
183.3929498945528
 30
0.0
 10
796.485666179873
 20
183.3280601795254
 30
0.0
  0
LINE
  5
154
330
1F
100
AcDbEntity
  8
0
  6
Continuous
 62
     7
370
    15
100
AcDbLine
 10
797.341996824
 20
186.4065645949
 30
0.0
 11
795.6242462193
 21
185.6055643331
 31
0.0
  0
SPLINE
  5
155
330
1F
100
AcDbEntity
  8
0
  6
Continuous
 62
     7
370
    15
100
AcDbSpline
210
0.0
220
0.0
230
1.0
 70
     8
 71
     3
 72
    11
 73
     7
 74
     0
 42
0.00000001
 43
0.00000001
 12
1.0
 22
0.0
 32
0.0
 13
1.0
 23
0.0
 33
0.0
 40
0.0
 40
0.0
 40
0.0
 40
0.0
 40
0.2440033155519288
 40
0.4919416665609536
 40
0.7439093003483555
 40
1.0
 40
1.0
 40
1.0
 40
1.0
 10
797.1205253362133
 20
182.0189063744237
 30
0.0
 10
797.0835829019724
 20
182.1019251224325
 30
0.0
 10
797.0091022637638
 20
182.2693014597535
 30
0.0
 10
796.8562062265509
 20
182.5900949905411
 30
0.0
 10
796.6803611953268
 20
182.9478305097639
 30
0.0
 10
796.5509146858153
 20
183.2006330966647
 30
0.0
 10
796.485666179873
 20
183.3280601795254
 30
0.0
  0
LINE
  5
156
330
1F
100
AcDbEntity
  8
0
  6
Continuous
 62
     7
370
    15
100
AcDbLine
 10
797.1205253362
 20
182.0189063744
 30
0.0
 11
794.5028857649
 21
180.6640499935
 31
0.0
  0
SPLINE
  5
157
330
1F
100
AcDbEntity
  8
0
  6
Continuous
 62
     7
370
    15
100
AcDbSpline
210
0.0
220
0.0
230
1.0
 70
     8
 71
     3
 72
    11
 73
     7
 74
     0
 42
0.00000001
 43
0.00000001
 12
1.0
 22
0.0
 32
0.0
 13
1.0
 23
0.0
 33
0.0
 40
0.0
 40
0.0
 40
0.0
 40
0.0
 40
0.2501480011265499
 40
0.5002880311524435
 40
0.7504202668475171
 40
1.0
 40
1.0
 40
1.0
 40
1.0
 10
798.3072218688573
 20
183.8622864008022
 30
0.0
 10
798.3288751119752
 20
183.6884562873595
 30
0.0
 10
798.3721809082192
 20
183.3408015996643
 30
0.0
 10
798.1400421957527
 20
182.8080206413307
 30
0.0
 10
797.7230621210128
 20
182.3329015824643
 30
0.0
 10
797.3212228343484
 20
182.1234942672627
 30
0.0
 10
797.1205253362132
 20
182.0189063744237
 30
0.0
  0
LINE
  5
158
330
1F
100
AcDbEntity
  8
0
  6
Continuous
 62
     7
370
    15
100
AcDbLine
 10
754.8107268186
 20
277.6151674597
 30
0.0
 11
760.4170716718
 21
265.5923221232
 31
0.0
  0
LINE
  5
159
330
1F
100
AcDbEntity
  8
0
  6
Continuous
 62
     7
370
    15
100
AcDbLine
 10
785.3963780447
 20
212.0240267369
 30
0.0
 11
797.341996824
 21
186.4065645949
 31
0.0
  0
SPLINE
  5
15A
330
1F
100
AcDbEntity
  8
0
  6
Continuous
 62
     7
370
    15
100
AcDbSpline
210
0.0
220
0.0
230
1.0
 70
     8
 71
     3
 72
    14
 73
    10
 74
     0
 42
0.00000001
 43
0.00000001
 12
1.0
 22
0.0
 32
0.0
 13
1.0
 23
0.0
 33
0.0
 40
0.0
 40
0.0
 40
0.0
 40
0.0
 40
0.0024045749465504
 40
0.0051901321609199
 40
0.0347267574258724
 40
0.2932094380103026
 40
0.5746449636639255
 40
0.7844996086191863
 40
1.0
 40
1.0
 40
1.0
 40
1.0
 10
796.2874525874338
 20
178.0201348840602
 30
0.0
 10
796.2893225172936
 20
178.0211332900572
 30
0.0
 10
796.2933586497991
 20
178.0232882900841
 30
0.0
 10
796.3203220313354
 20
178.0379557742279
 30
0.0
 10
796.544320346445
 20
178.171167128708
 30
0.0
 10
796.9548704959188
 20
178.6154086247828
 30
0.0
 10
797.3639990541342
 20
179.6055334965464
 30
0.0
 10
797.4322972038137
 20
180.7631314022098
 30
0.0
 10
797.2253648313374
 20
181.5966270485507
 30
0.0
 10
797.1205253362133
 20
182.0189063744237
 30
0.0
  0
SPLINE
  5
15B
330
1F
100
AcDbEntity
  8
0
  6
Continuous
 62
     7
370
    15
100
AcDbSpline
210
0.0
220
0.0
230
1.0
 70
     8
 71
     3
 72
    20
 73
    16
 74
     0
 42
0.00000001
 43
0.00000001
 12
1.0
 22
0.0
 32
0.0
 13
1.0
 23
0.0
 33
0.0
 40
0.0
 40
0.0
 40
0.0
 40
0.0
 40
0.2070577373168148
 40
0.4203770502760585
 40
0.7011163025568192
 40
0.8834527988428823
 40
0.9282286404933983
 40
0.9524788585968363
 40
0.9675018207221295
 40
0.9773827146381987
 40
0.9840938553685633
 40
0.988739363909705
 40
0.9919933949589157
 40
0.9977340800222632
 40
1.0
 40
1.0
 40
1.0
 40
1.0
 10
798.3072218688573
 20
183.8622864008022
 30
0.0
 10
798.4120872024708
 20
183.373171928542
 30
0.0
 10
798.6249890731848
 20
182.3801518088377
 30
0.0
 10
798.4265577645602
 20
180.6713943219973
 30
0.0
 10
797.7924708705613
 20
179.374580500372
 30
0.0
 10
797.121717354955
 20
178.6068933734836
 30
0.0
 10
796.7113656044546
 20
178.285367256775
 30
0.0
 10
796.5658826050227
 20
178.185271777603
 30
0.0
 10
796.4779864646059
 20
178.1294001946529
 30
0.0
 10
796.4203116824506
 20
178.0946284614845
 30
0.0
 10
796.3810603838297
 20
178.0718127274315
 30
0.0
 10
796.3538203549044
 20
178.0563782314359
 30
0.0
 10
796.3282350056345
 20
178.0421449367764
 30
0.0
 10
796.3069776036507
 20
178.0305511696289
 30
0.0
 10
796.2917594276928
 20
178.0224325148297
 30
0.0
 10
796.2874525874338
 20
178.0201348840602
 30
0.0
  0
SPLINE
  5
15C
330
1F
100
AcDbEntity
  8
0
  6
Continuous
 62
     7
370
    15
100
AcDbSpline
210
0.0
220
0.0
230
1.0
 70
     8
 71
     3
 72
    10
 73
     6
 74
     0
 42
0.00000001
 43
0.00000001
 12
1.0
 22
0.0
 32
0.0
 13
1.0
 23
0.0
 33
0.0
 40
0.0
 40
0.0
 40
0.0
 40
0.0
 40
0.4527378322501928
 40
0.9055954617517075
 40
1.0
 40
1.0
 40
1.0
 40
1.0
 10
798.4293036110374
 20
181.0653645009396
 30
0.0
 10
798.4369266578859
 20
181.1178639249827
 30
0.0
 10
798.4521747686883
 20
181.2228766647435
 30
0.0
 10
798.5755357860313
 20
181.7055455237378
 30
0.0
 10
798.5335152538227
 20
182.1819913041965
 30
0.0
 10
798.5262665727081
 20
182.264179780863
 30
0.0
  0
SPLINE
  5
15D
330
1F
100
AcDbEntity
  8
0
  6
Continuous
 62
     7
370
    15
100
AcDbSpline
210
0.0
220
0.0
230
1.0
 70
     8
 71
     3
 72
    12
 73
     8
 74
     0
 42
0.00000001
 43
0.00000001
 12
1.0
 22
0.0
 32
0.0
 13
1.0
 23
0.0
 33
0.0
 40
0.0
 40
0.0
 40
0.0
 40
0.0
 40
0.4616906276028208
 40
0.730772995714301
 40
0.9175829348221746
 40
0.9719359401455067
 40
1.0
 40
1.0
 40
1.0
 40
1.0
 10
798.2861711244643
 20
183.9376721996037
 30
0.0
 10
798.2561573315725
 20
184.0462320396263
 30
0.0
 10
798.2086509105343
 20
184.2180626871739
 30
0.0
 10
798.1370275312636
 20
184.442161677117
 30
0.0
 10
798.0955363034817
 20
184.5665304240057
 30
0.0
 10
798.0730490836985
 20
184.6322020269999
 30
0.0
 10
798.066104886548
 20
184.6522899354086
 30
0.0
 10
798.0637402990195
 20
184.6591301239389
 30
0.0
  0
LINE
  5
15E
330
1F
100
AcDbEntity
  8
0
  6
Continuous
 62
     7
370
    15
100
AcDbLine
 10
753.4408869784
 20
279.8763118077
 30
0.0
 11
752.995274255
 21
280.6112008255
 31
0.0
  0
LINE
  5
15F
330
1F
100
AcDbEntity
  8
0
  6
Continuous
 62
     7
370
    15
100
AcDbLine
 10
797.3881785711
 20
186.3070191342
 30
0.0
 11
797.3461446137
 21
186.3976656229
 31
0.0
  0
SPLINE
  5
160
330
1F
100
AcDbEntity
  8
0
  6
Continuous
 62
     7
370
    15
100
AcDbSpline
210
0.0
220
0.0
230
1.0
 70
     8
 71
     3
 72
    13
 73
     9
 74
     0
 42
0.00000001
 43
0.00000001
 12
1.0
 22
0.0
 32
0.0
 13
1.0
 23
0.0
 33
0.0
 40
0.0
 40
0.0
 40
0.0
 40
0.0
 40
0.1254648118065568
 40
0.2502435788816419
 40
0.376069805409571
 40
0.5019139201694119
 40
0.750831051486165
 40
1.0
 40
1.0
 40
1.0
 40
1.0
 10
752.9952742545892
 20
280.6112008259638
 30
0.0
 10
752.9075972822991
 20
280.7084731043289
 30
0.0
 10
752.7327227575983
 20
280.9024857738062
 30
0.0
 10
752.459040725417
 20
281.1618859110553
 30
0.0
 10
752.1920400983919
 20
281.3853580794494
 30
0.0
 10
751.8671810826819
 20
281.6238318334818
 30
0.0
 10
751.53449474294
 20
281.821392668916
 30
0.0
 10
751.4815800530056
 20
281.8483568691299
 30
0.0
 10
751.455109332008
 20
281.8618457853773
 30
0.0
  0
SPLINE
  5
161
330
1F
100
AcDbEntity
  8
0
  6
Continuous
 62
     7
370
    15
100
AcDbSpline
210
0.0
220
0.0
230
1.0
 70
     8
 71
     3
 72
     9
 73
     5
 74
     0
 42
0.00000001
 43
0.00000001
 12
1.0
 22
0.0
 32
0.0
 13
1.0
 23
0.0
 33
0.0
 40
0.0
 40
0.0
 40
0.0
 40
0.0
 40
0.5000138394956792
 40
1.0
 40
1.0
 40
1.0
 40
1.0
 10
797.8559854112166
 20
185.2193838531913
 30
0.0
 10
797.7880159987786
 20
185.388100848491
 30
0.0
 10
797.6520809364486
 20
185.7255254995164
 30
0.0
 10
797.4761444029855
 20
186.113191499397
 30
0.0
 10
797.3881785711271
 20
186.3070191342354
 30
0.0
  0
SPLINE
  5
162
330
1F
100
AcDbEntity
  8
0
  6
Continuous
 62
     7
370
    15
100
AcDbSpline
210
0.0
220
0.0
230
1.0
 70
     8
 71
     3
 72
     9
 73
     5
 74
     0
 42
0.00000001
 43
0.00000001
 12
1.0
 22
0.0
 32
0.0
 13
1.0
 23
0.0
 33
0.0
 40
0.0
 40
0.0
 40
0.0
 40
0.0
 40
0.8821747880969655
 40
1.0
 40
1.0
 40
1.0
 40
1.0
 10
798.5454391088733
 20
182.0565008846989
 30
0.0
 10
798.5524525645981
 20
182.0671938870276
 30
0.0
 10
798.5604027529503
 20
182.0793150703497
 30
0.0
 10
798.5407043513322
 20
182.3296581358689
 30
0.0
 10
798.5383833829876
 20
182.3591548606121
 30
0.0
  0
SPLINE
  5
163
330
1F
100
AcDbEntity
  8
0
  6
Continuous
 62
     7
370
    15
100
AcDbSpline
210
0.0
220
0.0
230
1.0
 70
     8
 71
     3
 72
     9
 73
     5
 74
     0
 42
0.00000001
 43
0.00000001
 12
1.0
 22
0.0
 32
0.0
 13
1.0
 23
0.0
 33
0.0
 40
0.0
 40
0.0
 40
0.0
 40
0.0
 40
0.1164892876100937
 40
1.0
 40
1.0
 40
1.0
 40
1.0
 10
798.3182645212809
 20
183.7891288585735
 30
0.0
 10
798.3098758047612
 20
183.8327910325594
 30
0.0
 10
798.2378630326702
 20
184.2076081070018
 30
0.0
 10
798.0351152495323
 20
184.7447835738223
 30
0.0
 10
797.8559854112166
 20
185.2193838531913
 30
0.0
  0
LINE
  5
164
330
1F
100
AcDbEntity
  8
0
  6
Continuous
 62
     7
370
    15
100
AcDbLine
 10
798.0637402992
 20
184.6591301233
 30
0.0
 11
797.8515485029
 21
185.2176366639
 31
0.0
  0
LINE
  5
165
330
1F
100
AcDbEntity
  8
0
  6
Continuous
 62
     7
370
    15
100
AcDbLine
 10
768.69265609
 20
271.5072898985
 30
0.0
 11
768.4813469592
 21
271.960443792
 31
0.0
  0
LINE
  5
166
330
1F
100
AcDbEntity
  8
0
  6
Continuous
 62
     7
370
    15
100
AcDbLine
 10
779.4462070074
 20
272.1082413678
 30
0.0
 11
779.2348978765
 21
272.5613952613
 31
0.0
  0
SPLINE
  5
167
330
1F
100
AcDbEntity
  8
0
  6
Continuous
 62
     7
370
    15
100
AcDbSpline
210
0.0
220
0.0
230
1.0
 70
     8
 71
     3
 72
    12
 73
     8
 74
     0
 42
0.00000001
 43
0.00000001
 12
1.0
 22
0.0
 32
0.0
 13
1.0
 23
0.0
 33
0.0
 40
0.0
 40
0.0
 40
0.0
 40
0.0
 40
0.2238925571850489
 40
0.4477848984197547
 40
0.6716824862031942
 40
0.895582158546997
 40
1.0
 40
1.0
 40
1.0
 40
1.0
 10
779.9687134595293
 20
272.5701498301956
 30
0.0
 10
779.9408456983984
 20
272.5698143364426
 30
0.0
 10
779.8851102030156
 20
272.5691433492599
 30
0.0
 10
779.8131487369885
 20
272.5685399368704
 30
0.0
 10
779.7607562693587
 20
272.568211246066
 30
0.0
 10
779.7374209251146
 20
272.5681170575842
 30
0.0
 10
779.7354722641837
 20
272.5681271098827
 30
0.0
 10
779.7348525136081
 20
272.5681303069077
 30
0.0
  0
LINE
  5
168
330
1F
100
AcDbEntity
  8
0
  6
Continuous
 62
     7
370
    15
100
AcDbLine
 10
779.9687134595
 20
272.5701498302
 30
0.0
 11
799.0635439854
 21
272.7782373719
 31
0.0
  0
LINE
  5
169
330
1F
100
AcDbEntity
  8
0
  6
Continuous
 62
     7
370
    15
100
AcDbLine
 10
799.0635439854
 20
272.7782373719
 30
0.0
 11
800.5421803421
 21
272.7966161855
 31
0.0
  0
LINE
  5
16A
330
1F
100
AcDbEntity
  8
0
  6
Continuous
 62
     7
370
    15
100
AcDbLine
 10
801.4631349011
 20
272.2168187944
 30
0.0
 11
801.6027226723
 21
271.917471853
 31
0.0
  0
SPLINE
  5
16B
330
1F
100
AcDbEntity
  8
0
  6
Continuous
 62
     7
370
    15
100
AcDbSpline
210
0.0
220
0.0
230
1.0
 70
     8
 71
     3
 72
    11
 73
     7
 74
     0
 42
0.00000001
 43
0.00000001
 12
1.0
 22
0.0
 32
0.0
 13
1.0
 23
0.0
 33
0.0
 40
0.0
 40
0.0
 40
0.0
 40
0.0
 40
0.2933118760927492
 40
0.5865991201419721
 40
0.8805021461502914
 40
1.0
 40
1.0
 40
1.0
 40
1.0
 10
800.5421803421425
 20
272.7966161854919
 30
0.0
 10
800.6548812108279
 20
272.7869457611298
 30
0.0
 10
800.88027348369
 20
272.7676057245183
 30
0.0
 10
801.1810299633961
 20
272.5984013516969
 30
0.0
 10
801.3694780229927
 20
272.3978008746012
 30
0.0
 10
801.4421331699417
 20
272.2574024340014
 30
0.0
 10
801.4631349010815
 20
272.2168187943602
 30
0.0
  0
LINE
  5
16C
330
1F
100
AcDbEntity
  8
0
  6
Continuous
 62
     7
370
    15
100
AcDbLine
 10
796.1628431032
 20
212.5972837411
 30
0.0
 11
768.69265609
 21
271.5072898985
 31
0.0
  0
LINE
  5
16D
330
1F
100
AcDbEntity
  8
0
  6
Continuous
 62
     7
370
    15
100
AcDbLine
 10
781.474868352
 20
267.7577630748
 30
0.0
 11
779.4462070074
 21
272.1082413678
 31
0.0
  0
SPLINE
  5
16E
330
1F
100
AcDbEntity
  8
0
  6
Continuous
 62
     7
370
    15
100
AcDbSpline
210
0.0
220
0.0
230
1.0
 70
     8
 71
     3
 72
     9
 73
     5
 74
     0
 42
0.00000001
 43
0.00000001
 12
1.0
 22
0.0
 32
0.0
 13
1.0
 23
0.0
 33
0.0
 40
0.0
 40
0.0
 40
0.0
 40
0.0
 40
0.5209744652335347
 40
1.0
 40
1.0
 40
1.0
 40
1.0
 10
781.3720261264515
 20
266.4908925624191
 30
0.0
 10
781.294467582275
 20
266.7236888040605
 30
0.0
 10
781.1455955178028
 20
267.1705365042392
 30
0.0
 10
781.368223745966
 20
267.5675726315592
 30
0.0
 10
781.4748683520162
 20
267.7577630747703
 30
0.0
  0
LINE
  5
16F
330
1F
100
AcDbEntity
  8
0
  6
Continuous
 62
     7
370
    15
100
AcDbLine
 10
800.4702017574
 20
225.5347227527
 30
0.0
 11
781.3720261265
 21
266.4908925624
 31
0.0
  0
SPLINE
  5
170
330
1F
100
AcDbEntity
  8
0
  6
Continuous
 62
     7
370
    15
100
AcDbSpline
210
0.0
220
0.0
230
1.0
 70
     8
 71
     3
 72
     9
 73
     5
 74
     0
 42
0.00000001
 43
0.00000001
 12
1.0
 22
0.0
 32
0.0
 13
1.0
 23
0.0
 33
0.0
 40
0.0
 40
0.0
 40
0.0
 40
0.0
 40
0.4790255347664737
 40
1.0
 40
1.0
 40
1.0
 40
1.0
 10
801.5067865819274
 20
224.7991757996453
 30
0.0
 10
801.2925424183624
 20
224.8397333521689
 30
0.0
 10
800.8452924326816
 20
224.9244001383422
 30
0.0
 10
800.5986803535103
 20
225.3256709211585
 30
0.0
 10
800.4702017574439
 20
225.53472275265
 30
0.0
  0
LINE
  5
171
330
1F
100
AcDbEntity
  8
0
  6
Continuous
 62
     7
370
    15
100
AcDbLine
 10
803.5354479266
 20
220.4486975067
 30
0.0
 11
801.5067865819
 21
224.7991757996
 31
0.0
  0
LINE
  5
172
330
1F
100
AcDbEntity
  8
0
  6
Continuous
 62
     7
370
    15
100
AcDbLine
 10
782.2501104428
 20
266.0952510459
 30
0.0
 11
800.7315444911
 21
226.4616878285
 31
0.0
  0
ARC
  5
173
330
1F
100
AcDbEntity
  8
0
  6
Continuous
 62
     7
370
    15
100
AcDbCircle
 10
799.9688360238
 20
226.1763978762
 30
0.0
 40
0.8143184653806226
100
AcDbArc
 50
308.001895257
 51
20.508234223
  0
ARC
  5
174
330
1F
100
AcDbEntity
  8
0
  6
Continuous
 62
     7
370
    15
100
AcDbCircle
 10
781.5413061076
 20
265.6943633093
 30
0.0
 40
0.8143184653805383
100
AcDbArc
 50
29.491765777
 51
101.998104743
  0
SPLINE
  5
175
330
1F
100
AcDbEntity
  8
0
  6
Continuous
 62
     7
370
    15
100
AcDbSpline
210
0.0
220
0.0
230
1.0
 70
     8
 71
     3
 72
    12
 73
     8
 74
     0
 42
0.00000001
 43
0.00000001
 12
1.0
 22
0.0
 32
0.0
 13
1.0
 23
0.0
 33
0.0
 40
0.0
 40
0.0
 40
0.0
 40
0.0
 40
0.0304717459515991
 40
0.0888135668586349
 40
0.3925556175487551
 40
0.6962774394174185
 40
0.9999999999999999
 40
0.9999999999999999
 40
0.9999999999999999
 40
0.9999999999999999
 10
782.3044938096681
 20
267.059294107598
 30
0.0
 10
782.300234588043
 20
267.0690068927601
 30
0.0
 10
782.2878205745781
 20
267.0973159727759
 30
0.0
 10
782.2259720375909
 20
267.2207876271021
 30
0.0
 10
782.0802384551833
 20
267.4175994699798
 30
0.0
 10
781.8103110808266
 20
267.6329219371999
 30
0.0
 10
781.6023930595625
 20
267.7030571859426
 30
0.0
 10
781.4984339225056
 20
267.7381248529597
 30
0.0
  0
SPLINE
  5
176
330
1F
100
AcDbEntity
  8
0
  6
Continuous
 62
     7
370
    15
100
AcDbSpline
210
0.0
220
0.0
230
1.0
 70
     8
 71
     3
 72
     9
 73
     5
 74
     0
 42
0.00000001
 43
0.00000001
 12
1.0
 22
0.0
 32
0.0
 13
1.0
 23
0.0
 33
0.0
 40
0.0
 40
0.0
 40
0.0
 40
0.0
 40
0.4684410573251999
 40
1.0
 40
1.0
 40
1.0
 40
1.0
 10
782.3044938096681
 20
267.059294107598
 30
0.0
 10
782.2272957414932
 20
266.9250802413771
 30
0.0
 10
782.0624979148138
 20
266.6385684932667
 30
0.0
 10
782.1849956671399
 20
266.2838205092269
 30
0.0
 10
782.2501104428463
 20
266.0952510459148
 30
0.0
  0
SPLINE
  5
177
330
1F
100
AcDbEntity
  8
0
  6
Continuous
 62
     7
370
    15
100
AcDbSpline
210
0.0
220
0.0
230
1.0
 70
     8
 71
     3
 72
    11
 73
     7
 74
     0
 42
0.00000001
 43
0.00000001
 12
1.0
 22
0.0
 32
0.0
 13
1.0
 23
0.0
 33
0.0
 40
0.0
 40
0.0
 40
0.0
 40
0.0
 40
0.3704320937878008
 40
0.7442498469285383
 40
0.944248053767959
 40
1.0
 40
1.0
 40
1.0
 40
1.0
 10
781.4748683520162
 20
267.7577630747703
 30
0.0
 10
781.476357918176
 20
267.754976011213
 30
0.0
 10
781.4793506647683
 20
267.7493764110146
 30
0.0
 10
781.4866178450899
 20
267.742674519469
 30
0.0
 10
781.4941409199558
 20
267.7392596245137
 30
0.0
 10
781.4976655705495
 20
267.7383279518242
 30
0.0
 10
781.4984339225056
 20
267.7381248529597
 30
0.0
  0
SPLINE
  5
178
330
1F
100
AcDbEntity
  8
0
  6
Continuous
 62
     7
370
    15
100
AcDbSpline
210
0.0
220
0.0
230
1.0
 70
     8
 71
     3
 72
     9
 73
     5
 74
     0
 42
0.00000001
 43
0.00000001
 12
1.0
 22
0.0
 32
0.0
 13
1.0
 23
0.0
 33
0.0
 40
0.0
 40
0.0
 40
0.0
 40
0.0
 40
0.5315589426748054
 40
1.0
 40
1.0
 40
1.0
 40
1.0
 10
800.7315444910973
 20
226.4616878285008
 30
0.0
 10
800.834142109578
 20
226.2905969018237
 30
0.0
 10
801.0271547940498
 20
225.9687305706579
 30
0.0
 10
801.3525655276708
 20
225.9108068283087
 30
0.0
 10
801.5050012757932
 20
225.8836729691984
 30
0.0
  0
SPLINE
  5
179
330
1F
100
AcDbEntity
  8
0
  6
Continuous
 62
     7
370
    15
100
AcDbSpline
210
0.0
220
0.0
230
1.0
 70
     8
 71
     3
 72
    12
 73
     8
 74
     0
 42
0.00000001
 43
0.00000001
 12
1.0
 22
0.0
 32
0.0
 13
1.0
 23
0.0
 33
0.0
 40
0.0
 40
0.0
 40
0.0
 40
0.0
 40
0.0304717459459243
 40
0.088813566858612
 40
0.3925556175487526
 40
0.6962774394174363
 40
1.0
 40
1.0
 40
1.0
 40
1.0
 10
801.5050012757931
 20
225.8836729691984
 30
0.0
 10
801.5097039260064
 20
225.8741669581848
 30
0.0
 10
801.5234103654034
 20
225.8464605462772
 30
0.0
 10
801.5782396668185
 20
225.7197157686548
 30
0.0
 10
801.6353305443205
 20
225.4815691536325
 30
0.0
 10
801.626771152057
 20
225.1363861744448
 30
0.0
 10
801.5468507417246
 20
224.9320296607368
 30
0.0
 10
801.5068904879626
 20
224.8298512796238
 30
0.0
  0
SPLINE
  5
17A
330
1F
100
AcDbEntity
  8
0
  6
Continuous
 62
     7
370
    15
100
AcDbSpline
210
0.0
220
0.0
230
1.0
 70
     8
 71
     3
 72
    10
 73
     6
 74
     0
 42
0.00000001
 43
0.00000001
 12
1.0
 22
0.0
 32
0.0
 13
1.0
 23
0.0
 33
0.0
 40
0.0
 40
0.0
 40
0.0
 40
0.0
 40
0.2117958997114293
 40
0.4880069094702398
 40
0.9999999999999999
 40
0.9999999999999999
 40
0.9999999999999999
 40
0.9999999999999999
 10
801.5068904879626
 20
224.8298512796238
 30
0.0
 10
801.5057754840899
 20
224.8271110608779
 30
0.0
 10
801.5032063616718
 20
224.8207972196597
 30
0.0
 10
801.5028023823171
 20
224.8096306615002
 30
0.0
 10
801.5052176793898
 20
224.8032927267312
 30
0.0
 10
801.506786581927
 20
224.799175799645
 30
0.0
  0
SPLINE
  5
17B
330
1F
100
AcDbEntity
  8
0
  6
Continuous
 62
     7
370
    15
100
AcDbSpline
210
0.0
220
0.0
230
1.0
 70
     8
 71
     3
 72
    11
 73
     7
 74
     0
 42
0.00000001
 43
0.00000001
 12
1.0
 22
0.0
 32
0.0
 13
1.0
 23
0.0
 33
0.0
 40
0.0
 40
0.0
 40
0.0
 40
0.0
 40
0.3658281109894317
 40
0.7252591430831281
 40
0.9820690181776777
 40
1.0
 40
1.0
 40
1.0
 40
1.0
 10
784.7977077893239
 20
267.6066279199543
 30
0.0
 10
784.417436321978
 20
267.6150872222531
 30
0.0
 10
783.6635430309448
 20
267.6318579026682
 30
0.0
 10
782.806998389533
 20
267.4337106097756
 30
0.0
 10
782.4257772003186
 20
267.1947290177849
 30
0.0
 10
782.3119244196046
 20
267.0675917317327
 30
0.0
 10
782.3044938096681
 20
267.059294107598
 30
0.0
  0
LINE
  5
17C
330
1F
100
AcDbEntity
  8
0
  6
Continuous
 62
     7
370
    15
100
AcDbLine
 10
784.7977077893
 20
267.60662792
 30
0.0
 11
803.5268903557
 21
227.4417662909
 31
0.0
  0
SPLINE
  5
17D
330
1F
100
AcDbEntity
  8
0
  6
Continuous
 62
     7
370
    15
100
AcDbSpline
210
0.0
220
0.0
230
1.0
 70
     8
 71
     3
 72
    11
 73
     7
 74
     0
 42
0.00000001
 43
0.00000001
 12
1.0
 22
0.0
 32
0.0
 13
1.0
 23
0.0
 33
0.0
 40
0.0
 40
0.0
 40
0.0
 40
0.0
 40
0.2357948537758694
 40
0.2749019968044838
 40
0.6342531696138423
 40
1.0
 40
1.0
 40
1.0
 40
1.0
 10
801.5050012757931
 20
225.8836729691984
 30
0.0
 10
801.6572797688516
 20
225.9068555805912
 30
0.0
 10
801.8348140158539
 20
225.9338830837829
 30
0.0
 10
802.2688727939096
 20
226.1462779704195
 30
0.0
 10
802.8178574327326
 20
226.5562742365482
 30
0.0
 10
803.2891603539327
 20
227.1448717168423
 30
0.0
 10
803.5268903556998
 20
227.4417662908752
 30
0.0
  0
SPLINE
  5
17E
330
1F
100
AcDbEntity
  8
0
  6
Continuous
 62
     7
370
    15
100
AcDbSpline
210
0.0
220
0.0
230
1.0
 70
     8
 71
     3
 72
    10
 73
     6
 74
     0
 42
0.00000001
 43
0.00000001
 12
1.0
 22
0.0
 32
0.0
 13
1.0
 23
0.0
 33
0.0
 40
0.0
 40
0.0
 40
0.0
 40
0.0
 40
0.3554439450437266
 40
0.7142330220663459
 40
1.0
 40
1.0
 40
1.0
 40
1.0
 10
804.3685829359796
 20
226.5664603649476
 30
0.0
 10
804.0256041047188
 20
226.2242192542985
 30
0.0
 10
803.3364186211232
 20
225.5365161547165
 30
0.0
 10
802.3115367149304
 20
224.9175165692465
 30
0.0
 10
801.754053368443
 20
224.8567793938374
 30
0.0
 10
801.5068904879626
 20
224.8298512796238
 30
0.0
  0
ARC
  5
17F
330
1F
100
AcDbEntity
  8
0
  6
Continuous
 62
     7
370
    15
100
AcDbCircle
 10
800.9577444187
 20
224.1289422613
 30
0.0
 40
4.192292200797181
100
AcDbArc
 50
35.5510775205
 51
52.2058723479
  0
LINE
  5
180
330
1F
100
AcDbEntity
  8
0
  6
Continuous
 62
     7
370
    15
100
AcDbLine
 10
815.9800002282
 20
239.6901046022
 30
0.0
 11
804.368582936
 21
226.5664603649
 31
0.0
  0
SPLINE
  5
181
330
1F
100
AcDbEntity
  8
0
  6
Continuous
 62
     7
370
    15
100
AcDbSpline
210
0.0
220
0.0
230
1.0
 70
     8
 71
     3
 72
    12
 73
     8
 74
     0
 42
0.00000001
 43
0.00000001
 12
1.0
 22
0.0
 32
0.0
 13
1.0
 23
0.0
 33
0.0
 40
0.0
 40
0.0
 40
0.0
 40
0.0
 40
0.2238925571850237
 40
0.4477848984197848
 40
0.6716824862030828
 40
0.8955821585468609
 40
1.0
 40
1.0
 40
1.0
 40
1.0
 10
780.1800225904008
 20
272.116995936675
 30
0.0
 10
780.1521548292699
 20
272.116660442922
 30
0.0
 10
780.0964193338872
 20
272.1159894557394
 30
0.0
 10
780.0244578678601
 20
272.1153860433497
 30
0.0
 10
779.9720654002299
 20
272.1150573525454
 30
0.0
 10
779.9487300559864
 20
272.1149631640636
 30
0.0
 10
779.9467813950553
 20
272.1149732163622
 30
0.0
 10
779.9461616444796
 20
272.1149764133871
 30
0.0
  0
LINE
  5
182
330
1F
100
AcDbEntity
  8
0
  6
Continuous
 62
     7
370
    15
100
AcDbLine
 10
780.1800225904
 20
272.1169959367
 30
0.0
 11
799.2748531163
 21
272.3250834784
 31
0.0
  0
LINE
  5
183
330
1F
100
AcDbEntity
  8
0
  6
Continuous
 62
     7
370
    15
100
AcDbLine
 10
799.2748531163
 20
272.3250834784
 30
0.0
 11
800.753489473
 21
272.343462292
 31
0.0
  0
LINE
  5
184
330
1F
100
AcDbEntity
  8
0
  6
Continuous
 62
     7
370
    15
100
AcDbLine
 10
802.1851840183
 20
269.2731834316
 30
0.0
 11
800.753489473
 21
272.343462292
 31
0.0
  0
LINE
  5
185
330
1F
100
AcDbEntity
  8
0
  6
Continuous
 62
     7
370
    15
100
AcDbLine
 10
784.6682141105
 20
268.8140376478
 30
0.0
 11
802.1851840183
 21
269.2731834316
 31
0.0
  0
SPLINE
  5
186
330
1F
100
AcDbEntity
  8
0
  6
Continuous
 62
     7
370
    15
100
AcDbSpline
210
0.0
220
0.0
230
1.0
 70
     8
 71
     3
 72
    10
 73
     6
 74
     0
 42
0.00000001
 43
0.00000001
 12
1.0
 22
0.0
 32
0.0
 13
1.0
 23
0.0
 33
0.0
 40
0.0
 40
0.0
 40
0.0
 40
0.0
 40
0.2857669779336527
 40
0.6445560549562684
 40
1.0
 40
1.0
 40
1.0
 40
1.0
 10
781.4984339225056
 20
267.7381248529597
 30
0.0
 10
781.67793529191
 20
267.9101535459283
 30
0.0
 10
782.0828060553517
 20
268.298169461836
 30
0.0
 10
783.2157686387862
 20
268.685389286987
 30
0.0
 10
784.1855796663681
 20
268.7712889654193
 30
0.0
 10
784.6682141105068
 20
268.8140376477635
 30
0.0
  0
ARC
  5
187
330
1F
100
AcDbEntity
  8
0
  6
Continuous
 62
     7
370
    15
100
AcDbCircle
 10
780.6085221746
 20
267.7679901906
 30
0.0
 40
4.192292200804781
100
AcDbArc
 50
357.7941276521
 51
14.4489224794
  0
LINE
  5
188
330
1F
100
AcDbEntity
  8
0
  6
Continuous
 62
     7
370
    15
100
AcDbLine
 10
803.5268903557
 20
227.4417662909
 30
0.0
 11
815.2004748794
 21
240.43209247
 31
0.0
  0
ARC
  5
189
330
1F
100
AcDbEntity
  8
0
  6
Continuous
 62
     7
370
    15
100
AcDbCircle
 10
811.7115159878
 20
235.9861508005
 30
0.0
 40
5.651480467584466
100
AcDbArc
 50
40.9496313683
 51
51.8769008127
  0
LINE
  5
18A
330
1F
100
AcDbEntity
  8
0
  6
Continuous
 62
     7
370
    15
100
AcDbLine
 10
802.2525104656
 20
268.1990917619
 30
0.0
 11
784.7977077893
 21
267.60662792
 31
0.0
  0
ARC
  5
18B
330
1F
100
AcDbEntity
  8
0
  6
Continuous
 62
     7
370
    15
100
AcDbCircle
 10
796.6040620091
 20
268.3841904093
 30
0.0
 40
5.651480467573633
100
AcDbArc
 50
358.1230991873
 51
9.0503686317
  0
LINE
  5
18C
330
1F
100
AcDbEntity
  8
0
  6
Continuous
 62
     7
370
    15
100
AcDbLine
 10
815.2004748794
 20
240.43209247
 30
0.0
 11
802.2525104656
 21
268.1990917619
 31
0.0
  0
ARC
  5
18D
330
1F
100
AcDbEntity
  8
0
  6
Continuous
 62
     7
370
    15
100
AcDbCircle
 10
815.8998974493
 20
239.4685794176
 30
0.0
 40
1.19060880790713
100
AcDbArc
 50
75.5914088265
 51
125.9762263586
  0
ARC
  5
18E
330
1F
100
AcDbEntity
  8
0
  6
Continuous
 62
     7
370
    15
100
AcDbCircle
 10
815.4203865132
 20
240.3108436327
 30
0.0
 40
0.8357538238407146
100
AcDbArc
 50
312.0355498025
 51
21.8386162463
  0
ARC
  5
18F
330
1F
100
AcDbEntity
  8
0
  6
Continuous
 62
     7
370
    15
100
AcDbCircle
 10
801.9639968078
 20
269.3542147869
 30
0.0
 40
1.190608807907533
100
AcDbArc
 50
284.0237736414
 51
334.4085911735
  0
ARC
  5
190
330
1F
100
AcDbEntity
  8
0
  6
Continuous
 62
     7
370
    15
100
AcDbCircle
 10
802.300984941
 20
268.4454910972
 30
0.0
 40
0.8357538238403744
100
AcDbArc
 50
28.1613837537
 51
97.9644501975
  0
LINE
  5
191
330
1F
100
AcDbEntity
  8
0
  6
Continuous
 62
     7
370
    15
100
AcDbLine
 10
803.037803683
 20
268.839930694
 30
0.0
 11
816.1961627324
 21
240.6217386501
 31
0.0
  0
LINE
  5
192
330
1F
100
AcDbEntity
  8
0
  6
Continuous
 62
     7
370
    15
100
AcDbLine
 10
816.1961627324
 20
240.6217386501
 30
0.0
 11
817.5847804251
 21
237.6438383981
 31
0.0
  0
LINE
  5
193
330
1F
100
AcDbEntity
  8
0
  6
Continuous
 62
     7
370
    15
100
AcDbLine
 10
801.674444032
 20
271.7636649008
 30
0.0
 11
803.037803683
 21
268.839930694
 31
0.0
  0
SPLINE
  5
194
330
1F
100
AcDbEntity
  8
0
  6
Continuous
 62
     7
370
    15
100
AcDbSpline
210
0.0
220
0.0
230
1.0
 70
     8
 71
     3
 72
    11
 73
     7
 74
     0
 42
0.00000001
 43
0.00000001
 12
1.0
 22
0.0
 32
0.0
 13
1.0
 23
0.0
 33
0.0
 40
0.0
 40
0.0
 40
0.0
 40
0.0
 40
0.2933118760927496
 40
0.5865991201419787
 40
0.8805021461502803
 40
1.0
 40
1.0
 40
1.0
 40
1.0
 10
800.753489473014
 20
272.3434622919714
 30
0.0
 10
800.8661903416993
 20
272.3337918676092
 30
0.0
 10
801.0915826145612
 20
272.3144518309977
 30
0.0
 10
801.3923390942678
 20
272.1452474581762
 30
0.0
 10
801.5807871538642
 20
271.9446469810806
 30
0.0
 10
801.6534423008135
 20
271.8042485404808
 30
0.0
 10
801.6744440319528
 20
271.7636649008396
 30
0.0
  0
LINE
  5
195
330
1F
100
AcDbEntity
  8
0
  6
Continuous
 62
     7
370
    15
100
AcDbLine
 10
780.0868611954
 20
242.3399350301
 30
0.0
 11
780.2533698038
 21
241.982856167
 31
0.0
  0
SPLINE
  5
196
330
1F
100
AcDbEntity
  8
0
  6
Continuous
 62
     7
370
    15
100
AcDbSpline
210
0.0
220
0.0
230
1.0
 70
    24
 71
     3
 72
    15
 73
    11
 74
     0
 42
0.00000001
 43
0.00000001
 12
1.0
 22
0.0
 32
0.0
 13
1.0
 23
0.0
 33
0.0
 40
0.0
 40
0.0
 40
0.0
 40
0.0
 40
0.0013085590450217
 40
0.0031123972377623
 40
0.0059032470887118
 40
0.0102791707597182
 40
0.0184846044874815
 40
0.0492181494334104
 40
0.1106093070874056
 40
1.0
 40
1.0
 40
1.0
 40
1.0
 10
780.0868611953562
 20
242.339935030115
 30
0.0
 10
780.0869352398199
 20
242.3399695576155
 30
0.0
 10
780.0871113539856
 20
242.3400516809996
 30
0.0
 10
780.088857120518
 20
242.3408657453031
 30
0.0
 10
780.0926744663074
 20
242.3426458028787
 30
0.0
 10
780.1005540387482
 20
242.3463201078504
 30
0.0
 10
780.1247716499084
 20
242.3576129653972
 30
0.0
 10
780.1843998425667
 20
242.3854180482753
 30
0.0
 10
780.7746943749852
 20
242.6606769093105
 30
0.0
 10
781.355847859893
 20
242.9316732298858
 30
0.0
 10
781.8994767694296
 20
243.1851715535965
 30
0.0
  0
LINE
  5
197
330
1F
100
AcDbEntity
  8
0
  6
Continuous
 62
     7
370
    15
100
AcDbLine
 10
780.2533698038
 20
241.982856167
 30
0.0
 11
780.9320977188
 21
240.527319456
 31
0.0
  0
LINE
  5
198
330
1F
100
AcDbEntity
  8
0
  6
Continuous
 62
     7
370
    15
100
AcDbLine
 10
780.9320977188
 20
240.527319456
 30
0.0
 11
781.1434068497
 21
240.0741655625
 31
0.0
  0
LINE
  5
199
330
1F
100
AcDbEntity
  8
0
  6
Continuous
 62
     7
370
    15
100
AcDbLine
 10
782.9707760822
 20
240.8877627635
 30
0.0
 11
781.1434068497
 21
240.0741655625
 31
0.0
  0
LINE
  5
19A
330
1F
100
AcDbEntity
  8
0
  6
Continuous
 62
     7
370
    15
100
AcDbLine
 10
784.2285441388
 20
238.1904704617
 30
0.0
 11
782.4143669746
 21
237.348582779
 31
0.0
  0
LINE
  5
19B
330
1F
100
AcDbEntity
  8
0
  6
Continuous
 62
     7
370
    15
100
AcDbLine
 10
781.1434068497
 20
240.0741655625
 30
0.0
 11
782.4143669746
 21
237.348582779
 31
0.0
  0
LINE
  5
19C
330
1F
100
AcDbEntity
  8
0
  6
Continuous
 62
     7
370
    15
100
AcDbLine
 10
782.8876455293
 20
236.3336336431
 30
0.0
 11
783.1389681072
 21
235.7946706355
 31
0.0
  0
LINE
  5
19D
330
1F
100
AcDbEntity
  8
0
  6
Continuous
 62
     7
370
    15
100
AcDbLine
 10
782.4143669746
 20
237.348582779
 30
0.0
 11
782.8876455293
 21
236.3336336431
 31
0.0
  0
LINE
  5
19E
330
1F
100
AcDbEntity
  8
0
  6
Continuous
 62
     7
370
    15
100
AcDbLine
 10
783.1389681072
 20
235.7946706355
 30
0.0
 11
783.5844803378
 21
234.8392665739
 31
0.0
  0
LINE
  5
19F
330
1F
100
AcDbEntity
  8
0
  6
Continuous
 62
     7
370
    15
100
AcDbLine
 10
783.5844803378
 20
234.8392665739
 30
0.0
 11
783.6207147083
 21
234.7615617155
 31
0.0
  0
LINE
  5
1A0
330
1F
100
AcDbEntity
  8
0
  6
Continuous
 62
     7
370
    15
100
AcDbLine
 10
781.2930310839
 20
239.3164030496
 30
0.0
 11
782.1382676074
 21
237.5037874755
 31
0.0
  0
LINE
  5
1A1
330
1F
100
AcDbEntity
  8
0
  6
Continuous
 62
     7
370
    15
100
AcDbLine
 10
781.460370546
 20
239.3944347222
 30
0.0
 11
781.2930310839
 21
239.3164030496
 31
0.0
  0
LINE
  5
1A2
330
1F
100
AcDbEntity
  8
0
  6
Continuous
 62
     7
370
    15
100
AcDbLine
 10
777.3723709421
 20
217.4005575829
 30
0.0
 11
778.7318326227
 21
218.0344849755
 31
0.0
  0
LINE
  5
1A3
330
1F
100
AcDbEntity
  8
0
  6
Continuous
 62
     7
370
    15
100
AcDbLine
 10
778.7318326227
 20
218.0344849755
 30
0.0
 11
780.8449239314
 21
213.5029460403
 31
0.0
  0
LINE
  5
1A4
330
1F
100
AcDbEntity
  8
0
  6
Continuous
 62
     7
370
    15
100
AcDbLine
 10
780.8449239314
 20
213.5029460403
 30
0.0
 11
779.4854622508
 21
212.8690186477
 31
0.0
  0
LINE
  5
1A5
330
1F
100
AcDbEntity
  8
0
  6
Continuous
 62
     7
370
    15
100
AcDbLine
 10
743.3375532019
 20
293.9377621398
 30
0.0
 11
741.9780915213
 21
293.3038347472
 31
0.0
  0
LINE
  5
1A6
330
1F
100
AcDbEntity
  8
0
  6
Continuous
 62
     7
370
    15
100
AcDbLine
 10
778.7318326227
 20
218.0344849755
 30
0.0
 11
743.3375532019
 21
293.9377621398
 31
0.0
  0
LINE
  5
1A7
330
1F
100
AcDbEntity
  8
0
  6
Continuous
 62
     7
370
    15
100
AcDbLine
 10
777.5445714336
 20
289.2004207233
 30
0.0
 11
778.9040331141
 21
289.834348116
 31
0.0
  0
LINE
  5
1A8
330
1F
100
AcDbEntity
  8
0
  6
Continuous
 62
     7
370
    15
100
AcDbLine
 10
778.9040331141
 20
289.834348116
 30
0.0
 11
783.1302157315
 21
280.7712702456
 31
0.0
  0
LINE
  5
1A9
330
1F
100
AcDbEntity
  8
0
  6
Continuous
 62
     7
370
    15
100
AcDbLine
 10
783.1302157315
 20
280.7712702456
 30
0.0
 11
781.770754051
 21
280.137342853
 31
0.0
  0
LINE
  5
1AA
330
1F
100
AcDbEntity
  8
0
  6
Continuous
 62
     7
370
    15
100
AcDbLine
 10
781.770754051
 20
280.137342853
 30
0.0
 11
777.5445714336
 21
289.2004207233
 31
0.0
  0
LINE
  5
1AB
330
1F
100
AcDbEntity
  8
0
  6
Continuous
 62
     7
370
    15
100
AcDbLine
 10
771.0010716196
 20
306.7823037335
 30
0.0
 11
769.641609939
 21
306.1483763409
 31
0.0
  0
LINE
  5
1AC
330
1F
100
AcDbEntity
  8
0
  6
Continuous
 62
     7
370
    15
100
AcDbLine
 10
771.0010716196
 20
306.7823037335
 30
0.0
 11
778.9040331141
 21
289.834348116
 31
0.0
  0
LINE
  5
1AD
330
1F
100
AcDbEntity
  8
0
  6
Continuous
 62
     7
370
    15
100
AcDbLine
 10
769.641609939
 20
306.1483763409
 30
0.0
 11
777.5445714336
 21
289.2004207233
 31
0.0
  0
LINE
  5
1AE
330
1F
100
AcDbEntity
  8
0
  6
Continuous
 62
     7
370
    15
100
AcDbLine
 10
743.3082377159
 20
296.9583813813
 30
0.0
 11
743.9421651085
 21
295.5989197008
 31
0.0
  0
LINE
  5
1AF
330
1F
100
AcDbEntity
  8
0
  6
Continuous
 62
     7
370
    15
100
AcDbLine
 10
743.3082377159
 20
296.9583813813
 30
0.0
 11
767.280078683
 21
308.1366344044
 31
0.0
  0
LINE
  5
1B0
330
1F
100
AcDbEntity
  8
0
  6
Continuous
 62
     7
370
    15
100
AcDbLine
 10
767.9140060756
 20
306.7771727238
 30
0.0
 11
767.280078683
 21
308.1366344044
 31
0.0
  0
LINE
  5
1B1
330
1F
100
AcDbEntity
  8
0
  6
Continuous
 62
     7
370
    15
100
AcDbLine
 10
743.9421651085
 20
295.5989197008
 30
0.0
 11
767.9140060756
 21
306.7771727238
 31
0.0
  0
ARC
  5
1B2
330
1F
100
AcDbEntity
  8
0
  6
Continuous
 62
     7
370
    15
100
AcDbCircle
 10
744.4704379357
 20
294.466034967
 30
0.0
 40
2.750000000000124
100
AcDbArc
 50
115.0
 51
205.0
  0
ARC
  5
1B3
330
1F
100
AcDbEntity
  8
0
  6
Continuous
 62
     7
370
    15
100
AcDbCircle
 10
744.4704379357
 20
294.466034967
 30
0.0
 40
1.250000000000056
100
AcDbArc
 50
115.0
 51
205.0
  0
ARC
  5
1B4
330
1F
100
AcDbEntity
  8
0
  6
Continuous
 62
     7
370
    15
100
AcDbCircle
 10
768.4634098159
 20
305.5989726007
 30
0.0
 40
1.300000000000062
100
AcDbArc
 50
25.0
 51
115.0
  0
ARC
  5
1B5
330
1F
100
AcDbEntity
  8
0
  6
Continuous
 62
     7
370
    15
100
AcDbCircle
 10
768.4634098159
 20
305.5989726007
 30
0.0
 40
2.800000000000058
100
AcDbArc
 50
25.0
 51
115.0
  0
LINE
  5
1B6
330
1F
100
AcDbEntity
  8
0
  6
Continuous
 62
     7
370
    15
100
AcDbLine
 10
642.8256821279
 20
18.2844714859
 30
0.0
 11
589.8256821279
 21
18.2844714859
 31
0.0
  0
LINE
  5
1B7
330
1F
100
AcDbEntity
  8
0
  6
Continuous
 62
     7
370
    15
100
AcDbLine
 10
644.8256821279
 20
24.2844714859
 30
0.0
 11
587.8256821279
 21
24.2844714859
 31
0.0
  0
LINE
  5
1B8
330
1F
100
AcDbEntity
  8
0
  6
Continuous
 62
     7
370
    15
100
AcDbLine
 10
65.8256821279
 20
24.2844714859
 30
0.0
 11
8.8256821279
 21
24.2844714859
 31
0.0
  0
LINE
  5
1B9
330
1F
100
AcDbEntity
  8
0
  6
Continuous
 62
     7
370
    15
100
AcDbLine
 10
63.8256821279
 20
18.2844714859
 30
0.0
 11
10.8256821279
 21
18.2844714859
 31
0.0
  0
LINE
  5
1BA
330
1F
100
AcDbEntity
  8
0
  6
Continuous
 62
     7
370
    15
100
AcDbLine
 10
82.3256821279
 20
116.2844714859
 30
0.0
 11
82.3256821279
 21
117.9844714858
 31
0.0
  0
LINE
  5
1BB
330
1F
100
AcDbEntity
  8
0
  6
Continuous
 62
     7
370
    15
100
AcDbLine
 10
-7.6743178721
 20
116.2844714859
 30
0.0
 11
82.3256821279
 21
116.2844714859
 31
0.0
  0
LINE
  5
1BC
330
1F
100
AcDbEntity
  8
0
  6
Continuous
 62
     7
370
    15
100
AcDbLine
 10
-7.6743178721
 20
116.2844714859
 30
0.0
 11
-7.6743178721
 21
117.9844714858
 31
0.0
  0
LINE
  5
1BD
330
1F
100
AcDbEntity
  8
0
  6
Continuous
 62
     7
370
    15
100
AcDbLine
 10
68.2853323483
 20
53.2844714859
 30
0.0
 11
6.3660319076
 21
53.2844714859
 31
0.0
  0
LINE
  5
1BE
330
1F
100
AcDbEntity
  8
0
  6
Continuous
 62
     7
370
    15
100
AcDbLine
 10
661.3256821279
 20
116.2844714859
 30
0.0
 11
661.3256821279
 21
117.9844714858
 31
0.0
  0
LINE
  5
1BF
330
1F
100
AcDbEntity
  8
0
  6
Continuous
 62
     7
370
    15
100
AcDbLine
 10
571.3256821279
 20
116.2844714859
 30
0.0
 11
661.3256821279
 21
116.2844714859
 31
0.0
  0
LINE
  5
1C0
330
1F
100
AcDbEntity
  8
0
  6
Continuous
 62
     7
370
    15
100
AcDbLine
 10
571.3256821279
 20
116.2844714859
 30
0.0
 11
571.3256821279
 21
117.9844714858
 31
0.0
  0
LINE
  5
1C1
330
1F
100
AcDbEntity
  8
0
  6
Continuous
 62
     7
370
    15
100
AcDbLine
 10
647.2853323483
 20
53.2844714859
 30
0.0
 11
585.3660319076
 21
53.2844714859
 31
0.0
  0
LINE
  5
1C2
330
1F
100
AcDbEntity
  8
0
  6
Continuous
 62
     7
370
    15
100
AcDbLine
 10
752.8873459004
 20
277.7173284582
 30
0.0
 11
751.0666278057
 21
281.6218710124
 31
0.0
  0
LINE
  5
1C3
330
1F
100
AcDbEntity
  8
0
  6
Continuous
 62
     7
370
    15
100
AcDbLine
 10
750.7531989823
 20
282.2940212934
 30
0.0
 11
746.6727784853
 21
291.0445112878
 31
0.0
  0
LINE
  5
1C4
330
1F
100
AcDbEntity
  8
0
  6
Continuous
 62
     7
370
    15
100
AcDbLine
 10
749.9069534812
 20
282.3775543936
 30
0.0
 11
745.3035383113
 21
292.2496100834
 31
0.0
  0
SPLINE
  5
1C5
330
1F
100
AcDbEntity
  8
0
  6
Continuous
 62
     7
370
    15
100
AcDbSpline
210
0.0
220
0.0
230
1.0
 70
    24
 71
     3
 72
    14
 73
    10
 74
     0
 42
0.00000001
 43
0.00000001
 12
1.0
 22
0.0
 32
0.0
 13
1.0
 23
0.0
 33
0.0
 40
0.0
 40
0.0
 40
0.0
 40
0.0
 40
0.2020852182361888
 40
0.3108712327770833
 40
0.4219658426283689
 40
0.5330604524796574
 40
0.6418464670205535
 40
0.8439316852567411
 40
1.0
 40
1.0
 40
1.0
 40
1.0
 10
765.2379391183574
 20
285.5413187855014
 30
0.0
 10
764.9804633347859
 20
286.0934773852338
 30
0.0
 10
764.5843838246283
 20
286.9428726358388
 30
0.0
 10
764.0482794518482
 20
288.0925521733825
 30
0.0
 10
763.6544780685498
 20
288.9370619651705
 30
0.0
 10
763.3009291118119
 20
289.6952501496355
 30
0.0
 10
762.9266659277185
 20
290.4978601380147
 30
0.0
 10
762.6206021427398
 20
291.1542160430187
 30
0.0
 10
762.605770484929
 20
291.1860226358366
 30
0.0
 10
762.599307469417
 20
291.1998826173298
 30
0.0
  0
SPLINE
  5
1C6
330
1F
100
AcDbEntity
  8
0
  6
Continuous
 62
     7
370
    15
100
AcDbSpline
210
0.0
220
0.0
230
1.0
 70
    24
 71
     3
 72
    13
 73
     9
 74
     0
 42
0.00000001
 43
0.00000001
 12
1.0
 22
0.0
 32
0.0
 13
1.0
 23
0.0
 33
0.0
 40
0.0
 40
0.0
 40
0.0
 40
0.0
 40
0.06689831944183
 40
0.2250489336541904
 40
0.3865557308083297
 40
0.5480625279624727
 40
0.7062131421748364
 40
1.0
 40
1.0
 40
1.0
 40
1.0
 10
766.6895049915911
 20
282.4284257247766
 30
0.0
 10
766.6978988166718
 20
282.4104251088018
 30
0.0
 10
766.7261360190324
 20
282.3498702329239
 30
0.0
 10
766.6356266804653
 20
282.5439681358511
 30
0.0
 10
766.4819921152734
 20
282.8734385241347
 30
0.0
 10
766.2387962805243
 20
283.3949736747933
 30
0.0
 10
765.8515126202342
 20
284.2255061644855
 30
0.0
 10
765.4796636054671
 20
285.0229389500385
 30
0.0
 10
765.2379391183574
 20
285.5413187855014
 30
0.0
  0
LINE
  5
1C7
330
1F
100
AcDbEntity
  8
0
  6
Continuous
 62
     7
370
    15
100
AcDbLine
 10
755.7235900603
 20
306.1102509161
 30
0.0
 11
739.6639269127
 21
298.621507003
 31
0.0
  0
SPLINE
  5
1C8
330
1F
100
AcDbEntity
  8
0
  6
Continuous
 62
     7
370
    15
100
AcDbSpline
210
0.0
220
0.0
230
1.0
 70
     8
 71
     3
 72
    11
 73
     7
 74
     0
 42
0.00000001
 43
0.00000001
 12
1.0
 22
0.0
 32
0.0
 13
1.0
 23
0.0
 33
0.0
 40
0.0
 40
0.0
 40
0.0
 40
0.0
 40
0.2889759275645127
 40
0.5779517763250721
 40
0.8674414070450548
 40
1.0
 40
1.0
 40
1.0
 40
1.0
 10
739.6639269126962
 20
298.6215070029858
 30
0.0
 10
739.3603990031407
 20
298.5312316186706
 30
0.0
 10
738.7533432668021
 20
298.3506808746583
 30
0.0
 10
737.6048252893706
 20
298.5900672393293
 30
0.0
 10
736.57026749167
 20
298.9818475181525
 30
0.0
 10
735.9433190691781
 20
299.2486935076029
 30
0.0
 10
735.7464046028234
 20
299.3325055625127
 30
0.0
  0
LINE
  5
1C9
330
1F
100
AcDbEntity
  8
0
  6
Continuous
 62
     7
370
    15
100
AcDbLine
 10
735.7464046028
 20
299.3325055625
 30
0.0
 11
774.0851908823
 21
317.210175209
 31
0.0
  0
SPLINE
  5
1CA
330
1F
100
AcDbEntity
  8
0
  6
Continuous
 62
     7
370
    15
100
AcDbSpline
210
0.0
220
0.0
230
1.0
 70
     8
 71
     3
 72
    11
 73
     7
 74
     0
 42
0.00000001
 43
0.00000001
 12
1.0
 22
0.0
 32
0.0
 13
1.0
 23
0.0
 33
0.0
 40
0.0
 40
0.0
 40
0.0
 40
0.0
 40
0.2888077077194141
 40
0.57761533621972
 40
0.8669345414323495
 40
0.9999999999999999
 40
0.9999999999999999
 40
0.9999999999999999
 40
0.9999999999999999
 10
735.7464046028236
 20
299.3325055625129
 30
0.0
 10
736.1941026276014
 20
299.1962968076566
 30
0.0
 10
737.0894985543547
 20
298.9238793353057
 30
0.0
 10
738.2366601434155
 20
298.4238700081912
 30
0.0
 10
738.9115476921469
 20
297.8876192777624
 30
0.0
 10
739.1329017765966
 20
297.4885711417103
 30
0.0
 10
739.2026358017137
 20
297.362857478863
 30
0.0
  0
LINE
  5
1CB
330
1F
100
AcDbEntity
  8
0
  6
Continuous
 62
     7
370
    15
100
AcDbLine
 10
739.2026358017
 20
297.3628574789
 30
0.0
 11
739.6967048803
 21
296.3033229206
 31
0.0
  0
LINE
  5
1CC
330
1F
100
AcDbEntity
  8
0
  6
Continuous
 62
     7
370
    15
100
AcDbLine
 10
795.6035745065
 20
176.4106541032
 30
0.0
 11
793.5190665963
 21
175.4386321012
 31
0.0
  0
LINE
  5
1CD
330
1F
100
AcDbEntity
  8
0
  6
Continuous
 62
     7
370
    15
100
AcDbLine
 10
793.5190665963
 20
175.4386321012
 30
0.0
 11
735.7464046028
 21
299.3325055625
 31
0.0
  0
LINE
  5
1CE
330
1F
100
AcDbEntity
  8
0
  6
Continuous
 62
     7
370
    15
100
AcDbLine
 10
793.5190665963
 20
168.9303108704
 30
0.0
 11
795.6035745065
 21
167.9582888684
 31
0.0
  0
ARC
  5
1CF
330
1F
100
AcDbEntity
  8
0
  6
Continuous
 62
     7
370
    15
100
AcDbCircle
 10
786.5404966361
 20
172.1844714858
 30
0.0
 40
7.69999999999975
100
AcDbArc
 50
335.0
 51
25.0
  0
CIRCLE
  5
1D0
330
1F
100
AcDbEntity
  8
0
  6
Continuous
 62
     7
370
    15
100
AcDbCircle
 10
-25.1154251816
 20
345.1844714858
 30
0.0
 40
6.347663105371566
  0
CIRCLE
  5
1D1
330
1F
100
AcDbEntity
  8
0
  6
Continuous
 62
     7
370
    15
100
AcDbCircle
 10
-25.1154251816
 20
345.1844714858
 30
0.0
 40
4.699999999999989
  0
LINE
  5
1D2
330
1F
100
AcDbEntity
  8
0
  6
Continuous
 62
     7
370
    15
100
AcDbLine
 10
792.2631447786
 20
351.9303108704
 30
0.0
 11
794.3476526888
 21
350.9582888684
 31
0.0
  0
ARC
  5
1D3
330
1F
100
AcDbEntity
  8
0
  6
Continuous
 62
     7
370
    15
100
AcDbCircle
 10
785.2845748184
 20
355.1844714858
 30
0.0
 40
7.699999999999726
100
AcDbArc
 50
335.0
 51
90.0
  0
LINE
  5
1D4
330
1F
100
AcDbEntity
  8
0
  6
Continuous
 62
     7
370
    15
100
AcDbLine
 10
785.2845748184
 20
365.1844714858
 30
0.0
 11
785.2845748184
 21
362.8844714858
 31
0.0
  0
CIRCLE
  5
1D5
330
1F
100
AcDbEntity
  8
0
  6
Continuous
 62
     7
370
    15
100
AcDbCircle
 10
364.8845748184
 20
345.1844714858
 30
0.0
 40
6.347663105371566
  0
CIRCLE
  5
1D6
330
1F
100
AcDbEntity
  8
0
  6
Continuous
 62
     7
370
    15
100
AcDbCircle
 10
364.8845748184
 20
345.1844714858
 30
0.0
 40
4.699999999999989
  0
LINE
  5
1D7
330
1F
100
AcDbEntity
  8
0
  6
Continuous
 62
     7
370
    15
100
AcDbLine
 10
765.9296981457
 20
120.2844714858
 30
0.0
 11
765.9296981457
 21
117.9844714858
 31
0.0
  0
LINE
  5
1D8
330
1F
100
AcDbEntity
  8
0
  6
Continuous
 62
     7
370
    15
100
AcDbLine
 10
705.3004007538
 20
117.9844714858
 30
0.0
 11
-101.8555765238
 21
117.9844714858
 31
0.0
  0
SPLINE
  5
1D9
330
1F
100
AcDbEntity
  8
0
  6
Continuous
 62
     7
370
    15
100
AcDbSpline
210
0.0
220
0.0
230
1.0
 70
     8
 71
     3
 72
    12
 73
     8
 74
     0
 42
0.00000001
 43
0.00000001
 12
1.0
 22
0.0
 32
0.0
 13
1.0
 23
0.0
 33
0.0
 40
0.0
 40
0.0
 40
0.0
 40
0.0
 40
0.2096821001528686
 40
0.442045373318613
 40
0.6744332966681347
 40
0.9068208701180654
 40
0.9999999999999999
 40
0.9999999999999999
 40
0.9999999999999999
 40
0.9999999999999999
 10
-101.855576523758
 20
117.9844714858358
 30
0.0
 10
-101.7512913158305
 20
118.0088114560045
 30
0.0
 10
-101.5314404385437
 20
118.0601242346913
 30
0.0
 10
-101.1954723086608
 20
118.4810548216199
 30
0.0
 10
-100.8485670402441
 20
119.1328442995155
 30
0.0
 10
-100.5701903780111
 20
119.7822853386181
 30
0.0
 10
-100.4088299167896
 20
120.1727252557244
 30
0.0
 10
-100.3626475915699
 20
120.2844714858358
 30
0.0
  0
LINE
  5
1DA
330
1F
100
AcDbEntity
  8
0
  6
Continuous
 62
     7
370
    15
100
AcDbLine
 10
-100.3626475916
 20
120.2844714858
 30
0.0
 11
765.9296981457
 21
120.2844714858
 31
0.0
  0
SPLINE
  5
1DB
330
1F
100
AcDbEntity
  8
0
  6
Continuous
 62
     7
370
    15
100
AcDbSpline
210
0.0
220
0.0
230
1.0
 70
     8
 71
     3
 72
    12
 73
     8
 74
     0
 42
0.00000001
 43
0.00000001
 12
1.0
 22
0.0
 32
0.0
 13
1.0
 23
0.0
 33
0.0
 40
0.0
 40
0.0
 40
0.0
 40
0.0
 40
0.2096821001528738
 40
0.4420453733185987
 40
0.6744332966681253
 40
0.9068208701180408
 40
1.0
 40
1.0
 40
1.0
 40
1.0
 10
-102.6626475915699
 20
364.3774004180244
 30
0.0
 10
-102.6383076214013
 20
364.2731152100969
 30
0.0
 10
-102.5869948427145
 20
364.0532643328101
 30
0.0
 10
-102.1660642557858
 20
363.7172962029271
 30
0.0
 10
-101.5142747778902
 20
363.3703909345105
 30
0.0
 10
-100.8648337387877
 20
363.0920142722777
 30
0.0
 10
-100.4743938216814
 20
362.930653811056
 30
0.0
 10
-100.3626475915699
 20
362.8844714858362
 30
0.0
  0
LINE
  5
1DC
330
1F
100
AcDbEntity
  8
0
  6
Continuous
 62
     7
370
    15
100
AcDbLine
 10
-102.6626475916
 20
364.377400418
 30
0.0
 11
-101.8626475916
 21
364.377400418
 31
0.0
  0
SPLINE
  5
1DD
330
1F
100
AcDbEntity
  8
0
  6
Continuous
 62
     7
370
    15
100
AcDbSpline
210
0.0
220
0.0
230
1.0
 70
     8
 71
     3
 72
    11
 73
     7
 74
     0
 42
0.00000001
 43
0.00000001
 12
1.0
 22
0.0
 32
0.0
 13
1.0
 23
0.0
 33
0.0
 40
0.0
 40
0.0
 40
0.0
 40
0.0
 40
0.2543211584721155
 40
0.5088664984542254
 40
0.763413000719684
 40
1.0
 40
1.0
 40
1.0
 40
1.0
 10
-101.86264759157
 20
364.3774004180244
 30
0.0
 10
-101.8392935295509
 20
364.250819310239
 30
0.0
 10
-101.7925648191449
 20
363.9975455147113
 30
0.0
 10
-101.4336772029498
 20
363.6176008452259
 30
0.0
 10
-100.9344542236603
 20
363.2463757135549
 30
0.0
 10
-100.548545907065
 20
363.0021290688858
 30
0.0
 10
-100.3626475915699
 20
362.8844714858362
 30
0.0
  0
ARC
  5
1DE
330
1F
100
AcDbEntity
  8
0
  6
Continuous
 62
     7
370
    15
100
AcDbCircle
 10
770.8310302669
 20
324.1887451692
 30
0.0
 40
7.700000000000107
100
AcDbArc
 50
295.0
 51
335.0
  0
LINE
  5
1DF
330
1F
100
AcDbEntity
  8
0
  6
Continuous
 62
     7
370
    15
100
AcDbLine
 10
779.8941081373
 20
319.9625625518
 30
0.0
 11
777.8096002271
 21
320.9345845538
 31
0.0
  0
CIRCLE
  5
1E0
330
1F
100
AcDbEntity
  8
0
  6
Continuous
 62
     7
370
    15
100
AcDbCircle
 10
744.8845748184
 20
345.1844714858
 30
0.0
 40
6.347663105371566
  0
LINE
  5
1E1
330
1F
100
AcDbEntity
  8
0
  6
Continuous
 62
     7
370
    15
100
AcDbLine
 10
-100.3626475916
 20
362.8844714858
 30
0.0
 11
-100.3626475916
 21
120.2844714858
 31
0.0
  0
LINE
  5
1E2
330
1F
100
AcDbEntity
  8
0
  6
Continuous
 62
     7
370
    15
100
AcDbLine
 10
785.2845748184
 20
362.8844714858
 30
0.0
 11
-100.3626475916
 21
362.8844714858
 31
0.0
  0
LINE
  5
1E3
330
1F
100
AcDbEntity
  8
0
  6
Continuous
 62
     7
370
    15
100
AcDbLine
 10
777.8096002271
 20
320.9345845538
 30
0.0
 11
792.2631447786
 21
351.9303108704
 31
0.0
  0
LINE
  5
1E4
330
1F
100
AcDbEntity
  8
0
  6
Continuous
 62
     7
370
    15
100
AcDbLine
 10
772.9082681059
 20
124.7303108704
 30
0.0
 11
793.5190665963
 21
168.9303108704
 31
0.0
  0
ARC
  5
1E5
330
1F
100
AcDbEntity
  8
0
  6
Continuous
 62
     7
370
    15
100
AcDbCircle
 10
765.9296981457
 20
127.9844714858
 30
0.0
 40
7.699999999999853
100
AcDbArc
 50
270.0
 51
335.0
  0
SPLINE
  5
1E6
330
1F
100
AcDbEntity
  8
0
  6
Continuous
 62
     7
370
    15
100
AcDbSpline
210
0.0
220
0.0
230
1.0
 70
     8
 71
     3
 72
    12
 73
     8
 74
     0
 42
0.00000001
 43
0.00000001
 12
1.0
 22
0.0
 32
0.0
 13
1.0
 23
0.0
 33
0.0
 40
0.0
 40
0.0
 40
0.0
 40
0.0
 40
0.2096821001528698
 40
0.4420453733185913
 40
0.6744332966681269
 40
0.9068208701180628
 40
1.0
 40
1.0
 40
1.0
 40
1.0
 10
-100.3626475915699
 20
120.2844714858358
 30
0.0
 10
-100.6149785495452
 20
120.1801862779083
 30
0.0
 10
-101.1469349370324
 20
119.9603354006215
 30
0.0
 10
-101.8683163668472
 20
119.6243672707386
 30
0.0
 10
-102.4116753008336
 20
119.2774620023218
 30
0.0
 10
-102.640297140977
 20
118.9990853400889
 30
0.0
 10
-102.6576741796013
 20
118.8377248788674
 30
0.0
 10
-102.6626475915699
 20
118.7915425536477
 30
0.0
  0
LINE
  5
1E7
330
1F
100
AcDbEntity
  8
0
  6
Continuous
 62
     7
370
    15
100
AcDbLine
 10
-102.6626475916
 20
364.377400418
 30
0.0
 11
-102.6626475916
 21
118.7915425536
 31
0.0
  0
SPLINE
  5
1E8
330
1F
100
AcDbEntity
  8
0
  6
Continuous
 62
     7
370
    15
100
AcDbSpline
210
0.0
220
0.0
230
1.0
 70
     8
 71
     3
 72
    11
 73
     7
 74
     0
 42
0.00000001
 43
0.00000001
 12
1.0
 22
0.0
 32
0.0
 13
1.0
 23
0.0
 33
0.0
 40
0.0
 40
0.0
 40
0.0
 40
0.0
 40
0.2543211584721242
 40
0.5088664984542407
 40
0.7634130007197216
 40
1.0
 40
1.0
 40
1.0
 40
1.0
 10
-100.3626475915699
 20
120.2844714858358
 30
0.0
 10
-100.5626227817092
 20
120.1578903780504
 30
0.0
 10
-100.9627494380804
 20
119.9046165825227
 30
0.0
 10
-101.4643731921759
 20
119.5246719130374
 30
0.0
 10
-101.8004384390346
 20
119.1534467813663
 30
0.0
 10
-101.8424229631454
 20
118.9092001366973
 30
0.0
 10
-101.8626475915699
 20
118.7915425536477
 30
0.0
  0
LINE
  5
1E9
330
1F
100
AcDbEntity
  8
0
  6
Continuous
 62
     7
370
    15
100
AcDbLine
 10
-102.6626475916
 20
118.7915425536
 30
0.0
 11
-101.8626475916
 21
118.7915425536
 31
0.0
  0
LINE
  5
1EA
330
1F
100
AcDbEntity
  8
0
  6
Continuous
 62
     7
370
    15
100
AcDbLine
 10
774.992776016
 20
123.7582888684
 30
0.0
 11
772.9082681059
 21
124.7303108704
 31
0.0
  0
CIRCLE
  5
1EB
330
1F
100
AcDbEntity
  8
0
  6
Continuous
 62
     7
370
    15
100
AcDbCircle
 10
744.8845748184
 20
345.1844714858
 30
0.0
 40
4.699999999999989
  0
SPLINE
  5
1EC
330
1F
100
AcDbEntity
  8
0
  6
Continuous
 62
     7
370
    15
100
AcDbSpline
210
0.0
220
0.0
230
1.0
 70
     8
 71
     3
 72
    12
 73
     8
 74
     0
 42
0.00000001
 43
0.00000001
 12
1.0
 22
0.0
 32
0.0
 13
1.0
 23
0.0
 33
0.0
 40
0.0
 40
0.0
 40
0.0
 40
0.0
 40
0.209682100152886
 40
0.4420453733185801
 40
0.6744332966681194
 40
0.9068208701180673
 40
1.0
 40
1.0
 40
1.0
 40
1.0
 10
-100.3626475915699
 20
362.8844714858362
 30
0.0
 10
-100.4669327994974
 20
363.1368024438116
 30
0.0
 10
-100.6867836767841
 20
363.6687588312988
 30
0.0
 10
-101.0227518066672
 20
364.3901402611136
 30
0.0
 10
-101.3696570750838
 20
364.9334991951
 30
0.0
 10
-101.6480337373167
 20
365.1621210352434
 30
0.0
 10
-101.8093941985384
 20
365.1794980738676
 30
0.0
 10
-101.855576523758
 20
365.1844714858362
 30
0.0
  0
LINE
  5
1ED
330
1F
100
AcDbEntity
  8
0
  6
Continuous
 62
     7
370
    15
100
AcDbLine
 10
-101.8555765238
 20
365.1844714858
 30
0.0
 11
-98.4685694105
 21
365.1844714858
 31
0.0
  0
LINE
  5
1EE
330
1F
100
AcDbEntity
  8
0
  6
Continuous
 62
     7
370
    15
100
AcDbLine
 10
-87.7185694105
 20
365.1844714858
 30
0.0
 11
-25.4685694105
 21
365.1844714858
 31
0.0
  0
SPLINE
  5
1EF
330
1F
100
AcDbEntity
  8
0
  6
Continuous
 62
     7
370
    15
100
AcDbSpline
210
0.0
220
0.0
230
1.0
 70
     8
 71
     3
 72
    11
 73
     7
 74
     0
 42
0.00000001
 43
0.00000001
 12
1.0
 22
0.0
 32
0.0
 13
1.0
 23
0.0
 33
0.0
 40
0.0
 40
0.0
 40
0.0
 40
0.0
 40
0.2543211584720588
 40
0.5088664984541689
 40
0.7634130007196562
 40
1.0
 40
1.0
 40
1.0
 40
1.0
 10
-100.3626475915699
 20
362.8844714858362
 30
0.0
 10
-100.4892286993553
 20
363.0844466759755
 30
0.0
 10
-100.7425024948829
 20
363.4845733323466
 30
0.0
 10
-101.1224471643683
 20
363.9861970864421
 30
0.0
 10
-101.4936722960393
 20
364.3222623333011
 30
0.0
 10
-101.7379189407084
 20
364.3642468574117
 30
0.0
 10
-101.855576523758
 20
364.3844714858362
 30
0.0
  0
LINE
  5
1F0
330
1F
100
AcDbEntity
  8
0
  6
Continuous
 62
     7
370
    15
100
AcDbLine
 10
-101.8555765238
 20
365.1844714858
 30
0.0
 11
-101.8555765238
 21
364.3844714858
 31
0.0
  0
LINE
  5
1F1
330
1F
100
AcDbEntity
  8
0
  6
Continuous
 62
     7
370
    15
100
AcDbLine
 10
-101.8555765238
 20
117.9844714858
 30
0.0
 11
-101.8555765238
 21
118.7844714858
 31
0.0
  0
SPLINE
  5
1F2
330
1F
100
AcDbEntity
  8
0
  6
Continuous
 62
     7
370
    15
100
AcDbSpline
210
0.0
220
0.0
230
1.0
 70
     8
 71
     3
 72
    11
 73
     7
 74
     0
 42
0.00000001
 43
0.00000001
 12
1.0
 22
0.0
 32
0.0
 13
1.0
 23
0.0
 33
0.0
 40
0.0
 40
0.0
 40
0.0
 40
0.0
 40
0.2543211584721194
 40
0.5088664984542401
 40
0.7634130007197312
 40
1.0
 40
1.0
 40
1.0
 40
1.0
 10
-101.855576523758
 20
118.7844714858358
 30
0.0
 10
-101.7289954159726
 20
118.8078255478549
 30
0.0
 10
-101.4757216204449
 20
118.8545542582607
 30
0.0
 10
-101.0957769509595
 20
119.2134418744559
 30
0.0
 10
-100.7245518192886
 20
119.7126648537455
 30
0.0
 10
-100.4803051746195
 20
120.0985731703407
 30
0.0
 10
-100.3626475915699
 20
120.2844714858358
 30
0.0
  0
CIRCLE
  5
1F3
330
1F
100
AcDbEntity
  8
0
  6
Continuous
 62
     7
370
    15
100
AcDbCircle
 10
364.8845748184
 20
345.1844714858
 30
0.0
 40
2.699999999999989
  0
CIRCLE
  5
1F4
330
1F
100
AcDbEntity
  8
0
  6
Continuous
 62
     7
370
    15
100
AcDbCircle
 10
744.8845748184
 20
345.1844714858
 30
0.0
 40
2.699999999999989
  0
CIRCLE
  5
1F5
330
1F
100
AcDbEntity
  8
0
  6
Continuous
 62
     7
370
    15
100
AcDbCircle
 10
-25.1154251816
 20
345.1844714858
 30
0.0
 40
2.699999999999989
  0
LINE
  5
1F6
330
1F
100
AcDbEntity
  8
0
  6
Continuous
 62
     8
370
    15
100
AcDbLine
 10
584.4256821279
 20
67.9844714859
 30
0.0
 11
69.2256821279
 21
67.9844714859
 31
0.0
  0
LINE
  5
1F7
330
1F
100
AcDbEntity
  8
0
  6
Continuous
 62
     8
370
    15
100
AcDbLine
 10
712.3549714498
 20
109.4344714859
 30
0.0
 11
648.2256821279
 21
109.4344714859
 31
0.0
  0
LINE
  5
1F8
330
1F
100
AcDbEntity
  8
0
  6
Continuous
 62
     8
370
    15
100
AcDbLine
 10
-55.7185694105
 20
394.6844714856
 30
0.0
 11
-74.7185694105
 21
394.6844714856
 31
0.0
  0
LINE
  5
1F9
330
1F
100
AcDbEntity
  8
0
  6
Continuous
 62
     8
370
    15
100
AcDbLine
 10
759.4829059777
 20
263.1109185978
 30
0.0
 11
758.0040106724
 21
262.4854425948
 31
0.0
  0
LINE
  5
1FA
330
1F
100
AcDbEntity
  8
0
  6
Continuous
 62
     8
370
    15
100
AcDbLine
 10
765.3688523496
 20
259.4579225121
 30
0.0
 11
783.8800985763
 21
219.7604268716
 31
0.0
  0
LWPOLYLINE
  5
1FB
330
1F
100
AcDbEntity
  8
0
  6
Continuous
 62
     8
370
    15
100
AcDbPolyline
 90
        3
 70
   128
 43
0.0
 10
757.2209792367
 20
264.1646589276
 10
758.1891410179
 20
264.5750845639
 10
758.6993210671
 20
264.7913218614
  0
SPLINE
  5
1FC
330
1F
100
AcDbEntity
  8
0
  6
Continuous
 62
     8
370
    15
100
AcDbSpline
210
0.0
220
0.0
230
1.0
 70
     8
 71
     3
 72
    11
 73
     7
 74
     0
 42
0.00000001
 43
0.00000001
 12
1.0
 22
0.0
 32
0.0
 13
1.0
 23
0.0
 33
0.0
 40
0.0
 40
0.0
 40
0.0
 40
0.0
 40
0.3052069607309353
 40
0.6079701988229516
 40
0.8124395915599253
 40
1.0
 40
1.0
 40
1.0
 40
1.0
 10
753.0929762138519
 20
276.8141671979085
 30
0.0
 10
752.8634872161268
 20
277.2965675961919
 30
0.0
 10
752.4063466868265
 20
278.2575059226123
 30
0.0
 10
751.5892248535029
 20
279.4283418897757
 30
0.0
 10
750.6261254346294
 20
280.2245156358892
 30
0.0
 10
749.9500979945138
 20
280.3775194618403
 30
0.0
 10
749.6266634433542
 20
280.4507217031039
 30
0.0
  0
LINE
  5
1FD
330
1F
100
AcDbEntity
  8
0
  6
Continuous
 62
     8
370
    15
100
AcDbLine
 10
800.6860816561
 20
272.4880188219
 30
0.0
 11
800.5421803421
 21
272.7966161855
 31
0.0
  0
LINE
  5
1FE
330
1F
100
AcDbEntity
  8
0
  6
Continuous
 62
     8
370
    15
100
AcDbLine
 10
817.435784022
 20
236.5681661817
 30
0.0
 11
815.9800002282
 21
239.6901046022
 31
0.0
  0
LINE
  5
1FF
330
1F
100
AcDbEntity
  8
0
  6
Continuous
 62
     8
370
    15
100
AcDbLine
 10
782.0628573937
 20
242.8348006741
 30
0.0
 11
780.2533698038
 21
241.982856167
 31
0.0
  0
LINE
  5
200
330
1F
100
AcDbEntity
  8
0
  6
Continuous
 62
     8
370
    15
100
AcDbLine
 10
782.7447132929
 20
241.3725559795
 30
0.0
 11
780.9320977188
 21
240.527319456
 31
0.0
  0
LINE
  5
201
330
1F
100
AcDbEntity
  8
0
  6
Continuous
 62
     8
370
    15
100
AcDbLine
 10
784.9617542597
 20
236.6180962831
 30
0.0
 11
783.1389681072
 21
235.7946706355
 31
0.0
  0
LINE
  5
202
330
1F
100
AcDbEntity
  8
0
  6
Continuous
 62
     8
370
    15
100
AcDbLine
 10
784.6928842742
 20
237.1946898278
 30
0.0
 11
782.8876455293
 21
236.3336336431
 31
0.0
  0
LINE
  5
203
330
1F
100
AcDbEntity
  8
0
  6
Continuous
 62
     8
370
    15
100
AcDbLine
 10
785.4093196771
 20
235.6582891483
 30
0.0
 11
783.5844803378
 21
234.8392665739
 31
0.0
  0
LINE
  5
204
330
1F
100
AcDbEntity
  8
0
  6
Continuous
 62
     8
370
    15
100
AcDbLine
 10
644.8256821279
 20
20.2844714859
 30
0.0
 11
587.8256821279
 21
20.2844714859
 31
0.0
  0
LINE
  5
205
330
1F
100
AcDbEntity
  8
0
  6
Continuous
 62
     8
370
    15
100
AcDbLine
 10
65.8256821279
 20
20.2844714859
 30
0.0
 11
8.8256821279
 21
20.2844714859
 31
0.0
  0
LINE
  5
206
330
1F
100
AcDbEntity
  8
0
  6
Continuous
 62
     8
370
    15
100
AcDbLine
 10
69.2256821279
 20
114.7844714859
 30
0.0
 11
5.4256821279
 21
114.7844714859
 31
0.0
  0
LINE
  5
207
330
1F
100
AcDbEntity
  8
0
  6
Continuous
 62
     8
370
    15
100
AcDbLine
 10
69.1617689009
 20
58.5445742071
 30
0.0
 11
5.4895953549
 21
58.5445742071
 31
0.0
  0
LINE
  5
208
330
1F
100
AcDbEntity
  8
0
  6
Continuous
 62
     8
370
    15
100
AcDbLine
 10
69.2256821279
 20
59.3170374316
 30
0.0
 11
5.4256821279
 21
59.3170374316
 31
0.0
  0
LINE
  5
209
330
1F
100
AcDbEntity
  8
0
  6
Continuous
 62
     8
370
    15
100
AcDbLine
 10
648.2256821279
 20
114.7844714859
 30
0.0
 11
584.4256821279
 21
114.7844714859
 31
0.0
  0
LINE
  5
20A
330
1F
100
AcDbEntity
  8
0
  6
Continuous
 62
     8
370
    15
100
AcDbLine
 10
648.1617689009
 20
58.5445742071
 30
0.0
 11
584.4895953549
 21
58.5445742071
 31
0.0
  0
LINE
  5
20B
330
1F
100
AcDbEntity
  8
0
  6
Continuous
 62
     8
370
    15
100
AcDbLine
 10
648.2256821279
 20
59.3170374316
 30
0.0
 11
584.4256821279
 21
59.3170374316
 31
0.0
  0
LINE
  5
20C
330
1F
100
AcDbEntity
  8
0
  6
Continuous
 62
     8
370
    15
100
AcDbLine
 10
764.8453498052
 20
285.2001284928
 30
0.0
 11
761.9091137236
 21
291.4969070902
 31
0.0
  0
LINE
  5
20D
330
1F
100
AcDbEntity
  8
0
  6
Continuous
 62
     8
370
    15
100
AcDbLine
 10
766.4733909504
 20
281.7087829902
 30
0.0
 11
764.8453498052
 21
285.2001284928
 31
0.0
  0
LINE
  5
20E
330
1F
100
AcDbEntity
  8
0
  6
Continuous
 62
     8
370
    15
100
AcDbLine
 10
774.0851908823
 20
317.210175209
 30
0.0
 11
775.0472817345
 21
315.1469647184
 31
0.0
  0
ENDSEC
  0
SECTION
  2
OBJECTS
  0
DICTIONARY
  5
C
330
0
100
AcDbDictionary
281
     1
  3
ACAD_GROUP
350
D
  3
ACAD_LAYOUT
350
1A
  3
ACAD_MLINESTYLE
350
17
  3
ACAD_PLOTSETTINGS
350
19
  3
ACAD_PLOTSTYLENAME
350
E
  0
DICTIONARY
  5
D
102
{ACAD_REACTORS
330
C
102
}
330
C
100
AcDbDictionary
281
     1
  0
DICTIONARY
  5
1A
102
{ACAD_REACTORS
330
C
102
}
330
C
100
AcDbDictionary
281
     1
  3
Layout1
350
1E
  3
Layout2
350
26
  3
Model
350
22
  0
DICTIONARY
  5
17
102
{ACAD_REACTORS
330
C
102
}
330
C
100
AcDbDictionary
281
     1
  3
Standard
350
18
  0
DICTIONARY
  5
19
102
{ACAD_REACTORS
330
C
102
}
330
C
100
AcDbDictionary
281
     1
  0
ACDBDICTIONARYWDFLT
  5
E
102
{ACAD_REACTORS
330
C
102
}
330
C
100
AcDbDictionary
281
     1
  3
Normal
350
F
100
AcDbDictionaryWithDefault
340
F
  0
LAYOUT
  5
1E
102
{ACAD_REACTORS
330
1A
102
}
330
1A
100
AcDbPlotSettings
  1

  2
none_device
  4

  6

 40
0.0
 41
0.0
 42
0.0
 43
0.0
 44
0.0
 45
0.0
 46
0.0
 47
0.0
 48
0.0
 49
0.0
140
0.0
141
0.0
142
1.0
143
1.0
 70
   688
 72
     0
 73
     0
 74
     5
  7

 75
    16
147
1.0
148
0.0
149
0.0
100
AcDbLayout
  1
Layout1
 70
     1
 71
     1
 10
0.0
 20
0.0
 11
420.0
 21
297.0
 12
0.0
 22
0.0
 32
0.0
 14
1.0000000000E+20
 24
1.0000000000E+20
 34
1.0000000000E+20
 15
-1.0000000000E+20
 25
-1.0000000000E+20
 35
-1.0000000000E+20
146
0.0
 13
0.0
 23
0.0
 33
0.0
 16
1.0
 26
0.0
 36
0.0
 17
0.0
 27
1.0
 37
0.0
 76
     0
330
1B
  0
LAYOUT
  5
26
102
{ACAD_REACTORS
330
1A
102
}
330
1A
100
AcDbPlotSettings
  1

  2
none_device
  4

  6

 40
0.0
 41
0.0
 42
0.0
 43
0.0
 44
0.0
 45
0.0
 46
0.0
 47
0.0
 48
0.0
 49
0.0
140
0.0
141
0.0
142
1.0
143
1.0
 70
   688
 72
     0
 73
     0
 74
     5
  7

 75
    16
147
1.0
148
0.0
149
0.0
100
AcDbLayout
  1
Layout2
 70
     1
 71
     2
 10
0.0
 20
0.0
 11
0.0
 21
0.0
 12
0.0
 22
0.0
 32
0.0
 14
0.0
 24
0.0
 34
0.0
 15
0.0
 25
0.0
 35
0.0
146
0.0
 13
0.0
 23
0.0
 33
0.0
 16
1.0
 26
0.0
 36
0.0
 17
0.0
 27
1.0
 37
0.0
 76
     0
330
23
  0
LAYOUT
  5
22
102
{ACAD_REACTORS
330
1A
102
}
330
1A
100
AcDbPlotSettings
  1

  2
none_device
  4

  6

 40
0.0
 41
0.0
 42
0.0
 43
0.0
 44
0.0
 45
0.0
 46
0.0
 47
0.0
 48
0.0
 49
0.0
140
0.0
141
0.0
142
1.0
143
1.0
 70
  1712
 72
     0
 73
     0
 74
     0
  7

 75
     0
147
1.0
148
0.0
149
0.0
100
AcDbLayout
  1
Model
 70
     1
 71
     0
 10
0.0
 20
0.0
 11
841.0
 21
594.0
 12
0.0
 22
0.0
 32
0.0
 14
0.0
 24
0.0
 34
0.0
 15
841.0
 25
594.0
 35
0.0
146
0.0
 13
0.0
 23
0.0
 33
0.0
 16
1.0
 26
0.0
 36
0.0
 17
0.0
 27
1.0
 37
0.0
 76
     0
330
1F
331
29
  0
MLINESTYLE
  5
18
102
{ACAD_REACTORS
330
17
102
}
330
17
100
AcDbMlineStyle
  2
Standard
 70
     0
  3

 62
   256
 51
90.0
 52
90.0
 71
     2
 49
0.5
 62
   256
  6
BYLAYER
 49
-0.5
 62
   256
  6
BYLAYER
  0
ACDBPLACEHOLDER
  5
F
102
{ACAD_REACTORS
330
E
102
}
330
E
  0
ENDSEC
  0
EOF
