  0
SECTION
  2
HEADER
  9
$ACADVER
  1
AC1015
  9
$ACADMAINTVER
 70
     6
  9
$DWGCODEPAGE
  3
ANSI_1252
  9
$INSBASE
 10
0.0
 20
0.0
 30
0.0
  9
$EXTMIN
 10
0.0
 20
0.0
 30
0.0
  9
$EXTMAX
 10
420.0
 20
297.0
 30
0.0
  9
$LIMMIN
 10
0.0
 20
0.0
  9
$LIMMAX
 10
420.0
 20
297.0
  9
$ORTHOMODE
 70
     0
  9
$REGENMODE
 70
     1
  9
$FILLMODE
 70
     1
  9
$QTEXTMODE
 70
     0
  9
$MIRRTEXT
 70
     1
  9
$LTSCALE
 40
1.0
  9
$ATTMODE
 70
     1
  9
$TEXTSIZE
 40
3.5
  9
$TRACEWID
 40
1.0
  9
$TEXTSTYLE
  7
Standard
  9
$CLAYER
  8
0
  9
$CELTYPE
  6
ByLayer
  9
$CECOLOR
 62
   256
  9
$CELTSCALE
 40
1.0
  9
$DISPSILH
 70
     0
  9
$DIMSCALE
 40
1.0
  9
$DIMASZ
 40
3.302
  9
$DIMEXO
 40
1.0
  9
$DIMDLI
 40
3.75
  9
$DIMRND
 40
0.0
  9
$DIMDLE
 40
0.0
  9
$DIMEXE
 40
1.0
  9
$DIMTP
 40
0.0
  9
$DIMTM
 40
0.0
  9
$DIMTXT
 40
3.5
  9
$DIMCEN
 40
2.5
  9
$DIMTSZ
 40
0.0
  9
$DIMTOL
 70
     0
  9
$DIMLIM
 70
     0
  9
$DIMTIH
 70
     1
  9
$DIMTOH
 70
     1
  9
$DIMSE1
 70
     0
  9
$DIMSE2
 70
     0
  9
$DIMTAD
 70
     1
  9
$DIMZIN
 70
     0
  9
$DIMBLK
  1

  9
$DIMASO
 70
     1
  9
$DIMSHO
 70
     1
  9
$DIMPOST
  1

  9
$DIMAPOST
  1

  9
$DIMALT
 70
     0
  9
$DIMALTD
 70
     3
  9
$DIMALTF
 40
0.0393700787
  9
$DIMLFAC
 40
1.0
  9
$DIMTOFL
 70
     1
  9
$DIMTVP
 40
0.0
  9
$DIMTIX
 70
     0
  9
$DIMSOXD
 70
     0
  9
$DIMSAH
 70
     0
  9
$DIMBLK1
  1

  9
$DIMBLK2
  1

  9
$DIMSTYLE
  2
ISO-25
  9
$DIMCLRD
 70
     0
  9
$DIMCLRE
 70
     0
  9
$DIMCLRT
 70
     0
  9
$DIMTFAC
 40
1.0
  9
$DIMGAP
 40
1.524
  9
$DIMJUST
 70
     0
  9
$DIMSD1
 70
     0
  9
$DIMSD2
 70
     0
  9
$DIMTOLJ
 70
     0
  9
$DIMTZIN
 70
     0
  9
$DIMALTZ
 70
     0
  9
$DIMALTTZ
 70
     0
  9
$DIMUPT
 70
     0
  9
$DIMDEC
 70
     1
  9
$DIMTDEC
 70
     1
  9
$DIMALTU
 70
     2
  9
$DIMALTTD
 70
     3
  9
$DIMTXSTY
  7
Standard
  9
$DIMAUNIT
 70
     0
  9
$DIMADEC
 70
     1
  9
$DIMALTRND
 40
0.0
  9
$DIMAZIN
 70
     0
  9
$DIMDSEP
 70
    44
  9
$DIMATFIT
 70
     3
  9
$DIMFRAC
 70
     0
  9
$DIMLDRBLK
  1

  9
$DIMLUNIT
 70
     2
  9
$DIMLWD
 70
    -2
  9
$DIMLWE
 70
    -2
  9
$DIMTMOVE
 70
     0
  9
$LUNITS
 70
     2
  9
$LUPREC
 70
     1
  9
$SKETCHINC
 40
1.0
  9
$FILLETRAD
 40
10.0
  9
$AUNITS
 70
     0
  9
$AUPREC
 70
     1
  9
$MENU
  1
.
  9
$ELEVATION
 40
0.0
  9
$PELEVATION
 40
0.0
  9
$THICKNESS
 40
0.0
  9
$LIMCHECK
 70
     0
  9
$CHAMFERA
 40
10.0
  9
$CHAMFERB
 40
10.0
  9
$CHAMFERC
 40
20.0
  9
$CHAMFERD
 40
0.0
  9
$SKPOLY
 70
     0
  9
$TDCREATE
 40
2457053.457718762
  9
$TDUCREATE
 40
2457053.457718762
  9
$TDUPDATE
 40
2457053.457719665
  9
$TDUUPDATE
 40
2457053.457719665
  9
$TDINDWG
 40
0.0000000116
  9
$TDUSRTIMER
 40
0.0000000116
  9
$USRTIMER
 70
     1
  9
$ANGBASE
 50
0.0
  9
$ANGDIR
 70
     0
  9
$PDMODE
 70
     0
  9
$PDSIZE
 40
-1.0
  9
$PLINEWID
 40
0.0
  9
$SPLFRAME
 70
     0
  9
$SPLINETYPE
 70
     6
  9
$SPLINESEGS
 70
     8
  9
$HANDSEED
  5
20A
  9
$SURFTAB1
 70
     6
  9
$SURFTAB2
 70
     6
  9
$SURFTYPE
 70
     6
  9
$SURFU
 70
     6
  9
$SURFV
 70
     6
  9
$UCSBASE
  2

  9
$UCSNAME
  2

  9
$UCSORG
 10
0.0
 20
0.0
 30
0.0
  9
$UCSXDIR
 10
1.0
 20
0.0
 30
0.0
  9
$UCSYDIR
 10
0.0
 20
1.0
 30
0.0
  9
$UCSORTHOREF
  2

  9
$UCSORTHOVIEW
 70
     0
  9
$UCSORGTOP
 10
0.0
 20
0.0
 30
0.0
  9
$UCSORGBOTTOM
 10
0.0
 20
0.0
 30
0.0
  9
$UCSORGLEFT
 10
0.0
 20
0.0
 30
0.0
  9
$UCSORGRIGHT
 10
0.0
 20
0.0
 30
0.0
  9
$UCSORGFRONT
 10
0.0
 20
0.0
 30
0.0
  9
$UCSORGBACK
 10
0.0
 20
0.0
 30
0.0
  9
$PUCSBASE
  2

  9
$PUCSNAME
  2

  9
$PUCSORG
 10
0.0
 20
0.0
 30
0.0
  9
$PUCSXDIR
 10
1.0
 20
0.0
 30
0.0
  9
$PUCSYDIR
 10
0.0
 20
1.0
 30
0.0
  9
$PUCSORTHOREF
  2

  9
$PUCSORTHOVIEW
 70
     0
  9
$PUCSORGTOP
 10
0.0
 20
0.0
 30
0.0
  9
$PUCSORGBOTTOM
 10
0.0
 20
0.0
 30
0.0
  9
$PUCSORGLEFT
 10
0.0
 20
0.0
 30
0.0
  9
$PUCSORGRIGHT
 10
0.0
 20
0.0
 30
0.0
  9
$PUCSORGFRONT
 10
0.0
 20
0.0
 30
0.0
  9
$PUCSORGBACK
 10
0.0
 20
0.0
 30
0.0
  9
$USERI1
 70
     0
  9
$USERI2
 70
     0
  9
$USERI3
 70
     0
  9
$USERI4
 70
     0
  9
$USERI5
 70
     0
  9
$USERR1
 40
0.0
  9
$USERR2
 40
0.0
  9
$USERR3
 40
0.0
  9
$USERR4
 40
0.0
  9
$USERR5
 40
0.0
  9
$WORLDVIEW
 70
     1
  9
$SHADEDGE
 70
     3
  9
$SHADEDIF
 70
    70
  9
$TILEMODE
 70
     1
  9
$MAXACTVP
 70
    64
  9
$PINSBASE
 10
0.0
 20
0.0
 30
0.0
  9
$PLIMCHECK
 70
     0
  9
$PEXTMIN
 10
1.0000000000E+20
 20
1.0000000000E+20
 30
1.0000000000E+20
  9
$PEXTMAX
 10
-1.0000000000E+20
 20
-1.0000000000E+20
 30
-1.0000000000E+20
  9
$PLIMMIN
 10
0.0
 20
0.0
  9
$PLIMMAX
 10
420.0
 20
297.0
  9
$UNITMODE
 70
     0
  9
$VISRETAIN
 70
     1
  9
$PLINEGEN
 70
     0
  9
$PSLTSCALE
 70
     1
  9
$TREEDEPTH
 70
  3020
  9
$CMLSTYLE
  2
Standard
  9
$CMLJUST
 70
     0
  9
$CMLSCALE
 40
20.0
  9
$PROXYGRAPHICS
 70
     1
  9
$MEASUREMENT
 70
     1
  9
$CELWEIGHT
370
    -1
  9
$ENDCAPS
280
     0
  9
$JOINSTYLE
280
     0
  9
$LWDISPLAY
290
     1
  9
$INSUNITS
 70
     4
  9
$HYPERLINKBASE
  1

  9
$STYLESHEET
  1

  9
$XEDIT
290
     1
  9
$CEPSNTYPE
380
     0
  9
$PSTYLEMODE
290
     1
  9
$FINGERPRINTGUID
  2
{9D79D0E7-0F39-4FAE-89BC-D8F2C8EFB0F2}
  9
$VERSIONGUID
  2
{FAEB1C32-E019-11D5-929B-00C0DF256EC4}
  9
$EXTNAMES
290
     1
  9
$PSVPSCALE
 40
0.0
  9
$OLESTARTUP
290
     0
  0
ENDSEC
  0
SECTION
  2
CLASSES
  0
CLASS
  1
ACDBDICTIONARYWDFLT
  2
AcDbDictionaryWithDefault
  3
ObjectDBX Classes
 90
        0
280
     0
281
     0
  0
CLASS
  1
VISUALSTYLE
  2
AcDbVisualStyle
  3
ObjectDBX Classes
 90
     4095
280
     0
281
     0
  0
CLASS
  1
MATERIAL
  2
AcDbMaterial
  3
ObjectDBX Classes
 90
     1153
280
     0
281
     0
  0
CLASS
  1
ACDBPLACEHOLDER
  2
AcDbPlaceHolder
  3
ObjectDBX Classes
 90
        0
280
     0
281
     0
  0
CLASS
  1
LAYOUT
  2
AcDbLayout
  3
ObjectDBX Classes
 90
        0
280
     0
281
     0
  0
ENDSEC
  0
SECTION
  2
TABLES
  0
TABLE
  2
VPORT
  5
8
330
0
100
AcDbSymbolTable
 70
     1
  0
VPORT
  5
29
330
8
100
AcDbSymbolTableRecord
100
AcDbViewportTableRecord
  2
*Active
 70
     0
 10
0.0
 20
0.0
 11
1.0
 21
1.0
 12
210.0
 22
148.5
 13
0.0
 23
0.0
 14
10.0
 24
10.0
 15
10.0
 25
10.0
 16
0.0
 26
0.0
 36
1.0
 17
0.0
 27
0.0
 37
0.0
 40
297.0
 41
1.4141414141
 42
50.0
 43
0.0
 44
0.0
 50
0.0
 51
0.0
 71
     0
 72
  2000
 73
     1
 74
     3
 75
     0
 76
     0
 77
     0
 78
     0
281
     0
 65
     1
110
0.0
120
0.0
130
0.0
111
1.0
121
0.0
131
0.0
112
0.0
122
1.0
132
0.0
 79
     0
146
0.0
  0
ENDTAB
  0
TABLE
  2
LTYPE
  5
5
330
0
100
AcDbSymbolTable
 70
     6
  0
LTYPE
  5
14
330
5
100
AcDbSymbolTableRecord
100
AcDbLinetypeTableRecord
  2
ByBlock
 70
     0
  3

 72
    65
 73
     0
 40
0.0
  0
LTYPE
  5
15
330
5
100
AcDbSymbolTableRecord
100
AcDbLinetypeTableRecord
  2
ByLayer
 70
     0
  3

 72
    65
 73
     0
 40
0.0
  0
LTYPE
  5
16
330
5
100
AcDbSymbolTableRecord
100
AcDbLinetypeTableRecord
  2
Continuous
 70
     0
  3
Solid line
 72
    65
 73
     0
 40
0.0
  0
LTYPE
  5
3F
330
5
100
AcDbSymbolTableRecord
100
AcDbLinetypeTableRecord
  2
HIDDEN
 70
     0
  3
Hidden __ __ __ __ __ __ __ __ __ __ __ __ __ __
 72
    65
 73
     2
 40
1.905
 49
1.27
 74
     0
 49
-0.635
 74
     0
  0
LTYPE
  5
40
330
5
100
AcDbSymbolTableRecord
100
AcDbLinetypeTableRecord
  2
PHANTOM
 70
     0
  3
Phantom ______  __  __  ______  __  __  ______
 72
    65
 73
     6
 40
12.7
 49
6.35
 74
     0
 49
-1.27
 74
     0
 49
1.27
 74
     0
 49
-1.27
 74
     0
 49
1.27
 74
     0
 49
-1.27
 74
     0
  0
LTYPE
  5
41
330
5
100
AcDbSymbolTableRecord
100
AcDbLinetypeTableRecord
  2
CENTER
 70
     0
  3
Center ____ _ ____ _ ____ _ ____ _ ____ _ ____
 72
    65
 73
     4
 40
10.16
 49
6.35
 74
     0
 49
-1.27
 74
     0
 49
1.27
 74
     0
 49
-1.27
 74
     0
  0
LTYPE
  5
42
330
5
100
AcDbSymbolTableRecord
100
AcDbLinetypeTableRecord
  2
CENTERX2
 70
     0
  3
Center (2x) ________  __  ________  __  _____
 72
    65
 73
     4
 40
20.32
 49
12.7
 74
     0
 49
-2.54
 74
     0
 49
2.54
 74
     0
 49
-2.54
 74
     0
  0
LTYPE
  5
43
330
5
100
AcDbSymbolTableRecord
100
AcDbLinetypeTableRecord
  2
DOT2
 70
     0
  3
Dot (.5x) ........................................
 72
    65
 73
     2
 40
0.635
 49
0.0
 74
     0
 49
-0.635
 74
     0
  0
ENDTAB
  0
TABLE
  2
LAYER
  5
2
330
0
100
AcDbSymbolTable
 70
     4
  0
LAYER
  5
10
330
2
100
AcDbSymbolTableRecord
100
AcDbLayerTableRecord
  2
0
 70
     0
 62
     7
  6
Continuous
370
    -3
390
F
  0
LAYER
  5
44
330
2
100
AcDbSymbolTableRecord
100
AcDbLayerTableRecord
  2
FORMAT
 70
     0
 62
     7
  6
Continuous
370
    -3
390
F
  0
LAYER
  5
45
330
2
100
AcDbSymbolTableRecord
100
AcDbLayerTableRecord
  2
SLD-0
 70
     0
 62
     1
  6
Continuous
370
    -3
390
F
  0
LAYER
  5
46
330
2
100
AcDbSymbolTableRecord
100
AcDbLayerTableRecord
  2
WATERMARK
 70
     0
 62
    20
  6
Continuous
370
    -3
390
F
  0
ENDTAB
  0
TABLE
  2
STYLE
  5
3
330
0
100
AcDbSymbolTable
 70
     1
  0
STYLE
  5
11
330
3
100
AcDbSymbolTableRecord
100
AcDbTextStyleTableRecord
  2
Standard
 70
     0
 40
0.0
 41
1.0
 50
0.0
 71
     0
 42
3.5
  3
txt
  4

  0
ENDTAB
  0
TABLE
  2
VIEW
  5
6
330
0
100
AcDbSymbolTable
 70
     0
  0
ENDTAB
  0
TABLE
  2
UCS
  5
7
330
0
100
AcDbSymbolTable
 70
     0
  0
ENDTAB
  0
TABLE
  2
APPID
  5
9
330
0
100
AcDbSymbolTable
 70
     1
  0
APPID
  5
12
330
9
100
AcDbSymbolTableRecord
100
AcDbRegAppTableRecord
  2
ACAD
 70
     0
  0
ENDTAB
  0
TABLE
  2
DIMSTYLE
  5
A
330
0
100
AcDbSymbolTable
 70
     1
100
AcDbDimStyleTable
  0
DIMSTYLE
105
27
330
A
100
AcDbSymbolTableRecord
100
AcDbDimStyleTableRecord
  2
ISO-25
 70
     0
 41
2.5
 42
0.625
 43
3.75
 44
1.25
 73
     0
 74
     0
 77
     1
 78
     8
140
2.5
141
2.5
143
0.0393700787
147
0.625
171
     3
172
     1
178
     0
271
     2
272
     2
274
     3
278
    44
283
     0
284
     8
340
11
  0
ENDTAB
  0
TABLE
  2
BLOCK_RECORD
  5
1
330
0
100
AcDbSymbolTable
 70
     1
  0
BLOCK_RECORD
  5
1F
330
1
100
AcDbSymbolTableRecord
100
AcDbBlockTableRecord
  2
*Model_Space
340
22
  0
BLOCK_RECORD
  5
1B
330
1
100
AcDbSymbolTableRecord
100
AcDbBlockTableRecord
  2
*Paper_Space
340
1E
  0
BLOCK_RECORD
  5
23
330
1
100
AcDbSymbolTableRecord
100
AcDbBlockTableRecord
  2
*Paper_Space0
340
26
  0
ENDTAB
  0
ENDSEC
  0
SECTION
  2
BLOCKS
  0
BLOCK
  5
20
330
1F
100
AcDbEntity
  8
0
100
AcDbBlockBegin
  2
*Model_Space
 70
     0
 10
0.0
 20
0.0
 30
0.0
  3
*Model_Space
  1

  0
ENDBLK
  5
21
330
1F
100
AcDbEntity
  8
0
100
AcDbBlockEnd
  0
BLOCK
  5
1C
330
1B
100
AcDbEntity
 67
     1
  8
0
100
AcDbBlockBegin
  2
*Paper_Space
 70
     0
 10
0.0
 20
0.0
 30
0.0
  3
*Paper_Space
  1

  0
ENDBLK
  5
1D
330
1B
100
AcDbEntity
 67
     1
  8
0
100
AcDbBlockEnd
  0
BLOCK
  5
24
330
23
100
AcDbEntity
  8
0
100
AcDbBlockBegin
  2
*Paper_Space0
 70
     0
 10
0.0
 20
0.0
 30
0.0
  3
*Paper_Space0
  1

  0
ENDBLK
  5
25
330
23
100
AcDbEntity
  8
0
100
AcDbBlockEnd
  0
ENDSEC
  0
SECTION
  2
ENTITIES
  0
LINE
  5
47
330
1F
100
AcDbEntity
  8
0
  6
Continuous
 62
     7
370
    15
100
AcDbLine
 10
-210.613489473
 20
230.4550755456
 30
0.0
 11
-210.613489473
 21
239.9550755456
 31
0.0
  0
LINE
  5
48
330
1F
100
AcDbEntity
  8
0
  6
Continuous
 62
     7
370
    15
100
AcDbLine
 10
-229.613489473
 20
239.9550755456
 30
0.0
 11
-229.613489473
 21
230.4550755456
 31
0.0
  0
ARC
  5
49
330
1F
100
AcDbEntity
  8
0
  6
Continuous
 62
     7
370
    15
100
AcDbCircle
 10
-227.613489473
 20
239.9550755456
 30
0.0
 40
2.0
100
AcDbArc
 50
90.0
 51
180.0
  0
ARC
  5
4A
330
1F
100
AcDbEntity
  8
0
  6
Continuous
 62
     7
370
    15
100
AcDbCircle
 10
-212.613489473
 20
239.9550755456
 30
0.0
 40
2.0
100
AcDbArc
 50
0.0
 51
90.0
  0
ARC
  5
4B
330
1F
100
AcDbEntity
  8
0
  6
Continuous
 62
     7
370
    15
100
AcDbCircle
 10
610.1008738226
 20
105.7762278752
 30
0.0
 40
2.000000000000142
100
AcDbArc
 50
205.0
 51
292.0
  0
ARC
  5
4C
330
1F
100
AcDbEntity
  8
0
  6
Continuous
 62
     7
370
    15
100
AcDbCircle
 10
630.3002763618
 20
62.4584693399
 30
0.0
 40
2.000000000000042
100
AcDbArc
 50
118.0
 51
205.0
  0
LINE
  5
4D
330
1F
100
AcDbEntity
  8
0
  6
Continuous
 62
     7
370
    15
100
AcDbLine
 10
629.3613332362
 20
64.2243645256
 30
0.0
 11
632.1063577887
 21
65.6839199703
 31
0.0
  0
LINE
  5
4E
330
1F
100
AcDbEntity
  8
0
  6
Continuous
 62
     7
370
    15
100
AcDbLine
 10
613.7326391179
 20
105.0864868152
 30
0.0
 11
610.8500870095
 21
103.9218601661
 31
0.0
  0
LINE
  5
4F
330
1F
100
AcDbEntity
  8
0
  6
Continuous
 62
     7
370
    15
100
AcDbLine
 10
641.3266075961
 20
22.249014618
 30
0.0
 11
641.7686872473
 21
22.4840725381
 31
0.0
  0
LINE
  5
50
330
1F
100
AcDbEntity
  8
0
  6
Continuous
 62
     7
370
    15
100
AcDbLine
 10
641.2679230406
 20
57.8678878008
 30
0.0
 11
648.640527864
 21
65.7193015663
 31
0.0
  0
LINE
  5
51
330
1F
100
AcDbEntity
  8
0
  6
Continuous
 62
     7
370
    15
100
AcDbLine
 10
624.5512869447
 20
117.3788454274
 30
0.0
 11
613.7977360274
 21
116.7778939581
 31
0.0
  0
LINE
  5
52
330
1F
100
AcDbEntity
  8
0
  6
Continuous
 62
     7
370
    15
100
AcDbLine
 10
626.3069469593
 20
117.4025103253
 30
0.0
 11
624.5512869447
 21
117.3788454274
 31
0.0
  0
LINE
  5
53
330
1F
100
AcDbEntity
  8
0
  6
Continuous
 62
     7
370
    15
100
AcDbLine
 10
648.640527864
 20
65.7193015663
 30
0.0
 11
662.5408639594
 21
81.8387702413
 31
0.0
  0
ARC
  5
54
330
1F
100
AcDbEntity
  8
0
  6
Continuous
 62
     7
370
    15
100
AcDbCircle
 10
661.7835525754
 20
82.491824196
 30
0.0
 40
1.000000000000015
100
AcDbArc
 50
319.227745318
 51
25.0
  0
LINE
  5
55
330
1F
100
AcDbEntity
  8
0
  6
Continuous
 62
     7
370
    15
100
AcDbLine
 10
628.7455655888
 20
79.9897668507
 30
0.0
 11
630.5729348213
 21
80.8033640517
 31
0.0
  0
LINE
  5
56
330
1F
100
AcDbEntity
  8
0
  6
Continuous
 62
     7
370
    15
100
AcDbLine
 10
625.842356487
 20
90.9481220276
 30
0.0
 11
621.3108175518
 21
88.8350307189
 31
0.0
  0
LINE
  5
57
330
1F
100
AcDbEntity
  8
0
  6
Continuous
 62
     7
370
    15
100
AcDbLine
 10
624.6917636458
 20
81.5845684226
 30
0.0
 11
627.2433475448
 21
82.7743915351
 31
0.0
  0
ARC
  5
58
330
1F
100
AcDbEntity
  8
0
  6
Continuous
 62
     7
370
    15
100
AcDbCircle
 10
-91.0692379347
 20
-133.9449244545
 30
0.0
 40
2.0
100
AcDbArc
 50
270.0
 51
0.0
  0
ARC
  5
59
330
1F
100
AcDbEntity
  8
0
  6
Continuous
 62
     7
370
    15
100
AcDbCircle
 10
-144.0692379347
 20
-133.9449244545
 30
0.0
 40
2.0
100
AcDbArc
 50
180.0
 51
270.0
  0
LINE
  5
5A
330
1F
100
AcDbEntity
  8
0
  6
Continuous
 62
     7
370
    15
100
AcDbLine
 10
-89.0692379347
 20
-133.9449244545
 30
0.0
 11
-89.0692379347
 21
-129.9449244545
 31
0.0
  0
LINE
  5
5B
330
1F
100
AcDbEntity
  8
0
  6
Continuous
 62
     7
370
    15
100
AcDbLine
 10
-146.0692379347
 20
-129.9449244545
 30
0.0
 11
-146.0692379347
 21
-133.9449244545
 31
0.0
  0
ARC
  5
5C
330
1F
100
AcDbEntity
  8
0
  6
Continuous
 62
     7
370
    15
100
AcDbCircle
 10
487.9307620653
 20
-133.9449244545
 30
0.0
 40
2.0
100
AcDbArc
 50
270.0
 51
0.0
  0
ARC
  5
5D
330
1F
100
AcDbEntity
  8
0
  6
Continuous
 62
     7
370
    15
100
AcDbCircle
 10
434.9307620653
 20
-133.9449244545
 30
0.0
 40
2.0
100
AcDbArc
 50
180.0
 51
270.0
  0
LINE
  5
5E
330
1F
100
AcDbEntity
  8
0
  6
Continuous
 62
     7
370
    15
100
AcDbLine
 10
489.9307620653
 20
-133.9449244545
 30
0.0
 11
489.9307620653
 21
-129.9449244545
 31
0.0
  0
LINE
  5
5F
330
1F
100
AcDbEntity
  8
0
  6
Continuous
 62
     7
370
    15
100
AcDbLine
 10
432.9307620653
 20
-129.9449244545
 30
0.0
 11
432.9307620653
 21
-133.9449244545
 31
0.0
  0
LINE
  5
60
330
1F
100
AcDbEntity
  8
0
  6
Continuous
 62
     7
370
    15
100
AcDbLine
 10
489.7307620653
 20
-129.9449244545
 30
0.0
 11
489.7307620653
 21
-100.9449244545
 31
0.0
  0
LINE
  5
61
330
1F
100
AcDbEntity
  8
0
  6
Continuous
 62
     7
370
    15
100
AcDbLine
 10
433.1307620653
 20
-100.9449244545
 30
0.0
 11
433.1307620653
 21
-129.9449244545
 31
0.0
  0
LINE
  5
62
330
1F
100
AcDbEntity
  8
0
  6
Continuous
 62
     7
370
    15
100
AcDbLine
 10
-89.2692379347
 20
-129.9449244545
 30
0.0
 11
-89.2692379347
 21
-100.9449244545
 31
0.0
  0
LINE
  5
63
330
1F
100
AcDbEntity
  8
0
  6
Continuous
 62
     7
370
    15
100
AcDbLine
 10
-145.8692379347
 20
-100.9449244545
 30
0.0
 11
-145.8692379347
 21
-129.9449244545
 31
0.0
  0
ARC
  5
64
330
1F
100
AcDbEntity
  8
0
  6
Continuous
 62
     7
370
    15
100
AcDbCircle
 10
-84.1692379347
 20
-39.4449244545
 30
0.0
 40
1.500000000000007
100
AcDbArc
 50
90.0
 51
180.0
  0
ARC
  5
65
330
1F
100
AcDbEntity
  8
0
  6
Continuous
 62
     7
370
    15
100
AcDbCircle
 10
-150.9692379347
 20
-39.4449244545
 30
0.0
 40
1.500000000000007
100
AcDbArc
 50
0.0
 51
90.0
  0
ARC
  5
66
330
1F
100
AcDbEntity
  8
0
  6
Continuous
 62
     7
370
    15
100
AcDbCircle
 10
-90.3692379347
 20
-94.9123585088
 30
0.0
 40
4.70000000000005
100
AcDbArc
 50
350.5402980318
 51
0.0
  0
ARC
  5
67
330
1F
100
AcDbEntity
  8
0
  6
Continuous
 62
     7
370
    15
100
AcDbCircle
 10
-144.7692379347
 20
-94.9123585088
 30
0.0
 40
4.700000000000064
100
AcDbArc
 50
180.0
 51
189.4597019682
  0
LINE
  5
68
330
1F
100
AcDbEntity
  8
0
  6
Continuous
 62
     7
370
    15
100
AcDbLine
 10
-85.6692379347
 20
-94.9123585088
 30
0.0
 11
-85.6692379347
 21
-39.4449244545
 31
0.0
  0
LINE
  5
69
330
1F
100
AcDbEntity
  8
0
  6
Continuous
 62
     7
370
    15
100
AcDbLine
 10
-149.4692379347
 20
-39.4449244545
 30
0.0
 11
-149.4692379347
 21
-94.9123585088
 31
0.0
  0
LINE
  5
6A
330
1F
100
AcDbEntity
  8
0
  6
Continuous
 62
     7
370
    15
100
AcDbLine
 10
-149.4053247077
 20
-95.6848217333
 30
0.0
 11
-148.5288881551
 21
-100.9449244545
 31
0.0
  0
LINE
  5
6B
330
1F
100
AcDbEntity
  8
0
  6
Continuous
 62
     7
370
    15
100
AcDbLine
 10
-86.6095877144
 20
-100.9449244545
 30
0.0
 11
-85.7331511617
 21
-95.6848217333
 31
0.0
  0
ARC
  5
6C
330
1F
100
AcDbEntity
  8
0
  6
Continuous
 62
     7
370
    15
100
AcDbCircle
 10
494.8307620653
 20
-39.4449244545
 30
0.0
 40
1.5
100
AcDbArc
 50
90.0
 51
180.0
  0
ARC
  5
6D
330
1F
100
AcDbEntity
  8
0
  6
Continuous
 62
     7
370
    15
100
AcDbCircle
 10
428.0307620653
 20
-39.4449244545
 30
0.0
 40
1.5
100
AcDbArc
 50
0.0
 51
90.0
  0
ARC
  5
6E
330
1F
100
AcDbEntity
  8
0
  6
Continuous
 62
     7
370
    15
100
AcDbCircle
 10
488.6307620653
 20
-94.9123585088
 30
0.0
 40
4.700000000000007
100
AcDbArc
 50
350.5402980318
 51
0.0
  0
ARC
  5
6F
330
1F
100
AcDbEntity
  8
0
  6
Continuous
 62
     7
370
    15
100
AcDbCircle
 10
434.2307620653
 20
-94.9123585088
 30
0.0
 40
4.700000000000007
100
AcDbArc
 50
180.0
 51
189.4597019682
  0
LINE
  5
70
330
1F
100
AcDbEntity
  8
0
  6
Continuous
 62
     7
370
    15
100
AcDbLine
 10
493.3307620653
 20
-94.9123585088
 30
0.0
 11
493.3307620653
 21
-39.4449244545
 31
0.0
  0
LINE
  5
71
330
1F
100
AcDbEntity
  8
0
  6
Continuous
 62
     7
370
    15
100
AcDbLine
 10
429.5307620653
 20
-39.4449244545
 30
0.0
 11
429.5307620653
 21
-94.9123585088
 31
0.0
  0
LINE
  5
72
330
1F
100
AcDbEntity
  8
0
  6
Continuous
 62
     7
370
    15
100
AcDbLine
 10
429.5946752923
 20
-95.6848217333
 30
0.0
 11
430.4711118449
 21
-100.9449244545
 31
0.0
  0
LINE
  5
73
330
1F
100
AcDbEntity
  8
0
  6
Continuous
 62
     7
370
    15
100
AcDbLine
 10
492.3904122856
 20
-100.9449244545
 30
0.0
 11
493.2668488383
 21
-95.6848217333
 31
0.0
  0
LINE
  5
74
330
1F
100
AcDbEntity
  8
0
  6
Continuous
 62
     7
370
    15
100
AcDbLine
 10
590.0148985288
 20
138.3645488071
 30
0.0
 11
589.0466502905
 21
137.9130472386
 31
0.0
  0
LINE
  5
75
330
1F
100
AcDbEntity
  8
0
  6
Continuous
 62
     7
370
    15
100
AcDbLine
 10
591.3841387027
 20
137.1594500116
 30
0.0
 11
590.0148985288
 21
138.3645488071
 31
0.0
  0
ARC
  5
76
330
1F
100
AcDbEntity
  8
0
  6
Continuous
 62
     7
370
    15
100
AcDbCircle
 10
610.973442037
 20
128.2768756074
 30
0.0
 40
0.5000000000000067
100
AcDbArc
 50
295.0
 51
25.0
  0
ARC
  5
77
330
1F
100
AcDbEntity
  8
0
  6
Continuous
 62
     7
370
    15
100
AcDbCircle
 10
606.8317830719
 20
137.1586919204
 30
0.0
 40
0.4999999999999037
100
AcDbArc
 50
25.0
 51
115.0
  0
LINE
  5
78
330
1F
100
AcDbEntity
  8
0
  6
Continuous
 62
     7
370
    15
100
AcDbLine
 10
600.02538242
 20
122.6200226066
 30
0.0
 11
611.1847511679
 21
127.8237217139
 31
0.0
  0
LINE
  5
79
330
1F
100
AcDbEntity
  8
0
  6
Continuous
 62
     7
370
    15
100
AcDbLine
 10
606.6204739411
 20
137.6118458139
 30
0.0
 11
593.9321649225
 21
131.6951901495
 31
0.0
  0
LINE
  5
7A
330
1F
100
AcDbEntity
  8
0
  6
Continuous
 62
     7
370
    15
100
AcDbLine
 10
-186.8650965288
 20
210.6550755451
 30
0.0
 11
-242.5150965299
 21
210.6550755451
 31
0.0
  0
LINE
  5
7B
330
1F
100
AcDbEntity
  8
0
  6
Continuous
 62
     7
370
    15
100
AcDbLine
 10
-242.5150965299
 20
210.6550755451
 30
0.0
 11
-242.5150965299
 21
212.6550755456
 31
0.0
  0
LINE
  5
7C
330
1F
100
AcDbEntity
  8
0
  6
Continuous
 62
     7
370
    15
100
AcDbLine
 10
-242.5150965299
 20
212.6550755456
 30
0.0
 11
-253.3650965288
 21
212.6550755456
 31
0.0
  0
ARC
  5
7D
330
1F
100
AcDbEntity
  8
0
  6
Continuous
 62
     7
370
    15
100
AcDbCircle
 10
-253.3650965288
 20
214.8050755456
 30
0.0
 40
2.149999999999977
100
AcDbArc
 50
180.0
 51
270.0
  0
LINE
  5
7E
330
1F
100
AcDbEntity
  8
0
  6
Continuous
 62
     7
370
    15
100
AcDbLine
 10
-255.5150965288
 20
214.8050755456
 30
0.0
 11
-255.5150965288
 21
226.3050755456
 31
0.0
  0
ARC
  5
7F
330
1F
100
AcDbEntity
  8
0
  6
Continuous
 62
     7
370
    15
100
AcDbCircle
 10
-253.3650965288
 20
226.3050755456
 30
0.0
 40
2.150000000000006
100
AcDbArc
 50
90.0
 51
180.0
  0
ARC
  5
80
330
1F
100
AcDbEntity
  8
0
  6
Continuous
 62
     7
370
    15
100
AcDbCircle
 10
-186.8650965288
 20
226.3050755456
 30
0.0
 40
2.150000000000006
100
AcDbArc
 50
359.9999999959
 51
90.0
  0
LINE
  5
81
330
1F
100
AcDbEntity
  8
0
  6
Continuous
 62
     7
370
    15
100
AcDbLine
 10
-184.7150965288
 20
226.3050755454
 30
0.0
 11
-184.7150965288
 21
214.8050755454
 31
0.0
  0
ARC
  5
82
330
1F
100
AcDbEntity
  8
0
  6
Continuous
 62
     7
370
    15
100
AcDbCircle
 10
-180.3650965288
 20
214.8050755451
 30
0.0
 40
4.349999999999966
100
AcDbArc
 50
179.999999996
 51
252.5584061437
  0
LINE
  5
83
330
1F
100
AcDbEntity
  8
0
  6
Continuous
 62
     7
370
    15
100
AcDbLine
 10
-181.6689370099
 20
210.6550755451
 30
0.0
 11
-186.8650965288
 21
210.6550755451
 31
0.0
  0
LINE
  5
84
330
1F
100
AcDbEntity
  8
0
  6
Continuous
 62
     7
370
    15
100
AcDbLine
 10
-242.5150965299
 20
212.9550755451
 30
0.0
 11
-242.5150965299
 21
212.6550755456
 31
0.0
  0
LINE
  5
85
330
1F
100
AcDbEntity
  8
0
  6
Continuous
 62
     7
370
    15
100
AcDbLine
 10
-186.8650965288
 20
226.1550755456
 30
0.0
 11
-186.8650965288
 21
228.4550755456
 31
0.0
  0
LINE
  5
86
330
1F
100
AcDbEntity
  8
0
  6
Continuous
 62
     7
370
    15
100
AcDbLine
 10
-253.363489473
 20
228.4550755456
 30
0.0
 11
-253.363489473
 21
226.1550755456
 31
0.0
  0
LINE
  5
87
330
1F
100
AcDbEntity
  8
0
  6
Continuous
 62
     7
370
    15
100
AcDbLine
 10
-253.3650965288
 20
228.4550755456
 30
0.0
 11
-253.363489473
 21
228.4550755456
 31
0.0
  0
LINE
  5
88
330
1F
100
AcDbEntity
  8
0
  6
Continuous
 62
     7
370
    15
100
AcDbLine
 10
-186.8650965288
 20
210.6550755451
 30
0.0
 11
-186.8650965288
 21
212.9550755451
 31
0.0
  0
LINE
  5
89
330
1F
100
AcDbEntity
  8
0
  6
Continuous
 62
     7
370
    15
100
AcDbLine
 10
-227.6134885696
 20
241.9550755456
 30
0.0
 11
-212.613489473
 21
241.9550755456
 31
0.0
  0
LINE
  5
8A
330
1F
100
AcDbEntity
  8
0
  6
Continuous
 62
     7
370
    15
100
AcDbLine
 10
607.4654761529
 20
106.69545325
 30
0.0
 11
629.3104428834
 21
59.8487709181
 31
0.0
  0
LINE
  5
8B
330
1F
100
AcDbEntity
  8
0
  6
Continuous
 62
     7
370
    15
100
AcDbLine
 10
613.7326391179
 20
105.0864868152
 30
0.0
 11
632.1063577887
 21
65.6839199703
 31
0.0
  0
SPLINE
  5
8C
330
1F
100
AcDbEntity
  8
0
  6
Continuous
 62
     7
370
    15
100
AcDbSpline
210
0.0
220
0.0
230
1.0
 70
    24
 71
     3
 72
    15
 73
    11
 74
     0
 42
0.00000001
 43
0.00000001
 12
1.0
 22
0.0
 32
0.0
 13
1.0
 23
0.0
 33
0.0
 40
0.0
 40
0.0
 40
0.0
 40
0.0
 40
0.0745161114513741
 40
0.1496239856739253
 40
0.2892666568875203
 40
0.4329558037951939
 40
0.5726906068482291
 40
0.7164837842598694
 40
0.8562164859834704
 40
0.9999999999999999
 40
0.9999999999999999
 40
0.9999999999999999
 40
0.9999999999999999
 10
630.8776127046158
 20
56.4879643909094
 30
0.0
 10
630.8277512937894
 20
56.59489253149314
 30
0.0
 10
630.727632502378
 20
56.80959797254774
 30
0.0
 10
630.5356397436549
 20
57.22132777231744
 30
0.0
 10
630.3028264362472
 20
57.72059752124001
 30
0.0
 10
630.044347187637
 20
58.27490805869267
 30
0.0
 10
629.8069451500909
 20
58.78401837115344
 30
0.0
 10
629.6027892090674
 20
59.22183219954118
 30
0.0
 10
629.4299438761994
 20
59.59250021205434
 30
0.0
 10
629.3506541718089
 20
59.76253753184525
 30
0.0
 10
629.3104428833898
 20
59.8487709181426
 30
0.0
  0
SPLINE
  5
8D
330
1F
100
AcDbEntity
  8
0
  6
Continuous
 62
     7
370
    15
100
AcDbSpline
210
0.0
220
0.0
230
1.0
 70
    24
 71
     3
 72
    15
 73
    11
 74
     0
 42
0.00000001
 43
0.00000001
 12
1.0
 22
0.0
 32
0.0
 13
1.0
 23
0.0
 33
0.0
 40
0.0
 40
0.0
 40
0.0
 40
0.0
 40
0.0745160978335503
 40
0.1496239580074822
 40
0.2892666352138651
 40
0.4329557893442411
 40
0.5726905957269096
 40
0.7164837765102837
 40
0.8562164820678111
 40
1.0
 40
1.0
 40
1.0
 40
1.0
 10
607.4654761528985
 20
106.6954532499806
 30
0.0
 10
607.4457519151423
 20
106.7377520143508
 30
0.0
 10
607.4061468015146
 20
106.8226854546127
 30
0.0
 10
607.3100776619495
 20
107.0287063892575
 30
0.0
 10
607.1662571287235
 20
107.337130518072
 30
0.0
 10
606.9600928613748
 20
107.7792512161632
 30
0.0
 10
606.7218542262647
 20
108.2901556178895
 30
0.0
 10
606.4623861551895
 20
108.8465866919615
 30
0.0
 10
606.1844783235583
 20
109.4425619601584
 30
0.0
 10
605.9946013015456
 20
109.8497545479106
 30
0.0
 10
605.8983063316724
 20
110.0562597772138
 30
0.0
  0
SPLINE
  5
8E
330
1F
100
AcDbEntity
  8
0
  6
Continuous
 62
     7
370
    15
100
AcDbSpline
210
0.0
220
0.0
230
1.0
 70
     8
 71
     3
 72
    12
 73
     8
 74
     0
 42
0.00000001
 43
0.00000001
 12
1.0
 22
0.0
 32
0.0
 13
1.0
 23
0.0
 33
0.0
 40
0.0
 40
0.0
 40
0.0
 40
0.0
 40
0.1175335017807697
 40
0.3293297023546523
 40
0.5373943320223942
 40
0.8742805681198548
 40
1.0
 40
1.0
 40
1.0
 40
1.0
 10
594.2006939336202
 20
126.860164977232
 30
0.0
 10
594.5271447170666
 20
126.8827751131468
 30
0.0
 10
595.4418621186323
 20
126.9461288737188
 30
0.0
 10
596.9026515623501
 20
126.4519615448325
 30
0.0
 10
598.5926121015322
 20
125.1645844438984
 30
0.0
 10
599.5860223776084
 20
123.5462572822202
 30
0.0
 10
600.1411090624662
 20
122.3926214623193
 30
0.0
 10
600.2919614784552
 20
122.0791051137009
 30
0.0
  0
SPLINE
  5
8F
330
1F
100
AcDbEntity
  8
0
  6
Continuous
 62
     7
370
    15
100
AcDbSpline
210
0.0
220
0.0
230
1.0
 70
     8
 71
     3
 72
     9
 73
     5
 74
     0
 42
0.00000001
 43
0.00000001
 12
1.0
 22
0.0
 32
0.0
 13
1.0
 23
0.0
 33
0.0
 40
0.0
 40
0.0
 40
0.0
 40
0.0
 40
0.0000220488581552
 40
1.0
 40
1.0
 40
1.0
 40
1.0
 10
642.8232314839437
 20
30.87050224887258
 30
0.0
 10
642.8232399363048
 20
30.87048412271427
 30
0.0
 10
643.2065868233652
 20
30.04839355479812
 30
0.0
 10
643.4975248834875
 20
29.18729931173726
 30
0.0
 10
643.7884565287577
 20
28.32622405482121
 30
0.0
  0
LINE
  5
90
330
1F
100
AcDbEntity
  8
0
  6
Continuous
 62
     7
370
    15
100
AcDbLine
 10
630.8776127046
 20
56.4879643909
 30
0.0
 11
642.8232314839
 21
30.8705022489
 31
0.0
  0
LINE
  5
91
330
1F
100
AcDbEntity
  8
0
  6
Continuous
 62
     7
370
    15
100
AcDbLine
 10
600.2919614785
 20
122.0791051137
 30
0.0
 11
605.8983063317
 21
110.0562597772
 31
0.0
  0
SPLINE
  5
92
330
1F
100
AcDbEntity
  8
0
  6
Continuous
 62
     7
370
    15
100
AcDbSpline
210
0.0
220
0.0
230
1.0
 70
     8
 71
     3
 72
    20
 73
    16
 74
     0
 42
0.00000001
 43
0.00000001
 12
1.0
 22
0.0
 32
0.0
 13
1.0
 23
0.0
 33
0.0
 40
0.0
 40
0.0
 40
0.0
 40
0.0
 40
0.2070577373168127
 40
0.4203770502760573
 40
0.7011163025568186
 40
0.8834527988428825
 40
0.9282286404933987
 40
0.9524788585968347
 40
0.9675018207221279
 40
0.9773827146381967
 40
0.9840938553685631
 40
0.9887393639097063
 40
0.991993394958915
 40
0.9977340800222605
 40
1.0
 40
1.0
 40
1.0
 40
1.0
 10
643.7884565287577
 20
28.32622405482121
 30
0.0
 10
643.8933218623711
 20
27.83710958256109
 30
0.0
 10
644.1062237330854
 20
26.84408946285681
 30
0.0
 10
643.9077924244605
 20
25.13533197601639
 30
0.0
 10
643.2737055304617
 20
23.83851815439103
 30
0.0
 10
642.6029520148562
 20
23.07083102750268
 30
0.0
 10
642.1926002643545
 20
22.74930491079416
 30
0.0
 10
642.0471172649236
 20
22.64920943162194
 30
0.0
 10
641.9592211245059
 20
22.59333784867205
 30
0.0
 10
641.901546342351
 20
22.55856611550355
 30
0.0
 10
641.8622950437298
 20
22.53575038145056
 30
0.0
 10
641.8350550148049
 20
22.52031588545495
 30
0.0
 10
641.8094696655347
 20
22.50608259079553
 30
0.0
 10
641.7882122635513
 20
22.49448882364791
 30
0.0
 10
641.7729940875931
 20
22.48637016884875
 30
0.0
 10
641.7686872473342
 20
22.48407253807923
 30
0.0
  0
SPLINE
  5
93
330
1F
100
AcDbEntity
  8
0
  6
Continuous
 62
     7
370
    15
100
AcDbSpline
210
0.0
220
0.0
230
1.0
 70
     8
 71
     3
 72
    10
 73
     6
 74
     0
 42
0.00000001
 43
0.00000001
 12
1.0
 22
0.0
 32
0.0
 13
1.0
 23
0.0
 33
0.0
 40
0.0
 40
0.0
 40
0.0
 40
0.0
 40
0.4527378322496701
 40
0.9055954617506058
 40
1.0
 40
1.0
 40
1.0
 40
1.0
 10
643.9105382709379
 20
25.52930215495867
 30
0.0
 10
643.9181613177864
 20
25.5818015790017
 30
0.0
 10
643.933409428589
 20
25.68681431876244
 30
0.0
 10
644.0567704459315
 20
26.16948317775777
 30
0.0
 10
644.0147499137228
 20
26.64592895821767
 30
0.0
 10
644.0075012326081
 20
26.72811743488522
 30
0.0
  0
SPLINE
  5
94
330
1F
100
AcDbEntity
  8
0
  6
Continuous
 62
     7
370
    15
100
AcDbSpline
210
0.0
220
0.0
230
1.0
 70
     8
 71
     3
 72
    12
 73
     8
 74
     0
 42
0.00000001
 43
0.00000001
 12
1.0
 22
0.0
 32
0.0
 13
1.0
 23
0.0
 33
0.0
 40
0.0
 40
0.0
 40
0.0
 40
0.0
 40
0.4616906276044019
 40
0.7307729957151066
 40
0.9175829348224016
 40
0.9719359401455933
 40
1.0
 40
1.0
 40
1.0
 40
1.0
 10
643.7674057843653
 20
28.40160985362066
 30
0.0
 10
643.7373919914733
 20
28.51016969364398
 30
0.0
 10
643.6898855704347
 20
28.68200034119219
 30
0.0
 10
643.6182621911641
 20
28.90609933113621
 30
0.0
 10
643.5767709633819
 20
29.0304680780247
 30
0.0
 10
643.5542837435988
 20
29.09613968101903
 30
0.0
 10
643.5473395464486
 20
29.11622758942764
 30
0.0
 10
643.54497495892
 20
29.12306777795794
 30
0.0
  0
LINE
  5
95
330
1F
100
AcDbEntity
  8
0
  6
Continuous
 62
     7
370
    15
100
AcDbLine
 10
598.9221216383
 20
124.3402494617
 30
0.0
 11
598.4765089149
 21
125.0751384795
 31
0.0
  0
LINE
  5
96
330
1F
100
AcDbEntity
  8
0
  6
Continuous
 62
     7
370
    15
100
AcDbLine
 10
642.869413231
 20
30.7709567883
 30
0.0
 11
642.8273792736
 21
30.8616032769
 31
0.0
  0
SPLINE
  5
97
330
1F
100
AcDbEntity
  8
0
  6
Continuous
 62
     7
370
    15
100
AcDbSpline
210
0.0
220
0.0
230
1.0
 70
     8
 71
     3
 72
     9
 73
     5
 74
     0
 42
0.00000001
 43
0.00000001
 12
1.0
 22
0.0
 32
0.0
 13
1.0
 23
0.0
 33
0.0
 40
0.0
 40
0.0
 40
0.0
 40
0.0
 40
0.5000138394956845
 40
1.0
 40
1.0
 40
1.0
 40
1.0
 10
643.337220071117
 20
29.68332150721038
 30
0.0
 10
643.2692506586792
 20
29.85203850251012
 30
0.0
 10
643.1333155963488
 20
30.18946315353553
 30
0.0
 10
642.9573790628859
 20
30.57712915341615
 30
0.0
 10
642.8694132310276
 20
30.77095678825452
 30
0.0
  0
SPLINE
  5
98
330
1F
100
AcDbEntity
  8
0
  6
Continuous
 62
     7
370
    15
100
AcDbSpline
210
0.0
220
0.0
230
1.0
 70
     8
 71
     3
 72
    13
 73
     9
 74
     0
 42
0.00000001
 43
0.00000001
 12
1.0
 22
0.0
 32
0.0
 13
1.0
 23
0.0
 33
0.0
 40
0.0
 40
0.0
 40
0.0
 40
0.0
 40
0.1254648118065592
 40
0.2502435788816494
 40
0.3760698054095907
 40
0.5019139201694311
 40
0.7508310514861694
 40
1.0
 40
1.0
 40
1.0
 40
1.0
 10
598.4765089144892
 20
125.0751384799827
 30
0.0
 10
598.3888319421991
 20
125.1724107583478
 30
0.0
 10
598.213957417498
 20
125.3664234278251
 30
0.0
 10
597.9402753853171
 20
125.6258235650743
 30
0.0
 10
597.6732747582917
 20
125.8492957334683
 30
0.0
 10
597.3484157425819
 20
126.0877694875008
 30
0.0
 10
597.01572940284
 20
126.2853303229348
 30
0.0
 10
596.9628147129054
 20
126.3122945231488
 30
0.0
 10
596.936343991908
 20
126.3257834393962
 30
0.0
  0
SPLINE
  5
99
330
1F
100
AcDbEntity
  8
0
  6
Continuous
 62
     7
370
    15
100
AcDbSpline
210
0.0
220
0.0
230
1.0
 70
     8
 71
     3
 72
     9
 73
     5
 74
     0
 42
0.00000001
 43
0.00000001
 12
1.0
 22
0.0
 32
0.0
 13
1.0
 23
0.0
 33
0.0
 40
0.0
 40
0.0
 40
0.0
 40
0.0
 40
0.7838918077607407
 40
1.0
 40
1.0
 40
1.0
 40
1.0
 10
644.0266737687735
 20
26.52043853871801
 30
0.0
 10
644.0328881547438
 20
26.53801637319006
 30
0.0
 10
644.040815761473
 20
26.56044017491629
 30
0.0
 10
644.0176282465027
 20
26.85095370071767
 30
0.0
 10
644.0126172345598
 20
26.91373605359966
 30
0.0
  0
SPLINE
  5
9A
330
1F
100
AcDbEntity
  8
0
  6
Continuous
 62
     7
370
    15
100
AcDbSpline
210
0.0
220
0.0
230
1.0
 70
     8
 71
     3
 72
     9
 73
     5
 74
     0
 42
0.00000001
 43
0.00000001
 12
1.0
 22
0.0
 32
0.0
 13
1.0
 23
0.0
 33
0.0
 40
0.0
 40
0.0
 40
0.0
 40
0.0
 40
0.0370163330247421
 40
1.0
 40
1.0
 40
1.0
 40
1.0
 10
643.7804131720437
 20
28.34742588459585
 30
0.0
 10
643.7778498948223
 20
28.36030128727951
 30
0.0
 10
643.7086027000878
 20
28.70813159978083
 30
0.0
 10
643.5194097713747
 20
29.20492121848012
 30
0.0
 10
643.337220071117
 20
29.6833215072104
 30
0.0
  0
LINE
  5
9B
330
1F
100
AcDbEntity
  8
0
  6
Continuous
 62
     7
370
    15
100
AcDbLine
 10
643.5449749591
 20
29.1230677774
 30
0.0
 11
643.3327831628
 21
29.6815743179
 31
0.0
  0
ARC
  5
9C
330
1F
100
AcDbEntity
  8
0
  6
Continuous
 62
     7
370
    15
100
AcDbCircle
 10
-177.113489473
 20
217.9550755456
 30
0.0
 40
3.500000000000004
100
AcDbArc
 50
214.849904579
 51
236.6604895165
  0
SPLINE
  5
9D
330
1F
100
AcDbEntity
  8
0
  6
Continuous
 62
     7
370
    15
100
AcDbSpline
210
0.0
220
0.0
230
1.0
 70
     8
 71
     3
 72
    13
 73
     9
 74
     0
 42
0.00000001
 43
0.00000001
 12
1.0
 22
0.0
 32
0.0
 13
1.0
 23
0.0
 33
0.0
 40
0.0
 40
0.0
 40
0.0
 40
0.0
 40
0.1264704778940008
 40
0.2503760815672603
 40
0.3742089692298323
 40
0.5004663812856469
 40
0.7030662058441544
 40
1.0
 40
1.0
 40
1.0
 40
1.0
 10
515.8865105269746
 20
214.5257862236731
 30
0.0
 10
515.8782686138783
 20
214.5391278861017
 30
0.0
 10
515.8619519371327
 20
214.5655406364611
 30
0.0
 10
515.7391932211908
 20
214.6660227397367
 30
0.0
 10
515.5648400573699
 20
214.8105928955752
 30
0.0
 10
515.3096191811896
 20
215.0411345619921
 30
0.0
 10
514.9238078901803
 20
215.4300498662319
 30
0.0
 10
514.5868222309673
 20
215.7593388908322
 30
0.0
 10
514.3865105269747
 20
215.9550755455545
 30
0.0
  0
LWPOLYLINE
  5
9E
330
1F
100
AcDbEntity
  8
0
  6
Continuous
 62
     7
370
    15
100
AcDbPolyline
 90
        2
 70
   128
 43
0.0
 10
514.386510527
 20
215.9550755456
 10
514.386510527
 20
215.9550755456
  0
SPLINE
  5
9F
330
1F
100
AcDbEntity
  8
0
  6
Continuous
 62
     7
370
    15
100
AcDbSpline
210
0.0
220
0.0
230
1.0
 70
     8
 71
     3
 72
    13
 73
     9
 74
     0
 42
0.00000001
 43
0.00000001
 12
1.0
 22
0.0
 32
0.0
 13
1.0
 23
0.0
 33
0.0
 40
0.0
 40
0.0
 40
0.0
 40
0.0
 40
0.1446410885655523
 40
0.2829375220885616
 40
0.4154710128603455
 40
0.5429032421391773
 40
0.7331646029143678
 40
1.0
 40
1.0
 40
1.0
 40
1.0
 10
517.8865105269746
 20
214.5257862236731
 30
0.0
 10
517.8676701214494
 20
214.5389926705137
 30
0.0
 10
517.8308157413604
 20
214.5648262658063
 30
0.0
 10
517.5499369938694
 20
214.6635583403203
 30
0.0
 10
517.1492820170274
 20
214.8057381874189
 30
0.0
 10
516.5662135710197
 20
215.0305765479269
 30
0.0
 10
515.6641528107235
 20
215.4196212882653
 30
0.0
 10
514.8574388919991
 20
215.75771154067
 30
0.0
 10
514.3865105269747
 20
215.9550755455545
 30
0.0
  0
LINE
  5
A0
330
1F
100
AcDbEntity
  8
0
  6
Continuous
 62
     7
370
    15
100
AcDbLine
 10
517.886510527
 20
214.5257862237
 30
0.0
 11
515.886510527
 21
214.5257862237
 31
0.0
  0
LINE
  5
A1
330
1F
100
AcDbEntity
  8
0
  6
Continuous
 62
     7
370
    15
100
AcDbLine
 10
514.386510527
 20
245.9550755456
 30
0.0
 11
-179.113489473
 21
415.9550755456
 31
0.0
  0
LINE
  5
A2
330
1F
100
AcDbEntity
  8
0
  6
Continuous
 62
     7
370
    15
100
AcDbLine
 10
514.386510527
 20
245.9550755456
 30
0.0
 11
517.886510527
 21
245.9550755456
 31
0.0
  0
LINE
  5
A3
330
1F
100
AcDbEntity
  8
0
  6
Continuous
 62
     7
370
    15
100
AcDbLine
 10
517.886510527
 20
214.5257862237
 30
0.0
 11
517.886510527
 21
245.9550755456
 31
0.0
  0
SPLINE
  5
A4
330
1F
100
AcDbEntity
  8
0
  6
Continuous
 62
     7
370
    15
100
AcDbSpline
210
0.0
220
0.0
230
1.0
 70
     8
 71
     3
 72
    12
 73
     8
 74
     0
 42
0.00000001
 43
0.00000001
 12
1.0
 22
0.0
 32
0.0
 13
1.0
 23
0.0
 33
0.0
 40
0.0
 40
0.0
 40
0.0
 40
0.0
 40
0.2416887957353073
 40
0.4825023922282369
 40
0.7084274265575291
 40
0.9128277113204132
 40
1.0
 40
1.0
 40
1.0
 40
1.0
 10
514.3865105269747
 20
215.9550755455547
 30
0.0
 10
514.5646677430107
 20
215.5301609329742
 30
0.0
 10
514.9203370352859
 20
214.6818704011808
 30
0.0
 10
515.3975932956729
 20
213.5775897088251
 30
0.0
 10
515.6754496110736
 20
212.8002369250087
 30
0.0
 10
515.785442354325
 20
212.4861406292753
 30
0.0
 10
515.8088127381607
 20
212.4622255156711
 30
0.0
 10
515.8157998488557
 20
212.4550755455546
 30
0.0
  0
SPLINE
  5
A5
330
1F
100
AcDbEntity
  8
0
  6
Continuous
 62
     7
370
    15
100
AcDbSpline
210
0.0
220
0.0
230
1.0
 70
     8
 71
     3
 72
    11
 73
     7
 74
     0
 42
0.00000001
 43
0.00000001
 12
1.0
 22
0.0
 32
0.0
 13
1.0
 23
0.0
 33
0.0
 40
0.0
 40
0.0
 40
0.0
 40
0.0
 40
0.2499999999999986
 40
0.4999999999999967
 40
0.7499999999999908
 40
1.0
 40
1.0
 40
1.0
 40
1.0
 10
-178.406382691839
 20
212.4550755455545
 30
0.0
 10
-178.4653082569379
 20
212.5076860503102
 30
0.0
 10
-178.5831593871356
 20
212.6129070598215
 30
0.0
 10
-178.7599360824319
 20
213.4222793057497
 30
0.0
 10
-178.9367127777292
 20
214.5791865855891
 30
0.0
 10
-179.0545639079267
 20
215.4964458922326
 30
0.0
 10
-179.1134894730256
 20
215.9550755455545
 30
0.0
  0
SPLINE
  5
A6
330
1F
100
AcDbEntity
  8
0
  6
Continuous
 62
     7
370
    15
100
AcDbSpline
210
0.0
220
0.0
230
1.0
 70
     8
 71
     3
 72
    12
 73
     8
 74
     0
 42
0.00000001
 43
0.00000001
 12
1.0
 22
0.0
 32
0.0
 13
1.0
 23
0.0
 33
0.0
 40
0.0
 40
0.0
 40
0.0
 40
0.0
 40
0.3400873345560401
 40
0.5596636451635676
 40
0.7367088164845832
 40
0.9144461290549817
 40
1.0
 40
1.0
 40
1.0
 40
1.0
 10
514.3865105269747
 20
215.9550755455545
 30
0.0
 10
514.6109364358239
 20
215.7260876677229
 30
0.0
 10
514.9802622220359
 20
215.3492544917013
 30
0.0
 10
515.4252619762243
 20
214.9031333795788
 30
0.0
 10
515.6711036642274
 20
214.6083164809762
 30
0.0
 10
515.7827906237953
 20
214.4708912234122
 30
0.0
 10
515.8077043722402
 20
214.4589543233817
 30
0.0
 10
515.8157998488557
 20
214.4550755455546
 30
0.0
  0
LINE
  5
A7
330
1F
100
AcDbEntity
  8
0
  6
Continuous
 62
     7
370
    15
100
AcDbLine
 10
515.8157998489
 20
212.4550755456
 30
0.0
 11
515.8157998489
 21
214.4550755456
 31
0.0
  0
LINE
  5
A8
330
1F
100
AcDbEntity
  8
0
  6
Continuous
 62
     7
370
    15
100
AcDbLine
 10
-182.613489473
 20
415.9550755456
 30
0.0
 11
-179.113489473
 21
415.9550755456
 31
0.0
  0
LINE
  5
A9
330
1F
100
AcDbEntity
  8
0
  6
Continuous
 62
     7
370
    15
100
AcDbLine
 10
-179.113489473
 20
215.9550755456
 30
0.0
 11
-182.613489473
 21
215.9550755456
 31
0.0
  0
LINE
  5
AA
330
1F
100
AcDbEntity
  8
0
  6
Continuous
 62
     7
370
    15
100
AcDbLine
 10
-182.613489473
 20
226.2050755456
 30
0.0
 11
-182.613489473
 21
415.9550755456
 31
0.0
  0
SPLINE
  5
AB
330
1F
100
AcDbEntity
  8
0
  6
Continuous
 62
     7
370
    15
100
AcDbSpline
210
0.0
220
0.0
230
1.0
 70
     8
 71
     3
 72
    12
 73
     8
 74
     0
 42
0.00000001
 43
0.00000001
 12
1.0
 22
0.0
 32
0.0
 13
1.0
 23
0.0
 33
0.0
 40
0.0
 40
0.0
 40
0.0
 40
0.0
 40
0.2242829316483647
 40
0.4485658503777101
 40
0.6727831784752675
 40
0.8970002579182842
 40
1.0
 40
1.0
 40
1.0
 40
1.0
 10
-180.6134894730253
 20
215.9550755455544
 30
0.0
 10
-180.5953792645007
 20
215.7789027303019
 30
0.0
 10
-180.5591588484948
 20
215.4265571099445
 30
0.0
 10
-180.2776403497066
 20
214.9624995065262
 30
0.0
 10
-179.8666631084469
 20
214.6226980457779
 30
0.0
 10
-179.4499837573639
 20
214.4715164458669
 30
0.0
 10
-179.1940508168479
 20
214.4590117224361
 30
0.0
 10
-179.1134894730254
 20
214.4550755455545
 30
0.0
  0
LINE
  5
AC
330
1F
100
AcDbEntity
  8
0
  6
Continuous
 62
     7
370
    15
100
AcDbLine
 10
-179.113489473
 20
212.4550755456
 30
0.0
 11
-179.113489473
 21
214.4550755456
 31
0.0
  0
SPLINE
  5
AD
330
1F
100
AcDbEntity
  8
0
  6
Continuous
 62
     7
370
    15
100
AcDbSpline
210
0.0
220
0.0
230
1.0
 70
     8
 71
     3
 72
    12
 73
     8
 74
     0
 42
0.00000001
 43
0.00000001
 12
1.0
 22
0.0
 32
0.0
 13
1.0
 23
0.0
 33
0.0
 40
0.0
 40
0.0
 40
0.0
 40
0.0
 40
0.1846098780640703
 40
0.4010403449957526
 40
0.6174740344697355
 40
0.8339076852805639
 40
0.9999999999999999
 40
0.9999999999999999
 40
0.9999999999999999
 40
0.9999999999999999
 10
-182.6134894730253
 20
215.9550755455544
 30
0.0
 10
-182.5847613009161
 20
215.6171865918969
 30
0.0
 10
-182.5223531775013
 20
214.8831678927565
 30
0.0
 10
-181.9922445752982
 20
213.8518473803904
 30
0.0
 10
-181.131684797726
 20
213.015833685989
 30
0.0
 10
-180.1168447548402
 20
212.5321610607784
 30
0.0
 10
-179.4172518652787
 20
212.4784129225902
 30
0.0
 10
-179.1134894730254
 20
212.4550755455545
 30
0.0
  0
LINE
  5
AE
330
1F
100
AcDbEntity
  8
0
  6
Continuous
 62
     7
370
    15
100
AcDbLine
 10
-179.113489473
 20
214.4550755456
 30
0.0
 11
-178.9117086331
 21
214.4550755456
 31
0.0
  0
LINE
  5
AF
330
1F
100
AcDbEntity
  8
0
  6
Continuous
 62
     7
370
    15
100
AcDbLine
 10
-242.613489473
 20
210.4550755456
 30
0.0
 11
-242.613489473
 21
212.4550755456
 31
0.0
  0
LINE
  5
B0
330
1F
100
AcDbEntity
  8
0
  6
Continuous
 62
     7
370
    15
100
AcDbLine
 10
-242.613489473
 20
210.4550755456
 30
0.0
 11
-253.363489473
 21
210.4550755456
 31
0.0
  0
LINE
  5
B1
330
1F
100
AcDbEntity
  8
0
  6
Continuous
 62
     7
370
    15
100
AcDbLine
 10
-242.613489473
 20
212.4550755456
 30
0.0
 11
-253.363489473
 21
212.4550755456
 31
0.0
  0
LINE
  5
B2
330
1F
100
AcDbEntity
  8
0
  6
Continuous
 62
     7
370
    15
100
AcDbLine
 10
639.4527326262
 20
196.2288929281
 30
0.0
 11
625.0146382012
 21
165.2662995147
 31
0.0
  0
LINE
  5
B3
330
1F
100
AcDbEntity
  8
0
  6
Continuous
 62
     7
370
    15
100
AcDbLine
 10
641.2653482002
 20
195.3836564047
 30
0.0
 11
626.8272537752
 21
164.4210629913
 31
0.0
  0
LINE
  5
B4
330
1F
100
AcDbEntity
  8
0
  6
Continuous
 62
     7
370
    15
100
AcDbLine
 10
-255.613489473
 20
214.7050755456
 30
0.0
 11
-255.613489473
 21
226.2050755456
 31
0.0
  0
LINE
  5
B5
330
1F
100
AcDbEntity
  8
0
  6
Continuous
 62
     7
370
    15
100
AcDbLine
 10
-257.613489473
 20
214.7050755456
 30
0.0
 11
-257.613489473
 21
226.2050755456
 31
0.0
  0
LINE
  5
B6
330
1F
100
AcDbEntity
  8
0
  6
Continuous
 62
     7
370
    15
100
AcDbLine
 10
-253.363489473
 20
228.4550755456
 30
0.0
 11
-186.863489473
 21
228.4550755456
 31
0.0
  0
LINE
  5
B7
330
1F
100
AcDbEntity
  8
0
  6
Continuous
 62
     7
370
    15
100
AcDbLine
 10
-253.363489473
 20
230.4550755456
 30
0.0
 11
-186.863489473
 21
230.4550755456
 31
0.0
  0
LINE
  5
B8
330
1F
100
AcDbEntity
  8
0
  6
Continuous
 62
     7
370
    15
100
AcDbLine
 10
-184.613489473
 20
226.2050755456
 30
0.0
 11
-184.613489473
 21
214.7050755456
 31
0.0
  0
LINE
  5
B9
330
1F
100
AcDbEntity
  8
0
  6
Continuous
 62
     7
370
    15
100
AcDbLine
 10
-182.613489473
 20
226.2050755456
 30
0.0
 11
-182.613489473
 21
214.7050755456
 31
0.0
  0
ARC
  5
BA
330
1F
100
AcDbEntity
  8
0
  6
Continuous
 62
     7
370
    15
100
AcDbCircle
 10
-180.363489473
 20
214.7050755456
 30
0.0
 40
4.25
100
AcDbArc
 50
180.0
 51
270.0
  0
ARC
  5
BB
330
1F
100
AcDbEntity
  8
0
  6
Continuous
 62
     7
370
    15
100
AcDbCircle
 10
-180.363489473
 20
214.7050755456
 30
0.0
 40
2.25
100
AcDbArc
 50
180.0
 51
270.0
  0
LINE
  5
BC
330
1F
100
AcDbEntity
  8
0
  6
Continuous
 62
     7
370
    15
100
AcDbLine
 10
-180.363489473
 20
210.4550755456
 30
0.0
 11
630.3896547558
 21
210.4550755456
 31
0.0
  0
LINE
  5
BD
330
1F
100
AcDbEntity
  8
0
  6
Continuous
 62
     7
370
    15
100
AcDbLine
 10
-180.363489473
 20
212.4550755456
 30
0.0
 11
630.3896547558
 21
212.4550755456
 31
0.0
  0
ARC
  5
BE
330
1F
100
AcDbEntity
  8
0
  6
Continuous
 62
     7
370
    15
100
AcDbCircle
 10
-186.863489473
 20
226.2050755456
 30
0.0
 40
4.249999999999972
100
AcDbArc
 50
0.0
 51
90.0
  0
ARC
  5
BF
330
1F
100
AcDbEntity
  8
0
  6
Continuous
 62
     7
370
    15
100
AcDbCircle
 10
-186.863489473
 20
226.2050755456
 30
0.0
 40
2.249999999999972
100
AcDbArc
 50
0.0
 51
90.0
  0
ARC
  5
C0
330
1F
100
AcDbEntity
  8
0
  6
Continuous
 62
     7
370
    15
100
AcDbCircle
 10
-253.363489473
 20
214.7050755456
 30
0.0
 40
4.25
100
AcDbArc
 50
180.0
 51
270.0
  0
ARC
  5
C1
330
1F
100
AcDbEntity
  8
0
  6
Continuous
 62
     7
370
    15
100
AcDbCircle
 10
-253.363489473
 20
214.7050755456
 30
0.0
 40
2.25
100
AcDbArc
 50
180.0
 51
270.0
  0
LINE
  5
C2
330
1F
100
AcDbEntity
  8
0
  6
Continuous
 62
     7
370
    15
100
AcDbLine
 10
621.0229794717
 20
158.6167886877
 30
0.0
 11
601.6639753714
 21
149.5895368215
 31
0.0
  0
LINE
  5
C3
330
1F
100
AcDbEntity
  8
0
  6
Continuous
 62
     7
370
    15
100
AcDbLine
 10
620.1777429482
 20
160.4294042618
 30
0.0
 11
600.8187388479
 21
151.4021523956
 31
0.0
  0
LINE
  5
C4
330
1F
100
AcDbEntity
  8
0
  6
Continuous
 62
     7
370
    15
100
AcDbLine
 10
600.8187388479
 20
151.4021523956
 30
0.0
 11
601.6639753714
 21
149.5895368215
 31
0.0
  0
ARC
  5
C5
330
1F
100
AcDbEntity
  8
0
  6
Continuous
 62
     7
370
    15
100
AcDbCircle
 10
630.3896547558
 20
200.4550755456
 30
0.0
 40
12.00000000000011
100
AcDbArc
 50
335.0
 51
90.0
  0
ARC
  5
C6
330
1F
100
AcDbEntity
  8
0
  6
Continuous
 62
     7
370
    15
100
AcDbCircle
 10
630.3896547558
 20
200.4550755456
 30
0.0
 40
10.00000000000015
100
AcDbArc
 50
335.0
 51
90.0
  0
ARC
  5
C7
330
1F
100
AcDbEntity
  8
0
  6
Continuous
 62
     7
370
    15
100
AcDbCircle
 10
615.9515603308
 20
169.4924821321
 30
0.0
 40
12.00000000000006
100
AcDbArc
 50
295.0
 51
335.0
  0
ARC
  5
C8
330
1F
100
AcDbEntity
  8
0
  6
Continuous
 62
     7
370
    15
100
AcDbCircle
 10
615.9515603308
 20
169.4924821321
 30
0.0
 40
10.00000000000014
100
AcDbArc
 50
295.0
 51
335.0
  0
ARC
  5
C9
330
1F
100
AcDbEntity
  8
0
  6
Continuous
 62
     7
370
    15
100
AcDbCircle
 10
-253.363489473
 20
226.2050755456
 30
0.0
 40
2.249999999999972
100
AcDbArc
 50
90.0
 51
180.0
  0
ARC
  5
CA
330
1F
100
AcDbEntity
  8
0
  6
Continuous
 62
     7
370
    15
100
AcDbCircle
 10
-253.363489473
 20
226.2050755456
 30
0.0
 40
4.25
100
AcDbArc
 50
90.0
 51
180.0
  0
ARC
  5
CB
330
1F
100
AcDbEntity
  8
0
  6
Continuous
 62
     7
370
    15
100
AcDbCircle
 10
631.6455765735
 20
17.4550755456
 30
0.0
 40
10.80000000000006
100
AcDbArc
 50
335.0
 51
25.0
  0
ARC
  5
CC
330
1F
100
AcDbEntity
  8
0
  6
Continuous
 62
     7
370
    15
100
AcDbCircle
 10
631.6455765735
 20
17.4550755456
 30
0.0
 40
9.99999999999999
100
AcDbArc
 50
335.0
 51
25.0
  0
LINE
  5
CD
330
1F
100
AcDbEntity
  8
0
  6
Continuous
 62
     7
370
    15
100
AcDbLine
 10
641.4337006735
 20
22.0193527724
 30
0.0
 11
585.5268310474
 21
141.9120215897
 31
0.0
  0
LINE
  5
CE
330
1F
100
AcDbEntity
  8
0
  6
Continuous
 62
     7
370
    15
100
AcDbLine
 10
640.7086544439
 20
21.681258163
 30
0.0
 11
584.8017848177
 21
141.5739269803
 31
0.0
  0
ARC
  5
CF
330
1F
100
AcDbEntity
  8
0
  6
Continuous
 62
     7
370
    15
100
AcDbCircle
 10
586.6597157812
 20
142.4402944168
 30
0.0
 40
1.25000000000008
100
AcDbArc
 50
115.0
 51
205.0
  0
ARC
  5
D0
330
1F
100
AcDbEntity
  8
0
  6
Continuous
 62
     7
370
    15
100
AcDbCircle
 10
586.6597157812
 20
142.4402944168
 30
0.0
 40
2.050000000000033
100
AcDbArc
 50
115.0
 51
205.0
  0
LINE
  5
D1
330
1F
100
AcDbEntity
  8
0
  6
Continuous
 62
     7
370
    15
100
AcDbLine
 10
585.7933483446
 20
144.2982253803
 30
0.0
 11
598.4363419737
 21
150.1937501315
 31
0.0
  0
LINE
  5
D2
330
1F
100
AcDbEntity
  8
0
  6
Continuous
 62
     7
370
    15
100
AcDbLine
 10
586.131442954
 20
143.5731791506
 30
0.0
 11
598.7744365831
 21
149.4687039019
 31
0.0
  0
ARC
  5
D3
330
1F
100
AcDbEntity
  8
0
  6
Continuous
 62
     7
370
    15
100
AcDbCircle
 10
611.034778083
 20
-26.7449244544
 30
0.0
 40
9.999999999999986
100
AcDbArc
 50
270.0
 51
335.0
  0
ARC
  5
D4
330
1F
100
AcDbEntity
  8
0
  6
Continuous
 62
     7
370
    15
100
AcDbCircle
 10
611.034778083
 20
-26.7449244544
 30
0.0
 40
10.8
100
AcDbArc
 50
270.0
 51
335.0
  0
LINE
  5
D5
330
1F
100
AcDbEntity
  8
0
  6
Continuous
 62
     7
370
    15
100
AcDbLine
 10
600.2489575478
 20
151.038986655
 30
0.0
 11
600.5870521572
 21
150.3139404254
 31
0.0
  0
LINE
  5
D6
330
1F
100
AcDbEntity
  8
0
  6
Continuous
 62
     7
370
    15
100
AcDbLine
 10
600.5870521572
 20
150.3139404254
 30
0.0
 11
598.7744365831
 21
149.4687039019
 31
0.0
  0
LINE
  5
D7
330
1F
100
AcDbEntity
  8
0
  6
Continuous
 62
     7
370
    15
100
AcDbLine
 10
598.4363419737
 20
150.1937501315
 30
0.0
 11
600.2489575478
 21
151.038986655
 31
0.0
  0
LINE
  5
D8
330
1F
100
AcDbEntity
  8
0
  6
Continuous
 62
     7
370
    15
100
AcDbLine
 10
552.4054806911
 20
-36.7449244544
 30
0.0
 11
611.034778083
 21
-36.7449244544
 31
0.0
  0
LINE
  5
D9
330
1F
100
AcDbEntity
  8
0
  6
Continuous
 62
     7
370
    15
100
AcDbLine
 10
552.4054806911
 20
-37.5449244544
 30
0.0
 11
611.034778083
 21
-37.5449244544
 31
0.0
  0
LINE
  5
DA
330
1F
100
AcDbEntity
  8
0
  6
Continuous
 62
     7
370
    15
100
AcDbLine
 10
620.822902183
 20
-31.3092016812
 30
0.0
 11
641.4337006735
 21
12.8907983188
 31
0.0
  0
LINE
  5
DB
330
1F
100
AcDbEntity
  8
0
  6
Continuous
 62
     7
370
    15
100
AcDbLine
 10
620.0978559534
 20
-30.9711070718
 30
0.0
 11
640.7086544439
 21
13.2288929282
 31
0.0
  0
LINE
  5
DC
330
1F
100
AcDbEntity
  8
0
  6
Continuous
 62
     7
370
    15
100
AcDbLine
 10
550.4054806911
 20
-37.5449244544
 30
0.0
 11
550.4054806911
 21
-36.7449244544
 31
0.0
  0
LINE
  5
DD
330
1F
100
AcDbEntity
  8
0
  6
Continuous
 62
     7
370
    15
100
AcDbLine
 10
550.4054806911
 20
-36.7449244544
 30
0.0
 11
552.4054806911
 21
-36.7449244544
 31
0.0
  0
LINE
  5
DE
330
1F
100
AcDbEntity
  8
0
  6
Continuous
 62
     7
370
    15
100
AcDbLine
 10
552.4054806911
 20
-37.5449244544
 30
0.0
 11
550.4054806911
 21
-37.5449244544
 31
0.0
  0
LINE
  5
DF
330
1F
100
AcDbEntity
  8
0
  6
Continuous
 62
     7
370
    15
100
AcDbLine
 10
430.2211823476
 20
-99.4449244545
 30
0.0
 11
-86.359658217
 21
-99.4449244545
 31
0.0
  0
LINE
  5
E0
330
1F
100
AcDbEntity
  8
0
  6
Continuous
 62
     7
370
    15
100
AcDbLine
 10
-61.3692379347
 20
-76.2449244545
 30
0.0
 11
-61.3692379347
 21
-36.7449244544
 31
0.0
  0
ARC
  5
E1
330
1F
100
AcDbEntity
  8
0
  6
Continuous
 62
     7
370
    15
100
AcDbCircle
 10
-59.3692379347
 20
-76.2449244545
 30
0.0
 40
2.000000000000114
100
AcDbArc
 50
180.0
 51
270.0
  0
LINE
  5
E2
330
1F
100
AcDbEntity
  8
0
  6
Continuous
 62
     7
370
    15
100
AcDbLine
 10
-43.3692379347
 20
-78.2449244545
 30
0.0
 11
-59.3692379347
 21
-78.2449244545
 31
0.0
  0
ARC
  5
E3
330
1F
100
AcDbEntity
  8
0
  6
Continuous
 62
     7
370
    15
100
AcDbCircle
 10
-43.3692379347
 20
-76.2449244545
 30
0.0
 40
2.000000000000007
100
AcDbArc
 50
270.0
 51
0.0
  0
LINE
  5
E4
330
1F
100
AcDbEntity
  8
0
  6
Continuous
 62
     7
370
    15
100
AcDbLine
 10
-41.3692379347
 20
-36.7449244544
 30
0.0
 11
-41.3692379347
 21
-76.2449244545
 31
0.0
  0
LINE
  5
E5
330
1F
100
AcDbEntity
  8
0
  6
Continuous
 62
     7
370
    15
100
AcDbLine
 10
-22.3692379347
 20
-76.2449244545
 30
0.0
 11
-22.3692379347
 21
-36.7449244544
 31
0.0
  0
ARC
  5
E6
330
1F
100
AcDbEntity
  8
0
  6
Continuous
 62
     7
370
    15
100
AcDbCircle
 10
-20.3692379347
 20
-76.2449244545
 30
0.0
 40
2.000000000000004
100
AcDbArc
 50
180.0
 51
270.0
  0
LINE
  5
E7
330
1F
100
AcDbEntity
  8
0
  6
Continuous
 62
     7
370
    15
100
AcDbLine
 10
-4.3692379347
 20
-78.2449244545
 30
0.0
 11
-20.3692379347
 21
-78.2449244545
 31
0.0
  0
ARC
  5
E8
330
1F
100
AcDbEntity
  8
0
  6
Continuous
 62
     7
370
    15
100
AcDbCircle
 10
-4.3692379347
 20
-76.2449244545
 30
0.0
 40
2.000000000000002
100
AcDbArc
 50
270.0
 51
0.0
  0
LINE
  5
E9
330
1F
100
AcDbEntity
  8
0
  6
Continuous
 62
     7
370
    15
100
AcDbLine
 10
-2.3692379347
 20
-36.7449244544
 30
0.0
 11
-2.3692379347
 21
-76.2449244545
 31
0.0
  0
LINE
  5
EA
330
1F
100
AcDbEntity
  8
0
  6
Continuous
 62
     7
370
    15
100
AcDbLine
 10
16.6307620653
 20
-76.2449244545
 30
0.0
 11
16.6307620653
 21
-36.7449244544
 31
0.0
  0
ARC
  5
EB
330
1F
100
AcDbEntity
  8
0
  6
Continuous
 62
     7
370
    15
100
AcDbCircle
 10
18.6307620653
 20
-76.2449244545
 30
0.0
 40
2.000000000000014
100
AcDbArc
 50
180.0
 51
270.0
  0
LINE
  5
EC
330
1F
100
AcDbEntity
  8
0
  6
Continuous
 62
     7
370
    15
100
AcDbLine
 10
34.6307620653
 20
-78.2449244545
 30
0.0
 11
18.6307620653
 21
-78.2449244545
 31
0.0
  0
ARC
  5
ED
330
1F
100
AcDbEntity
  8
0
  6
Continuous
 62
     7
370
    15
100
AcDbCircle
 10
34.6307620653
 20
-76.2449244545
 30
0.0
 40
2.000000000000014
100
AcDbArc
 50
270.0
 51
0.0
  0
LINE
  5
EE
330
1F
100
AcDbEntity
  8
0
  6
Continuous
 62
     7
370
    15
100
AcDbLine
 10
36.6307620653
 20
-36.7449244544
 30
0.0
 11
36.6307620653
 21
-76.2449244545
 31
0.0
  0
LINE
  5
EF
330
1F
100
AcDbEntity
  8
0
  6
Continuous
 62
     7
370
    15
100
AcDbLine
 10
55.6307620653
 20
-76.2449244545
 30
0.0
 11
55.6307620653
 21
-36.7449244544
 31
0.0
  0
ARC
  5
F0
330
1F
100
AcDbEntity
  8
0
  6
Continuous
 62
     7
370
    15
100
AcDbCircle
 10
57.6307620653
 20
-76.2449244545
 30
0.0
 40
2.000000000000014
100
AcDbArc
 50
180.0
 51
270.0
  0
LINE
  5
F1
330
1F
100
AcDbEntity
  8
0
  6
Continuous
 62
     7
370
    15
100
AcDbLine
 10
73.6307620653
 20
-78.2449244545
 30
0.0
 11
57.6307620653
 21
-78.2449244545
 31
0.0
  0
ARC
  5
F2
330
1F
100
AcDbEntity
  8
0
  6
Continuous
 62
     7
370
    15
100
AcDbCircle
 10
73.6307620653
 20
-76.2449244545
 30
0.0
 40
2.000000000000014
100
AcDbArc
 50
270.0
 51
0.0
  0
LINE
  5
F3
330
1F
100
AcDbEntity
  8
0
  6
Continuous
 62
     7
370
    15
100
AcDbLine
 10
75.6307620653
 20
-36.7449244544
 30
0.0
 11
75.6307620653
 21
-76.2449244545
 31
0.0
  0
LINE
  5
F4
330
1F
100
AcDbEntity
  8
0
  6
Continuous
 62
     7
370
    15
100
AcDbLine
 10
94.6307620653
 20
-76.2449244545
 30
0.0
 11
94.6307620653
 21
-36.7449244544
 31
0.0
  0
ARC
  5
F5
330
1F
100
AcDbEntity
  8
0
  6
Continuous
 62
     7
370
    15
100
AcDbCircle
 10
96.6307620653
 20
-76.2449244545
 30
0.0
 40
2.000000000000014
100
AcDbArc
 50
180.0
 51
270.0
  0
LINE
  5
F6
330
1F
100
AcDbEntity
  8
0
  6
Continuous
 62
     7
370
    15
100
AcDbLine
 10
112.6307620653
 20
-78.2449244545
 30
0.0
 11
96.6307620653
 21
-78.2449244545
 31
0.0
  0
ARC
  5
F7
330
1F
100
AcDbEntity
  8
0
  6
Continuous
 62
     7
370
    15
100
AcDbCircle
 10
112.6307620653
 20
-76.2449244545
 30
0.0
 40
2.000000000000014
100
AcDbArc
 50
270.0
 51
0.0
  0
LINE
  5
F8
330
1F
100
AcDbEntity
  8
0
  6
Continuous
 62
     7
370
    15
100
AcDbLine
 10
114.6307620653
 20
-36.7449244544
 30
0.0
 11
114.6307620653
 21
-76.2449244545
 31
0.0
  0
LINE
  5
F9
330
1F
100
AcDbEntity
  8
0
  6
Continuous
 62
     7
370
    15
100
AcDbLine
 10
172.6307620653
 20
-76.2449244545
 30
0.0
 11
172.6307620653
 21
-36.7449244544
 31
0.0
  0
ARC
  5
FA
330
1F
100
AcDbEntity
  8
0
  6
Continuous
 62
     7
370
    15
100
AcDbCircle
 10
174.6307620653
 20
-76.2449244545
 30
0.0
 40
2.000000000000014
100
AcDbArc
 50
180.0
 51
270.0
  0
LINE
  5
FB
330
1F
100
AcDbEntity
  8
0
  6
Continuous
 62
     7
370
    15
100
AcDbLine
 10
190.6307620653
 20
-78.2449244545
 30
0.0
 11
174.6307620653
 21
-78.2449244545
 31
0.0
  0
ARC
  5
FC
330
1F
100
AcDbEntity
  8
0
  6
Continuous
 62
     7
370
    15
100
AcDbCircle
 10
190.6307620653
 20
-76.2449244545
 30
0.0
 40
2.000000000000014
100
AcDbArc
 50
270.0
 51
0.0
  0
LINE
  5
FD
330
1F
100
AcDbEntity
  8
0
  6
Continuous
 62
     7
370
    15
100
AcDbLine
 10
192.6307620653
 20
-36.7449244544
 30
0.0
 11
192.6307620653
 21
-76.2449244545
 31
0.0
  0
LINE
  5
FE
330
1F
100
AcDbEntity
  8
0
  6
Continuous
 62
     7
370
    15
100
AcDbLine
 10
211.6307620653
 20
-76.2449244545
 30
0.0
 11
211.6307620653
 21
-36.7449244544
 31
0.0
  0
ARC
  5
FF
330
1F
100
AcDbEntity
  8
0
  6
Continuous
 62
     7
370
    15
100
AcDbCircle
 10
213.6307620653
 20
-76.2449244545
 30
0.0
 40
2.000000000000014
100
AcDbArc
 50
180.0
 51
270.0
  0
LINE
  5
100
330
1F
100
AcDbEntity
  8
0
  6
Continuous
 62
     7
370
    15
100
AcDbLine
 10
229.6307620653
 20
-78.2449244545
 30
0.0
 11
213.6307620653
 21
-78.2449244545
 31
0.0
  0
ARC
  5
101
330
1F
100
AcDbEntity
  8
0
  6
Continuous
 62
     7
370
    15
100
AcDbCircle
 10
229.6307620653
 20
-76.2449244545
 30
0.0
 40
2.000000000000014
100
AcDbArc
 50
270.0
 51
0.0
  0
LINE
  5
102
330
1F
100
AcDbEntity
  8
0
  6
Continuous
 62
     7
370
    15
100
AcDbLine
 10
231.6307620653
 20
-36.7449244544
 30
0.0
 11
231.6307620653
 21
-76.2449244545
 31
0.0
  0
LINE
  5
103
330
1F
100
AcDbEntity
  8
0
  6
Continuous
 62
     7
370
    15
100
AcDbLine
 10
250.6307620653
 20
-76.2449244545
 30
0.0
 11
250.6307620653
 21
-36.7449244544
 31
0.0
  0
ARC
  5
104
330
1F
100
AcDbEntity
  8
0
  6
Continuous
 62
     7
370
    15
100
AcDbCircle
 10
252.6307620653
 20
-76.2449244545
 30
0.0
 40
2.000000000000014
100
AcDbArc
 50
180.0
 51
270.0
  0
LINE
  5
105
330
1F
100
AcDbEntity
  8
0
  6
Continuous
 62
     7
370
    15
100
AcDbLine
 10
268.6307620653
 20
-78.2449244545
 30
0.0
 11
252.6307620653
 21
-78.2449244545
 31
0.0
  0
ARC
  5
106
330
1F
100
AcDbEntity
  8
0
  6
Continuous
 62
     7
370
    15
100
AcDbCircle
 10
268.6307620653
 20
-76.2449244545
 30
0.0
 40
2.000000000000014
100
AcDbArc
 50
270.0
 51
0.0
  0
LINE
  5
107
330
1F
100
AcDbEntity
  8
0
  6
Continuous
 62
     7
370
    15
100
AcDbLine
 10
270.6307620653
 20
-36.7449244544
 30
0.0
 11
270.6307620653
 21
-76.2449244545
 31
0.0
  0
LINE
  5
108
330
1F
100
AcDbEntity
  8
0
  6
Continuous
 62
     7
370
    15
100
AcDbLine
 10
289.6307620653
 20
-76.2449244545
 30
0.0
 11
289.6307620653
 21
-36.7449244544
 31
0.0
  0
ARC
  5
109
330
1F
100
AcDbEntity
  8
0
  6
Continuous
 62
     7
370
    15
100
AcDbCircle
 10
291.6307620653
 20
-76.2449244545
 30
0.0
 40
2.000000000000014
100
AcDbArc
 50
180.0
 51
270.0
  0
LINE
  5
10A
330
1F
100
AcDbEntity
  8
0
  6
Continuous
 62
     7
370
    15
100
AcDbLine
 10
307.6307620653
 20
-78.2449244545
 30
0.0
 11
291.6307620653
 21
-78.2449244545
 31
0.0
  0
ARC
  5
10B
330
1F
100
AcDbEntity
  8
0
  6
Continuous
 62
     7
370
    15
100
AcDbCircle
 10
307.6307620653
 20
-76.2449244545
 30
0.0
 40
2.000000000000014
100
AcDbArc
 50
270.0
 51
0.0
  0
LINE
  5
10C
330
1F
100
AcDbEntity
  8
0
  6
Continuous
 62
     7
370
    15
100
AcDbLine
 10
309.6307620653
 20
-36.7449244544
 30
0.0
 11
309.6307620653
 21
-76.2449244545
 31
0.0
  0
LINE
  5
10D
330
1F
100
AcDbEntity
  8
0
  6
Continuous
 62
     7
370
    15
100
AcDbLine
 10
328.6307620653
 20
-76.2449244545
 30
0.0
 11
328.6307620653
 21
-36.7449244544
 31
0.0
  0
ARC
  5
10E
330
1F
100
AcDbEntity
  8
0
  6
Continuous
 62
     7
370
    15
100
AcDbCircle
 10
330.6307620653
 20
-76.2449244545
 30
0.0
 40
2.000000000000014
100
AcDbArc
 50
180.0
 51
270.0
  0
LINE
  5
10F
330
1F
100
AcDbEntity
  8
0
  6
Continuous
 62
     7
370
    15
100
AcDbLine
 10
346.6307620653
 20
-78.2449244545
 30
0.0
 11
330.6307620653
 21
-78.2449244545
 31
0.0
  0
ARC
  5
110
330
1F
100
AcDbEntity
  8
0
  6
Continuous
 62
     7
370
    15
100
AcDbCircle
 10
346.6307620653
 20
-76.2449244545
 30
0.0
 40
2.000000000000014
100
AcDbArc
 50
270.0
 51
0.0
  0
LINE
  5
111
330
1F
100
AcDbEntity
  8
0
  6
Continuous
 62
     7
370
    15
100
AcDbLine
 10
348.6307620653
 20
-36.7449244544
 30
0.0
 11
348.6307620653
 21
-76.2449244545
 31
0.0
  0
LINE
  5
112
330
1F
100
AcDbEntity
  8
0
  6
Continuous
 62
     7
370
    15
100
AcDbLine
 10
367.6307620653
 20
-76.2449244545
 30
0.0
 11
367.6307620653
 21
-36.7449244544
 31
0.0
  0
ARC
  5
113
330
1F
100
AcDbEntity
  8
0
  6
Continuous
 62
     7
370
    15
100
AcDbCircle
 10
369.6307620653
 20
-76.2449244545
 30
0.0
 40
2.0
100
AcDbArc
 50
180.0
 51
270.0
  0
LINE
  5
114
330
1F
100
AcDbEntity
  8
0
  6
Continuous
 62
     7
370
    15
100
AcDbLine
 10
385.6307620653
 20
-78.2449244545
 30
0.0
 11
369.6307620653
 21
-78.2449244545
 31
0.0
  0
ARC
  5
115
330
1F
100
AcDbEntity
  8
0
  6
Continuous
 62
     7
370
    15
100
AcDbCircle
 10
385.6307620653
 20
-76.2449244545
 30
0.0
 40
2.0
100
AcDbArc
 50
270.0
 51
0.0
  0
LINE
  5
116
330
1F
100
AcDbEntity
  8
0
  6
Continuous
 62
     7
370
    15
100
AcDbLine
 10
387.6307620653
 20
-36.7449244544
 30
0.0
 11
387.6307620653
 21
-76.2449244545
 31
0.0
  0
ARC
  5
117
330
1F
100
AcDbEntity
  8
0
  6
Continuous
 62
     7
370
    15
100
AcDbCircle
 10
419.6307620653
 20
-36.2449244545
 30
0.0
 40
2.000000000000036
100
AcDbArc
 50
238.211669383
 51
270.0
  0
LINE
  5
118
330
1F
100
AcDbEntity
  8
0
  6
Continuous
 62
     7
370
    15
100
AcDbLine
 10
419.6307620653
 20
-38.2449244545
 30
0.0
 11
428.9307620653
 21
-38.2449244545
 31
0.0
  0
LINE
  5
119
330
1F
100
AcDbEntity
  8
0
  6
Continuous
 62
     7
370
    15
100
AcDbLine
 10
490.9531939296
 20
-108.4056939699
 30
0.0
 11
490.3531939296
 21
-109.4449244545
 31
0.0
  0
LINE
  5
11A
330
1F
100
AcDbEntity
  8
0
  6
Continuous
 62
     7
370
    15
100
AcDbLine
 10
489.7307620653
 20
-107.699922604
 30
0.0
 11
490.9531939296
 21
-108.4056939699
 31
0.0
  0
LINE
  5
11B
330
1F
100
AcDbEntity
  8
0
  6
Continuous
 62
     7
370
    15
100
AcDbLine
 10
490.3531939296
 20
-109.4449244545
 30
0.0
 11
489.7307620653
 21
-109.08556325
 31
0.0
  0
LINE
  5
11C
330
1F
100
AcDbEntity
  8
0
  6
Continuous
 62
     7
370
    15
100
AcDbLine
 10
557.4600513872
 20
-74.0449244544
 30
0.0
 11
556.2807620653
 21
-74.0449244544
 31
0.0
  0
SPLINE
  5
11D
330
1F
100
AcDbEntity
  8
0
  6
Continuous
 62
     7
370
    15
100
AcDbSpline
210
0.0
220
0.0
230
1.0
 70
     8
 71
     3
 72
    16
 73
    12
 74
     0
 42
0.00000001
 43
0.00000001
 12
1.0
 22
0.0
 32
0.0
 13
1.0
 23
0.0
 33
0.0
 40
0.0
 40
0.0
 40
0.0
 40
0.0
 40
0.1263423556779447
 40
0.2476546057382457
 40
0.3659208376755955
 40
0.4841746980996039
 40
0.6042965336300338
 40
0.7264205906175147
 40
0.8498578912032132
 40
0.9858935051324372
 40
1.0
 40
1.0
 40
1.0
 40
1.0
 10
556.2807620653016
 20
-74.04492445444843
 30
0.0
 10
553.519809595645
 20
-74.02523619907114
 30
0.0
 10
548.1078272745478
 20
-73.98664354265772
 30
0.0
 10
540.1101952053775
 20
-74.05818737171762
 30
0.0
 10
532.3020746116948
 20
-74.72797224307243
 30
0.0
 10
524.6731659085715
 20
-76.42330549647663
 30
0.0
 10
517.1906850961634
 20
-78.91532964109821
 30
0.0
 10
509.7849837817308
 20
-81.92600162219044
 30
0.0
 10
502.1370362724694
 20
-85.24635332813175
 30
0.0
 10
496.693257435131
 20
-87.73217313968406
 30
0.0
 10
493.61955005263
 20
-88.88080755037551
 30
0.0
 10
493.3307620652818
 20
-88.98872667812036
 30
0.0
  0
LINE
  5
11E
330
1F
100
AcDbEntity
  8
0
  6
Continuous
 62
     7
370
    15
100
AcDbLine
 10
557.4600513872
 20
-55.2949244545
 30
0.0
 11
557.4600513872
 21
-74.0449244544
 31
0.0
  0
LINE
  5
11F
330
1F
100
AcDbEntity
  8
0
  6
Continuous
 62
     7
370
    15
100
AcDbLine
 10
493.3307620653
 20
-53.2449244545
 30
0.0
 11
556.2807620653
 21
-53.2449244545
 31
0.0
  0
SPLINE
  5
120
330
1F
100
AcDbEntity
  8
0
  6
Continuous
 62
     7
370
    15
100
AcDbSpline
210
0.0
220
0.0
230
1.0
 70
     8
 71
     3
 72
    11
 73
     7
 74
     0
 42
0.00000001
 43
0.00000001
 12
1.0
 22
0.0
 32
0.0
 13
1.0
 23
0.0
 33
0.0
 40
0.0
 40
0.0
 40
0.0
 40
0.0
 40
0.2499999999999992
 40
0.4999999999999949
 40
0.7499999999999956
 40
0.9999999999999999
 40
0.9999999999999999
 40
0.9999999999999999
 40
0.9999999999999999
 10
557.4600513871828
 20
-55.29492445445122
 30
0.0
 10
557.361777277026
 20
-55.02629851464841
 30
0.0
 10
557.1652290567126
 20
-54.48904663504273
 30
0.0
 10
556.8704067262422
 20
-53.8114295139939
 30
0.0
 10
556.575584395772
 20
-53.3373686270929
 30
0.0
 10
556.3790361754585
 20
-53.27573917866485
 30
0.0
 10
556.2807620653016
 20
-53.24492445445081
 30
0.0
  0
LINE
  5
121
330
1F
100
AcDbEntity
  8
0
  6
Continuous
 62
     7
370
    15
100
AcDbLine
 10
387.6307620653
 20
-53.2449244545
 30
0.0
 11
367.6307620653
 21
-53.2449244545
 31
0.0
  0
LINE
  5
122
330
1F
100
AcDbEntity
  8
0
  6
Continuous
 62
     7
370
    15
100
AcDbLine
 10
348.6307620653
 20
-53.2449244545
 30
0.0
 11
328.6307620653
 21
-53.2449244545
 31
0.0
  0
LINE
  5
123
330
1F
100
AcDbEntity
  8
0
  6
Continuous
 62
     7
370
    15
100
AcDbLine
 10
309.6307620653
 20
-53.2449244545
 30
0.0
 11
289.6307620653
 21
-53.2449244545
 31
0.0
  0
LINE
  5
124
330
1F
100
AcDbEntity
  8
0
  6
Continuous
 62
     7
370
    15
100
AcDbLine
 10
270.6307620653
 20
-53.2449244545
 30
0.0
 11
250.6307620653
 21
-53.2449244545
 31
0.0
  0
LINE
  5
125
330
1F
100
AcDbEntity
  8
0
  6
Continuous
 62
     7
370
    15
100
AcDbLine
 10
231.6307620653
 20
-53.2449244545
 30
0.0
 11
211.6307620653
 21
-53.2449244545
 31
0.0
  0
LINE
  5
126
330
1F
100
AcDbEntity
  8
0
  6
Continuous
 62
     7
370
    15
100
AcDbLine
 10
192.6307620653
 20
-53.2449244545
 30
0.0
 11
172.6307620653
 21
-53.2449244545
 31
0.0
  0
LINE
  5
127
330
1F
100
AcDbEntity
  8
0
  6
Continuous
 62
     7
370
    15
100
AcDbLine
 10
114.6307620653
 20
-53.2449244545
 30
0.0
 11
94.6307620653
 21
-53.2449244545
 31
0.0
  0
LINE
  5
128
330
1F
100
AcDbEntity
  8
0
  6
Continuous
 62
     7
370
    15
100
AcDbLine
 10
75.6307620653
 20
-53.2449244545
 30
0.0
 11
55.6307620653
 21
-53.2449244545
 31
0.0
  0
LINE
  5
129
330
1F
100
AcDbEntity
  8
0
  6
Continuous
 62
     7
370
    15
100
AcDbLine
 10
36.6307620653
 20
-53.2449244545
 30
0.0
 11
16.6307620653
 21
-53.2449244545
 31
0.0
  0
LINE
  5
12A
330
1F
100
AcDbEntity
  8
0
  6
Continuous
 62
     7
370
    15
100
AcDbLine
 10
-2.3692379347
 20
-53.2449244545
 30
0.0
 11
-22.3692379347
 21
-53.2449244545
 31
0.0
  0
LINE
  5
12B
330
1F
100
AcDbEntity
  8
0
  6
Continuous
 62
     7
370
    15
100
AcDbLine
 10
-41.3692379347
 20
-53.2449244545
 30
0.0
 11
-61.3692379347
 21
-53.2449244545
 31
0.0
  0
SPLINE
  5
12C
330
1F
100
AcDbEntity
  8
0
  6
Continuous
 62
     7
370
    15
100
AcDbSpline
210
0.0
220
0.0
230
1.0
 70
     8
 71
     3
 72
    12
 73
     8
 74
     0
 42
0.00000001
 43
0.00000001
 12
1.0
 22
0.0
 32
0.0
 13
1.0
 23
0.0
 33
0.0
 40
0.0
 40
0.0
 40
0.0
 40
0.0
 40
0.2286702771455783
 40
0.4574139526360119
 40
0.6861579520287765
 40
0.914901766662564
 40
1.0
 40
1.0
 40
1.0
 40
1.0
 10
556.2807620653016
 20
-53.24492445445084
 30
0.0
 10
556.5262344848722
 20
-53.27066071916494
 30
0.0
 10
557.0172581154924
 20
-53.32214150939232
 30
0.0
 10
557.6604238168311
 20
-53.72175455938441
 30
0.0
 10
558.1245914809085
 20
-54.30312127280035
 30
0.0
 10
558.313371354815
 20
-54.86862381820634
 30
0.0
 10
558.3270524405577
 20
-55.2039899644664
 30
0.0
 10
558.3307620653018
 20
-55.29492445445078
 30
0.0
  0
LINE
  5
12D
330
1F
100
AcDbEntity
  8
0
  6
Continuous
 62
     7
370
    15
100
AcDbLine
 10
557.5307620653
 20
-55.2949244545
 30
0.0
 11
558.3307620653
 21
-55.2949244545
 31
0.0
  0
LINE
  5
12E
330
1F
100
AcDbEntity
  8
0
  6
Continuous
 62
     7
370
    15
100
AcDbLine
 10
558.3307620653
 20
-55.2949244545
 30
0.0
 11
558.3307620653
 21
-74.8828425776
 31
0.0
  0
LINE
  5
12F
330
1F
100
AcDbEntity
  8
0
  6
Continuous
 62
     7
370
    15
100
AcDbLine
 10
557.5307620653
 20
-74.8828425776
 30
0.0
 11
558.3307620653
 21
-74.8828425776
 31
0.0
  0
LINE
  5
130
330
1F
100
AcDbEntity
  8
0
  6
Continuous
 62
     7
370
    15
100
AcDbLine
 10
557.5307620653
 20
-55.2949244545
 30
0.0
 11
557.5307620653
 21
-74.8828425776
 31
0.0
  0
LINE
  5
131
330
1F
100
AcDbEntity
  8
0
  6
Continuous
 62
     7
370
    15
100
AcDbLine
 10
558.3307620653
 20
-79.0449244545
 30
0.0
 11
557.5307620653
 21
-79.0449244545
 31
0.0
  0
LINE
  5
132
330
1F
100
AcDbEntity
  8
0
  6
Continuous
 62
     7
370
    15
100
AcDbLine
 10
558.3307620653
 20
-79.0449244545
 30
0.0
 11
558.3307620653
 21
-74.8828425776
 31
0.0
  0
LINE
  5
133
330
1F
100
AcDbEntity
  8
0
  6
Continuous
 62
     7
370
    15
100
AcDbLine
 10
557.5307620653
 20
-79.0449244545
 30
0.0
 11
557.5307620653
 21
-74.8828425776
 31
0.0
  0
LINE
  5
134
330
1F
100
AcDbEntity
  8
0
  6
Continuous
 62
     7
370
    15
100
AcDbLine
 10
626.6604526433
 20
112.8557249903
 30
0.0
 11
624.5512869447
 21
117.3788454274
 31
0.0
  0
LINE
  5
135
330
1F
100
AcDbEntity
  8
0
  6
Continuous
 62
     7
370
    15
100
AcDbLine
 10
648.640527864
 20
65.7193015663
 30
0.0
 11
646.6909459255
 21
69.9001935253
 31
0.0
  0
LINE
  5
136
330
1F
100
AcDbEntity
  8
0
  6
Continuous
 62
     7
370
    15
100
AcDbLine
 10
613.7987130576
 20
116.7757987101
 30
0.0
 11
613.7977360274
 21
116.7778939581
 31
0.0
  0
LINE
  5
137
330
1F
100
AcDbEntity
  8
0
  6
Continuous
 62
     7
370
    15
100
AcDbLine
 10
641.2679230406
 20
57.8678878008
 30
0.0
 11
613.7987130576
 21
116.7757987101
 31
0.0
  0
LINE
  5
138
330
1F
100
AcDbEntity
  8
0
  6
Continuous
 62
     7
370
    15
100
AcDbLine
 10
627.4425749583
 20
111.1784582732
 30
0.0
 11
645.9226943508
 21
71.5477143441
 31
0.0
  0
SPLINE
  5
139
330
1F
100
AcDbEntity
  8
0
  6
Continuous
 62
     7
370
    15
100
AcDbSpline
210
0.0
220
0.0
230
1.0
 70
     8
 71
     3
 72
    12
 73
     8
 74
     0
 42
0.00000001
 43
0.00000001
 12
1.0
 22
0.0
 32
0.0
 13
1.0
 23
0.0
 33
0.0
 40
0.0
 40
0.0
 40
0.0
 40
0.0
 40
0.0304717459516208
 40
0.0888135668585715
 40
0.3925556175487601
 40
0.696277439417442
 40
1.0
 40
1.0
 40
1.0
 40
1.0
 10
627.4900707980273
 20
112.1572716843306
 30
0.0
 10
627.48583050609
 20
112.1669438746467
 30
0.0
 10
627.4734716654749
 20
112.1951346361043
 30
0.0
 10
627.4118461814442
 20
112.3181279518192
 30
0.0
 10
627.2663605124839
 20
112.5144081425967
 30
0.0
 10
626.9964521246558
 20
112.7296898930736
 30
0.0
 10
626.7882663029478
 20
112.8003994417217
 30
0.0
 10
626.6841732655062
 20
112.8357542590407
 30
0.0
  0
SPLINE
  5
13A
330
1F
100
AcDbEntity
  8
0
  6
Continuous
 62
     7
370
    15
100
AcDbSpline
210
0.0
220
0.0
230
1.0
 70
     8
 71
     3
 72
    11
 73
     7
 74
     0
 42
0.00000001
 43
0.00000001
 12
1.0
 22
0.0
 32
0.0
 13
1.0
 23
0.0
 33
0.0
 40
0.0
 40
0.0
 40
0.0
 40
0.0
 40
0.3704320937866766
 40
0.7442498469292586
 40
0.9442480537688498
 40
1.0
 40
1.0
 40
1.0
 40
1.0
 10
626.6604526433
 20
112.8557249903305
 30
0.0
 10
626.6619652172938
 20
112.8528885863139
 30
0.0
 10
626.6650041898404
 20
112.8471898542371
 30
0.0
 10
626.6723246650254
 20
112.8403736714868
 30
0.0
 10
626.6798728621233
 20
112.8369049017325
 30
0.0
 10
626.6834035889655
 20
112.8359601984858
 30
0.0
 10
626.684173265506
 20
112.8357542590407
 30
0.0
  0
SPLINE
  5
13B
330
1F
100
AcDbEntity
  8
0
  6
Continuous
 62
     7
370
    15
100
AcDbSpline
210
0.0
220
0.0
230
1.0
 70
     8
 71
     3
 72
    12
 73
     8
 74
     0
 42
0.00000001
 43
0.00000001
 12
1.0
 22
0.0
 32
0.0
 13
1.0
 23
0.0
 33
0.0
 40
0.0
 40
0.0
 40
0.0
 40
0.0
 40
0.0304717459459504
 40
0.0888135668586222
 40
0.3925556175487466
 40
0.6962774394174005
 40
1.0
 40
1.0
 40
1.0
 40
1.0
 10
646.6892124579438
 20
70.98457952679773
 30
0.0
 10
646.6939334003519
 20
70.97503428804539
 30
0.0
 10
646.7076931545503
 20
70.94721354217756
 30
0.0
 10
646.7627372091775
 20
70.82000822480475
 30
0.0
 10
646.820061572439
 20
70.58136089795595
 30
0.0
 10
646.811502574591
 20
70.23617707294106
 30
0.0
 10
646.7313052588505
 20
70.03241438479712
 30
0.0
 10
646.6912065522162
 20
69.93053291682709
 30
0.0
  0
SPLINE
  5
13C
330
1F
100
AcDbEntity
  8
0
  6
Continuous
 62
     7
370
    15
100
AcDbSpline
210
0.0
220
0.0
230
1.0
 70
     8
 71
     3
 72
    10
 73
     6
 74
     0
 42
0.00000001
 43
0.00000001
 12
1.0
 22
0.0
 32
0.0
 13
1.0
 23
0.0
 33
0.0
 40
0.0
 40
0.0
 40
0.0
 40
0.0
 40
0.2117958997114449
 40
0.4880069094700025
 40
1.0
 40
1.0
 40
1.0
 40
1.0
 10
646.6912065522162
 20
69.93053291682709
 30
0.0
 10
646.6900851850713
 20
69.9278063441622
 30
0.0
 10
646.6875014007984
 20
69.92152394539313
 30
0.0
 10
646.6870429412539
 20
69.91047422037872
 30
0.0
 10
646.6894090040662
 20
69.90424186882139
 30
0.0
 10
646.6909459255452
 20
69.90019352533533
 30
0.0
  0
LINE
  5
13D
330
1F
100
AcDbEntity
  8
0
  6
Continuous
 62
     7
370
    15
100
AcDbLine
 10
625.2846138067
 20
117.388648062
 30
0.0
 11
644.3729827201
 21
117.6105925763
 31
0.0
  0
SPLINE
  5
13E
330
1F
100
AcDbEntity
  8
0
  6
Continuous
 62
     7
370
    15
100
AcDbSpline
210
0.0
220
0.0
230
1.0
 70
     8
 71
     3
 72
    12
 73
     8
 74
     0
 42
0.00000001
 43
0.00000001
 12
1.0
 22
0.0
 32
0.0
 13
1.0
 23
0.0
 33
0.0
 40
0.0
 40
0.0
 40
0.0
 40
0.0
 40
0.2238925288135562
 40
0.4477848652797388
 40
0.6716820736205766
 40
0.8955819150459319
 40
1.0
 40
1.0
 40
1.0
 40
1.0
 10
625.0520133335935
 20
117.3839254460911
 30
0.0
 10
625.0546354607065
 20
117.3842295637141
 30
0.0
 10
625.0598797126795
 20
117.384837798699
 30
0.0
 10
625.1026028465723
 20
117.3858725303548
 30
0.0
 10
625.1657539478988
 20
117.3869601176337
 30
0.0
 10
625.2308338270025
 20
117.3879084870266
 30
0.0
 10
625.2716368361336
 20
117.3884696044705
 30
0.0
 10
625.2846138067206
 20
117.3886480620088
 30
0.0
  0
ELLIPSE
  5
13F
330
1F
100
AcDbEntity
  8
0
  6
Continuous
 62
     7
370
    15
100
AcDbEllipse
 10
625.5754024023
 20
78.4833873189
 30
0.0
 11
-0.5249867692763247
 21
38.90218596544002
 31
0.0
210
0.0
220
0.0
230
1.0
 40
0.0043711044
 41
6.27302135873346
 42
6.273921913493131
  0
SPLINE
  5
140
330
1F
100
AcDbEntity
  8
0
  6
Continuous
 62
     7
370
    15
100
AcDbSpline
210
0.0
220
0.0
230
1.0
 70
     8
 71
     3
 72
    12
 73
     8
 74
     0
 42
0.00000001
 43
0.00000001
 12
1.0
 22
0.0
 32
0.0
 13
1.0
 23
0.0
 33
0.0
 40
0.0
 40
0.0
 40
0.0
 40
0.0
 40
0.2238925571851594
 40
0.4477848984198281
 40
0.6716824862032189
 40
0.8955821585469721
 40
1.0
 40
1.0
 40
1.0
 40
1.0
 10
625.2872866403951
 20
117.3829161516965
 30
0.0
 10
625.2593961798575
 20
117.3826293369781
 30
0.0
 10
625.2036152856834
 20
117.382055707818
 30
0.0
 10
625.1314135486681
 20
117.3819675582254
 30
0.0
 10
625.0786842180792
 20
117.3823612723678
 30
0.0
 10
625.0550121046007
 20
117.3829892878407
 30
0.0
 10
625.0528565916444
 20
117.3834429357383
 30
0.0
 10
625.052171054015
 20
117.3835872135555
 30
0.0
  0
LINE
  5
141
330
1F
100
AcDbEntity
  8
0
  6
Continuous
 62
     7
370
    15
100
AcDbLine
 10
625.2872866404
 20
117.3829161517
 30
0.0
 11
644.3881049201
 21
117.5781629139
 31
0.0
  0
LINE
  5
142
330
1F
100
AcDbEntity
  8
0
  6
Continuous
 62
     7
370
    15
100
AcDbLine
 10
644.3881049201
 20
117.5781629139
 30
0.0
 11
645.8667229916
 21
117.5965809403
 31
0.0
  0
LINE
  5
143
330
1F
100
AcDbEntity
  8
0
  6
Continuous
 62
     7
370
    15
100
AcDbLine
 10
648.19695883
 20
113.9945700925
 30
0.0
 11
661.3543818744
 21
85.7783853175
 31
0.0
  0
LINE
  5
144
330
1F
100
AcDbEntity
  8
0
  6
Continuous
 62
     7
370
    15
100
AcDbLine
 10
646.7876500528
 20
117.0168425183
 30
0.0
 11
648.19695883
 21
113.9945700925
 31
0.0
  0
SPLINE
  5
145
330
1F
100
AcDbEntity
  8
0
  6
Continuous
 62
     7
370
    15
100
AcDbSpline
210
0.0
220
0.0
230
1.0
 70
     8
 71
     3
 72
    11
 73
     7
 74
     0
 42
0.00000001
 43
0.00000001
 12
1.0
 22
0.0
 32
0.0
 13
1.0
 23
0.0
 33
0.0
 40
0.0
 40
0.0
 40
0.0
 40
0.0
 40
0.2933118760928097
 40
0.5865991201419819
 40
0.8805021461503194
 40
1.0
 40
1.0
 40
1.0
 40
1.0
 10
645.8667229915884
 20
117.5965809403112
 30
0.0
 10
645.979422164936
 20
117.5869141516122
 30
0.0
 10
646.2048110472653
 20
117.5675813860217
 30
0.0
 10
646.5055590957595
 20
117.3983950939935
 30
0.0
 10
646.6939992956025
 20
117.1978114721928
 30
0.0
 10
646.7666496941974
 20
117.0574232144724
 30
0.0
 10
646.7876500527751
 20
117.016842518299
 30
0.0
  0
LINE
  5
146
330
1F
100
AcDbEntity
  8
0
  6
Continuous
 62
     7
370
    15
100
AcDbLine
 10
661.3543818744
 20
85.7783853175
 30
0.0
 11
662.6898603625
 21
82.9144424578
 31
0.0
  0
LINE
  5
147
330
1F
100
AcDbEntity
  8
0
  6
Continuous
 62
     7
370
    15
100
AcDbLine
 10
625.2268311535
 20
87.5357171987
 30
0.0
 11
625.3957909877
 21
87.1733816651
 31
0.0
  0
SPLINE
  5
148
330
1F
100
AcDbEntity
  8
0
  6
Continuous
 62
     7
370
    15
100
AcDbSpline
210
0.0
220
0.0
230
1.0
 70
     8
 71
     3
 72
    15
 73
    11
 74
     0
 42
0.00000001
 43
0.00000001
 12
1.0
 22
0.0
 32
0.0
 13
1.0
 23
0.0
 33
0.0
 40
0.0
 40
0.0
 40
0.0
 40
0.0
 40
0.0013085590450196
 40
0.0031123972377555
 40
0.0059032470886983
 40
0.0102791707597325
 40
0.018484604487455
 40
0.0492181494334027
 40
0.1106093070873952
 40
1.0
 40
1.0
 40
1.0
 40
1.0
 10
625.2268311535099
 20
87.53571719874712
 30
0.0
 10
625.2269096453738
 20
87.53574218876703
 30
0.0
 10
625.2270963376452
 20
87.53580162732985
 30
0.0
 10
625.2288601739542
 20
87.53657694087339
 30
0.0
 10
625.2326995623247
 20
87.53830972798161
 30
0.0
 10
625.2406079413045
 20
87.54192225712974
 30
0.0
 10
625.264884891531
 20
87.5530878616404
 30
0.0
 10
625.3245949536417
 20
87.58071737490904
 30
0.0
 10
625.9154148291823
 20
87.85484963398935
 30
0.0
 10
626.496617827137
 20
88.12573977348998
 30
0.0
 10
627.0402930527061
 20
88.3791387721458
 30
0.0
  0
LINE
  5
149
330
1F
100
AcDbEntity
  8
0
  6
Continuous
 62
     7
370
    15
100
AcDbLine
 10
625.2115294307
 20
87.5685318492
 30
0.0
 11
625.2268311535
 21
87.5357171987
 31
0.0
  0
LINE
  5
14A
330
1F
100
AcDbEntity
  8
0
  6
Continuous
 62
     7
370
    15
100
AcDbLine
 10
625.2115294307
 20
87.5685318492
 30
0.0
 11
627.0241450048
 21
88.4137683727
 31
0.0
  0
LINE
  5
14B
330
1F
100
AcDbEntity
  8
0
  6
Continuous
 62
     7
370
    15
100
AcDbLine
 10
625.3957909877
 20
87.1733816651
 30
0.0
 11
626.0753386642
 21
85.7160869699
 31
0.0
  0
LINE
  5
14C
330
1F
100
AcDbEntity
  8
0
  6
Continuous
 62
     7
370
    15
100
AcDbLine
 10
626.0753386642
 20
85.7160869699
 30
0.0
 11
626.2841123972
 21
85.2683702547
 31
0.0
  0
LINE
  5
14D
330
1F
100
AcDbEntity
  8
0
  6
Continuous
 62
     7
370
    15
100
AcDbLine
 10
628.1114805802
 20
86.0819697062
 30
0.0
 11
626.2841123972
 21
85.2683702547
 31
0.0
  0
LINE
  5
14E
330
1F
100
AcDbEntity
  8
0
  6
Continuous
 62
     7
370
    15
100
AcDbLine
 10
629.3584685965
 20
83.4077952756
 30
0.0
 11
627.5440775941
 21
82.5663661703
 31
0.0
  0
LINE
  5
14F
330
1F
100
AcDbEntity
  8
0
  6
Continuous
 62
     7
370
    15
100
AcDbLine
 10
626.2806024107
 20
85.2758974451
 30
0.0
 11
627.5440775941
 21
82.5663661703
 31
0.0
  0
LINE
  5
150
330
1F
100
AcDbEntity
  8
0
  6
Continuous
 62
     7
370
    15
100
AcDbLine
 10
628.0205816125
 20
81.5445000052
 30
0.0
 11
628.2715294132
 21
81.00634071
 31
0.0
  0
LINE
  5
151
330
1F
100
AcDbEntity
  8
0
  6
Continuous
 62
     7
370
    15
100
AcDbLine
 10
627.5440775941
 20
82.5663661703
 30
0.0
 11
628.0205816125
 21
81.5445000052
 31
0.0
  0
LINE
  5
152
330
1F
100
AcDbEntity
  8
0
  6
Continuous
 62
     7
370
    15
100
AcDbLine
 10
628.2715294132
 20
81.00634071
 30
0.0
 11
628.7107300515
 21
80.0644719016
 31
0.0
  0
LINE
  5
153
330
1F
100
AcDbEntity
  8
0
  6
Continuous
 62
     7
370
    15
100
AcDbLine
 10
628.7107300515
 20
80.0644719016
 30
0.0
 11
628.7455655888
 21
79.9897668507
 31
0.0
  0
LINE
  5
154
330
1F
100
AcDbEntity
  8
0
  6
Continuous
 62
     7
370
    15
100
AcDbLine
 10
646.7876500528
 20
117.0168425183
 30
0.0
 11
646.7725278528
 21
117.0492721808
 31
0.0
  0
LINE
  5
155
330
1F
100
AcDbEntity
  8
0
  6
Continuous
 62
     7
370
    15
100
AcDbLine
 10
626.3981110213
 20
84.5870071092
 30
0.0
 11
627.2433475448
 21
82.7743915351
 31
0.0
  0
LINE
  5
156
330
1F
100
AcDbEntity
  8
0
  6
Continuous
 62
     7
370
    15
100
AcDbLine
 10
626.5654504834
 20
84.6650387819
 30
0.0
 11
626.3981110213
 21
84.5870071092
 31
0.0
  0
LINE
  5
157
330
1F
100
AcDbEntity
  8
0
  6
Continuous
 62
     7
370
    15
100
AcDbLine
 10
623.83691256
 20
63.3050890351
 30
0.0
 11
588.4426331393
 21
139.2083661995
 31
0.0
  0
LINE
  5
158
330
1F
100
AcDbEntity
  8
0
  6
Continuous
 62
     7
370
    15
100
AcDbLine
 10
623.83691256
 20
63.3050890351
 30
0.0
 11
625.9500038687
 21
58.7735501
 31
0.0
  0
LINE
  5
159
330
1F
100
AcDbEntity
  8
0
  6
Continuous
 62
     7
370
    15
100
AcDbLine
 10
625.9500038687
 20
58.7735501
 30
0.0
 11
624.5905421882
 21
58.1396227074
 31
0.0
  0
ARC
  5
15A
330
1F
100
AcDbEntity
  8
0
  6
Continuous
 62
     7
370
    15
100
AcDbCircle
 10
589.575517873
 20
139.7366390266
 30
0.0
 40
2.750000000000069
100
AcDbArc
 50
115.0
 51
205.0
  0
ARC
  5
15B
330
1F
100
AcDbEntity
  8
0
  6
Continuous
 62
     7
370
    15
100
AcDbCircle
 10
589.575517873
 20
139.7366390266
 30
0.0
 40
1.250000000000068
100
AcDbArc
 50
115.0
 51
205.0
  0
LINE
  5
15C
330
1F
100
AcDbEntity
  8
0
  6
Continuous
 62
     7
370
    15
100
AcDbLine
 10
588.4133176533
 20
142.228985441
 30
0.0
 11
612.3851586204
 21
153.407238464
 31
0.0
  0
LINE
  5
15D
330
1F
100
AcDbEntity
  8
0
  6
Continuous
 62
     7
370
    15
100
AcDbLine
 10
589.0472450459
 20
140.8695237604
 30
0.0
 11
613.019086013
 21
152.0477767835
 31
0.0
  0
LINE
  5
15E
330
1F
100
AcDbEntity
  8
0
  6
Continuous
 62
     7
370
    15
100
AcDbLine
 10
624.0091130515
 20
135.1049521756
 30
0.0
 11
628.2352956689
 21
126.0418743053
 31
0.0
  0
LINE
  5
15F
330
1F
100
AcDbEntity
  8
0
  6
Continuous
 62
     7
370
    15
100
AcDbLine
 10
628.2352956689
 20
126.0418743053
 30
0.0
 11
626.8758339884
 21
125.4079469126
 31
0.0
  0
LINE
  5
160
330
1F
100
AcDbEntity
  8
0
  6
Continuous
 62
     7
370
    15
100
AcDbLine
 10
626.8758339884
 20
125.4079469126
 30
0.0
 11
622.649651371
 21
134.471024783
 31
0.0
  0
LINE
  5
161
330
1F
100
AcDbEntity
  8
0
  6
Continuous
 62
     7
370
    15
100
AcDbLine
 10
616.106151557
 20
152.0529077932
 30
0.0
 11
624.0091130515
 21
135.1049521756
 31
0.0
  0
LINE
  5
162
330
1F
100
AcDbEntity
  8
0
  6
Continuous
 62
     7
370
    15
100
AcDbLine
 10
614.7466898764
 20
151.4189804006
 30
0.0
 11
622.649651371
 21
134.471024783
 31
0.0
  0
ARC
  5
163
330
1F
100
AcDbEntity
  8
0
  6
Continuous
 62
     7
370
    15
100
AcDbCircle
 10
613.5684897533
 20
150.8695766603
 30
0.0
 40
1.30000000000001
100
AcDbArc
 50
25.0
 51
115.0
  0
ARC
  5
164
330
1F
100
AcDbEntity
  8
0
  6
Continuous
 62
     7
370
    15
100
AcDbCircle
 10
613.5684897533
 20
150.8695766603
 30
0.0
 40
2.799999999999979
100
AcDbArc
 50
25.0
 51
115.0
  0
LINE
  5
165
330
1F
100
AcDbEntity
  8
0
  6
Continuous
 62
     7
370
    15
100
AcDbLine
 10
-91.0692379347
 20
-135.9449244545
 30
0.0
 11
-144.0692379347
 21
-135.9449244545
 31
0.0
  0
LINE
  5
166
330
1F
100
AcDbEntity
  8
0
  6
Continuous
 62
     7
370
    15
100
AcDbLine
 10
-89.0692379347
 20
-129.9449244545
 30
0.0
 11
-146.0692379347
 21
-129.9449244545
 31
0.0
  0
LINE
  5
167
330
1F
100
AcDbEntity
  8
0
  6
Continuous
 62
     7
370
    15
100
AcDbLine
 10
487.9307620653
 20
-135.9449244545
 30
0.0
 11
434.9307620653
 21
-135.9449244545
 31
0.0
  0
LINE
  5
168
330
1F
100
AcDbEntity
  8
0
  6
Continuous
 62
     7
370
    15
100
AcDbLine
 10
489.9307620653
 20
-129.9449244545
 30
0.0
 11
432.9307620653
 21
-129.9449244545
 31
0.0
  0
LINE
  5
169
330
1F
100
AcDbEntity
  8
0
  6
Continuous
 62
     7
370
    15
100
AcDbLine
 10
-72.5692379347
 20
-37.9449244545
 30
0.0
 11
-72.5692379347
 21
-36.7449244544
 31
0.0
  0
LINE
  5
16A
330
1F
100
AcDbEntity
  8
0
  6
Continuous
 62
     7
370
    15
100
AcDbLine
 10
-162.5692379347
 20
-37.9449244545
 30
0.0
 11
-162.5692379347
 21
-36.7449244544
 31
0.0
  0
LINE
  5
16B
330
1F
100
AcDbEntity
  8
0
  6
Continuous
 62
     7
370
    15
100
AcDbLine
 10
-162.5692379347
 20
-37.9449244545
 30
0.0
 11
-72.5692379347
 21
-37.9449244545
 31
0.0
  0
LINE
  5
16C
330
1F
100
AcDbEntity
  8
0
  6
Continuous
 62
     7
370
    15
100
AcDbLine
 10
-86.6095877144
 20
-100.9449244545
 30
0.0
 11
-148.5288881551
 21
-100.9449244545
 31
0.0
  0
LINE
  5
16D
330
1F
100
AcDbEntity
  8
0
  6
Continuous
 62
     7
370
    15
100
AcDbLine
 10
506.4307620653
 20
-37.9449244545
 30
0.0
 11
506.4307620653
 21
-36.7449244544
 31
0.0
  0
LINE
  5
16E
330
1F
100
AcDbEntity
  8
0
  6
Continuous
 62
     7
370
    15
100
AcDbLine
 10
416.4307620653
 20
-37.9449244545
 30
0.0
 11
506.4307620653
 21
-37.9449244545
 31
0.0
  0
LINE
  5
16F
330
1F
100
AcDbEntity
  8
0
  6
Continuous
 62
     7
370
    15
100
AcDbLine
 10
416.4307620653
 20
-37.9449244545
 30
0.0
 11
416.4307620653
 21
-36.7449244544
 31
0.0
  0
LINE
  5
170
330
1F
100
AcDbEntity
  8
0
  6
Continuous
 62
     7
370
    15
100
AcDbLine
 10
492.3904122856
 20
-100.9449244545
 30
0.0
 11
430.4711118449
 21
-100.9449244545
 31
0.0
  0
LINE
  5
171
330
1F
100
AcDbEntity
  8
0
  6
Continuous
 62
     7
370
    15
100
AcDbLine
 10
593.211456601
 20
131.5095078994
 30
0.0
 11
590.0148985288
 21
138.3645488071
 31
0.0
  0
LINE
  5
172
330
1F
100
AcDbEntity
  8
0
  6
Continuous
 62
     7
370
    15
100
AcDbLine
 10
595.4026949144
 20
126.8103821719
 30
0.0
 11
593.211456601
 21
131.5095078994
 31
0.0
  0
LINE
  5
173
330
1F
100
AcDbEntity
  8
0
  6
Continuous
 62
     7
370
    15
100
AcDbLine
 10
594.1729876702
 20
131.1787441006
 30
0.0
 11
591.3841387027
 21
137.1594500116
 31
0.0
  0
LINE
  5
174
330
1F
100
AcDbEntity
  8
0
  6
Continuous
 62
     7
370
    15
100
AcDbLine
 10
596.249626478
 20
126.7253778059
 30
0.0
 11
594.1729876702
 21
131.1787441006
 31
0.0
  0
SPLINE
  5
175
330
1F
100
AcDbEntity
  8
0
  6
Continuous
 62
     7
370
    15
100
AcDbSpline
210
0.0
220
0.0
230
1.0
 70
    24
 71
     3
 72
    15
 73
    11
 74
     0
 42
0.00000001
 43
0.00000001
 12
1.0
 22
0.0
 32
0.0
 13
1.0
 23
0.0
 33
0.0
 40
0.0
 40
0.0
 40
0.0
 40
0.0
 40
0.0296235679755199
 40
0.2170954265870733
 40
0.4045672851986248
 40
0.5054866721529401
 40
0.6085477132935347
 40
0.7116087544341316
 40
0.812528141388447
 40
0.9999999999999999
 40
0.9999999999999999
 40
0.9999999999999999
 40
0.9999999999999999
 10
611.417839969881
 20
128.5069619564544
 30
0.0
 10
611.4202101103314
 20
128.5018791738559
 30
0.0
 10
611.4375796133087
 20
128.4646301545152
 30
0.0
 10
611.269437249762
 20
128.8252126167719
 30
0.0
 10
610.8845291082035
 20
129.6506507901044
 30
0.0
 10
610.4526985014313
 20
130.5767145148151
 30
0.0
 10
610.068997776633
 20
131.3995633745502
 30
0.0
 10
609.6557078469469
 20
132.2858664889386
 30
0.0
 10
609.109521187111
 20
133.4571675608465
 30
0.0
 10
608.7283685193818
 20
134.2745520945628
 30
0.0
 10
608.4805960917071
 20
134.8059017804225
 30
0.0
  0
LINE
  5
176
330
1F
100
AcDbEntity
  8
0
  6
Continuous
 62
     7
370
    15
100
AcDbLine
 10
600.8286699978
 20
151.3808549759
 30
0.0
 11
584.7690068501
 21
143.8921110627
 31
0.0
  0
SPLINE
  5
177
330
1F
100
AcDbEntity
  8
0
  6
Continuous
 62
     7
370
    15
100
AcDbSpline
210
0.0
220
0.0
230
1.0
 70
     8
 71
     3
 72
    11
 73
     7
 74
     0
 42
0.00000001
 43
0.00000001
 12
1.0
 22
0.0
 32
0.0
 13
1.0
 23
0.0
 33
0.0
 40
0.0
 40
0.0
 40
0.0
 40
0.0
 40
0.2889759275645127
 40
0.5779517763250721
 40
0.8674414070450548
 40
1.0
 40
1.0
 40
1.0
 40
1.0
 10
584.7690068500673
 20
143.8921110627237
 30
0.0
 10
584.4654789405117
 20
143.8018356784084
 30
0.0
 10
583.8584232041732
 20
143.6212849343961
 30
0.0
 10
582.7099052267415
 20
143.8606712990671
 30
0.0
 10
581.6753474290412
 20
144.2524515778903
 30
0.0
 10
581.0483990065491
 20
144.5192975673407
 30
0.0
 10
580.8514845401944
 20
144.6031096222505
 30
0.0
  0
LINE
  5
178
330
1F
100
AcDbEntity
  8
0
  6
Continuous
 62
     7
370
    15
100
AcDbLine
 10
584.3077157391
 20
142.6334615386
 30
0.0
 11
584.8017848177
 21
141.5739269803
 31
0.0
  0
SPLINE
  5
179
330
1F
100
AcDbEntity
  8
0
  6
Continuous
 62
     7
370
    15
100
AcDbSpline
210
0.0
220
0.0
230
1.0
 70
     8
 71
     3
 72
    11
 73
     7
 74
     0
 42
0.00000001
 43
0.00000001
 12
1.0
 22
0.0
 32
0.0
 13
1.0
 23
0.0
 33
0.0
 40
0.0
 40
0.0
 40
0.0
 40
0.0
 40
0.2888077077194141
 40
0.57761533621972
 40
0.8669345414323495
 40
0.9999999999999999
 40
0.9999999999999999
 40
0.9999999999999999
 40
0.9999999999999999
 10
580.8514845401946
 20
144.6031096222507
 30
0.0
 10
581.2991825649725
 20
144.4669008673944
 30
0.0
 10
582.1945784917257
 20
144.1944833950435
 30
0.0
 10
583.3417400807863
 20
143.6944740679289
 30
0.0
 10
584.0166276295179
 20
143.1582233375003
 30
0.0
 10
584.2379817139675
 20
142.759175201448
 30
0.0
 10
584.3077157390845
 20
142.6334615386008
 30
0.0
  0
SPLINE
  5
17A
330
1F
100
AcDbEntity
  8
0
  6
Continuous
 62
     7
370
    15
100
AcDbSpline
210
0.0
220
0.0
230
1.0
 70
     8
 71
     3
 72
    12
 73
     8
 74
     0
 42
0.00000001
 43
0.00000001
 12
1.0
 22
0.0
 32
0.0
 13
1.0
 23
0.0
 33
0.0
 40
0.0
 40
0.0
 40
0.0
 40
0.0
 40
0.209682100152886
 40
0.4420453733185801
 40
0.6744332966681194
 40
0.9068208701180673
 40
1.0
 40
1.0
 40
1.0
 40
1.0
 10
-255.2575676541989
 20
208.1550755455741
 30
0.0
 10
-255.3618528621264
 20
208.4074065035494
 30
0.0
 10
-255.5817037394131
 20
208.9393628910365
 30
0.0
 10
-255.9176718692962
 20
209.6607443208513
 30
0.0
 10
-256.2645771377126
 20
210.2041032548378
 30
0.0
 10
-256.5429537999459
 20
210.4327250949812
 30
0.0
 10
-256.7043142611673
 20
210.4501021336055
 30
0.0
 10
-256.750496586387
 20
210.4550755455741
 30
0.0
  0
LINE
  5
17B
330
1F
100
AcDbEntity
  8
0
  6
Continuous
 62
     7
370
    15
100
AcDbLine
 10
-256.7504965864
 20
210.4550755456
 30
0.0
 11
-253.363489473
 21
210.4550755456
 31
0.0
  0
LINE
  5
17C
330
1F
100
AcDbEntity
  8
0
  6
Continuous
 62
     7
370
    15
100
AcDbLine
 10
-242.613489473
 20
210.4550755456
 30
0.0
 11
-180.363489473
 21
210.4550755456
 31
0.0
  0
SPLINE
  5
17D
330
1F
100
AcDbEntity
  8
0
  6
Continuous
 62
     7
370
    15
100
AcDbSpline
210
0.0
220
0.0
230
1.0
 70
     8
 71
     3
 72
    12
 73
     8
 74
     0
 42
0.00000001
 43
0.00000001
 12
1.0
 22
0.0
 32
0.0
 13
1.0
 23
0.0
 33
0.0
 40
0.0
 40
0.0
 40
0.0
 40
0.0
 40
0.2096821001528738
 40
0.4420453733185987
 40
0.6744332966681253
 40
0.9068208701180408
 40
1.0
 40
1.0
 40
1.0
 40
1.0
 10
-257.5575676541989
 20
209.6480044777622
 30
0.0
 10
-257.5332276840304
 20
209.5437192698347
 30
0.0
 10
-257.4819149053435
 20
209.3238683925479
 30
0.0
 10
-257.0609843184146
 20
208.9879002626649
 30
0.0
 10
-256.4091948405191
 20
208.6409949942482
 30
0.0
 10
-255.7597538014168
 20
208.3626183320156
 30
0.0
 10
-255.3693138843103
 20
208.2012578707938
 30
0.0
 10
-255.2575676541989
 20
208.1550755455741
 30
0.0
  0
LINE
  5
17E
330
1F
100
AcDbEntity
  8
0
  6
Continuous
 62
     7
370
    15
100
AcDbLine
 10
-257.5575676542
 20
209.6480044778
 30
0.0
 11
-256.7575676542
 21
209.6480044778
 31
0.0
  0
SPLINE
  5
17F
330
1F
100
AcDbEntity
  8
0
  6
Continuous
 62
     7
370
    15
100
AcDbSpline
210
0.0
220
0.0
230
1.0
 70
     8
 71
     3
 72
    11
 73
     7
 74
     0
 42
0.00000001
 43
0.00000001
 12
1.0
 22
0.0
 32
0.0
 13
1.0
 23
0.0
 33
0.0
 40
0.0
 40
0.0
 40
0.0
 40
0.0
 40
0.2543211584721155
 40
0.5088664984542254
 40
0.763413000719684
 40
1.0
 40
1.0
 40
1.0
 40
1.0
 10
-256.757567654199
 20
209.6480044777622
 30
0.0
 10
-256.7342135921798
 20
209.5214233699767
 30
0.0
 10
-256.6874848817739
 20
209.2681495744491
 30
0.0
 10
-256.3285972655789
 20
208.8882049049638
 30
0.0
 10
-255.8293742862895
 20
208.5169797732928
 30
0.0
 10
-255.4434659696941
 20
208.2727331286237
 30
0.0
 10
-255.2575676541989
 20
208.1550755455741
 30
0.0
  0
SPLINE
  5
180
330
1F
100
AcDbEntity
  8
0
  6
Continuous
 62
     7
370
    15
100
AcDbSpline
210
0.0
220
0.0
230
1.0
 70
     8
 71
     3
 72
    12
 73
     8
 74
     0
 42
0.00000001
 43
0.00000001
 12
1.0
 22
0.0
 32
0.0
 13
1.0
 23
0.0
 33
0.0
 40
0.0
 40
0.0
 40
0.0
 40
0.0
 40
0.2096821001528694
 40
0.4420453733185924
 40
0.6744332966681261
 40
0.9068208701180616
 40
1.0
 40
1.0
 40
1.0
 40
1.0
 10
-255.2575676541989
 20
-34.44492445442637
 30
0.0
 10
-255.5098986121742
 20
-34.54920966235392
 30
0.0
 10
-256.0418549996614
 20
-34.76906053964063
 30
0.0
 10
-256.7632364294761
 20
-35.10502866952364
 30
0.0
 10
-257.3065953634629
 20
-35.45193393794032
 30
0.0
 10
-257.5352172036057
 20
-35.7303106001732
 30
0.0
 10
-257.5525942422304
 20
-35.89167106139482
 30
0.0
 10
-257.557567654199
 20
-35.93785338661451
 30
0.0
  0
LINE
  5
181
330
1F
100
AcDbEntity
  8
0
  6
Continuous
 62
     7
370
    15
100
AcDbLine
 10
-257.5575676542
 20
209.6480044778
 30
0.0
 11
-257.5575676542
 21
-35.9378533866
 31
0.0
  0
SPLINE
  5
182
330
1F
100
AcDbEntity
  8
0
  6
Continuous
 62
     7
370
    15
100
AcDbSpline
210
0.0
220
0.0
230
1.0
 70
     8
 71
     3
 72
    11
 73
     7
 74
     0
 42
0.00000001
 43
0.00000001
 12
1.0
 22
0.0
 32
0.0
 13
1.0
 23
0.0
 33
0.0
 40
0.0
 40
0.0
 40
0.0
 40
0.0
 40
0.2543211584720588
 40
0.5088664984541689
 40
0.7634130007196562
 40
1.0
 40
1.0
 40
1.0
 40
1.0
 10
-255.2575676541989
 20
208.1550755455741
 30
0.0
 10
-255.3841487619844
 20
208.3550507357133
 30
0.0
 10
-255.6374225575121
 20
208.7551773920845
 30
0.0
 10
-256.017367226997
 20
209.2568011461799
 30
0.0
 10
-256.3885923586682
 20
209.5928663930389
 30
0.0
 10
-256.6328390033373
 20
209.6348509171495
 30
0.0
 10
-256.750496586387
 20
209.6550755455741
 30
0.0
  0
LINE
  5
183
330
1F
100
AcDbEntity
  8
0
  6
Continuous
 62
     7
370
    15
100
AcDbLine
 10
-256.7504965864
 20
210.4550755456
 30
0.0
 11
-256.7504965864
 21
209.6550755456
 31
0.0
  0
CIRCLE
  5
184
330
1F
100
AcDbEntity
  8
0
  6
Continuous
 62
     7
370
    15
100
AcDbCircle
 10
209.9896547558
 20
190.4550755456
 30
0.0
 40
6.347663105371566
  0
CIRCLE
  5
185
330
1F
100
AcDbEntity
  8
0
  6
Continuous
 62
     7
370
    15
100
AcDbCircle
 10
589.9896547558
 20
190.4550755456
 30
0.0
 40
6.347663105371566
  0
SPLINE
  5
186
330
1F
100
AcDbEntity
  8
0
  6
Continuous
 62
     7
370
    15
100
AcDbSpline
210
0.0
220
0.0
230
1.0
 70
     8
 71
     3
 72
    11
 73
     7
 74
     0
 42
0.00000001
 43
0.00000001
 12
1.0
 22
0.0
 32
0.0
 13
1.0
 23
0.0
 33
0.0
 40
0.0
 40
0.0
 40
0.0
 40
0.0
 40
0.2543211584721248
 40
0.5088664984542416
 40
0.763413000719722
 40
1.0
 40
1.0
 40
1.0
 40
1.0
 10
-255.2575676541989
 20
-34.44492445442637
 30
0.0
 10
-255.457542844338
 20
-34.5715055622118
 30
0.0
 10
-255.8576695007092
 20
-34.8247793577395
 30
0.0
 10
-256.3592932548049
 20
-35.20472402722486
 30
0.0
 10
-256.6953585016635
 20
-35.57594915889584
 30
0.0
 10
-256.7373430257744
 20
-35.82019580356494
 30
0.0
 10
-256.7575676541989
 20
-35.93785338661451
 30
0.0
  0
LINE
  5
187
330
1F
100
AcDbEntity
  8
0
  6
Continuous
 62
     7
370
    15
100
AcDbLine
 10
-257.5575676542
 20
-35.9378533866
 30
0.0
 11
-256.7575676542
 21
-35.9378533866
 31
0.0
  0
LINE
  5
188
330
1F
100
AcDbEntity
  8
0
  6
Continuous
 62
     7
370
    15
100
AcDbLine
 10
550.4054806911
 20
-36.7449244544
 30
0.0
 11
-256.7504965864
 21
-36.7449244544
 31
0.0
  0
SPLINE
  5
189
330
1F
100
AcDbEntity
  8
0
  6
Continuous
 62
     7
370
    15
100
AcDbSpline
210
0.0
220
0.0
230
1.0
 70
     8
 71
     3
 72
    12
 73
     8
 74
     0
 42
0.00000001
 43
0.00000001
 12
1.0
 22
0.0
 32
0.0
 13
1.0
 23
0.0
 33
0.0
 40
0.0
 40
0.0
 40
0.0
 40
0.0
 40
0.2096821001528684
 40
0.4420453733186101
 40
0.6744332966681335
 40
0.9068208701180642
 40
1.0
 40
1.0
 40
1.0
 40
1.0
 10
-256.750496586387
 20
-36.74492445442637
 30
0.0
 10
-256.6462113784595
 20
-36.72058448425777
 30
0.0
 10
-256.4263605011728
 20
-36.66927170557091
 30
0.0
 10
-256.0903923712896
 20
-36.24834111864225
 30
0.0
 10
-255.7434871028734
 20
-35.59655164074665
 30
0.0
 10
-255.4651104406402
 20
-34.94711060164418
 30
0.0
 10
-255.3037499794186
 20
-34.55667068453783
 30
0.0
 10
-255.2575676541989
 20
-34.4449244544264
 30
0.0
  0
CIRCLE
  5
18A
330
1F
100
AcDbEntity
  8
0
  6
Continuous
 62
     7
370
    15
100
AcDbCircle
 10
-180.0103452442
 20
190.4550755456
 30
0.0
 40
6.347663105371566
  0
LINE
  5
18B
330
1F
100
AcDbEntity
  8
0
  6
Continuous
 62
     7
370
    15
100
AcDbLine
 10
-256.7504965864
 20
-36.7449244544
 30
0.0
 11
-256.7504965864
 21
-35.9449244544
 31
0.0
  0
SPLINE
  5
18C
330
1F
100
AcDbEntity
  8
0
  6
Continuous
 62
     7
370
    15
100
AcDbSpline
210
0.0
220
0.0
230
1.0
 70
     8
 71
     3
 72
    11
 73
     7
 74
     0
 42
0.00000001
 43
0.00000001
 12
1.0
 22
0.0
 32
0.0
 13
1.0
 23
0.0
 33
0.0
 40
0.0
 40
0.0
 40
0.0
 40
0.0
 40
0.2543211584721197
 40
0.5088664984542401
 40
0.7634130007197358
 40
0.9999999999999999
 40
0.9999999999999999
 40
0.9999999999999999
 40
0.9999999999999999
 10
-256.750496586387
 20
-35.94492445442638
 30
0.0
 10
-256.6239154786017
 20
-35.92157039240729
 30
0.0
 10
-256.370641683074
 20
-35.87484168200142
 30
0.0
 10
-255.9906970135884
 20
-35.51595406580626
 30
0.0
 10
-255.6194718819177
 20
-35.01673108651671
 30
0.0
 10
-255.3752252372483
 20
-34.63082276992147
 30
0.0
 10
-255.2575676541989
 20
-34.44492445442637
 30
0.0
  0
CIRCLE
  5
18D
330
1F
100
AcDbEntity
  8
0
  6
Continuous
 62
     7
370
    15
100
AcDbCircle
 10
589.9896547558
 20
190.4550755456
 30
0.0
 40
2.700000000000017
  0
CIRCLE
  5
18E
330
1F
100
AcDbEntity
  8
0
  6
Continuous
 62
     7
370
    15
100
AcDbCircle
 10
-180.0103452442
 20
190.4550755456
 30
0.0
 40
2.700000000000017
  0
CIRCLE
  5
18F
330
1F
100
AcDbEntity
  8
0
  6
Continuous
 62
     7
370
    15
100
AcDbCircle
 10
209.9896547558
 20
190.4550755456
 30
0.0
 40
2.700000000000017
  0
LINE
  5
190
330
1F
100
AcDbEntity
  8
0
  6
Continuous
 62
     8
370
    15
100
AcDbLine
 10
-242.5150965299
 20
212.9550755451
 30
0.0
 11
-186.8650965288
 21
212.9550755451
 31
0.0
  0
LINE
  5
191
330
1F
100
AcDbEntity
  8
0
  6
Continuous
 62
     8
370
    15
100
AcDbLine
 10
-186.8650965288
 20
226.1550755456
 30
0.0
 11
-253.363489473
 21
226.1550755456
 31
0.0
  0
LINE
  5
192
330
1F
100
AcDbEntity
  8
0
  6
Continuous
 62
     8
370
    15
100
AcDbLine
 10
-210.613489473
 20
239.9550755456
 30
0.0
 11
-229.613489473
 21
239.9550755456
 31
0.0
  0
LINE
  5
193
330
1F
100
AcDbEntity
  8
0
  6
Continuous
 62
     8
370
    15
100
AcDbLine
 10
604.9641406376
 20
107.5748562518
 30
0.0
 11
603.4852453324
 21
106.9493802488
 31
0.0
  0
LINE
  5
194
330
1F
100
AcDbEntity
  8
0
  6
Continuous
 62
     8
370
    15
100
AcDbLine
 10
628.3762771893
 20
57.3673673928
 30
0.0
 11
604.9641406376
 21
107.5748562518
 31
0.0
  0
LINE
  5
195
330
1F
100
AcDbEntity
  8
0
  6
Continuous
 62
     8
370
    15
100
AcDbLine
 10
625.6100235688
 20
55.9533378312
 30
0.0
 11
628.3762771893
 21
57.3673673928
 31
0.0
  0
ARC
  5
196
330
1F
100
AcDbEntity
  8
0
  6
Continuous
 62
     8
370
    15
100
AcDbCircle
 10
627.5390045399
 20
59.099115511
 30
0.0
 40
1.923532436518508
100
AcDbArc
 50
295.8030276957
 51
22.9376068066
  0
ARC
  5
197
330
1F
100
AcDbEntity
  8
0
  6
Continuous
 62
     8
370
    15
100
AcDbCircle
 10
605.7525481754
 20
105.8203219579
 30
0.0
 40
1.923532436518325
100
AcDbArc
 50
27.0623931934
 51
114.1969723043
  0
LINE
  5
198
330
1F
100
AcDbEntity
  8
0
  6
Continuous
 62
     8
370
    15
100
AcDbLine
 10
610.8500870095
 20
103.9218601661
 30
0.0
 11
629.3613332362
 21
64.2243645256
 31
0.0
  0
SPLINE
  5
199
330
1F
100
AcDbEntity
  8
0
  6
Continuous
 62
     8
370
    15
100
AcDbSpline
210
0.0
220
0.0
230
1.0
 70
     8
 71
     3
 72
    11
 73
     7
 74
     0
 42
0.00000001
 43
0.00000001
 12
1.0
 22
0.0
 32
0.0
 13
1.0
 23
0.0
 33
0.0
 40
0.0
 40
0.0
 40
0.0
 40
0.0
 40
0.2835227646035675
 40
0.566778882416096
 40
0.8499302227267634
 40
1.0
 40
1.0
 40
1.0
 40
1.0
 10
628.3762771892995
 20
57.36736739275244
 30
0.0
 10
628.426261377898
 20
57.27624634551615
 30
0.0
 10
628.5261827460882
 20
57.09408994834155
 30
0.0
 10
628.7579091273197
 20
56.60434607598444
 30
0.0
 10
628.978673416731
 20
56.11098573955717
 30
0.0
 10
629.1132456593521
 20
55.79605691490705
 30
0.0
 10
629.1598620999125
 20
55.68696412913579
 30
0.0
  0
LWPOLYLINE
  5
19A
330
1F
100
AcDbEntity
  8
0
  6
Continuous
 62
     8
370
    15
100
AcDbPolyline
 90
        3
 70
   128
 43
0.0
 10
629.1598620999
 20
55.6869641291
 10
628.6662773054
 20
55.4351381931
 10
626.3925232409
 20
54.2752618691
  0
LWPOLYLINE
  5
19B
330
1F
100
AcDbEntity
  8
0
  6
Continuous
 62
     8
370
    15
100
AcDbPolyline
 90
        3
 70
   128
 43
0.0
 10
602.7022138966
 20
108.6285965817
 10
603.6703756778
 20
109.0390222179
 10
604.180555727
 20
109.2552595154
  0
SPLINE
  5
19C
330
1F
100
AcDbEntity
  8
0
  6
Continuous
 62
     8
370
    15
100
AcDbSpline
210
0.0
220
0.0
230
1.0
 70
     8
 71
     3
 72
    11
 73
     7
 74
     0
 42
0.00000001
 43
0.00000001
 12
1.0
 22
0.0
 32
0.0
 13
1.0
 23
0.0
 33
0.0
 40
0.0
 40
0.0
 40
0.0
 40
0.0
 40
0.2835227523786697
 40
0.5667788888047318
 40
0.8499302218874408
 40
1.0
 40
1.0
 40
1.0
 40
1.0
 10
604.180555726969
 20
109.2552595154402
 30
0.0
 10
604.2817822719805
 20
109.0542472669779
 30
0.0
 10
604.4841401717184
 20
108.6524117957017
 30
0.0
 10
604.7388213684025
 20
108.1134476114722
 30
0.0
 10
604.8960410124513
 20
107.7563621748496
 30
0.0
 10
604.9466198845349
 20
107.6215543129396
 30
0.0
 10
604.9641406375977
 20
107.5748562518298
 30
0.0
  0
LINE
  5
19D
330
1F
100
AcDbEntity
  8
0
  6
Continuous
 62
     8
370
    15
100
AcDbLine
 10
630.8776127046
 20
56.4879643909
 30
0.0
 11
629.1598620999
 21
55.6869641291
 31
0.0
  0
LINE
  5
19E
330
1F
100
AcDbEntity
  8
0
  6
Continuous
 62
     8
370
    15
100
AcDbLine
 10
605.8983063317
 20
110.0562597772
 30
0.0
 11
604.180555727
 21
109.2552595154
 31
0.0
  0
SPLINE
  5
19F
330
1F
100
AcDbEntity
  8
0
  6
Continuous
 62
     8
370
    15
100
AcDbSpline
210
0.0
220
0.0
230
1.0
 70
     8
 71
     3
 72
    11
 73
     7
 74
     0
 42
0.00000001
 43
0.00000001
 12
1.0
 22
0.0
 32
0.0
 13
1.0
 23
0.0
 33
0.0
 40
0.0
 40
0.0
 40
0.0
 40
0.0
 40
0.305206960731395
 40
0.6079701988238588
 40
0.8124395915611382
 40
1.0
 40
1.0
 40
1.0
 40
1.0
 10
598.5742108737519
 20
121.2781048519274
 30
0.0
 10
598.3447218760267
 20
121.7605052502108
 30
0.0
 10
597.8875813467266
 20
122.7214435766311
 30
0.0
 10
597.0704595134027
 20
123.8922795437945
 30
0.0
 10
596.1073600945319
 20
124.6884532899068
 30
0.0
 10
595.4313326544187
 20
124.8414571158574
 30
0.0
 10
595.1078981032618
 20
124.9146593571205
 30
0.0
  0
LINE
  5
1A0
330
1F
100
AcDbEntity
  8
0
  6
Continuous
 62
     8
370
    15
100
AcDbLine
 10
604.180555727
 20
109.2552595154
 30
0.0
 11
598.5742108738
 21
121.2781048519
 31
0.0
  0
LINE
  5
1A1
330
1F
100
AcDbEntity
  8
0
  6
Continuous
 62
     8
370
    15
100
AcDbLine
 10
600.2919614785
 20
122.0791051137
 30
0.0
 11
598.5742108738
 21
121.2781048519
 31
0.0
  0
SPLINE
  5
1A2
330
1F
100
AcDbEntity
  8
0
  6
Continuous
 62
     8
370
    15
100
AcDbSpline
210
0.0
220
0.0
230
1.0
 70
     8
 71
     3
 72
    11
 73
     7
 74
     0
 42
0.00000001
 43
0.00000001
 12
1.0
 22
0.0
 32
0.0
 13
1.0
 23
0.0
 33
0.0
 40
0.0
 40
0.0
 40
0.0
 40
0.0
 40
0.249976881450106
 40
0.4998058427201308
 40
0.7495361389842284
 40
1.0
 40
1.0
 40
1.0
 40
1.0
 10
643.7884565287577
 20
28.32622405482121
 30
0.0
 10
643.7631069597916
 20
28.31219313340844
 30
0.0
 10
643.7124228220977
 20
28.28413959317634
 30
0.0
 10
643.2976014966125
 20
28.15687531738055
 30
0.0
 10
642.6975702495972
 20
27.98647692802428
 30
0.0
 10
642.2106953201494
 20
27.85688754857188
 30
0.0
 10
641.9669008397733
 20
27.79199783354443
 30
0.0
  0
LINE
  5
1A3
330
1F
100
AcDbEntity
  8
0
  6
Continuous
 62
     8
370
    15
100
AcDbLine
 10
641.9669008398
 20
27.7919978335
 30
0.0
 11
641.1054808792
 21
30.0695019871
 31
0.0
  0
LINE
  5
1A4
330
1F
100
AcDbEntity
  8
0
  6
Continuous
 62
     8
370
    15
100
AcDbLine
 10
642.8232314839
 20
30.8705022489
 30
0.0
 11
641.1054808792
 21
30.0695019871
 31
0.0
  0
LINE
  5
1A5
330
1F
100
AcDbEntity
  8
0
  6
Continuous
 62
     8
370
    15
100
AcDbLine
 10
641.1054808792
 20
30.0695019871
 30
0.0
 11
629.1598620999
 21
55.6869641291
 31
0.0
  0
LINE
  5
1A6
330
1F
100
AcDbEntity
  8
0
  6
Continuous
 62
     8
370
    15
100
AcDbLine
 10
641.9669008398
 20
27.7919978335
 30
0.0
 11
639.3178821908
 21
26.556740151
 31
0.0
  0
SPLINE
  5
1A7
330
1F
100
AcDbEntity
  8
0
  6
Continuous
 62
     8
370
    15
100
AcDbSpline
210
0.0
220
0.0
230
1.0
 70
     8
 71
     3
 72
    11
 73
     7
 74
     0
 42
0.00000001
 43
0.00000001
 12
1.0
 22
0.0
 32
0.0
 13
1.0
 23
0.0
 33
0.0
 40
0.0
 40
0.0
 40
0.0
 40
0.0
 40
0.2440033155519314
 40
0.4919416665609699
 40
0.7439093003483729
 40
1.0
 40
1.0
 40
1.0
 40
1.0
 10
642.6017599961136
 20
26.48284402844281
 30
0.0
 10
642.5648175618726
 20
26.56586277645161
 30
0.0
 10
642.4903369236639
 20
26.73323911377257
 30
0.0
 10
642.3374408864508
 20
27.0540326445603
 30
0.0
 10
642.1615958552276
 20
27.41176816378291
 30
0.0
 10
642.0321493457155
 20
27.66457075068378
 30
0.0
 10
641.9669008397733
 20
27.79199783354441
 30
0.0
  0
LINE
  5
1A8
330
1F
100
AcDbEntity
  8
0
  6
Continuous
 62
     8
370
    15
100
AcDbLine
 10
642.6017599961
 20
26.4828440284
 30
0.0
 11
639.9841204248
 21
25.1279876475
 31
0.0
  0
SPLINE
  5
1A9
330
1F
100
AcDbEntity
  8
0
  6
Continuous
 62
     8
370
    15
100
AcDbSpline
210
0.0
220
0.0
230
1.0
 70
     8
 71
     3
 72
    11
 73
     7
 74
     0
 42
0.00000001
 43
0.00000001
 12
1.0
 22
0.0
 32
0.0
 13
1.0
 23
0.0
 33
0.0
 40
0.0
 40
0.0
 40
0.0
 40
0.0
 40
0.2501480011265423
 40
0.5002880311524572
 40
0.7504202668475133
 40
1.0
 40
1.0
 40
1.0
 40
1.0
 10
643.7884565287577
 20
28.32622405482121
 30
0.0
 10
643.8101097718758
 20
28.15239394137857
 30
0.0
 10
643.8534155681195
 20
27.80473925368333
 30
0.0
 10
643.6212768556528
 20
27.27195829534983
 30
0.0
 10
643.2042967809133
 20
26.79683923648339
 30
0.0
 10
642.8024574942488
 20
26.58743192128182
 30
0.0
 10
642.6017599961136
 20
26.48284402844281
 30
0.0
  0
SPLINE
  5
1AA
330
1F
100
AcDbEntity
  8
0
  6
Continuous
 62
     8
370
    15
100
AcDbSpline
210
0.0
220
0.0
230
1.0
 70
     8
 71
     3
 72
    14
 73
    10
 74
     0
 42
0.00000001
 43
0.00000001
 12
1.0
 22
0.0
 32
0.0
 13
1.0
 23
0.0
 33
0.0
 40
0.0
 40
0.0
 40
0.0
 40
0.0
 40
0.0024045749465515
 40
0.0051901321609208
 40
0.0347267574258736
 40
0.2932094380103028
 40
0.5746449636639267
 40
0.7844996086191881
 40
1.0
 40
1.0
 40
1.0
 40
1.0
 10
641.7686872473342
 20
22.48407253807924
 30
0.0
 10
641.770557177194
 20
22.48507094407619
 30
0.0
 10
641.7745933096996
 20
22.48722594410307
 30
0.0
 10
641.8015566912358
 20
22.5018934282471
 30
0.0
 10
642.0255550063458
 20
22.63510478272668
 30
0.0
 10
642.4361051558191
 20
23.07934627880207
 30
0.0
 10
642.8452337140347
 20
24.06947115056535
 30
0.0
 10
642.9135318637138
 20
25.22706905622896
 30
0.0
 10
642.7065994912376
 20
26.06056470256986
 30
0.0
 10
642.6017599961136
 20
26.48284402844281
 30
0.0
  0
LINE
  5
1AB
330
1F
100
AcDbEntity
  8
0
  6
Continuous
 62
     8
370
    15
100
AcDbLine
 10
514.386510527
 20
215.9550755456
 30
0.0
 11
514.386510527
 21
245.9550755456
 31
0.0
  0
LINE
  5
1AC
330
1F
100
AcDbEntity
  8
0
  6
Continuous
 62
     8
370
    15
100
AcDbLine
 10
-179.113489473
 20
215.9550755456
 30
0.0
 11
514.386510527
 21
215.9550755456
 31
0.0
  0
LINE
  5
1AD
330
1F
100
AcDbEntity
  8
0
  6
Continuous
 62
     8
370
    15
100
AcDbLine
 10
-179.113489473
 20
415.9550755456
 30
0.0
 11
-179.113489473
 21
215.9550755456
 31
0.0
  0
LINE
  5
1AE
330
1F
100
AcDbEntity
  8
0
  6
Continuous
 62
     8
370
    15
100
AcDbLine
 10
-253.363489473
 20
212.4550755456
 30
0.0
 11
-253.363489473
 21
210.4550755456
 31
0.0
  0
LINE
  5
1AF
330
1F
100
AcDbEntity
  8
0
  6
Continuous
 62
     8
370
    15
100
AcDbLine
 10
625.0146382012
 20
165.2662995147
 30
0.0
 11
626.8272537752
 21
164.4210629913
 31
0.0
  0
LINE
  5
1B0
330
1F
100
AcDbEntity
  8
0
  6
Continuous
 62
     8
370
    15
100
AcDbLine
 10
641.2653482002
 20
195.3836564047
 30
0.0
 11
639.4527326262
 21
196.2288929281
 31
0.0
  0
LINE
  5
1B1
330
1F
100
AcDbEntity
  8
0
  6
Continuous
 62
     8
370
    15
100
AcDbLine
 10
-255.613489473
 20
226.2050755456
 30
0.0
 11
-257.613489473
 21
226.2050755456
 31
0.0
  0
LINE
  5
1B2
330
1F
100
AcDbEntity
  8
0
  6
Continuous
 62
     8
370
    15
100
AcDbLine
 10
-257.613489473
 20
214.7050755456
 30
0.0
 11
-255.613489473
 21
214.7050755456
 31
0.0
  0
LINE
  5
1B3
330
1F
100
AcDbEntity
  8
0
  6
Continuous
 62
     8
370
    15
100
AcDbLine
 10
-186.863489473
 20
228.4550755456
 30
0.0
 11
-186.863489473
 21
230.4550755456
 31
0.0
  0
LINE
  5
1B4
330
1F
100
AcDbEntity
  8
0
  6
Continuous
 62
     8
370
    15
100
AcDbLine
 10
-253.363489473
 20
230.4550755456
 30
0.0
 11
-253.363489473
 21
228.4550755456
 31
0.0
  0
LINE
  5
1B5
330
1F
100
AcDbEntity
  8
0
  6
Continuous
 62
     8
370
    15
100
AcDbLine
 10
-184.613489473
 20
214.7050755456
 30
0.0
 11
-182.613489473
 21
214.7050755456
 31
0.0
  0
LINE
  5
1B6
330
1F
100
AcDbEntity
  8
0
  6
Continuous
 62
     8
370
    15
100
AcDbLine
 10
-182.613489473
 20
226.2050755456
 30
0.0
 11
-184.613489473
 21
226.2050755456
 31
0.0
  0
LINE
  5
1B7
330
1F
100
AcDbEntity
  8
0
  6
Continuous
 62
     8
370
    15
100
AcDbLine
 10
-180.363489473
 20
212.4550755456
 30
0.0
 11
-180.363489473
 21
210.4550755456
 31
0.0
  0
LINE
  5
1B8
330
1F
100
AcDbEntity
  8
0
  6
Continuous
 62
     8
370
    15
100
AcDbLine
 10
630.3896547558
 20
210.4550755456
 30
0.0
 11
630.3896547558
 21
212.4550755456
 31
0.0
  0
LINE
  5
1B9
330
1F
100
AcDbEntity
  8
0
  6
Continuous
 62
     8
370
    15
100
AcDbLine
 10
621.0229794717
 20
158.6167886877
 30
0.0
 11
620.1777429482
 21
160.4294042618
 31
0.0
  0
LINE
  5
1BA
330
1F
100
AcDbEntity
  8
0
  6
Continuous
 62
     8
370
    15
100
AcDbLine
 10
641.4337006735
 20
12.8907983188
 30
0.0
 11
640.7086544439
 21
13.2288929282
 31
0.0
  0
LINE
  5
1BB
330
1F
100
AcDbEntity
  8
0
  6
Continuous
 62
     8
370
    15
100
AcDbLine
 10
640.7086544439
 20
21.681258163
 30
0.0
 11
641.4337006735
 21
22.0193527724
 31
0.0
  0
LINE
  5
1BC
330
1F
100
AcDbEntity
  8
0
  6
Continuous
 62
     8
370
    15
100
AcDbLine
 10
585.5268310474
 20
141.9120215897
 30
0.0
 11
584.8017848177
 21
141.5739269803
 31
0.0
  0
LINE
  5
1BD
330
1F
100
AcDbEntity
  8
0
  6
Continuous
 62
     8
370
    15
100
AcDbLine
 10
585.7933483446
 20
144.2982253803
 30
0.0
 11
586.131442954
 21
143.5731791506
 31
0.0
  0
LINE
  5
1BE
330
1F
100
AcDbEntity
  8
0
  6
Continuous
 62
     8
370
    15
100
AcDbLine
 10
598.7744365831
 20
149.4687039019
 30
0.0
 11
598.4363419737
 21
150.1937501315
 31
0.0
  0
LINE
  5
1BF
330
1F
100
AcDbEntity
  8
0
  6
Continuous
 62
     8
370
    15
100
AcDbLine
 10
611.034778083
 20
-37.5449244544
 30
0.0
 11
611.034778083
 21
-36.7449244544
 31
0.0
  0
LINE
  5
1C0
330
1F
100
AcDbEntity
  8
0
  6
Continuous
 62
     8
370
    15
100
AcDbLine
 10
620.0978559534
 20
-30.9711070718
 30
0.0
 11
620.822902183
 21
-31.3092016812
 31
0.0
  0
LINE
  5
1C1
330
1F
100
AcDbEntity
  8
0
  6
Continuous
 62
     8
370
    15
100
AcDbLine
 10
552.4054806911
 20
-36.7449244544
 30
0.0
 11
552.4054806911
 21
-37.5449244544
 31
0.0
  0
LINE
  5
1C2
330
1F
100
AcDbEntity
  8
0
  6
Continuous
 62
     8
370
    15
100
AcDbLine
 10
429.7713092524
 20
-96.7449244545
 30
0.0
 11
-85.9097851219
 21
-96.7449244545
 31
0.0
  0
LINE
  5
1C3
330
1F
100
AcDbEntity
  8
0
  6
Continuous
 62
     8
370
    15
100
AcDbLine
 10
557.4600513872
 20
-55.2949244545
 30
0.0
 11
493.3307620653
 21
-55.2949244545
 31
0.0
  0
SPLINE
  5
1C4
330
1F
100
AcDbEntity
  8
0
  6
Continuous
 62
     8
370
    15
100
AcDbSpline
210
0.0
220
0.0
230
1.0
 70
     8
 71
     3
 72
     9
 73
     5
 74
     0
 42
0.00000001
 43
0.00000001
 12
1.0
 22
0.0
 32
0.0
 13
1.0
 23
0.0
 33
0.0
 40
0.0
 40
0.0
 40
0.0
 40
0.0
 40
0.520974465233544
 40
1.0
 40
1.0
 40
1.0
 40
1.0
 10
626.5674067415215
 20
111.5678461938245
 30
0.0
 10
626.488161162347
 20
111.8042602936941
 30
0.0
 10
626.3360508681526
 20
112.2580523999225
 30
0.0
 10
626.5553856717256
 20
112.6621512990686
 30
0.0
 10
626.6604526433
 20
112.8557249903305
 30
0.0
  0
LINE
  5
1C5
330
1F
100
AcDbEntity
  8
0
  6
Continuous
 62
     8
370
    15
100
AcDbLine
 10
645.6642238456
 20
70.6145897545
 30
0.0
 11
626.5674067415
 21
111.5678461938
 31
0.0
  0
SPLINE
  5
1C6
330
1F
100
AcDbEntity
  8
0
  6
Continuous
 62
     8
370
    15
100
AcDbSpline
210
0.0
220
0.0
230
1.0
 70
     8
 71
     3
 72
     9
 73
     5
 74
     0
 42
0.00000001
 43
0.00000001
 12
1.0
 22
0.0
 32
0.0
 13
1.0
 23
0.0
 33
0.0
 40
0.0
 40
0.0
 40
0.0
 40
0.0
 40
0.4790255347664641
 40
1.0
 40
1.0
 40
1.0
 40
1.0
 10
646.6909459255456
 20
69.90019352533568
 30
0.0
 10
646.4782870504281
 20
69.93735141581283
 30
0.0
 10
646.0343464675502
 20
70.01492116477252
 30
0.0
 10
645.7910007504149
 20
70.40918721159755
 30
0.0
 10
645.6642238455636
 20
70.61458975450194
 30
0.0
  0
ARC
  5
1C7
330
1F
100
AcDbEntity
  8
0
  6
Continuous
 62
     8
370
    15
100
AcDbCircle
 10
645.1558866127
 20
71.2577562073
 30
0.0
 40
0.8197986511061606
100
AcDbArc
 50
308.3216636313
 51
20.7134442481
  0
ARC
  5
1C8
330
1F
100
AcDbEntity
  8
0
  6
Continuous
 62
     8
370
    15
100
AcDbCircle
 10
626.7400401084
 20
110.7776626056
 30
0.0
 40
0.8088216010869878
100
AcDbArc
 50
29.7047296374
 51
102.3239117146
  0
SPLINE
  5
1C9
330
1F
100
AcDbEntity
  8
0
  6
Continuous
 62
     8
370
    15
100
AcDbSpline
210
0.0
220
0.0
230
1.0
 70
     8
 71
     3
 72
     9
 73
     5
 74
     0
 42
0.00000001
 43
0.00000001
 12
1.0
 22
0.0
 32
0.0
 13
1.0
 23
0.0
 33
0.0
 40
0.0
 40
0.0
 40
0.0
 40
0.0
 40
0.4684410573251904
 40
1.0
 40
1.0
 40
1.0
 40
1.0
 10
627.4900707980273
 20
112.1572716843306
 30
0.0
 10
627.4139887066757
 20
112.0206645980899
 30
0.0
 10
627.2515732006862
 20
111.729043946773
 30
0.0
 10
627.376283880947
 20
111.3695503234622
 30
0.0
 10
627.4425749582869
 20
111.1784582731567
 30
0.0
  0
SPLINE
  5
1CA
330
1F
100
AcDbEntity
  8
0
  6
Continuous
 62
     8
370
    15
100
AcDbSpline
210
0.0
220
0.0
230
1.0
 70
     8
 71
     3
 72
     9
 73
     5
 74
     0
 42
0.00000001
 43
0.00000001
 12
1.0
 22
0.0
 32
0.0
 13
1.0
 23
0.0
 33
0.0
 40
0.0
 40
0.0
 40
0.0
 40
0.0
 40
0.5315589426747899
 40
0.9999999999999999
 40
0.9999999999999999
 40
0.9999999999999999
 40
0.9999999999999999
 10
645.9226943507967
 20
71.54771434407728
 30
0.0
 10
646.024103737614
 20
71.37917158842528
 30
0.0
 10
646.2148810506756
 20
71.0620990267185
 30
0.0
 10
646.5378980385907
 20
71.0093086886017
 30
0.0
 10
646.6892124579438
 20
70.98457952679772
 30
0.0
  0
SPLINE
  5
1CB
330
1F
100
AcDbEntity
  8
0
  6
Continuous
 62
     8
370
    15
100
AcDbSpline
210
0.0
220
0.0
230
1.0
 70
     8
 71
     3
 72
    11
 73
     7
 74
     0
 42
0.00000001
 43
0.00000001
 12
1.0
 22
0.0
 32
0.0
 13
1.0
 23
0.0
 33
0.0
 40
0.0
 40
0.0
 40
0.0
 40
0.0
 40
0.365828110989447
 40
0.7252591430831368
 40
0.9820690181776717
 40
1.0
 40
1.0
 40
1.0
 40
1.0
 10
629.9745023981307
 20
112.7234393704155
 30
0.0
 10
629.5947781804132
 20
112.7307250920987
 30
0.0
 10
628.8419698191179
 20
112.7451691331826
 30
0.0
 10
627.988646672542
 20
112.5401133223204
 30
0.0
 10
627.610068141903
 20
112.2954645307261
 30
0.0
 10
627.4974226163677
 20
112.1657382775886
 30
0.0
 10
627.4900707980273
 20
112.1572716843306
 30
0.0
  0
LINE
  5
1CC
330
1F
100
AcDbEntity
  8
0
  6
Continuous
 62
     8
370
    15
100
AcDbLine
 10
629.9745023981
 20
112.7234393704
 30
0.0
 11
648.7023526855
 21
72.561434823
 31
0.0
  0
SPLINE
  5
1CD
330
1F
100
AcDbEntity
  8
0
  6
Continuous
 62
     8
370
    15
100
AcDbSpline
210
0.0
220
0.0
230
1.0
 70
     8
 71
     3
 72
    11
 73
     7
 74
     0
 42
0.00000001
 43
0.00000001
 12
1.0
 22
0.0
 32
0.0
 13
1.0
 23
0.0
 33
0.0
 40
0.0
 40
0.0
 40
0.0
 40
0.0
 40
0.2357948537758583
 40
0.2749019968044732
 40
0.6342531696138359
 40
1.0
 40
1.0
 40
1.0
 40
1.0
 10
646.6892124579438
 20
70.98457952679772
 30
0.0
 10
646.8404664183167
 20
71.00995925562428
 30
0.0
 10
647.0168062114262
 20
71.03954827345503
 30
0.0
 10
647.4484523724587
 20
71.25711703399645
 30
0.0
 10
647.9949150939051
 20
71.67252156938956
 30
0.0
 10
648.465157578655
 20
72.26339316299143
 30
0.0
 10
648.7023526854574
 20
72.56143482297769
 30
0.0
  0
LINE
  5
1CE
330
1F
100
AcDbEntity
  8
0
  6
Continuous
 62
     8
370
    15
100
AcDbLine
 10
647.3469547311
 20
114.4222137311
 30
0.0
 11
645.8667229916
 21
117.5965809403
 31
0.0
  0
LINE
  5
1CF
330
1F
100
AcDbEntity
  8
0
  6
Continuous
 62
     8
370
    15
100
AcDbLine
 10
629.8426642351
 20
113.9358768608
 30
0.0
 11
647.3469547311
 21
114.4222137311
 31
0.0
  0
SPLINE
  5
1D0
330
1F
100
AcDbEntity
  8
0
  6
Continuous
 62
     8
370
    15
100
AcDbSpline
210
0.0
220
0.0
230
1.0
 70
     8
 71
     3
 72
    10
 73
     6
 74
     0
 42
0.00000001
 43
0.00000001
 12
1.0
 22
0.0
 32
0.0
 13
1.0
 23
0.0
 33
0.0
 40
0.0
 40
0.0
 40
0.0
 40
0.0
 40
0.2857669779336595
 40
0.6445560549562744
 40
1.0
 40
1.0
 40
1.0
 40
1.0
 10
626.6841732655062
 20
112.8357542590407
 30
0.0
 10
626.8620851637445
 20
113.0111915839244
 30
0.0
 10
627.2633708269358
 20
113.4068957721297
 30
0.0
 10
628.3921057827655
 20
113.803181773937
 30
0.0
 10
629.3606568303974
 20
113.8917834880916
 30
0.0
 10
629.8426642351383
 20
113.9358768607637
 30
0.0
  0
ARC
  5
1D1
330
1F
100
AcDbEntity
  8
0
  6
Continuous
 62
     8
370
    15
100
AcDbCircle
 10
625.8386897226
 20
112.8871055722
 30
0.0
 40
4.139049783822563
100
AcDbArc
 50
357.7338209204
 51
14.6778835264
  0
LINE
  5
1D2
330
1F
100
AcDbEntity
  8
0
  6
Continuous
 62
     8
370
    15
100
AcDbLine
 10
661.1407896625
 20
84.8412392603
 30
0.0
 11
649.5416316973
 21
71.6913048112
 31
0.0
  0
LINE
  5
1D3
330
1F
100
AcDbEntity
  8
0
  6
Continuous
 62
     8
370
    15
100
AcDbLine
 10
662.5408639594
 20
81.8387702413
 30
0.0
 11
661.1407896625
 21
84.8412392603
 31
0.0
  0
SPLINE
  5
1D4
330
1F
100
AcDbEntity
  8
0
  6
Continuous
 62
     8
370
    15
100
AcDbSpline
210
0.0
220
0.0
230
1.0
 70
     8
 71
     3
 72
    10
 73
     6
 74
     0
 42
0.00000001
 43
0.00000001
 12
1.0
 22
0.0
 32
0.0
 13
1.0
 23
0.0
 33
0.0
 40
0.0
 40
0.0
 40
0.0
 40
0.0
 40
0.3554439450437202
 40
0.7142330220663344
 40
1.0
 40
1.0
 40
1.0
 40
1.0
 10
649.5416316973343
 20
71.69130481119274
 30
0.0
 10
649.1992699712285
 20
71.3477403142681
 30
0.0
 10
648.5113245056046
 20
70.6573779875642
 30
0.0
 10
647.4906625388213
 20
70.02932871282687
 30
0.0
 10
646.9367751485062
 20
69.96087998452003
 30
0.0
 10
646.6912065522162
 20
69.93053291682709
 30
0.0
  0
ARC
  5
1D5
330
1F
100
AcDbEntity
  8
0
  6
Continuous
 62
     8
370
    15
100
AcDbCircle
 10
646.0956109433
 20
69.2072907955
 30
0.0
 40
4.247985954195088
100
AcDbArc
 50
35.7854009351
 51
52.1467028705
  0
LINE
  5
1D6
330
1F
100
AcDbEntity
  8
0
  6
Continuous
 62
     8
370
    15
100
AcDbLine
 10
647.4165394107
 20
113.3432792665
 30
0.0
 11
629.9745023981
 21
112.7234393704
 31
0.0
  0
ARC
  5
1D7
330
1F
100
AcDbEntity
  8
0
  6
Continuous
 62
     8
370
    15
100
AcDbCircle
 10
641.9042210545
 20
113.5294795435
 30
0.0
 40
5.515462283798569
100
AcDbArc
 50
358.0653448407
 51
9.314889181
  0
LINE
  5
1D8
330
1F
100
AcDbEntity
  8
0
  6
Continuous
 62
     8
370
    15
100
AcDbLine
 10
660.3635827859
 20
85.5782551484
 30
0.0
 11
647.4165394107
 21
113.3432792665
 31
0.0
  0
LINE
  5
1D9
330
1F
100
AcDbEntity
  8
0
  6
Continuous
 62
     8
370
    15
100
AcDbLine
 10
648.7023526855
 20
72.561434823
 30
0.0
 11
660.3635827859
 21
85.5782551484
 31
0.0
  0
ARC
  5
1DA
330
1F
100
AcDbEntity
  8
0
  6
Continuous
 62
     8
370
    15
100
AcDbCircle
 10
656.7794198589
 20
81.0203377384
 30
0.0
 40
5.798347609766467
100
AcDbArc
 50
41.220898655
 51
51.8199134802
  0
ARC
  5
1DB
330
1F
100
AcDbEntity
  8
0
  6
Continuous
 62
     8
370
    15
100
AcDbCircle
 10
647.1413076192
 20
114.4663003666
 30
0.0
 40
1.156256429271985
100
AcDbArc
 50
283.770710397
 51
335.9219533053
  0
ARC
  5
1DC
330
1F
100
AcDbEntity
  8
0
  6
Continuous
 62
     8
370
    15
100
AcDbCircle
 10
647.4662528035
 20
113.6007606738
 30
0.0
 40
0.830070572512309
100
AcDbArc
 50
28.3221683591
 51
98.2631872494
  0
ARC
  5
1DD
330
1F
100
AcDbEntity
  8
0
  6
Continuous
 62
     8
370
    15
100
AcDbCircle
 10
661.0808372475
 20
84.5799668421
 30
0.0
 40
1.229241028119314
100
AcDbArc
 50
77.1422468389
 51
125.6966517348
  0
ARC
  5
1DE
330
1F
100
AcDbEntity
  8
0
  6
Continuous
 62
     8
370
    15
100
AcDbCircle
 10
660.574219732
 20
85.4632843545
 30
0.0
 40
0.8413926464008119
100
AcDbArc
 50
312.3278245616
 51
21.9933703374
  0
LINE
  5
1DF
330
1F
100
AcDbEntity
  8
0
  6
Continuous
 62
     8
370
    15
100
AcDbLine
 10
627.2054507724
 20
88.0249568994
 30
0.0
 11
625.3957909877
 21
87.1733816651
 31
0.0
  0
LINE
  5
1E0
330
1F
100
AcDbEntity
  8
0
  6
Continuous
 62
     8
370
    15
100
AcDbLine
 10
627.888130211
 20
86.5609461188
 30
0.0
 11
626.0753386642
 21
85.7160869699
 31
0.0
  0
LINE
  5
1E1
330
1F
100
AcDbEntity
  8
0
  6
Continuous
 62
     8
370
    15
100
AcDbLine
 10
630.0944423202
 20
81.8294945317
 30
0.0
 11
628.2715294132
 21
81.00634071
 31
0.0
  0
LINE
  5
1E2
330
1F
100
AcDbEntity
  8
0
  6
Continuous
 62
     8
370
    15
100
AcDbLine
 10
629.8259732789
 20
82.4052282486
 30
0.0
 11
628.0205816125
 21
81.5445000052
 31
0.0
  0
LINE
  5
1E3
330
1F
100
AcDbEntity
  8
0
  6
Continuous
 62
     8
370
    15
100
AcDbLine
 10
630.5356670577
 20
80.8832850286
 30
0.0
 11
628.7107300515
 21
80.0644719016
 31
0.0
  0
LINE
  5
1E4
330
1F
100
AcDbEntity
  8
0
  6
Continuous
 62
     8
370
    15
100
AcDbLine
 10
588.4426331393
 20
139.2083661995
 30
0.0
 11
587.0831714587
 21
138.5744388069
 31
0.0
  0
LINE
  5
1E5
330
1F
100
AcDbEntity
  8
0
  6
Continuous
 62
     8
370
    15
100
AcDbLine
 10
622.4774508795
 20
62.6711616425
 30
0.0
 11
623.83691256
 21
63.3050890351
 31
0.0
  0
LINE
  5
1E6
330
1F
100
AcDbEntity
  8
0
  6
Continuous
 62
     8
370
    15
100
AcDbLine
 10
588.4133176533
 20
142.228985441
 30
0.0
 11
589.0472450459
 21
140.8695237604
 31
0.0
  0
LINE
  5
1E7
330
1F
100
AcDbEntity
  8
0
  6
Continuous
 62
     8
370
    15
100
AcDbLine
 10
613.019086013
 20
152.0477767835
 30
0.0
 11
612.3851586204
 21
153.407238464
 31
0.0
  0
LINE
  5
1E8
330
1F
100
AcDbEntity
  8
0
  6
Continuous
 62
     8
370
    15
100
AcDbLine
 10
622.649651371
 20
134.471024783
 30
0.0
 11
624.0091130515
 21
135.1049521756
 31
0.0
  0
LINE
  5
1E9
330
1F
100
AcDbEntity
  8
0
  6
Continuous
 62
     8
370
    15
100
AcDbLine
 10
616.106151557
 20
152.0529077932
 30
0.0
 11
614.7466898764
 21
151.4189804006
 31
0.0
  0
LINE
  5
1EA
330
1F
100
AcDbEntity
  8
0
  6
Continuous
 62
     8
370
    15
100
AcDbLine
 10
-89.0692379347
 20
-133.9449244545
 30
0.0
 11
-146.0692379347
 21
-133.9449244545
 31
0.0
  0
LINE
  5
1EB
330
1F
100
AcDbEntity
  8
0
  6
Continuous
 62
     8
370
    15
100
AcDbLine
 10
489.9307620653
 20
-133.9449244545
 30
0.0
 11
432.9307620653
 21
-133.9449244545
 31
0.0
  0
LINE
  5
1EC
330
1F
100
AcDbEntity
  8
0
  6
Continuous
 62
     8
370
    15
100
AcDbLine
 10
-85.6692379347
 20
-39.4449244545
 30
0.0
 11
-149.4692379347
 21
-39.4449244545
 31
0.0
  0
LINE
  5
1ED
330
1F
100
AcDbEntity
  8
0
  6
Continuous
 62
     8
370
    15
100
AcDbLine
 10
-85.7331511617
 20
-95.6848217333
 30
0.0
 11
-149.4053247077
 21
-95.6848217333
 31
0.0
  0
LINE
  5
1EE
330
1F
100
AcDbEntity
  8
0
  6
Continuous
 62
     8
370
    15
100
AcDbLine
 10
-85.6692379347
 20
-94.9123585088
 30
0.0
 11
-149.4692379347
 21
-94.9123585088
 31
0.0
  0
LINE
  5
1EF
330
1F
100
AcDbEntity
  8
0
  6
Continuous
 62
     8
370
    15
100
AcDbLine
 10
493.3307620653
 20
-39.4449244545
 30
0.0
 11
429.5307620653
 21
-39.4449244545
 31
0.0
  0
LINE
  5
1F0
330
1F
100
AcDbEntity
  8
0
  6
Continuous
 62
     8
370
    15
100
AcDbLine
 10
493.2668488383
 20
-95.6848217333
 30
0.0
 11
429.5946752923
 21
-95.6848217333
 31
0.0
  0
LINE
  5
1F1
330
1F
100
AcDbEntity
  8
0
  6
Continuous
 62
     8
370
    15
100
AcDbLine
 10
493.3307620653
 20
-94.9123585088
 30
0.0
 11
429.5307620653
 21
-94.9123585088
 31
0.0
  0
LINE
  5
1F2
330
1F
100
AcDbEntity
  8
0
  6
Continuous
 62
     8
370
    15
100
AcDbLine
 10
607.9381391006
 20
134.7861037603
 30
0.0
 11
606.6204739411
 21
137.6118458139
 31
0.0
  0
LINE
  5
1F3
330
1F
100
AcDbEntity
  8
0
  6
Continuous
 62
     8
370
    15
100
AcDbLine
 10
611.1847511679
 20
127.8237217139
 30
0.0
 11
607.9381391006
 21
134.7861037603
 31
0.0
  0
LINE
  5
1F4
330
1F
100
AcDbEntity
  8
0
  6
Continuous
 62
     8
370
    15
100
AcDbLine
 10
619.1902708197
 20
162.4807792687
 30
0.0
 11
620.1523616718
 21
160.4175687782
 31
0.0
  0
LINE
  5
1F5
330
1F
100
AcDbEntity
  8
0
  6
Continuous
 62
     8
370
    15
100
AcDbLine
 10
580.8514845402
 20
144.6031096223
 30
0.0
 11
619.1902708197
 21
162.4807792687
 31
0.0
  0
LINE
  5
1F6
330
1F
100
AcDbEntity
  8
0
  6
Continuous
 62
     8
370
    15
100
AcDbLine
 10
640.7086544439
 20
21.681258163
 30
0.0
 11
638.6241465337
 21
20.709236161
 31
0.0
  0
LINE
  5
1F7
330
1F
100
AcDbEntity
  8
0
  6
Continuous
 62
     8
370
    15
100
AcDbLine
 10
638.6241465337
 20
20.709236161
 30
0.0
 11
580.8514845402
 21
144.6031096223
 31
0.0
  0
LINE
  5
1F8
330
1F
100
AcDbEntity
  8
0
  6
Continuous
 62
     8
370
    15
100
AcDbLine
 10
638.6241465337
 20
14.2009149302
 30
0.0
 11
640.7086544439
 21
13.2288929282
 31
0.0
  0
ARC
  5
1F9
330
1F
100
AcDbEntity
  8
0
  6
Continuous
 62
     8
370
    15
100
AcDbCircle
 10
631.6455765735
 20
17.4550755456
 30
0.0
 40
7.699999999999645
100
AcDbArc
 50
335.0
 51
25.0
  0
LINE
  5
1FA
330
1F
100
AcDbEntity
  8
0
  6
Continuous
 62
     8
370
    15
100
AcDbLine
 10
630.3896547558
 20
210.4550755456
 30
0.0
 11
630.3896547558
 21
208.1550755456
 31
0.0
  0
LINE
  5
1FB
330
1F
100
AcDbEntity
  8
0
  6
Continuous
 62
     8
370
    15
100
AcDbLine
 10
630.3896547558
 20
208.1550755456
 30
0.0
 11
-255.2575676542
 21
208.1550755456
 31
0.0
  0
LINE
  5
1FC
330
1F
100
AcDbEntity
  8
0
  6
Continuous
 62
     8
370
    15
100
AcDbLine
 10
-255.2575676542
 20
208.1550755456
 30
0.0
 11
-255.2575676542
 21
-34.4449244544
 31
0.0
  0
LINE
  5
1FD
330
1F
100
AcDbEntity
  8
0
  6
Continuous
 62
     8
370
    15
100
AcDbLine
 10
637.368224716
 20
197.2009149302
 30
0.0
 11
639.4527326262
 21
196.2288929282
 31
0.0
  0
ARC
  5
1FE
330
1F
100
AcDbEntity
  8
0
  6
Continuous
 62
     8
370
    15
100
AcDbCircle
 10
630.3896547558
 20
200.4550755456
 30
0.0
 40
7.699999999999704
100
AcDbArc
 50
335.0
 51
90.0
  0
CIRCLE
  5
1FF
330
1F
100
AcDbEntity
  8
0
  6
Continuous
 62
     8
370
    15
100
AcDbCircle
 10
209.9896547558
 20
190.4550755456
 30
0.0
 40
4.699999999999989
  0
LINE
  5
200
330
1F
100
AcDbEntity
  8
0
  6
Continuous
 62
     8
370
    15
100
AcDbLine
 10
611.034778083
 20
-34.4449244544
 30
0.0
 11
611.034778083
 21
-36.7449244544
 31
0.0
  0
ARC
  5
201
330
1F
100
AcDbEntity
  8
0
  6
Continuous
 62
     8
370
    15
100
AcDbCircle
 10
611.034778083
 20
-26.7449244544
 30
0.0
 40
7.699999999999851
100
AcDbArc
 50
270.0
 51
335.0
  0
LINE
  5
202
330
1F
100
AcDbEntity
  8
0
  6
Continuous
 62
     8
370
    15
100
AcDbLine
 10
620.0978559534
 20
-30.9711070718
 30
0.0
 11
618.0133480432
 21
-29.9990850698
 31
0.0
  0
ARC
  5
203
330
1F
100
AcDbEntity
  8
0
  6
Continuous
 62
     8
370
    15
100
AcDbCircle
 10
615.9361102043
 20
169.4593492289
 30
0.0
 40
7.700000000000203
100
AcDbArc
 50
295.0
 51
335.0
  0
LINE
  5
204
330
1F
100
AcDbEntity
  8
0
  6
Continuous
 62
     8
370
    15
100
AcDbLine
 10
624.9991880746
 20
165.2331666115
 30
0.0
 11
622.9146801645
 21
166.2051886135
 31
0.0
  0
CIRCLE
  5
205
330
1F
100
AcDbEntity
  8
0
  6
Continuous
 62
     8
370
    15
100
AcDbCircle
 10
589.9896547558
 20
190.4550755456
 30
0.0
 40
4.699999999999989
  0
LINE
  5
206
330
1F
100
AcDbEntity
  8
0
  6
Continuous
 62
     8
370
    15
100
AcDbLine
 10
-255.2575676542
 20
-34.4449244544
 30
0.0
 11
611.034778083
 21
-34.4449244544
 31
0.0
  0
LINE
  5
207
330
1F
100
AcDbEntity
  8
0
  6
Continuous
 62
     8
370
    15
100
AcDbLine
 10
618.0133480432
 20
-29.9990850698
 30
0.0
 11
638.6241465337
 21
14.2009149302
 31
0.0
  0
CIRCLE
  5
208
330
1F
100
AcDbEntity
  8
0
  6
Continuous
 62
     8
370
    15
100
AcDbCircle
 10
-180.0103452442
 20
190.4550755456
 30
0.0
 40
4.699999999999989
  0
LINE
  5
209
330
1F
100
AcDbEntity
  8
0
  6
Continuous
 62
     8
370
    15
100
AcDbLine
 10
622.9146801645
 20
166.2051886135
 30
0.0
 11
637.368224716
 21
197.2009149302
 31
0.0
  0
ENDSEC
  0
SECTION
  2
OBJECTS
  0
DICTIONARY
  5
C
330
0
100
AcDbDictionary
281
     1
  3
ACAD_GROUP
350
D
  3
ACAD_LAYOUT
350
1A
  3
ACAD_MLINESTYLE
350
17
  3
ACAD_PLOTSETTINGS
350
19
  3
ACAD_PLOTSTYLENAME
350
E
  0
DICTIONARY
  5
D
102
{ACAD_REACTORS
330
C
102
}
330
C
100
AcDbDictionary
281
     1
  0
DICTIONARY
  5
1A
102
{ACAD_REACTORS
330
C
102
}
330
C
100
AcDbDictionary
281
     1
  3
Layout1
350
1E
  3
Layout2
350
26
  3
Model
350
22
  0
DICTIONARY
  5
17
102
{ACAD_REACTORS
330
C
102
}
330
C
100
AcDbDictionary
281
     1
  3
Standard
350
18
  0
DICTIONARY
  5
19
102
{ACAD_REACTORS
330
C
102
}
330
C
100
AcDbDictionary
281
     1
  0
ACDBDICTIONARYWDFLT
  5
E
102
{ACAD_REACTORS
330
C
102
}
330
C
100
AcDbDictionary
281
     1
  3
Normal
350
F
100
AcDbDictionaryWithDefault
340
F
  0
LAYOUT
  5
1E
102
{ACAD_REACTORS
330
1A
102
}
330
1A
100
AcDbPlotSettings
  1

  2
none_device
  4

  6

 40
0.0
 41
0.0
 42
0.0
 43
0.0
 44
0.0
 45
0.0
 46
0.0
 47
0.0
 48
0.0
 49
0.0
140
0.0
141
0.0
142
1.0
143
1.0
 70
   688
 72
     0
 73
     0
 74
     5
  7

 75
    16
147
1.0
148
0.0
149
0.0
100
AcDbLayout
  1
Layout1
 70
     1
 71
     1
 10
0.0
 20
0.0
 11
420.0
 21
297.0
 12
0.0
 22
0.0
 32
0.0
 14
1.0000000000E+20
 24
1.0000000000E+20
 34
1.0000000000E+20
 15
-1.0000000000E+20
 25
-1.0000000000E+20
 35
-1.0000000000E+20
146
0.0
 13
0.0
 23
0.0
 33
0.0
 16
1.0
 26
0.0
 36
0.0
 17
0.0
 27
1.0
 37
0.0
 76
     0
330
1B
  0
LAYOUT
  5
26
102
{ACAD_REACTORS
330
1A
102
}
330
1A
100
AcDbPlotSettings
  1

  2
none_device
  4

  6

 40
0.0
 41
0.0
 42
0.0
 43
0.0
 44
0.0
 45
0.0
 46
0.0
 47
0.0
 48
0.0
 49
0.0
140
0.0
141
0.0
142
1.0
143
1.0
 70
   688
 72
     0
 73
     0
 74
     5
  7

 75
    16
147
1.0
148
0.0
149
0.0
100
AcDbLayout
  1
Layout2
 70
     1
 71
     2
 10
0.0
 20
0.0
 11
0.0
 21
0.0
 12
0.0
 22
0.0
 32
0.0
 14
0.0
 24
0.0
 34
0.0
 15
0.0
 25
0.0
 35
0.0
146
0.0
 13
0.0
 23
0.0
 33
0.0
 16
1.0
 26
0.0
 36
0.0
 17
0.0
 27
1.0
 37
0.0
 76
     0
330
23
  0
LAYOUT
  5
22
102
{ACAD_REACTORS
330
1A
102
}
330
1A
100
AcDbPlotSettings
  1

  2
none_device
  4

  6

 40
0.0
 41
0.0
 42
0.0
 43
0.0
 44
0.0
 45
0.0
 46
0.0
 47
0.0
 48
0.0
 49
0.0
140
0.0
141
0.0
142
1.0
143
1.0
 70
  1712
 72
     0
 73
     0
 74
     0
  7

 75
     0
147
1.0
148
0.0
149
0.0
100
AcDbLayout
  1
Model
 70
     1
 71
     0
 10
0.0
 20
0.0
 11
420.0
 21
297.0
 12
0.0
 22
0.0
 32
0.0
 14
0.0
 24
0.0
 34
0.0
 15
420.0
 25
297.0
 35
0.0
146
0.0
 13
0.0
 23
0.0
 33
0.0
 16
1.0
 26
0.0
 36
0.0
 17
0.0
 27
1.0
 37
0.0
 76
     0
330
1F
331
29
  0
MLINESTYLE
  5
18
102
{ACAD_REACTORS
330
17
102
}
330
17
100
AcDbMlineStyle
  2
Standard
 70
     0
  3

 62
   256
 51
90.0
 52
90.0
 71
     2
 49
0.5
 62
   256
  6
BYLAYER
 49
-0.5
 62
   256
  6
BYLAYER
  0
ACDBPLACEHOLDER
  5
F
102
{ACAD_REACTORS
330
E
102
}
330
E
  0
ENDSEC
  0
EOF
