  0
SECTION
  2
HEADER
  9
$ACADVER
  1
AC1015
  9
$ACADMAINTVER
 70
     6
  9
$DWGCODEPAGE
  3
ANSI_1252
  9
$INSBASE
 10
0.0
 20
0.0
 30
0.0
  9
$EXTMIN
 10
0.0
 20
0.0
 30
0.0
  9
$EXTMAX
 10
841.0
 20
594.0
 30
0.0
  9
$LIMMIN
 10
0.0
 20
0.0
  9
$LIMMAX
 10
841.0
 20
594.0
  9
$ORTHOMODE
 70
     0
  9
$REGENMODE
 70
     1
  9
$FILLMODE
 70
     1
  9
$QTEXTMODE
 70
     0
  9
$MIRRTEXT
 70
     1
  9
$LTSCALE
 40
1.0
  9
$ATTMODE
 70
     1
  9
$TEXTSIZE
 40
3.5
  9
$TRACEWID
 40
1.0
  9
$TEXTSTYLE
  7
Standard
  9
$CLAYER
  8
0
  9
$CELTYPE
  6
ByLayer
  9
$CECOLOR
 62
   256
  9
$CELTSCALE
 40
1.0
  9
$DISPSILH
 70
     0
  9
$DIMSCALE
 40
1.0
  9
$DIMASZ
 40
3.302
  9
$DIMEXO
 40
1.0
  9
$DIMDLI
 40
3.75
  9
$DIMRND
 40
0.0
  9
$DIMDLE
 40
0.0
  9
$DIMEXE
 40
1.0
  9
$DIMTP
 40
0.0
  9
$DIMTM
 40
0.0
  9
$DIMTXT
 40
3.5
  9
$DIMCEN
 40
2.5
  9
$DIMTSZ
 40
0.0
  9
$DIMTOL
 70
     0
  9
$DIMLIM
 70
     0
  9
$DIMTIH
 70
     1
  9
$DIMTOH
 70
     1
  9
$DIMSE1
 70
     0
  9
$DIMSE2
 70
     0
  9
$DIMTAD
 70
     1
  9
$DIMZIN
 70
     0
  9
$DIMBLK
  1

  9
$DIMASO
 70
     1
  9
$DIMSHO
 70
     1
  9
$DIMPOST
  1

  9
$DIMAPOST
  1

  9
$DIMALT
 70
     0
  9
$DIMALTD
 70
     3
  9
$DIMALTF
 40
0.0393700787
  9
$DIMLFAC
 40
1.0
  9
$DIMTOFL
 70
     1
  9
$DIMTVP
 40
0.0
  9
$DIMTIX
 70
     0
  9
$DIMSOXD
 70
     0
  9
$DIMSAH
 70
     0
  9
$DIMBLK1
  1

  9
$DIMBLK2
  1

  9
$DIMSTYLE
  2
ISO-25
  9
$DIMCLRD
 70
     0
  9
$DIMCLRE
 70
     0
  9
$DIMCLRT
 70
     0
  9
$DIMTFAC
 40
1.0
  9
$DIMGAP
 40
1.524
  9
$DIMJUST
 70
     0
  9
$DIMSD1
 70
     0
  9
$DIMSD2
 70
     0
  9
$DIMTOLJ
 70
     0
  9
$DIMTZIN
 70
     0
  9
$DIMALTZ
 70
     0
  9
$DIMALTTZ
 70
     0
  9
$DIMUPT
 70
     0
  9
$DIMDEC
 70
     1
  9
$DIMTDEC
 70
     1
  9
$DIMALTU
 70
     2
  9
$DIMALTTD
 70
     3
  9
$DIMTXSTY
  7
Standard
  9
$DIMAUNIT
 70
     0
  9
$DIMADEC
 70
     1
  9
$DIMALTRND
 40
0.0
  9
$DIMAZIN
 70
     0
  9
$DIMDSEP
 70
    44
  9
$DIMATFIT
 70
     3
  9
$DIMFRAC
 70
     0
  9
$DIMLDRBLK
  1

  9
$DIMLUNIT
 70
     2
  9
$DIMLWD
 70
    -2
  9
$DIMLWE
 70
    -2
  9
$DIMTMOVE
 70
     0
  9
$LUNITS
 70
     2
  9
$LUPREC
 70
     1
  9
$SKETCHINC
 40
1.0
  9
$FILLETRAD
 40
10.0
  9
$AUNITS
 70
     0
  9
$AUPREC
 70
     1
  9
$MENU
  1
.
  9
$ELEVATION
 40
0.0
  9
$PELEVATION
 40
0.0
  9
$THICKNESS
 40
0.0
  9
$LIMCHECK
 70
     0
  9
$CHAMFERA
 40
10.0
  9
$CHAMFERB
 40
10.0
  9
$CHAMFERC
 40
20.0
  9
$CHAMFERD
 40
0.0
  9
$SKPOLY
 70
     0
  9
$TDCREATE
 40
2457080.344467454
  9
$TDUCREATE
 40
2457080.344467454
  9
$TDUPDATE
 40
2457080.344468357
  9
$TDUUPDATE
 40
2457080.344468357
  9
$TDINDWG
 40
0.0000000116
  9
$TDUSRTIMER
 40
0.0000000116
  9
$USRTIMER
 70
     1
  9
$ANGBASE
 50
0.0
  9
$ANGDIR
 70
     0
  9
$PDMODE
 70
     0
  9
$PDSIZE
 40
-1.0
  9
$PLINEWID
 40
0.0
  9
$SPLFRAME
 70
     0
  9
$SPLINETYPE
 70
     6
  9
$SPLINESEGS
 70
     8
  9
$HANDSEED
  5
1D9
  9
$SURFTAB1
 70
     6
  9
$SURFTAB2
 70
     6
  9
$SURFTYPE
 70
     6
  9
$SURFU
 70
     6
  9
$SURFV
 70
     6
  9
$UCSBASE
  2

  9
$UCSNAME
  2

  9
$UCSORG
 10
0.0
 20
0.0
 30
0.0
  9
$UCSXDIR
 10
1.0
 20
0.0
 30
0.0
  9
$UCSYDIR
 10
0.0
 20
1.0
 30
0.0
  9
$UCSORTHOREF
  2

  9
$UCSORTHOVIEW
 70
     0
  9
$UCSORGTOP
 10
0.0
 20
0.0
 30
0.0
  9
$UCSORGBOTTOM
 10
0.0
 20
0.0
 30
0.0
  9
$UCSORGLEFT
 10
0.0
 20
0.0
 30
0.0
  9
$UCSORGRIGHT
 10
0.0
 20
0.0
 30
0.0
  9
$UCSORGFRONT
 10
0.0
 20
0.0
 30
0.0
  9
$UCSORGBACK
 10
0.0
 20
0.0
 30
0.0
  9
$PUCSBASE
  2

  9
$PUCSNAME
  2

  9
$PUCSORG
 10
0.0
 20
0.0
 30
0.0
  9
$PUCSXDIR
 10
1.0
 20
0.0
 30
0.0
  9
$PUCSYDIR
 10
0.0
 20
1.0
 30
0.0
  9
$PUCSORTHOREF
  2

  9
$PUCSORTHOVIEW
 70
     0
  9
$PUCSORGTOP
 10
0.0
 20
0.0
 30
0.0
  9
$PUCSORGBOTTOM
 10
0.0
 20
0.0
 30
0.0
  9
$PUCSORGLEFT
 10
0.0
 20
0.0
 30
0.0
  9
$PUCSORGRIGHT
 10
0.0
 20
0.0
 30
0.0
  9
$PUCSORGFRONT
 10
0.0
 20
0.0
 30
0.0
  9
$PUCSORGBACK
 10
0.0
 20
0.0
 30
0.0
  9
$USERI1
 70
     0
  9
$USERI2
 70
     0
  9
$USERI3
 70
     0
  9
$USERI4
 70
     0
  9
$USERI5
 70
     0
  9
$USERR1
 40
0.0
  9
$USERR2
 40
0.0
  9
$USERR3
 40
0.0
  9
$USERR4
 40
0.0
  9
$USERR5
 40
0.0
  9
$WORLDVIEW
 70
     1
  9
$SHADEDGE
 70
     3
  9
$SHADEDIF
 70
    70
  9
$TILEMODE
 70
     1
  9
$MAXACTVP
 70
    64
  9
$PINSBASE
 10
0.0
 20
0.0
 30
0.0
  9
$PLIMCHECK
 70
     0
  9
$PEXTMIN
 10
1.0000000000E+20
 20
1.0000000000E+20
 30
1.0000000000E+20
  9
$PEXTMAX
 10
-1.0000000000E+20
 20
-1.0000000000E+20
 30
-1.0000000000E+20
  9
$PLIMMIN
 10
0.0
 20
0.0
  9
$PLIMMAX
 10
420.0
 20
297.0
  9
$UNITMODE
 70
     0
  9
$VISRETAIN
 70
     1
  9
$PLINEGEN
 70
     0
  9
$PSLTSCALE
 70
     1
  9
$TREEDEPTH
 70
  3020
  9
$CMLSTYLE
  2
Standard
  9
$CMLJUST
 70
     0
  9
$CMLSCALE
 40
20.0
  9
$PROXYGRAPHICS
 70
     1
  9
$MEASUREMENT
 70
     1
  9
$CELWEIGHT
370
    -1
  9
$ENDCAPS
280
     0
  9
$JOINSTYLE
280
     0
  9
$LWDISPLAY
290
     1
  9
$INSUNITS
 70
     4
  9
$HYPERLINKBASE
  1

  9
$STYLESHEET
  1

  9
$XEDIT
290
     1
  9
$CEPSNTYPE
380
     0
  9
$PSTYLEMODE
290
     1
  9
$FINGERPRINTGUID
  2
{B6B23A4C-A119-4E84-AAED-22112C8C4CB1}
  9
$VERSIONGUID
  2
{FAEB1C32-E019-11D5-929B-00C0DF256EC4}
  9
$EXTNAMES
290
     1
  9
$PSVPSCALE
 40
0.0
  9
$OLESTARTUP
290
     0
  0
ENDSEC
  0
SECTION
  2
CLASSES
  0
CLASS
  1
ACDBDICTIONARYWDFLT
  2
AcDbDictionaryWithDefault
  3
ObjectDBX Classes
 90
        0
280
     0
281
     0
  0
CLASS
  1
VISUALSTYLE
  2
AcDbVisualStyle
  3
ObjectDBX Classes
 90
     4095
280
     0
281
     0
  0
CLASS
  1
MATERIAL
  2
AcDbMaterial
  3
ObjectDBX Classes
 90
     1153
280
     0
281
     0
  0
CLASS
  1
ACDBPLACEHOLDER
  2
AcDbPlaceHolder
  3
ObjectDBX Classes
 90
        0
280
     0
281
     0
  0
CLASS
  1
LAYOUT
  2
AcDbLayout
  3
ObjectDBX Classes
 90
        0
280
     0
281
     0
  0
ENDSEC
  0
SECTION
  2
TABLES
  0
TABLE
  2
VPORT
  5
8
330
0
100
AcDbSymbolTable
 70
     1
  0
VPORT
  5
29
330
8
100
AcDbSymbolTableRecord
100
AcDbViewportTableRecord
  2
*Active
 70
     0
 10
0.0
 20
0.0
 11
1.0
 21
1.0
 12
420.5
 22
297.0
 13
0.0
 23
0.0
 14
10.0
 24
10.0
 15
10.0
 25
10.0
 16
0.0
 26
0.0
 36
1.0
 17
0.0
 27
0.0
 37
0.0
 40
594.0
 41
1.4158249158
 42
50.0
 43
0.0
 44
0.0
 50
0.0
 51
0.0
 71
     0
 72
  2000
 73
     1
 74
     3
 75
     0
 76
     0
 77
     0
 78
     0
281
     0
 65
     1
110
0.0
120
0.0
130
0.0
111
1.0
121
0.0
131
0.0
112
0.0
122
1.0
132
0.0
 79
     0
146
0.0
  0
ENDTAB
  0
TABLE
  2
LTYPE
  5
5
330
0
100
AcDbSymbolTable
 70
     6
  0
LTYPE
  5
14
330
5
100
AcDbSymbolTableRecord
100
AcDbLinetypeTableRecord
  2
ByBlock
 70
     0
  3

 72
    65
 73
     0
 40
0.0
  0
LTYPE
  5
15
330
5
100
AcDbSymbolTableRecord
100
AcDbLinetypeTableRecord
  2
ByLayer
 70
     0
  3

 72
    65
 73
     0
 40
0.0
  0
LTYPE
  5
16
330
5
100
AcDbSymbolTableRecord
100
AcDbLinetypeTableRecord
  2
Continuous
 70
     0
  3
Solid line
 72
    65
 73
     0
 40
0.0
  0
LTYPE
  5
3F
330
5
100
AcDbSymbolTableRecord
100
AcDbLinetypeTableRecord
  2
HIDDEN
 70
     0
  3
Hidden __ __ __ __ __ __ __ __ __ __ __ __ __ __
 72
    65
 73
     2
 40
1.905
 49
1.27
 74
     0
 49
-0.635
 74
     0
  0
LTYPE
  5
40
330
5
100
AcDbSymbolTableRecord
100
AcDbLinetypeTableRecord
  2
PHANTOM
 70
     0
  3
Phantom ______  __  __  ______  __  __  ______
 72
    65
 73
     6
 40
12.7
 49
6.35
 74
     0
 49
-1.27
 74
     0
 49
1.27
 74
     0
 49
-1.27
 74
     0
 49
1.27
 74
     0
 49
-1.27
 74
     0
  0
LTYPE
  5
41
330
5
100
AcDbSymbolTableRecord
100
AcDbLinetypeTableRecord
  2
CENTER
 70
     0
  3
Center ____ _ ____ _ ____ _ ____ _ ____ _ ____
 72
    65
 73
     4
 40
10.16
 49
6.35
 74
     0
 49
-1.27
 74
     0
 49
1.27
 74
     0
 49
-1.27
 74
     0
  0
LTYPE
  5
42
330
5
100
AcDbSymbolTableRecord
100
AcDbLinetypeTableRecord
  2
CENTERX2
 70
     0
  3
Center (2x) ________  __  ________  __  _____
 72
    65
 73
     4
 40
20.32
 49
12.7
 74
     0
 49
-2.54
 74
     0
 49
2.54
 74
     0
 49
-2.54
 74
     0
  0
LTYPE
  5
43
330
5
100
AcDbSymbolTableRecord
100
AcDbLinetypeTableRecord
  2
DOT2
 70
     0
  3
Dot (.5x) ........................................
 72
    65
 73
     2
 40
0.635
 49
0.0
 74
     0
 49
-0.635
 74
     0
  0
ENDTAB
  0
TABLE
  2
LAYER
  5
2
330
0
100
AcDbSymbolTable
 70
     4
  0
LAYER
  5
10
330
2
100
AcDbSymbolTableRecord
100
AcDbLayerTableRecord
  2
0
 70
     0
 62
     7
  6
Continuous
370
    -3
390
F
  0
LAYER
  5
44
330
2
100
AcDbSymbolTableRecord
100
AcDbLayerTableRecord
  2
FORMAT
 70
     0
 62
     7
  6
Continuous
370
    -3
390
F
  0
LAYER
  5
45
330
2
100
AcDbSymbolTableRecord
100
AcDbLayerTableRecord
  2
SLD-0
 70
     0
 62
     1
  6
Continuous
370
    -3
390
F
  0
LAYER
  5
46
330
2
100
AcDbSymbolTableRecord
100
AcDbLayerTableRecord
  2
WATERMARK
 70
     0
 62
     1
  6
Continuous
370
    -3
390
F
  0
ENDTAB
  0
TABLE
  2
STYLE
  5
3
330
0
100
AcDbSymbolTable
 70
     1
  0
STYLE
  5
11
330
3
100
AcDbSymbolTableRecord
100
AcDbTextStyleTableRecord
  2
Standard
 70
     0
 40
0.0
 41
1.0
 50
0.0
 71
     0
 42
3.5
  3
txt
  4

  0
ENDTAB
  0
TABLE
  2
VIEW
  5
6
330
0
100
AcDbSymbolTable
 70
     0
  0
ENDTAB
  0
TABLE
  2
UCS
  5
7
330
0
100
AcDbSymbolTable
 70
     0
  0
ENDTAB
  0
TABLE
  2
APPID
  5
9
330
0
100
AcDbSymbolTable
 70
     1
  0
APPID
  5
12
330
9
100
AcDbSymbolTableRecord
100
AcDbRegAppTableRecord
  2
ACAD
 70
     0
  0
ENDTAB
  0
TABLE
  2
DIMSTYLE
  5
A
330
0
100
AcDbSymbolTable
 70
     1
100
AcDbDimStyleTable
  0
DIMSTYLE
105
27
330
A
100
AcDbSymbolTableRecord
100
AcDbDimStyleTableRecord
  2
ISO-25
 70
     0
 41
2.5
 42
0.625
 43
3.75
 44
1.25
 73
     0
 74
     0
 77
     1
 78
     8
140
2.5
141
2.5
143
0.0393700787
147
0.625
171
     3
172
     1
178
     0
271
     2
272
     2
274
     3
278
    44
283
     0
284
     8
340
11
  0
ENDTAB
  0
TABLE
  2
BLOCK_RECORD
  5
1
330
0
100
AcDbSymbolTable
 70
     1
  0
BLOCK_RECORD
  5
1F
330
1
100
AcDbSymbolTableRecord
100
AcDbBlockTableRecord
  2
*Model_Space
340
22
  0
BLOCK_RECORD
  5
1B
330
1
100
AcDbSymbolTableRecord
100
AcDbBlockTableRecord
  2
*Paper_Space
340
1E
  0
BLOCK_RECORD
  5
23
330
1
100
AcDbSymbolTableRecord
100
AcDbBlockTableRecord
  2
*Paper_Space0
340
26
  0
ENDTAB
  0
ENDSEC
  0
SECTION
  2
BLOCKS
  0
BLOCK
  5
20
330
1F
100
AcDbEntity
  8
0
100
AcDbBlockBegin
  2
*Model_Space
 70
     0
 10
0.0
 20
0.0
 30
0.0
  3
*Model_Space
  1

  0
ENDBLK
  5
21
330
1F
100
AcDbEntity
  8
0
100
AcDbBlockEnd
  0
BLOCK
  5
1C
330
1B
100
AcDbEntity
 67
     1
  8
0
100
AcDbBlockBegin
  2
*Paper_Space
 70
     0
 10
0.0
 20
0.0
 30
0.0
  3
*Paper_Space
  1

  0
ENDBLK
  5
1D
330
1B
100
AcDbEntity
 67
     1
  8
0
100
AcDbBlockEnd
  0
BLOCK
  5
24
330
23
100
AcDbEntity
  8
0
100
AcDbBlockBegin
  2
*Paper_Space0
 70
     0
 10
0.0
 20
0.0
 30
0.0
  3
*Paper_Space0
  1

  0
ENDBLK
  5
25
330
23
100
AcDbEntity
  8
0
100
AcDbBlockEnd
  0
ENDSEC
  0
SECTION
  2
ENTITIES
  0
LINE
  5
47
330
1F
100
AcDbEntity
  8
0
  6
Continuous
 62
     7
100
AcDbLine
 10
787.963553332
 20
364.6142234299
 30
0.0
 11
785.4395176654
 21
370.0270353845
 31
0.0
  0
LINE
  5
48
330
1F
100
AcDbEntity
  8
0
  6
CENTERX2
 62
     7
100
AcDbLine
 10
821.6896681629
 20
280.4573288574
 30
0.0
 11
823.7930312184
 21
275.9466522286
 31
0.0
  0
LINE
  5
49
330
1F
100
AcDbEntity
  8
0
  6
CENTERX2
 62
     7
100
AcDbLine
 10
780.2730785123
 20
369.275491987
 30
0.0
 11
782.3764415678
 21
364.7648153582
 31
0.0
  0
LINE
  5
4A
330
1F
100
AcDbEntity
  8
0
  6
Continuous
 62
     7
370
    15
100
AcDbLine
 10
800.779777918
 20
336.8223311116
 30
0.0
 11
800.7564436412
 21
336.8298303677
 31
0.0
  0
ARC
  5
4B
330
1F
100
AcDbEntity
  8
0
  6
Continuous
 62
     7
370
    15
100
AcDbCircle
 10
777.1351083099
 20
320.904882653
 30
0.0
 40
40.00000000000004
100
AcDbArc
 50
5.2753664413
 51
18.1017271842
  0
ARC
  5
4C
330
1F
100
AcDbEntity
  8
0
  6
Continuous
 62
     7
370
    15
100
AcDbCircle
 10
777.1351083099
 20
320.904882653
 30
0.0
 40
40.00000000000001
100
AcDbArc
 50
31.8986518741
 51
44.7246335587
  0
LINE
  5
4D
330
1F
100
AcDbEntity
  8
0
  6
Continuous
 62
     7
370
    15
100
AcDbLine
 10
805.5549880293
 20
349.0528921161
 30
0.0
 11
801.5973671761
 21
347.2074232041
 31
0.0
  0
LINE
  5
4E
330
1F
100
AcDbEntity
  8
0
  6
Continuous
 62
     7
370
    15
100
AcDbLine
 10
813.0080602431
 20
322.7371129541
 30
0.0
 11
816.9656810963
 21
324.5825818661
 31
0.0
  0
ARC
  5
4F
330
1F
100
AcDbEntity
  8
0
  6
Continuous
 62
     7
370
    15
100
AcDbCircle
 10
93.2123434255
 20
115.8600948253
 30
0.0
 40
2.0
100
AcDbArc
 50
270.0
 51
0.0
  0
ARC
  5
50
330
1F
100
AcDbEntity
  8
0
  6
Continuous
 62
     7
370
    15
100
AcDbCircle
 10
40.2123434255
 20
115.8600948253
 30
0.0
 40
2.0
100
AcDbArc
 50
180.0
 51
270.0
  0
LINE
  5
51
330
1F
100
AcDbEntity
  8
0
  6
Continuous
 62
     7
370
    15
100
AcDbLine
 10
95.2123434255
 20
115.8600948253
 30
0.0
 11
95.2123434255
 21
119.8600948253
 31
0.0
  0
LINE
  5
52
330
1F
100
AcDbEntity
  8
0
  6
Continuous
 62
     7
370
    15
100
AcDbLine
 10
38.2123434255
 20
119.8600948253
 30
0.0
 11
38.2123434255
 21
115.8600948253
 31
0.0
  0
ARC
  5
53
330
1F
100
AcDbEntity
  8
0
  6
Continuous
 62
     7
370
    15
100
AcDbCircle
 10
672.2123434255
 20
115.8600948253
 30
0.0
 40
2.0
100
AcDbArc
 50
270.0
 51
0.0
  0
ARC
  5
54
330
1F
100
AcDbEntity
  8
0
  6
Continuous
 62
     7
370
    15
100
AcDbCircle
 10
619.2123434255
 20
115.8600948253
 30
0.0
 40
2.0
100
AcDbArc
 50
180.0
 51
270.0
  0
LINE
  5
55
330
1F
100
AcDbEntity
  8
0
  6
Continuous
 62
     7
370
    15
100
AcDbLine
 10
674.2123434255
 20
115.8600948253
 30
0.0
 11
674.2123434255
 21
119.8600948253
 31
0.0
  0
LINE
  5
56
330
1F
100
AcDbEntity
  8
0
  6
Continuous
 62
     7
370
    15
100
AcDbLine
 10
617.2123434255
 20
119.8600948253
 30
0.0
 11
617.2123434255
 21
115.8600948253
 31
0.0
  0
LINE
  5
57
330
1F
100
AcDbEntity
  8
0
  6
Continuous
 62
     7
370
    15
100
AcDbLine
 10
95.0123434255
 20
119.8600948253
 30
0.0
 11
95.0123434255
 21
148.8600948253
 31
0.0
  0
LINE
  5
58
330
1F
100
AcDbEntity
  8
0
  6
Continuous
 62
     7
370
    15
100
AcDbLine
 10
38.4123434255
 20
148.8600948253
 30
0.0
 11
38.4123434255
 21
119.8600948253
 31
0.0
  0
LINE
  5
59
330
1F
100
AcDbEntity
  8
0
  6
Continuous
 62
     7
370
    15
100
AcDbLine
 10
674.0123434255
 20
119.8600948253
 30
0.0
 11
674.0123434255
 21
148.8600948253
 31
0.0
  0
LINE
  5
5A
330
1F
100
AcDbEntity
  8
0
  6
Continuous
 62
     7
370
    15
100
AcDbLine
 10
617.4123434255
 20
148.8600948253
 30
0.0
 11
617.4123434255
 21
119.8600948253
 31
0.0
  0
ARC
  5
5B
330
1F
100
AcDbEntity
  8
0
  6
Continuous
 62
     7
370
    15
100
AcDbCircle
 10
679.1123434255
 20
210.3600948253
 30
0.0
 40
1.5
100
AcDbArc
 50
90.0
 51
180.0
  0
ARC
  5
5C
330
1F
100
AcDbEntity
  8
0
  6
Continuous
 62
     7
370
    15
100
AcDbCircle
 10
612.3123434255
 20
210.3600948253
 30
0.0
 40
1.5
100
AcDbArc
 50
0.0
 51
90.0
  0
ARC
  5
5D
330
1F
100
AcDbEntity
  8
0
  6
Continuous
 62
     7
370
    15
100
AcDbCircle
 10
672.9123434255
 20
154.8926607709
 30
0.0
 40
4.700000000000045
100
AcDbArc
 50
350.5402980318
 51
0.0
  0
ARC
  5
5E
330
1F
100
AcDbEntity
  8
0
  6
Continuous
 62
     7
370
    15
100
AcDbCircle
 10
618.5123434255
 20
154.8926607709
 30
0.0
 40
4.700000000000117
100
AcDbArc
 50
180.0
 51
189.4597019682
  0
LINE
  5
5F
330
1F
100
AcDbEntity
  8
0
  6
Continuous
 62
     7
370
    15
100
AcDbLine
 10
677.6123434255
 20
154.8926607709
 30
0.0
 11
677.6123434255
 21
210.3600948253
 31
0.0
  0
LINE
  5
60
330
1F
100
AcDbEntity
  8
0
  6
Continuous
 62
     7
370
    15
100
AcDbLine
 10
613.8123434255
 20
210.3600948253
 30
0.0
 11
613.8123434255
 21
154.8926607709
 31
0.0
  0
LINE
  5
61
330
1F
100
AcDbEntity
  8
0
  6
Continuous
 62
     7
370
    15
100
AcDbLine
 10
613.8762566525
 20
154.1201975464
 30
0.0
 11
614.7526932052
 21
148.8600948253
 31
0.0
  0
LINE
  5
62
330
1F
100
AcDbEntity
  8
0
  6
Continuous
 62
     7
370
    15
100
AcDbLine
 10
676.6719936459
 20
148.8600948253
 30
0.0
 11
677.5484301986
 21
154.1201975464
 31
0.0
  0
ARC
  5
63
330
1F
100
AcDbEntity
  8
0
  6
Continuous
 62
     7
370
    15
100
AcDbCircle
 10
100.1123434255
 20
210.3600948253
 30
0.0
 40
1.5
100
AcDbArc
 50
90.0
 51
180.0
  0
ARC
  5
64
330
1F
100
AcDbEntity
  8
0
  6
Continuous
 62
     7
370
    15
100
AcDbCircle
 10
33.3123434255
 20
210.3600948253
 30
0.0
 40
1.5
100
AcDbArc
 50
0.0
 51
90.0
  0
ARC
  5
65
330
1F
100
AcDbEntity
  8
0
  6
Continuous
 62
     7
370
    15
100
AcDbCircle
 10
93.9123434255
 20
154.8926607709
 30
0.0
 40
4.700000000000047
100
AcDbArc
 50
350.5402980318
 51
0.0
  0
ARC
  5
66
330
1F
100
AcDbEntity
  8
0
  6
Continuous
 62
     7
370
    15
100
AcDbCircle
 10
39.5123434255
 20
154.8926607709
 30
0.0
 40
4.700000000000047
100
AcDbArc
 50
180.0
 51
189.4597019682
  0
LINE
  5
67
330
1F
100
AcDbEntity
  8
0
  6
Continuous
 62
     7
370
    15
100
AcDbLine
 10
98.6123434255
 20
154.8926607709
 30
0.0
 11
98.6123434255
 21
210.3600948253
 31
0.0
  0
LINE
  5
68
330
1F
100
AcDbEntity
  8
0
  6
Continuous
 62
     7
370
    15
100
AcDbLine
 10
34.8123434255
 20
210.3600948253
 30
0.0
 11
34.8123434255
 21
154.8926607709
 31
0.0
  0
LINE
  5
69
330
1F
100
AcDbEntity
  8
0
  6
Continuous
 62
     7
370
    15
100
AcDbLine
 10
34.8762566525
 20
154.1201975464
 30
0.0
 11
35.7526932052
 21
148.8600948253
 31
0.0
  0
LINE
  5
6A
330
1F
100
AcDbEntity
  8
0
  6
Continuous
 62
     7
370
    15
100
AcDbLine
 10
97.6719936459
 20
148.8600948253
 30
0.0
 11
98.5484301986
 21
154.1201975464
 31
0.0
  0
LINE
  5
6B
330
1F
100
AcDbEntity
  8
0
  6
Continuous
 62
     7
370
    15
100
AcDbLine
 10
808.7949470532
 20
308.1101475152
 30
0.0
 11
811.5399716057
 21
309.5697029599
 31
0.0
  0
LINE
  5
6C
330
1F
100
AcDbEntity
  8
0
  6
Continuous
 62
     7
370
    15
100
AcDbLine
 10
790.5465860746
 20
354.5901635162
 30
0.0
 11
787.6640339661
 21
353.425536867
 31
0.0
  0
ARC
  5
6D
330
1F
100
AcDbEntity
  8
0
  6
Continuous
 62
     7
370
    15
100
AcDbCircle
 10
791.2957992614
 20
352.735795807
 30
0.0
 40
2.000000000000027
100
AcDbArc
 50
25.0
 51
112.0
  0
ARC
  5
6E
330
1F
100
AcDbEntity
  8
0
  6
Continuous
 62
     7
370
    15
100
AcDbCircle
 10
810.6010284801
 20
311.3355981456
 30
0.0
 40
2.00000000000013
100
AcDbArc
 50
298.0
 51
25.0
  0
ARC
  5
6F
330
1F
100
AcDbEntity
  8
0
  6
Continuous
 62
     7
370
    15
100
AcDbCircle
 10
797.1203957427
 20
349.7097146764
 30
0.0
 40
1.999999999999955
100
AcDbArc
 50
205.0
 51
292.0
  0
ARC
  5
70
330
1F
100
AcDbEntity
  8
0
  6
Continuous
 62
     7
370
    15
100
AcDbCircle
 10
812.0268942951
 20
317.7426253701
 30
0.0
 40
2.000000000000051
100
AcDbArc
 50
118.0
 51
205.0
  0
LINE
  5
71
330
1F
100
AcDbEntity
  8
0
  6
Continuous
 62
     7
370
    15
100
AcDbLine
 10
811.0879511695
 20
319.5085205559
 30
0.0
 11
813.4140327321
 21
320.7453200615
 31
0.0
  0
LINE
  5
72
330
1F
100
AcDbEntity
  8
0
  6
Continuous
 62
     7
370
    15
100
AcDbLine
 10
800.3122287256
 20
348.8422294246
 30
0.0
 11
797.8696089295
 21
347.8553469673
 31
0.0
  0
ARC
  5
73
330
1F
100
AcDbEntity
  8
0
  6
Continuous
 62
     7
370
    15
100
AcDbCircle
 10
800.4995320223
 20
348.3786374973
 30
0.0
 40
0.5000000000000339
100
AcDbArc
 50
25.0
 51
112.0
  0
ARC
  5
74
330
1F
100
AcDbEntity
  8
0
  6
Continuous
 62
     7
370
    15
100
AcDbCircle
 10
813.1792969507
 20
321.1867938579
 30
0.0
 40
0.5000000000000138
100
AcDbArc
 50
298.0
 51
25.0
  0
ARC
  5
75
330
1F
100
AcDbEntity
  8
0
  6
Continuous
 62
     7
370
    15
100
AcDbCircle
 10
794.4739437494
 20
355.385049291
 30
0.0
 40
2.000000000000008
100
AcDbArc
 50
205.0
 51
292.0
  0
ARC
  5
76
330
1F
100
AcDbEntity
  8
0
  6
Continuous
 62
     7
370
    15
100
AcDbCircle
 10
814.6733462885
 20
312.0672907556
 30
0.0
 40
1.999999999999992
100
AcDbArc
 50
118.0
 51
205.0
  0
LINE
  5
77
330
1F
100
AcDbEntity
  8
0
  6
Continuous
 62
     7
370
    15
100
AcDbLine
 10
813.7344031629
 20
313.8331859413
 30
0.0
 11
816.4794277154
 21
315.292741386
 31
0.0
  0
LINE
  5
78
330
1F
100
AcDbEntity
  8
0
  6
Continuous
 62
     7
370
    15
100
AcDbLine
 10
798.1057090447
 20
354.695308231
 30
0.0
 11
795.2231569362
 21
353.5306815818
 31
0.0
  0
LINE
  5
79
330
1F
100
AcDbEntity
  8
0
  6
Continuous
 62
     7
370
    15
100
AcDbLine
 10
825.6996775228
 20
271.8578360337
 30
0.0
 11
825.9774653445
 21
272.0055384385
 31
0.0
  0
LINE
  5
7A
330
1F
100
AcDbEntity
  8
0
  6
Continuous
 62
     7
370
    15
100
AcDbLine
 10
825.5693461513
 20
307.6303563091
 30
0.0
 11
832.5837772986
 21
315.1003350461
 31
0.0
  0
LINE
  5
7B
330
1F
100
AcDbEntity
  8
0
  6
Continuous
 62
     7
370
    15
100
AcDbLine
 10
808.8527100555
 20
367.1413139358
 30
0.0
 11
798.0991591382
 21
366.5403624665
 31
0.0
  0
LINE
  5
7C
330
1F
100
AcDbEntity
  8
0
  6
Continuous
 62
     7
370
    15
100
AcDbLine
 10
833.1669467108
 20
315.7426854723
 30
0.0
 11
846.8422870702
 21
331.6012387497
 31
0.0
  0
LINE
  5
7D
330
1F
100
AcDbEntity
  8
0
  6
Continuous
 62
     7
370
    15
100
AcDbLine
 10
809.3555641885
 20
367.1480920088
 30
0.0
 11
808.8527100555
 21
367.1413139358
 31
0.0
  0
ARC
  5
7E
330
1F
100
AcDbEntity
  8
0
  6
Continuous
 62
     7
370
    15
100
AcDbCircle
 10
846.0849756862
 20
332.2542927044
 30
0.0
 40
1.000000000000116
100
AcDbArc
 50
319.227745318
 51
25.0
  0
LINE
  5
7F
330
1F
100
AcDbEntity
  8
0
  6
Continuous
 62
     7
370
    15
100
AcDbLine
 10
-55.8039472033
 20
460.2600948253
 30
0.0
 11
-55.8039472033
 21
460.4600948246
 31
0.0
  0
LINE
  5
80
330
1F
100
AcDbEntity
  8
0
  6
Continuous
 62
     7
370
    15
100
AcDbLine
 10
-13.2039472033
 20
460.4600948246
 30
0.0
 11
-13.2039472033
 21
460.2600948253
 31
0.0
  0
SPLINE
  5
81
330
1F
100
AcDbEntity
  8
0
  6
Continuous
 62
     7
370
    15
100
AcDbSpline
210
0.0
220
0.0
230
1.0
 70
     8
 71
     3
 72
     9
 73
     5
 74
     0
 42
0.00000001
 43
0.00000001
 12
1.0
 22
0.0
 32
0.0
 13
1.0
 23
0.0
 33
0.0
 40
0.0
 40
0.0
 40
0.0
 40
0.0
 40
0.4957807219113127
 40
1.0
 40
1.0
 40
1.0
 40
1.0
 10
814.9987516658408
 20
333.377565577196
 30
0.0
 10
814.6872215561682
 20
333.7169442135676
 30
0.0
 10
814.0588588629365
 20
334.4014779628089
 30
0.0
 10
812.8492875625121
 20
334.7812064209531
 30
0.0
 10
812.2393983946155
 20
334.9726728299883
 30
0.0
  0
LINE
  5
82
330
1F
100
AcDbEntity
  8
0
  6
Continuous
 62
     7
370
    15
100
AcDbLine
 10
814.9987516658
 20
333.3775655772
 30
0.0
 11
815.0822704889
 21
333.3037209713
 31
0.0
  0
LINE
  5
83
330
1F
100
AcDbEntity
  8
0
  6
Continuous
 62
     7
370
    15
100
AcDbLine
 10
816.9656810963
 20
324.5825818661
 30
0.0
 11
811.9638491516
 21
335.3090450868
 31
0.0
  0
SPLINE
  5
84
330
1F
100
AcDbEntity
  8
0
  6
Continuous
 62
     7
370
    15
100
AcDbSpline
210
0.0
220
0.0
230
1.0
 70
     8
 71
     3
 72
    11
 73
     7
 74
     0
 42
0.00000001
 43
0.00000001
 12
1.0
 22
0.0
 32
0.0
 13
1.0
 23
0.0
 33
0.0
 40
0.0
 40
0.0
 40
0.0
 40
0.0
 40
0.2674052398524734
 40
0.5345854440016786
 40
0.8080489308462684
 40
1.0
 40
1.0
 40
1.0
 40
1.0
 10
811.9638491515801
 20
335.3090450868181
 30
0.0
 10
811.9878237629232
 20
335.2617983121497
 30
0.0
 10
812.0357528097015
 20
335.1673445234817
 30
0.0
 10
812.1167011862397
 20
335.0585084457064
 30
0.0
 10
812.1866504848809
 20
334.9928803953912
 30
0.0
 10
812.2239959803702
 20
334.9785734485112
 30
0.0
 10
812.2393983946155
 20
334.9726728299883
 30
0.0
  0
SPLINE
  5
85
330
1F
100
AcDbEntity
  8
0
  6
Continuous
 62
     7
370
    15
100
AcDbSpline
210
0.0
220
0.0
230
1.0
 70
     8
 71
     3
 72
     9
 73
     5
 74
     0
 42
0.00000001
 43
0.00000001
 12
1.0
 22
0.0
 32
0.0
 13
1.0
 23
0.0
 33
0.0
 40
0.0
 40
0.0
 40
0.0
 40
0.0
 40
0.4957807219113126
 40
1.0
 40
1.0
 40
1.0
 40
1.0
 10
810.4762635152025
 20
338.7537277806811
 30
0.0
 10
810.7183515150788
 20
339.3344155603874
 30
0.0
 10
811.2066480324239
 20
340.5056748571741
 30
0.0
 10
811.087895751083
 20
341.4278511395509
 30
0.0
 10
811.0280185615139
 20
341.8928301989214
 30
0.0
  0
SPLINE
  5
86
330
1F
100
AcDbEntity
  8
0
  6
Continuous
 62
     7
370
    15
100
AcDbSpline
210
0.0
220
0.0
230
1.0
 70
     8
 71
     3
 72
    11
 73
     7
 74
     0
 42
0.00000001
 43
0.00000001
 12
1.0
 22
0.0
 32
0.0
 13
1.0
 23
0.0
 33
0.0
 40
0.0
 40
0.0
 40
0.0
 40
0.0
 40
0.2942724557230225
 40
0.5890262479635009
 40
0.8714554557704699
 40
1.0
 40
1.0
 40
1.0
 40
1.0
 10
810.4762635152025
 20
338.7537277806811
 30
0.0
 10
810.468969827463
 20
338.7281839704519
 30
0.0
 10
810.4543705218215
 20
338.6770545684117
 30
0.0
 10
810.4738331487263
 20
338.5478627248
 30
0.0
 10
810.5132012936162
 20
338.4241099499824
 30
0.0
 10
810.5464274749991
 20
338.3497021869518
 30
0.0
 10
810.5568199740849
 20
338.3264288953157
 30
0.0
  0
LINE
  5
87
330
1F
100
AcDbEntity
  8
0
  6
Continuous
 62
     7
370
    15
100
AcDbLine
 10
810.5568199741
 20
338.3264288953
 30
0.0
 11
805.5549880293
 21
349.0528921161
 31
0.0
  0
LINE
  5
88
330
1F
100
AcDbEntity
  8
0
  6
Continuous
 62
     7
370
    15
100
AcDbLine
 10
811.0280185615
 20
341.8928301989
 30
0.0
 11
811.0251351762
 21
342.0042757269
 31
0.0
  0
LINE
  5
89
330
1F
100
AcDbEntity
  8
0
  6
Continuous
 62
     7
370
    15
100
AcDbLine
 10
821.4626468282
 20
343.4118994759
 30
0.0
 11
810.5568199741
 21
338.3264288953
 31
0.0
  0
LINE
  5
8A
330
1F
100
AcDbEntity
  8
0
  6
Continuous
 62
     7
370
    15
100
AcDbLine
 10
821.4626468282
 20
343.4118994759
 30
0.0
 11
822.8696760057
 21
340.3945156674
 31
0.0
  0
LINE
  5
8B
330
1F
100
AcDbEntity
  8
0
  6
Continuous
 62
     7
370
    15
100
AcDbLine
 10
811.9638491516
 20
335.3090450868
 30
0.0
 11
822.8696760057
 21
340.3945156674
 31
0.0
  0
LINE
  5
8C
330
1F
100
AcDbEntity
  8
0
  6
Continuous
 62
     7
370
    15
100
AcDbLine
 10
821.2845939772
 20
343.793735047
 30
0.0
 11
810.4762635152
 21
338.7537277807
 31
0.0
  0
LINE
  5
8D
330
1F
100
AcDbEntity
  8
0
  6
Continuous
 62
     7
370
    15
100
AcDbLine
 10
821.4626468282
 20
343.4118994759
 30
0.0
 11
821.2845939772
 21
343.793735047
 31
0.0
  0
LINE
  5
8E
330
1F
100
AcDbEntity
  8
0
  6
Continuous
 62
     7
370
    15
100
AcDbLine
 10
812.2393983946
 20
334.97267283
 30
0.0
 11
823.0477288566
 21
340.0126800963
 31
0.0
  0
LINE
  5
8F
330
1F
100
AcDbEntity
  8
0
  6
Continuous
 62
     7
370
    15
100
AcDbLine
 10
823.0477288566
 20
340.0126800963
 30
0.0
 11
822.8696760057
 21
340.3945156674
 31
0.0
  0
LINE
  5
90
330
1F
100
AcDbEntity
  8
0
  6
Continuous
 62
     7
370
    15
100
AcDbLine
 10
811.0280185615
 20
341.8928301989
 30
0.0
 11
820.1807948648
 21
346.1608398825
 31
0.0
  0
LINE
  5
91
330
1F
100
AcDbEntity
  8
0
  6
Continuous
 62
     7
370
    15
100
AcDbLine
 10
820.1807948648
 20
346.1608398825
 30
0.0
 11
821.2845939772
 21
343.793735047
 31
0.0
  0
LINE
  5
92
330
1F
100
AcDbEntity
  8
0
  6
Continuous
 62
     7
370
    15
100
AcDbLine
 10
824.1515279691
 20
337.6455752608
 30
0.0
 11
814.9987516658
 21
333.3775655772
 31
0.0
  0
LINE
  5
93
330
1F
100
AcDbEntity
  8
0
  6
Continuous
 62
     7
370
    15
100
AcDbLine
 10
823.0477288566
 20
340.0126800963
 30
0.0
 11
824.1515279691
 21
337.6455752608
 31
0.0
  0
LINE
  5
94
330
1F
100
AcDbEntity
  8
0
  6
Continuous
 62
     7
370
    15
100
AcDbLine
 10
815.0822704889
 20
333.3037209713
 30
0.0
 11
824.1947290733
 21
337.5529301939
 31
0.0
  0
LINE
  5
95
330
1F
100
AcDbEntity
  8
0
  6
Continuous
 62
     7
370
    15
100
AcDbLine
 10
824.1515279691
 20
337.6455752608
 30
0.0
 11
824.1947290733
 21
337.5529301939
 31
0.0
  0
LINE
  5
96
330
1F
100
AcDbEntity
  8
0
  6
Continuous
 62
     7
370
    15
100
AcDbLine
 10
820.1375937606
 20
346.2534849494
 30
0.0
 11
811.0251351762
 21
342.0042757269
 31
0.0
  0
LINE
  5
97
330
1F
100
AcDbEntity
  8
0
  6
Continuous
 62
     7
370
    15
100
AcDbLine
 10
820.1807948648
 20
346.1608398825
 30
0.0
 11
820.1375937606
 21
346.2534849494
 31
0.0
  0
LINE
  5
98
330
1F
100
AcDbEntity
  8
0
  6
Continuous
 62
     7
370
    15
100
AcDbLine
 10
828.9247065601
 20
265.6340765177
 30
0.0
 11
828.1996603305
 21
265.9721711271
 31
0.0
  0
LINE
  5
99
330
1F
100
AcDbEntity
  8
0
  6
Continuous
 62
     7
370
    15
100
AcDbLine
 10
810.3226802735
 20
227.6348636771
 30
0.0
 11
811.0477265032
 21
227.2967690677
 31
0.0
  0
LINE
  5
9A
330
1F
100
AcDbEntity
  8
0
  6
Continuous
 62
     7
370
    15
100
AcDbLine
 10
828.1996603305
 20
265.9721711271
 30
0.0
 11
810.3226802735
 21
227.6348636771
 31
0.0
  0
LINE
  5
9B
330
1F
100
AcDbEntity
  8
0
  6
Continuous
 62
     7
370
    15
100
AcDbLine
 10
828.9247065601
 20
265.6340765177
 30
0.0
 11
811.0477265032
 21
227.2967690677
 31
0.0
  0
LINE
  5
9C
330
1F
100
AcDbEntity
  8
0
  6
Continuous
 62
     7
370
    15
100
AcDbLine
 10
808.9346351945
 20
222.7652301325
 30
0.0
 11
808.2095889648
 21
223.1033247419
 31
0.0
  0
LINE
  5
9D
330
1F
100
AcDbEntity
  8
0
  6
Continuous
 62
     7
370
    15
100
AcDbLine
 10
808.2095889648
 20
223.1033247419
 30
0.0
 11
810.3226802735
 21
227.6348636771
 31
0.0
  0
LINE
  5
9E
330
1F
100
AcDbEntity
  8
0
  6
Continuous
 62
     7
370
    15
100
AcDbLine
 10
811.0477265032
 20
227.2967690677
 30
0.0
 11
808.9346351945
 21
222.7652301325
 31
0.0
  0
LINE
  5
9F
330
1F
100
AcDbEntity
  8
0
  6
Continuous
 62
     7
370
    15
100
AcDbLine
 10
833.107160428
 20
315.8708975697
 30
0.0
 11
832.3821141983
 21
315.5328029603
 31
0.0
  0
LINE
  5
A0
330
1F
100
AcDbEntity
  8
0
  6
Continuous
 62
     7
370
    15
100
AcDbLine
 10
838.4744123521
 20
304.3607886743
 30
0.0
 11
833.107160428
 21
315.8708975697
 31
0.0
  0
LINE
  5
A1
330
1F
100
AcDbEntity
  8
0
  6
Continuous
 62
     7
370
    15
100
AcDbLine
 10
837.7493661224
 20
304.0226940649
 30
0.0
 11
838.4744123521
 21
304.3607886743
 31
0.0
  0
LINE
  5
A2
330
1F
100
AcDbEntity
  8
0
  6
Continuous
 62
     7
370
    15
100
AcDbLine
 10
837.7493661224
 20
304.0226940649
 30
0.0
 11
832.3821141983
 21
315.5328029603
 31
0.0
  0
LINE
  5
A3
330
1F
100
AcDbEntity
  8
0
  6
Continuous
 62
     7
370
    15
100
AcDbLine
 10
840.5875036608
 20
299.8292497391
 30
0.0
 11
839.8624574311
 21
299.4911551297
 31
0.0
  0
LINE
  5
A4
330
1F
100
AcDbEntity
  8
0
  6
Continuous
 62
     7
370
    15
100
AcDbLine
 10
838.4744123521
 20
304.3607886743
 30
0.0
 11
840.5875036608
 21
299.8292497391
 31
0.0
  0
LINE
  5
A5
330
1F
100
AcDbEntity
  8
0
  6
Continuous
 62
     7
370
    15
100
AcDbLine
 10
839.8624574311
 20
299.4911551297
 30
0.0
 11
837.7493661224
 21
304.0226940649
 31
0.0
  0
ARC
  5
A6
330
1F
100
AcDbEntity
  8
0
  6
Continuous
 62
     7
370
    15
100
AcDbCircle
 10
826.8401986499
 20
266.6060985197
 30
0.0
 40
2.300000000000075
100
AcDbArc
 50
335.0
 51
25.0
  0
ARC
  5
A7
330
1F
100
AcDbEntity
  8
0
  6
Continuous
 62
     7
370
    15
100
AcDbCircle
 10
826.8401986499
 20
266.6060985197
 30
0.0
 40
1.500000000000044
100
AcDbArc
 50
335.0
 51
25.0
  0
LINE
  5
A8
330
1F
100
AcDbEntity
  8
0
  6
Continuous
 62
     7
370
    15
100
AcDbLine
 10
828.1996603305
 20
267.2400259123
 30
0.0
 11
828.9247065601
 21
267.5781205217
 31
0.0
  0
LINE
  5
A9
330
1F
100
AcDbEntity
  8
0
  6
Continuous
 62
     7
370
    15
100
AcDbLine
 10
811.1745119817
 20
305.6435356355
 30
0.0
 11
810.449465752
 21
305.3054410262
 31
0.0
  0
LINE
  5
AA
330
1F
100
AcDbEntity
  8
0
  6
Continuous
 62
     7
370
    15
100
AcDbLine
 10
811.1745119817
 20
305.6435356355
 30
0.0
 11
828.9247065601
 21
267.5781205217
 31
0.0
  0
LINE
  5
AB
330
1F
100
AcDbEntity
  8
0
  6
Continuous
 62
     7
370
    15
100
AcDbLine
 10
810.449465752
 20
305.3054410262
 30
0.0
 11
828.1996603305
 21
267.2400259123
 31
0.0
  0
LINE
  5
AC
330
1F
100
AcDbEntity
  8
0
  6
Continuous
 62
     7
370
    15
100
AcDbLine
 10
830.3887251252
 20
316.2583372482
 30
0.0
 11
830.0506305158
 21
316.9833834779
 31
0.0
  0
LINE
  5
AD
330
1F
100
AcDbEntity
  8
0
  6
Continuous
 62
     7
370
    15
100
AcDbLine
 10
830.3887251252
 20
316.2583372482
 30
0.0
 11
811.9000462696
 21
307.6369247087
 31
0.0
  0
LINE
  5
AE
330
1F
100
AcDbEntity
  8
0
  6
Continuous
 62
     7
370
    15
100
AcDbLine
 10
811.5619516602
 20
308.3619709383
 30
0.0
 11
811.9000462696
 21
307.6369247087
 31
0.0
  0
LINE
  5
AF
330
1F
100
AcDbEntity
  8
0
  6
Continuous
 62
     7
370
    15
100
AcDbLine
 10
830.0506305158
 20
316.9833834779
 30
0.0
 11
811.5619516602
 21
308.3619709383
 31
0.0
  0
ARC
  5
B0
330
1F
100
AcDbEntity
  8
0
  6
Continuous
 62
     7
370
    15
100
AcDbCircle
 10
831.0226525178
 20
314.8988755677
 30
0.0
 40
1.500000000000044
100
AcDbArc
 50
25.0
 51
115.0
  0
ARC
  5
B1
330
1F
100
AcDbEntity
  8
0
  6
Continuous
 62
     7
370
    15
100
AcDbCircle
 10
831.0226525178
 20
314.8988755677
 30
0.0
 40
2.300000000000075
100
AcDbArc
 50
25.0
 51
115.0
  0
ARC
  5
B2
330
1F
100
AcDbEntity
  8
0
  6
Continuous
 62
     7
370
    15
100
AcDbCircle
 10
812.5339736622
 20
306.2774630282
 30
0.0
 40
1.50000000000002
100
AcDbArc
 50
115.0
 51
205.0
  0
ARC
  5
B3
330
1F
100
AcDbEntity
  8
0
  6
Continuous
 62
     7
370
    15
100
AcDbCircle
 10
812.5339736622
 20
306.2774630282
 30
0.0
 40
2.300000000000075
100
AcDbArc
 50
115.0
 51
205.0
  0
CIRCLE
  5
B4
330
1F
100
AcDbEntity
  8
0
  6
Continuous
 62
     7
370
    15
100
AcDbCircle
 10
394.2712361161
 20
440.2600948253
 30
0.0
 40
2.525000000000034
  0
CIRCLE
  5
B5
330
1F
100
AcDbEntity
  8
0
  6
Continuous
 62
     7
370
    15
100
AcDbCircle
 10
394.2712361161
 20
440.2600948253
 30
0.0
 40
2.100000000000023
  0
CIRCLE
  5
B6
330
1F
100
AcDbEntity
  8
0
  6
Continuous
 62
     7
370
    15
100
AcDbCircle
 10
4.2712361161
 20
440.2600948253
 30
0.0
 40
2.525
  0
CIRCLE
  5
B7
330
1F
100
AcDbEntity
  8
0
  6
Continuous
 62
     7
370
    15
100
AcDbCircle
 10
4.2712361161
 20
440.2600948253
 30
0.0
 40
2.099999999999991
  0
LINE
  5
B8
330
1F
100
AcDbEntity
  8
0
  6
Continuous
 62
     7
370
    15
100
AcDbLine
 10
759.1212361161
 20
462.2600948253
 30
0.0
 11
814.6712361161
 21
462.2600948253
 31
0.0
  0
LINE
  5
B9
330
1F
100
AcDbEntity
  8
0
  6
Continuous
 62
     7
370
    15
100
AcDbLine
 10
814.6712361161
 20
460.2600948253
 30
0.0
 11
814.6712361161
 21
462.2600948253
 31
0.0
  0
LINE
  5
BA
330
1F
100
AcDbEntity
  8
0
  6
Continuous
 62
     7
370
    15
100
AcDbLine
 10
759.1212361161
 20
460.2600948253
 30
0.0
 11
814.6712361161
 21
460.2600948253
 31
0.0
  0
LINE
  5
BB
330
1F
100
AcDbEntity
  8
0
  6
Continuous
 62
     7
370
    15
100
AcDbLine
 10
759.1212361161
 20
462.2600948253
 30
0.0
 11
759.1212361161
 21
460.2600948253
 31
0.0
  0
LINE
  5
BC
330
1F
100
AcDbEntity
  8
0
  6
Continuous
 62
     7
370
    15
100
AcDbLine
 10
825.5469295605
 20
445.1886756844
 30
0.0
 11
823.7343139864
 21
446.0339122079
 31
0.0
  0
LINE
  5
BD
330
1F
100
AcDbEntity
  8
0
  6
Continuous
 62
     7
370
    15
100
AcDbLine
 10
825.5469295605
 20
445.1886756844
 30
0.0
 11
811.1088351355
 21
414.226082271
 31
0.0
  0
LINE
  5
BE
330
1F
100
AcDbEntity
  8
0
  6
Continuous
 62
     7
370
    15
100
AcDbLine
 10
809.2962195614
 20
415.0713187944
 30
0.0
 11
811.1088351355
 21
414.226082271
 31
0.0
  0
LINE
  5
BF
330
1F
100
AcDbEntity
  8
0
  6
Continuous
 62
     7
370
    15
100
AcDbLine
 10
823.7343139864
 20
446.0339122079
 30
0.0
 11
809.2962195614
 21
415.0713187944
 31
0.0
  0
ARC
  5
C0
330
1F
100
AcDbEntity
  8
0
  6
Continuous
 62
     7
370
    15
100
AcDbCircle
 10
814.6712361161
 20
450.2600948253
 30
0.0
 40
12.00000000000008
100
AcDbArc
 50
335.0
 51
90.0
  0
ARC
  5
C1
330
1F
100
AcDbEntity
  8
0
  6
Continuous
 62
     7
370
    15
100
AcDbCircle
 10
814.6712361161
 20
450.2600948253
 30
0.0
 40
10.00000000000006
100
AcDbArc
 50
335.0
 51
90.0
  0
ARC
  5
C2
330
1F
100
AcDbEntity
  8
0
  6
Continuous
 62
     7
370
    15
100
AcDbCircle
 10
800.2331416911
 20
419.2975014119
 30
0.0
 40
12.0
100
AcDbArc
 50
295.0
 51
335.0
  0
LINE
  5
C3
330
1F
100
AcDbEntity
  8
0
  6
Continuous
 62
     7
370
    15
100
AcDbLine
 10
805.3045608319
 20
408.4218079674
 30
0.0
 11
804.4593243085
 21
410.2344235415
 31
0.0
  0
ARC
  5
C4
330
1F
100
AcDbEntity
  8
0
  6
Continuous
 62
     7
370
    15
100
AcDbCircle
 10
800.2331416911
 20
419.2975014119
 30
0.0
 40
10.00000000000003
100
AcDbArc
 50
295.0
 51
335.0
  0
LINE
  5
C5
330
1F
100
AcDbEntity
  8
0
  6
Continuous
 62
     7
370
    15
100
AcDbLine
 10
786.9129357823
 20
402.0524081988
 30
0.0
 11
787.7581723058
 21
400.2397926247
 31
0.0
  0
LINE
  5
C6
330
1F
100
AcDbEntity
  8
0
  6
Continuous
 62
     7
370
    15
100
AcDbLine
 10
785.9455567317
 20
399.3945561012
 30
0.0
 11
785.1003202082
 21
401.2071716753
 31
0.0
  0
LINE
  5
C7
330
1F
100
AcDbEntity
  8
0
  6
Continuous
 62
     7
370
    15
100
AcDbLine
 10
785.1003202082
 20
401.2071716753
 30
0.0
 11
786.9129357823
 21
402.0524081988
 31
0.0
  0
LINE
  5
C8
330
1F
100
AcDbEntity
  8
0
  6
Continuous
 62
     7
370
    15
100
AcDbLine
 10
787.7581723058
 20
400.2397926247
 30
0.0
 11
785.9455567317
 21
399.3945561012
 31
0.0
  0
LINE
  5
C9
330
1F
100
AcDbEntity
  8
0
  6
Continuous
 62
     7
370
    15
100
AcDbLine
 10
804.4593243085
 20
410.2344235415
 30
0.0
 11
786.9129357823
 21
402.0524081988
 31
0.0
  0
LINE
  5
CA
330
1F
100
AcDbEntity
  8
0
  6
Continuous
 62
     7
370
    15
100
AcDbLine
 10
805.3045608319
 20
408.4218079674
 30
0.0
 11
787.7581723058
 21
400.2397926247
 31
0.0
  0
LINE
  5
CB
330
1F
100
AcDbEntity
  8
0
  6
Continuous
 62
     7
370
    15
100
AcDbLine
 10
38.4212361161
 20
460.2600948253
 30
0.0
 11
759.1212361161
 21
460.2600948253
 31
0.0
  0
LINE
  5
CC
330
1F
100
AcDbEntity
  8
0
  6
Continuous
 62
     7
370
    15
100
AcDbLine
 10
38.4212361161
 20
460.2600948253
 30
0.0
 11
38.4212361161
 21
462.2600948253
 31
0.0
  0
LINE
  5
CD
330
1F
100
AcDbEntity
  8
0
  6
Continuous
 62
     7
370
    15
100
AcDbLine
 10
38.4212361161
 20
462.2600948253
 30
0.0
 11
759.1212361161
 21
462.2600948253
 31
0.0
  0
LINE
  5
CE
330
1F
100
AcDbEntity
  8
0
  6
Continuous
 62
     7
370
    15
100
AcDbLine
 10
1.6680918872
 20
476.0100948253
 30
0.0
 11
-0.3319081128
 21
476.0100948253
 31
0.0
  0
LINE
  5
CF
330
1F
100
AcDbEntity
  8
0
  6
Continuous
 62
     7
370
    15
100
AcDbLine
 10
1.6680918872
 20
476.0100948253
 30
0.0
 11
1.6680918872
 21
464.5100948253
 31
0.0
  0
LINE
  5
D0
330
1F
100
AcDbEntity
  8
0
  6
Continuous
 62
     7
370
    15
100
AcDbLine
 10
-0.3319081128
 20
464.5100948253
 30
0.0
 11
1.6680918872
 21
464.5100948253
 31
0.0
  0
LINE
  5
D1
330
1F
100
AcDbEntity
  8
0
  6
Continuous
 62
     7
370
    15
100
AcDbLine
 10
-0.3319081128
 20
476.0100948253
 30
0.0
 11
-0.3319081128
 21
464.5100948253
 31
0.0
  0
ARC
  5
D2
330
1F
100
AcDbEntity
  8
0
  6
Continuous
 62
     7
370
    15
100
AcDbCircle
 10
3.9180918872
 20
464.5100948253
 30
0.0
 40
2.250000000000057
100
AcDbArc
 50
180.0
 51
270.0
  0
LINE
  5
D3
330
1F
100
AcDbEntity
  8
0
  6
Continuous
 62
     7
370
    15
100
AcDbLine
 10
3.9180918872
 20
462.2600948253
 30
0.0
 11
3.9180918872
 21
460.2600948253
 31
0.0
  0
ARC
  5
D4
330
1F
100
AcDbEntity
  8
0
  6
Continuous
 62
     7
370
    15
100
AcDbCircle
 10
3.9180918872
 20
464.5100948253
 30
0.0
 40
4.250000000000057
100
AcDbArc
 50
180.0
 51
270.0
  0
LINE
  5
D5
330
1F
100
AcDbEntity
  8
0
  6
Continuous
 62
     7
370
    15
100
AcDbLine
 10
-73.3319081128
 20
464.5100948253
 30
0.0
 11
-71.3319081128
 21
464.5100948253
 31
0.0
  0
LINE
  5
D6
330
1F
100
AcDbEntity
  8
0
  6
Continuous
 62
     7
370
    15
100
AcDbLine
 10
-73.3319081128
 20
464.5100948253
 30
0.0
 11
-73.3319081128
 21
476.0100948253
 31
0.0
  0
LINE
  5
D7
330
1F
100
AcDbEntity
  8
0
  6
Continuous
 62
     7
370
    15
100
AcDbLine
 10
-71.3319081128
 20
476.0100948253
 30
0.0
 11
-73.3319081128
 21
476.0100948253
 31
0.0
  0
LINE
  5
D8
330
1F
100
AcDbEntity
  8
0
  6
Continuous
 62
     7
370
    15
100
AcDbLine
 10
-71.3319081128
 20
464.5100948253
 30
0.0
 11
-71.3319081128
 21
476.0100948253
 31
0.0
  0
ARC
  5
D9
330
1F
100
AcDbEntity
  8
0
  6
Continuous
 62
     7
370
    15
100
AcDbCircle
 10
-69.0819081128
 20
476.0100948253
 30
0.0
 40
4.25
100
AcDbArc
 50
90.0
 51
180.0
  0
LINE
  5
DA
330
1F
100
AcDbEntity
  8
0
  6
Continuous
 62
     7
370
    15
100
AcDbLine
 10
-69.0819081128
 20
480.2600948253
 30
0.0
 11
-69.0819081128
 21
478.2600948253
 31
0.0
  0
ARC
  5
DB
330
1F
100
AcDbEntity
  8
0
  6
Continuous
 62
     7
370
    15
100
AcDbCircle
 10
-69.0819081128
 20
476.0100948253
 30
0.0
 40
2.25
100
AcDbArc
 50
90.0
 51
180.0
  0
LINE
  5
DC
330
1F
100
AcDbEntity
  8
0
  6
Continuous
 62
     7
370
    15
100
AcDbLine
 10
-60.3319081128
 20
460.2600948253
 30
0.0
 11
-60.3319081128
 21
462.2600948253
 31
0.0
  0
LINE
  5
DD
330
1F
100
AcDbEntity
  8
0
  6
Continuous
 62
     7
370
    15
100
AcDbLine
 10
-58.3319081128
 20
462.2600948253
 30
0.0
 11
-58.3319081128
 21
460.2600948253
 31
0.0
  0
LINE
  5
DE
330
1F
100
AcDbEntity
  8
0
  6
Continuous
 62
     7
370
    15
100
AcDbLine
 10
-58.3319081128
 20
460.2600948253
 30
0.0
 11
-60.3319081128
 21
460.2600948253
 31
0.0
  0
LINE
  5
DF
330
1F
100
AcDbEntity
  8
0
  6
Continuous
 62
     7
370
    15
100
AcDbLine
 10
-60.3319081128
 20
462.2600948253
 30
0.0
 11
-58.3319081128
 21
462.2600948253
 31
0.0
  0
LINE
  5
E0
330
1F
100
AcDbEntity
  8
0
  6
Continuous
 62
     7
370
    15
100
AcDbLine
 10
-69.0819081128
 20
462.2600948253
 30
0.0
 11
-69.0819081128
 21
460.2600948253
 31
0.0
  0
ARC
  5
E1
330
1F
100
AcDbEntity
  8
0
  6
Continuous
 62
     7
370
    15
100
AcDbCircle
 10
-69.0819081128
 20
464.5100948253
 30
0.0
 40
4.250000000000057
100
AcDbArc
 50
180.0
 51
270.0
  0
ARC
  5
E2
330
1F
100
AcDbEntity
  8
0
  6
Continuous
 62
     7
370
    15
100
AcDbCircle
 10
-69.0819081128
 20
464.5100948253
 30
0.0
 40
2.25
100
AcDbArc
 50
180.0
 51
270.0
  0
LINE
  5
E3
330
1F
100
AcDbEntity
  8
0
  6
Continuous
 62
     7
370
    15
100
AcDbLine
 10
-2.5819081128
 20
478.2600948253
 30
0.0
 11
-2.5819081128
 21
480.2600948253
 31
0.0
  0
LINE
  5
E4
330
1F
100
AcDbEntity
  8
0
  6
Continuous
 62
     7
370
    15
100
AcDbLine
 10
-69.0819081128
 20
478.2600948253
 30
0.0
 11
-2.5819081128
 21
478.2600948253
 31
0.0
  0
LINE
  5
E5
330
1F
100
AcDbEntity
  8
0
  6
Continuous
 62
     7
370
    15
100
AcDbLine
 10
-69.0819081128
 20
480.2600948253
 30
0.0
 11
-2.5819081128
 21
480.2600948253
 31
0.0
  0
LINE
  5
E6
330
1F
100
AcDbEntity
  8
0
  6
Continuous
 62
     7
370
    15
100
AcDbLine
 10
-60.3319081128
 20
460.2600948253
 30
0.0
 11
-69.0819081128
 21
460.2600948253
 31
0.0
  0
LINE
  5
E7
330
1F
100
AcDbEntity
  8
0
  6
Continuous
 62
     7
370
    15
100
AcDbLine
 10
-60.3319081128
 20
462.2600948253
 30
0.0
 11
-69.0819081128
 21
462.2600948253
 31
0.0
  0
ARC
  5
E8
330
1F
100
AcDbEntity
  8
0
  6
Continuous
 62
     7
370
    15
100
AcDbCircle
 10
-2.5819081128
 20
476.0100948253
 30
0.0
 40
2.25
100
AcDbArc
 50
0.0
 51
90.0
  0
ARC
  5
E9
330
1F
100
AcDbEntity
  8
0
  6
Continuous
 62
     7
370
    15
100
AcDbCircle
 10
-2.5819081128
 20
476.0100948253
 30
0.0
 40
4.25
100
AcDbArc
 50
0.0
 51
90.0
  0
LINE
  5
EA
330
1F
100
AcDbEntity
  8
0
  6
Continuous
 62
     7
370
    15
100
AcDbLine
 10
3.9180918872
 20
460.2600948253
 30
0.0
 11
38.4212361161
 21
460.2600948253
 31
0.0
  0
LINE
  5
EB
330
1F
100
AcDbEntity
  8
0
  6
Continuous
 62
     7
370
    15
100
AcDbLine
 10
3.9180918872
 20
462.2600948253
 30
0.0
 11
38.4212361161
 21
462.2600948253
 31
0.0
  0
LINE
  5
EC
330
1F
100
AcDbEntity
  8
0
  6
Continuous
 62
     7
370
    15
100
AcDbLine
 10
93.2123434255
 20
113.8600948253
 30
0.0
 11
40.2123434255
 21
113.8600948253
 31
0.0
  0
LINE
  5
ED
330
1F
100
AcDbEntity
  8
0
  6
Continuous
 62
     7
370
    15
100
AcDbLine
 10
95.2123434255
 20
119.8600948253
 30
0.0
 11
38.2123434255
 21
119.8600948253
 31
0.0
  0
LINE
  5
EE
330
1F
100
AcDbEntity
  8
0
  6
Continuous
 62
     7
370
    15
100
AcDbLine
 10
672.2123434255
 20
113.8600948253
 30
0.0
 11
619.2123434255
 21
113.8600948253
 31
0.0
  0
LINE
  5
EF
330
1F
100
AcDbEntity
  8
0
  6
Continuous
 62
     7
370
    15
100
AcDbLine
 10
674.2123434255
 20
119.8600948253
 30
0.0
 11
617.2123434255
 21
119.8600948253
 31
0.0
  0
LINE
  5
F0
330
1F
100
AcDbEntity
  8
0
  6
Continuous
 62
     7
370
    15
100
AcDbLine
 10
690.7123434255
 20
211.8600948253
 30
0.0
 11
690.7123434255
 21
213.0600948253
 31
0.0
  0
LINE
  5
F1
330
1F
100
AcDbEntity
  8
0
  6
Continuous
 62
     7
370
    15
100
AcDbLine
 10
600.7123434255
 20
211.8600948253
 30
0.0
 11
690.7123434255
 21
211.8600948253
 31
0.0
  0
LINE
  5
F2
330
1F
100
AcDbEntity
  8
0
  6
Continuous
 62
     7
370
    15
100
AcDbLine
 10
600.7123434255
 20
211.8600948253
 30
0.0
 11
600.7123434255
 21
213.0600948253
 31
0.0
  0
LINE
  5
F3
330
1F
100
AcDbEntity
  8
0
  6
Continuous
 62
     7
370
    15
100
AcDbLine
 10
676.6719936459
 20
148.8600948253
 30
0.0
 11
614.7526932052
 21
148.8600948253
 31
0.0
  0
LINE
  5
F4
330
1F
100
AcDbEntity
  8
0
  6
Continuous
 62
     7
370
    15
100
AcDbLine
 10
111.7123434255
 20
211.8600948253
 30
0.0
 11
111.7123434255
 21
213.0600948253
 31
0.0
  0
LINE
  5
F5
330
1F
100
AcDbEntity
  8
0
  6
Continuous
 62
     7
370
    15
100
AcDbLine
 10
21.7123434255
 20
211.8600948253
 30
0.0
 11
21.7123434255
 21
213.0600948253
 31
0.0
  0
LINE
  5
F6
330
1F
100
AcDbEntity
  8
0
  6
Continuous
 62
     7
370
    15
100
AcDbLine
 10
21.7123434255
 20
211.8600948253
 30
0.0
 11
111.7123434255
 21
211.8600948253
 31
0.0
  0
LINE
  5
F7
330
1F
100
AcDbEntity
  8
0
  6
Continuous
 62
     7
370
    15
100
AcDbLine
 10
97.6719936459
 20
148.8600948253
 30
0.0
 11
35.7526932052
 21
148.8600948253
 31
0.0
  0
LINE
  5
F8
330
1F
100
AcDbEntity
  8
0
  6
Continuous
 62
     7
370
    15
100
AcDbLine
 10
-4.8242975078
 20
480.2600948253
 30
0.0
 11
-7.7592595573
 21
513.8068645577
 31
0.0
  0
LINE
  5
F9
330
1F
100
AcDbEntity
  8
0
  6
Continuous
 62
     7
370
    15
100
AcDbLine
 10
-62.6710580648
 20
527.9058180837
 30
0.0
 11
-66.8395187154
 21
480.2600948253
 31
0.0
  0
LINE
  5
FA
330
1F
100
AcDbEntity
  8
0
  6
Continuous
 62
     7
370
    15
100
AcDbLine
 10
-7.7592595573
 20
513.8068645577
 30
0.0
 11
-62.6710580648
 21
527.9058180837
 31
0.0
  0
ARC
  5
FB
330
1F
100
AcDbEntity
  8
0
  6
Continuous
 62
     7
370
    15
100
AcDbCircle
 10
-6.7630648592
 20
508.0411618979
 30
0.0
 40
5.851130748650652
100
AcDbArc
 50
80.1972507075
 51
99.8027492925
  0
LINE
  5
FC
330
1F
100
AcDbEntity
  8
0
  6
Continuous
 62
     7
370
    15
100
AcDbLine
 10
-5.7668701611
 20
513.8068645577
 30
0.0
 11
-2.8319081116
 21
480.2600948253
 31
0.0
  0
LINE
  5
FD
330
1F
100
AcDbEntity
  8
0
  6
Continuous
 62
     7
370
    15
100
AcDbLine
 10
-68.8319081116
 20
480.2600948253
 30
0.0
 11
-64.663447461
 21
527.9058180837
 31
0.0
  0
ARC
  5
FE
330
1F
100
AcDbEntity
  8
0
  6
Continuous
 62
     7
370
    15
100
AcDbCircle
 10
-63.6672527629
 20
522.1401154239
 30
0.0
 40
5.851130748662023
100
AcDbArc
 50
80.1972507076
 51
99.8027492924
  0
ARC
  5
FF
330
1F
100
AcDbEntity
  8
0
  6
Continuous
 62
     7
370
    15
100
AcDbCircle
 10
-42.7741141073
 20
523.2435989286
 30
0.0
 40
20.43586715307359
100
AcDbArc
 50
161.6752935119
 51
166.812465909
  0
LINE
  5
100
330
1F
100
AcDbEntity
  8
0
  6
Continuous
 62
     7
370
    15
100
AcDbLine
 10
-62.1736782905
 20
529.6686729205
 30
0.0
 11
-7.261879783
 21
515.5697193944
 31
0.0
  0
ARC
  5
101
330
1F
100
AcDbEntity
  8
0
  6
Continuous
 62
     7
370
    15
100
AcDbCircle
 10
12.1376844001
 20
509.1446454025
 30
0.0
 40
20.43586715299879
100
AcDbArc
 50
161.6752935119
 51
166.812465909
  0
ARC
  5
102
330
1F
100
AcDbEntity
  8
0
  6
Continuous
 62
     7
370
    15
100
AcDbCircle
 10
-7.7592595573
 20
513.6325530722
 30
0.0
 40
2.000000000000177
100
AcDbArc
 50
5.0
 51
75.6
  0
ARC
  5
103
330
1F
100
AcDbEntity
  8
0
  6
Continuous
 62
     7
370
    15
100
AcDbCircle
 10
-62.6710580648
 20
527.7315065982
 30
0.0
 40
2.00000000000003
100
AcDbArc
 50
75.6
 51
175.0
  0
LINE
  5
104
330
1F
100
AcDbEntity
  8
0
  6
Continuous
 62
     7
370
    15
100
AcDbLine
 10
-2.5835151685
 20
475.9600948251
 30
0.0
 11
-69.0819081127
 21
475.9600948251
 31
0.0
  0
ARC
  5
105
330
1F
100
AcDbEntity
  8
0
  6
Continuous
 62
     7
370
    15
100
AcDbCircle
 10
-69.0835151685
 20
476.1100948251
 30
0.0
 40
2.149999999999977
100
AcDbArc
 50
90.0
 51
180.0
  0
LINE
  5
106
330
1F
100
AcDbEntity
  8
0
  6
Continuous
 62
     7
370
    15
100
AcDbLine
 10
-69.0819081127
 20
478.2600948251
 30
0.0
 11
-69.0819081127
 21
475.9600948251
 31
0.0
  0
LINE
  5
107
330
1F
100
AcDbEntity
  8
0
  6
Continuous
 62
     7
370
    15
100
AcDbLine
 10
-2.5835151685
 20
475.9600948251
 30
0.0
 11
-2.5835151685
 21
478.2600948251
 31
0.0
  0
ARC
  5
108
330
1F
100
AcDbEntity
  8
0
  6
Continuous
 62
     7
370
    15
100
AcDbCircle
 10
-2.5835151685
 20
476.1100948251
 30
0.0
 40
2.149999999999985
100
AcDbArc
 50
359.9999999959
 51
90.0
  0
LINE
  5
109
330
1F
100
AcDbEntity
  8
0
  6
Continuous
 62
     7
370
    15
100
AcDbLine
 10
-0.4335151685
 20
476.110094825
 30
0.0
 11
-0.4335151685
 21
464.6100948249
 31
0.0
  0
ARC
  5
10A
330
1F
100
AcDbEntity
  8
0
  6
Continuous
 62
     7
370
    15
100
AcDbCircle
 10
3.9164848315
 20
464.6100948246
 30
0.0
 40
4.350000000000019
100
AcDbArc
 50
179.999999996
 51
252.5584061437
  0
LINE
  5
10B
330
1F
100
AcDbEntity
  8
0
  6
Continuous
 62
     7
370
    15
100
AcDbLine
 10
2.6126443505
 20
460.4600948246
 30
0.0
 11
-2.5835151685
 21
460.4600948246
 31
0.0
  0
LINE
  5
10C
330
1F
100
AcDbEntity
  8
0
  6
Continuous
 62
     7
370
    15
100
AcDbLine
 10
-2.5835151685
 20
460.4600948246
 30
0.0
 11
-2.5835151685
 21
462.7600948246
 31
0.0
  0
LINE
  5
10D
330
1F
100
AcDbEntity
  8
0
  6
Continuous
 62
     7
370
    15
100
AcDbLine
 10
-58.2335151696
 20
462.7600948246
 30
0.0
 11
-2.5835151685
 21
462.7600948246
 31
0.0
  0
LINE
  5
10E
330
1F
100
AcDbEntity
  8
0
  6
Continuous
 62
     7
370
    15
100
AcDbLine
 10
-58.2335151696
 20
462.7600948246
 30
0.0
 11
-58.2335151696
 21
462.4600948251
 31
0.0
  0
LINE
  5
10F
330
1F
100
AcDbEntity
  8
0
  6
Continuous
 62
     7
370
    15
100
AcDbLine
 10
-71.2335151685
 20
464.6100948251
 30
0.0
 11
-71.2335151685
 21
476.1100948251
 31
0.0
  0
LINE
  5
110
330
1F
100
AcDbEntity
  8
0
  6
Continuous
 62
     7
370
    15
100
AcDbLine
 10
-58.2335151696
 20
462.4600948251
 30
0.0
 11
-69.0835151685
 21
462.4600948251
 31
0.0
  0
ARC
  5
111
330
1F
100
AcDbEntity
  8
0
  6
Continuous
 62
     7
370
    15
100
AcDbCircle
 10
-69.0835151685
 20
464.6100948251
 30
0.0
 40
2.149999999999977
100
AcDbArc
 50
180.0
 51
270.0
  0
LINE
  5
112
330
1F
100
AcDbEntity
  8
0
  6
Continuous
 62
     7
370
    15
100
AcDbLine
 10
-69.0835151685
 20
478.2600948251
 30
0.0
 11
-69.0819081127
 21
478.2600948251
 31
0.0
  0
LINE
  5
113
330
1F
100
AcDbEntity
  8
0
  6
Continuous
 62
     7
370
    15
100
AcDbLine
 10
-2.5835151685
 20
460.4600948246
 30
0.0
 11
-58.2335151696
 21
460.4600948246
 31
0.0
  0
LINE
  5
114
330
1F
100
AcDbEntity
  8
0
  6
Continuous
 62
     7
370
    15
100
AcDbLine
 10
-58.2335151696
 20
460.4600948246
 30
0.0
 11
-58.2335151696
 21
462.4600948251
 31
0.0
  0
LINE
  5
115
330
1F
100
AcDbEntity
  8
0
  6
Continuous
 62
     7
370
    15
100
AcDbLine
 10
736.6870620514
 20
213.0600948253
 30
0.0
 11
736.6870620514
 21
212.2600948253
 31
0.0
  0
LINE
  5
116
330
1F
100
AcDbEntity
  8
0
  6
Continuous
 62
     7
370
    15
100
AcDbLine
 10
736.6870620514
 20
212.2600948253
 30
0.0
 11
734.6870620514
 21
212.2600948253
 31
0.0
  0
LINE
  5
117
330
1F
100
AcDbEntity
  8
0
  6
Continuous
 62
     7
370
    15
100
AcDbLine
 10
734.6870620514
 20
212.2600948253
 30
0.0
 11
734.6870620514
 21
213.0600948253
 31
0.0
  0
LINE
  5
118
330
1F
100
AcDbEntity
  8
0
  6
Continuous
 62
     7
370
    15
100
AcDbLine
 10
734.6870620514
 20
213.0600948253
 30
0.0
 11
736.6870620514
 21
213.0600948253
 31
0.0
  0
ARC
  5
119
330
1F
100
AcDbEntity
  8
0
  6
Continuous
 62
     7
370
    15
100
AcDbCircle
 10
770.9412971414
 20
392.2453136965
 30
0.0
 40
1.249999999999977
100
AcDbArc
 50
115.0
 51
205.0
  0
LINE
  5
11A
330
1F
100
AcDbEntity
  8
0
  6
Continuous
 62
     7
370
    15
100
AcDbLine
 10
769.8084124076
 20
391.7170408693
 30
0.0
 11
769.083366178
 21
391.3789462599
 31
0.0
  0
ARC
  5
11B
330
1F
100
AcDbEntity
  8
0
  6
Continuous
 62
     7
370
    15
100
AcDbCircle
 10
770.9412971414
 20
392.2453136965
 30
0.0
 40
2.050000000000033
100
AcDbArc
 50
115.0
 51
205.0
  0
LINE
  5
11C
330
1F
100
AcDbEntity
  8
0
  6
Continuous
 62
     7
370
    15
100
AcDbLine
 10
770.0749297048
 20
394.1032446599
 30
0.0
 11
770.4130243142
 21
393.3781984303
 31
0.0
  0
LINE
  5
11D
330
1F
100
AcDbEntity
  8
0
  6
Continuous
 62
     7
370
    15
100
AcDbLine
 10
770.0749297048
 20
394.1032446599
 30
0.0
 11
782.717923334
 21
399.9987694112
 31
0.0
  0
LINE
  5
11E
330
1F
100
AcDbEntity
  8
0
  6
Continuous
 62
     7
370
    15
100
AcDbLine
 10
783.0560179434
 20
399.2737231816
 30
0.0
 11
782.717923334
 21
399.9987694112
 31
0.0
  0
LINE
  5
11F
330
1F
100
AcDbEntity
  8
0
  6
Continuous
 62
     7
370
    15
100
AcDbLine
 10
770.4130243142
 20
393.3781984303
 30
0.0
 11
783.0560179434
 21
399.2737231816
 31
0.0
  0
LINE
  5
120
330
1F
100
AcDbEntity
  8
0
  6
Continuous
 62
     7
370
    15
100
AcDbLine
 10
825.7152820338
 20
262.6958175985
 30
0.0
 11
824.9902358041
 21
263.0339122079
 31
0.0
  0
LINE
  5
121
330
1F
100
AcDbEntity
  8
0
  6
Continuous
 62
     7
370
    15
100
AcDbLine
 10
805.1044835433
 20
218.4958175985
 30
0.0
 11
825.7152820338
 21
262.6958175985
 31
0.0
  0
LINE
  5
122
330
1F
100
AcDbEntity
  8
0
  6
Continuous
 62
     7
370
    15
100
AcDbLine
 10
804.3794373137
 20
218.8339122079
 30
0.0
 11
805.1044835433
 21
218.4958175985
 31
0.0
  0
LINE
  5
123
330
1F
100
AcDbEntity
  8
0
  6
Continuous
 62
     7
370
    15
100
AcDbLine
 10
804.3794373137
 20
218.8339122079
 30
0.0
 11
824.9902358041
 21
263.0339122079
 31
0.0
  0
ARC
  5
124
330
1F
100
AcDbEntity
  8
0
  6
Continuous
 62
     7
370
    15
100
AcDbCircle
 10
795.3163594433
 20
223.0600948253
 30
0.0
 40
10.80000000000001
100
AcDbArc
 50
270.0
 51
335.0
  0
LINE
  5
125
330
1F
100
AcDbEntity
  8
0
  6
Continuous
 62
     7
370
    15
100
AcDbLine
 10
795.3163594433
 20
212.2600948253
 30
0.0
 11
795.3163594433
 21
213.0600948253
 31
0.0
  0
ARC
  5
126
330
1F
100
AcDbEntity
  8
0
  6
Continuous
 62
     7
370
    15
100
AcDbCircle
 10
795.3163594433
 20
223.0600948253
 30
0.0
 40
10.0
100
AcDbArc
 50
270.0
 51
335.0
  0
LINE
  5
127
330
1F
100
AcDbEntity
  8
0
  6
Continuous
 62
     7
370
    15
100
AcDbLine
 10
736.6870620514
 20
213.0600948253
 30
0.0
 11
795.3163594433
 21
213.0600948253
 31
0.0
  0
LINE
  5
128
330
1F
100
AcDbEntity
  8
0
  6
Continuous
 62
     7
370
    15
100
AcDbLine
 10
736.6870620514
 20
212.2600948253
 30
0.0
 11
795.3163594433
 21
212.2600948253
 31
0.0
  0
LINE
  5
129
330
1F
100
AcDbEntity
  8
0
  6
Continuous
 62
     7
370
    15
100
AcDbLine
 10
824.9902358041
 20
271.4862774427
 30
0.0
 11
825.7152820338
 21
271.8243720521
 31
0.0
  0
ARC
  5
12A
330
1F
100
AcDbEntity
  8
0
  6
Continuous
 62
     7
370
    15
100
AcDbCircle
 10
815.9271579338
 20
267.2600948253
 30
0.0
 40
10.00000000000001
100
AcDbArc
 50
335.0
 51
25.0
  0
ARC
  5
12B
330
1F
100
AcDbEntity
  8
0
  6
Continuous
 62
     7
370
    15
100
AcDbCircle
 10
815.9271579338
 20
267.2600948253
 30
0.0
 40
10.79999999999993
100
AcDbArc
 50
335.0
 51
25.0
  0
LINE
  5
12C
330
1F
100
AcDbEntity
  8
0
  6
Continuous
 62
     7
370
    15
100
AcDbLine
 10
824.9902358041
 20
271.4862774427
 30
0.0
 11
769.083366178
 21
391.3789462599
 31
0.0
  0
LINE
  5
12D
330
1F
100
AcDbEntity
  8
0
  6
Continuous
 62
     7
370
    15
100
AcDbLine
 10
825.7152820338
 20
271.8243720521
 30
0.0
 11
769.8084124076
 21
391.7170408693
 31
0.0
  0
LINE
  5
12E
330
1F
100
AcDbEntity
  8
0
  6
Continuous
 62
     7
370
    15
100
AcDbLine
 10
784.5305389081
 20
400.8440059347
 30
0.0
 11
784.8686335175
 21
400.1189597051
 31
0.0
  0
LINE
  5
12F
330
1F
100
AcDbEntity
  8
0
  6
Continuous
 62
     7
370
    15
100
AcDbLine
 10
784.8686335175
 20
400.1189597051
 30
0.0
 11
783.0560179434
 21
399.2737231816
 31
0.0
  0
LINE
  5
130
330
1F
100
AcDbEntity
  8
0
  6
Continuous
 62
     7
370
    15
100
AcDbLine
 10
782.717923334
 20
399.9987694112
 30
0.0
 11
784.5305389081
 21
400.8440059347
 31
0.0
  0
LINE
  5
131
330
1F
100
AcDbEntity
  8
0
  6
Continuous
 62
     7
370
    15
100
AcDbLine
 10
793.1084148355
 20
353.5810323305
 30
0.0
 11
812.4136440542
 21
312.1808346691
 31
0.0
  0
LINE
  5
132
330
1F
100
AcDbEntity
  8
0
  6
Continuous
 62
     7
370
    15
100
AcDbLine
 10
800.9526860622
 20
348.5899463143
 30
0.0
 11
813.6324508442
 21
321.3981029888
 31
0.0
  0
LINE
  5
133
330
1F
100
AcDbEntity
  8
0
  6
Continuous
 62
     7
370
    15
100
AcDbLine
 10
789.3372105643
 20
357.1836776676
 30
0.0
 11
786.4758875238
 21
355.9735251352
 31
0.0
  0
LINE
  5
134
330
1F
100
AcDbEntity
  8
0
  6
Continuous
 62
     7
370
    15
100
AcDbLine
 10
791.8385460796
 20
356.3042746657
 30
0.0
 11
793.0825943855
 21
353.6364044642
 31
0.0
  0
LINE
  5
135
330
1F
100
AcDbEntity
  8
0
  6
Continuous
 62
     7
370
    15
100
AcDbLine
 10
812.4394645042
 20
312.1254625354
 30
0.0
 11
813.6835128101
 21
309.4575923339
 31
0.0
  0
ARC
  5
136
330
1F
100
AcDbEntity
  8
0
  6
Continuous
 62
     7
370
    15
100
AcDbCircle
 10
790.1256181022
 20
355.4291433736
 30
0.0
 40
1.923532436518476
100
AcDbArc
 50
27.0623931934
 51
114.1969723043
  0
LINE
  5
137
330
1F
100
AcDbEntity
  8
0
  6
Continuous
 62
     7
370
    15
100
AcDbLine
 10
798.1057090447
 20
354.695308231
 30
0.0
 11
800.9526860622
 21
348.5899463143
 31
0.0
  0
LINE
  5
138
330
1F
100
AcDbEntity
  8
0
  6
Continuous
 62
     7
370
    15
100
AcDbLine
 10
813.6324508443
 20
321.3981029888
 30
0.0
 11
816.4794277154
 21
315.292741386
 31
0.0
  0
SPLINE
  5
139
330
1F
100
AcDbEntity
  8
0
  6
Continuous
 62
     7
370
    15
100
AcDbSpline
210
0.0
220
0.0
230
1.0
 70
     8
 71
     3
 72
    11
 73
     7
 74
     0
 42
0.00000001
 43
0.00000001
 12
1.0
 22
0.0
 32
0.0
 13
1.0
 23
0.0
 33
0.0
 40
0.0
 40
0.0
 40
0.0
 40
0.0
 40
0.2835227646035596
 40
0.5667788824161033
 40
0.8499302227267703
 40
1.0
 40
1.0
 40
1.0
 40
1.0
 10
812.7493471160234
 20
306.9761888084992
 30
0.0
 10
812.7993313046218
 20
306.8850677612629
 30
0.0
 10
812.8992526728123
 20
306.7029113640883
 30
0.0
 10
813.1309790540438
 20
306.2131674917311
 30
0.0
 10
813.3517433434548
 20
305.7198071553038
 30
0.0
 10
813.4863155860761
 20
305.4048783306537
 30
0.0
 10
813.5329320266363
 20
305.2957855448824
 30
0.0
  0
LWPOLYLINE
  5
13A
330
1F
100
AcDbEntity
  8
0
  6
Continuous
 62
     7
370
    15
100
AcDbPolyline
 90
        3
 70
   128
 43
0.0
 10
785.6933878517
 20
357.6516010973
 10
788.0434456045
 20
358.6478436337
 10
788.5536256537
 20
358.8640809312
  0
SPLINE
  5
13B
330
1F
100
AcDbEntity
  8
0
  6
Continuous
 62
     7
370
    15
100
AcDbSpline
210
0.0
220
0.0
230
1.0
 70
     8
 71
     3
 72
    11
 73
     7
 74
     0
 42
0.00000001
 43
0.00000001
 12
1.0
 22
0.0
 32
0.0
 13
1.0
 23
0.0
 33
0.0
 40
0.0
 40
0.0
 40
0.0
 40
0.0
 40
0.2835227523786675
 40
0.5667788888047312
 40
0.8499302218874382
 40
1.0
 40
1.0
 40
1.0
 40
1.0
 10
788.5536256536931
 20
358.8640809311869
 30
0.0
 10
788.6548521987047
 20
358.6630686827247
 30
0.0
 10
788.8572100984424
 20
358.2612332114483
 30
0.0
 10
789.1118912951263
 20
357.7222690272189
 30
0.0
 10
789.2691109391752
 20
357.3651835905962
 30
0.0
 10
789.3196898112589
 20
357.2303757286863
 30
0.0
 10
789.3372105643215
 20
357.1836776675765
 30
0.0
  0
LINE
  5
13C
330
1F
100
AcDbEntity
  8
0
  6
Continuous
 62
     7
370
    15
100
AcDbLine
 10
815.2506826313
 20
306.0967858067
 30
0.0
 11
813.5329320266
 21
305.2957855449
 31
0.0
  0
SPLINE
  5
13D
330
1F
100
AcDbEntity
  8
0
  6
Continuous
 62
     7
370
    15
100
AcDbSpline
210
0.0
220
0.0
230
1.0
 70
    24
 71
     3
 72
    10
 73
     6
 74
     0
 42
0.00000001
 43
0.00000001
 12
1.0
 22
0.0
 32
0.0
 13
1.0
 23
0.0
 33
0.0
 40
0.0
 40
0.0
 40
0.0
 40
0.0
 40
0.2260957725291437
 40
0.6531374917616615
 40
1.0
 40
1.0
 40
1.0
 40
1.0
 10
815.2506826313398
 20
306.0967858066561
 30
0.0
 10
815.1509074475003
 20
306.3107543788951
 30
0.0
 10
814.8626804161673
 20
306.9288592422662
 30
0.0
 10
814.4285250961485
 20
307.8599083306229
 30
0.0
 10
814.1756630971195
 20
308.4021726374746
 30
0.0
 10
814.0623307956433
 20
308.6452145423075
 30
0.0
  0
LINE
  5
13E
330
1F
100
AcDbEntity
  8
0
  6
Continuous
 62
     7
370
    15
100
AcDbLine
 10
790.2713762584
 20
359.665081193
 30
0.0
 11
788.5536256537
 21
358.8640809312
 31
0.0
  0
SPLINE
  5
13F
330
1F
100
AcDbEntity
  8
0
  6
Continuous
 62
     7
370
    15
100
AcDbSpline
210
0.0
220
0.0
230
1.0
 70
    24
 71
     3
 72
    11
 73
     7
 74
     0
 42
0.00000001
 43
0.00000001
 12
1.0
 22
0.0
 32
0.0
 13
1.0
 23
0.0
 33
0.0
 40
0.0
 40
0.0
 40
0.0
 40
0.0
 40
0.1499515950756876
 40
0.4331749432232068
 40
0.7165923323728159
 40
1.0
 40
1.0
 40
1.0
 40
1.0
 10
791.8385460796226
 20
356.3042746657273
 30
0.0
 10
791.796387564213
 20
356.3946838937815
 30
0.0
 10
791.6746015137899
 20
356.6558549217352
 30
0.0
 10
791.3446650048883
 20
357.3634060484036
 30
0.0
 10
790.8413369508273
 20
358.4427965436239
 30
0.0
 10
790.4613609835718
 20
359.2576576350306
 30
0.0
 10
790.2713762583963
 20
359.6650811929605
 30
0.0
  0
LINE
  5
140
330
1F
100
AcDbEntity
  8
0
  6
Continuous
 62
     7
370
    15
100
AcDbLine
 10
777.9912139062
 20
374.2927189333
 30
0.0
 11
777.9438139461
 21
374.2706159689
 31
0.0
  0
SPLINE
  5
141
330
1F
100
AcDbEntity
  8
0
  6
Continuous
 62
     7
370
    15
100
AcDbSpline
210
0.0
220
0.0
230
1.0
 70
     8
 71
     3
 72
    13
 73
     9
 74
     0
 42
0.00000001
 43
0.00000001
 12
1.0
 22
0.0
 32
0.0
 13
1.0
 23
0.0
 33
0.0
 40
0.0
 40
0.0
 40
0.0
 40
0.0
 40
0.2359779310481751
 40
0.4700664405346308
 40
0.6281567545471081
 40
0.7867756990089777
 40
0.8916100492377184
 40
1.0
 40
1.0
 40
1.0
 40
1.0
 10
782.9472808004758
 20
370.886926267674
 30
0.0
 10
782.7176262087985
 20
371.3685643747774
 30
0.0
 10
782.2601558174671
 20
372.3279842223294
 30
0.0
 10
781.4452273936164
 20
373.5089172774242
 30
0.0
 10
780.4519254154252
 20
374.2984769116722
 30
0.0
 10
779.5209873264237
 20
374.5734181814777
 30
0.0
 10
778.66318355214
 20
374.5898863090567
 30
0.0
 10
778.2176801042913
 20
374.3928698347058
 30
0.0
 10
777.9912139062437
 20
374.2927189332606
 30
0.0
  0
LINE
  5
142
330
1F
100
AcDbEntity
  8
0
  6
Continuous
 62
     7
370
    15
100
AcDbLine
 10
788.5536256537
 20
358.8640809312
 30
0.0
 11
782.9472808005
 21
370.8869262677
 31
0.0
  0
LINE
  5
143
330
1F
100
AcDbEntity
  8
0
  6
Continuous
 62
     7
370
    15
100
AcDbLine
 10
777.1471308369
 20
376.1028483956
 30
0.0
 11
777.5628055585
 21
376.2707918846
 31
0.0
  0
SPLINE
  5
144
330
1F
100
AcDbEntity
  8
0
  6
Continuous
 62
     7
370
    15
100
AcDbSpline
210
0.0
220
0.0
230
1.0
 70
     8
 71
     3
 72
    14
 73
    10
 74
     0
 42
0.00000001
 43
0.00000001
 12
1.0
 22
0.0
 32
0.0
 13
1.0
 23
0.0
 33
0.0
 40
0.0
 40
0.0
 40
0.0
 40
0.0
 40
0.0000064140457942
 40
0.0730558909548045
 40
0.2154935957733511
 40
0.4037789030075342
 40
0.5887468703998143
 40
0.8882363243876865
 40
1.0
 40
1.0
 40
1.0
 40
1.0
 10
777.5628055584589
 20
376.2707918845746
 30
0.0
 10
777.5628240984286
 20
376.2707993750765
 30
0.0
 10
777.7739940912774
 20
376.356116085357
 30
0.0
 10
778.4250090265483
 20
376.5422582078301
 30
0.0
 10
779.7029399292333
 20
376.5481235078386
 30
0.0
 10
781.2745519025175
 20
376.0740851124803
 30
0.0
 10
782.9662229956043
 20
374.7672532326345
 30
0.0
 10
783.9590405079529
 20
373.1556677978523
 30
0.0
 10
784.5141679208008
 20
372.0015687630622
 30
0.0
 10
784.6650314051792
 20
371.6879265294477
 30
0.0
  0
LINE
  5
145
330
1F
100
AcDbEntity
  8
0
  6
Continuous
 62
     7
370
    15
100
AcDbLine
 10
784.6650314052
 20
371.6879265294
 30
0.0
 11
782.9472808005
 21
370.8869262677
 31
0.0
  0
SPLINE
  5
146
330
1F
100
AcDbEntity
  8
0
  6
Continuous
 62
     7
370
    15
100
AcDbSpline
210
0.0
220
0.0
230
1.0
 70
     8
 71
     3
 72
    15
 73
    11
 74
     0
 42
0.00000001
 43
0.00000001
 12
1.0
 22
0.0
 32
0.0
 13
1.0
 23
0.0
 33
0.0
 40
0.0
 40
0.0
 40
0.0
 40
0.0
 40
0.0125258353877831
 40
0.2274813526119522
 40
0.4424404199769058
 40
0.4999991763207103
 40
0.7148755009569802
 40
0.9297495265588457
 40
0.987474164614659
 40
1.0
 40
1.0
 40
1.0
 40
1.0
 10
777.9912139062437
 20
374.2927189332607
 30
0.0
 10
777.9860112793779
 20
374.3046763711896
 30
0.0
 10
777.8915265156915
 20
374.5218350731548
 30
0.0
 10
777.7050356628982
 20
374.9448491409457
 30
0.0
 10
777.5203037535052
 20
375.3525669527617
 30
0.0
 10
777.3627072183498
 20
375.6925283595155
 30
0.0
 10
777.2328848662253
 20
375.9633901549986
 30
0.0
 10
777.1644319700523
 20
376.08815241661
 30
0.0
 10
777.1494388589426
 20
376.1032020655763
 30
0.0
 10
777.1474842599395
 20
376.1029035981719
 30
0.0
 10
777.1471357500412
 20
376.102850380686
 30
0.0
  0
LINE
  5
147
330
1F
100
AcDbEntity
  8
0
  6
Continuous
 62
     7
370
    15
100
AcDbLine
 10
825.478550806
 20
279.6783234028
 30
0.0
 11
813.5329320266
 21
305.2957855449
 31
0.0
  0
LINE
  5
148
330
1F
100
AcDbEntity
  8
0
  6
Continuous
 62
     7
370
    15
100
AcDbLine
 10
826.3399707665
 20
277.4008192493
 30
0.0
 11
825.478550806
 21
279.6783234028
 31
0.0
  0
SPLINE
  5
149
330
1F
100
AcDbEntity
  8
0
  6
Continuous
 62
     7
370
    15
100
AcDbSpline
210
0.0
220
0.0
230
1.0
 70
     8
 71
     3
 72
     9
 73
     5
 74
     0
 42
0.00000001
 43
0.00000001
 12
1.0
 22
0.0
 32
0.0
 13
1.0
 23
0.0
 33
0.0
 40
0.0
 40
0.0
 40
0.0
 40
0.0
 40
0.0000220488581509
 40
1.0
 40
1.0
 40
1.0
 40
1.0
 10
827.1963014106676
 20
280.4793236646192
 30
0.0
 10
827.1963098630289
 20
280.4793055384609
 30
0.0
 10
827.5796567498479
 20
279.6572149705291
 30
0.0
 10
827.8705948100908
 20
278.7961207274761
 30
0.0
 10
828.1615264554816
 20
277.9350454705679
 30
0.0
  0
SPLINE
  5
14A
330
1F
100
AcDbEntity
  8
0
  6
Continuous
 62
     7
370
    15
100
AcDbSpline
210
0.0
220
0.0
230
1.0
 70
     8
 71
     3
 72
    11
 73
     7
 74
     0
 42
0.00000001
 43
0.00000001
 12
1.0
 22
0.0
 32
0.0
 13
1.0
 23
0.0
 33
0.0
 40
0.0
 40
0.0
 40
0.0
 40
0.0
 40
0.249976881450029
 40
0.4998058427200007
 40
0.7495361389842382
 40
1.0
 40
1.0
 40
1.0
 40
1.0
 10
828.1615264554816
 20
277.9350454705679
 30
0.0
 10
828.1361768865156
 20
277.9210145491545
 30
0.0
 10
828.085492748822
 20
277.8929610089213
 30
0.0
 10
827.6706714233374
 20
277.7656967331243
 30
0.0
 10
827.0706401763209
 20
277.5952983437717
 30
0.0
 10
826.5837652468733
 20
277.4657089643188
 30
0.0
 10
826.3399707664972
 20
277.4008192492911
 30
0.0
  0
LINE
  5
14B
330
1F
100
AcDbEntity
  8
0
  6
Continuous
 62
     7
370
    15
100
AcDbLine
 10
827.1963014107
 20
280.4793236646
 30
0.0
 11
825.478550806
 21
279.6783234028
 31
0.0
  0
SPLINE
  5
14C
330
1F
100
AcDbEntity
  8
0
  6
Continuous
 62
     7
370
    15
100
AcDbSpline
210
0.0
220
0.0
230
1.0
 70
     8
 71
     3
 72
    11
 73
     7
 74
     0
 42
0.00000001
 43
0.00000001
 12
1.0
 22
0.0
 32
0.0
 13
1.0
 23
0.0
 33
0.0
 40
0.0
 40
0.0
 40
0.0
 40
0.0
 40
0.2440033155445732
 40
0.4919416665511701
 40
0.7439093003410252
 40
0.9999999999999999
 40
0.9999999999999999
 40
0.9999999999999999
 40
0.9999999999999999
 10
826.9748299228374
 20
276.0916654441895
 30
0.0
 10
826.9378874885974
 20
276.1746841921955
 30
0.0
 10
826.8634068503899
 20
276.3420605295124
 30
0.0
 10
826.7105108131788
 20
276.662854060295
 30
0.0
 10
826.5346657819545
 20
277.0205895795203
 30
0.0
 10
826.405219272441
 20
277.2733921664266
 30
0.0
 10
826.3399707664972
 20
277.4008192492911
 30
0.0
  0
SPLINE
  5
14D
330
1F
100
AcDbEntity
  8
0
  6
Continuous
 62
     7
370
    15
100
AcDbSpline
210
0.0
220
0.0
230
1.0
 70
     8
 71
     3
 72
    11
 73
     7
 74
     0
 42
0.00000001
 43
0.00000001
 12
1.0
 22
0.0
 32
0.0
 13
1.0
 23
0.0
 33
0.0
 40
0.0
 40
0.0
 40
0.0
 40
0.0
 40
0.2501480011265484
 40
0.5002880311524655
 40
0.7504202668475217
 40
1.0
 40
1.0
 40
1.0
 40
1.0
 10
828.1615264554816
 20
277.9350454705679
 30
0.0
 10
828.1831796985997
 20
277.7612153571253
 30
0.0
 10
828.2264854948436
 20
277.41356066943
 30
0.0
 10
827.9943467823767
 20
276.8807797110965
 30
0.0
 10
827.5773667076371
 20
276.4056606522301
 30
0.0
 10
827.1755274209727
 20
276.1962533370285
 30
0.0
 10
826.9748299228374
 20
276.0916654441895
 30
0.0
  0
LINE
  5
14E
330
1F
100
AcDbEntity
  8
0
  6
Continuous
 62
     7
370
    15
100
AcDbLine
 10
815.2506826313
 20
306.0967858067
 30
0.0
 11
827.1963014107
 21
280.4793236646
 31
0.0
  0
LINE
  5
14F
330
1F
100
AcDbEntity
  8
0
  6
Continuous
 62
     7
370
    15
100
AcDbLine
 10
784.6650314052
 20
371.6879265294
 30
0.0
 11
790.2713762584
 21
359.665081193
 31
0.0
  0
SPLINE
  5
150
330
1F
100
AcDbEntity
  8
0
  6
Continuous
 62
     7
370
    15
100
AcDbSpline
210
0.0
220
0.0
230
1.0
 70
     8
 71
     3
 72
    12
 73
     8
 74
     0
 42
0.00000001
 43
0.00000001
 12
1.0
 22
0.0
 32
0.0
 13
1.0
 23
0.0
 33
0.0
 40
0.0
 40
0.0
 40
0.0
 40
0.0
 40
0.2296372793305424
 40
0.4662189559750129
 40
0.7775726823822702
 40
0.9797928817935053
 40
1.0
 40
1.0
 40
1.0
 40
1.0
 10
828.1615264554816
 20
277.9350454705679
 30
0.0
 10
828.2663025140703
 20
277.4460038536715
 30
0.0
 10
828.4790231349939
 20
276.4531316478934
 30
0.0
 10
828.2821307177818
 20
274.7431183059697
 30
0.0
 10
827.6413006113629
 20
273.451807470146
 30
0.0
 10
827.0190789459316
 20
272.7132799852458
 30
0.0
 10
826.6893763628467
 20
272.4591252567692
 30
0.0
 10
826.6594234814257
 20
272.4360357608563
 30
0.0
  0
SPLINE
  5
151
330
1F
100
AcDbEntity
  8
0
  6
Continuous
 62
     7
370
    15
100
AcDbSpline
210
0.0
220
0.0
230
1.0
 70
     8
 71
     3
 72
    10
 73
     6
 74
     0
 42
0.00000001
 43
0.00000001
 12
1.0
 22
0.0
 32
0.0
 13
1.0
 23
0.0
 33
0.0
 40
0.0
 40
0.0
 40
0.0
 40
0.0
 40
0.4527378322259689
 40
0.9055954617465019
 40
1.0
 40
1.0
 40
1.0
 40
1.0
 10
828.2836081976662
 20
275.1381235707283
 30
0.0
 10
828.2912312445143
 20
275.1906229947675
 30
0.0
 10
828.306479355317
 20
275.2956357345257
 30
0.0
 10
828.4298403726556
 20
275.7783045935046
 30
0.0
 10
828.3878198404467
 20
276.2547503739644
 30
0.0
 10
828.3805711593319
 20
276.336938850632
 30
0.0
  0
SPLINE
  5
152
330
1F
100
AcDbEntity
  8
0
  6
Continuous
 62
     7
370
    15
100
AcDbSpline
210
0.0
220
0.0
230
1.0
 70
     8
 71
     3
 72
    12
 73
     8
 74
     0
 42
0.00000001
 43
0.00000001
 12
1.0
 22
0.0
 32
0.0
 13
1.0
 23
0.0
 33
0.0
 40
0.0
 40
0.0
 40
0.0
 40
0.0
 40
0.4616906276046966
 40
0.7307729957152845
 40
0.9175829515524447
 40
0.9719359527204299
 40
1.0
 40
1.0
 40
1.0
 40
1.0
 10
828.1404757110893
 20
278.010431269367
 30
0.0
 10
828.1104619181976
 20
278.118991109388
 30
0.0
 10
828.0629554971598
 20
278.2908217569324
 30
0.0
 10
827.9913321165799
 20
278.5149207509807
 30
0.0
 10
827.9498408877201
 20
278.6392895008916
 30
0.0
 10
827.9273536678654
 20
278.7049611038936
 30
0.0
 10
827.920409472116
 20
278.7250490082355
 30
0.0
 10
827.9180448856438
 20
278.7318891937046
 30
0.0
  0
LINE
  5
153
330
1F
100
AcDbEntity
  8
0
  6
Continuous
 62
     7
370
    15
100
AcDbLine
 10
783.295191565
 20
373.9490708775
 30
0.0
 11
782.8495788416
 21
374.6839598953
 31
0.0
  0
LINE
  5
154
330
1F
100
AcDbEntity
  8
0
  6
Continuous
 62
     7
370
    15
100
AcDbLine
 10
827.2424831578
 20
280.379778204
 30
0.0
 11
827.2004492004
 21
280.4704246926
 31
0.0
  0
SPLINE
  5
155
330
1F
100
AcDbEntity
  8
0
  6
Continuous
 62
     7
370
    15
100
AcDbSpline
210
0.0
220
0.0
230
1.0
 70
     8
 71
     3
 72
     9
 73
     5
 74
     0
 42
0.00000001
 43
0.00000001
 12
1.0
 22
0.0
 32
0.0
 13
1.0
 23
0.0
 33
0.0
 40
0.0
 40
0.0
 40
0.0
 40
0.0
 40
0.5000138394956921
 40
1.0
 40
1.0
 40
1.0
 40
1.0
 10
827.710289997841
 20
279.2921429229571
 30
0.0
 10
827.6423205854031
 20
279.4608599182568
 30
0.0
 10
827.5063855230727
 20
279.7982845692823
 30
0.0
 10
827.3304489896099
 20
280.1859505691629
 30
0.0
 10
827.2424831577514
 20
280.3797782040012
 30
0.0
  0
SPLINE
  5
156
330
1F
100
AcDbEntity
  8
0
  6
Continuous
 62
     7
370
    15
100
AcDbSpline
210
0.0
220
0.0
230
1.0
 70
     8
 71
     3
 72
    13
 73
     9
 74
     0
 42
0.00000001
 43
0.00000001
 12
1.0
 22
0.0
 32
0.0
 13
1.0
 23
0.0
 33
0.0
 40
0.0
 40
0.0
 40
0.0
 40
0.0
 40
0.1254648118065546
 40
0.2502435788816365
 40
0.3760698054095759
 40
0.5019139201694195
 40
0.7508310514861695
 40
1.0
 40
1.0
 40
1.0
 40
1.0
 10
782.8495788412131
 20
374.6839598957295
 30
0.0
 10
782.7619018689231
 20
374.7812321740946
 30
0.0
 10
782.5870273442222
 20
374.9752448435719
 30
0.0
 10
782.3133453120411
 20
375.2346449808209
 30
0.0
 10
782.0463446850157
 20
375.4581171492151
 30
0.0
 10
781.721485669306
 20
375.6965909032473
 30
0.0
 10
781.388799329564
 20
375.8941517386816
 30
0.0
 10
781.3358846396294
 20
375.9211159388955
 30
0.0
 10
781.3094139186319
 20
375.9346048551429
 30
0.0
  0
SPLINE
  5
157
330
1F
100
AcDbEntity
  8
0
  6
Continuous
 62
     7
370
    15
100
AcDbSpline
210
0.0
220
0.0
230
1.0
 70
     8
 71
     3
 72
     9
 73
     5
 74
     0
 42
0.00000001
 43
0.00000001
 12
1.0
 22
0.0
 32
0.0
 13
1.0
 23
0.0
 33
0.0
 40
0.0
 40
0.0
 40
0.0
 40
0.0
 40
0.8821747881011701
 40
1.0
 40
1.0
 40
1.0
 40
1.0
 10
828.3997436954975
 20
276.1292599544558
 30
0.0
 10
828.4067571512226
 20
276.1399529567847
 30
0.0
 10
828.4147073395749
 20
276.1520741401068
 30
0.0
 10
828.3950089379565
 20
276.4024172056347
 30
0.0
 10
828.3926879696118
 20
276.431913930378
 30
0.0
  0
SPLINE
  5
158
330
1F
100
AcDbEntity
  8
0
  6
Continuous
 62
     7
370
    15
100
AcDbSpline
210
0.0
220
0.0
230
1.0
 70
     8
 71
     3
 72
     9
 73
     5
 74
     0
 42
0.00000001
 43
0.00000001
 12
1.0
 22
0.0
 32
0.0
 13
1.0
 23
0.0
 33
0.0
 40
0.0
 40
0.0
 40
0.0
 40
0.0
 40
0.0370163330246899
 40
1.0
 40
1.0
 40
1.0
 40
1.0
 10
828.1534830987675
 20
277.9562473003426
 30
0.0
 10
828.1509198215462
 20
277.9691227030262
 30
0.0
 10
828.0816726268117
 20
278.3169530155276
 30
0.0
 10
827.8924796980988
 20
278.8137426342269
 30
0.0
 10
827.710289997841
 20
279.2921429229571
 30
0.0
  0
LINE
  5
159
330
1F
100
AcDbEntity
  8
0
  6
Continuous
 62
     7
370
    15
100
AcDbLine
 10
827.9180448858
 20
278.7318891931
 30
0.0
 11
827.7489407313
 21
279.1769854597
 31
0.0
  0
LINE
  5
15A
330
1F
100
AcDbEntity
  8
0
  6
Continuous
 62
     7
370
    15
100
AcDbLine
 10
825.5693461513
 20
307.6303563091
 30
0.0
 11
823.125408666
 21
312.8713971597
 31
0.0
  0
LINE
  5
15B
330
1F
100
AcDbEntity
  8
0
  6
Continuous
 62
     7
370
    15
100
AcDbLine
 10
822.7873140566
 20
313.5964433893
 30
0.0
 11
816.7293609056
 21
326.5877658458
 31
0.0
  0
LINE
  5
15C
330
1F
100
AcDbEntity
  8
0
  6
Continuous
 62
     7
370
    15
100
AcDbLine
 10
806.9391443839
 20
347.5829529299
 30
0.0
 11
798.099183077
 21
366.5403111296
 31
0.0
  0
LINE
  5
15D
330
1F
100
AcDbEntity
  8
0
  6
Continuous
 62
     7
370
    15
100
AcDbLine
 10
810.8688988332
 20
362.817583149
 30
0.0
 11
808.8527100555
 21
367.1413139358
 31
0.0
  0
SPLINE
  5
15E
330
1F
100
AcDbEntity
  8
0
  6
Continuous
 62
     7
370
    15
100
AcDbSpline
210
0.0
220
0.0
230
1.0
 70
     8
 71
     3
 72
     9
 73
     5
 74
     0
 42
0.00000001
 43
0.00000001
 12
1.0
 22
0.0
 32
0.0
 13
1.0
 23
0.0
 33
0.0
 40
0.0
 40
0.0
 40
0.0
 40
0.0
 40
0.5209744652335224
 40
1.0
 40
1.0
 40
1.0
 40
1.0
 10
810.764517152218
 20
361.5540140094383
 30
0.0
 10
810.6872240105109
 20
361.7862410936469
 30
0.0
 10
810.5388613807374
 20
362.2319963075889
 30
0.0
 10
810.7620065832375
 20
362.6279237798663
 30
0.0
 10
810.8688988331955
 20
362.8175831490026
 30
0.0
  0
SPLINE
  5
15F
330
1F
100
AcDbEntity
  8
0
  6
Continuous
 62
     7
370
    15
100
AcDbSpline
210
0.0
220
0.0
230
1.0
 70
     8
 71
     3
 72
     9
 73
     5
 74
     0
 42
0.00000001
 43
0.00000001
 12
1.0
 22
0.0
 32
0.0
 13
1.0
 23
0.0
 33
0.0
 40
0.0
 40
0.0
 40
0.0
 40
0.0
 40
0.4790255347664712
 40
1.0
 40
1.0
 40
1.0
 40
1.0
 10
830.9007821496399
 20
319.8590707460488
 30
0.0
 10
830.6862905297012
 20
319.9001589704783
 30
0.0
 10
830.2385239611751
 20
319.9859335721383
 30
0.0
 10
829.9914031365913
 20
320.3882953630124
 30
0.0
 10
829.8626594971558
 20
320.5979155818434
 30
0.0
  0
LINE
  5
160
330
1F
100
AcDbEntity
  8
0
  6
Continuous
 62
     7
370
    15
100
AcDbLine
 10
832.33200721
 20
316.7897986994
 30
0.0
 11
830.9007821496
 21
319.859070746
 31
0.0
  0
LINE
  5
161
330
1F
100
AcDbEntity
  8
0
  6
Continuous
 62
     7
370
    15
100
AcDbLine
 10
811.6430539619
 20
361.1574021179
 30
0.0
 11
818.8687628588
 21
345.661819383
 31
0.0
  0
LINE
  5
162
330
1F
100
AcDbEntity
  8
0
  6
Continuous
 62
     7
370
    15
100
AcDbLine
 10
822.9258981715
 20
336.9612646275
 30
0.0
 11
830.124455799
 21
321.5239079775
 31
0.0
  0
ARC
  5
163
330
1F
100
AcDbEntity
  8
0
  6
Continuous
 62
     7
370
    15
100
AcDbCircle
 10
829.3623891895
 20
321.2393555435
 30
0.0
 40
0.8134590371244959
100
AcDbArc
 50
307.9512950048
 51
20.4754182492
  0
ARC
  5
164
330
1F
100
AcDbEntity
  8
0
  6
Continuous
 62
     7
370
    15
100
AcDbCircle
 10
810.9332735096
 20
360.7564955936
 30
0.0
 40
0.815177484799113
100
AcDbArc
 50
29.4591397588
 51
101.947652455
  0
SPLINE
  5
165
330
1F
100
AcDbEntity
  8
0
  6
Continuous
 62
     7
370
    15
100
AcDbSpline
210
0.0
220
0.0
230
1.0
 70
     8
 71
     3
 72
     9
 73
     5
 74
     0
 42
0.00000001
 43
0.00000001
 12
1.0
 22
0.0
 32
0.0
 13
1.0
 23
0.0
 33
0.0
 40
0.0
 40
0.0
 40
0.0
 40
0.0
 40
0.5315589426747972
 40
1.0
 40
1.0
 40
1.0
 40
1.0
 10
830.1244557990415
 20
321.523907977481
 30
0.0
 10
830.2272383345424
 20
321.3524204949741
 30
0.0
 10
830.4205988958073
 20
321.0298081396181
 30
0.0
 10
830.7463832943067
 20
320.9710830703513
 30
0.0
 10
830.8989940823999
 20
320.9435738368125
 30
0.0
  0
SPLINE
  5
166
330
1F
100
AcDbEntity
  8
0
  6
Continuous
 62
     7
370
    15
100
AcDbSpline
210
0.0
220
0.0
230
1.0
 70
     8
 71
     3
 72
    12
 73
     8
 74
     0
 42
0.00000001
 43
0.00000001
 12
1.0
 22
0.0
 32
0.0
 13
1.0
 23
0.0
 33
0.0
 40
0.0
 40
0.0
 40
0.0
 40
0.0
 40
0.0304717459459415
 40
0.0888135668586033
 40
0.3925556175487588
 40
0.6962774394174142
 40
1.0
 40
1.0
 40
1.0
 40
1.0
 10
830.8989940823999
 20
320.9435738368125
 30
0.0
 10
830.9036938115859
 20
320.9340740899619
 30
0.0
 10
830.9173917372979
 20
320.9063859357109
 30
0.0
 10
830.9721866715836
 20
320.7797148586344
 30
0.0
 10
831.0292396950211
 20
320.5416494219161
 30
0.0
 10
831.0206785581155
 20
320.1964701841254
 30
0.0
 10
830.9408006683285
 20
319.9920224848131
 30
0.0
 10
830.9008616748654
 20
319.8897985108424
 30
0.0
  0
SPLINE
  5
167
330
1F
100
AcDbEntity
  8
0
  6
Continuous
 62
     7
370
    15
100
AcDbSpline
210
0.0
220
0.0
230
1.0
 70
     8
 71
     3
 72
    10
 73
     6
 74
     0
 42
0.00000001
 43
0.00000001
 12
1.0
 22
0.0
 32
0.0
 13
1.0
 23
0.0
 33
0.0
 40
0.0
 40
0.0
 40
0.0
 40
0.0
 40
0.2117958997119028
 40
0.4880069094705556
 40
0.9999999999999999
 40
0.9999999999999999
 40
0.9999999999999999
 40
0.9999999999999999
 10
830.9008616748653
 20
319.8897985108424
 30
0.0
 10
830.8997476561002
 20
319.8870561795264
 30
0.0
 10
830.8971808035058
 20
319.8807374706559
 30
0.0
 10
830.8967852979234
 20
319.8695527404334
 30
0.0
 10
830.8992082649419
 20
319.8631983574123
 30
0.0
 10
830.9007821496394
 20
319.8590707460484
 30
0.0
  0
SPLINE
  5
168
330
1F
100
AcDbEntity
  8
0
  6
Continuous
 62
     7
370
    15
100
AcDbSpline
210
0.0
220
0.0
230
1.0
 70
     8
 71
     3
 72
    12
 73
     8
 74
     0
 42
0.00000001
 43
0.00000001
 12
1.0
 22
0.0
 32
0.0
 13
1.0
 23
0.0
 33
0.0
 40
0.0
 40
0.0
 40
0.0
 40
0.0
 40
0.0304717459515833
 40
0.0888135668586369
 40
0.3925556175487557
 40
0.6962774394174136
 40
1.0
 40
1.0
 40
1.0
 40
1.0
 10
811.6985200806826
 20
362.119123210558
 30
0.0
 10
811.6942579536501
 20
362.1288422263867
 30
0.0
 10
811.6818354720252
 20
362.1571694664302
 30
0.0
 10
811.619952771265
 20
362.2807143852023
 30
0.0
 10
811.4741816882946
 20
362.4776066482985
 30
0.0
 10
811.2042530248318
 20
362.6929318800151
 30
0.0
 10
810.9963777471993
 20
362.762975464744
 30
0.0
 10
810.8924399819842
 20
362.7979972996985
 30
0.0
  0
SPLINE
  5
169
330
1F
100
AcDbEntity
  8
0
  6
Continuous
 62
     7
370
    15
100
AcDbSpline
210
0.0
220
0.0
230
1.0
 70
     8
 71
     3
 72
     9
 73
     5
 74
     0
 42
0.00000001
 43
0.00000001
 12
1.0
 22
0.0
 32
0.0
 13
1.0
 23
0.0
 33
0.0
 40
0.0
 40
0.0
 40
0.0
 40
0.0
 40
0.4684410573252101
 40
1.0
 40
1.0
 40
1.0
 40
1.0
 10
811.6985200806826
 20
362.119123210558
 30
0.0
 10
811.6211468414061
 20
361.9852849999772
 30
0.0
 10
811.4559750699175
 20
361.6995751790982
 30
0.0
 10
811.5781243955498
 20
361.3455743985142
 30
0.0
 10
811.6430539619313
 20
361.1574021178811
 30
0.0
  0
SPLINE
  5
16A
330
1F
100
AcDbEntity
  8
0
  6
Continuous
 62
     7
370
    15
100
AcDbSpline
210
0.0
220
0.0
230
1.0
 70
     8
 71
     3
 72
    11
 73
     7
 74
     0
 42
0.00000001
 43
0.00000001
 12
1.0
 22
0.0
 32
0.0
 13
1.0
 23
0.0
 33
0.0
 40
0.0
 40
0.0
 40
0.0
 40
0.0
 40
0.3704320937878867
 40
0.7442498469290084
 40
0.9442480537684064
 40
1.0
 40
1.0
 40
1.0
 40
1.0
 10
810.8688988331955
 20
362.8175831490026
 30
0.0
 10
810.8703847807082
 20
362.8148038456592
 30
0.0
 10
810.8733702569327
 20
362.8092198368151
 30
0.0
 10
810.8806290451035
 20
362.8025359422942
 30
0.0
 10
810.8881481533767
 20
362.7991295537252
 30
0.0
 10
810.8916718401377
 20
362.7981999479816
 30
0.0
 10
810.8924399819842
 20
362.7979972996985
 30
0.0
  0
SPLINE
  5
16B
330
1F
100
AcDbEntity
  8
0
  6
Continuous
 62
     7
370
    15
100
AcDbSpline
210
0.0
220
0.0
230
1.0
 70
     8
 71
     3
 72
    11
 73
     7
 74
     0
 42
0.00000001
 43
0.00000001
 12
1.0
 22
0.0
 32
0.0
 13
1.0
 23
0.0
 33
0.0
 40
0.0
 40
0.0
 40
0.0
 40
0.0
 40
0.3658281109894421
 40
0.7252591430831239
 40
0.9820690181776728
 40
1.0
 40
1.0
 40
1.0
 40
1.0
 10
814.1931057535234
 20
362.6635154173865
 30
0.0
 10
813.8127495401765
 20
362.6721564580704
 30
0.0
 10
813.0586882390585
 20
362.6892874372749
 30
0.0
 10
812.2016403216866
 20
362.4922194231626
 30
0.0
 10
811.8200051685371
 20
362.2541255796942
 30
0.0
 10
811.7059630479027
 20
362.1273943344125
 30
0.0
 10
811.6985200806826
 20
362.119123210558
 30
0.0
  0
LINE
  5
16C
330
1F
100
AcDbEntity
  8
0
  6
Continuous
 62
     7
370
    15
100
AcDbLine
 10
814.1931057535
 20
362.6635154174
 30
0.0
 11
832.922255677
 21
322.4987237913
 31
0.0
  0
SPLINE
  5
16D
330
1F
100
AcDbEntity
  8
0
  6
Continuous
 62
     7
370
    15
100
AcDbSpline
210
0.0
220
0.0
230
1.0
 70
     8
 71
     3
 72
    11
 73
     7
 74
     0
 42
0.00000001
 43
0.00000001
 12
1.0
 22
0.0
 32
0.0
 13
1.0
 23
0.0
 33
0.0
 40
0.0
 40
0.0
 40
0.0
 40
0.0
 40
0.2357948537758739
 40
0.2749019968044832
 40
0.6342531696138439
 40
1.0
 40
1.0
 40
1.0
 40
1.0
 10
830.8989940823999
 20
320.9435738368125
 30
0.0
 10
831.0514327122382
 20
320.9664130337719
 30
0.0
 10
831.2291536550904
 20
320.9930401664216
 30
0.0
 10
831.6635901354339
 20
321.20462506789
 30
0.0
 10
832.212970295923
 20
321.6137731350661
 30
0.0
 10
832.6844410291133
 20
322.2020107413874
 30
0.0
 10
832.9222556769598
 20
322.4987237913168
 30
0.0
  0
LINE
  5
16E
330
1F
100
AcDbEntity
  8
0
  6
Continuous
 62
     7
370
    15
100
AcDbLine
 10
845.3776941063
 20
334.7420684965
 30
0.0
 11
833.7643198059
 21
321.6226210768
 31
0.0
  0
SPLINE
  5
16F
330
1F
100
AcDbEntity
  8
0
  6
Continuous
 62
     7
370
    15
100
AcDbSpline
210
0.0
220
0.0
230
1.0
 70
     8
 71
     3
 72
    10
 73
     6
 74
     0
 42
0.00000001
 43
0.00000001
 12
1.0
 22
0.0
 32
0.0
 13
1.0
 23
0.0
 33
0.0
 40
0.0
 40
0.0
 40
0.0
 40
0.0
 40
0.3554439450437179
 40
0.7142330220663378
 40
1.0
 40
1.0
 40
1.0
 40
1.0
 10
833.7643198058729
 20
321.6226210767736
 30
0.0
 10
833.4212434783715
 20
321.2805890474873
 30
0.0
 10
832.7318620847441
 20
320.5933060783243
 30
0.0
 10
831.7063189249071
 20
319.9757245558707
 30
0.0
 10
831.1482736769999
 20
319.9161923819447
 30
0.0
 10
830.9008616748653
 20
319.8897985108424
 30
0.0
  0
ARC
  5
170
330
1F
100
AcDbEntity
  8
0
  6
Continuous
 62
     7
370
    15
100
AcDbCircle
 10
830.3588522878
 20
319.1921890943
 30
0.0
 40
4.183803130855874
100
AcDbArc
 50
35.514890755
 51
52.2152339756
  0
ELLIPSE
  5
171
330
1F
100
AcDbEntity
  8
0
  6
Continuous
 62
     7
370
    15
100
AcDbEllipse
 10
809.8770362072
 20
328.2454039923
 30
0.0
 11
-0.5243918029668749
 21
38.9026486601282
 31
0.0
210
0.0
220
0.0
230
1.0
 40
0.000684204
 41
6.281214576121356
 42
6.282115130875507
  0
SPLINE
  5
172
330
1F
100
AcDbEntity
  8
0
  6
Continuous
 62
     7
370
    15
100
AcDbSpline
210
0.0
220
0.0
230
1.0
 70
     8
 71
     3
 72
    12
 73
     8
 74
     0
 42
0.00000001
 43
0.00000001
 12
1.0
 22
0.0
 32
0.0
 13
1.0
 23
0.0
 33
0.0
 40
0.0
 40
0.0
 40
0.0
 40
0.0
 40
0.2486242961365852
 40
0.4972483524683974
 40
0.7458782348958599
 40
0.9945104321495424
 40
1.0
 40
1.0
 40
1.0
 40
1.0
 10
809.5863372157554
 20
367.1504725787111
 30
0.0
 10
809.5584895847685
 20
367.1501294196621
 30
0.0
 10
809.5027943496544
 20
367.149443101895
 30
0.0
 10
809.4306229371509
 20
367.148757358611
 30
0.0
 10
809.3792246755243
 20
367.1483203755379
 30
0.0
 10
809.3577650981423
 20
367.1481376751705
 30
0.0
 10
809.3556107420537
 20
367.1480918907249
 30
0.0
 10
809.3555642034036
 20
367.1480909016839
 30
0.0
  0
LINE
  5
173
330
1F
100
AcDbEntity
  8
0
  6
Continuous
 62
     7
370
    15
100
AcDbLine
 10
809.5863372158
 20
367.1504725787
 30
0.0
 11
828.6801875712
 21
367.3606621027
 31
0.0
  0
LINE
  5
174
330
1F
100
AcDbEntity
  8
0
  6
Continuous
 62
     7
370
    15
100
AcDbLine
 10
828.6801875712
 20
367.3606621027
 30
0.0
 11
830.1588234799
 21
367.3790418771
 31
0.0
  0
LINE
  5
175
330
1F
100
AcDbEntity
  8
0
  6
Continuous
 62
     7
370
    15
100
AcDbLine
 10
831.5829019392
 20
364.3250957658
 30
0.0
 11
830.1588234799
 21
367.3790418771
 31
0.0
  0
LINE
  5
176
330
1F
100
AcDbEntity
  8
0
  6
Continuous
 62
     7
370
    15
100
AcDbLine
 10
814.063985316
 20
363.8701247266
 30
0.0
 11
831.5829019392
 21
364.3250957658
 31
0.0
  0
SPLINE
  5
177
330
1F
100
AcDbEntity
  8
0
  6
Continuous
 62
     7
370
    15
100
AcDbSpline
210
0.0
220
0.0
230
1.0
 70
     8
 71
     3
 72
    10
 73
     6
 74
     0
 42
0.00000001
 43
0.00000001
 12
1.0
 22
0.0
 32
0.0
 13
1.0
 23
0.0
 33
0.0
 40
0.0
 40
0.0
 40
0.0
 40
0.0
 40
0.2857669779336497
 40
0.6445560549562789
 40
1.0
 40
1.0
 40
1.0
 40
1.0
 10
810.8924399819844
 20
362.7979972996985
 30
0.0
 10
811.0721905909694
 20
362.9694914966611
 30
0.0
 10
811.4776235218178
 20
363.3563018406742
 30
0.0
 10
812.611247170524
 20
363.7421040067759
 30
0.0
 10
813.5812536190374
 20
363.8275846036676
 30
0.0
 10
814.0639853160122
 20
363.8701247266318
 30
0.0
  0
ARC
  5
178
330
1F
100
AcDbEntity
  8
0
  6
Continuous
 62
     7
370
    15
100
AcDbCircle
 10
809.9953511209
 20
362.8245229117
 30
0.0
 40
4.200841269188571
100
AcDbArc
 50
357.803461405
 51
14.4126043511
  0
LINE
  5
179
330
1F
100
AcDbEntity
  8
0
  6
Continuous
 62
     7
370
    15
100
AcDbLine
 10
832.922255677
 20
322.4987237913
 30
0.0
 11
844.5978112939
 21
335.4848229474
 31
0.0
  0
ARC
  5
17A
330
1F
100
AcDbEntity
  8
0
  6
Continuous
 62
     7
370
    15
100
AcDbCircle
 10
841.1231110439
 20
331.0556206895
 30
0.0
 40
5.629509256501103
100
AcDbArc
 50
40.9077878936
 51
51.8858872547
  0
LINE
  5
17B
330
1F
100
AcDbEntity
  8
0
  6
Continuous
 62
     7
370
    15
100
AcDbLine
 10
831.649869447
 20
363.2517738444
 30
0.0
 11
814.1931057535
 21
362.6635154174
 31
0.0
  0
LINE
  5
17C
330
1F
100
AcDbEntity
  8
0
  6
Continuous
 62
     7
370
    15
100
AcDbLine
 10
844.5978112939
 20
335.4848229474
 30
0.0
 11
831.649869447
 21
363.2517738444
 31
0.0
  0
ARC
  5
17D
330
1F
100
AcDbEntity
  8
0
  6
Continuous
 62
     7
370
    15
100
AcDbCircle
 10
825.9791673469
 20
363.4367132423
 30
0.0
 40
5.673717025815119
100
AcDbArc
 50
358.1320668253
 51
9.0083598779
  0
ARC
  5
17E
330
1F
100
AcDbEntity
  8
0
  6
Continuous
 62
     7
370
    15
100
AcDbCircle
 10
845.2946102067
 20
334.5263799703
 30
0.0
 40
1.18496483705149
100
AcDbArc
 50
75.3520521405
 51
126.01757679
  0
ARC
  5
17F
330
1F
100
AcDbEntity
  8
0
  6
Continuous
 62
     7
370
    15
100
AcDbCircle
 10
844.8191757894
 20
335.3626007703
 30
0.0
 40
0.8348670631572656
100
AcDbArc
 50
311.9892157315
 51
21.8138524719
  0
LINE
  5
180
330
1F
100
AcDbEntity
  8
0
  6
Continuous
 62
     7
370
    15
100
AcDbLine
 10
832.435926927
 20
363.8909738101
 30
0.0
 11
845.5942630428
 21
335.6728309474
 31
0.0
  0
ARC
  5
181
330
1F
100
AcDbEntity
  8
0
  6
Continuous
 62
     7
370
    15
100
AcDbCircle
 10
831.3591119997
 20
364.4122613055
 30
0.0
 40
1.196357405020918
100
AcDbArc
 50
284.0657738339
 51
334.1683160447
  0
ARC
  5
182
330
1F
100
AcDbEntity
  8
0
  6
Continuous
 62
     7
370
    15
100
AcDbCircle
 10
831.6981577824
 20
363.4964331465
 30
0.0
 40
0.8366394958111998
100
AcDbArc
 50
28.1367677157
 51
97.9182744665
  0
LINE
  5
183
330
1F
100
AcDbEntity
  8
0
  6
Continuous
 62
     7
370
    15
100
AcDbLine
 10
845.5942630428
 20
335.6728309474
 30
0.0
 11
846.9912834733
 21
332.6769109661
 31
0.0
  0
LINE
  5
184
330
1F
100
AcDbEntity
  8
0
  6
Continuous
 62
     7
370
    15
100
AcDbLine
 10
831.0797773651
 20
366.7992459308
 30
0.0
 11
832.435926927
 21
363.8909738101
 31
0.0
  0
SPLINE
  5
185
330
1F
100
AcDbEntity
  8
0
  6
Continuous
 62
     7
370
    15
100
AcDbSpline
210
0.0
220
0.0
230
1.0
 70
     8
 71
     3
 72
    11
 73
     7
 74
     0
 42
0.00000001
 43
0.00000001
 12
1.0
 22
0.0
 32
0.0
 13
1.0
 23
0.0
 33
0.0
 40
0.0
 40
0.0
 40
0.0
 40
0.0
 40
0.2933118760927267
 40
0.58659912014196
 40
0.8805021461502891
 40
1.0
 40
1.0
 40
1.0
 40
1.0
 10
830.1588234798985
 20
367.3790418771035
 30
0.0
 10
830.2715243070452
 20
367.3693715418208
 30
0.0
 10
830.4969164968339
 20
367.3500316833608
 30
0.0
 10
830.7976727699622
 20
367.1808277535473
 30
0.0
 10
830.9861206369822
 20
366.980227689433
 30
0.0
 10
831.0587756675893
 20
366.8398294983298
 30
0.0
 10
831.0797773650988
 20
366.7992459308081
 30
0.0
  0
LINE
  5
186
330
1F
100
AcDbEntity
  8
0
  6
Continuous
 62
     7
370
    15
100
AcDbLine
 10
785.1102513581
 20
401.1858742556
 30
0.0
 11
769.0505882103
 21
393.6971303424
 31
0.0
  0
SPLINE
  5
187
330
1F
100
AcDbEntity
  8
0
  6
Continuous
 62
     7
370
    15
100
AcDbSpline
210
0.0
220
0.0
230
1.0
 70
     8
 71
     3
 72
    14
 73
    10
 74
     0
 42
0.00000001
 43
0.00000001
 12
1.0
 22
0.0
 32
0.0
 13
1.0
 23
0.0
 33
0.0
 40
0.0
 40
0.0
 40
0.0
 40
0.0
 40
0.1424979789612897
 40
0.2891107491291741
 40
0.4316087267218906
 40
0.5782214232939499
 40
0.720967110898728
 40
0.8678498166738062
 40
1.0
 40
1.0
 40
1.0
 40
1.0
 10
769.0505882103331
 20
393.6971303424082
 30
0.0
 10
768.9059710821552
 20
393.6420008717298
 30
0.0
 10
768.612560841749
 20
393.530150004208
 30
0.0
 10
768.1123466616023
 20
393.4963329252127
 30
0.0
 10
767.5656624533668
 20
393.5518905218802
 30
0.0
 10
766.9837067362881
 20
393.6927050309452
 30
0.0
 10
766.3650748077014
 20
393.9012347518963
 30
0.0
 10
765.7459013644878
 20
394.147665187527
 30
0.0
 10
765.3300251732287
 20
394.3244184334919
 30
0.0
 10
765.1330659004602
 20
394.4081289019352
 30
0.0
  0
LINE
  5
188
330
1F
100
AcDbEntity
  8
0
  6
Continuous
 62
     7
370
    15
100
AcDbLine
 10
765.1330659005
 20
394.4081289019
 30
0.0
 11
803.4718521799
 21
412.2857985484
 31
0.0
  0
SPLINE
  5
189
330
1F
100
AcDbEntity
  8
0
  6
Continuous
 62
     7
370
    15
100
AcDbSpline
210
0.0
220
0.0
230
1.0
 70
     8
 71
     3
 72
    11
 73
     7
 74
     0
 42
0.00000001
 43
0.00000001
 12
1.0
 22
0.0
 32
0.0
 13
1.0
 23
0.0
 33
0.0
 40
0.0
 40
0.0
 40
0.0
 40
0.0
 40
0.288807707719413
 40
0.577615336219724
 40
0.8669345414323455
 40
1.0
 40
1.0
 40
1.0
 40
1.0
 10
765.1330659004605
 20
394.4081289019354
 30
0.0
 10
765.5807639252383
 20
394.2719201470791
 30
0.0
 10
766.4761598519916
 20
393.9995026747281
 30
0.0
 10
767.6233214410522
 20
393.4994933476136
 30
0.0
 10
768.2982089897838
 20
392.9632426171848
 30
0.0
 10
768.5195630742334
 20
392.5641944811328
 30
0.0
 10
768.5892970993505
 20
392.4384808182855
 30
0.0
  0
LINE
  5
18A
330
1F
100
AcDbEntity
  8
0
  6
Continuous
 62
     7
370
    15
100
AcDbLine
 10
768.5892970994
 20
392.4384808183
 30
0.0
 11
769.083366178
 21
391.3789462599
 31
0.0
  0
LINE
  5
18B
330
1F
100
AcDbEntity
  8
0
  6
Continuous
 62
     7
370
    15
100
AcDbLine
 10
824.9902358041
 20
271.4862774427
 30
0.0
 11
822.9057278939
 21
270.5142554407
 31
0.0
  0
LINE
  5
18C
330
1F
100
AcDbEntity
  8
0
  6
Continuous
 62
     7
370
    15
100
AcDbLine
 10
822.9057278939
 20
270.5142554407
 30
0.0
 11
765.1330659005
 21
394.4081289019
 31
0.0
  0
LINE
  5
18D
330
1F
100
AcDbEntity
  8
0
  6
Continuous
 62
     7
370
    15
100
AcDbLine
 10
822.9057278939
 20
264.0059342099
 30
0.0
 11
824.9902358041
 21
263.0339122079
 31
0.0
  0
ARC
  5
18E
330
1F
100
AcDbEntity
  8
0
  6
Continuous
 62
     7
370
    15
100
AcDbCircle
 10
815.9271579338
 20
267.2600948253
 30
0.0
 40
7.699999999999647
100
AcDbArc
 50
335.0
 51
25.0
  0
SPLINE
  5
18F
330
1F
100
AcDbEntity
  8
0
  6
Continuous
 62
     7
370
    15
100
AcDbSpline
210
0.0
220
0.0
230
1.0
 70
     8
 71
     3
 72
    12
 73
     8
 74
     0
 42
0.00000001
 43
0.00000001
 12
1.0
 22
0.0
 32
0.0
 13
1.0
 23
0.0
 33
0.0
 40
0.0
 40
0.0
 40
0.0
 40
0.0
 40
0.2096821001528853
 40
0.4420453733185798
 40
0.6744332966681246
 40
0.9068208701180606
 40
0.9999999999999999
 40
0.9999999999999999
 40
0.9999999999999999
 40
0.9999999999999999
 10
-70.97598629393303
 20
457.9600948252588
 30
0.0
 10
-71.08027150186052
 20
458.212425783234
 30
0.0
 10
-71.30012237914724
 20
458.7443821707212
 30
0.0
 10
-71.63609050903003
 20
459.465763600536
 30
0.0
 10
-71.98299577744699
 20
460.0091225345225
 30
0.0
 10
-72.26137243968006
 20
460.2377443746659
 30
0.0
 10
-72.42273290090145
 20
460.2551214132902
 30
0.0
 10
-72.46891522612114
 20
460.2600948252588
 30
0.0
  0
LINE
  5
190
330
1F
100
AcDbEntity
  8
0
  6
Continuous
 62
     7
370
    15
100
AcDbLine
 10
-72.4689152261
 20
460.2600948253
 30
0.0
 11
-69.0819081128
 21
460.2600948253
 31
0.0
  0
LINE
  5
191
330
1F
100
AcDbEntity
  8
0
  6
Continuous
 62
     7
370
    15
100
AcDbLine
 10
-58.3319081128
 20
460.2600948253
 30
0.0
 11
3.9180918872
 21
460.2600948253
 31
0.0
  0
LINE
  5
192
330
1F
100
AcDbEntity
  8
0
  6
Continuous
 62
     7
370
    15
100
AcDbLine
 10
814.6712361161
 20
460.2600948253
 30
0.0
 11
814.6712361161
 21
457.9600948253
 31
0.0
  0
LINE
  5
193
330
1F
100
AcDbEntity
  8
0
  6
Continuous
 62
     7
370
    15
100
AcDbLine
 10
814.6712361161
 20
457.9600948253
 30
0.0
 11
-70.9759862939
 21
457.9600948253
 31
0.0
  0
SPLINE
  5
194
330
1F
100
AcDbEntity
  8
0
  6
Continuous
 62
     7
370
    15
100
AcDbSpline
210
0.0
220
0.0
230
1.0
 70
     8
 71
     3
 72
    12
 73
     8
 74
     0
 42
0.00000001
 43
0.00000001
 12
1.0
 22
0.0
 32
0.0
 13
1.0
 23
0.0
 33
0.0
 40
0.0
 40
0.0
 40
0.0
 40
0.0
 40
0.2096821001528617
 40
0.4420453733185935
 40
0.6744332966681255
 40
0.9068208701180397
 40
0.9999999999999999
 40
0.9999999999999999
 40
0.9999999999999999
 40
0.9999999999999999
 10
-73.275986293933
 20
459.4530237574469
 30
0.0
 10
-73.25164632376429
 20
459.3487385495193
 30
0.0
 10
-73.20033354507743
 20
459.1288876722325
 30
0.0
 10
-72.77940295814939
 20
458.7929195423498
 30
0.0
 10
-72.12761348025303
 20
458.4460142739329
 30
0.0
 10
-71.47817244115112
 20
458.1676376117003
 30
0.0
 10
-71.08773252404448
 20
458.0062771504785
 30
0.0
 10
-70.97598629393303
 20
457.9600948252588
 30
0.0
  0
LINE
  5
195
330
1F
100
AcDbEntity
  8
0
  6
Continuous
 62
     7
370
    15
100
AcDbLine
 10
-73.2759862939
 20
459.4530237574
 30
0.0
 11
-72.4759862939
 21
459.4530237574
 31
0.0
  0
SPLINE
  5
196
330
1F
100
AcDbEntity
  8
0
  6
Continuous
 62
     7
370
    15
100
AcDbSpline
210
0.0
220
0.0
230
1.0
 70
     8
 71
     3
 72
    11
 73
     7
 74
     0
 42
0.00000001
 43
0.00000001
 12
1.0
 22
0.0
 32
0.0
 13
1.0
 23
0.0
 33
0.0
 40
0.0
 40
0.0
 40
0.0
 40
0.0
 40
0.2543211584721097
 40
0.5088664984542219
 40
0.7634130007196832
 40
0.9999999999999999
 40
0.9999999999999999
 40
0.9999999999999999
 40
0.9999999999999999
 10
-72.47598629393309
 20
459.4530237574469
 30
0.0
 10
-72.45263223191407
 20
459.3264426496615
 30
0.0
 10
-72.40590352150828
 20
459.0731688541338
 30
0.0
 10
-72.04701590531265
 20
458.6932241846483
 30
0.0
 10
-71.54779292602359
 20
458.3219990529776
 30
0.0
 10
-71.16188460942813
 20
458.0777524083083
 30
0.0
 10
-70.97598629393303
 20
457.9600948252588
 30
0.0
  0
SPLINE
  5
197
330
1F
100
AcDbEntity
  8
0
  6
Continuous
 62
     7
370
    15
100
AcDbSpline
210
0.0
220
0.0
230
1.0
 70
     8
 71
     3
 72
    11
 73
     7
 74
     0
 42
0.00000001
 43
0.00000001
 12
1.0
 22
0.0
 32
0.0
 13
1.0
 23
0.0
 33
0.0
 40
0.0
 40
0.0
 40
0.0
 40
0.0
 40
0.2543211584720612
 40
0.5088664984541674
 40
0.7634130007196556
 40
1.0
 40
1.0
 40
1.0
 40
1.0
 10
-70.97598629393303
 20
457.9600948252588
 30
0.0
 10
-71.10256740171856
 20
458.160070015398
 30
0.0
 10
-71.35584119724598
 20
458.5601966717692
 30
0.0
 10
-71.73578586673118
 20
459.0618204258647
 30
0.0
 10
-72.10701099840283
 20
459.3978856727236
 30
0.0
 10
-72.35125764307155
 20
459.4398701968343
 30
0.0
 10
-72.46891522612114
 20
459.4600948252588
 30
0.0
  0
LINE
  5
198
330
1F
100
AcDbEntity
  8
0
  6
Continuous
 62
     7
370
    15
100
AcDbLine
 10
-72.4689152261
 20
460.2600948253
 30
0.0
 11
-72.4689152261
 21
459.4600948253
 31
0.0
  0
SPLINE
  5
199
330
1F
100
AcDbEntity
  8
0
  6
Continuous
 62
     7
370
    15
100
AcDbSpline
210
0.0
220
0.0
230
1.0
 70
     8
 71
     3
 72
    12
 73
     8
 74
     0
 42
0.00000001
 43
0.00000001
 12
1.0
 22
0.0
 32
0.0
 13
1.0
 23
0.0
 33
0.0
 40
0.0
 40
0.0
 40
0.0
 40
0.0
 40
0.2096821001528681
 40
0.4420453733185877
 40
0.6744332966681263
 40
0.9068208701180616
 40
1.0
 40
1.0
 40
1.0
 40
1.0
 10
-70.97598629393303
 20
215.3600948252583
 30
0.0
 10
-71.22831725190842
 20
215.2558096173308
 30
0.0
 10
-71.7602736393959
 20
215.0359587400441
 30
0.0
 10
-72.48165506921018
 20
214.6999906101611
 30
0.0
 10
-73.02501400319689
 20
214.3530853417444
 30
0.0
 10
-73.25363584333982
 20
214.0747086795115
 30
0.0
 10
-73.27101288196464
 20
213.9133482182899
 30
0.0
 10
-73.27598629393312
 20
213.8671658930702
 30
0.0
  0
LINE
  5
19A
330
1F
100
AcDbEntity
  8
0
  6
Continuous
 62
     7
370
    15
100
AcDbLine
 10
-73.2759862939
 20
459.4530237574
 30
0.0
 11
-73.2759862939
 21
213.8671658931
 31
0.0
  0
LINE
  5
19B
330
1F
100
AcDbEntity
  8
0
  6
Continuous
 62
     7
370
    15
100
AcDbLine
 10
-70.9759862939
 20
457.9600948253
 30
0.0
 11
-70.9759862939
 21
215.3600948253
 31
0.0
  0
CIRCLE
  5
19C
330
1F
100
AcDbEntity
  8
0
  6
Continuous
 62
     7
370
    15
100
AcDbCircle
 10
4.2712361161
 20
440.2600948253
 30
0.0
 40
6.347663105371566
  0
CIRCLE
  5
19D
330
1F
100
AcDbEntity
  8
0
  6
Continuous
 62
     7
370
    15
100
AcDbCircle
 10
774.2712361161
 20
440.2600948253
 30
0.0
 40
6.347663105371566
  0
LINE
  5
19E
330
1F
100
AcDbEntity
  8
0
  6
Continuous
 62
     7
370
    15
100
AcDbLine
 10
-70.9759862939
 20
215.3600948253
 30
0.0
 11
795.3163594433
 21
215.3600948253
 31
0.0
  0
ARC
  5
19F
330
1F
100
AcDbEntity
  8
0
  6
Continuous
 62
     7
370
    15
100
AcDbCircle
 10
814.6712361161
 20
450.2600948253
 30
0.0
 40
7.69999999999975
100
AcDbArc
 50
335.0
 51
90.0
  0
LINE
  5
1A0
330
1F
100
AcDbEntity
  8
0
  6
Continuous
 62
     7
370
    15
100
AcDbLine
 10
807.1962615247
 20
416.0102078932
 30
0.0
 11
821.6498060762
 21
447.0059342099
 31
0.0
  0
ARC
  5
1A1
330
1F
100
AcDbEntity
  8
0
  6
Continuous
 62
     7
370
    15
100
AcDbCircle
 10
800.2176915645
 20
419.2643685086
 30
0.0
 40
7.700000000000179
100
AcDbArc
 50
295.0
 51
335.0
  0
LINE
  5
1A2
330
1F
100
AcDbEntity
  8
0
  6
Continuous
 62
     7
370
    15
100
AcDbLine
 10
802.2949294035
 20
219.8059342099
 30
0.0
 11
822.9057278939
 21
264.0059342099
 31
0.0
  0
ARC
  5
1A3
330
1F
100
AcDbEntity
  8
0
  6
Continuous
 62
     7
370
    15
100
AcDbCircle
 10
795.3163594433
 20
223.0600948253
 30
0.0
 40
7.699999999999853
100
AcDbArc
 50
270.0
 51
335.0
  0
CIRCLE
  5
1A4
330
1F
100
AcDbEntity
  8
0
  6
Continuous
 62
     7
370
    15
100
AcDbCircle
 10
394.2712361161
 20
440.2600948253
 30
0.0
 40
6.347663105371566
  0
SPLINE
  5
1A5
330
1F
100
AcDbEntity
  8
0
  6
Continuous
 62
     7
370
    15
100
AcDbSpline
210
0.0
220
0.0
230
1.0
 70
     8
 71
     3
 72
    11
 73
     7
 74
     0
 42
0.00000001
 43
0.00000001
 12
1.0
 22
0.0
 32
0.0
 13
1.0
 23
0.0
 33
0.0
 40
0.0
 40
0.0
 40
0.0
 40
0.0
 40
0.2543211584721276
 40
0.5088664984542407
 40
0.7634130007197292
 40
1.0
 40
1.0
 40
1.0
 40
1.0
 10
-70.97598629393303
 20
215.3600948252583
 30
0.0
 10
-71.17596148407218
 20
215.2335137174729
 30
0.0
 10
-71.57608814044353
 20
214.9802399219452
 30
0.0
 10
-72.077711894539
 20
214.6002952524598
 30
0.0
 10
-72.41377714139769
 20
214.2290701207889
 30
0.0
 10
-72.45576166550855
 20
213.9848234761198
 30
0.0
 10
-72.47598629393309
 20
213.8671658930702
 30
0.0
  0
LINE
  5
1A6
330
1F
100
AcDbEntity
  8
0
  6
Continuous
 62
     7
370
    15
100
AcDbLine
 10
-73.2759862939
 20
213.8671658931
 30
0.0
 11
-72.4759862939
 21
213.8671658931
 31
0.0
  0
SPLINE
  5
1A7
330
1F
100
AcDbEntity
  8
0
  6
Continuous
 62
     7
370
    15
100
AcDbSpline
210
0.0
220
0.0
230
1.0
 70
     8
 71
     3
 72
    12
 73
     8
 74
     0
 42
0.00000001
 43
0.00000001
 12
1.0
 22
0.0
 32
0.0
 13
1.0
 23
0.0
 33
0.0
 40
0.0
 40
0.0
 40
0.0
 40
0.0
 40
0.2096821001528683
 40
0.4420453733186042
 40
0.6744332966681316
 40
0.9068208701180644
 40
1.0
 40
1.0
 40
1.0
 40
1.0
 10
-72.46891522612114
 20
213.0600948252583
 30
0.0
 10
-72.36463001819365
 20
213.0844347954269
 30
0.0
 10
-72.14477914090706
 20
213.1357475741138
 30
0.0
 10
-71.80881101102393
 20
213.5566781610425
 30
0.0
 10
-71.46190574260719
 20
214.208467638938
 30
0.0
 10
-71.18352908037434
 20
214.8579086780405
 30
0.0
 10
-71.02216861915284
 20
215.2483485951469
 30
0.0
 10
-70.97598629393303
 20
215.3600948252583
 30
0.0
  0
LINE
  5
1A8
330
1F
100
AcDbEntity
  8
0
  6
Continuous
 62
     7
370
    15
100
AcDbLine
 10
-72.4689152261
 20
213.0600948253
 30
0.0
 11
-72.4689152261
 21
213.8600948253
 31
0.0
  0
SPLINE
  5
1A9
330
1F
100
AcDbEntity
  8
0
  6
Continuous
 62
     7
370
    15
100
AcDbSpline
210
0.0
220
0.0
230
1.0
 70
     8
 71
     3
 72
    11
 73
     7
 74
     0
 42
0.00000001
 43
0.00000001
 12
1.0
 22
0.0
 32
0.0
 13
1.0
 23
0.0
 33
0.0
 40
0.0
 40
0.0
 40
0.0
 40
0.0
 40
0.2543211584721284
 40
0.5088664984542423
 40
0.7634130007197338
 40
1.0
 40
1.0
 40
1.0
 40
1.0
 10
-72.46891522612114
 20
213.8600948252583
 30
0.0
 10
-72.34233411833574
 20
213.8834488872774
 30
0.0
 10
-72.0890603228081
 20
213.9301775976833
 30
0.0
 10
-71.70911565332277
 20
214.2890652138784
 30
0.0
 10
-71.33789052165169
 20
214.788288193168
 30
0.0
 10
-71.09364387698264
 20
215.1741965097632
 30
0.0
 10
-70.97598629393303
 20
215.3600948252583
 30
0.0
  0
CIRCLE
  5
1AA
330
1F
100
AcDbEntity
  8
0
  6
Continuous
 62
     7
370
    15
100
AcDbCircle
 10
4.2712361161
 20
440.2600948253
 30
0.0
 40
4.700000000000045
  0
LINE
  5
1AB
330
1F
100
AcDbEntity
  8
0
  6
Continuous
 62
     7
370
    15
100
AcDbLine
 10
795.3163594433
 20
215.3600948253
 30
0.0
 11
795.3163594433
 21
213.0600948253
 31
0.0
  0
LINE
  5
1AC
330
1F
100
AcDbEntity
  8
0
  6
Continuous
 62
     7
370
    15
100
AcDbLine
 10
804.3794373137
 20
218.8339122079
 30
0.0
 11
802.2949294035
 21
219.8059342099
 31
0.0
  0
CIRCLE
  5
1AD
330
1F
100
AcDbEntity
  8
0
  6
Continuous
 62
     7
370
    15
100
AcDbCircle
 10
394.2712361161
 20
440.2600948253
 30
0.0
 40
4.700000000000045
  0
LINE
  5
1AE
330
1F
100
AcDbEntity
  8
0
  6
Continuous
 62
     7
370
    15
100
AcDbLine
 10
821.6498060762
 20
447.0059342099
 30
0.0
 11
823.7343139864
 21
446.0339122079
 31
0.0
  0
CIRCLE
  5
1AF
330
1F
100
AcDbEntity
  8
0
  6
Continuous
 62
     7
370
    15
100
AcDbCircle
 10
774.2712361161
 20
440.2600948253
 30
0.0
 40
4.700000000000045
  0
LINE
  5
1B0
330
1F
100
AcDbEntity
  8
0
  6
Continuous
 62
     7
370
    15
100
AcDbLine
 10
809.2807694349
 20
415.0381858912
 30
0.0
 11
807.1962615247
 21
416.0102078932
 31
0.0
  0
LINE
  5
1B1
330
1F
100
AcDbEntity
  8
0
  6
Continuous
 62
     7
370
    15
100
AcDbLine
 10
734.6870620514
 20
213.0600948253
 30
0.0
 11
-72.4689152261
 21
213.0600948253
 31
0.0
  0
CIRCLE
  5
1B2
330
1F
100
AcDbEntity
  8
0
  6
Continuous
 62
     7
370
    15
100
AcDbCircle
 10
4.2712361161
 20
440.2600948253
 30
0.0
 40
2.699999999999989
  0
CIRCLE
  5
1B3
330
1F
100
AcDbEntity
  8
0
  6
Continuous
 62
     7
370
    15
100
AcDbCircle
 10
394.2712361161
 20
440.2600948253
 30
0.0
 40
2.699999999999989
  0
CIRCLE
  5
1B4
330
1F
100
AcDbEntity
  8
0
  6
Continuous
 62
     7
370
    15
100
AcDbCircle
 10
774.2712361161
 20
440.2600948253
 30
0.0
 40
2.699999999999989
  0
LINE
  5
1B5
330
1F
100
AcDbEntity
  8
0
  6
Continuous
 62
     8
370
    15
100
AcDbLine
 10
-53.5039472033
 20
460.4600948246
 30
0.0
 11
-53.5039472033
 21
460.2600948253
 31
0.0
  0
LINE
  5
1B6
330
1F
100
AcDbEntity
  8
0
  6
Continuous
 62
     8
370
    15
100
AcDbLine
 10
-15.5039472033
 20
460.4600948246
 30
0.0
 11
-15.5039472033
 21
460.2600948253
 31
0.0
  0
SPLINE
  5
1B7
330
1F
100
AcDbEntity
  8
0
  6
Continuous
 62
     8
370
    15
100
AcDbSpline
210
0.0
220
0.0
230
1.0
 70
     8
 71
     3
 72
     9
 73
     5
 74
     0
 42
0.00000001
 43
0.00000001
 12
1.0
 22
0.0
 32
0.0
 13
1.0
 23
0.0
 33
0.0
 40
0.0
 40
0.0
 40
0.0
 40
0.0
 40
0.830654532514457
 40
1.0
 40
1.0
 40
1.0
 40
1.0
 10
802.2889190080547
 20
334.129997756977
 30
0.0
 10
802.2595242172939
 20
334.181313463855
 30
0.0
 10
802.2241367130908
 20
334.2430908994427
 30
0.0
 10
802.120033173585
 20
334.2603202861246
 30
0.0
 10
802.1024037110204
 20
334.2632380046668
 30
0.0
  0
SPLINE
  5
1B8
330
1F
100
AcDbEntity
  8
0
  6
Continuous
 62
     8
370
    15
100
AcDbSpline
210
0.0
220
0.0
230
1.0
 70
     8
 71
     3
 72
     9
 73
     5
 74
     0
 42
0.00000001
 43
0.00000001
 12
1.0
 22
0.0
 32
0.0
 13
1.0
 23
0.0
 33
0.0
 40
0.0
 40
0.0
 40
0.0
 40
0.0
 40
0.1245182549293569
 40
1.0
 40
1.0
 40
1.0
 40
1.0
 10
803.4981939089416
 20
331.3000792049463
 30
0.0
 10
803.5017821727744
 20
331.3163918201102
 30
0.0
 10
803.5305993436767
 20
331.4473976326567
 30
0.0
 10
803.4794619514391
 20
331.5676237047556
 30
0.0
 10
803.4346920980446
 20
331.6728794361597
 30
0.0
  0
SPLINE
  5
1B9
330
1F
100
AcDbEntity
  8
0
  6
Continuous
 62
     8
370
    15
100
AcDbSpline
210
0.0
220
0.0
230
1.0
 70
     8
 71
     3
 72
     9
 73
     5
 74
     0
 42
0.00000001
 43
0.00000001
 12
1.0
 22
0.0
 32
0.0
 13
1.0
 23
0.0
 33
0.0
 40
0.0
 40
0.0
 40
0.0
 40
0.0
 40
0.8756857391854755
 40
1.0
 40
1.0
 40
1.0
 40
1.0
 10
802.2889190080547
 20
334.129997756977
 30
0.0
 10
802.2370614924095
 20
334.2319602811977
 30
0.0
 10
802.1778421705402
 20
334.348397628134
 30
0.0
 10
802.058934224441
 20
334.4105545663555
 30
0.0
 10
802.0441522710167
 20
334.418281560185
 30
0.0
  0
LINE
  5
1BA
330
1F
100
AcDbEntity
  8
0
  6
Continuous
 62
     8
370
    15
100
AcDbLine
 10
95.2123434255
 20
115.8600948253
 30
0.0
 11
38.2123434255
 21
115.8600948253
 31
0.0
  0
LINE
  5
1BB
330
1F
100
AcDbEntity
  8
0
  6
Continuous
 62
     8
370
    15
100
AcDbLine
 10
674.2123434255
 20
115.8600948253
 30
0.0
 11
617.2123434255
 21
115.8600948253
 31
0.0
  0
LINE
  5
1BC
330
1F
100
AcDbEntity
  8
0
  6
Continuous
 62
     8
370
    15
100
AcDbLine
 10
677.6123434255
 20
210.3600948253
 30
0.0
 11
613.8123434255
 21
210.3600948253
 31
0.0
  0
LINE
  5
1BD
330
1F
100
AcDbEntity
  8
0
  6
Continuous
 62
     8
370
    15
100
AcDbLine
 10
677.5484301986
 20
154.1201975464
 30
0.0
 11
613.8762566525
 21
154.1201975464
 31
0.0
  0
LINE
  5
1BE
330
1F
100
AcDbEntity
  8
0
  6
Continuous
 62
     8
370
    15
100
AcDbLine
 10
677.6123434255
 20
154.8926607709
 30
0.0
 11
613.8123434255
 21
154.8926607709
 31
0.0
  0
LINE
  5
1BF
330
1F
100
AcDbEntity
  8
0
  6
Continuous
 62
     8
370
    15
100
AcDbLine
 10
98.6123434255
 20
210.3600948253
 30
0.0
 11
34.8123434255
 21
210.3600948253
 31
0.0
  0
LINE
  5
1C0
330
1F
100
AcDbEntity
  8
0
  6
Continuous
 62
     8
370
    15
100
AcDbLine
 10
98.5484301986
 20
154.1201975464
 30
0.0
 11
34.8762566525
 21
154.1201975464
 31
0.0
  0
LINE
  5
1C1
330
1F
100
AcDbEntity
  8
0
  6
Continuous
 62
     8
370
    15
100
AcDbLine
 10
98.6123434255
 20
154.8926607709
 30
0.0
 11
34.8123434255
 21
154.8926607709
 31
0.0
  0
LINE
  5
1C2
330
1F
100
AcDbEntity
  8
0
  6
Continuous
 62
     8
370
    15
100
AcDbLine
 10
811.5399716057
 20
309.5697029599
 30
0.0
 11
790.5465860746
 21
354.5901635162
 31
0.0
  0
LINE
  5
1C3
330
1F
100
AcDbEntity
  8
0
  6
Continuous
 62
     8
370
    15
100
AcDbLine
 10
797.8696089295
 20
347.8553469673
 30
0.0
 11
811.0879511695
 21
319.5085205559
 31
0.0
  0
LINE
  5
1C4
330
1F
100
AcDbEntity
  8
0
  6
Continuous
 62
     8
370
    15
100
AcDbLine
 10
813.4140327321
 20
320.7453200615
 30
0.0
 11
800.3122287256
 21
348.8422294246
 31
0.0
  0
LINE
  5
1C5
330
1F
100
AcDbEntity
  8
0
  6
Continuous
 62
     8
370
    15
100
AcDbLine
 10
812.749347116
 20
306.9761888085
 30
0.0
 11
812.3445801909
 21
307.8442142805
 31
0.0
  0
LINE
  5
1C6
330
1F
100
AcDbEntity
  8
0
  6
Continuous
 62
     8
370
    15
100
AcDbLine
 10
812.0064855815
 20
308.5692605102
 30
0.0
 11
811.5399716057
 21
309.5697029599
 31
0.0
  0
LINE
  5
1C7
330
1F
100
AcDbEntity
  8
0
  6
Continuous
 62
     8
370
    15
100
AcDbLine
 10
790.5465860746
 20
354.5901635162
 30
0.0
 11
789.3372105643
 21
357.1836776676
 31
0.0
  0
LINE
  5
1C8
330
1F
100
AcDbEntity
  8
0
  6
Continuous
 62
     8
370
    15
100
AcDbLine
 10
809.9830934956
 20
305.562159247
 30
0.0
 11
810.3368387604
 21
305.7429836869
 31
0.0
  0
LINE
  5
1C9
330
1F
100
AcDbEntity
  8
0
  6
Continuous
 62
     8
370
    15
100
AcDbLine
 10
811.0544855722
 20
306.1098241672
 30
0.0
 11
812.749347116
 21
306.9761888085
 31
0.0
  0
LINE
  5
1CA
330
1F
100
AcDbEntity
  8
0
  6
Continuous
 62
     8
370
    15
100
AcDbLine
 10
813.6835128101
 20
309.4575923339
 30
0.0
 11
813.7217933594
 21
309.3691216631
 31
0.0
  0
ARC
  5
1CB
330
1F
100
AcDbEntity
  8
0
  6
Continuous
 62
     8
370
    15
100
AcDbCircle
 10
811.8390961249
 20
308.7695244159
 30
0.0
 40
2.011121445256583
100
AcDbArc
 50
296.9111767314
 51
353.4520560862
  0
LINE
  5
1CC
330
1F
100
AcDbEntity
  8
0
  6
Continuous
 62
     8
370
    15
100
AcDbLine
 10
795.2231569362
 20
353.5306815818
 30
0.0
 11
797.8696089296
 21
347.8553469673
 31
0.0
  0
LINE
  5
1CD
330
1F
100
AcDbEntity
  8
0
  6
Continuous
 62
     8
370
    15
100
AcDbLine
 10
811.0879511696
 20
319.5085205559
 30
0.0
 11
813.7344031629
 21
313.8331859413
 31
0.0
  0
LWPOLYLINE
  5
1CE
330
1F
100
AcDbEntity
  8
0
  6
Continuous
 62
     8
370
    15
100
AcDbPolyline
 90
        3
 70
   128
 43
0.0
 10
813.5329320266
 20
305.2957855449
 10
813.0393472321
 20
305.0439596088
 10
811.7587219591
 20
304.3906932959
  0
LINE
  5
1CF
330
1F
100
AcDbEntity
  8
0
  6
Continuous
 62
     8
370
    15
100
AcDbLine
 10
811.0456406847
 20
304.0269397572
 30
0.0
 11
810.7655931677
 21
303.8840832849
 31
0.0
  0
LINE
  5
1D0
330
1F
100
AcDbEntity
  8
0
  6
Continuous
 62
     8
370
    15
100
AcDbLine
 10
826.3399707665
 20
277.4008192493
 30
0.0
 11
824.7007448462
 21
276.6364356492
 31
0.0
  0
LINE
  5
1D1
330
1F
100
AcDbEntity
  8
0
  6
Continuous
 62
     8
370
    15
100
AcDbLine
 10
823.9756986165
 20
276.2983410398
 30
0.0
 11
823.6909521176
 21
276.1655615667
 31
0.0
  0
LINE
  5
1D2
330
1F
100
AcDbEntity
  8
0
  6
Continuous
 62
     8
370
    15
100
AcDbLine
 10
826.9748299228
 20
276.0916654442
 30
0.0
 11
825.3475316364
 21
275.2493969015
 31
0.0
  0
LINE
  5
1D3
330
1F
100
AcDbEntity
  8
0
  6
Continuous
 62
     8
370
    15
100
AcDbLine
 10
824.6364518333
 20
274.8813511937
 30
0.0
 11
824.3571903516
 21
274.7368090632
 31
0.0
  0
SPLINE
  5
1D4
330
1F
100
AcDbEntity
  8
0
  6
Continuous
 62
     8
370
    15
100
AcDbSpline
210
0.0
220
0.0
230
1.0
 70
     8
 71
     3
 72
    11
 73
     7
 74
     0
 42
0.00000001
 43
0.00000001
 12
1.0
 22
0.0
 32
0.0
 13
1.0
 23
0.0
 33
0.0
 40
0.0
 40
0.0
 40
0.0
 40
0.0
 40
0.1002094763405963
 40
0.4584952721941089
 40
0.7256539342241892
 40
1.0
 40
1.0
 40
1.0
 40
1.0
 10
826.6038082536526
 20
272.5553030017018
 30
0.0
 10
826.6607115774112
 20
272.6117383299276
 30
0.0
 10
826.9210652472264
 20
272.8699507477665
 30
0.0
 10
827.2144507723149
 20
273.6938231163529
 30
0.0
 10
827.2874719545124
 20
274.8323829224958
 30
0.0
 10
827.079962027949
 20
275.6682066349994
 30
0.0
 10
826.9748299228374
 20
276.0916654441895
 30
0.0
  0
LINE
  5
1D5
330
1F
100
AcDbEntity
  8
0
  6
Continuous
 62
     8
370
    15
100
AcDbLine
 10
829.8626594972
 20
320.5979155818
 30
0.0
 11
822.3561846465
 21
336.6956028478
 31
0.0
  0
LINE
  5
1D6
330
1F
100
AcDbEntity
  8
0
  6
Continuous
 62
     8
370
    15
100
AcDbLine
 10
818.2990493338
 20
345.3961576033
 30
0.0
 11
810.7645171522
 21
361.5540140094
 31
0.0
  0
LINE
  5
1D7
330
1F
100
AcDbEntity
  8
0
  6
Continuous
 62
     8
370
    15
100
AcDbLine
 10
846.8422870702
 20
331.6012387497
 30
0.0
 11
845.3776941063
 21
334.7420684965
 31
0.0
  0
LINE
  5
1D8
330
1F
100
AcDbEntity
  8
0
  6
Continuous
 62
     8
370
    15
100
AcDbLine
 10
803.4718521799
 20
412.2857985484
 30
0.0
 11
804.433943032
 21
410.2225880579
 31
0.0
  0
ENDSEC
  0
SECTION
  2
OBJECTS
  0
DICTIONARY
  5
C
330
0
100
AcDbDictionary
281
     1
  3
ACAD_GROUP
350
D
  3
ACAD_LAYOUT
350
1A
  3
ACAD_MLINESTYLE
350
17
  3
ACAD_PLOTSETTINGS
350
19
  3
ACAD_PLOTSTYLENAME
350
E
  0
DICTIONARY
  5
D
102
{ACAD_REACTORS
330
C
102
}
330
C
100
AcDbDictionary
281
     1
  0
DICTIONARY
  5
1A
102
{ACAD_REACTORS
330
C
102
}
330
C
100
AcDbDictionary
281
     1
  3
Layout1
350
1E
  3
Layout2
350
26
  3
Model
350
22
  0
DICTIONARY
  5
17
102
{ACAD_REACTORS
330
C
102
}
330
C
100
AcDbDictionary
281
     1
  3
Standard
350
18
  0
DICTIONARY
  5
19
102
{ACAD_REACTORS
330
C
102
}
330
C
100
AcDbDictionary
281
     1
  0
ACDBDICTIONARYWDFLT
  5
E
102
{ACAD_REACTORS
330
C
102
}
330
C
100
AcDbDictionary
281
     1
  3
Normal
350
F
100
AcDbDictionaryWithDefault
340
F
  0
LAYOUT
  5
1E
102
{ACAD_REACTORS
330
1A
102
}
330
1A
100
AcDbPlotSettings
  1

  2
none_device
  4

  6

 40
0.0
 41
0.0
 42
0.0
 43
0.0
 44
0.0
 45
0.0
 46
0.0
 47
0.0
 48
0.0
 49
0.0
140
0.0
141
0.0
142
1.0
143
1.0
 70
   688
 72
     0
 73
     0
 74
     5
  7

 75
    16
147
1.0
148
0.0
149
0.0
100
AcDbLayout
  1
Layout1
 70
     1
 71
     1
 10
0.0
 20
0.0
 11
420.0
 21
297.0
 12
0.0
 22
0.0
 32
0.0
 14
1.0000000000E+20
 24
1.0000000000E+20
 34
1.0000000000E+20
 15
-1.0000000000E+20
 25
-1.0000000000E+20
 35
-1.0000000000E+20
146
0.0
 13
0.0
 23
0.0
 33
0.0
 16
1.0
 26
0.0
 36
0.0
 17
0.0
 27
1.0
 37
0.0
 76
     0
330
1B
  0
LAYOUT
  5
26
102
{ACAD_REACTORS
330
1A
102
}
330
1A
100
AcDbPlotSettings
  1

  2
none_device
  4

  6

 40
0.0
 41
0.0
 42
0.0
 43
0.0
 44
0.0
 45
0.0
 46
0.0
 47
0.0
 48
0.0
 49
0.0
140
0.0
141
0.0
142
1.0
143
1.0
 70
   688
 72
     0
 73
     0
 74
     5
  7

 75
    16
147
1.0
148
0.0
149
0.0
100
AcDbLayout
  1
Layout2
 70
     1
 71
     2
 10
0.0
 20
0.0
 11
0.0
 21
0.0
 12
0.0
 22
0.0
 32
0.0
 14
0.0
 24
0.0
 34
0.0
 15
0.0
 25
0.0
 35
0.0
146
0.0
 13
0.0
 23
0.0
 33
0.0
 16
1.0
 26
0.0
 36
0.0
 17
0.0
 27
1.0
 37
0.0
 76
     0
330
23
  0
LAYOUT
  5
22
102
{ACAD_REACTORS
330
1A
102
}
330
1A
100
AcDbPlotSettings
  1

  2
none_device
  4

  6

 40
0.0
 41
0.0
 42
0.0
 43
0.0
 44
0.0
 45
0.0
 46
0.0
 47
0.0
 48
0.0
 49
0.0
140
0.0
141
0.0
142
1.0
143
1.0
 70
  1712
 72
     0
 73
     0
 74
     0
  7

 75
     0
147
1.0
148
0.0
149
0.0
100
AcDbLayout
  1
Model
 70
     1
 71
     0
 10
0.0
 20
0.0
 11
841.0
 21
594.0
 12
0.0
 22
0.0
 32
0.0
 14
0.0
 24
0.0
 34
0.0
 15
841.0
 25
594.0
 35
0.0
146
0.0
 13
0.0
 23
0.0
 33
0.0
 16
1.0
 26
0.0
 36
0.0
 17
0.0
 27
1.0
 37
0.0
 76
     0
330
1F
331
29
  0
MLINESTYLE
  5
18
102
{ACAD_REACTORS
330
17
102
}
330
17
100
AcDbMlineStyle
  2
Standard
 70
     0
  3

 62
   256
 51
90.0
 52
90.0
 71
     2
 49
0.5
 62
   256
  6
BYLAYER
 49
-0.5
 62
   256
  6
BYLAYER
  0
ACDBPLACEHOLDER
  5
F
102
{ACAD_REACTORS
330
E
102
}
330
E
  0
ENDSEC
  0
EOF
