  0
SECTION
  2
HEADER
  9
$ACADVER
  1
AC1015
  9
$ACADMAINTVER
 70
     6
  9
$DWGCODEPAGE
  3
ANSI_1252
  9
$INSBASE
 10
0.0
 20
0.0
 30
0.0
  9
$EXTMIN
 10
0.0
 20
0.0
 30
0.0
  9
$EXTMAX
 10
841.0
 20
594.0
 30
0.0
  9
$LIMMIN
 10
0.0
 20
0.0
  9
$LIMMAX
 10
841.0
 20
594.0
  9
$ORTHOMODE
 70
     0
  9
$REGENMODE
 70
     1
  9
$FILLMODE
 70
     1
  9
$QTEXTMODE
 70
     0
  9
$MIRRTEXT
 70
     1
  9
$LTSCALE
 40
1.0
  9
$ATTMODE
 70
     1
  9
$TEXTSIZE
 40
3.5
  9
$TRACEWID
 40
1.0
  9
$TEXTSTYLE
  7
Standard
  9
$CLAYER
  8
0
  9
$CELTYPE
  6
ByLayer
  9
$CECOLOR
 62
   256
  9
$CELTSCALE
 40
1.0
  9
$DISPSILH
 70
     0
  9
$DIMSCALE
 40
1.0
  9
$DIMASZ
 40
3.302
  9
$DIMEXO
 40
1.0
  9
$DIMDLI
 40
3.75
  9
$DIMRND
 40
0.0
  9
$DIMDLE
 40
0.0
  9
$DIMEXE
 40
1.0
  9
$DIMTP
 40
0.0
  9
$DIMTM
 40
0.0
  9
$DIMTXT
 40
3.5
  9
$DIMCEN
 40
2.5
  9
$DIMTSZ
 40
0.0
  9
$DIMTOL
 70
     0
  9
$DIMLIM
 70
     0
  9
$DIMTIH
 70
     1
  9
$DIMTOH
 70
     1
  9
$DIMSE1
 70
     0
  9
$DIMSE2
 70
     0
  9
$DIMTAD
 70
     1
  9
$DIMZIN
 70
     0
  9
$DIMBLK
  1

  9
$DIMASO
 70
     1
  9
$DIMSHO
 70
     1
  9
$DIMPOST
  1

  9
$DIMAPOST
  1

  9
$DIMALT
 70
     0
  9
$DIMALTD
 70
     3
  9
$DIMALTF
 40
0.0393700787
  9
$DIMLFAC
 40
1.0
  9
$DIMTOFL
 70
     1
  9
$DIMTVP
 40
0.0
  9
$DIMTIX
 70
     0
  9
$DIMSOXD
 70
     0
  9
$DIMSAH
 70
     0
  9
$DIMBLK1
  1

  9
$DIMBLK2
  1

  9
$DIMSTYLE
  2
ISO-25
  9
$DIMCLRD
 70
     0
  9
$DIMCLRE
 70
     0
  9
$DIMCLRT
 70
     0
  9
$DIMTFAC
 40
1.0
  9
$DIMGAP
 40
1.524
  9
$DIMJUST
 70
     0
  9
$DIMSD1
 70
     0
  9
$DIMSD2
 70
     0
  9
$DIMTOLJ
 70
     0
  9
$DIMTZIN
 70
     0
  9
$DIMALTZ
 70
     0
  9
$DIMALTTZ
 70
     0
  9
$DIMUPT
 70
     0
  9
$DIMDEC
 70
     1
  9
$DIMTDEC
 70
     1
  9
$DIMALTU
 70
     2
  9
$DIMALTTD
 70
     3
  9
$DIMTXSTY
  7
Standard
  9
$DIMAUNIT
 70
     0
  9
$DIMADEC
 70
     1
  9
$DIMALTRND
 40
0.0
  9
$DIMAZIN
 70
     0
  9
$DIMDSEP
 70
    44
  9
$DIMATFIT
 70
     3
  9
$DIMFRAC
 70
     0
  9
$DIMLDRBLK
  1

  9
$DIMLUNIT
 70
     2
  9
$DIMLWD
 70
    -2
  9
$DIMLWE
 70
    -2
  9
$DIMTMOVE
 70
     0
  9
$LUNITS
 70
     2
  9
$LUPREC
 70
     1
  9
$SKETCHINC
 40
1.0
  9
$FILLETRAD
 40
10.0
  9
$AUNITS
 70
     0
  9
$AUPREC
 70
     1
  9
$MENU
  1
.
  9
$ELEVATION
 40
0.0
  9
$PELEVATION
 40
0.0
  9
$THICKNESS
 40
0.0
  9
$LIMCHECK
 70
     0
  9
$CHAMFERA
 40
10.0
  9
$CHAMFERB
 40
10.0
  9
$CHAMFERC
 40
20.0
  9
$CHAMFERD
 40
0.0
  9
$SKPOLY
 70
     0
  9
$TDCREATE
 40
2457080.344059942
  9
$TDUCREATE
 40
2457080.344059942
  9
$TDUPDATE
 40
2457080.344062292
  9
$TDUUPDATE
 40
2457080.344062292
  9
$TDINDWG
 40
0.0000000116
  9
$TDUSRTIMER
 40
0.0000000116
  9
$USRTIMER
 70
     1
  9
$ANGBASE
 50
0.0
  9
$ANGDIR
 70
     0
  9
$PDMODE
 70
     0
  9
$PDSIZE
 40
-1.0
  9
$PLINEWID
 40
0.0
  9
$SPLFRAME
 70
     0
  9
$SPLINETYPE
 70
     6
  9
$SPLINESEGS
 70
     8
  9
$HANDSEED
  5
37B
  9
$SURFTAB1
 70
     6
  9
$SURFTAB2
 70
     6
  9
$SURFTYPE
 70
     6
  9
$SURFU
 70
     6
  9
$SURFV
 70
     6
  9
$UCSBASE
  2

  9
$UCSNAME
  2

  9
$UCSORG
 10
0.0
 20
0.0
 30
0.0
  9
$UCSXDIR
 10
1.0
 20
0.0
 30
0.0
  9
$UCSYDIR
 10
0.0
 20
1.0
 30
0.0
  9
$UCSORTHOREF
  2

  9
$UCSORTHOVIEW
 70
     0
  9
$UCSORGTOP
 10
0.0
 20
0.0
 30
0.0
  9
$UCSORGBOTTOM
 10
0.0
 20
0.0
 30
0.0
  9
$UCSORGLEFT
 10
0.0
 20
0.0
 30
0.0
  9
$UCSORGRIGHT
 10
0.0
 20
0.0
 30
0.0
  9
$UCSORGFRONT
 10
0.0
 20
0.0
 30
0.0
  9
$UCSORGBACK
 10
0.0
 20
0.0
 30
0.0
  9
$PUCSBASE
  2

  9
$PUCSNAME
  2

  9
$PUCSORG
 10
0.0
 20
0.0
 30
0.0
  9
$PUCSXDIR
 10
1.0
 20
0.0
 30
0.0
  9
$PUCSYDIR
 10
0.0
 20
1.0
 30
0.0
  9
$PUCSORTHOREF
  2

  9
$PUCSORTHOVIEW
 70
     0
  9
$PUCSORGTOP
 10
0.0
 20
0.0
 30
0.0
  9
$PUCSORGBOTTOM
 10
0.0
 20
0.0
 30
0.0
  9
$PUCSORGLEFT
 10
0.0
 20
0.0
 30
0.0
  9
$PUCSORGRIGHT
 10
0.0
 20
0.0
 30
0.0
  9
$PUCSORGFRONT
 10
0.0
 20
0.0
 30
0.0
  9
$PUCSORGBACK
 10
0.0
 20
0.0
 30
0.0
  9
$USERI1
 70
     0
  9
$USERI2
 70
     0
  9
$USERI3
 70
     0
  9
$USERI4
 70
     0
  9
$USERI5
 70
     0
  9
$USERR1
 40
0.0
  9
$USERR2
 40
0.0
  9
$USERR3
 40
0.0
  9
$USERR4
 40
0.0
  9
$USERR5
 40
0.0
  9
$WORLDVIEW
 70
     1
  9
$SHADEDGE
 70
     3
  9
$SHADEDIF
 70
    70
  9
$TILEMODE
 70
     1
  9
$MAXACTVP
 70
    64
  9
$PINSBASE
 10
0.0
 20
0.0
 30
0.0
  9
$PLIMCHECK
 70
     0
  9
$PEXTMIN
 10
1.0000000000E+20
 20
1.0000000000E+20
 30
1.0000000000E+20
  9
$PEXTMAX
 10
-1.0000000000E+20
 20
-1.0000000000E+20
 30
-1.0000000000E+20
  9
$PLIMMIN
 10
0.0
 20
0.0
  9
$PLIMMAX
 10
420.0
 20
297.0
  9
$UNITMODE
 70
     0
  9
$VISRETAIN
 70
     1
  9
$PLINEGEN
 70
     0
  9
$PSLTSCALE
 70
     1
  9
$TREEDEPTH
 70
  3020
  9
$CMLSTYLE
  2
Standard
  9
$CMLJUST
 70
     0
  9
$CMLSCALE
 40
20.0
  9
$PROXYGRAPHICS
 70
     1
  9
$MEASUREMENT
 70
     1
  9
$CELWEIGHT
370
    -1
  9
$ENDCAPS
280
     0
  9
$JOINSTYLE
280
     0
  9
$LWDISPLAY
290
     1
  9
$INSUNITS
 70
     4
  9
$HYPERLINKBASE
  1

  9
$STYLESHEET
  1

  9
$XEDIT
290
     1
  9
$CEPSNTYPE
380
     0
  9
$PSTYLEMODE
290
     1
  9
$FINGERPRINTGUID
  2
{445115C2-FC65-44D1-8F30-01AE5E07FF92}
  9
$VERSIONGUID
  2
{FAEB1C32-E019-11D5-929B-00C0DF256EC4}
  9
$EXTNAMES
290
     1
  9
$PSVPSCALE
 40
0.0
  9
$OLESTARTUP
290
     0
  0
ENDSEC
  0
SECTION
  2
CLASSES
  0
CLASS
  1
ACDBDICTIONARYWDFLT
  2
AcDbDictionaryWithDefault
  3
ObjectDBX Classes
 90
        0
280
     0
281
     0
  0
CLASS
  1
VISUALSTYLE
  2
AcDbVisualStyle
  3
ObjectDBX Classes
 90
     4095
280
     0
281
     0
  0
CLASS
  1
MATERIAL
  2
AcDbMaterial
  3
ObjectDBX Classes
 90
     1153
280
     0
281
     0
  0
CLASS
  1
ACDBPLACEHOLDER
  2
AcDbPlaceHolder
  3
ObjectDBX Classes
 90
        0
280
     0
281
     0
  0
CLASS
  1
LAYOUT
  2
AcDbLayout
  3
ObjectDBX Classes
 90
        0
280
     0
281
     0
  0
ENDSEC
  0
SECTION
  2
TABLES
  0
TABLE
  2
VPORT
  5
8
330
0
100
AcDbSymbolTable
 70
     1
  0
VPORT
  5
29
330
8
100
AcDbSymbolTableRecord
100
AcDbViewportTableRecord
  2
*Active
 70
     0
 10
0.0
 20
0.0
 11
1.0
 21
1.0
 12
420.5
 22
297.0
 13
0.0
 23
0.0
 14
10.0
 24
10.0
 15
10.0
 25
10.0
 16
0.0
 26
0.0
 36
1.0
 17
0.0
 27
0.0
 37
0.0
 40
594.0
 41
1.4158249158
 42
50.0
 43
0.0
 44
0.0
 50
0.0
 51
0.0
 71
     0
 72
  2000
 73
     1
 74
     3
 75
     0
 76
     0
 77
     0
 78
     0
281
     0
 65
     1
110
0.0
120
0.0
130
0.0
111
1.0
121
0.0
131
0.0
112
0.0
122
1.0
132
0.0
 79
     0
146
0.0
  0
ENDTAB
  0
TABLE
  2
LTYPE
  5
5
330
0
100
AcDbSymbolTable
 70
     6
  0
LTYPE
  5
14
330
5
100
AcDbSymbolTableRecord
100
AcDbLinetypeTableRecord
  2
ByBlock
 70
     0
  3

 72
    65
 73
     0
 40
0.0
  0
LTYPE
  5
15
330
5
100
AcDbSymbolTableRecord
100
AcDbLinetypeTableRecord
  2
ByLayer
 70
     0
  3

 72
    65
 73
     0
 40
0.0
  0
LTYPE
  5
16
330
5
100
AcDbSymbolTableRecord
100
AcDbLinetypeTableRecord
  2
Continuous
 70
     0
  3
Solid line
 72
    65
 73
     0
 40
0.0
  0
LTYPE
  5
3F
330
5
100
AcDbSymbolTableRecord
100
AcDbLinetypeTableRecord
  2
HIDDEN
 70
     0
  3
Hidden __ __ __ __ __ __ __ __ __ __ __ __ __ __
 72
    65
 73
     2
 40
1.905
 49
1.27
 74
     0
 49
-0.635
 74
     0
  0
LTYPE
  5
40
330
5
100
AcDbSymbolTableRecord
100
AcDbLinetypeTableRecord
  2
PHANTOM
 70
     0
  3
Phantom ______  __  __  ______  __  __  ______
 72
    65
 73
     6
 40
12.7
 49
6.35
 74
     0
 49
-1.27
 74
     0
 49
1.27
 74
     0
 49
-1.27
 74
     0
 49
1.27
 74
     0
 49
-1.27
 74
     0
  0
LTYPE
  5
41
330
5
100
AcDbSymbolTableRecord
100
AcDbLinetypeTableRecord
  2
CENTER
 70
     0
  3
Center ____ _ ____ _ ____ _ ____ _ ____ _ ____
 72
    65
 73
     4
 40
10.16
 49
6.35
 74
     0
 49
-1.27
 74
     0
 49
1.27
 74
     0
 49
-1.27
 74
     0
  0
LTYPE
  5
42
330
5
100
AcDbSymbolTableRecord
100
AcDbLinetypeTableRecord
  2
CENTERX2
 70
     0
  3
Center (2x) ________  __  ________  __  _____
 72
    65
 73
     4
 40
20.32
 49
12.7
 74
     0
 49
-2.54
 74
     0
 49
2.54
 74
     0
 49
-2.54
 74
     0
  0
LTYPE
  5
43
330
5
100
AcDbSymbolTableRecord
100
AcDbLinetypeTableRecord
  2
DOT2
 70
     0
  3
Dot (.5x) ........................................
 72
    65
 73
     2
 40
0.635
 49
0.0
 74
     0
 49
-0.635
 74
     0
  0
ENDTAB
  0
TABLE
  2
LAYER
  5
2
330
0
100
AcDbSymbolTable
 70
     4
  0
LAYER
  5
10
330
2
100
AcDbSymbolTableRecord
100
AcDbLayerTableRecord
  2
0
 70
     0
 62
     7
  6
Continuous
370
    -3
390
F
  0
LAYER
  5
44
330
2
100
AcDbSymbolTableRecord
100
AcDbLayerTableRecord
  2
FORMAT
 70
     0
 62
     7
  6
Continuous
370
    -3
390
F
  0
LAYER
  5
45
330
2
100
AcDbSymbolTableRecord
100
AcDbLayerTableRecord
  2
SLD-0
 70
     0
 62
     1
  6
Continuous
370
    -3
390
F
  0
LAYER
  5
46
330
2
100
AcDbSymbolTableRecord
100
AcDbLayerTableRecord
  2
WATERMARK
 70
     0
 62
     1
  6
Continuous
370
    -3
390
F
  0
ENDTAB
  0
TABLE
  2
STYLE
  5
3
330
0
100
AcDbSymbolTable
 70
     1
  0
STYLE
  5
11
330
3
100
AcDbSymbolTableRecord
100
AcDbTextStyleTableRecord
  2
Standard
 70
     0
 40
0.0
 41
1.0
 50
0.0
 71
     0
 42
3.5
  3
txt
  4

  0
ENDTAB
  0
TABLE
  2
VIEW
  5
6
330
0
100
AcDbSymbolTable
 70
     0
  0
ENDTAB
  0
TABLE
  2
UCS
  5
7
330
0
100
AcDbSymbolTable
 70
     0
  0
ENDTAB
  0
TABLE
  2
APPID
  5
9
330
0
100
AcDbSymbolTable
 70
     1
  0
APPID
  5
12
330
9
100
AcDbSymbolTableRecord
100
AcDbRegAppTableRecord
  2
ACAD
 70
     0
  0
ENDTAB
  0
TABLE
  2
DIMSTYLE
  5
A
330
0
100
AcDbSymbolTable
 70
     1
100
AcDbDimStyleTable
  0
DIMSTYLE
105
27
330
A
100
AcDbSymbolTableRecord
100
AcDbDimStyleTableRecord
  2
ISO-25
 70
     0
 41
2.5
 42
0.625
 43
3.75
 44
1.25
 73
     0
 74
     0
 77
     1
 78
     8
140
2.5
141
2.5
143
0.0393700787
147
0.625
171
     3
172
     1
178
     0
271
     2
272
     2
274
     3
278
    44
283
     0
284
     8
340
11
  0
ENDTAB
  0
TABLE
  2
BLOCK_RECORD
  5
1
330
0
100
AcDbSymbolTable
 70
     1
  0
BLOCK_RECORD
  5
1F
330
1
100
AcDbSymbolTableRecord
100
AcDbBlockTableRecord
  2
*Model_Space
340
22
  0
BLOCK_RECORD
  5
1B
330
1
100
AcDbSymbolTableRecord
100
AcDbBlockTableRecord
  2
*Paper_Space
340
1E
  0
BLOCK_RECORD
  5
23
330
1
100
AcDbSymbolTableRecord
100
AcDbBlockTableRecord
  2
*Paper_Space0
340
26
  0
ENDTAB
  0
ENDSEC
  0
SECTION
  2
BLOCKS
  0
BLOCK
  5
20
330
1F
100
AcDbEntity
  8
0
100
AcDbBlockBegin
  2
*Model_Space
 70
     0
 10
0.0
 20
0.0
 30
0.0
  3
*Model_Space
  1

  0
ENDBLK
  5
21
330
1F
100
AcDbEntity
  8
0
100
AcDbBlockEnd
  0
BLOCK
  5
1C
330
1B
100
AcDbEntity
 67
     1
  8
0
100
AcDbBlockBegin
  2
*Paper_Space
 70
     0
 10
0.0
 20
0.0
 30
0.0
  3
*Paper_Space
  1

  0
ENDBLK
  5
1D
330
1B
100
AcDbEntity
 67
     1
  8
0
100
AcDbBlockEnd
  0
BLOCK
  5
24
330
23
100
AcDbEntity
  8
0
100
AcDbBlockBegin
  2
*Paper_Space0
 70
     0
 10
0.0
 20
0.0
 30
0.0
  3
*Paper_Space0
  1

  0
ENDBLK
  5
25
330
23
100
AcDbEntity
  8
0
100
AcDbBlockEnd
  0
ENDSEC
  0
SECTION
  2
ENTITIES
  0
LWPOLYLINE
  5
47
330
1F
100
AcDbEntity
  8
0
  6
Continuous
 62
     7
100
AcDbPolyline
 90
       17
 70
   128
 43
0.0
 10
495.3686288366
 20
368.1155656653
 10
494.8145883189
 20
369.0500773398
 10
493.9081292571
 20
369.7212962441
 10
492.7872518263
 20
370.0270353845
 10
491.6225994546
 20
369.9207487485
 10
490.5914799079
 20
369.418617513
 10
489.8508717902
 20
368.5970866066
 10
489.5135259736
 20
367.5812266628
 10
489.6308003008
 20
366.5256931491
 10
490.1848408186
 20
365.5911814746
 10
491.0912998804
 20
364.9199625703
 10
492.2121773112
 20
364.6142234299
 10
493.3768296829
 20
364.7205100659
 10
494.4079492296
 20
365.2226413014
 10
495.1485573473
 20
366.0441722078
 10
495.4859031638
 20
367.0600321516
 10
495.3686288366
 20
368.1155656653
  0
LWPOLYLINE
  5
48
330
1F
100
AcDbEntity
  8
0
  6
CENTERX2
 62
     7
100
AcDbPolyline
 90
       17
 70
   128
 43
0.0
 10
494.8904764586
 20
277.5395436612
 10
494.4287760272
 20
276.7607839325
 10
493.6733934757
 20
276.2014348456
 10
492.73932895
 20
275.9466522286
 10
491.7687853069
 20
276.0352244252
 10
490.909519018
 20
276.4536671215
 10
490.2923455866
 20
277.1382762101
 10
490.0112240728
 20
277.9848261633
 10
490.1089526788
 20
278.8644374247
 10
490.5706531103
 20
279.6431971535
 10
491.3260356618
 20
280.2025462404
 10
492.2601001874
 20
280.4573288574
 10
493.2306438305
 20
280.3687566608
 10
494.0899101194
 20
279.9503139645
 10
494.7070835509
 20
279.2657048758
 10
494.9882050647
 20
278.4191549226
 10
494.8904764586
 20
277.5395436612
  0
LWPOLYLINE
  5
49
330
1F
100
AcDbEntity
  8
0
  6
CENTERX2
 62
     7
100
AcDbPolyline
 90
       17
 70
   128
 43
0.0
 10
494.8904764586
 20
366.3577067908
 10
494.4287760272
 20
365.5789470621
 10
493.6733934757
 20
365.0195979752
 10
492.73932895
 20
364.7648153582
 10
491.7687853069
 20
364.8533875548
 10
490.909519018
 20
365.2718302511
 10
490.2923455866
 20
365.9564393397
 10
490.0112240728
 20
366.8029892929
 10
490.1089526788
 20
367.6826005543
 10
490.5706531103
 20
368.4613602831
 10
491.3260356618
 20
369.02070937
 10
492.2601001874
 20
369.275491987
 10
493.2306438305
 20
369.1869197903
 10
494.0899101194
 20
368.7684770941
 10
494.7070835509
 20
368.0838680054
 10
494.9882050647
 20
367.2373180522
 10
494.8904764586
 20
366.3577067908
  0
LINE
  5
4A
330
1F
100
AcDbEntity
  8
0
  6
Continuous
 62
     7
370
    15
100
AcDbLine
 10
426.9997155498
 20
341.903214375
 30
0.0
 11
426.9997155498
 21
332.901437799
 31
0.0
  0
LINE
  5
4B
330
1F
100
AcDbEntity
  8
0
  6
Continuous
 62
     7
370
    15
100
AcDbLine
 10
453.9997143875
 20
332.901437799
 30
0.0
 11
453.9997143875
 21
341.903214375
 31
0.0
  0
LINE
  5
4C
330
1F
100
AcDbEntity
  8
0
  6
Continuous
 62
     7
370
    15
100
AcDbLine
 10
400.559714457
 20
317.198877255
 30
0.0
 11
210.5597121845
 21
317.198877255
 31
0.0
  0
ARC
  5
4D
330
1F
100
AcDbEntity
  8
0
  6
Continuous
 62
     7
370
    15
100
AcDbCircle
 10
559.0597145687
 20
115.8600948253
 30
0.0
 40
2.0
100
AcDbArc
 50
270.0
 51
0.0
  0
ARC
  5
4E
330
1F
100
AcDbEntity
  8
0
  6
Continuous
 62
     7
370
    15
100
AcDbCircle
 10
506.0597145687
 20
115.8600948253
 30
0.0
 40
2.0
100
AcDbArc
 50
180.0
 51
270.0
  0
LINE
  5
4F
330
1F
100
AcDbEntity
  8
0
  6
Continuous
 62
     7
370
    15
100
AcDbLine
 10
561.0597146879
 20
115.8600943484
 30
0.0
 11
561.0597146879
 21
119.8600950041
 31
0.0
  0
LINE
  5
50
330
1F
100
AcDbEntity
  8
0
  6
Continuous
 62
     7
370
    15
100
AcDbLine
 10
504.0597109328
 20
119.8600950041
 30
0.0
 11
504.0597109328
 21
115.8600943484
 31
0.0
  0
ARC
  5
51
330
1F
100
AcDbEntity
  8
0
  6
Continuous
 62
     7
370
    15
100
AcDbCircle
 10
285.0597145687
 20
115.8600948253
 30
0.0
 40
2.0
100
AcDbArc
 50
270.0
 51
0.0
  0
ARC
  5
52
330
1F
100
AcDbEntity
  8
0
  6
Continuous
 62
     7
370
    15
100
AcDbCircle
 10
232.0597145687
 20
115.8600948253
 30
0.0
 40
2.0
100
AcDbArc
 50
180.0
 51
270.0
  0
LINE
  5
53
330
1F
100
AcDbEntity
  8
0
  6
Continuous
 62
     7
370
    15
100
AcDbLine
 10
287.0597182046
 20
115.8600943484
 30
0.0
 11
287.0597182046
 21
119.8600950041
 31
0.0
  0
LINE
  5
54
330
1F
100
AcDbEntity
  8
0
  6
Continuous
 62
     7
370
    15
100
AcDbLine
 10
230.0597144495
 20
119.8600950041
 30
0.0
 11
230.0597144495
 21
115.8600943484
 31
0.0
  0
LINE
  5
55
330
1F
100
AcDbEntity
  8
0
  6
Continuous
 62
     7
370
    15
100
AcDbLine
 10
286.8597148191
 20
119.8600950041
 30
0.0
 11
286.8597148191
 21
148.8600941696
 31
0.0
  0
LINE
  5
56
330
1F
100
AcDbEntity
  8
0
  6
Continuous
 62
     7
370
    15
100
AcDbLine
 10
230.2597178351
 20
148.8600941696
 30
0.0
 11
230.2597178351
 21
119.8600950041
 31
0.0
  0
LINE
  5
57
330
1F
100
AcDbEntity
  8
0
  6
Continuous
 62
     7
370
    15
100
AcDbLine
 10
560.8597113024
 20
119.8600950041
 30
0.0
 11
560.8597113024
 21
148.8600941696
 31
0.0
  0
LINE
  5
58
330
1F
100
AcDbEntity
  8
0
  6
Continuous
 62
     7
370
    15
100
AcDbLine
 10
504.2597143184
 20
148.8600941696
 30
0.0
 11
504.2597143184
 21
119.8600950041
 31
0.0
  0
ARC
  5
59
330
1F
100
AcDbEntity
  8
0
  6
Continuous
 62
     7
370
    15
100
AcDbCircle
 10
565.9597145687
 20
210.3600948253
 30
0.0
 40
1.5
100
AcDbArc
 50
90.0
 51
180.0
  0
ARC
  5
5A
330
1F
100
AcDbEntity
  8
0
  6
Continuous
 62
     7
370
    15
100
AcDbCircle
 10
499.1597145687
 20
210.3600948253
 30
0.0
 40
1.500000000000057
100
AcDbArc
 50
0.0
 51
90.0
  0
LINE
  5
5B
330
1F
100
AcDbEntity
  8
0
  6
Continuous
 62
     7
370
    15
100
AcDbLine
 10
564.4597126375
 20
154.8926616409
 30
0.0
 11
564.4597126375
 21
210.360094937
 31
0.0
  0
LINE
  5
5C
330
1F
100
AcDbEntity
  8
0
  6
Continuous
 62
     7
370
    15
100
AcDbLine
 10
500.6597129832
 20
210.360094937
 30
0.0
 11
500.6597129832
 21
154.8926616409
 31
0.0
  0
ARC
  5
5D
330
1F
100
AcDbEntity
  8
0
  6
Continuous
 62
     7
370
    15
100
AcDbCircle
 10
559.7597145687
 20
154.8926607709
 30
0.0
 40
4.700000000000117
100
AcDbArc
 50
350.5402980318
 51
0.0
  0
ARC
  5
5E
330
1F
100
AcDbEntity
  8
0
  6
Continuous
 62
     7
370
    15
100
AcDbCircle
 10
505.3597145687
 20
154.8926607709
 30
0.0
 40
4.69999999999995
100
AcDbArc
 50
180.0
 51
189.4597019682
  0
LINE
  5
5F
330
1F
100
AcDbEntity
  8
0
  6
Continuous
 62
     7
370
    15
100
AcDbLine
 10
500.7236315142
 20
154.1201966205
 30
0.0
 11
501.6000656615
 21
148.8600941696
 31
0.0
  0
LINE
  5
60
330
1F
100
AcDbEntity
  8
0
  6
Continuous
 62
     7
370
    15
100
AcDbLine
 10
563.5193599592
 20
148.8600941696
 30
0.0
 11
564.3958015572
 21
154.1201966205
 31
0.0
  0
ARC
  5
61
330
1F
100
AcDbEntity
  8
0
  6
Continuous
 62
     7
370
    15
100
AcDbCircle
 10
291.9597145687
 20
210.3600948253
 30
0.0
 40
1.5
100
AcDbArc
 50
90.0
 51
180.0
  0
ARC
  5
62
330
1F
100
AcDbEntity
  8
0
  6
Continuous
 62
     7
370
    15
100
AcDbCircle
 10
225.1597145687
 20
210.3600948253
 30
0.0
 40
1.5
100
AcDbArc
 50
0.0
 51
90.0
  0
ARC
  5
63
330
1F
100
AcDbEntity
  8
0
  6
Continuous
 62
     7
370
    15
100
AcDbCircle
 10
285.7597145687
 20
154.8926607709
 30
0.0
 40
4.700000000000061
100
AcDbArc
 50
350.5402980318
 51
0.0
  0
ARC
  5
64
330
1F
100
AcDbEntity
  8
0
  6
Continuous
 62
     7
370
    15
100
AcDbCircle
 10
231.3597145687
 20
154.8926607709
 30
0.0
 40
4.699999999999977
100
AcDbArc
 50
180.0
 51
189.4597019682
  0
LINE
  5
65
330
1F
100
AcDbEntity
  8
0
  6
Continuous
 62
     7
370
    15
100
AcDbLine
 10
290.4597161542
 20
154.8926616409
 30
0.0
 11
290.4597161542
 21
210.360094937
 31
0.0
  0
LINE
  5
66
330
1F
100
AcDbEntity
  8
0
  6
Continuous
 62
     7
370
    15
100
AcDbLine
 10
226.6597164999
 20
210.360094937
 30
0.0
 11
226.6597164999
 21
154.8926616409
 31
0.0
  0
LINE
  5
67
330
1F
100
AcDbEntity
  8
0
  6
Continuous
 62
     7
370
    15
100
AcDbLine
 10
226.7236275803
 20
154.1201966205
 30
0.0
 11
227.6000691782
 21
148.8600941696
 31
0.0
  0
LINE
  5
68
330
1F
100
AcDbEntity
  8
0
  6
Continuous
 62
     7
370
    15
100
AcDbLine
 10
289.5193634759
 20
148.8600941696
 30
0.0
 11
290.3957976233
 21
154.1201966205
 31
0.0
  0
ARC
  5
69
330
1F
100
AcDbEntity
  8
0
  6
Continuous
 62
     7
370
    15
100
AcDbCircle
 10
215.5595771235
 20
500.7922028956
 30
0.0
 40
4.967787601702663
100
AcDbArc
 50
182.9350565889
 51
194.1754148978
  0
ARC
  5
6A
330
1F
100
AcDbEntity
  8
0
  6
Continuous
 62
     7
370
    15
100
AcDbCircle
 10
575.5581312361
 20
500.7923978191
 30
0.0
 40
4.969516104222306
100
AcDbArc
 50
345.8042641774
 51
357.0637148664
  0
LINE
  5
6B
330
1F
100
AcDbEntity
  8
0
  6
Continuous
 62
     7
370
    15
100
AcDbLine
 10
211.2508131396
 20
497.5421326556
 30
0.0
 11
210.7411189209
 21
499.5864229598
 31
0.0
  0
LINE
  5
6C
330
1F
100
AcDbEntity
  8
0
  6
Continuous
 62
     7
370
    15
100
AcDbLine
 10
580.3778035771
 20
499.5843665995
 30
0.0
 11
579.8686159979
 21
497.5421326556
 31
0.0
  0
LINE
  5
6D
330
1F
100
AcDbEntity
  8
0
  6
Continuous
 62
     7
370
    15
100
AcDbLine
 10
587.8988666664
 20
529.7315018573
 30
0.0
 11
583.4726406466
 21
529.7315018573
 31
0.0
  0
ARC
  5
6E
330
1F
100
AcDbEntity
  8
0
  6
Continuous
 62
     7
370
    15
100
AcDbCircle
 10
207.646795725
 20
527.7315065982
 30
0.0
 40
2.0
100
AcDbArc
 50
2.0
 51
90.0
  0
ARC
  5
6F
330
1F
100
AcDbEntity
  8
0
  6
Continuous
 62
     7
370
    15
100
AcDbCircle
 10
312.646795725
 20
527.7315065982
 30
0.0
 40
2.0
100
AcDbArc
 50
2.0
 51
90.0
  0
ARC
  5
70
330
1F
100
AcDbEntity
  8
0
  6
Continuous
 62
     7
370
    15
100
AcDbCircle
 10
482.646795725
 20
527.7315065982
 30
0.0
 40
2.0
100
AcDbArc
 50
2.0
 51
90.0
  0
ARC
  5
71
330
1F
100
AcDbEntity
  8
0
  6
Continuous
 62
     7
370
    15
100
AcDbCircle
 10
397.646795725
 20
527.7315065982
 30
0.0
 40
2.000000000000035
100
AcDbArc
 50
2.0
 51
90.0
  0
ARC
  5
72
330
1F
100
AcDbEntity
  8
0
  6
Continuous
 62
     7
370
    15
100
AcDbCircle
 10
203.2205646138
 20
527.7315065982
 30
0.0
 40
2.000000000000002
100
AcDbArc
 50
90.0
 51
175.0
  0
LINE
  5
73
330
1F
100
AcDbEntity
  8
0
  6
Continuous
 62
     7
370
    15
100
AcDbLine
 10
312.6467926632
 20
529.7315018573
 30
0.0
 11
308.4726346861
 21
529.7315018573
 31
0.0
  0
ARC
  5
74
330
1F
100
AcDbEntity
  8
0
  6
Continuous
 62
     7
370
    15
100
AcDbCircle
 10
308.472633409
 20
527.7315065982
 30
0.0
 40
2.000000000000035
100
AcDbArc
 50
90.0
 51
178.0
  0
ARC
  5
75
330
1F
100
AcDbEntity
  8
0
  6
Continuous
 62
     7
370
    15
100
AcDbCircle
 10
393.472633409
 20
527.7315065982
 30
0.0
 40
2.000000000000035
100
AcDbArc
 50
90.0
 51
178.0
  0
LINE
  5
76
330
1F
100
AcDbEntity
  8
0
  6
Continuous
 62
     7
370
    15
100
AcDbLine
 10
397.6467956528
 20
529.7315018573
 30
0.0
 11
393.4726334847
 21
529.7315018573
 31
0.0
  0
ARC
  5
77
330
1F
100
AcDbEntity
  8
0
  6
Continuous
 62
     7
370
    15
100
AcDbCircle
 10
587.8988645202
 20
527.7315065982
 30
0.0
 40
2.00000000000002
100
AcDbArc
 50
5.0
 51
90.0
  0
ARC
  5
78
330
1F
100
AcDbEntity
  8
0
  6
Continuous
 62
     7
370
    15
100
AcDbCircle
 10
583.472633409
 20
527.7315065982
 30
0.0
 40
2.000000000000035
100
AcDbArc
 50
90.0
 51
178.0
  0
ARC
  5
79
330
1F
100
AcDbEntity
  8
0
  6
Continuous
 62
     7
370
    15
100
AcDbCircle
 10
478.472633409
 20
527.7315065982
 30
0.0
 40
2.0
100
AcDbArc
 50
90.0
 51
178.0
  0
LINE
  5
7A
330
1F
100
AcDbEntity
  8
0
  6
Continuous
 62
     7
370
    15
100
AcDbLine
 10
482.6467944514
 20
529.7315018573
 30
0.0
 11
478.4726364742
 21
529.7315018573
 31
0.0
  0
LINE
  5
7B
330
1F
100
AcDbEntity
  8
0
  6
Continuous
 62
     7
370
    15
100
AcDbLine
 10
207.6467884909
 20
529.7315018573
 30
0.0
 11
203.220562471
 21
529.7315018573
 31
0.0
  0
LINE
  5
7C
330
1F
100
AcDbEntity
  8
0
  6
Continuous
 62
     7
370
    15
100
AcDbLine
 10
456.398343129
 20
332.3975848355
 30
0.0
 11
455.9022611212
 21
336.3726632991
 31
0.0
  0
LINE
  5
7D
330
1F
100
AcDbEntity
  8
0
  6
Continuous
 62
     7
370
    15
100
AcDbLine
 10
425.0971688162
 20
336.3726632991
 30
0.0
 11
424.9601656775
 21
335.2748649516
 31
0.0
  0
SPLINE
  5
7E
330
1F
100
AcDbEntity
  8
0
  6
Continuous
 62
     7
370
    15
100
AcDbSpline
210
0.0
220
0.0
230
1.0
 70
     8
 71
     3
 72
    19
 73
    15
 74
     0
 42
0.00000001
 43
0.00000001
 12
1.0
 22
0.0
 32
0.0
 13
1.0
 23
0.0
 33
0.0
 40
0.0
 40
0.0
 40
0.0
 40
0.0
 40
0.047456017520556
 40
0.1348791702912638
 40
0.2223549401594866
 40
0.3098555145629414
 40
0.3973676599250047
 40
0.484879260092858
 40
0.5723772078429844
 40
0.6598456108008764
 40
0.7472664812755513
 40
0.834619300514664
 40
0.9218827540808828
 40
1.0
 40
1.0
 40
1.0
 40
1.0
 10
446.7054432462421
 20
354.0164726176159
 30
0.0
 10
446.2112676925287
 20
354.1240643502931
 30
0.0
 10
444.8067252942076
 20
354.4298608412735
 30
0.0
 10
442.440900108408
 20
354.7125070982892
 30
0.0
 10
439.6290819563791
 20
354.7709466974885
 30
0.0
 10
436.8260797510465
 20
354.5351891487896
 30
0.0
 10
434.0695127836831
 20
354.0127908628248
 30
0.0
 10
431.3943354500544
 20
353.208885467459
 30
0.0
 10
428.8348947947198
 20
352.1338493250581
 30
0.0
 10
426.4247396088199
 20
350.8008427679984
 30
0.0
 10
424.192788091065
 20
349.2280577267912
 30
0.0
 10
422.1764728448828
 20
347.4309840903669
 30
0.0
 10
420.4325268769355
 20
345.5188703457418
 30
0.0
 10
419.5009165992595
 20
344.1323012901327
 30
0.0
 10
419.060872329351
 20
343.4773581423657
 30
0.0
  0
ARC
  5
7F
330
1F
100
AcDbEntity
  8
0
  6
Continuous
 62
     7
370
    15
100
AcDbCircle
 10
446.2467494126
 20
312.001607013
 30
0.0
 40
2.000000000000036
100
AcDbArc
 50
8.6092552453
 51
21.8802326724
  0
LINE
  5
80
330
1F
100
AcDbEntity
  8
0
  6
Continuous
 62
     7
370
    15
100
AcDbLine
 10
448.1026804279
 20
312.7469392815
 30
0.0
 11
446.3878734242
 21
317.016911725
 31
0.0
  0
LINE
  5
81
330
1F
100
AcDbEntity
  8
0
  6
Continuous
 62
     7
370
    15
100
AcDbLine
 10
446.410687102
 20
317.0187669196
 30
0.0
 11
446.3385915588
 21
317.2681453028
 31
0.0
  0
LINE
  5
82
330
1F
100
AcDbEntity
  8
0
  6
Continuous
 62
     7
370
    15
100
AcDbLine
 10
415.8197859507
 20
334.6098335781
 30
0.0
 11
415.6581064891
 21
333.3143117227
 31
0.0
  0
LINE
  5
83
330
1F
100
AcDbEntity
  8
0
  6
Continuous
 62
     7
370
    15
100
AcDbLine
 10
448.4346186947
 20
310.8901875415
 30
0.0
 11
448.2210738789
 21
312.3086812296
 31
0.0
  0
ARC
  5
84
330
1F
100
AcDbEntity
  8
0
  6
Continuous
 62
     7
370
    15
100
AcDbCircle
 10
446.2467494126
 20
352.0697869396
 30
0.0
 40
2.000000000000039
100
AcDbArc
 50
10.0320395398
 51
76.7413921378
  0
LINE
  5
85
330
1F
100
AcDbEntity
  8
0
  6
Continuous
 62
     7
370
    15
100
AcDbLine
 10
448.4280696343
 20
351.1785017648
 30
0.0
 11
448.2130123507
 21
352.4102019467
 31
0.0
  0
LINE
  5
86
330
1F
100
AcDbEntity
  8
0
  6
Continuous
 62
     7
370
    15
100
AcDbLine
 10
500.4424466025
 20
376.5283124843
 30
0.0
 11
484.556989206
 21
376.5283124843
 31
0.0
  0
SPLINE
  5
87
330
1F
100
AcDbEntity
  8
0
  6
Continuous
 62
     7
370
    15
100
AcDbSpline
210
0.0
220
0.0
230
1.0
 70
     8
 71
     3
 72
    16
 73
    12
 74
     0
 42
0.00000001
 43
0.00000001
 12
1.0
 22
0.0
 32
0.0
 13
1.0
 23
0.0
 33
0.0
 40
0.0
 40
0.0
 40
0.0
 40
0.0
 40
0.0759622866736149
 40
0.2259498976184561
 40
0.2312117610096069
 40
0.23763916569102
 40
0.3730656073170237
 40
0.5347894444070685
 40
0.721007459926375
 40
0.9273013691926035
 40
1.0
 40
1.0
 40
1.0
 40
1.0
 10
502.4694590102401
 20
374.6466981568234
 30
0.0
 10
502.4630637456215
 20
374.6854141868446
 30
0.0
 10
502.4440410246225
 20
374.8005750568313
 30
0.0
 10
502.4247826421296
 20
374.89877931377
 30
0.0
 10
502.3868451934933
 20
375.0366952415295
 30
0.0
 10
502.3451660775542
 20
375.1829785874299
 30
0.0
 10
502.2213012917147
 20
375.4977024570582
 30
0.0
 10
501.8912192620762
 20
375.9565325355504
 30
0.0
 10
501.3722228480011
 20
376.3345113745029
 30
0.0
 10
500.847349527457
 20
376.5385968265435
 30
0.0
 10
500.5251813131162
 20
376.5069147480731
 30
0.0
 10
500.4412321578231
 20
376.4986591734784
 30
0.0
  0
LINE
  5
88
330
1F
100
AcDbEntity
  8
0
  6
Continuous
 62
     7
370
    15
100
AcDbLine
 10
502.4736089836
 20
374.622036735
 30
0.0
 11
502.4694590102
 21
374.6466981568
 31
0.0
  0
SPLINE
  5
89
330
1F
100
AcDbEntity
  8
0
  6
Continuous
 62
     7
370
    15
100
AcDbSpline
210
0.0
220
0.0
230
1.0
 70
     8
 71
     3
 72
    18
 73
    14
 74
     0
 42
0.00000001
 43
0.00000001
 12
1.0
 22
0.0
 32
0.0
 13
1.0
 23
0.0
 33
0.0
 40
0.0
 40
0.0
 40
0.0
 40
0.0
 40
0.0656160735875478
 40
0.2662924973326669
 40
0.4265293461367782
 40
0.5621603966398462
 40
0.6778451221551622
 40
0.7409137002173264
 40
0.7567992185195904
 40
0.7625263531210325
 40
0.7669491291447217
 40
0.9247819322262012
 40
0.9999999999999999
 40
0.9999999999999999
 40
0.9999999999999999
 40
0.9999999999999999
 10
484.5585165749755
 20
376.4998363652127
 30
0.0
 10
484.4815275582555
 20
376.5080883819303
 30
0.0
 10
484.1690797629415
 20
376.541577891735
 30
0.0
 10
483.6774417985589
 20
376.3548948283984
 30
0.0
 10
483.194226717269
 20
376.0274681387512
 30
0.0
 10
482.8808816757659
 20
375.6553820450161
 30
0.0
 10
482.7103392799104
 20
375.3304790139705
 30
0.0
 10
482.6399696488701
 20
375.1312027091867
 30
0.0
 10
482.6147713052017
 20
375.0446364643669
 30
0.0
 10
482.6083329493592
 20
375.0212679185344
 30
0.0
 10
482.5789951880578
 20
374.9127975459404
 30
0.0
 10
482.5494192491294
 20
374.7752523374455
 30
0.0
 10
482.532276223773
 20
374.6596018081754
 30
0.0
 10
482.5267432461944
 20
374.6222751536267
 30
0.0
  0
LINE
  5
8A
330
1F
100
AcDbEntity
  8
0
  6
Continuous
 62
     7
370
    15
100
AcDbLine
 10
482.5154258143
 20
374.4986700215
 30
0.0
 11
482.5123859774
 21
374.4743364253
 31
0.0
  0
LINE
  5
8B
330
1F
100
AcDbEntity
  8
0
  6
Continuous
 62
     7
370
    15
100
AcDbLine
 10
502.4870423804
 20
374.4743364253
 30
0.0
 11
502.4840323459
 21
374.4984763064
 31
0.0
  0
ARC
  5
8C
330
1F
100
AcDbEntity
  8
0
  6
Continuous
 62
     7
370
    15
100
AcDbCircle
 10
503.1054340812
 20
335.2142224083
 30
0.0
 40
1.000000000000117
100
AcDbArc
 50
9.1094880967
 51
15.7180532551
  0
ARC
  5
8D
330
1F
100
AcDbEntity
  8
0
  6
Continuous
 62
     7
370
    15
100
AcDbCircle
 10
481.835864631
 20
335.2502126857
 30
0.0
 40
1.000000000000032
100
AcDbArc
 50
164.049023276
 51
170.7722065906
  0
LINE
  5
8E
330
1F
100
AcDbEntity
  8
0
  6
Continuous
 62
     7
370
    15
100
AcDbLine
 10
507.9905031453
 20
363.0109327235
 30
0.0
 11
507.1481181513
 21
363.4683983722
 31
0.0
  0
LINE
  5
8F
330
1F
100
AcDbEntity
  8
0
  6
Continuous
 62
     7
370
    15
100
AcDbLine
 10
477.8513102065
 20
363.4683983722
 30
0.0
 11
475.7953969966
 21
362.3519437709
 31
0.0
  0
SPLINE
  5
90
330
1F
100
AcDbEntity
  8
0
  6
Continuous
 62
     7
370
    15
100
AcDbSpline
210
0.0
220
0.0
230
1.0
 70
     8
 71
     3
 72
     9
 73
     5
 74
     0
 42
0.00000001
 43
0.00000001
 12
1.0
 22
0.0
 32
0.0
 13
1.0
 23
0.0
 33
0.0
 40
0.0
 40
0.0
 40
0.0
 40
0.0
 40
0.4067626667126008
 40
1.0
 40
1.0
 40
1.0
 40
1.0
 10
506.70197738516
 20
322.0693888463871
 30
0.0
 10
506.6812421965543
 20
322.0976146430238
 30
0.0
 10
506.630266061568
 20
322.1670059587627
 30
0.0
 10
506.6149131883695
 20
322.2786266816504
 30
0.0
 10
506.6058052908149
 20
322.344844261636
 30
0.0
  0
SPLINE
  5
91
330
1F
100
AcDbEntity
  8
0
  6
Continuous
 62
     7
370
    15
100
AcDbSpline
210
0.0
220
0.0
230
1.0
 70
     8
 71
     3
 72
     9
 73
     5
 74
     0
 42
0.00000001
 43
0.00000001
 12
1.0
 22
0.0
 32
0.0
 13
1.0
 23
0.0
 33
0.0
 40
0.0
 40
0.0
 40
0.0
 40
0.0
 40
0.3092236094852737
 40
1.0
 40
1.0
 40
1.0
 40
1.0
 10
478.3146543632712
 20
322.3872455158131
 30
0.0
 10
478.3094789739687
 20
322.3540823731711
 30
0.0
 10
478.2927422528912
 20
322.2468358964315
 30
0.0
 10
478.2450627787358
 20
322.1749838526826
 30
0.0
 10
478.212126923677
 20
322.1253501572506
 30
0.0
  0
LINE
  5
92
330
1F
100
AcDbEntity
  8
0
  6
Continuous
 62
     7
370
    15
100
AcDbLine
 10
499.9708844553
 20
366.2380026975
 30
0.0
 11
497.6811273228
 21
366.8017285266
 31
0.0
  0
LINE
  5
93
330
1F
100
AcDbEntity
  8
0
  6
Continuous
 62
     7
370
    15
100
AcDbLine
 10
487.318301035
 20
366.8017285266
 30
0.0
 11
485.0285439025
 21
366.2380026975
 31
0.0
  0
SPLINE
  5
94
330
1F
100
AcDbEntity
  8
0
  6
Continuous
 62
     7
370
    15
100
AcDbSpline
210
0.0
220
0.0
230
1.0
 70
     8
 71
     3
 72
    16
 73
    12
 74
     0
 42
0.00000001
 43
0.00000001
 12
1.0
 22
0.0
 32
0.0
 13
1.0
 23
0.0
 33
0.0
 40
0.0
 40
0.0
 40
0.0
 40
0.0
 40
0.048366112873325
 40
0.0800335977421233
 40
0.0966579881553915
 40
0.117847479227738
 40
0.1785806865684026
 40
0.4274704198683195
 40
0.6483568394525802
 40
0.9395875724678304
 40
1.0
 40
1.0
 40
1.0
 40
1.0
 10
494.0363479982581
 20
366.9277625479596
 30
0.0
 10
494.0363410090077
 20
366.9274621044156
 30
0.0
 10
494.0363294435785
 20
366.9269649468748
 30
0.0
 10
494.0361877055032
 20
366.9183563154727
 30
0.0
 10
494.0356240045852
 20
366.9020545370943
 30
0.0
 10
494.0338401678279
 20
366.8671508190236
 30
0.0
 10
494.0208917611288
 20
366.7362002479719
 30
0.0
 10
493.9623130158396
 20
366.5323057691759
 30
0.0
 10
493.7989425613358
 20
366.2814391700503
 30
0.0
 10
493.6322525622175
 20
366.1125689363014
 30
0.0
 10
493.5009408667191
 20
366.0675617624889
 30
0.0
 10
493.4783814679351
 20
366.0598295130627
 30
0.0
  0
LINE
  5
95
330
1F
100
AcDbEntity
  8
0
  6
Continuous
 62
     7
370
    15
100
AcDbLine
 10
508.5118798743
 20
362.739195148
 30
0.0
 11
507.9952789675
 21
363.0197244086
 31
0.0
  0
LINE
  5
96
330
1F
100
AcDbEntity
  8
0
  6
Continuous
 62
     7
370
    15
100
AcDbLine
 10
508.547948135
 20
362.719600121
 30
0.0
 11
508.5118798743
 21
362.739195148
 31
0.0
  0
ARC
  5
97
330
1F
100
AcDbEntity
  8
0
  6
Continuous
 62
     7
370
    15
100
AcDbCircle
 10
442.8188769235
 20
341.9032106497
 30
0.0
 40
11.17979244775539
100
AcDbArc
 50
337.1002585456
 51
22.8997414544
  0
ARC
  5
98
330
1F
100
AcDbEntity
  8
0
  6
Continuous
 62
     7
370
    15
100
AcDbCircle
 10
440.5250981874
 20
334.7092757789
 30
0.0
 40
14.37672411895135
100
AcDbArc
 50
53.4155640358
 51
137.7212102287
  0
ARC
  5
99
330
1F
100
AcDbEntity
  8
0
  6
Continuous
 62
     7
370
    15
100
AcDbCircle
 10
438.0989098717
 20
341.9032069244
 30
0.0
 40
11.09918243447181
100
AcDbArc
 50
172.1877110635
 51
187.8122889365
  0
LWPOLYLINE
  5
9A
330
1F
100
AcDbEntity
  8
0
  6
Continuous
 62
     7
370
    15
100
AcDbPolyline
 90
       17
 70
   128
 43
0.0
 10
453.1175581943
 20
332.4674563804
 10
452.1516202222
 20
330.6386666694
 10
450.8657058905
 20
328.9795490303
 10
449.2951309513
 20
327.5356861153
 10
447.4830268155
 20
326.3467075624
 10
445.4791559111
 20
325.4452841678
 10
443.3385407757
 20
324.8561518588
 10
441.1199702154
 20
324.5955007472
 10
438.8843639027
 20
324.6704833903
 10
436.6931220721
 20
325.0790434279
 10
434.606408162
 20
325.8099602857
 10
432.6815320383
 20
326.8431620994
 10
430.9713518451
 20
328.1502696075
 10
429.5228285919
 20
329.695400814
 10
428.3757446538
 20
331.4361172118
 10
427.5615973603
 20
333.3246233263
 10
427.1027421783
 20
335.3090482154
  0
LINE
  5
9B
330
1F
100
AcDbEntity
  8
0
  6
Continuous
 62
     7
370
    15
100
AcDbLine
 10
453.1175581943
 20
337.5529321232
 30
0.0
 11
453.1175581943
 21
332.4674563804
 31
0.0
  0
LINE
  5
9C
330
1F
100
AcDbEntity
  8
0
  6
Continuous
 62
     7
370
    15
100
AcDbLine
 10
426.9997155498
 20
332.901437799
 30
0.0
 11
427.1612813901
 21
331.0141908326
 31
0.0
  0
LINE
  5
9D
330
1F
100
AcDbEntity
  8
0
  6
Continuous
 62
     7
370
    15
100
AcDbLine
 10
453.8381485473
 20
331.0141908326
 30
0.0
 11
453.9997143875
 21
332.901437799
 31
0.0
  0
SPLINE
  5
9E
330
1F
100
AcDbEntity
  8
0
  6
Continuous
 62
     7
370
    15
100
AcDbSpline
210
0.0
220
0.0
230
1.0
 70
     8
 71
     3
 72
     9
 73
     5
 74
     0
 42
0.00000001
 43
0.00000001
 12
1.0
 22
0.0
 32
0.0
 13
1.0
 23
0.0
 33
0.0
 40
0.0
 40
0.0
 40
0.0
 40
0.0
 40
0.4957806640845014
 40
1.0
 40
1.0
 40
1.0
 40
1.0
 10
437.2169276903835
 20
333.3775671520131
 30
0.0
 10
435.5776627757754
 20
333.7169454498013
 30
0.0
 10
432.2712310543305
 20
334.4014785959556
 30
0.0
 10
429.0790666504901
 20
334.7812043400644
 30
0.0
 10
427.4695156346526
 20
334.9726694025891
 30
0.0
  0
LINE
  5
9F
330
1F
100
AcDbEntity
  8
0
  6
Continuous
 62
     7
370
    15
100
AcDbLine
 10
427.4695156347
 20
340.0126817026
 30
0.0
 11
437.2169276904
 21
337.6455726423
 31
0.0
  0
ARC
  5
A0
330
1F
100
AcDbEntity
  8
0
  6
Continuous
 62
     7
370
    15
100
AcDbCircle
 10
437.9924519045
 20
340.8453316325
 30
0.0
 40
3.292399641875564
100
AcDbArc
 50
256.3759637391
 51
270.0162594022
  0
ARC
  5
A1
330
1F
100
AcDbEntity
  8
0
  6
Continuous
 62
     7
370
    15
100
AcDbCircle
 10
427.5664803058
 20
340.4728921354
 30
0.0
 40
0.4703145648863869
100
AcDbArc
 50
189.5928162728
 51
258.1020119819
  0
ARC
  5
A2
330
1F
100
AcDbEntity
  8
0
  6
Continuous
 62
     7
370
    15
100
AcDbCircle
 10
427.56648499
 20
343.3335261939
 30
0.0
 40
0.4703184369110321
100
AcDbArc
 50
101.8984717996
 51
170.4078170179
  0
LINE
  5
A3
330
1F
100
AcDbEntity
  8
0
  6
Continuous
 62
     7
370
    15
100
AcDbLine
 10
437.2169276904
 20
346.160833756
 30
0.0
 11
427.4695156347
 21
343.7937395968
 31
0.0
  0
ARC
  5
A4
330
1F
100
AcDbEntity
  8
0
  6
Continuous
 62
     7
370
    15
100
AcDbCircle
 10
437.9924195972
 20
342.9618749996
 30
0.0
 40
3.291614318572102
100
AcDbArc
 50
89.9831743579
 51
103.626770778
  0
LINE
  5
A5
330
1F
100
AcDbEntity
  8
0
  6
Continuous
 62
     7
370
    15
100
AcDbLine
 10
453.1175581943
 20
346.2534891763
 30
0.0
 11
437.993386222
 21
346.2534891763
 31
0.0
  0
LINE
  5
A6
330
1F
100
AcDbEntity
  8
0
  6
Continuous
 62
     7
370
    15
100
AcDbLine
 10
437.993386222
 20
337.5529321232
 30
0.0
 11
453.1175581943
 21
337.5529321232
 31
0.0
  0
LINE
  5
A7
330
1F
100
AcDbEntity
  8
0
  6
Continuous
 62
     7
370
    15
100
AcDbLine
 10
437.2169276904
 20
333.377567152
 30
0.0
 11
437.993386222
 21
333.3037244477
 31
0.0
  0
SPLINE
  5
A8
330
1F
100
AcDbEntity
  8
0
  6
Continuous
 62
     7
370
    15
100
AcDbSpline
210
0.0
220
0.0
230
1.0
 70
     8
 71
     3
 72
    11
 73
     7
 74
     0
 42
0.00000001
 43
0.00000001
 12
1.0
 22
0.0
 32
0.0
 13
1.0
 23
0.0
 33
0.0
 40
0.0
 40
0.0
 40
0.0
 40
0.0
 40
0.245292740909254
 40
0.4905856593413612
 40
0.7452929935277615
 40
1.0
 40
1.0
 40
1.0
 40
1.0
 10
453.1175581942763
 20
332.467456380357
 30
0.0
 10
451.9166612623932
 20
332.6222569461966
 30
0.0
 10
449.5148665295156
 20
332.9318581899076
 30
0.0
 10
445.7541837355459
 20
333.2124547522084
 30
0.0
 10
441.9023294781148
 20
333.3612150963187
 30
0.0
 10
439.2963667485539
 20
333.3228879890321
 30
0.0
 10
437.9933862220016
 20
333.3037244477169
 30
0.0
  0
SPLINE
  5
A9
330
1F
100
AcDbEntity
  8
0
  6
Continuous
 62
     7
370
    15
100
AcDbSpline
210
0.0
220
0.0
230
1.0
 70
     8
 71
     3
 72
    11
 73
     7
 74
     0
 42
0.00000001
 43
0.00000001
 12
1.0
 22
0.0
 32
0.0
 13
1.0
 23
0.0
 33
0.0
 40
0.0
 40
0.0
 40
0.0
 40
0.0
 40
0.2674088033380882
 40
0.534588544884135
 40
0.8080467158028097
 40
0.9999999999999999
 40
0.9999999999999999
 40
0.9999999999999999
 40
0.9999999999999999
 10
427.1027421783176
 20
335.309048215379
 30
0.0
 10
427.1144592752756
 20
335.261798617558
 30
0.0
 10
427.1378834323522
 20
335.1673398958175
 30
0.0
 10
427.2343021284286
 20
335.0585081667637
 30
0.0
 10
427.3495739198743
 20
334.9928857316499
 30
0.0
 10
427.434492146645
 20
334.9785726561796
 30
0.0
 10
427.4695156346526
 20
334.9726694025891
 30
0.0
  0
LINE
  5
AA
330
1F
100
AcDbEntity
  8
0
  6
Continuous
 62
     7
370
    15
100
AcDbLine
 10
400.559714457
 20
265.6340757706
 30
0.0
 11
400.559714457
 21
227.2967687198
 31
0.0
  0
ARC
  5
AB
330
1F
100
AcDbEntity
  8
0
  6
Continuous
 62
     7
370
    15
100
AcDbCircle
 10
395.7829725523
 20
227.5431063774
 30
0.0
 40
4.783089531406226
100
AcDbArc
 50
267.3246602294
 51
357.0478589331
  0
LINE
  5
AC
330
1F
100
AcDbEntity
  8
0
  6
Continuous
 62
     7
370
    15
100
AcDbLine
 10
215.5597074162
 20
222.7652301402
 30
0.0
 11
395.5597145687
 21
222.7652301402
 31
0.0
  0
ARC
  5
AD
330
1F
100
AcDbEntity
  8
0
  6
Continuous
 62
     7
370
    15
100
AcDbCircle
 10
215.3364591362
 20
227.5431121756
 30
0.0
 40
4.783094870355234
100
AcDbArc
 50
182.9522073165
 51
272.6752204173
  0
LINE
  5
AE
330
1F
100
AcDbEntity
  8
0
  6
Continuous
 62
     7
370
    15
100
AcDbLine
 10
210.5597121845
 20
265.6340757706
 30
0.0
 11
210.5597121845
 21
227.2967687198
 31
0.0
  0
LINE
  5
AF
330
1F
100
AcDbEntity
  8
0
  6
Continuous
 62
     7
370
    15
100
AcDbLine
 10
400.559714457
 20
304.360789279
 30
0.0
 11
400.559714457
 21
304.0226968326
 31
0.0
  0
ARC
  5
B0
330
1F
100
AcDbEntity
  8
0
  6
Continuous
 62
     7
370
    15
100
AcDbCircle
 10
395.7829770844
 20
304.2690280167
 30
0.0
 40
4.783084671890622
100
AcDbArc
 50
267.3246031604
 51
357.0479335801
  0
ARC
  5
B1
330
1F
100
AcDbEntity
  8
0
  6
Continuous
 62
     7
370
    15
100
AcDbCircle
 10
395.782969686
 20
304.6071286263
 30
0.0
 40
4.783092480912326
100
AcDbArc
 50
267.3246962526
 51
357.047840488
  0
LINE
  5
B2
330
1F
100
AcDbEntity
  8
0
  6
Continuous
 62
     7
370
    15
100
AcDbLine
 10
400.559714457
 20
304.360789279
 30
0.0
 11
400.559714457
 21
315.8709006705
 31
0.0
  0
LINE
  5
B3
330
1F
100
AcDbEntity
  8
0
  6
Continuous
 62
     7
370
    15
100
AcDbLine
 10
215.5597074162
 20
299.8292493024
 30
0.0
 11
395.5597145687
 21
299.8292493024
 31
0.0
  0
ARC
  5
B4
330
1F
100
AcDbEntity
  8
0
  6
Continuous
 62
     7
370
    15
100
AcDbCircle
 10
215.3364620025
 20
304.6071344244
 30
0.0
 40
4.783097819860889
100
AcDbArc
 50
182.9522257614
 51
272.6751843943
  0
LINE
  5
B5
330
1F
100
AcDbEntity
  8
0
  6
Continuous
 62
     7
370
    15
100
AcDbLine
 10
210.5597121845
 20
304.360789279
 30
0.0
 11
210.5597121845
 21
315.8709006705
 31
0.0
  0
LINE
  5
B6
330
1F
100
AcDbEntity
  8
0
  6
Continuous
 62
     7
370
    15
100
AcDbLine
 10
215.5597074162
 20
299.491156856
 30
0.0
 11
395.5597145687
 21
299.491156856
 31
0.0
  0
ARC
  5
B7
330
1F
100
AcDbEntity
  8
0
  6
Continuous
 62
     7
370
    15
100
AcDbCircle
 10
215.3364546041
 20
304.2690338149
 30
0.0
 40
4.783090010815807
100
AcDbArc
 50
182.9521326694
 51
272.6752774863
  0
LINE
  5
B8
330
1F
100
AcDbEntity
  8
0
  6
Continuous
 62
     7
370
    15
100
AcDbLine
 10
210.5597121845
 20
304.0226968326
 30
0.0
 11
210.5597121845
 21
304.360789279
 31
0.0
  0
LINE
  5
B9
330
1F
100
AcDbEntity
  8
0
  6
Continuous
 62
     7
370
    15
100
AcDbLine
 10
210.5597121845
 20
315.8709006705
 30
0.0
 11
210.5597121845
 21
317.198877255
 31
0.0
  0
LINE
  5
BA
330
1F
100
AcDbEntity
  8
0
  6
Continuous
 62
     7
370
    15
100
AcDbLine
 10
400.559714457
 20
315.8709006705
 30
0.0
 11
400.559714457
 21
317.198877255
 31
0.0
  0
LINE
  5
BB
330
1F
100
AcDbEntity
  8
0
  6
Continuous
 62
     7
370
    15
100
AcDbLine
 10
210.5597121845
 20
267.5781222381
 30
0.0
 11
210.5597121845
 21
265.6340757706
 31
0.0
  0
LINE
  5
BC
330
1F
100
AcDbEntity
  8
0
  6
Continuous
 62
     7
370
    15
100
AcDbLine
 10
400.559714457
 20
267.5781222381
 30
0.0
 11
400.559714457
 21
265.6340757706
 31
0.0
  0
LINE
  5
BD
330
1F
100
AcDbEntity
  8
0
  6
Continuous
 62
     7
370
    15
100
AcDbLine
 10
210.5597121845
 20
304.0226968326
 30
0.0
 11
210.5597121845
 21
267.5781222381
 31
0.0
  0
LINE
  5
BE
330
1F
100
AcDbEntity
  8
0
  6
Continuous
 62
     7
370
    15
100
AcDbLine
 10
400.559714457
 20
304.0226968326
 30
0.0
 11
400.559714457
 21
267.5781222381
 31
0.0
  0
LINE
  5
BF
330
1F
100
AcDbEntity
  8
0
  6
Continuous
 62
     7
370
    15
100
AcDbLine
 10
595.559717549
 20
462.260101954
 30
0.0
 11
195.5597115885
 21
462.260101954
 31
0.0
  0
LINE
  5
C0
330
1F
100
AcDbEntity
  8
0
  6
Continuous
 62
     7
370
    15
100
AcDbLine
 10
595.559717549
 20
462.260101954
 30
0.0
 11
595.559717549
 21
445.1886760392
 31
0.0
  0
LINE
  5
C1
330
1F
100
AcDbEntity
  8
0
  6
Continuous
 62
     7
370
    15
100
AcDbLine
 10
195.5597115885
 20
462.260101954
 30
0.0
 11
195.5597115885
 21
445.1886760392
 31
0.0
  0
LINE
  5
C2
330
1F
100
AcDbEntity
  8
0
  6
Continuous
 62
     7
370
    15
100
AcDbLine
 10
195.5597115885
 20
445.1886760392
 30
0.0
 11
195.5597115885
 21
414.2260896363
 31
0.0
  0
LINE
  5
C3
330
1F
100
AcDbEntity
  8
0
  6
Continuous
 62
     7
370
    15
100
AcDbLine
 10
595.559717549
 20
445.1886760392
 30
0.0
 11
595.559717549
 21
414.2260896363
 31
0.0
  0
LINE
  5
C4
330
1F
100
AcDbEntity
  8
0
  6
Continuous
 62
     7
370
    15
100
AcDbLine
 10
195.5597115885
 20
414.2260896363
 30
0.0
 11
195.5597115885
 21
408.4218042292
 31
0.0
  0
LINE
  5
C5
330
1F
100
AcDbEntity
  8
0
  6
Continuous
 62
     7
370
    15
100
AcDbLine
 10
595.559717549
 20
414.2260896363
 30
0.0
 11
595.559717549
 21
408.4218042292
 31
0.0
  0
LWPOLYLINE
  5
C6
330
1F
100
AcDbEntity
  8
0
  6
Continuous
 62
     7
370
    15
100
AcDbPolyline
 90
        9
 70
   128
 43
0.0
 10
195.5597115885
 20
400.239785234
 10
195.5981416832
 20
400.0748889842
 10
195.7119567524
 20
399.9163406291
 10
195.8967758547
 20
399.7702049413
 10
196.1455060374
 20
399.6421145596
 10
196.4485807549
 20
399.5370017686
 10
196.7943472992
 20
399.4588898816
 10
197.1695287358
 20
399.4108038344
 10
197.5597156416
 20
399.3945615687
  0
LINE
  5
C7
330
1F
100
AcDbEntity
  8
0
  6
Continuous
 62
     7
370
    15
100
AcDbLine
 10
195.5597115885
 20
408.4218042292
 30
0.0
 11
195.5597115885
 21
400.239785234
 31
0.0
  0
LINE
  5
C8
330
1F
100
AcDbEntity
  8
0
  6
Continuous
 62
     7
370
    15
100
AcDbLine
 10
595.559717549
 20
408.4218042292
 30
0.0
 11
595.559717549
 21
400.239785234
 31
0.0
  0
LWPOLYLINE
  5
C9
330
1F
100
AcDbEntity
  8
0
  6
Continuous
 62
     7
370
    15
100
AcDbPolyline
 90
        9
 70
   128
 43
0.0
 10
593.5597134958
 20
399.3945615687
 10
593.9499004017
 20
399.4108038344
 10
594.3250818382
 20
399.4588898816
 10
594.6708483826
 20
399.5370017686
 10
594.9739231001
 20
399.6421145596
 10
595.2226532828
 20
399.7702049413
 10
595.407472385
 20
399.9163406291
 10
595.5212874542
 20
400.0748889842
 10
595.559717549
 20
400.239785234
  0
LINE
  5
CA
330
1F
100
AcDbEntity
  8
0
  6
Continuous
 62
     7
370
    15
100
AcDbLine
 10
593.5597134958
 20
399.3945615687
 30
0.0
 11
197.5597156416
 21
399.3945615687
 31
0.0
  0
LINE
  5
CB
330
1F
100
AcDbEntity
  8
0
  6
Continuous
 62
     7
370
    15
100
AcDbLine
 10
595.559717549
 20
464.5100878873
 30
0.0
 11
595.559717549
 21
462.260101954
 31
0.0
  0
LINE
  5
CC
330
1F
100
AcDbEntity
  8
0
  6
Continuous
 62
     7
370
    15
100
AcDbLine
 10
195.5597115885
 20
464.5100878873
 30
0.0
 11
195.5597115885
 21
462.260101954
 31
0.0
  0
LINE
  5
CD
330
1F
100
AcDbEntity
  8
0
  6
Continuous
 62
     7
370
    15
100
AcDbLine
 10
595.559717549
 20
476.0101037421
 30
0.0
 11
595.559717549
 21
464.5100878873
 31
0.0
  0
LINE
  5
CE
330
1F
100
AcDbEntity
  8
0
  6
Continuous
 62
     7
370
    15
100
AcDbLine
 10
195.5597115885
 20
476.0101037421
 30
0.0
 11
195.5597115885
 21
464.5100878873
 31
0.0
  0
LINE
  5
CF
330
1F
100
AcDbEntity
  8
0
  6
Continuous
 62
     7
370
    15
100
AcDbLine
 10
595.559717549
 20
480.2600937285
 30
0.0
 11
195.5597115885
 21
480.2600937285
 31
0.0
  0
LINE
  5
D0
330
1F
100
AcDbEntity
  8
0
  6
Continuous
 62
     7
370
    15
100
AcDbLine
 10
195.5597115885
 20
480.2600937285
 30
0.0
 11
195.5597115885
 21
476.0101037421
 31
0.0
  0
LINE
  5
D1
330
1F
100
AcDbEntity
  8
0
  6
Continuous
 62
     7
370
    15
100
AcDbLine
 10
595.559717549
 20
480.2600937285
 30
0.0
 11
595.559717549
 21
476.0101037421
 31
0.0
  0
LINE
  5
D2
330
1F
100
AcDbEntity
  8
0
  6
Continuous
 62
     7
370
    15
100
AcDbLine
 10
559.0597106348
 20
113.8600977459
 30
0.0
 11
506.059714986
 21
113.8600977459
 31
0.0
  0
LINE
  5
D3
330
1F
100
AcDbEntity
  8
0
  6
Continuous
 62
     7
370
    15
100
AcDbLine
 10
561.0597146879
 20
119.8600950041
 30
0.0
 11
504.0597109328
 21
119.8600950041
 31
0.0
  0
LINE
  5
D4
330
1F
100
AcDbEntity
  8
0
  6
Continuous
 62
     7
370
    15
100
AcDbLine
 10
285.0597141515
 20
113.8600977459
 30
0.0
 11
232.0597185026
 21
113.8600977459
 31
0.0
  0
LINE
  5
D5
330
1F
100
AcDbEntity
  8
0
  6
Continuous
 62
     7
370
    15
100
AcDbLine
 10
287.0597182046
 20
119.8600950041
 30
0.0
 11
230.0597144495
 21
119.8600950041
 31
0.0
  0
LINE
  5
D6
330
1F
100
AcDbEntity
  8
0
  6
Continuous
 62
     7
370
    15
100
AcDbLine
 10
567.55972041
 20
211.8600947172
 30
0.0
 11
567.55972041
 21
212.2600947362
 31
0.0
  0
LINE
  5
D7
330
1F
100
AcDbEntity
  8
0
  6
Continuous
 62
     7
370
    15
100
AcDbLine
 10
497.5597126614
 20
211.8600947172
 30
0.0
 11
497.5597126614
 21
212.2600947362
 31
0.0
  0
LINE
  5
D8
330
1F
100
AcDbEntity
  8
0
  6
Continuous
 62
     7
370
    15
100
AcDbLine
 10
497.5597126614
 20
211.8600947172
 30
0.0
 11
567.55972041
 21
211.8600947172
 31
0.0
  0
LINE
  5
D9
330
1F
100
AcDbEntity
  8
0
  6
Continuous
 62
     7
370
    15
100
AcDbLine
 10
563.5193599592
 20
148.8600941696
 30
0.0
 11
501.6000656615
 21
148.8600941696
 31
0.0
  0
LINE
  5
DA
330
1F
100
AcDbEntity
  8
0
  6
Continuous
 62
     7
370
    15
100
AcDbLine
 10
293.5597164761
 20
211.8600947172
 30
0.0
 11
293.5597164761
 21
212.2600947362
 31
0.0
  0
LINE
  5
DB
330
1F
100
AcDbEntity
  8
0
  6
Continuous
 62
     7
370
    15
100
AcDbLine
 10
223.5597087275
 20
211.8600947172
 30
0.0
 11
293.5597164761
 21
211.8600947172
 31
0.0
  0
LINE
  5
DC
330
1F
100
AcDbEntity
  8
0
  6
Continuous
 62
     7
370
    15
100
AcDbLine
 10
223.5597087275
 20
211.8600947172
 30
0.0
 11
223.5597087275
 21
212.2600947362
 31
0.0
  0
LINE
  5
DD
330
1F
100
AcDbEntity
  8
0
  6
Continuous
 62
     7
370
    15
100
AcDbLine
 10
289.5193634759
 20
148.8600941696
 30
0.0
 11
227.6000691782
 21
148.8600941696
 31
0.0
  0
LINE
  5
DE
330
1F
100
AcDbEntity
  8
0
  6
Continuous
 62
     7
370
    15
100
AcDbLine
 10
591.1247594486
 20
513.806869308
 30
0.0
 11
594.0597219597
 21
480.2600937285
 31
0.0
  0
LINE
  5
DF
330
1F
100
AcDbEntity
  8
0
  6
Continuous
 62
     7
370
    15
100
AcDbLine
 10
197.0597071778
 20
480.2600937285
 30
0.0
 11
199.9946696888
 21
513.806869308
 31
0.0
  0
LINE
  5
E0
330
1F
100
AcDbEntity
  8
0
  6
Continuous
 62
     7
370
    15
100
AcDbLine
 10
210.1379199158
 20
513.7023525634
 30
0.0
 11
210.6269164215
 21
499.6995525756
 31
0.0
  0
LINE
  5
E1
330
1F
100
AcDbEntity
  8
0
  6
Continuous
 62
     7
370
    15
100
AcDbLine
 10
490.5855594407
 20
495.2601092257
 30
0.0
 11
575.9187353979
 21
495.2601092257
 31
0.0
  0
LINE
  5
E2
330
1F
100
AcDbEntity
  8
0
  6
Continuous
 62
     7
370
    15
100
AcDbLine
 10
305.5059997569
 20
500.0856118598
 30
0.0
 11
305.9815032612
 21
513.7023525634
 31
0.0
  0
LINE
  5
E3
330
1F
100
AcDbEntity
  8
0
  6
Continuous
 62
     7
370
    15
100
AcDbLine
 10
215.2006937395
 20
495.2601092257
 30
0.0
 11
300.5338696967
 21
495.2601092257
 31
0.0
  0
LINE
  5
E4
330
1F
100
AcDbEntity
  8
0
  6
Continuous
 62
     7
370
    15
100
AcDbLine
 10
320.5855576526
 20
495.2601092257
 30
0.0
 11
385.5338724534
 21
495.2601092257
 31
0.0
  0
LINE
  5
E5
330
1F
100
AcDbEntity
  8
0
  6
Continuous
 62
     7
370
    15
100
AcDbLine
 10
405.585556684
 20
495.2601092257
 30
0.0
 11
470.5338714849
 21
495.2601092257
 31
0.0
  0
LINE
  5
E6
330
1F
100
AcDbEntity
  8
0
  6
Continuous
 62
     7
370
    15
100
AcDbLine
 10
400.1379235852
 20
513.7023525634
 30
0.0
 11
400.6134312804
 21
500.0856118598
 31
0.0
  0
LINE
  5
E7
330
1F
100
AcDbEntity
  8
0
  6
Continuous
 62
     7
370
    15
100
AcDbLine
 10
580.4925127159
 20
499.6995525756
 30
0.0
 11
580.9815092217
 21
513.7023525634
 31
0.0
  0
LINE
  5
E8
330
1F
100
AcDbEntity
  8
0
  6
Continuous
 62
     7
370
    15
100
AcDbLine
 10
390.505997857
 20
500.0856118598
 30
0.0
 11
390.9815055523
 21
513.7023525634
 31
0.0
  0
LINE
  5
E9
330
1F
100
AcDbEntity
  8
0
  6
Continuous
 62
     7
370
    15
100
AcDbLine
 10
485.1379258763
 20
513.7023525634
 30
0.0
 11
485.6134293805
 21
500.0856118598
 31
0.0
  0
LINE
  5
EA
330
1F
100
AcDbEntity
  8
0
  6
Continuous
 62
     7
370
    15
100
AcDbLine
 10
475.5060015451
 20
500.0856118598
 30
0.0
 11
475.9815050493
 21
513.7023525634
 31
0.0
  0
LINE
  5
EB
330
1F
100
AcDbEntity
  8
0
  6
Continuous
 62
     7
370
    15
100
AcDbLine
 10
315.1379240881
 20
513.7023525634
 30
0.0
 11
315.6134275924
 21
500.0856118598
 31
0.0
  0
ARC
  5
EC
330
1F
100
AcDbEntity
  8
0
  6
Continuous
 62
     7
370
    15
100
AcDbCircle
 10
405.6103853733
 20
500.2600948253
 30
0.0
 40
5.0
100
AcDbArc
 50
182.0
 51
270.0
  0
ARC
  5
ED
330
1F
100
AcDbEntity
  8
0
  6
Continuous
 62
     7
370
    15
100
AcDbCircle
 10
470.5090437608
 20
500.2600948253
 30
0.0
 40
5.0
100
AcDbArc
 50
270.0
 51
358.0
  0
ARC
  5
EE
330
1F
100
AcDbEntity
  8
0
  6
Continuous
 62
     7
370
    15
100
AcDbCircle
 10
300.5090437608
 20
500.2600948253
 30
0.0
 40
5.000000000000028
100
AcDbArc
 50
270.0
 51
358.0
  0
ARC
  5
EF
330
1F
100
AcDbEntity
  8
0
  6
Continuous
 62
     7
370
    15
100
AcDbCircle
 10
385.5090437608
 20
500.2600948253
 30
0.0
 40
5.000000000000028
100
AcDbArc
 50
270.0
 51
358.0
  0
ARC
  5
F0
330
1F
100
AcDbEntity
  8
0
  6
Continuous
 62
     7
370
    15
100
AcDbCircle
 10
490.6103853733
 20
500.2600948253
 30
0.0
 40
5.000000000000028
100
AcDbArc
 50
182.0
 51
270.0
  0
ARC
  5
F1
330
1F
100
AcDbEntity
  8
0
  6
Continuous
 62
     7
370
    15
100
AcDbCircle
 10
575.8953192707
 20
499.8600948253
 30
0.0
 40
4.600000000000023
100
AcDbArc
 50
270.0
 51
358.0
  0
ARC
  5
F2
330
1F
100
AcDbEntity
  8
0
  6
Continuous
 62
     7
370
    15
100
AcDbCircle
 10
215.2241098633
 20
499.8600948253
 30
0.0
 40
4.600000000000023
100
AcDbArc
 50
182.0
 51
270.0
  0
ARC
  5
F3
330
1F
100
AcDbEntity
  8
0
  6
Continuous
 62
     7
370
    15
100
AcDbCircle
 10
320.6103853733
 20
500.2600948253
 30
0.0
 40
5.000000000000028
100
AcDbArc
 50
182.0
 51
270.0
  0
LINE
  5
F4
330
1F
100
AcDbEntity
  8
0
  6
Continuous
 62
     7
370
    15
100
AcDbLine
 10
314.6455748211
 20
527.8012948432
 30
0.0
 11
315.1379240881
 21
513.7023525634
 31
0.0
  0
LINE
  5
F5
330
1F
100
AcDbEntity
  8
0
  6
Continuous
 62
     7
370
    15
100
AcDbLine
 10
209.6455706488
 20
527.8012948432
 30
0.0
 11
210.1379199158
 21
513.7023525634
 31
0.0
  0
LINE
  5
F6
330
1F
100
AcDbEntity
  8
0
  6
Continuous
 62
     7
370
    15
100
AcDbLine
 10
390.9815055523
 20
513.7023525634
 30
0.0
 11
391.4738515596
 21
527.8012948432
 31
0.0
  0
LINE
  5
F7
330
1F
100
AcDbEntity
  8
0
  6
Continuous
 62
     7
370
    15
100
AcDbLine
 10
484.6455766093
 20
527.8012948432
 30
0.0
 11
485.1379258763
 21
513.7023525634
 31
0.0
  0
LINE
  5
F8
330
1F
100
AcDbEntity
  8
0
  6
Continuous
 62
     7
370
    15
100
AcDbLine
 10
199.9946696888
 20
513.806869308
 30
0.0
 11
201.2281729113
 21
527.9058115878
 31
0.0
  0
LINE
  5
F9
330
1F
100
AcDbEntity
  8
0
  6
Continuous
 62
     7
370
    15
100
AcDbLine
 10
305.9815032612
 20
513.7023525634
 30
0.0
 11
306.4738525282
 21
527.8012948432
 31
0.0
  0
LINE
  5
FA
330
1F
100
AcDbEntity
  8
0
  6
Continuous
 62
     7
370
    15
100
AcDbLine
 10
589.8912562262
 20
527.9058115878
 30
0.0
 11
591.1247594486
 21
513.806869308
 31
0.0
  0
LINE
  5
FB
330
1F
100
AcDbEntity
  8
0
  6
Continuous
 62
     7
370
    15
100
AcDbLine
 10
580.9815092217
 20
513.7023525634
 30
0.0
 11
581.4738584887
 21
527.8012948432
 31
0.0
  0
LINE
  5
FC
330
1F
100
AcDbEntity
  8
0
  6
Continuous
 62
     7
370
    15
100
AcDbLine
 10
475.9815050493
 20
513.7023525634
 30
0.0
 11
476.4738543164
 21
527.8012948432
 31
0.0
  0
LINE
  5
FD
330
1F
100
AcDbEntity
  8
0
  6
Continuous
 62
     7
370
    15
100
AcDbLine
 10
399.6455775778
 20
527.8012948432
 30
0.0
 11
400.1379235852
 21
513.7023525634
 31
0.0
  0
LINE
  5
FE
330
1F
100
AcDbEntity
  8
0
  6
Continuous
 62
     7
370
    15
100
AcDbLine
 10
595.559717549
 20
262.6958163776
 30
0.0
 11
595.559717549
 21
271.8243720331
 31
0.0
  0
LINE
  5
FF
330
1F
100
AcDbEntity
  8
0
  6
Continuous
 62
     7
370
    15
100
AcDbLine
 10
195.5597115885
 20
262.6958163776
 30
0.0
 11
195.5597115885
 21
271.8243720331
 31
0.0
  0
LINE
  5
100
330
1F
100
AcDbEntity
  8
0
  6
Continuous
 62
     7
370
    15
100
AcDbLine
 10
595.559717549
 20
218.4958176543
 30
0.0
 11
595.559717549
 21
262.6958163776
 31
0.0
  0
LINE
  5
101
330
1F
100
AcDbEntity
  8
0
  6
Continuous
 62
     7
370
    15
100
AcDbLine
 10
195.5597115885
 20
218.4958176543
 30
0.0
 11
195.5597115885
 21
262.6958163776
 31
0.0
  0
LINE
  5
102
330
1F
100
AcDbEntity
  8
0
  6
Continuous
 62
     7
370
    15
100
AcDbLine
 10
595.559717549
 20
271.8243720331
 30
0.0
 11
595.559717549
 21
391.7170362868
 31
0.0
  0
LINE
  5
103
330
1F
100
AcDbEntity
  8
0
  6
Continuous
 62
     7
370
    15
100
AcDbLine
 10
370.7683788817
 20
386.4810811677
 30
0.0
 11
370.7683788817
 21
376.5116827884
 31
0.0
  0
ARC
  5
104
330
1F
100
AcDbEntity
  8
0
  6
Continuous
 62
     7
370
    15
100
AcDbCircle
 10
372.6790676912
 20
376.6102178962
 30
0.0
 40
1.913227873096226
100
AcDbArc
 50
182.9521546705
 51
272.6756004587
  0
LINE
  5
105
330
1F
100
AcDbEntity
  8
0
  6
Continuous
 62
     7
370
    15
100
AcDbLine
 10
372.7683792095
 20
374.6990757384
 30
0.0
 11
418.7683792989
 21
374.6990757384
 31
0.0
  0
ARC
  5
106
330
1F
100
AcDbEntity
  8
0
  6
Continuous
 62
     7
370
    15
100
AcDbCircle
 10
418.8576908172
 20
376.6102178962
 30
0.0
 40
1.913227873096226
100
AcDbArc
 50
267.3243995413
 51
357.0478453295
  0
LINE
  5
107
330
1F
100
AcDbEntity
  8
0
  6
Continuous
 62
     7
370
    15
100
AcDbLine
 10
420.7683796267
 20
376.5116827884
 30
0.0
 11
420.7683796267
 21
386.4810811677
 31
0.0
  0
ARC
  5
108
330
1F
100
AcDbEntity
  8
0
  6
Continuous
 62
     7
370
    15
100
AcDbCircle
 10
418.8576908172
 20
386.3825460599
 30
0.0
 40
1.913227873096191
100
AcDbArc
 50
2.9521546705
 51
92.6756004587
  0
LINE
  5
109
330
1F
100
AcDbEntity
  8
0
  6
Continuous
 62
     7
370
    15
100
AcDbLine
 10
418.7683792989
 20
388.2936882176
 30
0.0
 11
372.7683792095
 21
388.2936882176
 31
0.0
  0
ARC
  5
10A
330
1F
100
AcDbEntity
  8
0
  6
Continuous
 62
     7
370
    15
100
AcDbCircle
 10
372.6790676912
 20
386.3825460599
 30
0.0
 40
1.913227873096191
100
AcDbArc
 50
87.3243995413
 51
177.0478453295
  0
LINE
  5
10B
330
1F
100
AcDbEntity
  8
0
  6
Continuous
 62
     7
370
    15
100
AcDbLine
 10
195.5597115885
 20
271.8243720331
 30
0.0
 11
195.5597115885
 21
391.7170362868
 31
0.0
  0
LINE
  5
10C
330
1F
100
AcDbEntity
  8
0
  6
Continuous
 62
     7
370
    15
100
AcDbLine
 10
595.559717549
 20
212.2600947362
 30
0.0
 11
195.5597115885
 21
212.2600947362
 31
0.0
  0
LINE
  5
10D
330
1F
100
AcDbEntity
  8
0
  6
Continuous
 62
     7
370
    15
100
AcDbLine
 10
595.559717549
 20
212.2600947362
 30
0.0
 11
595.559717549
 21
218.4958176543
 31
0.0
  0
LINE
  5
10E
330
1F
100
AcDbEntity
  8
0
  6
Continuous
 62
     7
370
    15
100
AcDbLine
 10
195.5597115885
 20
212.2600947362
 30
0.0
 11
195.5597115885
 21
218.4958176543
 31
0.0
  0
LINE
  5
10F
330
1F
100
AcDbEntity
  8
0
  6
Continuous
 62
     7
370
    15
100
AcDbLine
 10
195.5597115885
 20
399.2737280526
 30
0.0
 11
195.5597115885
 21
399.9987738528
 31
0.0
  0
LINE
  5
110
330
1F
100
AcDbEntity
  8
0
  6
Continuous
 62
     7
370
    15
100
AcDbLine
 10
195.5597115885
 20
399.9987738528
 30
0.0
 11
195.5801410805
 21
400.1192795434
 31
0.0
  0
ARC
  5
111
330
1F
100
AcDbEntity
  8
0
  6
Continuous
 62
     7
370
    15
100
AcDbCircle
 10
196.2188192325
 20
399.1589337954
 30
0.0
 40
0.6690296016259807
100
AcDbArc
 50
116.6736099509
 51
170.1201160787
  0
LINE
  5
112
330
1F
100
AcDbEntity
  8
0
  6
Continuous
 62
     7
370
    15
100
AcDbLine
 10
595.539288057
 20
400.1192795434
 30
0.0
 11
595.559717549
 21
399.9987738528
 31
0.0
  0
LINE
  5
113
330
1F
100
AcDbEntity
  8
0
  6
Continuous
 62
     7
370
    15
100
AcDbLine
 10
595.559717549
 20
399.9987738528
 30
0.0
 11
595.559717549
 21
399.2737280526
 31
0.0
  0
ARC
  5
114
330
1F
100
AcDbEntity
  8
0
  6
Continuous
 62
     7
370
    15
100
AcDbCircle
 10
594.900609905
 20
399.1589337954
 30
0.0
 40
0.6690296016261584
100
AcDbArc
 50
9.8798839213
 51
63.3263900491
  0
LINE
  5
115
330
1F
100
AcDbEntity
  8
0
  6
Continuous
 62
     7
370
    15
100
AcDbLine
 10
595.559717549
 20
393.3782028355
 30
0.0
 11
595.559717549
 21
399.2737280526
 31
0.0
  0
LINE
  5
116
330
1F
100
AcDbEntity
  8
0
  6
Continuous
 62
     7
370
    15
100
AcDbLine
 10
195.5597115885
 20
393.3782028355
 30
0.0
 11
195.5597115885
 21
399.2737280526
 31
0.0
  0
LWPOLYLINE
  5
117
330
1F
100
AcDbEntity
  8
0
  6
Continuous
 62
     7
370
    15
100
AcDbPolyline
 90
       18
 70
   128
 43
0.0
 10
206.5597189795
 20
396.4210497537
 10
207.5531346928
 20
396.4995341697
 10
208.4123803507
 20
396.7243777909
 10
209.021420611
 20
397.0652120509
 10
209.2979861628
 20
397.4760221639
 10
209.204734696
 20
397.9013013043
 10
208.754257692
 20
398.2836352982
 10
208.0073965918
 20
398.5713767209
 10
207.0650322567
 20
398.7256633439
 10
206.0544057022
 20
398.7256633439
 10
205.112026466
 20
398.5713767209
 10
204.3651653658
 20
398.2836352982
 10
203.9146883618
 20
397.9013013043
 10
203.8214517962
 20
397.4760221639
 10
204.0980173479
 20
397.0652120509
 10
204.7070576082
 20
396.7243777909
 10
205.5663032662
 20
396.4995341697
 10
206.5597189795
 20
396.4210497537
  0
LWPOLYLINE
  5
118
330
1F
100
AcDbEntity
  8
0
  6
Continuous
 62
     7
370
    15
100
AcDbPolyline
 90
       18
 70
   128
 43
0.0
 10
584.559710158
 20
398.745452086
 10
583.5662944447
 20
398.66696767
 10
582.7070487868
 20
398.4421240487
 10
582.0980085264
 20
398.1012897887
 10
581.8214429747
 20
397.6904796758
 10
581.9146944414
 20
397.2652005353
 10
582.3651714455
 20
396.8828665414
 10
583.1120325457
 20
396.5951251187
 10
584.0543968807
 20
396.4408384957
 10
585.0650234352
 20
396.4408384957
 10
586.0074026715
 20
396.5951251187
 10
586.7542637716
 20
396.8828665414
 10
587.2047407757
 20
397.2652005353
 10
587.2979773413
 20
397.6904796758
 10
587.0214117895
 20
398.1012897887
 10
586.4123715292
 20
398.4421240487
 10
585.5531258713
 20
398.66696767
 10
584.559710158
 20
398.745452086
  0
ARC
  5
119
330
1F
100
AcDbEntity
  8
0
  6
Continuous
 62
     7
370
    15
100
AcDbCircle
 10
206.9675792
 20
400.4817271976
 30
0.0
 40
3.360474434083973
100
AcDbArc
 50
263.0288338838
 51
311.0057540458
  0
ARC
  5
11A
330
1F
100
AcDbEntity
  8
0
  6
Continuous
 62
     7
370
    15
100
AcDbCircle
 10
206.1518872571
 20
400.4818613979
 30
0.0
 40
3.360604183761264
100
AcDbArc
 50
228.9951888195
 51
276.9704061396
  0
ARC
  5
11B
330
1F
100
AcDbEntity
  8
0
  6
Continuous
 62
     7
370
    15
100
AcDbCircle
 10
584.5597176086
 20
401.3118000155
 30
0.0
 40
4.26108722157433
100
AcDbArc
 50
232.1805715299
 51
307.8194284701
  0
ARC
  5
11C
330
1F
100
AcDbEntity
  8
0
  6
Continuous
 62
     7
370
    15
100
AcDbCircle
 10
372.6790819953
 20
386.0444386408
 30
0.0
 40
1.913242161886819
100
AcDbArc
 50
87.3248483694
 51
177.047865249
  0
ARC
  5
11D
330
1F
100
AcDbEntity
  8
0
  6
Continuous
 62
     7
370
    15
100
AcDbCircle
 10
418.8576765131
 20
386.0444386408
 30
0.0
 40
1.913242161886819
100
AcDbArc
 50
2.952134751
 51
92.6751516306
  0
LINE
  5
11E
330
1F
100
AcDbEntity
  8
0
  6
Continuous
 62
     7
370
    15
100
AcDbLine
 10
418.7683792989
 20
387.9555957713
 30
0.0
 11
372.7683792095
 21
387.9555957713
 31
0.0
  0
LINE
  5
11F
330
1F
100
AcDbEntity
  8
0
  6
Continuous
 62
     7
370
    15
100
AcDbLine
 10
195.5597115885
 20
391.7170362868
 30
0.0
 11
195.5597115885
 21
393.3782028355
 31
0.0
  0
LINE
  5
120
330
1F
100
AcDbEntity
  8
0
  6
Continuous
 62
     7
370
    15
100
AcDbLine
 10
595.559717549
 20
391.7170362868
 30
0.0
 11
595.559717549
 21
393.3782028355
 31
0.0
  0
ARC
  5
121
330
1F
100
AcDbEntity
  8
0
  6
Continuous
 62
     7
370
    15
100
AcDbCircle
 10
440.850205284
 20
332.8300299585
 30
0.0
 40
15.95054054768927
100
AcDbArc
 50
57.306033646
 51
67.6251672353
  0
LWPOLYLINE
  5
122
330
1F
100
AcDbEntity
  8
0
  6
Continuous
 62
     7
370
    15
100
AcDbPolyline
 90
       30
 70
   128
 43
0.0
 10
453.9997143875
 20
341.6973995366
 10
454.117318077
 20
341.5049957433
 10
455.0880952011
 20
339.5423861542
 10
455.7169353794
 20
337.4684723415
 10
455.9890939127
 20
335.3318693437
 10
455.8981968294
 20
333.182652513
 10
455.4463712703
 20
331.0711952248
 10
454.6442082356
 20
329.0469916859
 10
453.5105129908
 20
327.1574871936
 10
452.0718543063
 20
325.4469754496
 10
450.3619535099
 20
323.9555405774
 10
448.4208909999
 20
322.7181481519
 10
446.2941600214
 20
321.7637958326
 10
444.0316161345
 20
321.1148577132
 10
441.6862851213
 20
320.7865404286
 10
439.313144816
 20
320.7865404286
 10
436.9678138028
 20
321.1148577132
 10
434.7052661906
 20
321.7637958326
 10
432.5785389374
 20
322.7181481519
 10
430.6374764274
 20
323.9555405774
 10
428.927575631
 20
325.4469754496
 10
427.4889169465
 20
327.1574871936
 10
426.3552198391
 20
329.0469916859
 10
425.5530568044
 20
331.0711952248
 10
425.1012331079
 20
333.182652513
 10
425.010334162
 20
335.3318693437
 10
425.282494558
 20
337.4684723415
 10
425.9113328736
 20
339.5423861542
 10
426.8821118604
 20
341.5049957433
 10
426.9997155498
 20
341.6973995366
  0
ARC
  5
123
330
1F
100
AcDbEntity
  8
0
  6
Continuous
 62
     7
370
    15
100
AcDbCircle
 10
439.9551260443
 20
333.2027204651
 30
0.0
 40
15.53206781919923
100
AcDbArc
 50
112.2360734746
 51
135.1847180441
  0
LINE
  5
124
330
1F
100
AcDbEntity
  8
0
  6
Continuous
 62
     7
370
    15
100
AcDbLine
 10
424.9601656775
 20
335.2748649516
 30
0.0
 11
424.8728336971
 21
334.2312472262
 31
0.0
  0
ARC
  5
125
330
1F
100
AcDbEntity
  8
0
  6
Continuous
 62
     7
370
    15
100
AcDbCircle
 10
442.2548093774
 20
330.9478496146
 30
0.0
 40
14.21763971955548
100
AcDbArc
 50
292.1127691136
 51
5.8524712393
  0
LWPOLYLINE
  5
126
330
1F
100
AcDbEntity
  8
0
  6
Continuous
 62
     7
370
    15
100
AcDbPolyline
 90
       13
 70
   128
 43
0.0
 10
440.499713106
 20
322.1279727616
 10
442.7414884995
 20
322.2919898429
 10
444.9252015184
 20
322.7798017063
 10
446.9942985307
 20
323.5787647166
 10
448.8951875101
 20
324.6681886115
 10
450.5786387454
 20
326.0198654928
 10
452.0010514389
 20
327.5987776317
 10
453.1255861949
 20
329.364036242
 10
453.9231149684
 20
331.269924561
 10
454.3729884754
 20
333.2670824923
 10
454.4635465573
 20
335.3037732043
 10
454.192453457
 20
337.3272614875
 10
453.9997143875
 20
338.0684601464
  0
LWPOLYLINE
  5
127
330
1F
100
AcDbEntity
  8
0
  6
Continuous
 62
     7
370
    15
100
AcDbPolyline
 90
       13
 70
   128
 43
0.0
 10
426.9997155498
 20
338.0684601464
 10
426.8069764804
 20
337.3272614875
 10
426.5358815174
 20
335.3037732043
 10
426.6264414619
 20
333.2670824923
 10
427.0763112436
 20
331.269924561
 10
427.8738437425
 20
329.364036242
 10
428.9983784984
 20
327.5987776317
 10
430.4207911919
 20
326.0198654928
 10
432.1042424272
 20
324.6681886115
 10
434.0051314067
 20
323.5787647166
 10
436.0742246937
 20
322.7798017063
 10
438.2579414378
 20
322.2919898429
 10
440.499713106
 20
322.1279727616
  0
ARC
  5
128
330
1F
100
AcDbEntity
  8
0
  6
Continuous
 62
     7
370
    15
100
AcDbCircle
 10
436.3839419808
 20
332.0867864681
 30
0.0
 40
20.71424295813348
100
AcDbArc
 50
147.0426217966
 51
195.2854629178
  0
LWPOLYLINE
  5
129
330
1F
100
AcDbEntity
  8
0
  6
Continuous
 62
     7
370
    15
100
AcDbPolyline
 90
        3
 70
   128
 43
0.0
 10
426.8652437459
 20
332.0141183534
 10
426.9097497891
 20
333.0448763766
 10
426.9997155498
 20
333.7782668271
  0
LINE
  5
12A
330
1F
100
AcDbEntity
  8
0
  6
Continuous
 62
     7
370
    15
100
AcDbLine
 10
453.9450904559
 20
331.8019183674
 30
0.0
 11
453.9711451362
 21
331.423838655
 31
0.0
  0
LWPOLYLINE
  5
12B
330
1F
100
AcDbEntity
  8
0
  6
Continuous
 62
     7
370
    15
100
AcDbPolyline
 90
       17
 70
   128
 43
0.0
 10
440.499713106
 20
350.1007752814
 10
441.0737393628
 20
350.2042638459
 10
441.5603740345
 20
350.4989641108
 10
441.8855322729
 20
350.9399937787
 10
441.9997161459
 20
351.4602380195
 10
441.8855322729
 20
351.9804822602
 10
441.5603740345
 20
352.4215268292
 10
441.0737393628
 20
352.7162270942
 10
440.499713106
 20
352.8197007575
 10
439.9256905745
 20
352.7162270942
 10
439.4390559028
 20
352.4215268292
 10
439.1138939391
 20
351.9804822602
 10
438.9997137915
 20
351.4602380195
 10
439.1138939391
 20
350.9399937787
 10
439.4390559028
 20
350.4989641108
 10
439.9256905745
 20
350.2042638459
 10
440.499713106
 20
350.1007752814
  0
LINE
  5
12C
330
1F
100
AcDbEntity
  8
0
  6
Continuous
 62
     7
370
    15
100
AcDbLine
 10
440.8997161518
 20
312.7609016695
 30
0.0
 11
440.8997161518
 21
315.8423500457
 31
0.0
  0
ARC
  5
12D
330
1F
100
AcDbEntity
  8
0
  6
Continuous
 62
     7
370
    15
100
AcDbCircle
 10
440.6131210791
 20
315.827574232
 30
0.0
 40
0.2869757139376148
100
AcDbArc
 50
2.9513517094
 51
92.6775887416
  0
LINE
  5
12E
330
1F
100
AcDbEntity
  8
0
  6
Continuous
 62
     7
370
    15
100
AcDbLine
 10
440.5997147988
 20
316.1142366328
 30
0.0
 11
440.3997151386
 21
316.1142366328
 31
0.0
  0
ARC
  5
12F
330
1F
100
AcDbEntity
  8
0
  6
Continuous
 62
     7
370
    15
100
AcDbCircle
 10
440.3863088583
 20
315.827574232
 30
0.0
 40
0.2869757139376825
100
AcDbArc
 50
87.3224112584
 51
177.0486482906
  0
LINE
  5
130
330
1F
100
AcDbEntity
  8
0
  6
Continuous
 62
     7
370
    15
100
AcDbLine
 10
440.0997137855
 20
315.8423500457
 30
0.0
 11
440.0997137855
 21
312.7609016695
 31
0.0
  0
ARC
  5
131
330
1F
100
AcDbEntity
  8
0
  6
Continuous
 62
     7
370
    15
100
AcDbCircle
 10
440.3863231406
 20
312.7756853865
 30
0.0
 40
0.2869903842936783
100
AcDbArc
 50
182.9527806591
 51
272.6745972907
  0
LINE
  5
132
330
1F
100
AcDbEntity
  8
0
  6
Continuous
 62
     7
370
    15
100
AcDbLine
 10
440.3997151386
 20
312.4890076318
 30
0.0
 11
440.5997147988
 21
312.4890076318
 31
0.0
  0
ARC
  5
133
330
1F
100
AcDbEntity
  8
0
  6
Continuous
 62
     7
370
    15
100
AcDbCircle
 10
440.6131067968
 20
312.7756853865
 30
0.0
 40
0.2869903842936791
100
AcDbArc
 50
267.3254027093
 51
357.0472193409
  0
LINE
  5
134
330
1F
100
AcDbEntity
  8
0
  6
Continuous
 62
     7
370
    15
100
AcDbLine
 10
421.2405862491
 20
330.9941860237
 30
0.0
 11
420.8475550841
 21
332.1983786621
 31
0.0
  0
LINE
  5
135
330
1F
100
AcDbEntity
  8
0
  6
Continuous
 62
     7
370
    15
100
AcDbLine
 10
420.8475550841
 20
332.1983786621
 30
0.0
 11
422.114492787
 21
332.3700549402
 31
0.0
  0
LINE
  5
136
330
1F
100
AcDbEntity
  8
0
  6
Continuous
 62
     7
370
    15
100
AcDbLine
 10
422.114492787
 20
332.3700549402
 30
0.0
 11
421.2290471624
 21
332.9398455419
 31
0.0
  0
LINE
  5
137
330
1F
100
AcDbEntity
  8
0
  6
Continuous
 62
     7
370
    15
100
AcDbLine
 10
421.2290471624
 20
332.9398455419
 30
0.0
 11
421.5631293337
 21
334.1376455822
 31
0.0
  0
LINE
  5
138
330
1F
100
AcDbEntity
  8
0
  6
Continuous
 62
     7
370
    15
100
AcDbLine
 10
421.5631293337
 20
334.1376455822
 30
0.0
 11
420.574481992
 21
333.4421487846
 31
0.0
  0
LINE
  5
139
330
1F
100
AcDbEntity
  8
0
  6
Continuous
 62
     7
370
    15
100
AcDbLine
 10
420.574481992
 20
333.4421487846
 30
0.0
 11
419.4926316123
 21
334.2754813232
 31
0.0
  0
LINE
  5
13A
330
1F
100
AcDbEntity
  8
0
  6
Continuous
 62
     7
370
    15
100
AcDbLine
 10
419.4926316123
 20
334.2754813232
 30
0.0
 11
419.5584928821
 21
332.9838784733
 31
0.0
  0
LINE
  5
13B
330
1F
100
AcDbEntity
  8
0
  6
Continuous
 62
     7
370
    15
100
AcDbLine
 10
419.5584928821
 20
332.9838784733
 30
0.0
 11
418.5551436822
 21
332.7760296264
 31
0.0
  0
LINE
  5
13C
330
1F
100
AcDbEntity
  8
0
  6
Continuous
 62
     7
370
    15
100
AcDbLine
 10
418.5551436822
 20
332.7760296264
 30
0.0
 11
419.4896178524
 21
332.366061429
 31
0.0
  0
LINE
  5
13D
330
1F
100
AcDbEntity
  8
0
  6
Continuous
 62
     7
370
    15
100
AcDbLine
 10
419.4896178524
 20
332.366061429
 30
0.0
 11
418.3796135913
 21
330.3377302685
 31
0.0
  0
LINE
  5
13E
330
1F
100
AcDbEntity
  8
0
  6
Continuous
 62
     7
370
    15
100
AcDbLine
 10
418.3796135913
 20
330.3377302685
 30
0.0
 11
420.207764415
 21
331.9873335161
 31
0.0
  0
LINE
  5
13F
330
1F
100
AcDbEntity
  8
0
  6
Continuous
 62
     7
370
    15
100
AcDbLine
 10
420.207764415
 20
331.9873335161
 30
0.0
 11
421.2405862491
 21
330.9941860237
 31
0.0
  0
ARC
  5
140
330
1F
100
AcDbEntity
  8
0
  6
Continuous
 62
     7
370
    15
100
AcDbCircle
 10
440.3863190027
 20
315.7853037505
 30
0.0
 40
0.2869860168300334
100
AcDbArc
 50
87.3245349768
 51
177.0480870734
  0
LINE
  5
141
330
1F
100
AcDbEntity
  8
0
  6
Continuous
 62
     7
370
    15
100
AcDbLine
 10
440.5997147988
 20
316.0719769397
 30
0.0
 11
440.3997151386
 21
316.0719769397
 31
0.0
  0
ARC
  5
142
330
1F
100
AcDbEntity
  8
0
  6
Continuous
 62
     7
370
    15
100
AcDbCircle
 10
440.6131109346
 20
315.7853037505
 30
0.0
 40
0.2869860168300796
100
AcDbArc
 50
2.9519129266
 51
92.6754650232
  0
LINE
  5
143
330
1F
100
AcDbEntity
  8
0
  6
Continuous
 62
     7
370
    15
100
AcDbLine
 10
446.3170593809
 20
317.2634737887
 30
0.0
 11
446.3080926071
 21
317.3244716921
 31
0.0
  0
LWPOLYLINE
  5
144
330
1F
100
AcDbEntity
  8
0
  6
Continuous
 62
     7
370
    15
100
AcDbPolyline
 90
       17
 70
   128
 43
0.0
 10
415.6581064891
 20
333.3143117227
 10
415.4997145961
 20
330.7678448357
 10
415.6861281227
 20
328.0060710707
 10
416.2425877731
 20
325.2854841151
 10
417.1607954632
 20
322.6466523805
 10
418.4270570259
 20
320.128937284
 10
420.0224908273
 20
317.7698823013
 10
421.9233015757
 20
315.6046616235
 10
424.1011453997
 20
313.6655735173
 10
426.5235396306
 20
311.9815336862
 10
429.1543638538
 20
310.5776505866
 10
431.9543777238
 20
309.4748678007
 10
434.8818337749
 20
308.6896287599
 10
437.8930678796
 20
308.2336457767
 10
440.9431716632
 20
308.1137137809
 10
443.9866667818
 20
308.3316209116
 10
446.9781605731
 20
308.8841261663
  0
SPLINE
  5
145
330
1F
100
AcDbEntity
  8
0
  6
Continuous
 62
     7
370
    15
100
AcDbSpline
210
0.0
220
0.0
230
1.0
 70
     8
 71
     3
 72
    12
 73
     8
 74
     0
 42
0.00000001
 43
0.00000001
 12
1.0
 22
0.0
 32
0.0
 13
1.0
 23
0.0
 33
0.0
 40
0.0
 40
0.0
 40
0.0
 40
0.0
 40
0.0904368439494217
 40
0.3230796671430346
 40
0.5553119123654454
 40
0.7873262246607492
 40
1.0
 40
1.0
 40
1.0
 40
1.0
 10
448.4111009370056
 20
310.8856799402134
 30
0.0
 10
448.4303141668661
 20
310.8083956426627
 30
0.0
 10
448.498952164799
 20
310.5323025810556
 30
0.0
 10
448.3808015434235
 20
310.0392455913419
 30
0.0
 10
448.0666450726637
 20
309.4989044936833
 30
0.0
 10
447.5759068138522
 20
309.0830825424272
 30
0.0
 10
447.1715471336622
 20
308.9484937635656
 30
0.0
 10
446.9781605731216
 20
308.8841261663334
 30
0.0
  0
SPLINE
  5
146
330
1F
100
AcDbEntity
  8
0
  6
Continuous
 62
     7
370
    15
100
AcDbSpline
210
0.0
220
0.0
230
1.0
 70
     8
 71
     3
 72
    10
 73
     6
 74
     0
 42
0.00000001
 43
0.00000001
 12
1.0
 22
0.0
 32
0.0
 13
1.0
 23
0.0
 33
0.0
 40
0.0
 40
0.0
 40
0.0
 40
0.0
 40
0.3818706278211926
 40
0.7637638174672681
 40
1.0
 40
1.0
 40
1.0
 40
1.0
 10
447.606766058084
 20
317.7759917774098
 30
0.0
 10
447.4170246120264
 20
317.667246534607
 30
0.0
 10
447.0375305095351
 20
317.4497496240737
 30
0.0
 10
446.6799285899158
 20
317.0003283407445
 30
0.0
 10
446.6028208690951
 20
316.6781771611574
 30
0.0
 10
446.5733519028392
 20
316.5550576844113
 30
0.0
  0
LINE
  5
147
330
1F
100
AcDbEntity
  8
0
  6
Continuous
 62
     7
370
    15
100
AcDbLine
 10
419.4896178524
 20
332.3238017359
 30
0.0
 11
419.4896178524
 21
332.366061429
 31
0.0
  0
LINE
  5
148
330
1F
100
AcDbEntity
  8
0
  6
Continuous
 62
     7
370
    15
100
AcDbLine
 10
419.4896178524
 20
332.3238017359
 30
0.0
 11
418.4253024142
 21
330.3789543309
 31
0.0
  0
LINE
  5
149
330
1F
100
AcDbEntity
  8
0
  6
Continuous
 62
     7
370
    15
100
AcDbLine
 10
419.5584928821
 20
332.9416187801
 30
0.0
 11
418.6205784063
 21
332.7473225393
 31
0.0
  0
LINE
  5
14A
330
1F
100
AcDbEntity
  8
0
  6
Continuous
 62
     7
370
    15
100
AcDbLine
 10
420.574481992
 20
333.3998890915
 30
0.0
 11
419.4948742371
 21
334.2314856448
 31
0.0
  0
LINE
  5
14B
330
1F
100
AcDbEntity
  8
0
  6
Continuous
 62
     7
370
    15
100
AcDbLine
 10
421.5484647285
 20
334.0850668349
 30
0.0
 11
420.574481992
 21
333.3998890915
 31
0.0
  0
LINE
  5
14C
330
1F
100
AcDbEntity
  8
0
  6
Continuous
 62
     7
370
    15
100
AcDbLine
 10
422.0602413844
 20
332.3627086677
 30
0.0
 11
421.2290471624
 21
332.8975858488
 31
0.0
  0
LINE
  5
14D
330
1F
100
AcDbEntity
  8
0
  6
Continuous
 62
     7
370
    15
100
AcDbLine
 10
421.2204845827
 20
331.0135128298
 30
0.0
 11
420.8475550841
 21
332.156118969
 31
0.0
  0
LINE
  5
14E
330
1F
100
AcDbEntity
  8
0
  6
Continuous
 62
     7
370
    15
100
AcDbLine
 10
420.8475550841
 20
332.156118969
 30
0.0
 11
420.8475550841
 21
332.1983786621
 31
0.0
  0
LINE
  5
14F
330
1F
100
AcDbEntity
  8
0
  6
Continuous
 62
     7
370
    15
100
AcDbLine
 10
421.2290471624
 20
332.8975858488
 30
0.0
 11
421.2290471624
 21
332.9398455419
 31
0.0
  0
LINE
  5
150
330
1F
100
AcDbEntity
  8
0
  6
Continuous
 62
     7
370
    15
100
AcDbLine
 10
419.5584928821
 20
332.9416187801
 30
0.0
 11
419.5584928821
 21
332.9838784733
 31
0.0
  0
LINE
  5
151
330
1F
100
AcDbEntity
  8
0
  6
Continuous
 62
     7
370
    15
100
AcDbLine
 10
420.574481992
 20
333.3998890915
 30
0.0
 11
420.574481992
 21
333.4421487846
 31
0.0
  0
ARC
  5
152
330
1F
100
AcDbEntity
  8
0
  6
Continuous
 62
     7
370
    15
100
AcDbCircle
 10
440.4997149687
 20
351.2990370313
 30
0.0
 40
1.504709461403967
100
AcDbArc
 50
4.5337330847
 51
175.4662669153
  0
LINE
  5
153
330
1F
100
AcDbEntity
  8
0
  6
Continuous
 62
     7
370
    15
100
AcDbLine
 10
447.2034288775
 20
347.4604981341
 30
0.0
 11
448.337403519
 21
350.2841638722
 31
0.0
  0
ARC
  5
154
330
1F
100
AcDbEntity
  8
0
  6
Continuous
 62
     7
370
    15
100
AcDbCircle
 10
446.5228526936
 20
352.1217675025
 30
0.0
 40
1.719067746377137
100
AcDbArc
 50
338.6146165593
 51
9.929223033
  0
SPLINE
  5
155
330
1F
100
AcDbEntity
  8
0
  6
Continuous
 62
     7
370
    15
100
AcDbSpline
210
0.0
220
0.0
230
1.0
 70
     8
 71
     3
 72
     9
 73
     5
 74
     0
 42
0.00000001
 43
0.00000001
 12
1.0
 22
0.0
 32
0.0
 13
1.0
 23
0.0
 33
0.0
 40
0.0
 40
0.0
 40
0.0
 40
0.0
 40
0.385165381305978
 40
1.0
 40
1.0
 40
1.0
 40
1.0
 10
448.4076103399959
 20
351.1755066313641
 30
0.0
 10
448.4318042336731
 20
351.0600472709932
 30
0.0
 10
448.4946185333256
 20
350.7602815963642
 30
0.0
 10
448.3972618055997
 20
350.4654416674819
 30
0.0
 10
448.3374035190311
 20
350.2841638722317
 30
0.0
  0
SPLINE
  5
156
330
1F
100
AcDbEntity
  8
0
  6
Continuous
 62
     7
370
    15
100
AcDbSpline
210
0.0
220
0.0
230
1.0
 70
     8
 71
     3
 72
     9
 73
     5
 74
     0
 42
0.00000001
 43
0.00000001
 12
1.0
 22
0.0
 32
0.0
 13
1.0
 23
0.0
 33
0.0
 40
0.0
 40
0.0
 40
0.0
 40
0.0
 40
0.5000268022979671
 40
0.9999999999999999
 40
0.9999999999999999
 40
0.9999999999999999
 40
0.9999999999999999
 10
484.6696792374816
 20
280.3797768750088
 30
0.0
 10
484.69661167645
 20
280.0878201998638
 30
0.0
 10
484.7504736671364
 20
279.5039381483351
 30
0.0
 10
485.0866099109478
 20
278.9892283597774
 30
0.0
 10
485.2546690236297
 20
278.7318872609036
 30
0.0
  0
SPLINE
  5
157
330
1F
100
AcDbEntity
  8
0
  6
Continuous
 62
     7
370
    15
100
AcDbSpline
210
0.0
220
0.0
230
1.0
 70
     8
 71
     3
 72
    20
 73
    16
 74
     0
 42
0.00000001
 43
0.00000001
 12
1.0
 22
0.0
 32
0.0
 13
1.0
 23
0.0
 33
0.0
 40
0.0
 40
0.0
 40
0.0
 40
0.0
 40
0.1249010631216943
 40
0.2498484623784318
 40
0.3748439017434561
 40
0.4998486890396875
 40
0.6248537400902071
 40
0.7498488243984286
 40
0.8747933939385025
 40
0.9374042465990307
 40
0.968686161433161
 40
0.9843389409857649
 40
0.9952059517564216
 40
0.9983677008489081
 40
1.0
 40
1.0
 40
1.0
 40
1.0
 10
485.2546690236297
 20
278.7318872609036
 30
0.0
 10
485.7080330604758
 20
278.2157582099824
 30
0.0
 10
486.6149293243875
 20
277.1833086331853
 30
0.0
 10
488.4092439439511
 20
276.0246193749315
 30
0.0
 10
490.3928372123115
 20
275.2971090855073
 30
0.0
 10
492.5001895140089
 20
275.0582815344047
 30
0.0
 10
494.6052108491731
 20
275.2979930867149
 30
0.0
 10
496.5957479827882
 20
276.0212977150577
 30
0.0
 10
498.0706085516439
 20
277.0007186942842
 30
0.0
 10
498.9657225542858
 20
277.82487197282
 30
0.0
 10
499.3660445655615
 20
278.2728028180268
 30
0.0
 10
499.5669548976498
 20
278.5148495922715
 30
0.0
 10
499.6690906138828
 20
278.6392977512956
 30
0.0
 10
499.7227511312386
 20
278.7049618608185
 30
0.0
 10
499.7391692269759
 20
278.7250481803182
 30
0.0
 10
499.7447593342033
 20
278.7318872609036
 30
0.0
  0
SPLINE
  5
158
330
1F
100
AcDbEntity
  8
0
  6
Continuous
 62
     7
370
    15
100
AcDbSpline
210
0.0
220
0.0
230
1.0
 70
     8
 71
     3
 72
     9
 73
     5
 74
     0
 42
0.00000001
 43
0.00000001
 12
1.0
 22
0.0
 32
0.0
 13
1.0
 23
0.0
 33
0.0
 40
0.0
 40
0.0
 40
0.0
 40
0.0
 40
0.499508131006155
 40
1.0
 40
1.0
 40
1.0
 40
1.0
 10
499.7447593342033
 20
278.7318872609036
 30
0.0
 10
499.9126785192526
 20
278.9889756514041
 30
0.0
 10
500.248847591638
 20
279.5036587457168
 30
0.0
 10
500.3027642641539
 20
280.0875460345426
 30
0.0
 10
500.3297491203513
 20
280.3797768750088
 30
0.0
  0
LINE
  5
159
330
1F
100
AcDbEntity
  8
0
  6
Continuous
 62
     7
370
    15
100
AcDbLine
 10
500.3297491204
 20
280.379776875
 30
0.0
 11
500.3297491204
 21
280.4704280891
 31
0.0
  0
LINE
  5
15A
330
1F
100
AcDbEntity
  8
0
  6
Continuous
 62
     7
370
    15
100
AcDbLine
 10
484.6696792375
 20
280.4704280891
 30
0.0
 11
484.6696792375
 21
280.379776875
 31
0.0
  0
SPLINE
  5
15B
330
1F
100
AcDbEntity
  8
0
  6
Continuous
 62
     7
370
    15
100
AcDbSpline
210
0.0
220
0.0
230
1.0
 70
     8
 71
     3
 72
    13
 73
     9
 74
     0
 42
0.00000001
 43
0.00000001
 12
1.0
 22
0.0
 32
0.0
 13
1.0
 23
0.0
 33
0.0
 40
0.0
 40
0.0
 40
0.0
 40
0.0
 40
0.030739829012858
 40
0.2652351974021648
 40
0.5002292591089388
 40
0.7352238067284516
 40
0.9697183903307804
 40
1.0
 40
1.0
 40
1.0
 40
1.0
 10
488.2098971139159
 20
276.2480164267914
 30
0.0
 10
488.2862206346805
 20
276.1974056054458
 30
0.0
 10
488.9447696489889
 20
275.7607157596864
 30
0.0
 10
490.4107506743418
 20
275.3426162533065
 30
0.0
 10
492.4998195606726
 20
275.0680729845021
 30
0.0
 10
494.5887766422814
 20
275.3427620685791
 30
0.0
 10
496.053628306102
 20
275.7601171148056
 30
0.0
 10
496.711057460052
 20
276.1960013426777
 30
0.0
 10
496.7862455378738
 20
276.245852033128
 30
0.0
  0
SPLINE
  5
15C
330
1F
100
AcDbEntity
  8
0
  6
Continuous
 62
     7
370
    15
100
AcDbSpline
210
0.0
220
0.0
230
1.0
 70
     8
 71
     3
 72
     9
 73
     5
 74
     0
 42
0.00000001
 43
0.00000001
 12
1.0
 22
0.0
 32
0.0
 13
1.0
 23
0.0
 33
0.0
 40
0.0
 40
0.0
 40
0.0
 40
0.0
 40
0.4999670524987103
 40
1.0
 40
1.0
 40
1.0
 40
1.0
 10
486.059674454805
 20
279.2554991640942
 30
0.0
 10
485.9476474494885
 20
279.4232430674647
 30
0.0
 10
485.723578673843
 20
279.7587529826326
 30
0.0
 10
485.6876478565278
 20
280.1448257206106
 30
0.0
 10
485.6696812640395
 20
280.3378748097317
 30
0.0
  0
SPLINE
  5
15D
330
1F
100
AcDbEntity
  8
0
  6
Continuous
 62
     7
370
    15
100
AcDbSpline
210
0.0
220
0.0
230
1.0
 70
     8
 71
     3
 72
    11
 73
     7
 74
     0
 42
0.00000001
 43
0.00000001
 12
1.0
 22
0.0
 32
0.0
 13
1.0
 23
0.0
 33
0.0
 40
0.0
 40
0.0
 40
0.0
 40
0.0
 40
0.2906878321492576
 40
0.5815763630643306
 40
0.8731190893240818
 40
1.0
 40
1.0
 40
1.0
 40
1.0
 10
498.939753903028
 20
279.2554991640942
 30
0.0
 10
498.5376959121026
 20
278.8063160120863
 30
0.0
 10
497.7333023385067
 20
277.9076395798359
 30
0.0
 10
496.1356919913281
 20
276.9256439074558
 30
0.0
 10
494.7109726311171
 20
276.3498000491124
 30
0.0
 10
493.8195537969959
 20
276.2745549721257
 30
0.0
 10
493.5492439399924
 20
276.2517379917996
 30
0.0
  0
SPLINE
  5
15E
330
1F
100
AcDbEntity
  8
0
  6
Continuous
 62
     7
370
    15
100
AcDbSpline
210
0.0
220
0.0
230
1.0
 70
     8
 71
     3
 72
    11
 73
     7
 74
     0
 42
0.00000001
 43
0.00000001
 12
1.0
 22
0.0
 32
0.0
 13
1.0
 23
0.0
 33
0.0
 40
0.0
 40
0.0
 40
0.0
 40
0.0
 40
0.1266481025811408
 40
0.4182728076307041
 40
0.7092352416931472
 40
1.0
 40
1.0
 40
1.0
 40
1.0
 10
491.4484260808196
 20
276.251942882766
 30
0.0
 10
491.1786909746922
 20
276.274724377536
 30
0.0
 10
490.2878536241349
 20
276.3499634027191
 30
0.0
 10
488.8636824000723
 20
276.9256539782861
 30
0.0
 10
487.2662350205972
 20
277.9077984614265
 30
0.0
 10
486.4617701887808
 20
278.8063673769443
 30
0.0
 10
486.0596744548049
 20
279.2554991640942
 30
0.0
  0
SPLINE
  5
15F
330
1F
100
AcDbEntity
  8
0
  6
Continuous
 62
     7
370
    15
100
AcDbSpline
210
0.0
220
0.0
230
1.0
 70
     8
 71
     3
 72
     9
 73
     5
 74
     0
 42
0.00000001
 43
0.00000001
 12
1.0
 22
0.0
 32
0.0
 13
1.0
 23
0.0
 33
0.0
 40
0.0
 40
0.0
 40
0.0
 40
0.0
 40
0.5000329475012897
 40
1.0
 40
1.0
 40
1.0
 40
1.0
 10
499.3297470937934
 20
280.3378748097317
 30
0.0
 10
499.3117805013052
 20
280.1448257206106
 30
0.0
 10
499.2758496839901
 20
279.7587529826325
 30
0.0
 10
499.0517809083445
 20
279.4232430674647
 30
0.0
 10
498.939753903028
 20
279.2554991640942
 30
0.0
  0
ARC
  5
160
330
1F
100
AcDbEntity
  8
0
  6
Continuous
 62
     7
370
    15
100
AcDbCircle
 10
492.4997141789
 20
288.0418715958
 30
0.0
 40
16.19357199864556
100
AcDbArc
 50
235.2479208031
 51
304.7520791969
  0
SPLINE
  5
161
330
1F
100
AcDbEntity
  8
0
  6
Continuous
 62
     7
370
    15
100
AcDbSpline
210
0.0
220
0.0
230
1.0
 70
     8
 71
     3
 72
     9
 73
     5
 74
     0
 42
0.00000001
 43
0.00000001
 12
1.0
 22
0.0
 32
0.0
 13
1.0
 23
0.0
 33
0.0
 40
0.0
 40
0.0
 40
0.0
 40
0.0
 40
0.4999817505852263
 40
1.0
 40
1.0
 40
1.0
 40
1.0
 10
499.3297470937935
 20
280.3797768750088
 30
0.0
 10
499.3117739630179
 20
280.1859507435669
 30
0.0
 10
499.2758263894224
 20
279.7982843313128
 30
0.0
 10
499.0517807909602
 20
279.4608596286198
 30
0.0
 10
498.939753903028
 20
279.2921411194699
 30
0.0
  0
SPLINE
  5
162
330
1F
100
AcDbEntity
  8
0
  6
Continuous
 62
     7
370
    15
100
AcDbSpline
210
0.0
220
0.0
230
1.0
 70
     8
 71
     3
 72
    15
 73
    11
 74
     0
 42
0.00000001
 43
0.00000001
 12
1.0
 22
0.0
 32
0.0
 13
1.0
 23
0.0
 33
0.0
 40
0.0
 40
0.0
 40
0.0
 40
0.0
 40
0.1249651273970171
 40
0.2499529570063416
 40
0.3749747118431395
 40
0.5000027437370634
 40
0.6250308628258413
 40
0.7500525617045959
 40
0.8750370150825194
 40
1.0
 40
1.0
 40
1.0
 40
1.0
 10
498.939753903028
 20
279.2921411194699
 30
0.0
 10
498.5375391093846
 20
278.8409197406316
 30
0.0
 10
497.7330364523875
 20
277.9383950102979
 30
0.0
 10
496.1394718117083
 20
276.9235211746089
 30
0.0
 10
494.3733465579411
 20
276.2751215392566
 30
0.0
 10
492.4996855589392
 20
276.0561911168215
 30
0.0
 10
490.6260374835
 20
276.2751398759887
 30
0.0
 10
488.8598977583251
 20
276.9235080885886
 30
0.0
 10
487.2665026464003
 20
277.9385593096272
 30
0.0
 10
486.4619274831735
 20
278.8409730195318
 30
0.0
 10
486.0596744548049
 20
279.2921411194699
 30
0.0
  0
SPLINE
  5
163
330
1F
100
AcDbEntity
  8
0
  6
Continuous
 62
     7
370
    15
100
AcDbSpline
210
0.0
220
0.0
230
1.0
 70
     8
 71
     3
 72
     9
 73
     5
 74
     0
 42
0.00000001
 43
0.00000001
 12
1.0
 22
0.0
 32
0.0
 13
1.0
 23
0.0
 33
0.0
 40
0.0
 40
0.0
 40
0.0
 40
0.0
 40
0.5000182494147738
 40
1.0
 40
1.0
 40
1.0
 40
1.0
 10
486.0596744548049
 20
279.2921411194699
 30
0.0
 10
485.9476475668728
 20
279.4608596286198
 30
0.0
 10
485.7236019684106
 20
279.7982843313128
 30
0.0
 10
485.6876543948151
 20
280.1859507435669
 30
0.0
 10
485.6696812640395
 20
280.3797768750088
 30
0.0
  0
LINE
  5
164
330
1F
100
AcDbEntity
  8
0
  6
Continuous
 62
     7
370
    15
100
AcDbLine
 10
485.669681264
 20
280.379776875
 30
0.0
 11
485.669681264
 21
280.4704280891
 31
0.0
  0
LINE
  5
165
330
1F
100
AcDbEntity
  8
0
  6
Continuous
 62
     7
370
    15
100
AcDbLine
 10
499.3297470938
 20
280.4704280891
 30
0.0
 11
499.3297470938
 21
280.379776875
 31
0.0
  0
LINE
  5
166
330
1F
100
AcDbEntity
  8
0
  6
Continuous
 62
     7
370
    15
100
AcDbLine
 10
486.0596744548
 20
279.2554991641
 30
0.0
 11
486.0596744548
 21
279.2921411195
 31
0.0
  0
LINE
  5
167
330
1F
100
AcDbEntity
  8
0
  6
Continuous
 62
     7
370
    15
100
AcDbLine
 10
498.939753903
 20
279.2554991641
 30
0.0
 11
498.939753903
 21
279.2921411195
 31
0.0
  0
LINE
  5
168
330
1F
100
AcDbEntity
  8
0
  6
Continuous
 62
     7
370
    15
100
AcDbLine
 10
485.669681264
 20
280.3378748097
 30
0.0
 11
485.669681264
 21
280.379776875
 31
0.0
  0
LINE
  5
169
330
1F
100
AcDbEntity
  8
0
  6
Continuous
 62
     7
370
    15
100
AcDbLine
 10
499.3297470938
 20
280.3378748097
 30
0.0
 11
499.3297470938
 21
280.379776875
 31
0.0
  0
LINE
  5
16A
330
1F
100
AcDbEntity
  8
0
  6
Continuous
 62
     7
370
    15
100
AcDbLine
 10
500.3297491204
 20
366.1473589339
 30
0.0
 11
500.3297491204
 21
371.6946887174
 31
0.0
  0
LINE
  5
16B
330
1F
100
AcDbEntity
  8
0
  6
Continuous
 62
     7
370
    15
100
AcDbLine
 10
500.3361789714
 20
280.4658087292
 30
0.0
 11
500.3361789714
 21
308.4994303384
 31
0.0
  0
LINE
  5
16C
330
1F
100
AcDbEntity
  8
0
  6
Continuous
 62
     7
370
    15
100
AcDbLine
 10
484.6632493864
 20
308.4994303384
 30
0.0
 11
484.6632493864
 21
280.4658087292
 31
0.0
  0
LINE
  5
16D
330
1F
100
AcDbEntity
  8
0
  6
Continuous
 62
     7
370
    15
100
AcDbLine
 10
484.6632493864
 20
371.7014389434
 30
0.0
 11
484.6632493864
 21
366.1456900039
 31
0.0
  0
LINE
  5
16E
330
1F
100
AcDbEntity
  8
0
  6
Continuous
 62
     7
370
    15
100
AcDbLine
 10
498.4997151624
 20
282.5808497467
 30
0.0
 11
498.4997151624
 21
302.5196241536
 31
0.0
  0
LINE
  5
16F
330
1F
100
AcDbEntity
  8
0
  6
Continuous
 62
     7
370
    15
100
AcDbLine
 10
486.4997131954
 20
302.5196241536
 30
0.0
 11
498.4997151624
 21
302.5196241536
 31
0.0
  0
LINE
  5
170
330
1F
100
AcDbEntity
  8
0
  6
Continuous
 62
     7
370
    15
100
AcDbLine
 10
486.4997131954
 20
282.5808497467
 30
0.0
 11
486.4997131954
 21
302.5196241536
 31
0.0
  0
LINE
  5
171
330
1F
100
AcDbEntity
  8
0
  6
Continuous
 62
     7
370
    15
100
AcDbLine
 10
486.4997131954
 20
282.5808497467
 30
0.0
 11
498.4997151624
 21
282.5808497467
 31
0.0
  0
LINE
  5
172
330
1F
100
AcDbEntity
  8
0
  6
Continuous
 62
     7
370
    15
100
AcDbLine
 10
485.669681264
 20
280.4725664058
 30
0.0
 11
485.669681264
 21
308.2881393232
 31
0.0
  0
LINE
  5
173
330
1F
100
AcDbEntity
  8
0
  6
Continuous
 62
     7
370
    15
100
AcDbLine
 10
499.3297470938
 20
308.2881393232
 30
0.0
 11
499.3297470938
 21
280.4725664058
 31
0.0
  0
LINE
  5
174
330
1F
100
AcDbEntity
  8
0
  6
Continuous
 62
     7
370
    15
100
AcDbLine
 10
500.3361789714
 20
280.423549036
 30
0.0
 11
500.3361789714
 21
280.4658087292
 31
0.0
  0
ARC
  5
175
330
1F
100
AcDbEntity
  8
0
  6
Continuous
 62
     7
370
    15
100
AcDbCircle
 10
500.7410671151
 20
276.190957345
 30
0.0
 40
1.758832067667842
100
AcDbArc
 50
304.2316429561
 51
359.1726541172
  0
ARC
  5
176
330
1F
100
AcDbEntity
  8
0
  6
Continuous
 62
     7
370
    15
100
AcDbCircle
 10
484.2583860279
 20
276.1909706892
 30
0.0
 40
1.758857042939575
100
AcDbArc
 50
180.8277688748
 51
235.7679340519
  0
LINE
  5
177
330
1F
100
AcDbEntity
  8
0
  6
Continuous
 62
     7
370
    15
100
AcDbLine
 10
482.4997125398
 20
303.8840862312
 30
0.0
 11
482.4997125398
 21
276.1655608513
 31
0.0
  0
LINE
  5
178
330
1F
100
AcDbEntity
  8
0
  6
Continuous
 62
     7
370
    15
100
AcDbLine
 10
502.499715818
 20
276.1655608513
 30
0.0
 11
502.499715818
 21
303.8840862312
 31
0.0
  0
LINE
  5
179
330
1F
100
AcDbEntity
  8
0
  6
Continuous
 62
     7
370
    15
100
AcDbLine
 10
486.4997131954
 20
302.5153996744
 30
0.0
 11
498.4997151624
 21
302.5153996744
 31
0.0
  0
LINE
  5
17A
330
1F
100
AcDbEntity
  8
0
  6
Continuous
 62
     7
370
    15
100
AcDbLine
 10
487.499715222
 20
283.482936243
 30
0.0
 11
497.4997131358
 21
283.482936243
 31
0.0
  0
LINE
  5
17B
330
1F
100
AcDbEntity
  8
0
  6
Continuous
 62
     7
370
    15
100
AcDbLine
 10
497.4997131358
 20
283.482936243
 30
0.0
 11
497.4997131358
 21
283.4871607222
 31
0.0
  0
LINE
  5
17C
330
1F
100
AcDbEntity
  8
0
  6
Continuous
 62
     7
370
    15
100
AcDbLine
 10
487.499715222
 20
283.4871607222
 30
0.0
 11
497.4997131358
 21
283.4871607222
 31
0.0
  0
LINE
  5
17D
330
1F
100
AcDbEntity
  8
0
  6
Continuous
 62
     7
370
    15
100
AcDbLine
 10
487.499715222
 20
283.482936243
 30
0.0
 11
487.499715222
 21
283.4871607222
 31
0.0
  0
LINE
  5
17E
330
1F
100
AcDbEntity
  8
0
  6
Continuous
 62
     7
370
    15
100
AcDbLine
 10
487.499715222
 20
301.6133131781
 30
0.0
 11
497.4997131358
 21
301.6133131781
 31
0.0
  0
LINE
  5
17F
330
1F
100
AcDbEntity
  8
0
  6
Continuous
 62
     7
370
    15
100
AcDbLine
 10
496.4997111093
 20
284.3934642472
 30
0.0
 11
496.4997111093
 21
300.7070096531
 31
0.0
  0
LINE
  5
180
330
1F
100
AcDbEntity
  8
0
  6
Continuous
 62
     7
370
    15
100
AcDbLine
 10
488.4997172486
 20
300.7070096531
 30
0.0
 11
496.4997111093
 21
300.7070096531
 31
0.0
  0
LINE
  5
181
330
1F
100
AcDbEntity
  8
0
  6
Continuous
 62
     7
370
    15
100
AcDbLine
 10
488.4997172486
 20
284.3934642472
 30
0.0
 11
488.4997172486
 21
300.7070096531
 31
0.0
  0
LINE
  5
182
330
1F
100
AcDbEntity
  8
0
  6
Continuous
 62
     7
370
    15
100
AcDbLine
 10
488.4997172486
 20
284.3934642472
 30
0.0
 11
496.4997111093
 21
284.3934642472
 31
0.0
  0
LINE
  5
183
330
1F
100
AcDbEntity
  8
0
  6
Continuous
 62
     7
370
    15
100
AcDbLine
 10
497.4997131358
 20
283.4871607222
 30
0.0
 11
497.4997131358
 21
301.6133131781
 31
0.0
  0
LINE
  5
184
330
1F
100
AcDbEntity
  8
0
  6
Continuous
 62
     7
370
    15
100
AcDbLine
 10
487.499715222
 20
283.4871607222
 30
0.0
 11
487.499715222
 21
301.6133131781
 31
0.0
  0
LINE
  5
185
330
1F
100
AcDbEntity
  8
0
  6
Continuous
 62
     7
370
    15
100
AcDbLine
 10
488.4997172486
 20
300.7027777233
 30
0.0
 11
496.4997111093
 21
300.7027777233
 31
0.0
  0
SPLINE
  5
186
330
1F
100
AcDbEntity
  8
0
  6
Continuous
 62
     7
370
    15
100
AcDbSpline
210
0.0
220
0.0
230
1.0
 70
     8
 71
     3
 72
    11
 73
     7
 74
     0
 42
0.00000001
 43
0.00000001
 12
1.0
 22
0.0
 32
0.0
 13
1.0
 23
0.0
 33
0.0
 40
0.0
 40
0.0
 40
0.0
 40
0.0
 40
0.2842288221531349
 40
0.568469051766668
 40
0.8525167765559454
 40
1.0
 40
1.0
 40
1.0
 40
1.0
 10
503.7481053005424
 20
305.5621581473248
 30
0.0
 10
503.5479899737713
 20
305.4672818982162
 30
0.0
 10
503.1477512886449
 20
305.2775255921622
 30
0.0
 10
502.7250138334684
 20
304.7853529659307
 30
0.0
 10
502.5234988864855
 20
304.2974013573859
 30
0.0
 10
502.5057737070713
 20
303.9893635285427
 30
0.0
 10
502.4997158180442
 20
303.8840862312214
 30
0.0
  0
SPLINE
  5
187
330
1F
100
AcDbEntity
  8
0
  6
Continuous
 62
     7
370
    15
100
AcDbSpline
210
0.0
220
0.0
230
1.0
 70
     8
 71
     3
 72
    11
 73
     7
 74
     0
 42
0.00000001
 43
0.00000001
 12
1.0
 22
0.0
 32
0.0
 13
1.0
 23
0.0
 33
0.0
 40
0.0
 40
0.0
 40
0.0
 40
0.0
 40
0.2842290490911716
 40
0.5684693986999907
 40
0.8525162068486926
 40
1.0
 40
1.0
 40
1.0
 40
1.0
 10
482.4997125397887
 20
303.8840862312214
 30
0.0
 10
482.4776982935252
 20
304.087794623863
 30
0.0
 10
482.4336689257448
 20
304.4952195082842
 30
0.0
 10
482.0887448201714
 20
305.0349404613899
 30
0.0
 10
481.6651822189402
 20
305.3872033803154
 30
0.0
 10
481.35673929491
 20
305.5175945010395
 30
0.0
 10
481.2513230572906
 20
305.5621581473248
 30
0.0
  0
ARC
  5
188
330
1F
100
AcDbEntity
  8
0
  6
Continuous
 62
     7
370
    15
100
AcDbCircle
 10
494.6630570738
 20
332.1612213515
 30
0.0
 40
28.10779722111245
100
AcDbArc
 50
288.8578681577
 51
342.6279125914
  0
ARC
  5
189
330
1F
100
AcDbEntity
  8
0
  6
Continuous
 62
     7
370
    15
100
AcDbCircle
 10
490.4108548132
 20
332.2337870005
 30
0.0
 40
28.20058169030273
100
AcDbArc
 50
197.4676167901
 51
251.0465784063
  0
LINE
  5
18A
330
1F
100
AcDbEntity
  8
0
  6
Continuous
 62
     7
370
    15
100
AcDbLine
 10
485.669681264
 20
366.395850698
 30
0.0
 11
485.669681264
 21
371.6946887174
 31
0.0
  0
LINE
  5
18B
330
1F
100
AcDbEntity
  8
0
  6
Continuous
 62
     7
370
    15
100
AcDbLine
 10
499.3297470938
 20
371.6946887174
 30
0.0
 11
499.3297470938
 21
366.395850698
 31
0.0
  0
LWPOLYLINE
  5
18C
330
1F
100
AcDbEntity
  8
0
  6
Continuous
 62
     7
370
    15
100
AcDbPolyline
 90
       11
 70
   128
 43
0.0
 10
495.497697426
 20
367.2209279933
 10
495.4541413318
 20
367.7927600541
 10
495.0977875124
 20
368.6800944009
 10
494.4280771743
 20
369.4034414687
 10
493.5257746111
 20
369.8755847611
 10
492.4997179042
 20
370.0395571389
 10
491.4736537467
 20
369.8755847611
 10
490.5713511835
 20
369.4034414687
 10
489.9016408454
 20
368.6800944009
 10
489.5452944766
 20
367.7927600541
 10
489.5017309319
 20
367.2209279933
  0
LINE
  5
18D
330
1F
100
AcDbEntity
  8
0
  6
Continuous
 62
     7
370
    15
100
AcDbLine
 10
484.6696792375
 20
371.6591792502
 30
0.0
 11
484.6632493864
 21
371.6591792502
 31
0.0
  0
LINE
  5
18E
330
1F
100
AcDbEntity
  8
0
  6
Continuous
 62
     7
370
    15
100
AcDbLine
 10
482.4997125398
 20
374.2706226506
 30
0.0
 11
482.4997125398
 21
365.4990988173
 31
0.0
  0
LINE
  5
18F
330
1F
100
AcDbEntity
  8
0
  6
Continuous
 62
     7
370
    15
100
AcDbLine
 10
502.499715818
 20
365.4990988173
 30
0.0
 11
502.499715818
 21
374.2706226506
 31
0.0
  0
LWPOLYLINE
  5
190
330
1F
100
AcDbEntity
  8
0
  6
Continuous
 62
     7
370
    15
100
AcDbPolyline
 90
       11
 70
   128
 43
0.0
 10
495.4997165333
 20
367.2783719697
 10
495.4541413318
 20
367.750500361
 10
495.0977875124
 20
368.6378347077
 10
494.4280771743
 20
369.3611817756
 10
493.5257746111
 20
369.833325068
 10
492.4997179042
 20
369.9972974458
 10
491.4736537467
 20
369.833325068
 10
490.5713511835
 20
369.3611817756
 10
489.9016408454
 20
368.6378347077
 10
489.5452944766
 20
367.750500361
 10
489.4997118245
 20
367.2783719697
  0
LINE
  5
191
330
1F
100
AcDbEntity
  8
0
  6
Continuous
 62
     7
370
    15
100
AcDbLine
 10
497.3297430407
 20
376.3123946586
 30
0.0
 11
487.6696853172
 21
376.3123946586
 31
0.0
  0
SPLINE
  5
192
330
1F
100
AcDbEntity
  8
0
  6
Continuous
 62
     7
370
    15
100
AcDbSpline
210
0.0
220
0.0
230
1.0
 70
     8
 71
     3
 72
    13
 73
     9
 74
     0
 42
0.00000001
 43
0.00000001
 12
1.0
 22
0.0
 32
0.0
 13
1.0
 23
0.0
 33
0.0
 40
0.0
 40
0.0
 40
0.0
 40
0.0
 40
0.2493994933843844
 40
0.4988177485003472
 40
0.6241393573557874
 40
0.7493977129591973
 40
0.8746756049105819
 40
1.0
 40
1.0
 40
1.0
 40
1.0
 10
487.6696853171554
 20
376.3123946585553
 30
0.0
 10
487.2775858321068
 20
376.3006038495969
 30
0.0
 10
486.4933573652964
 20
376.2770213446857
 30
0.0
 10
485.6599332309997
 20
376.0742380362447
 30
0.0
 10
485.1606559725048
 20
375.7825396053622
 30
0.0
 10
484.8829958316477
 20
375.4854728224553
 30
0.0
 10
484.7034517513466
 20
375.1180860114135
 30
0.0
 10
484.6809381346868
 20
374.8286905450552
 30
0.0
 10
484.6696792374816
 20
374.6839659609692
 30
0.0
  0
LINE
  5
193
330
1F
100
AcDbEntity
  8
0
  6
Continuous
 62
     7
370
    15
100
AcDbLine
 10
484.6696792375
 20
374.683965961
 30
0.0
 11
484.6696792375
 21
371.6968195834
 31
0.0
  0
SPLINE
  5
194
330
1F
100
AcDbEntity
  8
0
  6
Continuous
 62
     7
370
    15
100
AcDbSpline
210
0.0
220
0.0
230
1.0
 70
     8
 71
     3
 72
    13
 73
     9
 74
     0
 42
0.00000001
 43
0.00000001
 12
1.0
 22
0.0
 32
0.0
 13
1.0
 23
0.0
 33
0.0
 40
0.0
 40
0.0
 40
0.0
 40
0.0
 40
0.1252412147977426
 40
0.2505129234157804
 40
0.3758035377387854
 40
0.5011263779602919
 40
0.7505495579883421
 40
0.9999999999999999
 40
0.9999999999999999
 40
0.9999999999999999
 40
0.9999999999999999
 10
500.3297491203513
 20
374.6839659609692
 30
0.0
 10
500.3185071089826
 20
374.8285946389695
 30
0.0
 10
500.2960203490322
 20
375.117887209264
 30
0.0
 10
500.1165780188782
 20
375.4852709173836
 30
0.0
 10
499.8389526561349
 20
375.7824041354194
 30
0.0
 10
499.3396931499392
 20
376.0741581772718
 30
0.0
 10
498.5062408342037
 20
376.2770146083524
 30
0.0
 10
497.7219232587398
 20
376.3006008788474
 30
0.0
 10
497.3297430406776
 20
376.3123946585553
 30
0.0
  0
LINE
  5
195
330
1F
100
AcDbEntity
  8
0
  6
Continuous
 62
     7
370
    15
100
AcDbLine
 10
500.3297491204
 20
371.6968195834
 30
0.0
 11
500.3297491204
 21
374.683965961
 31
0.0
  0
SPLINE
  5
196
330
1F
100
AcDbEntity
  8
0
  6
Continuous
 62
     7
370
    15
100
AcDbSpline
210
0.0
220
0.0
230
1.0
 70
     8
 71
     3
 72
    10
 73
     6
 74
     0
 42
0.00000001
 43
0.00000001
 12
1.0
 22
0.0
 32
0.0
 13
1.0
 23
0.0
 33
0.0
 40
0.0
 40
0.0
 40
0.0
 40
0.0
 40
0.3852710012898862
 40
0.8904041370032827
 40
1.0
 40
1.0
 40
1.0
 40
1.0
 10
502.4466974865165
 20
374.6142732300656
 30
0.0
 10
502.4614546195696
 20
374.5743911081453
 30
0.0
 10
502.4955599954656
 20
374.4822190883684
 30
0.0
 10
502.4959628419354
 20
374.371670098013
 30
0.0
 10
502.496821007812
 20
374.3046666609256
 30
0.0
 10
502.4969740043845
 20
374.2927210726635
 30
0.0
  0
SPLINE
  5
197
330
1F
100
AcDbEntity
  8
0
  6
Continuous
 62
     7
370
    15
100
AcDbSpline
210
0.0
220
0.0
230
1.0
 70
     8
 71
     3
 72
     9
 73
     5
 74
     0
 42
0.00000001
 43
0.00000001
 12
1.0
 22
0.0
 32
0.0
 13
1.0
 23
0.0
 33
0.0
 40
0.0
 40
0.0
 40
0.0
 40
0.0
 40
0.109315434809125
 40
0.9999999999999999
 40
0.9999999999999999
 40
0.9999999999999999
 40
0.9999999999999999
 10
482.5024543534484
 20
374.2927210726635
 30
0.0
 10
482.5024746432427
 20
374.3046897275144
 30
0.0
 10
482.5026602510144
 20
374.4141770553725
 30
0.0
 10
482.5345378398247
 20
374.5204116635202
 30
0.0
 10
482.5629307161536
 20
374.6150331892865
 30
0.0
  0
LINE
  5
198
330
1F
100
AcDbEntity
  8
0
  6
Continuous
 62
     7
370
    15
100
AcDbLine
 10
484.6696792375
 20
371.7014389434
 30
0.0
 11
484.6696792375
 21
371.6591792502
 31
0.0
  0
SPLINE
  5
199
330
1F
100
AcDbEntity
  8
0
  6
Continuous
 62
     7
370
    15
100
AcDbSpline
210
0.0
220
0.0
230
1.0
 70
     8
 71
     3
 72
    13
 73
     9
 74
     0
 42
0.00000001
 43
0.00000001
 12
1.0
 22
0.0
 32
0.0
 13
1.0
 23
0.0
 33
0.0
 40
0.0
 40
0.0
 40
0.0
 40
0.0
 40
0.1254639892992143
 40
0.2502424622237912
 40
0.376069082988214
 40
0.5019119688744504
 40
0.750829510287173
 40
1.0
 40
1.0
 40
1.0
 40
1.0
 10
485.6696812640395
 20
374.6839659609692
 30
0.0
 10
485.6770249159748
 20
374.7812359698054
 30
0.0
 10
485.6916720952351
 20
374.9752445187738
 30
0.0
 10
485.8119041739566
 20
375.2346405820933
 30
0.0
 10
485.9976330931466
 20
375.4581253721846
 30
0.0
 10
486.3310559370959
 20
375.6965770535873
 30
0.0
 10
486.8867137929781
 20
375.894145913643
 30
0.0
 10
487.4086064633585
 20
375.9211144185374
 30
0.0
 10
487.6696853171554
 20
375.9346055188076
 30
0.0
  0
LINE
  5
19A
330
1F
100
AcDbEntity
  8
0
  6
Continuous
 62
     7
370
    15
100
AcDbLine
 10
487.6696853172
 20
375.9346055188
 30
0.0
 11
497.3297430407
 21
375.9346055188
 31
0.0
  0
SPLINE
  5
19B
330
1F
100
AcDbEntity
  8
0
  6
Continuous
 62
     7
370
    15
100
AcDbSpline
210
0.0
220
0.0
230
1.0
 70
     8
 71
     3
 72
    13
 73
     9
 74
     0
 42
0.00000001
 43
0.00000001
 12
1.0
 22
0.0
 32
0.0
 13
1.0
 23
0.0
 33
0.0
 40
0.0
 40
0.0
 40
0.0
 40
0.0
 40
0.2497356072341937
 40
0.4987715028669448
 40
0.6241113378414453
 40
0.7493643296632579
 40
0.8741825132207645
 40
1.0
 40
1.0
 40
1.0
 40
1.0
 10
497.3297430406776
 20
375.9346055188076
 30
0.0
 10
497.5914067439477
 20
375.9210567953766
 30
0.0
 10
498.1140010186335
 20
375.8939973094567
 30
0.0
 10
498.6695348166426
 20
375.6960472011352
 30
0.0
 10
499.0018475126125
 20
375.4577737316768
 30
0.0
 10
499.1873914849414
 20
375.235053834088
 30
0.0
 10
499.3070936217455
 20
374.9757509547887
 30
0.0
 10
499.3221758917301
 20
374.781485808813
 30
0.0
 10
499.3297470937934
 20
374.6839659609692
 30
0.0
  0
LINE
  5
19C
330
1F
100
AcDbEntity
  8
0
  6
Continuous
 62
     7
370
    15
100
AcDbLine
 10
499.3297470938
 20
374.683965961
 30
0.0
 11
499.3297470938
 21
371.6968195834
 31
0.0
  0
LINE
  5
19D
330
1F
100
AcDbEntity
  8
0
  6
Continuous
 62
     7
370
    15
100
AcDbLine
 10
485.669681264
 20
371.6968195834
 30
0.0
 11
485.669681264
 21
374.683965961
 31
0.0
  0
SPLINE
  5
19E
330
1F
100
AcDbEntity
  8
0
  6
Continuous
 62
     7
370
    15
100
AcDbSpline
210
0.0
220
0.0
230
1.0
 70
     8
 71
     3
 72
    13
 73
     9
 74
     0
 42
0.00000001
 43
0.00000001
 12
1.0
 22
0.0
 32
0.0
 13
1.0
 23
0.0
 33
0.0
 40
0.0
 40
0.0
 40
0.0
 40
0.0
 40
0.2515860173933182
 40
0.5017848448957927
 40
0.6267341123433129
 40
0.7512384616307517
 40
0.8755682510156677
 40
1.0
 40
1.0
 40
1.0
 40
1.0
 10
487.6696853171554
 20
376.21659509324
 30
0.0
 10
487.277866617144
 20
376.2050626331867
 30
0.0
 10
486.4963896191392
 20
376.182061300525
 30
0.0
 10
485.6617664723847
 20
375.9839205979696
 30
0.0
 10
485.1610039322683
 20
375.6976703501758
 30
0.0
 10
484.8829651753861
 20
375.4063326497883
 30
0.0
 10
484.7033319241759
 20
375.0453025630586
 30
0.0
 10
484.680899864447
 20
374.760640972393
 30
0.0
 10
484.6696792374816
 20
374.6182518401043
 30
0.0
  0
LINE
  5
19F
330
1F
100
AcDbEntity
  8
0
  6
Continuous
 62
     7
370
    15
100
AcDbLine
 10
497.3297430407
 20
376.2165950932
 30
0.0
 11
487.6696853172
 21
376.2165950932
 31
0.0
  0
SPLINE
  5
1A0
330
1F
100
AcDbEntity
  8
0
  6
Continuous
 62
     7
370
    15
100
AcDbSpline
210
0.0
220
0.0
230
1.0
 70
     8
 71
     3
 72
    13
 73
     9
 74
     0
 42
0.00000001
 43
0.00000001
 12
1.0
 22
0.0
 32
0.0
 13
1.0
 23
0.0
 33
0.0
 40
0.0
 40
0.0
 40
0.0
 40
0.0
 40
0.1244317102709182
 40
0.2487614609741418
 40
0.373265771525579
 40
0.4982139686003362
 40
0.7484140608805452
 40
1.0
 40
1.0
 40
1.0
 40
1.0
 10
500.3297491203513
 20
374.6182518401043
 30
0.0
 10
500.3185284620034
 20
374.7606409601343
 30
0.0
 10
500.2960963395352
 20
375.0453025262926
 30
0.0
 10
500.1164635587949
 20
375.4063327967971
 30
0.0
 10
499.8384237771608
 20
375.6976689932021
 30
0.0
 10
499.3376704293601
 20
375.9839233499226
 30
0.0
 10
498.5030387897839
 20
376.1820601692453
 30
0.0
 10
497.7215610594716
 20
376.2050622759523
 30
0.0
 10
497.3297430406776
 20
376.21659509324
 30
0.0
  0
LINE
  5
1A1
330
1F
100
AcDbEntity
  8
0
  6
Continuous
 62
     7
370
    15
100
AcDbLine
 10
482.5123859774
 20
374.4743364253
 30
0.0
 11
482.4997125398
 21
374.2706226506
 31
0.0
  0
LINE
  5
1A2
330
1F
100
AcDbEntity
  8
0
  6
Continuous
 62
     7
370
    15
100
AcDbLine
 10
502.499715818
 20
374.2706226506
 30
0.0
 11
502.4870423804
 21
374.4743364253
 31
0.0
  0
SPLINE
  5
1A3
330
1F
100
AcDbEntity
  8
0
  6
Continuous
 62
     7
370
    15
100
AcDbSpline
210
0.0
220
0.0
230
1.0
 70
     8
 71
     3
 72
    11
 73
     7
 74
     0
 42
0.00000001
 43
0.00000001
 12
1.0
 22
0.0
 32
0.0
 13
1.0
 23
0.0
 33
0.0
 40
0.0
 40
0.0
 40
0.0
 40
0.0
 40
0.3704673948991878
 40
0.7442709682075241
 40
0.9442825662305794
 40
1.0
 40
1.0
 40
1.0
 40
1.0
 10
508.284860683557
 20
319.8055001296894
 30
0.0
 10
508.2894490092331
 20
319.8084264687807
 30
0.0
 10
508.298666979938
 20
319.8143054995907
 30
0.0
 10
508.3093127966337
 20
319.8241566034691
 30
0.0
 10
508.3143513806899
 20
319.8321037434317
 30
0.0
 10
508.31556773226
 20
319.8354031513633
 30
0.0
 10
508.3158327470985
 20
319.8361220159428
 30
0.0
  0
ARC
  5
1A4
330
1F
100
AcDbEntity
  8
0
  6
Continuous
 62
     7
370
    15
100
AcDbCircle
 10
492.5003214494
 20
346.3393895197
 30
0.0
 40
30.87392046689398
100
AcDbArc
 50
239.0584386157
 51
300.7476617467
  0
SPLINE
  5
1A5
330
1F
100
AcDbEntity
  8
0
  6
Continuous
 62
     7
370
    15
100
AcDbSpline
210
0.0
220
0.0
230
1.0
 70
     8
 71
     3
 72
    10
 73
     6
 74
     0
 42
0.00000001
 43
0.00000001
 12
1.0
 22
0.0
 32
0.0
 13
1.0
 23
0.0
 33
0.0
 40
0.0
 40
0.0
 40
0.0
 40
0.0
 40
0.2117753876973723
 40
0.4878934236643069
 40
1.0
 40
1.0
 40
1.0
 40
1.0
 10
476.5952019225326
 20
319.889795998563
 30
0.0
 10
476.5964494502869
 20
319.8870550058783
 30
0.0
 10
476.599323535863
 20
319.8807402385216
 30
0.0
 10
476.6100514466698
 20
319.8695536671242
 30
0.0
 10
476.6197657694351
 20
319.8631986409003
 30
0.0
 10
476.6260771285262
 20
319.8590698041813
 30
0.0
  0
LINE
  5
1A6
330
1F
100
AcDbEntity
  8
0
  6
Continuous
 62
     7
370
    15
100
AcDbLine
 10
504.092821313
 20
335.3725420632
 30
0.0
 11
504.0867937933
 21
335.402888278
 31
0.0
  0
LINE
  5
1A7
330
1F
100
AcDbEntity
  8
0
  6
Continuous
 62
     7
370
    15
100
AcDbLine
 10
504.0742619168
 20
335.4455577531
 30
0.0
 11
506.5531967412
 21
322.4510224857
 31
0.0
  0
LINE
  5
1A8
330
1F
100
AcDbEntity
  8
0
  6
Continuous
 62
     7
370
    15
100
AcDbLine
 10
478.3634854685
 20
322.4987211027
 30
0.0
 11
480.8679608833
 21
335.4848223128
 31
0.0
  0
LINE
  5
1A9
330
1F
100
AcDbEntity
  8
0
  6
Continuous
 62
     7
370
    15
100
AcDbLine
 10
480.8488054405
 20
335.4105698266
 30
0.0
 11
480.8550564777
 21
335.4415940442
 31
0.0
  0
ARC
  5
1AA
330
1F
100
AcDbEntity
  8
0
  6
Continuous
 62
     7
370
    15
100
AcDbCircle
 10
552.9093136959
 20
349.2284780167
 30
0.0
 40
50.74279429895188
100
AcDbArc
 50
164.0030387047
 51
195.7608796789
  0
ARC
  5
1AB
330
1F
100
AcDbEntity
  8
0
  6
Continuous
 62
     7
370
    15
100
AcDbCircle
 10
553.0125949062
 20
342.4194119821
 30
0.0
 40
50.5670459920254
100
AcDbArc
 50
166.8405674895
 51
178.4924642886
  0
ARC
  5
1AC
330
1F
100
AcDbEntity
  8
0
  6
Continuous
 62
     7
370
    15
100
AcDbCircle
 10
432.0900255238
 20
349.4688526074
 30
0.0
 40
50.74288207430131
100
AcDbArc
 50
344.0030582146
 51
15.7608602957
  0
ARC
  5
1AD
330
1F
100
AcDbEntity
  8
0
  6
Continuous
 62
     7
370
    15
100
AcDbCircle
 10
431.9678306299
 20
342.6585104145
 30
0.0
 40
50.58609101300961
100
AcDbArc
 50
1.5090679095
 51
13.693376183
  0
ARC
  5
1AE
330
1F
100
AcDbEntity
  8
0
  6
Continuous
 62
     7
370
    15
100
AcDbCircle
 10
492.4681758724
 20
334.4756471722
 30
0.0
 40
1.504709918660434
100
AcDbArc
 50
184.4369132301
 51
355.3692802484
  0
LINE
  5
1AF
330
1F
100
AcDbEntity
  8
0
  6
Continuous
 62
     7
370
    15
100
AcDbLine
 10
493.9679740201
 20
334.3541669049
 30
0.0
 11
494.0347982775
 21
366.7941736379
 31
0.0
  0
LINE
  5
1B0
330
1F
100
AcDbEntity
  8
0
  6
Continuous
 62
     7
370
    15
100
AcDbLine
 10
491.034807099
 20
366.7992400327
 30
0.0
 11
490.967975391
 21
334.3592407503
 31
0.0
  0
LINE
  5
1B1
330
1F
100
AcDbEntity
  8
0
  6
Continuous
 62
     7
370
    15
100
AcDbLine
 10
491.0369752179
 20
366.964836637
 30
0.0
 11
491.0376457702
 21
367.3606561818
 31
0.0
  0
SPLINE
  5
1B2
330
1F
100
AcDbEntity
  8
0
  6
Continuous
 62
     7
370
    15
100
AcDbSpline
210
0.0
220
0.0
230
1.0
 70
     8
 71
     3
 72
    10
 73
     6
 74
     0
 42
0.00000001
 43
0.00000001
 12
1.0
 22
0.0
 32
0.0
 13
1.0
 23
0.0
 33
0.0
 40
0.0
 40
0.0
 40
0.0
 40
0.0
 40
0.4356568565381216
 40
0.7942814396528393
 40
0.9999999999999999
 40
0.9999999999999999
 40
0.9999999999999999
 40
0.9999999999999999
 10
491.0368262063232
 20
366.8951588072674
 30
0.0
 10
491.0368489146762
 20
366.9037069377817
 30
0.0
 10
491.0368903161211
 20
366.9192917295953
 30
0.0
 10
491.0369379633735
 20
366.9440909689898
 30
0.0
 10
491.0369652655446
 20
366.9592945240371
 30
0.0
 10
491.0369752179351
 20
366.9648366370099
 30
0.0
  0
LWPOLYLINE
  5
1B3
330
1F
100
AcDbEntity
  8
0
  6
Continuous
 62
     7
370
    15
100
AcDbPolyline
 90
        7
 70
   128
 43
0.0
 10
491.0331679713
 20
365.7943504252
 10
491.0338087212
 20
366.0903172889
 10
491.0344196688
 20
366.3530247607
 10
491.0350008141
 20
366.5748434462
 10
491.0355298053
 20
366.7492764392
 10
491.0359842907
 20
366.8712573447
 10
491.0360364448
 20
366.8821500935
  0
SPLINE
  5
1B4
330
1F
100
AcDbEntity
  8
0
  6
Continuous
 62
     7
370
    15
100
AcDbSpline
210
0.0
220
0.0
230
1.0
 70
     8
 71
     3
 72
    11
 73
     7
 74
     0
 42
0.00000001
 43
0.00000001
 12
1.0
 22
0.0
 32
0.0
 13
1.0
 23
0.0
 33
0.0
 40
0.0
 40
0.0
 40
0.0
 40
0.0
 40
0.293314063309663
 40
0.5866011587358256
 40
0.8804974123459774
 40
1.0
 40
1.0
 40
1.0
 40
1.0
 10
491.0365132819381
 20
367.3790442147152
 30
0.0
 10
491.0364086305734
 20
367.3693735483786
 30
0.0
 10
491.0361993374658
 20
367.3500331048457
 30
0.0
 10
491.0356677189725
 20
367.1808167538787
 30
0.0
 10
491.0351849792727
 20
366.9802335151776
 30
0.0
 10
491.0348918382412
 20
366.8398276316731
 30
0.0
 10
491.0348070989814
 20
366.7992400326626
 30
0.0
  0
LINE
  5
1B5
330
1F
100
AcDbEntity
  8
0
  6
Continuous
 62
     7
370
    15
100
AcDbLine
 10
491.0376457702
 20
367.3606561818
 30
0.0
 11
491.0365132819
 21
367.3790442147
 31
0.0
  0
LWPOLYLINE
  5
1B6
330
1F
100
AcDbEntity
  8
0
  6
Continuous
 62
     7
370
    15
100
AcDbPolyline
 90
       51
 70
   128
 43
0.0
 10
509.2040313612
 20
362.3519437709
 10
511.6517929565
 20
360.882584969
 10
514.2915113102
 20
358.9378493228
 10
516.6924832593
 20
356.7536967196
 10
518.8283859025
 20
354.3540584245
 10
520.6758244168
 20
351.7652051844
 10
522.2145630251
 20
349.0155237117
 10
523.4277410637
 20
346.1351441541
 10
524.3020666968
 20
343.1555973687
 10
524.8279584776
 20
340.1095467009
 10
524.999664558
 20
337.0303633013
 10
524.8152775894
 20
333.9517833986
 10
524.2768390309
 20
330.9075357714
 10
523.3902497421
 20
327.9309766688
 10
522.1652103792
 20
325.0547098317
 10
520.6151468884
 20
322.3102586665
 10
518.7570540439
 20
319.7276862659
 10
516.6112793814
 20
317.3352824845
 10
514.2013294827
 20
315.1592659154
 10
511.5536092054
 20
313.2234784164
 10
508.6971385609
 20
311.54912434
 10
505.6632025372
 20
310.1545544662
 10
502.4850381743
 20
309.0550424852
 10
499.1974769365
 20
308.2626359858
 10
495.8365349303
 20
307.7860148945
 10
492.4390329252
 20
307.6304095187
 10
489.0422014724
 20
307.7975111403
 10
485.6832413207
 20
308.2855018177
 10
482.3989732395
 20
309.0890320339
 10
479.2253611814
 20
310.1992877521
 10
476.197191907
 20
311.6041170754
 10
473.3476354014
 20
313.2881271043
 10
470.7079170476
 20
315.2328627505
 10
468.3069450985
 20
317.4170153537
 10
466.1710424553
 20
319.8166610994
 10
464.3235964905
 20
322.4055068889
 10
462.7848578821
 20
325.1551883616
 10
461.5716798435
 20
328.0355828204
 10
460.6973542105
 20
331.0151221552
 10
460.1714698802
 20
334.0611728229
 10
459.9997712504
 20
337.1403562226
 10
460.1841507684
 20
340.2189286747
 10
460.722589327
 20
343.2631837525
 10
461.6091786157
 20
346.2397354045
 10
462.8342179786
 20
349.1160022416
 10
464.3842740189
 20
351.8604534068
 10
466.2423743139
 20
354.443033258
 10
468.3881489764
 20
356.8354295888
 10
470.7980988752
 20
359.0114461579
 10
473.4458191525
 20
360.9472411075
 10
475.7953969966
 20
362.3519437709
  0
ARC
  5
1B7
330
1F
100
AcDbEntity
  8
0
  6
Continuous
 62
     7
370
    15
100
AcDbCircle
 10
495.759475641
 20
340.4808777416
 30
0.0
 40
25.56543963492593
100
AcDbArc
 50
11.1600627046
 51
55.2783295147
  0
SPLINE
  5
1B8
330
1F
100
AcDbEntity
  8
0
  6
Continuous
 62
     7
370
    15
100
AcDbSpline
210
0.0
220
0.0
230
1.0
 70
     8
 71
     3
 72
     9
 73
     5
 74
     0
 42
0.00000001
 43
0.00000001
 12
1.0
 22
0.0
 32
0.0
 13
1.0
 23
0.0
 33
0.0
 40
0.0
 40
0.0
 40
0.0
 40
0.0
 40
0.4790300236506729
 40
1.0
 40
1.0
 40
1.0
 40
1.0
 10
508.3733512293067
 20
362.7640204825299
 30
0.0
 10
508.6868506142505
 20
362.5732937600879
 30
0.0
 10
509.3412968273598
 20
362.1751418426186
 30
0.0
 10
509.9856282173619
 20
361.7272064126981
 30
0.0
 10
510.3213055263724
 20
361.4938455023663
 30
0.0
  0
ARC
  5
1B9
330
1F
100
AcDbEntity
  8
0
  6
Continuous
 62
     7
370
    15
100
AcDbCircle
 10
492.1654276213
 20
337.0758499636
 30
0.0
 40
30.02276238601725
100
AcDbArc
 50
103.7517616711
 51
120.9732738441
  0
ARC
  5
1BA
330
1F
100
AcDbEntity
  8
0
  6
Continuous
 62
     7
370
    15
100
AcDbCircle
 10
492.8398559884
 20
337.0918460241
 30
0.0
 40
30.00583303003436
100
AcDbArc
 50
58.8230725248
 51
76.2518375114
  0
SPLINE
  5
1BB
330
1F
100
AcDbEntity
  8
0
  6
Continuous
 62
     7
370
    15
100
AcDbSpline
210
0.0
220
0.0
230
1.0
 70
     8
 71
     3
 72
     9
 73
     5
 74
     0
 42
0.00000001
 43
0.00000001
 12
1.0
 22
0.0
 32
0.0
 13
1.0
 23
0.0
 33
0.0
 40
0.0
 40
0.0
 40
0.0
 40
0.0
 40
0.5209759581054908
 40
1.0
 40
1.0
 40
1.0
 40
1.0
 10
474.7624932061401
 20
361.5540163912671
 30
0.0
 10
475.0990828723395
 20
361.7862434182245
 30
0.0
 10
475.7451581104817
 20
362.23199724495
 30
0.0
 10
476.400596789188
 20
362.6279292213645
 30
0.0
 10
476.7145676742759
 20
362.8175901570218
 30
0.0
  0
ARC
  5
1BC
330
1F
100
AcDbEntity
  8
0
  6
Continuous
 62
     7
370
    15
100
AcDbCircle
 10
489.4319552273
 20
340.3697886028
 30
0.0
 40
25.76751099702341
100
AcDbArc
 50
124.7014757504
 51
170.0882350856
  0
SPLINE
  5
1BD
330
1F
100
AcDbEntity
  8
0
  6
Continuous
 62
     7
370
    15
100
AcDbSpline
210
0.0
220
0.0
230
1.0
 70
     8
 71
     3
 72
    10
 73
     6
 74
     0
 42
0.00000001
 43
0.00000001
 12
1.0
 22
0.0
 32
0.0
 13
1.0
 23
0.0
 33
0.0
 40
0.0
 40
0.0
 40
0.0
 40
0.0
 40
0.3765544503042326
 40
0.7531099001546235
 40
1.0
 40
1.0
 40
1.0
 40
1.0
 10
521.6285450588432
 20
333.1487076678173
 30
0.0
 10
521.5560414208717
 20
333.0164340699665
 30
0.0
 10
521.4110339524709
 20
332.7518865231507
 30
0.0
 10
521.1671169230345
 20
332.5625983016192
 30
0.0
 10
521.0179239454214
 20
332.5763906855445
 30
0.0
 10
520.9588421713081
 20
332.5818525948422
 30
0.0
  0
SPLINE
  5
1BE
330
1F
100
AcDbEntity
  8
0
  6
Continuous
 62
     7
370
    15
100
AcDbSpline
210
0.0
220
0.0
230
1.0
 70
     8
 71
     3
 72
    11
 73
     7
 74
     0
 42
0.00000001
 43
0.00000001
 12
1.0
 22
0.0
 32
0.0
 13
1.0
 23
0.0
 33
0.0
 40
0.0
 40
0.0
 40
0.0
 40
0.0
 40
0.2499870132743629
 40
0.4999957631966111
 40
0.7500060424423034
 40
1.0
 40
1.0
 40
1.0
 40
1.0
 10
520.4803137313095
 20
333.8177325525181
 30
0.0
 10
520.413504117587
 20
333.5121080548691
 30
0.0
 10
520.2798790809719
 20
332.9008324851822
 30
0.0
 10
520.2589012007886
 20
331.9288538538713
 30
0.0
 10
520.3880120305586
 20
331.0666448123287
 30
0.0
 10
520.6032443832834
 20
330.7125235359113
 30
0.0
 10
520.7108570467201
 20
330.5354686775105
 30
0.0
  0
SPLINE
  5
1BF
330
1F
100
AcDbEntity
  8
0
  6
Continuous
 62
     7
370
    15
100
AcDbSpline
210
0.0
220
0.0
230
1.0
 70
     8
 71
     3
 72
     9
 73
     5
 74
     0
 42
0.00000001
 43
0.00000001
 12
1.0
 22
0.0
 32
0.0
 13
1.0
 23
0.0
 33
0.0
 40
0.0
 40
0.0
 40
0.0
 40
0.0
 40
0.7765319232893634
 40
1.0
 40
1.0
 40
1.0
 40
1.0
 10
520.7108570467201
 20
330.5354686775105
 30
0.0
 10
520.9547421296969
 20
330.2728095682626
 30
0.0
 10
521.2688117457197
 20
329.9345631918157
 30
0.0
 10
521.6396550438898
 20
329.9700003141326
 30
0.0
 10
521.7225266824928
 20
329.9779193797009
 30
0.0
  0
LINE
  5
1C0
330
1F
100
AcDbEntity
  8
0
  6
Continuous
 62
     7
370
    15
100
AcDbLine
 10
523.7959189545
 20
331.8278985419
 30
0.0
 11
523.5573960673
 21
331.8144725957
 31
0.0
  0
SPLINE
  5
1C1
330
1F
100
AcDbEntity
  8
0
  6
Continuous
 62
     7
370
    15
100
AcDbSpline
210
0.0
220
0.0
230
1.0
 70
     8
 71
     3
 72
    11
 73
     7
 74
     0
 42
0.00000001
 43
0.00000001
 12
1.0
 22
0.0
 32
0.0
 13
1.0
 23
0.0
 33
0.0
 40
0.0
 40
0.0
 40
0.0
 40
0.0
 40
0.1386035616970796
 40
0.4274743407394171
 40
0.712650123664355
 40
1.0
 40
1.0
 40
1.0
 40
1.0
 10
521.4875651727882
 20
335.2243202128308
 30
0.0
 10
521.4384931059612
 20
335.2298422431145
 30
0.0
 10
521.2871474323097
 20
335.2468730194247
 30
0.0
 10
521.0361388134039
 20
335.0471842563205
 30
0.0
 10
520.7618824411538
 20
334.6256718436268
 30
0.0
 10
520.6144506434798
 20
334.2260081629876
 30
0.0
 10
520.5404548178878
 20
334.0254174866574
 30
0.0
  0
LINE
  5
1C2
330
1F
100
AcDbEntity
  8
0
  6
Continuous
 62
     7
370
    15
100
AcDbLine
 10
520.5404548179
 20
334.0254174867
 30
0.0
 11
520.5964012276
 21
333.9915471473
 31
0.0
  0
SPLINE
  5
1C3
330
1F
100
AcDbEntity
  8
0
  6
Continuous
 62
     7
370
    15
100
AcDbSpline
210
0.0
220
0.0
230
1.0
 70
     8
 71
     3
 72
    12
 73
     8
 74
     0
 42
0.00000001
 43
0.00000001
 12
1.0
 22
0.0
 32
0.0
 13
1.0
 23
0.0
 33
0.0
 40
0.0
 40
0.0
 40
0.0
 40
0.0
 40
0.1999989701035175
 40
0.3999999123165289
 40
0.5999940599920655
 40
0.7999871971571132
 40
1.0
 40
1.0
 40
1.0
 40
1.0
 10
520.8678556810585
 20
334.320914963712
 30
0.0
 10
520.9012879860085
 20
334.319949448009
 30
0.0
 10
520.9681529255708
 20
334.3180184070823
 30
0.0
 10
521.0594360655268
 20
334.2298172392702
 30
0.0
 10
521.1339273697129
 20
334.0870390764481
 30
0.0
 10
521.1875182752419
 20
333.8959914482008
 30
0.0
 10
521.1993377465916
 20
333.7458660446727
 30
0.0
 10
521.2052477728096
 20
333.6707996525662
 30
0.0
  0
SPLINE
  5
1C4
330
1F
100
AcDbEntity
  8
0
  6
Continuous
 62
     7
370
    15
100
AcDbSpline
210
0.0
220
0.0
230
1.0
 70
     8
 71
     3
 72
    10
 73
     6
 74
     0
 42
0.00000001
 43
0.00000001
 12
1.0
 22
0.0
 32
0.0
 13
1.0
 23
0.0
 33
0.0
 40
0.0
 40
0.0
 40
0.0
 40
0.0
 40
0.3333582188255414
 40
0.6666820767827553
 40
1.0
 40
1.0
 40
1.0
 40
1.0
 10
521.2052477728096
 20
333.6707996525662
 30
0.0
 10
521.227359498526
 20
333.5894146370517
 30
0.0
 10
521.2715806707944
 20
333.426652994776
 30
0.0
 10
521.376022209226
 20
333.2564435291
 30
0.0
 10
521.4594443384935
 20
333.2131899862865
 30
0.0
 10
521.501155031797
 20
333.1915634074109
 30
0.0
  0
SPLINE
  5
1C5
330
1F
100
AcDbEntity
  8
0
  6
Continuous
 62
     7
370
    15
100
AcDbSpline
210
0.0
220
0.0
230
1.0
 70
     8
 71
     3
 72
    12
 73
     8
 74
     0
 42
0.00000001
 43
0.00000001
 12
1.0
 22
0.0
 32
0.0
 13
1.0
 23
0.0
 33
0.0
 40
0.0
 40
0.0
 40
0.0
 40
0.0
 40
0.2647854252658801
 40
0.5020415060105065
 40
0.621615409756414
 40
0.7415735706278329
 40
0.9999999999999999
 40
0.9999999999999999
 40
0.9999999999999999
 40
0.9999999999999999
 10
521.6313613783088
 20
333.1984402933018
 30
0.0
 10
521.632376127955
 20
333.1943929016263
 30
0.0
 10
521.6343001252449
 20
333.1867189195324
 30
0.0
 10
521.6346729087171
 20
333.1751177591183
 30
0.0
 10
521.6338342944196
 20
333.1664464654553
 30
0.0
 10
521.6322125938888
 20
333.1577134101296
 30
0.0
 10
521.6300333936196
 20
333.1523623185032
 30
0.0
 10
521.6285450588432
 20
333.1487076678173
 30
0.0
  0
LINE
  5
1C6
330
1F
100
AcDbEntity
  8
0
  6
Continuous
 62
     7
370
    15
100
AcDbLine
 10
508.4975449573
 20
362.7331303754
 30
0.0
 11
509.7896171938
 21
361.9710551896
 31
0.0
  0
LINE
  5
1C7
330
1F
100
AcDbEntity
  8
0
  6
Continuous
 62
     7
370
    15
100
AcDbLine
 10
509.3752457033
 20
362.2378604808
 30
0.0
 11
509.888173474
 21
361.9446205296
 31
0.0
  0
LINE
  5
1C8
330
1F
100
AcDbEntity
  8
0
  6
Continuous
 62
     7
370
    15
100
AcDbLine
 10
507.9884020816
 20
363.0071031251
 30
0.0
 11
508.4083615075
 21
362.7765672603
 31
0.0
  0
LINE
  5
1C9
330
1F
100
AcDbEntity
  8
0
  6
Continuous
 62
     7
370
    15
100
AcDbLine
 10
508.4083615075
 20
362.7765672603
 30
0.0
 11
508.4975449573
 21
362.7331303754
 31
0.0
  0
SPLINE
  5
1CA
330
1F
100
AcDbEntity
  8
0
  6
Continuous
 62
     7
370
    15
100
AcDbSpline
210
0.0
220
0.0
230
1.0
 70
     8
 71
     3
 72
    11
 73
     7
 74
     0
 42
0.00000001
 43
0.00000001
 12
1.0
 22
0.0
 32
0.0
 13
1.0
 23
0.0
 33
0.0
 40
0.0
 40
0.0
 40
0.0
 40
0.0
 40
0.2500030878453171
 40
0.5000034627404416
 40
0.7500013638835021
 40
0.9999999999999999
 40
0.9999999999999999
 40
0.9999999999999999
 40
0.9999999999999999
 10
502.7026621829238
 20
314.2781751551526
 30
0.0
 10
502.5150708498922
 20
314.2038744252469
 30
0.0
 10
502.1398902195075
 20
314.0552737717223
 30
0.0
 10
501.6905888442269
 20
313.6656516166932
 30
0.0
 10
501.3960243789492
 20
313.2110644481702
 30
0.0
 10
501.3839144961325
 20
312.9096795439168
 30
0.0
 10
501.3778595458236
 20
312.7589868702786
 30
0.0
  0
LINE
  5
1CB
330
1F
100
AcDbEntity
  8
0
  6
Continuous
 62
     7
370
    15
100
AcDbLine
 10
501.3778595458
 20
312.7589868703
 30
0.0
 11
501.5512494575
 21
312.2499334016
 31
0.0
  0
LINE
  5
1CC
330
1F
100
AcDbEntity
  8
0
  6
Continuous
 62
     7
370
    15
100
AcDbLine
 10
504.1461600195
 20
310.9911652603
 30
0.0
 11
503.8470341097
 21
311.285567502
 31
0.0
  0
SPLINE
  5
1CD
330
1F
100
AcDbEntity
  8
0
  6
Continuous
 62
     7
370
    15
100
AcDbSpline
210
0.0
220
0.0
230
1.0
 70
     8
 71
     3
 72
    12
 73
     8
 74
     0
 42
0.00000001
 43
0.00000001
 12
1.0
 22
0.0
 32
0.0
 13
1.0
 23
0.0
 33
0.0
 40
0.0
 40
0.0
 40
0.0
 40
0.0
 40
0.0100134049663644
 40
0.2575088686189417
 40
0.5050079515116814
 40
0.7525038776949979
 40
1.0
 40
1.0
 40
1.0
 40
1.0
 10
504.2287720571723
 20
313.9192434348957
 30
0.0
 10
504.2273732003137
 20
313.9234411106208
 30
0.0
 10
504.1913996180749
 20
314.031390277804
 30
0.0
 10
504.0073495289391
 20
314.1831087305881
 30
0.0
 10
503.688900048912
 20
314.3395084193559
 30
0.0
 10
503.2829031942618
 20
314.3931319423169
 30
0.0
 10
502.9889150934884
 20
314.3419999118705
 30
0.0
 10
502.8419209848609
 20
314.3164338865178
 30
0.0
  0
LINE
  5
1CE
330
1F
100
AcDbEntity
  8
0
  6
Continuous
 62
     7
370
    15
100
AcDbLine
 10
502.8419209849
 20
314.3164338865
 30
0.0
 11
502.8657032381
 21
314.2613070407
 31
0.0
  0
SPLINE
  5
1CF
330
1F
100
AcDbEntity
  8
0
  6
Continuous
 62
     7
370
    15
100
AcDbSpline
210
0.0
220
0.0
230
1.0
 70
     8
 71
     3
 72
    12
 73
     8
 74
     0
 42
0.00000001
 43
0.00000001
 12
1.0
 22
0.0
 32
0.0
 13
1.0
 23
0.0
 33
0.0
 40
0.0
 40
0.0
 40
0.0
 40
0.0
 40
0.199919652696228
 40
0.3999079256257898
 40
0.5998966441720182
 40
0.799168252425084
 40
1.0
 40
1.0
 40
1.0
 40
1.0
 10
503.2148746978011
 20
314.1874494352238
 30
0.0
 10
503.2384551252804
 20
314.1618071753759
 30
0.0
 10
503.2856240739629
 20
314.110513854255
 30
0.0
 10
503.3095701565517
 20
314.0070915423051
 30
0.0
 10
503.2948765963155
 20
313.8953070794664
 30
0.0
 10
503.2431478733445
 20
313.780314076121
 30
0.0
 10
503.1800997543345
 20
313.7127346631155
 30
0.0
 10
503.1484527717795
 20
313.678813199033
 30
0.0
  0
SPLINE
  5
1D0
330
1F
100
AcDbEntity
  8
0
  6
Continuous
 62
     7
370
    15
100
AcDbSpline
210
0.0
220
0.0
230
1.0
 70
     8
 71
     3
 72
    10
 73
     6
 74
     0
 42
0.00000001
 43
0.00000001
 12
1.0
 22
0.0
 32
0.0
 13
1.0
 23
0.0
 33
0.0
 40
0.0
 40
0.0
 40
0.0
 40
0.0
 40
0.3328262908471251
 40
0.6667160080268923
 40
1.0
 40
1.0
 40
1.0
 40
1.0
 10
503.1484527717795
 20
313.678813199033
 30
0.0
 10
503.125599409128
 20
313.6303147434985
 30
0.0
 10
503.0798196641497
 20
313.5331628731125
 30
0.0
 10
503.0748314174859
 20
313.3878968637485
 30
0.0
 10
503.1138559125129
 20
313.3081124131006
 30
0.0
 10
503.1333504449096
 20
313.2682564058201
 30
0.0
  0
SPLINE
  5
1D1
330
1F
100
AcDbEntity
  8
0
  6
Continuous
 62
     7
370
    15
100
AcDbSpline
210
0.0
220
0.0
230
1.0
 70
     8
 71
     3
 72
    11
 73
     7
 74
     0
 42
0.00000001
 43
0.00000001
 12
1.0
 22
0.0
 32
0.0
 13
1.0
 23
0.0
 33
0.0
 40
0.0
 40
0.0
 40
0.0
 40
0.0
 40
0.2780611041929624
 40
0.5151246982206032
 40
0.7436723602920732
 40
1.0
 40
1.0
 40
1.0
 40
1.0
 10
503.2299993764129
 20
313.1729113259213
 30
0.0
 10
503.2286517113047
 20
313.1704803506892
 30
0.0
 10
503.2261550817088
 20
313.1659768247952
 30
0.0
 10
503.2199903932155
 20
313.160281421557
 30
0.0
 10
503.2123506600137
 20
313.1565756057092
 30
0.0
 10
503.2071295178054
 20
313.1559446371217
 30
0.0
 10
503.2043693791595
 20
313.1556110777752
 30
0.0
  0
SPLINE
  5
1D2
330
1F
100
AcDbEntity
  8
0
  6
Continuous
 62
     7
370
    15
100
AcDbSpline
210
0.0
220
0.0
230
1.0
 70
     8
 71
     3
 72
    10
 73
     6
 74
     0
 42
0.00000001
 43
0.00000001
 12
1.0
 22
0.0
 32
0.0
 13
1.0
 23
0.0
 33
0.0
 40
0.0
 40
0.0
 40
0.0
 40
0.0
 40
0.3333294096908331
 40
0.6666678106059625
 40
1.0
 40
1.0
 40
1.0
 40
1.0
 10
503.2043693791595
 20
313.1556110777752
 30
0.0
 10
503.0898133127011
 20
313.1577920236894
 30
0.0
 10
502.86069808975
 20
313.1621539743467
 30
0.0
 10
502.5736381977082
 20
313.284206240296
 30
0.0
 10
502.4583639773797
 20
313.4250040216993
 30
0.0
 10
502.4007274042335
 20
313.4954022564785
 30
0.0
  0
SPLINE
  5
1D3
330
1F
100
AcDbEntity
  8
0
  6
Continuous
 62
     7
370
    15
100
AcDbSpline
210
0.0
220
0.0
230
1.0
 70
     8
 71
     3
 72
    12
 73
     8
 74
     0
 42
0.00000001
 43
0.00000001
 12
1.0
 22
0.0
 32
0.0
 13
1.0
 23
0.0
 33
0.0
 40
0.0
 40
0.0
 40
0.0
 40
0.0
 40
0.3037246669204897
 40
0.6074466694954955
 40
0.9111826697176179
 40
0.9695250602095095
 40
1.0
 40
1.0
 40
1.0
 40
1.0
 10
508.3158327470985
 20
319.8361220159428
 30
0.0
 10
508.3429886058925
 20
319.9382558970453
 30
0.0
 10
508.3973000852626
 20
320.1425227633073
 30
0.0
 10
508.3959595916951
 20
320.4877063433012
 30
0.0
 10
508.3486449351753
 20
320.7259356719668
 30
0.0
 10
508.3054885076332
 20
320.8527507079284
 30
0.0
 10
508.2947844793284
 20
320.8804779786289
 30
0.0
 10
508.2911117206779
 20
320.8899917402165
 30
0.0
  0
SPLINE
  5
1D4
330
1F
100
AcDbEntity
  8
0
  6
Continuous
 62
     7
370
    15
100
AcDbSpline
210
0.0
220
0.0
230
1.0
 70
     8
 71
     3
 72
    12
 73
     8
 74
     0
 42
0.00000001
 43
0.00000001
 12
1.0
 22
0.0
 32
0.0
 13
1.0
 23
0.0
 33
0.0
 40
0.0
 40
0.0
 40
0.0
 40
0.0
 40
0.0304757922715973
 40
0.0888151097820627
 40
0.3925545995815175
 40
0.6962788374430497
 40
1.0
 40
1.0
 40
1.0
 40
1.0
 10
476.6234917770591
 20
320.9435763158696
 30
0.0
 10
476.6197794075007
 20
320.934075208503
 30
0.0
 10
476.6089605087844
 20
320.9063862845762
 30
0.0
 10
476.5652805704136
 20
320.7797109659722
 30
0.0
 10
476.5170747777454
 20
320.5416499061125
 30
0.0
 10
476.5145865093196
 20
320.1964683379624
 30
0.0
 10
476.5683302088241
 20
319.9920197666766
 30
0.0
 10
476.5952019225326
 20
319.889795998563
 30
0.0
  0
ARC
  5
1D5
330
1F
100
AcDbEntity
  8
0
  6
Continuous
 62
     7
370
    15
100
AcDbCircle
 10
492.612735344
 20
346.3199847325
 30
0.0
 40
21.10206425837704
100
AcDbArc
 50
58.3698806911
 51
86.1312798446
  0
SPLINE
  5
1D6
330
1F
100
AcDbEntity
  8
0
  6
Continuous
 62
     7
370
    15
100
AcDbSpline
210
0.0
220
0.0
230
1.0
 70
     8
 71
     3
 72
    11
 73
     7
 74
     0
 42
0.00000001
 43
0.00000001
 12
1.0
 22
0.0
 32
0.0
 13
1.0
 23
0.0
 33
0.0
 40
0.0
 40
0.0
 40
0.0
 40
0.0
 40
0.2947326600006908
 40
0.5894809950413504
 40
0.8837757743052687
 40
1.0
 40
1.0
 40
1.0
 40
1.0
 10
494.034798277494
 20
366.7941736378567
 30
0.0
 10
494.035011466381
 20
366.8920060048425
 30
0.0
 10
494.0354378554931
 20
367.0876759419235
 30
0.0
 10
494.0359948465299
 20
367.2861025435027
 30
0.0
 10
494.0363453076616
 20
367.3683048692394
 30
0.0
 10
494.0364693438918
 20
367.3727144880426
 30
0.0
 10
494.0365044604507
 20
367.3739629187481
 30
0.0
  0
ARC
  5
1D7
330
1F
100
AcDbEntity
  8
0
  6
Continuous
 62
     7
370
    15
100
AcDbCircle
 10
492.3906675317
 20
346.3070645239
 30
0.0
 40
21.11544604838203
100
AcDbArc
 50
93.6769578587
 51
121.4264178514
  0
SPLINE
  5
1D8
330
1F
100
AcDbEntity
  8
0
  6
Continuous
 62
     7
370
    15
100
AcDbSpline
210
0.0
220
0.0
230
1.0
 70
     8
 71
     3
 72
    10
 73
     6
 74
     0
 42
0.00000001
 43
0.00000001
 12
1.0
 22
0.0
 32
0.0
 13
1.0
 23
0.0
 33
0.0
 40
0.0
 40
0.0
 40
0.0
 40
0.0
 40
0.2117904271765065
 40
0.4879183574257138
 40
1.0
 40
1.0
 40
1.0
 40
1.0
 10
508.4042264353004
 20
362.7443211474316
 30
0.0
 10
508.4029789177347
 20
362.7452299550685
 30
0.0
 10
508.4001049128532
 20
362.7473236470985
 30
0.0
 10
508.3893775757724
 20
362.7542134734966
 30
0.0
 10
508.3796627368563
 20
362.7601582790211
 30
0.0
 10
508.3733512293067
 20
362.7640204825299
 30
0.0
  0
SPLINE
  5
1D9
330
1F
100
AcDbEntity
  8
0
  6
Continuous
 62
     7
370
    15
100
AcDbSpline
210
0.0
220
0.0
230
1.0
 70
     8
 71
     3
 72
    10
 73
     6
 74
     0
 42
0.00000001
 43
0.00000001
 12
1.0
 22
0.0
 32
0.0
 13
1.0
 23
0.0
 33
0.0
 40
0.0
 40
0.0
 40
0.0
 40
0.0
 40
0.3554439736984305
 40
0.7142325948063728
 40
1.0
 40
1.0
 40
1.0
 40
1.0
 10
506.1661241780486
 20
363.8240294852154
 30
0.0
 10
506.2898405925693
 20
363.7810666792374
 30
0.0
 10
506.5384375650931
 20
363.694736796993
 30
0.0
 10
507.3766146037795
 20
363.3061143414056
 30
0.0
 10
508.0885749567947
 20
362.916887136702
 30
0.0
 10
508.4042264353004
 20
362.7443211474316
 30
0.0
  0
LINE
  5
1DA
330
1F
100
AcDbEntity
  8
0
  6
Continuous
 62
     7
370
    15
100
AcDbLine
 10
492.8174851667
 20
367.1495812335
 30
0.0
 11
494.0376443993
 21
367.355589787
 31
0.0
  0
SPLINE
  5
1DB
330
1F
100
AcDbEntity
  8
0
  6
Continuous
 62
     7
370
    15
100
AcDbSpline
210
0.0
220
0.0
230
1.0
 70
     8
 71
     3
 72
    12
 73
     8
 74
     0
 42
0.00000001
 43
0.00000001
 12
1.0
 22
0.0
 32
0.0
 13
1.0
 23
0.0
 33
0.0
 40
0.0
 40
0.0
 40
0.0
 40
0.0
 40
0.2238944372069417
 40
0.4477771885927357
 40
0.6716770936725595
 40
0.8955803808294938
 40
1.0
 40
1.0
 40
1.0
 40
1.0
 10
492.5681887398925
 20
367.1479719080822
 30
0.0
 10
492.5962928582105
 20
367.1479299948564
 30
0.0
 10
492.6524996279958
 20
367.1478461705925
 30
0.0
 10
492.7273695917058
 20
367.1479384206334
 30
0.0
 10
492.7839266727589
 20
367.1483210451017
 30
0.0
 10
492.8114673284323
 20
367.1488980242808
 30
0.0
 10
492.8160330783232
 20
367.1494163769278
 30
0.0
 10
492.8174851666656
 20
367.1495812334912
 30
0.0
  0
ELLIPSE
  5
1DC
330
1F
100
AcDbEntity
  8
0
  6
Continuous
 62
     7
370
    15
100
AcDbEllipse
 10
492.4863007862
 20
328.2454039923
 30
0.0
 11
0.06787175040659577
 21
38.90260143606912
 31
0.0
210
0.0
220
0.0
230
1.0
 40
0.8931093914
 41
6.282781968427407
 42
6.28368252318711
  0
SPLINE
  5
1DD
330
1F
100
AcDbEntity
  8
0
  6
Continuous
 62
     7
370
    15
100
AcDbSpline
210
0.0
220
0.0
230
1.0
 70
     8
 71
     3
 72
    12
 73
     8
 74
     0
 42
0.00000001
 43
0.00000001
 12
1.0
 22
0.0
 32
0.0
 13
1.0
 23
0.0
 33
0.0
 40
0.0
 40
0.0
 40
0.0
 40
0.0
 40
0.2239011957221852
 40
0.4477883610612501
 40
0.6716804925632807
 40
0.8955946366608721
 40
1.0
 40
1.0
 40
1.0
 40
1.0
 10
492.2872347961631
 20
367.1504753031628
 30
0.0
 10
492.2918284554738
 20
367.1501352609826
 30
0.0
 10
492.3010154862415
 20
367.1494551979304
 30
0.0
 10
492.3489180829581
 20
367.1487443925162
 30
0.0
 10
492.415913655187
 20
367.1483160350228
 30
0.0
 10
492.4828015044403
 20
367.1481039148798
 30
0.0
 10
492.5238446204878
 20
367.1480489815012
 30
0.0
 10
492.5368963013854
 20
367.148031512727
 30
0.0
  0
LINE
  5
1DE
330
1F
100
AcDbEntity
  8
0
  6
Continuous
 62
     7
370
    15
100
AcDbLine
 10
492.2872347962
 20
367.1504753032
 30
0.0
 11
491.0376457702
 21
367.3606561818
 31
0.0
  0
SPLINE
  5
1DF
330
1F
100
AcDbEntity
  8
0
  6
Continuous
 62
     7
370
    15
100
AcDbSpline
210
0.0
220
0.0
230
1.0
 70
     8
 71
     3
 72
    11
 73
     7
 74
     0
 42
0.00000001
 43
0.00000001
 12
1.0
 22
0.0
 32
0.0
 13
1.0
 23
0.0
 33
0.0
 40
0.0
 40
0.0
 40
0.0
 40
0.0
 40
0.3705359465148149
 40
0.7442239755695715
 40
0.9443526105682503
 40
1.0
 40
1.0
 40
1.0
 40
1.0
 10
476.7145676742759
 20
362.8175901570218
 30
0.0
 10
476.7099787577412
 20
362.8148072293582
 30
0.0
 10
476.7007618875855
 20
362.8092177001668
 30
0.0
 10
476.6901245583366
 20
362.802527638673
 30
0.0
 10
476.6850787924736
 20
362.7991221723927
 30
0.0
 10
476.6838606363818
 20
362.7981965181339
 30
0.0
 10
476.6835956107345
 20
362.7979951300518
 30
0.0
  0
SPLINE
  5
1E0
330
1F
100
AcDbEntity
  8
0
  6
Continuous
 62
     7
370
    15
100
AcDbSpline
210
0.0
220
0.0
230
1.0
 70
     8
 71
     3
 72
     9
 73
     5
 74
     0
 42
0.00000001
 43
0.00000001
 12
1.0
 22
0.0
 32
0.0
 13
1.0
 23
0.0
 33
0.0
 40
0.0
 40
0.0
 40
0.0
 40
0.0
 40
0.1371740402443595
 40
1.0
 40
1.0
 40
1.0
 40
1.0
 10
493.034833503839
 20
365.9451054730313
 30
0.0
 10
493.0363235117834
 20
365.9451551381574
 30
0.0
 10
493.0471856832387
 20
365.9455171973781
 30
0.0
 10
493.0580651013333
 20
365.945880119323
 30
0.0
 10
493.0674521456924
 20
365.9461932577984
 30
0.0
  0
SPLINE
  5
1E1
330
1F
100
AcDbEntity
  8
0
  6
Continuous
 62
     7
370
    15
100
AcDbSpline
210
0.0
220
0.0
230
1.0
 70
     8
 71
     3
 72
    14
 73
    10
 74
     0
 42
0.00000001
 43
0.00000001
 12
1.0
 22
0.0
 32
0.0
 13
1.0
 23
0.0
 33
0.0
 40
0.0
 40
0.0
 40
0.0
 40
0.0
 40
0.0450048188182074
 40
0.192455509289219
 40
0.4101049115842113
 40
0.62811780903734
 40
0.8446528919067284
 40
0.9597645062479768
 40
1.0
 40
1.0
 40
1.0
 40
1.0
 10
492.0022649894919
 20
365.9479962983029
 30
0.0
 10
491.9823317791637
 20
365.9488518237332
 30
0.0
 10
491.8970907706176
 20
365.952510333793
 30
0.0
 10
491.6812402157245
 20
365.99210361286
 30
0.0
 10
491.4113321528329
 20
366.1318358428599
 30
0.0
 10
491.1762608830744
 20
366.3819332220176
 30
0.0
 10
491.064221789278
 20
366.6425797788152
 30
0.0
 10
491.0380770285635
 20
366.8198544968178
 30
0.0
 10
491.0370835270151
 20
366.8796671117689
 30
0.0
 10
491.0368262063232
 20
366.8951588072674
 30
0.0
  0
SPLINE
  5
1E2
330
1F
100
AcDbEntity
  8
0
  6
Continuous
 62
     7
370
    15
100
AcDbSpline
210
0.0
220
0.0
230
1.0
 70
     8
 71
     3
 72
     9
 73
     5
 74
     0
 42
0.00000001
 43
0.00000001
 12
1.0
 22
0.0
 32
0.0
 13
1.0
 23
0.0
 33
0.0
 40
0.0
 40
0.0
 40
0.0
 40
0.0
 40
0.8628267623624198
 40
1.0
 40
1.0
 40
1.0
 40
1.0
 10
492.002264989492
 20
365.9479962983029
 30
0.0
 10
492.0116271217595
 20
365.9476468700501
 30
0.0
 10
492.0224776570881
 20
365.9472418892728
 30
0.0
 10
492.03334127908
 20
365.9468438979979
 30
0.0
 10
492.0348314772811
 20
365.9467893042462
 30
0.0
  0
SPLINE
  5
1E3
330
1F
100
AcDbEntity
  8
0
  6
Continuous
 62
     7
370
    15
100
AcDbSpline
210
0.0
220
0.0
230
1.0
 70
     8
 71
     3
 72
    15
 73
    11
 74
     0
 42
0.00000001
 43
0.00000001
 12
1.0
 22
0.0
 32
0.0
 13
1.0
 23
0.0
 33
0.0
 40
0.0
 40
0.0
 40
0.0
 40
0.0
 40
0.1256487299613276
 40
0.2500575807729664
 40
0.3750350508067535
 40
0.5000078221771619
 40
0.6249821242631826
 40
0.7499525487849911
 40
0.8745148758246583
 40
1.0
 40
1.0
 40
1.0
 40
1.0
 10
502.8689144383636
 20
314.2549740471737
 30
0.0
 10
502.9147677772815
 20
314.2597287148324
 30
0.0
 10
503.0060219825862
 20
314.2691911319413
 30
0.0
 10
503.1270407302679
 20
314.2413612176244
 30
0.0
 10
503.223685359805
 20
314.1856915905021
 30
0.0
 10
503.2874543766326
 20
314.1030286889887
 30
0.0
 10
503.31329361402
 20
314.0011320469995
 30
0.0
 10
503.2980861634924
 20
313.8889087334289
 30
0.0
 10
503.2464635220996
 20
313.7740264398807
 30
0.0
 10
503.1833761990915
 20
313.7064270097686
 30
0.0
 10
503.151716126081
 20
313.6725025572674
 30
0.0
  0
LINE
  5
1E4
330
1F
100
AcDbEntity
  8
0
  6
Continuous
 62
     7
370
    15
100
AcDbLine
 10
502.8451247345
 20
314.3101083436
 30
0.0
 11
502.8689144384
 21
314.2549814978
 31
0.0
  0
SPLINE
  5
1E5
330
1F
100
AcDbEntity
  8
0
  6
Continuous
 62
     7
370
    15
100
AcDbSpline
210
0.0
220
0.0
230
1.0
 70
     8
 71
     3
 72
    15
 73
    11
 74
     0
 42
0.00000001
 43
0.00000001
 12
1.0
 22
0.0
 32
0.0
 13
1.0
 23
0.0
 33
0.0
 40
0.0
 40
0.0
 40
0.0
 40
0.0
 40
0.1250046002671288
 40
0.250000130812554
 40
0.374988367889904
 40
0.4999750753888081
 40
0.6249656964312928
 40
0.7499667434112571
 40
0.8749798611427807
 40
1.0
 40
1.0
 40
1.0
 40
1.0
 10
503.8990093599525
 20
312.5579180517094
 30
0.0
 10
503.9946958504364
 20
312.6694947453072
 30
0.0
 10
504.186061888861
 20
312.8926400370444
 30
0.0
 10
504.3320113730388
 20
313.2652202468793
 30
0.0
 10
504.3560595336746
 20
313.622653149164
 30
0.0
 10
504.2481320686546
 20
313.9374111038385
 30
0.0
 10
504.0198242173711
 20
314.1813210217885
 30
0.0
 10
503.6899499825622
 20
314.3320941997863
 30
0.0
 10
503.2868180693686
 20
314.3871457690104
 30
0.0
 10
502.9923586023506
 20
314.3357879661196
 30
0.0
 10
502.8451247345176
 20
314.310108343591
 30
0.0
  0
SPLINE
  5
1E6
330
1F
100
AcDbEntity
  8
0
  6
Continuous
 62
     7
370
    15
100
AcDbSpline
210
0.0
220
0.0
230
1.0
 70
     8
 71
     3
 72
    11
 73
     7
 74
     0
 42
0.00000001
 43
0.00000001
 12
1.0
 22
0.0
 32
0.0
 13
1.0
 23
0.0
 33
0.0
 40
0.0
 40
0.0
 40
0.0
 40
0.0
 40
0.2500055157730281
 40
0.4999984613296486
 40
0.7499929276325594
 40
1.0
 40
1.0
 40
1.0
 40
1.0
 10
504.1495574842658
 20
310.9848993220227
 30
0.0
 10
504.0392915709155
 20
311.0761760061954
 30
0.0
 10
503.8187652883578
 20
311.2587247851714
 30
0.0
 10
503.6775958770675
 20
311.6558829572216
 30
0.0
 10
503.6846475223354
 20
312.101242806164
 30
0.0
 10
503.8275542130899
 20
312.405690411278
 30
0.0
 10
503.8990093599525
 20
312.5579180517094
 30
0.0
  0
SPLINE
  5
1E7
330
1F
100
AcDbEntity
  8
0
  6
Continuous
 62
     7
370
    15
100
AcDbSpline
210
0.0
220
0.0
230
1.0
 70
     8
 71
     3
 72
    11
 73
     7
 74
     0
 42
0.00000001
 43
0.00000001
 12
1.0
 22
0.0
 32
0.0
 13
1.0
 23
0.0
 33
0.0
 40
0.0
 40
0.0
 40
0.0
 40
0.0
 40
0.2590325599545001
 40
0.5000410072621018
 40
0.7408139647066571
 40
0.9999999999999999
 40
0.9999999999999999
 40
0.9999999999999999
 40
0.9999999999999999
 10
504.1049434076514
 20
310.9251605667965
 30
0.0
 10
504.1119855934342
 20
310.9285123923004
 30
0.0
 10
504.1255799526634
 20
310.9349828151745
 30
0.0
 10
504.1410901514647
 20
310.9504252508664
 30
0.0
 10
504.1502297380144
 20
310.9679943095862
 30
0.0
 10
504.1497870040247
 20
310.9791276407388
 30
0.0
 10
504.1495574842658
 20
310.9848993220227
 30
0.0
  0
SPLINE
  5
1E8
330
1F
100
AcDbEntity
  8
0
  6
Continuous
 62
     7
370
    15
100
AcDbSpline
210
0.0
220
0.0
230
1.0
 70
     8
 71
     3
 72
    11
 73
     7
 74
     0
 42
0.00000001
 43
0.00000001
 12
1.0
 22
0.0
 32
0.0
 13
1.0
 23
0.0
 33
0.0
 40
0.0
 40
0.0
 40
0.0
 40
0.0
 40
0.2499779755327292
 40
0.4999665993390802
 40
0.7499751975855896
 40
1.0
 40
1.0
 40
1.0
 40
1.0
 10
501.3805641065803
 20
312.7525048651593
 30
0.0
 10
501.4452200673991
 20
312.4816704769286
 30
0.0
 10
501.5745347431768
 20
311.9399901637764
 30
0.0
 10
502.1963614911321
 20
311.3302921692032
 30
0.0
 10
503.0535621075452
 20
310.9374365917994
 30
0.0
 10
503.7544754029773
 20
310.929252663534
 30
0.0
 10
504.1049434076514
 20
310.9251605667965
 30
0.0
  0
SPLINE
  5
1E9
330
1F
100
AcDbEntity
  8
0
  6
Continuous
 62
     7
370
    15
100
AcDbSpline
210
0.0
220
0.0
230
1.0
 70
     8
 71
     3
 72
    11
 73
     7
 74
     0
 42
0.00000001
 43
0.00000001
 12
1.0
 22
0.0
 32
0.0
 13
1.0
 23
0.0
 33
0.0
 40
0.0
 40
0.0
 40
0.0
 40
0.0
 40
0.2500330074256069
 40
0.5000498275098738
 40
0.7500351697802171
 40
1.0
 40
1.0
 40
1.0
 40
1.0
 10
502.7058286796775
 20
314.271827260484
 30
0.0
 10
502.5181842143558
 20
314.1975127906439
 30
0.0
 10
502.1429074319684
 20
314.0488886621433
 30
0.0
 10
501.6934500390003
 20
313.6592379464128
 30
0.0
 10
501.3987562658911
 20
313.204614584555
 30
0.0
 10
501.3866279938168
 20
312.9032039828474
 30
0.0
 10
501.3805641065803
 20
312.7525048651593
 30
0.0
  0
LINE
  5
1EA
330
1F
100
AcDbEntity
  8
0
  6
Continuous
 62
     7
370
    15
100
AcDbLine
 10
502.6946155559
 20
314.2196359434
 30
0.0
 11
502.7058286797
 21
314.2718272605
 31
0.0
  0
SPLINE
  5
1EB
330
1F
100
AcDbEntity
  8
0
  6
Continuous
 62
     7
370
    15
100
AcDbSpline
210
0.0
220
0.0
230
1.0
 70
     8
 71
     3
 72
    11
 73
     7
 74
     0
 42
0.00000001
 43
0.00000001
 12
1.0
 22
0.0
 32
0.0
 13
1.0
 23
0.0
 33
0.0
 40
0.0
 40
0.0
 40
0.0
 40
0.0
 40
0.2499641362659825
 40
0.4999499615364277
 40
0.7499651828374928
 40
1.0
 40
1.0
 40
1.0
 40
1.0
 10
502.3172883521285
 20
313.7431638636486
 30
0.0
 10
502.3186094508939
 20
313.7885300255157
 30
0.0
 10
502.3212517630544
 20
313.8792662856021
 30
0.0
 10
502.4030129047998
 20
314.0186941234107
 30
0.0
 10
502.5297910011537
 20
314.1418017177541
 30
0.0
 10
502.6396726022979
 20
314.193690523717
 30
0.0
 10
502.6946155558791
 20
314.2196359434025
 30
0.0
  0
SPLINE
  5
1EC
330
1F
100
AcDbEntity
  8
0
  6
Continuous
 62
     7
370
    15
100
AcDbSpline
210
0.0
220
0.0
230
1.0
 70
     8
 71
     3
 72
    11
 73
     7
 74
     0
 42
0.00000001
 43
0.00000001
 12
1.0
 22
0.0
 32
0.0
 13
1.0
 23
0.0
 33
0.0
 40
0.0
 40
0.0
 40
0.0
 40
0.0
 40
0.25003289133658
 40
0.5000374061846667
 40
0.7500236654363209
 40
1.0
 40
1.0
 40
1.0
 40
1.0
 10
503.2076252828803
 20
313.149292985429
 30
0.0
 10
503.0925198535403
 20
313.151210249047
 30
0.0
 10
502.862322058293
 20
313.1550445586906
 30
0.0
 10
502.5829035822844
 20
313.280895551798
 30
0.0
 10
502.3805960089923
 20
313.4775042601726
 30
0.0
 10
502.3383906251454
 20
313.6546118344026
 30
0.0
 10
502.3172883521285
 20
313.7431638636486
 30
0.0
  0
SPLINE
  5
1ED
330
1F
100
AcDbEntity
  8
0
  6
Continuous
 62
     7
370
    15
100
AcDbSpline
210
0.0
220
0.0
230
1.0
 70
     8
 71
     3
 72
    12
 73
     8
 74
     0
 42
0.00000001
 43
0.00000001
 12
1.0
 22
0.0
 32
0.0
 13
1.0
 23
0.0
 33
0.0
 40
0.0
 40
0.0
 40
0.0
 40
0.0
 40
0.2780186915208396
 40
0.5145714830542062
 40
0.6279170377306842
 40
0.74391305297474
 40
1.0
 40
1.0
 40
1.0
 40
1.0
 10
503.2332552801337
 20
313.1666006841557
 30
0.0
 10
503.2319199545364
 20
313.1641620563114
 30
0.0
 10
503.2294484643311
 20
313.1596485168095
 30
0.0
 10
503.2242110894189
 20
313.1547923676123
 30
0.0
 10
503.2195832491055
 20
313.1521394086626
 30
0.0
 10
503.214405967099
 20
313.1500811464101
 30
0.0
 10
503.2103895743477
 20
313.1496142961707
 30
0.0
 10
503.2076252828803
 20
313.149292985429
 30
0.0
  0
SPLINE
  5
1EE
330
1F
100
AcDbEntity
  8
0
  6
Continuous
 62
     7
370
    15
100
AcDbSpline
210
0.0
220
0.0
230
1.0
 70
     8
 71
     3
 72
    11
 73
     7
 74
     0
 42
0.00000001
 43
0.00000001
 12
1.0
 22
0.0
 32
0.0
 13
1.0
 23
0.0
 33
0.0
 40
0.0
 40
0.0
 40
0.0
 40
0.0
 40
0.2500390064334676
 40
0.5000508659106896
 40
0.7500189967428172
 40
1.0
 40
1.0
 40
1.0
 40
1.0
 10
503.151716126081
 20
313.6725025572674
 30
0.0
 10
503.1285883987085
 20
313.6237762824263
 30
0.0
 10
503.0823354549615
 20
313.5263290229988
 30
0.0
 10
503.0808289265036
 20
313.3832438714675
 30
0.0
 10
503.1263565693063
 20
313.2554449404857
 30
0.0
 10
503.1976217648918
 20
313.196215944598
 30
0.0
 10
503.2332552801337
 20
313.1666006841557
 30
0.0
  0
LINE
  5
1EF
330
1F
100
AcDbEntity
  8
0
  6
Continuous
 62
     7
370
    15
100
AcDbLine
 10
502.7026621829
 20
314.2781751552
 30
0.0
 11
502.7058286797
 21
314.2718272605
 31
0.0
  0
LINE
  5
1F0
330
1F
100
AcDbEntity
  8
0
  6
Continuous
 62
     7
370
    15
100
AcDbLine
 10
502.8419209849
 20
314.3164338865
 30
0.0
 11
502.8451247345
 21
314.3101083436
 31
0.0
  0
LINE
  5
1F1
330
1F
100
AcDbEntity
  8
0
  6
Continuous
 62
     7
370
    15
100
AcDbLine
 10
503.1484527718
 20
313.678813199
 30
0.0
 11
503.1517161261
 21
313.6725025573
 31
0.0
  0
LINE
  5
1F2
330
1F
100
AcDbEntity
  8
0
  6
Continuous
 62
     7
370
    15
100
AcDbLine
 10
502.8657032381
 20
314.2613070407
 30
0.0
 11
502.8689144384
 21
314.2549740472
 31
0.0
  0
LINE
  5
1F3
330
1F
100
AcDbEntity
  8
0
  6
Continuous
 62
     7
370
    15
100
AcDbLine
 10
492.2867952119
 20
366.8900328078
 30
0.0
 11
492.2872347962
 21
367.1504753032
 31
0.0
  0
LINE
  5
1F4
330
1F
100
AcDbEntity
  8
0
  6
Continuous
 62
     7
370
    15
100
AcDbLine
 10
504.1461600195
 20
310.9911652603
 30
0.0
 11
504.1495574843
 21
310.984899322
 31
0.0
  0
LINE
  5
1F5
330
1F
100
AcDbEntity
  8
0
  6
Continuous
 62
     7
370
    15
100
AcDbLine
 10
520.5494253169
 20
334.0248288908
 30
0.0
 11
520.6053866278
 21
333.990966002
 31
0.0
  0
SPLINE
  5
1F6
330
1F
100
AcDbEntity
  8
0
  6
Continuous
 62
     7
370
    15
100
AcDbSpline
210
0.0
220
0.0
230
1.0
 70
     8
 71
     3
 72
    15
 73
    11
 74
     0
 42
0.00000001
 43
0.00000001
 12
1.0
 22
0.0
 32
0.0
 13
1.0
 23
0.0
 33
0.0
 40
0.0
 40
0.0
 40
0.0
 40
0.0
 40
0.1253582323261059
 40
0.2492891744262749
 40
0.3751169393706252
 40
0.5000025229242242
 40
0.6248150327012847
 40
0.7506241337428424
 40
0.8748349405220772
 40
1.0
 40
1.0
 40
1.0
 40
1.0
 10
522.4886251817909
 20
333.2995521225827
 30
0.0
 10
522.4576694919498
 20
333.5353799675028
 30
0.0
 10
522.3961105642188
 20
334.0043505941301
 30
0.0
 10
522.2074667188939
 20
334.6113039716013
 30
0.0
 10
521.9496312933846
 20
335.0283742960638
 30
0.0
 10
521.656434625621
 20
335.2605940697142
 30
0.0
 10
521.3477717178267
 20
335.2607061850489
 30
0.0
 10
521.0453609724348
 20
335.0542510838167
 30
0.0
 10
520.7708686542867
 20
334.6234434796481
 30
0.0
 10
520.6234278266317
 20
334.2248754690692
 30
0.0
 10
520.5494253169265
 20
334.0248288907902
 30
0.0
  0
SPLINE
  5
1F7
330
1F
100
AcDbEntity
  8
0
  6
Continuous
 62
     7
370
    15
100
AcDbSpline
210
0.0
220
0.0
230
1.0
 70
     8
 71
     3
 72
    11
 73
     7
 74
     0
 42
0.00000001
 43
0.00000001
 12
1.0
 22
0.0
 32
0.0
 13
1.0
 23
0.0
 33
0.0
 40
0.0
 40
0.0
 40
0.0
 40
0.0
 40
0.2500097639674769
 40
0.5000031897962803
 40
0.74999631583282
 40
1.0
 40
1.0
 40
1.0
 40
1.0
 10
523.8050086628166
 20
331.8277718820469
 30
0.0
 10
523.6737531370682
 20
331.8002736267345
 30
0.0
 10
523.4112506631204
 20
331.7452789131207
 30
0.0
 10
523.0314681709334
 20
332.0248251644646
 30
0.0
 10
522.7044783271042
 20
332.5337877049487
 30
0.0
 10
522.5605772431195
 20
333.0442937233556
 30
0.0
 10
522.4886251817909
 20
333.2995521225827
 30
0.0
  0
SPLINE
  5
1F8
330
1F
100
AcDbEntity
  8
0
  6
Continuous
 62
     7
370
    15
100
AcDbSpline
210
0.0
220
0.0
230
1.0
 70
     8
 71
     3
 72
    11
 73
     7
 74
     0
 42
0.00000001
 43
0.00000001
 12
1.0
 22
0.0
 32
0.0
 13
1.0
 23
0.0
 33
0.0
 40
0.0
 40
0.0
 40
0.0
 40
0.0
 40
0.2553682288063169
 40
0.4997973462508495
 40
0.7474431184468034
 40
1.0
 40
1.0
 40
1.0
 40
1.0
 10
523.8242460619178
 20
331.7080634035962
 30
0.0
 10
523.825786342441
 20
331.7199692426252
 30
0.0
 10
523.8288009230785
 20
331.7432709148004
 30
0.0
 10
523.8258743285114
 20
331.7791459613756
 30
0.0
 10
523.8181045699711
 20
331.8102793376056
 30
0.0
 10
523.8094024450497
 20
331.8219029926242
 30
0.0
 10
523.8050086628166
 20
331.8277718820469
 30
0.0
  0
SPLINE
  5
1F9
330
1F
100
AcDbEntity
  8
0
  6
Continuous
 62
     7
370
    15
100
AcDbSpline
210
0.0
220
0.0
230
1.0
 70
     8
 71
     3
 72
    11
 73
     7
 74
     0
 42
0.00000001
 43
0.00000001
 12
1.0
 22
0.0
 32
0.0
 13
1.0
 23
0.0
 33
0.0
 40
0.0
 40
0.0
 40
0.0
 40
0.0
 40
0.2499756118101508
 40
0.5000103150678165
 40
0.7500136064433472
 40
1.0
 40
1.0
 40
1.0
 40
1.0
 10
520.7195891271797
 20
330.5341871776478
 30
0.0
 10
520.9671531636615
 20
330.305574532228
 30
0.0
 10
521.4623397580029
 20
329.8482951999078
 30
0.0
 10
522.3446052842929
 20
329.9023314498728
 30
0.0
 10
523.1980574814119
 20
330.4799783943441
 30
0.0
 10
523.6155212379975
 20
331.2987109572321
 30
0.0
 10
523.8242460619178
 20
331.7080634035962
 30
0.0
  0
SPLINE
  5
1FA
330
1F
100
AcDbEntity
  8
0
  6
Continuous
 62
     7
370
    15
100
AcDbSpline
210
0.0
220
0.0
230
1.0
 70
     8
 71
     3
 72
    11
 73
     7
 74
     0
 42
0.00000001
 43
0.00000001
 12
1.0
 22
0.0
 32
0.0
 13
1.0
 23
0.0
 33
0.0
 40
0.0
 40
0.0
 40
0.0
 40
0.0
 40
0.2500340283031642
 40
0.5000469333703981
 40
0.7500318504733304
 40
1.0
 40
1.0
 40
1.0
 40
1.0
 10
520.489269329187
 20
333.8170769014256
 30
0.0
 10
520.4224282866078
 20
333.5113587841985
 30
0.0
 10
520.2887518482772
 20
332.8999483772523
 30
0.0
 10
520.2676968069677
 20
331.9277846813537
 30
0.0
 10
520.3967379010477
 20
331.0654088539767
 30
0.0
 10
520.6119744580252
 20
330.7112571105416
 30
0.0
 10
520.7195891271797
 20
330.5341871776478
 30
0.0
  0
LINE
  5
1FB
330
1F
100
AcDbEntity
  8
0
  6
Continuous
 62
     7
370
    15
100
AcDbLine
 10
520.5208448898
 20
333.7451117434
 30
0.0
 11
520.4892693292
 21
333.8170769014
 31
0.0
  0
SPLINE
  5
1FC
330
1F
100
AcDbEntity
  8
0
  6
Continuous
 62
     7
370
    15
100
AcDbSpline
210
0.0
220
0.0
230
1.0
 70
     8
 71
     3
 72
    11
 73
     7
 74
     0
 42
0.00000001
 43
0.00000001
 12
1.0
 22
0.0
 32
0.0
 13
1.0
 23
0.0
 33
0.0
 40
0.0
 40
0.0
 40
0.0
 40
0.0
 40
0.2499721802968229
 40
0.4999562820232431
 40
0.7499639652350957
 40
1.0
 40
1.0
 40
1.0
 40
1.0
 10
520.6286622415748
 20
332.7622684039967
 30
0.0
 10
520.5958630003311
 20
332.8148896196166
 30
0.0
 10
520.5302629536143
 20
332.920134560416
 30
0.0
 10
520.4808010183258
 20
333.1739010419913
 30
0.0
 10
520.4725302467199
 20
333.462548406224
 30
0.0
 10
520.5047394000113
 20
333.6509204042534
 30
0.0
 10
520.5208448897567
 20
333.7451117434399
 30
0.0
  0
SPLINE
  5
1FD
330
1F
100
AcDbEntity
  8
0
  6
Continuous
 62
     7
370
    15
100
AcDbSpline
210
0.0
220
0.0
230
1.0
 70
     8
 71
     3
 72
    11
 73
     7
 74
     0
 42
0.00000001
 43
0.00000001
 12
1.0
 22
0.0
 32
0.0
 13
1.0
 23
0.0
 33
0.0
 40
0.0
 40
0.0
 40
0.0
 40
0.0
 40
0.2500312711268256
 40
0.5000415749110358
 40
0.7500299950465297
 40
1.0
 40
1.0
 40
1.0
 40
1.0
 10
521.6375602613655
 20
333.1482457318203
 30
0.0
 10
521.5648805587715
 20
333.0142879019014
 30
0.0
 10
521.4195272484219
 20
332.7463834756169
 30
0.0
 10
521.1463814980705
 20
332.5569278915574
 30
0.0
 10
520.8678928599434
 20
332.538371082797
 30
0.0
 10
520.7084038228551
 20
332.687637796265
 30
0.0
 10
520.6286622415748
 20
332.7622684039967
 30
0.0
  0
SPLINE
  5
1FE
330
1F
100
AcDbEntity
  8
0
  6
Continuous
 62
     7
370
    15
100
AcDbSpline
210
0.0
220
0.0
230
1.0
 70
     8
 71
     3
 72
    11
 73
     7
 74
     0
 42
0.00000001
 43
0.00000001
 12
1.0
 22
0.0
 32
0.0
 13
1.0
 23
0.0
 33
0.0
 40
0.0
 40
0.0
 40
0.0
 40
0.0
 40
0.2648196365142683
 40
0.4995330900820478
 40
0.7415013154866831
 40
1.0
 40
1.0
 40
1.0
 40
1.0
 10
521.6403765808311
 20
333.197993258466
 30
0.0
 10
521.6414067692257
 20
333.1939590223208
 30
0.0
 10
521.6433500284147
 20
333.1863491846428
 30
0.0
 10
521.6437629400451
 20
333.172589719152
 30
0.0
 10
521.6418989047655
 20
333.1590203830667
 30
0.0
 10
521.6390379747425
 20
333.1519155070957
 30
0.0
 10
521.6375602613655
 20
333.1482457318203
 30
0.0
  0
SPLINE
  5
1FF
330
1F
100
AcDbEntity
  8
0
  6
Continuous
 62
     7
370
    15
100
AcDbSpline
210
0.0
220
0.0
230
1.0
 70
     8
 71
     3
 72
    11
 73
     7
 74
     0
 42
0.00000001
 43
0.00000001
 12
1.0
 22
0.0
 32
0.0
 13
1.0
 23
0.0
 33
0.0
 40
0.0
 40
0.0
 40
0.0
 40
0.0
 40
0.2500026307843924
 40
0.4999952290616379
 40
0.749988857410065
 40
0.9999999999999999
 40
0.9999999999999999
 40
0.9999999999999999
 40
0.9999999999999999
 10
521.2142629753318
 20
333.6703377165692
 30
0.0
 10
521.2362838864307
 20
333.5883981953258
 30
0.0
 10
521.2803248249376
 20
333.4245224410396
 30
0.0
 10
521.3854196379621
 20
333.2612383447882
 30
0.0
 10
521.5087444934561
 20
333.1715524105114
 30
0.0
 10
521.5964981937562
 20
333.1891794366671
 30
0.0
 10
521.6403765808311
 20
333.197993258466
 30
0.0
  0
SPLINE
  5
200
330
1F
100
AcDbEntity
  8
0
  6
Continuous
 62
     7
370
    15
100
AcDbSpline
210
0.0
220
0.0
230
1.0
 70
     8
 71
     3
 72
    15
 73
    11
 74
     0
 42
0.00000001
 43
0.00000001
 12
1.0
 22
0.0
 32
0.0
 13
1.0
 23
0.0
 33
0.0
 40
0.0
 40
0.0
 40
0.0
 40
0.0
 40
0.1250213895432934
 40
0.2500343016943126
 40
0.3750407379979448
 40
0.5000301970588833
 40
0.625017134474763
 40
0.7500026237401687
 40
0.8749971605706027
 40
1.0
 40
1.0
 40
1.0
 40
1.0
 10
520.60538662779
 20
333.9909660019772
 30
0.0
 10
520.6305643310511
 20
334.050061022717
 30
0.0
 10
520.6809180303354
 20
334.1682470571091
 30
0.0
 10
520.7762087143545
 20
334.2806715583015
 30
0.0
 10
520.8769636117906
 20
334.3320779522696
 30
0.0
 10
520.9771278896554
 20
334.3144886308789
 30
0.0
 10
521.0685089271161
 20
334.2304076342269
 30
0.0
 10
521.1429363243077
 20
334.0863654979339
 30
0.0
 10
521.1966017776825
 20
333.8956968283952
 30
0.0
 10
521.2083757791077
 20
333.7454590836803
 30
0.0
 10
521.2142629753318
 20
333.6703377165692
 30
0.0
  0
LINE
  5
201
330
1F
100
AcDbEntity
  8
0
  6
Continuous
 62
     7
370
    15
100
AcDbLine
 10
520.7108570467
 20
330.5354686775
 30
0.0
 11
520.7195891272
 21
330.5341871776
 31
0.0
  0
LINE
  5
202
330
1F
100
AcDbEntity
  8
0
  6
Continuous
 62
     7
370
    15
100
AcDbLine
 10
520.4803137313
 20
333.8177325525
 30
0.0
 11
520.4892693292
 21
333.8170769014
 31
0.0
  0
SPLINE
  5
203
330
1F
100
AcDbEntity
  8
0
  6
Continuous
 62
     7
370
    15
100
AcDbSpline
210
0.0
220
0.0
230
1.0
 70
     8
 71
     3
 72
     9
 73
     5
 74
     0
 42
0.00000001
 43
0.00000001
 12
1.0
 22
0.0
 32
0.0
 13
1.0
 23
0.0
 33
0.0
 40
0.0
 40
0.0
 40
0.0
 40
0.0
 40
0.4998150439531233
 40
1.0
 40
1.0
 40
1.0
 40
1.0
 10
520.5404548178878
 20
334.0254174866574
 30
0.0
 10
520.5419501773812
 20
334.0253212314015
 30
0.0
 10
520.5449420030802
 20
334.0251286496515
 30
0.0
 10
520.5479305104827
 20
334.0249288350486
 30
0.0
 10
520.5494253169265
 20
334.0248288907902
 30
0.0
  0
LINE
  5
204
330
1F
100
AcDbEntity
  8
0
  6
Continuous
 62
     7
370
    15
100
AcDbLine
 10
520.5964012276
 20
333.9915471473
 30
0.0
 11
520.6053866278
 21
333.990966002
 31
0.0
  0
LINE
  5
205
330
1F
100
AcDbEntity
  8
0
  6
Continuous
 62
     7
370
    15
100
AcDbLine
 10
521.2052477728
 20
333.6707996526
 30
0.0
 11
521.2142629753
 21
333.6703377166
 31
0.0
  0
LINE
  5
206
330
1F
100
AcDbEntity
  8
0
  6
Continuous
 62
     7
370
    15
100
AcDbLine
 10
521.6285450588
 20
333.1487076678
 30
0.0
 11
521.6375602614
 21
333.1482457318
 31
0.0
  0
LINE
  5
207
330
1F
100
AcDbEntity
  8
0
  6
Continuous
 62
     7
370
    15
100
AcDbLine
 10
523.7959189545
 20
331.8278985419
 30
0.0
 11
523.8050086628
 21
331.827771882
 31
0.0
  0
SPLINE
  5
208
330
1F
100
AcDbEntity
  8
0
  6
Continuous
 62
     7
370
    15
100
AcDbSpline
210
0.0
220
0.0
230
1.0
 70
     8
 71
     3
 72
    12
 73
     8
 74
     0
 42
0.00000001
 43
0.00000001
 12
1.0
 22
0.0
 32
0.0
 13
1.0
 23
0.0
 33
0.0
 40
0.0
 40
0.0
 40
0.0
 40
0.0
 40
0.0304700316932101
 40
0.088809933370042
 40
0.392546446532631
 40
0.6962776790717315
 40
1.0
 40
1.0
 40
1.0
 40
1.0
 10
508.3759365807738
 20
362.0655434527295
 30
0.0
 10
508.3796490666182
 20
362.0752486814793
 30
0.0
 10
508.3904697189824
 20
362.1035361715384
 30
0.0
 10
508.4341448653248
 20
362.2269347683604
 30
0.0
 10
508.4823519842132
 20
362.423659990051
 30
0.0
 10
508.4848538679993
 20
362.6389862755659
 30
0.0
 10
508.4311019833454
 20
362.70920986688
 30
0.0
 10
508.4042264353004
 20
362.7443211474316
 30
0.0
  0
SPLINE
  5
209
330
1F
100
AcDbEntity
  8
0
  6
Continuous
 62
     7
370
    15
100
AcDbSpline
210
0.0
220
0.0
230
1.0
 70
     8
 71
     3
 72
    12
 73
     8
 74
     0
 42
0.00000001
 43
0.00000001
 12
1.0
 22
0.0
 32
0.0
 13
1.0
 23
0.0
 33
0.0
 40
0.0
 40
0.0
 40
0.0
 40
0.0
 40
0.030463508932294
 40
0.0888097991767695
 40
0.3925517863000224
 40
0.696274644706555
 40
0.9999999999999999
 40
0.9999999999999999
 40
0.9999999999999999
 40
0.9999999999999999
 10
476.7083166371551
 20
362.1191280283825
 30
0.0
 10
476.704643619772
 20
362.1288431517684
 30
0.0
 10
476.6939357286721
 20
362.1571655015933
 30
0.0
 10
476.6507903086796
 20
362.2807238019468
 30
0.0
 10
476.6034664072512
 20
362.477603486201
 30
0.0
 10
476.6021288512837
 20
362.6929308501356
 30
0.0
 10
476.6564399498365
 20
362.7629736074439
 30
0.0
 10
476.6835956107345
 20
362.7979951300518
 30
0.0
  0
SPLINE
  5
20A
330
1F
100
AcDbEntity
  8
0
  6
Continuous
 62
     7
370
    15
100
AcDbSpline
210
0.0
220
0.0
230
1.0
 70
     8
 71
     3
 72
    11
 73
     7
 74
     0
 42
0.00000001
 43
0.00000001
 12
1.0
 22
0.0
 32
0.0
 13
1.0
 23
0.0
 33
0.0
 40
0.0
 40
0.0
 40
0.0
 40
0.0
 40
0.2500075366527508
 40
0.4999818888360775
 40
0.7499954772538172
 40
1.0
 40
1.0
 40
1.0
 40
1.0
 10
492.5677417050567
 20
366.8860840001004
 30
0.0
 10
492.567657579559
 20
366.8543933912032
 30
0.0
 10
492.5674893397298
 20
366.7910163798261
 30
0.0
 10
492.5672313134644
 20
366.7108025352899
 30
0.0
 10
492.5669957237506
 20
366.6535399841728
 30
0.0
 10
492.5668721621582
 20
366.6442591346042
 30
0.0
 10
492.5668103824821
 20
366.6396187939541
 30
0.0
  0
SPLINE
  5
20B
330
1F
100
AcDbEntity
  8
0
  6
Continuous
 62
     7
370
    15
100
AcDbSpline
210
0.0
220
0.0
230
1.0
 70
     8
 71
     3
 72
    11
 73
     7
 74
     0
 42
0.00000001
 43
0.00000001
 12
1.0
 22
0.0
 32
0.0
 13
1.0
 23
0.0
 33
0.0
 40
0.0
 40
0.0
 40
0.0
 40
0.0
 40
0.2499969234867451
 40
0.5000083982208057
 40
0.749993017527788
 40
1.0
 40
1.0
 40
1.0
 40
1.0
 10
492.5364492665497
 20
366.8861436047451
 30
0.0
 10
492.536420616556
 20
366.8544535120293
 30
0.0
 10
492.5363633149012
 20
366.7910714820533
 30
0.0
 10
492.5362566220791
 20
366.7108481705652
 30
0.0
 10
492.5361882268242
 20
366.6536054576725
 30
0.0
 10
492.5361735054855
 20
366.644310956088
 30
0.0
 10
492.5361661444869
 20
366.6396634974377
 30
0.0
  0
LINE
  5
20C
330
1F
100
AcDbEntity
  8
0
  6
Continuous
 62
     7
370
    15
100
AcDbLine
 10
508.6780501734
 20
362.6482533612
 30
0.0
 11
508.5465250741
 21
362.7169030108
 31
0.0
  0
LINE
  5
20D
330
1F
100
AcDbEntity
  8
0
  6
Continuous
 62
     7
370
    15
100
AcDbLine
 10
509.8933143746
 20
361.9532035985
 30
0.0
 11
508.6780501734
 21
362.6482533612
 31
0.0
  0
LINE
  5
20E
330
1F
100
AcDbEntity
  8
0
  6
Continuous
 62
     7
370
    15
100
AcDbLine
 10
509.1126201879
 20
362.3995231786
 30
0.0
 11
509.8933143746
 21
361.9532035985
 31
0.0
  0
LINE
  5
20F
330
1F
100
AcDbEntity
  8
0
  6
Continuous
 62
     7
370
    15
100
AcDbLine
 10
509.7948773037
 20
361.9795637526
 30
0.0
 11
509.1126201879
 21
362.3995231786
 31
0.0
  0
LINE
  5
210
330
1F
100
AcDbEntity
  8
0
  6
Continuous
 62
     7
370
    15
100
AcDbLine
 10
508.502417637
 20
362.7418624558
 30
0.0
 11
509.7948773037
 21
361.9795637526
 31
0.0
  0
LINE
  5
211
330
1F
100
AcDbEntity
  8
0
  6
Continuous
 62
     7
370
    15
100
AcDbLine
 10
508.4133012425
 20
362.7852546372
 30
0.0
 11
508.502417637
 21
362.7418624558
 31
0.0
  0
LINE
  5
212
330
1F
100
AcDbEntity
  8
0
  6
Continuous
 62
     7
370
    15
100
AcDbLine
 10
507.9931779038
 20
363.015879909
 30
0.0
 11
508.4133012425
 21
362.7852546372
 31
0.0
  0
LINE
  5
213
330
1F
100
AcDbEntity
  8
0
  6
Continuous
 62
     7
370
    15
100
AcDbLine
 10
508.4975449573
 20
362.7331303754
 30
0.0
 11
508.502417637
 21
362.7418624558
 31
0.0
  0
LINE
  5
214
330
1F
100
AcDbEntity
  8
0
  6
Continuous
 62
     7
370
    15
100
AcDbLine
 10
508.4083615075
 20
362.7765672603
 30
0.0
 11
508.4133012425
 21
362.7852546372
 31
0.0
  0
LINE
  5
215
330
1F
100
AcDbEntity
  8
0
  6
Continuous
 62
     7
370
    15
100
AcDbLine
 10
509.7896171938
 20
361.9710551896
 30
0.0
 11
509.7948773037
 21
361.9795637526
 31
0.0
  0
LINE
  5
216
330
1F
100
AcDbEntity
  8
0
  6
Continuous
 62
     7
370
    15
100
AcDbLine
 10
509.888173474
 20
361.9446205296
 30
0.0
 11
509.8933143746
 21
361.9532035985
 31
0.0
  0
SPLINE
  5
217
330
1F
100
AcDbEntity
  8
0
  6
Continuous
 62
     7
370
    15
100
AcDbSpline
210
0.0
220
0.0
230
1.0
 70
     8
 71
     3
 72
    11
 73
     7
 74
     0
 42
0.00000001
 43
0.00000001
 12
1.0
 22
0.0
 32
0.0
 13
1.0
 23
0.0
 33
0.0
 40
0.0
 40
0.0
 40
0.0
 40
0.0
 40
0.2832758796842901
 40
0.558000593492454
 40
0.7754003133306822
 40
1.0
 40
1.0
 40
1.0
 40
1.0
 10
550.0620318781105
 20
278.6216782727139
 30
0.0
 10
549.764917811226
 20
278.6563752672829
 30
0.0
 10
549.1796585726305
 20
278.7247218684248
 30
0.0
 10
548.5294778662992
 20
279.2077310332377
 30
0.0
 10
548.132937780158
 20
279.7972140103055
 30
0.0
 10
548.0843883062515
 20
280.2160281726889
 30
0.0
 10
548.0597181450096
 20
280.4288463988202
 30
0.0
  0
SPLINE
  5
218
330
1F
100
AcDbEntity
  8
0
  6
Continuous
 62
     7
370
    15
100
AcDbSpline
210
0.0
220
0.0
230
1.0
 70
     8
 71
     3
 72
    11
 73
     7
 74
     0
 42
0.00000001
 43
0.00000001
 12
1.0
 22
0.0
 32
0.0
 13
1.0
 23
0.0
 33
0.0
 40
0.0
 40
0.0
 40
0.0
 40
0.0
 40
0.2832764837175916
 40
0.558001783325281
 40
0.7754019667281116
 40
1.0
 40
1.0
 40
1.0
 40
1.0
 10
550.0620318781105
 20
279.2978706159489
 30
0.0
 10
549.7649178130819
 20
279.33256762099
 30
0.0
 10
549.1796585781424
 20
279.4009142427601
 30
0.0
 10
548.5294778468699
 20
279.8839232668443
 30
0.0
 10
548.1329390168302
 20
280.4734049210314
 30
0.0
 10
548.0843886465412
 20
280.8922157519699
 30
0.0
 10
548.0597181450096
 20
281.1050312914746
 30
0.0
  0
LINE
  5
219
330
1F
100
AcDbEntity
  8
0
  6
Continuous
 62
     7
370
    15
100
AcDbLine
 10
550.0620318781
 20
333.6763354339
 30
0.0
 11
586.0613597761
 21
333.6763354339
 31
0.0
  0
SPLINE
  5
21A
330
1F
100
AcDbEntity
  8
0
  6
Continuous
 62
     7
370
    15
100
AcDbSpline
210
0.0
220
0.0
230
1.0
 70
     8
 71
     3
 72
    11
 73
     7
 74
     0
 42
0.00000001
 43
0.00000001
 12
1.0
 22
0.0
 32
0.0
 13
1.0
 23
0.0
 33
0.0
 40
0.0
 40
0.0
 40
0.0
 40
0.0
 40
0.2833035408993524
 40
0.5580353895685337
 40
0.7754306207486618
 40
1.0
 40
1.0
 40
1.0
 40
1.0
 10
586.061359776136
 20
333.6763354339497
 30
0.0
 10
586.3584770235129
 20
333.6410368719644
 30
0.0
 10
586.9437218755936
 20
333.5715077487982
 30
0.0
 10
587.5928634728092
 20
333.0870636419966
 30
0.0
 10
587.9880040019536
 20
332.4966869071854
 30
0.0
 10
588.03555060235
 20
332.0777314681495
 30
0.0
 10
588.0597098003593
 20
331.8648534216778
 30
0.0
  0
LINE
  5
21B
330
1F
100
AcDbEntity
  8
0
  6
Continuous
 62
     7
370
    15
100
AcDbLine
 10
588.0597098004
 20
331.8648534217
 30
0.0
 11
588.0597098004
 21
281.1089950004
 31
0.0
  0
SPLINE
  5
21C
330
1F
100
AcDbEntity
  8
0
  6
Continuous
 62
     7
370
    15
100
AcDbSpline
210
0.0
220
0.0
230
1.0
 70
     8
 71
     3
 72
    11
 73
     7
 74
     0
 42
0.00000001
 43
0.00000001
 12
1.0
 22
0.0
 32
0.0
 13
1.0
 23
0.0
 33
0.0
 40
0.0
 40
0.0
 40
0.0
 40
0.0
 40
0.283323373253801
 40
0.5580461898784764
 40
0.7754273662642029
 40
1.0
 40
1.0
 40
1.0
 40
1.0
 10
588.0597098003593
 20
281.1089950003521
 30
0.0
 10
588.0207890719985
 20
280.8397165156908
 30
0.0
 10
587.9441290918508
 20
280.3093337567406
 30
0.0
 10
587.4097625809422
 20
279.7209862051163
 30
0.0
 10
586.7584485208884
 20
279.3628496366269
 30
0.0
 10
586.2962297603644
 20
279.3197639855904
 30
0.0
 10
586.061359776136
 20
279.2978706159489
 30
0.0
  0
LINE
  5
21D
330
1F
100
AcDbEntity
  8
0
  6
Continuous
 62
     7
370
    15
100
AcDbLine
 10
586.0613597761
 20
279.2978706159
 30
0.0
 11
550.0620318781
 21
279.2978706159
 31
0.0
  0
LINE
  5
21E
330
1F
100
AcDbEntity
  8
0
  6
Continuous
 62
     7
370
    15
100
AcDbLine
 10
548.059718145
 20
281.1050312915
 30
0.0
 11
548.059718145
 21
331.8688171306
 31
0.0
  0
SPLINE
  5
21F
330
1F
100
AcDbEntity
  8
0
  6
Continuous
 62
     7
370
    15
100
AcDbSpline
210
0.0
220
0.0
230
1.0
 70
     8
 71
     3
 72
    11
 73
     7
 74
     0
 42
0.00000001
 43
0.00000001
 12
1.0
 22
0.0
 32
0.0
 13
1.0
 23
0.0
 33
0.0
 40
0.0
 40
0.0
 40
0.0
 40
0.0
 40
0.2833538449227825
 40
0.5581132080134726
 40
0.7754834237446928
 40
1.0
 40
1.0
 40
1.0
 40
1.0
 10
548.0597181450096
 20
331.8688171305554
 30
0.0
 10
548.09929385977
 20
332.1380345035211
 30
0.0
 10
548.1772449076209
 20
332.6683035447609
 30
0.0
 10
548.7129193063092
 20
333.2556823502041
 30
0.0
 10
549.3649363725516
 20
333.6126894059673
 30
0.0
 10
549.8271748775466
 20
333.654892582704
 30
0.0
 10
550.0620318781105
 20
333.6763354339497
 30
0.0
  0
LINE
  5
220
330
1F
100
AcDbEntity
  8
0
  6
Continuous
 62
     7
370
    15
100
AcDbLine
 10
586.0613597761
 20
278.6216782727
 30
0.0
 11
550.0620318781
 21
278.6216782727
 31
0.0
  0
SPLINE
  5
221
330
1F
100
AcDbEntity
  8
0
  6
Continuous
 62
     7
370
    15
100
AcDbSpline
210
0.0
220
0.0
230
1.0
 70
     8
 71
     3
 72
    11
 73
     7
 74
     0
 42
0.00000001
 43
0.00000001
 12
1.0
 22
0.0
 32
0.0
 13
1.0
 23
0.0
 33
0.0
 40
0.0
 40
0.0
 40
0.0
 40
0.0
 40
0.2833213754386074
 40
0.5580460108850577
 40
0.7754272753112061
 40
1.0
 40
1.0
 40
1.0
 40
1.0
 10
588.0597098003593
 20
280.4328026571171
 30
0.0
 10
588.0207881703087
 20
280.1635273846741
 30
0.0
 10
587.944125898169
 20
279.633147382868
 30
0.0
 10
587.4097649168173
 20
279.0447937589398
 30
0.0
 10
586.7584483373953
 20
278.6866575171825
 30
0.0
 10
586.2962296985402
 20
278.6435717177571
 30
0.0
 10
586.061359776136
 20
278.6216782727139
 30
0.0
  0
LINE
  5
222
330
1F
100
AcDbEntity
  8
0
  6
Continuous
 62
     7
370
    15
100
AcDbLine
 10
588.0597098004
 20
280.4328026571
 30
0.0
 11
588.0597098004
 21
281.1089950004
 31
0.0
  0
SPLINE
  5
223
330
1F
100
AcDbEntity
  8
0
  6
Continuous
 62
     7
370
    15
100
AcDbSpline
210
0.0
220
0.0
230
1.0
 70
     8
 71
     3
 72
    13
 73
     9
 74
     0
 42
0.00000001
 43
0.00000001
 12
1.0
 22
0.0
 32
0.0
 13
1.0
 23
0.0
 33
0.0
 40
0.0
 40
0.0
 40
0.0
 40
0.0
 40
0.1275876454614914
 40
0.2546754250823611
 40
0.5000487305478479
 40
0.7453995116475531
 40
0.8725416383832664
 40
0.9999999999999999
 40
0.9999999999999999
 40
0.9999999999999999
 40
0.9999999999999999
 10
548.0597181450096
 20
281.1050312914746
 30
0.0
 10
548.0675610074414
 20
280.9843367579719
 30
0.0
 10
548.0832160053565
 20
280.7434205508131
 30
0.0
 10
548.2458022619094
 20
280.2904989620876
 30
0.0
 10
548.6137743481199
 20
279.7943799439406
 30
0.0
 10
549.1627784511038
 20
279.4628970307245
 30
0.0
 10
549.6631650663763
 20
279.3176535613707
 30
0.0
 10
549.9289662251855
 20
279.3044703892865
 30
0.0
 10
550.0620318781105
 20
279.2978706159489
 30
0.0
  0
SPLINE
  5
224
330
1F
100
AcDbEntity
  8
0
  6
Continuous
 62
     7
370
    15
100
AcDbSpline
210
0.0
220
0.0
230
1.0
 70
     8
 71
     3
 72
    13
 73
     9
 74
     0
 42
0.00000001
 43
0.00000001
 12
1.0
 22
0.0
 32
0.0
 13
1.0
 23
0.0
 33
0.0
 40
0.0
 40
0.0
 40
0.0
 40
0.0
 40
0.1275755737344405
 40
0.2546501300898573
 40
0.5000018682994068
 40
0.7453534711106322
 40
0.8725116587993867
 40
0.9999999999999999
 40
0.9999999999999999
 40
0.9999999999999999
 40
0.9999999999999999
 10
586.061359776136
 20
279.2978706159489
 30
0.0
 10
586.1945508076052
 20
279.3047153539318
 30
0.0
 10
586.460409800025
 20
279.3183779491039
 30
0.0
 10
586.9605163237959
 20
279.4647473504634
 30
0.0
 10
587.5087285942086
 20
279.797224031353
 30
0.0
 10
587.8756723258532
 20
280.2941398388087
 30
0.0
 10
588.0370177484333
 20
280.7474323892553
 30
0.0
 10
588.0521392479577
 20
280.9883700034288
 30
0.0
 10
588.0597098003593
 20
281.1089950003521
 30
0.0
  0
SPLINE
  5
225
330
1F
100
AcDbEntity
  8
0
  6
Continuous
 62
     7
370
    15
100
AcDbSpline
210
0.0
220
0.0
230
1.0
 70
     8
 71
     3
 72
    13
 73
     9
 74
     0
 42
0.00000001
 43
0.00000001
 12
1.0
 22
0.0
 32
0.0
 13
1.0
 23
0.0
 33
0.0
 40
0.0
 40
0.0
 40
0.0
 40
0.0
 40
0.1275689199951077
 40
0.2546461835048344
 40
0.5000160988654125
 40
0.7453699064602609
 40
0.8725247329648479
 40
1.0
 40
1.0
 40
1.0
 40
1.0
 10
588.0597098003593
 20
331.8648534216778
 30
0.0
 10
588.0521569421134
 20
331.985569064099
 30
0.0
 10
588.0370803346843
 20
332.226535105303
 30
0.0
 10
587.8755683536968
 20
332.6798380582576
 30
0.0
 10
587.50875995866
 20
333.1767883388554
 30
0.0
 10
586.9604679135351
 20
333.5094666613592
 30
0.0
 10
586.4603049913752
 20
333.6557589593399
 30
0.0
 10
586.1944530354624
 20
333.6694708571441
 30
0.0
 10
586.061359776136
 20
333.6763354339497
 30
0.0
  0
SPLINE
  5
226
330
1F
100
AcDbEntity
  8
0
  6
Continuous
 62
     7
370
    15
100
AcDbSpline
210
0.0
220
0.0
230
1.0
 70
     8
 71
     3
 72
    13
 73
     9
 74
     0
 42
0.00000001
 43
0.00000001
 12
1.0
 22
0.0
 32
0.0
 13
1.0
 23
0.0
 33
0.0
 40
0.0
 40
0.0
 40
0.0
 40
0.0
 40
0.1275336389827047
 40
0.2545875731948247
 40
0.4999416385576297
 40
0.74532887128174
 40
0.8725046857161878
 40
1.0
 40
1.0
 40
1.0
 40
1.0
 10
550.0620318781105
 20
333.6763354339497
 30
0.0
 10
549.9288721858476
 20
333.6697490257603
 30
0.0
 10
549.6630536679179
 20
333.6566009834838
 30
0.0
 10
549.1626983411826
 20
333.5111445175008
 30
0.0
 10
548.6137744619822
 20
333.1796451659927
 30
0.0
 10
548.2457101446728
 20
332.6833676671895
 30
0.0
 10
548.083284446574
 20
332.2303570066081
 30
0.0
 10
548.067580146186
 20
331.9894311744295
 30
0.0
 10
548.0597181450096
 20
331.8688171305554
 30
0.0
  0
LINE
  5
227
330
1F
100
AcDbEntity
  8
0
  6
Continuous
 62
     7
370
    15
100
AcDbLine
 10
206.5597189795
 20
397.2490774789
 30
0.0
 11
209.1073258053
 21
397.8706943192
 31
0.0
  0
LINE
  5
228
330
1F
100
AcDbEntity
  8
0
  6
Continuous
 62
     7
370
    15
100
AcDbLine
 10
204.0120972525
 20
397.8706943192
 30
0.0
 11
206.5597189795
 21
397.2490774789
 31
0.0
  0
LINE
  5
229
330
1F
100
AcDbEntity
  8
0
  6
Continuous
 62
     7
370
    15
100
AcDbLine
 10
206.5597189795
 20
398.745452086
 30
0.0
 11
206.5597189795
 21
397.2490774789
 31
0.0
  0
LINE
  5
22A
330
1F
100
AcDbEntity
  8
0
  6
Continuous
 62
     7
370
    15
100
AcDbLine
 10
584.559710158
 20
397.2490774789
 30
0.0
 11
587.107331885
 21
397.8706943192
 31
0.0
  0
LINE
  5
22B
330
1F
100
AcDbEntity
  8
0
  6
Continuous
 62
     7
370
    15
100
AcDbLine
 10
582.0121033322
 20
397.8706943192
 30
0.0
 11
584.559710158
 21
397.2490774789
 31
0.0
  0
LINE
  5
22C
330
1F
100
AcDbEntity
  8
0
  6
Continuous
 62
     7
370
    15
100
AcDbLine
 10
584.559710158
 20
398.745452086
 30
0.0
 11
584.559710158
 21
397.2490774789
 31
0.0
  0
LINE
  5
22D
330
1F
100
AcDbEntity
  8
0
  6
Continuous
 62
     8
370
    15
100
AcDbLine
 10
427.1027421783
 20
335.3090482154
 30
0.0
 11
427.1027421783
 21
340.3945165076
 31
0.0
  0
LINE
  5
22E
330
1F
100
AcDbEntity
  8
0
  6
Continuous
 62
     8
370
    15
100
AcDbLine
 10
427.4695156347
 20
334.9726694026
 30
0.0
 11
427.4695156347
 21
340.0126817026
 31
0.0
  0
LINE
  5
22F
330
1F
100
AcDbEntity
  8
0
  6
Continuous
 62
     8
370
    15
100
AcDbLine
 10
437.2169276904
 20
337.6455726423
 30
0.0
 11
437.2169276904
 21
333.377567152
 31
0.0
  0
LINE
  5
230
330
1F
100
AcDbEntity
  8
0
  6
Continuous
 62
     8
370
    15
100
AcDbLine
 10
437.993386222
 20
333.3037244477
 30
0.0
 11
437.993386222
 21
337.5529321232
 31
0.0
  0
LINE
  5
231
330
1F
100
AcDbEntity
  8
0
  6
Continuous
 62
     8
370
    15
100
AcDbLine
 10
210.5597121845
 20
265.6340757706
 30
0.0
 11
400.559714457
 21
265.6340757706
 31
0.0
  0
LINE
  5
232
330
1F
100
AcDbEntity
  8
0
  6
Continuous
 62
     8
370
    15
100
AcDbLine
 10
395.5597145687
 20
299.491156856
 30
0.0
 11
395.5597145687
 21
299.8292493024
 31
0.0
  0
LINE
  5
233
330
1F
100
AcDbEntity
  8
0
  6
Continuous
 62
     8
370
    15
100
AcDbLine
 10
210.5597121845
 20
315.8709006705
 30
0.0
 11
400.559714457
 21
315.8709006705
 31
0.0
  0
LINE
  5
234
330
1F
100
AcDbEntity
  8
0
  6
Continuous
 62
     8
370
    15
100
AcDbLine
 10
215.5597074162
 20
299.8292493024
 30
0.0
 11
215.5597074162
 21
299.491156856
 31
0.0
  0
LINE
  5
235
330
1F
100
AcDbEntity
  8
0
  6
Continuous
 62
     8
370
    15
100
AcDbLine
 10
210.5597121845
 20
267.5781222381
 30
0.0
 11
400.559714457
 21
267.5781222381
 31
0.0
  0
LINE
  5
236
330
1F
100
AcDbEntity
  8
0
  6
Continuous
 62
     8
370
    15
100
AcDbLine
 10
595.559717549
 20
445.1886760392
 30
0.0
 11
195.5597115885
 21
445.1886760392
 31
0.0
  0
LINE
  5
237
330
1F
100
AcDbEntity
  8
0
  6
Continuous
 62
     8
370
    15
100
AcDbLine
 10
595.559717549
 20
414.2260896363
 30
0.0
 11
195.5597115885
 21
414.2260896363
 31
0.0
  0
LINE
  5
238
330
1F
100
AcDbEntity
  8
0
  6
Continuous
 62
     8
370
    15
100
AcDbLine
 10
595.559717549
 20
408.4218042292
 30
0.0
 11
195.5597115885
 21
408.4218042292
 31
0.0
  0
LINE
  5
239
330
1F
100
AcDbEntity
  8
0
  6
Continuous
 62
     8
370
    15
100
AcDbLine
 10
595.559717549
 20
464.5100878873
 30
0.0
 11
195.5597115885
 21
464.5100878873
 31
0.0
  0
LINE
  5
23A
330
1F
100
AcDbEntity
  8
0
  6
Continuous
 62
     8
370
    15
100
AcDbLine
 10
595.559717549
 20
476.0101037421
 30
0.0
 11
195.5597115885
 21
476.0101037421
 31
0.0
  0
LINE
  5
23B
330
1F
100
AcDbEntity
  8
0
  6
Continuous
 62
     8
370
    15
100
AcDbLine
 10
561.0597146879
 20
115.8600943484
 30
0.0
 11
504.0597109328
 21
115.8600943484
 31
0.0
  0
LINE
  5
23C
330
1F
100
AcDbEntity
  8
0
  6
Continuous
 62
     8
370
    15
100
AcDbLine
 10
287.0597182046
 20
115.8600943484
 30
0.0
 11
230.0597144495
 21
115.8600943484
 31
0.0
  0
LINE
  5
23D
330
1F
100
AcDbEntity
  8
0
  6
Continuous
 62
     8
370
    15
100
AcDbLine
 10
564.4597126375
 20
210.360094937
 30
0.0
 11
500.6597129832
 21
210.360094937
 31
0.0
  0
LINE
  5
23E
330
1F
100
AcDbEntity
  8
0
  6
Continuous
 62
     8
370
    15
100
AcDbLine
 10
564.4597126375
 20
154.8926616409
 30
0.0
 11
500.6597129832
 21
154.8926616409
 31
0.0
  0
LINE
  5
23F
330
1F
100
AcDbEntity
  8
0
  6
Continuous
 62
     8
370
    15
100
AcDbLine
 10
564.3958015572
 20
154.1201966205
 30
0.0
 11
500.7236315142
 21
154.1201966205
 31
0.0
  0
LINE
  5
240
330
1F
100
AcDbEntity
  8
0
  6
Continuous
 62
     8
370
    15
100
AcDbLine
 10
290.4597161542
 20
210.360094937
 30
0.0
 11
226.6597164999
 21
210.360094937
 31
0.0
  0
LINE
  5
241
330
1F
100
AcDbEntity
  8
0
  6
Continuous
 62
     8
370
    15
100
AcDbLine
 10
290.3957976233
 20
154.1201966205
 30
0.0
 11
226.7236275803
 21
154.1201966205
 31
0.0
  0
LINE
  5
242
330
1F
100
AcDbEntity
  8
0
  6
Continuous
 62
     8
370
    15
100
AcDbLine
 10
290.4597161542
 20
154.8926616409
 30
0.0
 11
226.6597164999
 21
154.8926616409
 31
0.0
  0
LINE
  5
243
330
1F
100
AcDbEntity
  8
0
  6
Continuous
 62
     8
370
    15
100
AcDbLine
 10
589.1323698889
 20
513.806869308
 30
0.0
 11
582.9802913796
 21
513.806869308
 31
0.0
  0
LINE
  5
244
330
1F
100
AcDbEntity
  8
0
  6
Continuous
 62
     8
370
    15
100
AcDbLine
 10
592.0673324
 20
480.2600937285
 30
0.0
 11
589.1323698889
 21
513.806869308
 31
0.0
  0
LINE
  5
245
330
1F
100
AcDbEntity
  8
0
  6
Continuous
 62
     8
370
    15
100
AcDbLine
 10
201.9870592486
 20
513.806869308
 30
0.0
 11
199.0520967375
 21
480.2600937285
 31
0.0
  0
LINE
  5
246
330
1F
100
AcDbEntity
  8
0
  6
Continuous
 62
     8
370
    15
100
AcDbLine
 10
208.1391377579
 20
513.806869308
 30
0.0
 11
201.9870592486
 21
513.806869308
 31
0.0
  0
LINE
  5
247
330
1F
100
AcDbEntity
  8
0
  6
Continuous
 62
     8
370
    15
100
AcDbLine
 10
208.8505638968
 20
493.4344189563
 30
0.0
 11
208.1391377579
 21
513.806869308
 31
0.0
  0
LINE
  5
248
330
1F
100
AcDbEntity
  8
0
  6
Continuous
 62
     8
370
    15
100
AcDbLine
 10
307.2688667308
 20
493.4344189563
 30
0.0
 11
208.8505638968
 21
493.4344189563
 31
0.0
  0
LINE
  5
249
330
1F
100
AcDbEntity
  8
0
  6
Continuous
 62
     8
370
    15
100
AcDbLine
 10
307.9802854191
 20
513.806869308
 30
0.0
 11
307.2688667308
 21
493.4344189563
 31
0.0
  0
LINE
  5
24A
330
1F
100
AcDbEntity
  8
0
  6
Continuous
 62
     8
370
    15
100
AcDbLine
 10
313.1391419302
 20
513.806869308
 30
0.0
 11
307.9802854191
 21
513.806869308
 31
0.0
  0
LINE
  5
24B
330
1F
100
AcDbEntity
  8
0
  6
Continuous
 62
     8
370
    15
100
AcDbLine
 10
313.8505606185
 20
493.4344189563
 30
0.0
 11
313.1391419302
 21
513.806869308
 31
0.0
  0
LINE
  5
24C
330
1F
100
AcDbEntity
  8
0
  6
Continuous
 62
     8
370
    15
100
AcDbLine
 10
392.2688652966
 20
493.4344189563
 30
0.0
 11
313.8505606185
 21
493.4344189563
 31
0.0
  0
LINE
  5
24D
330
1F
100
AcDbEntity
  8
0
  6
Continuous
 62
     8
370
    15
100
AcDbLine
 10
392.9802870117
 20
513.806869308
 30
0.0
 11
392.2688652966
 21
493.4344189563
 31
0.0
  0
LINE
  5
24E
330
1F
100
AcDbEntity
  8
0
  6
Continuous
 62
     8
370
    15
100
AcDbLine
 10
398.1391421258
 20
513.806869308
 30
0.0
 11
392.9802870117
 21
513.806869308
 31
0.0
  0
LINE
  5
24F
330
1F
100
AcDbEntity
  8
0
  6
Continuous
 62
     8
370
    15
100
AcDbLine
 10
398.8505638409
 20
493.4344189563
 30
0.0
 11
398.1391421258
 21
513.806869308
 31
0.0
  0
LINE
  5
250
330
1F
100
AcDbEntity
  8
0
  6
Continuous
 62
     8
370
    15
100
AcDbLine
 10
477.2688685189
 20
493.4344189563
 30
0.0
 11
398.8505638409
 21
493.4344189563
 31
0.0
  0
LINE
  5
251
330
1F
100
AcDbEntity
  8
0
  6
Continuous
 62
     8
370
    15
100
AcDbLine
 10
477.9802872072
 20
513.806869308
 30
0.0
 11
477.2688685189
 21
493.4344189563
 31
0.0
  0
LINE
  5
252
330
1F
100
AcDbEntity
  8
0
  6
Continuous
 62
     8
370
    15
100
AcDbLine
 10
483.1391437184
 20
513.806869308
 30
0.0
 11
477.9802872072
 21
513.806869308
 31
0.0
  0
LINE
  5
253
330
1F
100
AcDbEntity
  8
0
  6
Continuous
 62
     8
370
    15
100
AcDbLine
 10
483.8505624067
 20
493.4344189563
 30
0.0
 11
483.1391437184
 21
513.806869308
 31
0.0
  0
LINE
  5
254
330
1F
100
AcDbEntity
  8
0
  6
Continuous
 62
     8
370
    15
100
AcDbLine
 10
582.2688652407
 20
493.4344189563
 30
0.0
 11
483.8505624067
 21
493.4344189563
 31
0.0
  0
LINE
  5
255
330
1F
100
AcDbEntity
  8
0
  6
Continuous
 62
     8
370
    15
100
AcDbLine
 10
582.9802913796
 20
513.806869308
 30
0.0
 11
582.2688652407
 21
493.4344189563
 31
0.0
  0
ARC
  5
256
330
1F
100
AcDbEntity
  8
0
  6
Continuous
 62
     8
370
    15
100
AcDbCircle
 10
590.1285646688
 20
508.0403855795
 30
0.0
 40
5.851900428976351
100
AcDbArc
 50
80.1985519436
 51
99.8014480564
  0
ARC
  5
257
330
1F
100
AcDbEntity
  8
0
  6
Continuous
 62
     8
370
    15
100
AcDbCircle
 10
200.9908644687
 20
508.0403855795
 30
0.0
 40
5.851900428976351
100
AcDbArc
 50
80.1985519436
 51
99.8014480564
  0
ARC
  5
258
330
1F
100
AcDbEntity
  8
0
  6
Continuous
 62
     8
370
    15
100
AcDbCircle
 10
490.5938404263
 20
500.2503878362
 30
0.0
 40
4.99028548125151
100
AcDbArc
 50
182.3058382195
 51
269.9049221249
  0
ELLIPSE
  5
259
330
1F
100
AcDbEntity
  8
0
  6
Continuous
 62
     8
370
    15
100
AcDbEllipse
 10
483.8505639496
 20
493.2600948253
 30
0.0
 11
6.760553814088611
 21
1.993559938669251
 31
0.0
210
0.0
220
0.0
230
1.0
 40
0.0237215373
 41
0.0802715422847238
 42
1.563801406480241
  0
ELLIPSE
  5
25A
330
1F
100
AcDbEntity
  8
0
  6
Continuous
 62
     8
370
    15
100
AcDbEllipse
 10
483.8505639496
 20
493.2600948253
 30
0.0
 11
1.763233435961297
 21
6.802414973564169
 31
0.0
210
0.0
220
0.0
230
1.0
 40
0.00622578
 41
0.063252513524725
 42
1.546782377719323
  0
ARC
  5
25B
330
1F
100
AcDbEntity
  8
0
  6
Continuous
 62
     8
370
    15
100
AcDbCircle
 10
208.8365498641
 20
507.979553695
 30
0.0
 40
5.868900314297029
100
AcDbArc
 50
77.1887468929
 51
96.8246884018
  0
ELLIPSE
  5
25C
330
1F
100
AcDbEntity
  8
0
  6
Continuous
 62
     8
370
    15
100
AcDbEllipse
 10
208.620086871
 20
499.8600948253
 30
0.0
 11
2.006592784372799
 21
-0.169984228254691
 31
0.0
210
0.0
220
0.0
230
1.0
 40
0.1976046802
 41
6.22266640646012
 42
6.306891172813013
  0
ELLIPSE
  5
25D
330
1F
100
AcDbEntity
  8
0
  6
Continuous
 62
     8
370
    15
100
AcDbEllipse
 10
208.8505639496
 20
493.2600948253
 30
0.0
 11
1.77660774039461
 21
6.417921642456463
 31
0.0
210
0.0
220
0.0
230
1.0
 40
0.0069855534
 41
0.0620367957968925
 42
1.545566659991258
  0
ARC
  5
25E
330
1F
100
AcDbEntity
  8
0
  6
Continuous
 62
     8
370
    15
100
AcDbCircle
 10
300.5255887112
 20
500.2503878362
 30
0.0
 40
4.99028548125151
100
AcDbArc
 50
270.0950778751
 51
357.6941617805
  0
ELLIPSE
  5
25F
330
1F
100
AcDbEntity
  8
0
  6
Continuous
 62
     8
370
    15
100
AcDbEllipse
 10
307.2688651844
 20
493.2600948253
 30
0.0
 11
-1.763233435961468
 21
6.802414973564965
 31
0.0
210
0.0
220
0.0
230
1.0
 40
0.00622578
 41
4.73640292946024
 42
6.219932793657806
  0
ELLIPSE
  5
260
330
1F
100
AcDbEntity
  8
0
  6
Continuous
 62
     8
370
    15
100
AcDbEllipse
 10
307.2688651844
 20
493.2600948253
 30
0.0
 11
6.76055381408861
 21
-1.993559938669193
 31
0.0
210
0.0
220
0.0
230
1.0
 40
0.0237215373
 41
1.577791247109552
 42
3.061321111304847
  0
ELLIPSE
  5
261
330
1F
100
AcDbEntity
  8
0
  6
Continuous
 62
     8
370
    15
100
AcDbEllipse
 10
582.2688651844
 20
493.2600948253
 30
0.0
 11
6.374198930136231
 21
-1.99368699956085
 31
0.0
210
0.0
220
0.0
230
1.0
 40
0.0249103201
 41
1.578587482524859
 42
3.06211734671992
  0
ARC
  5
262
330
1F
100
AcDbEntity
  8
0
  6
Continuous
 62
     8
370
    15
100
AcDbCircle
 10
307.2828775679
 20
507.9794723224
 30
0.0
 40
5.868980604713728
100
AcDbArc
 50
83.1754472428
 51
102.8111174624
  0
ELLIPSE
  5
263
330
1F
100
AcDbEntity
  8
0
  6
Continuous
 62
     8
370
    15
100
AcDbEllipse
 10
307.5133105709
 20
500.2600948253
 30
0.0
 11
2.006972406720081
 21
0.1863910633884984
 31
0.0
210
0.0
220
0.0
230
1.0
 40
0.2143980219
 41
3.114111960908537
 42
3.198336727261441
  0
ELLIPSE
  5
264
330
1F
100
AcDbEntity
  8
0
  6
Continuous
 62
     8
370
    15
100
AcDbEllipse
 10
208.8505639496
 20
493.2600948253
 30
0.0
 11
6.374198930136174
 21
1.993686999560907
 31
0.0
210
0.0
220
0.0
230
1.0
 40
0.0249103201
 41
0.0794753068695612
 42
1.563005171064926
  0
ARC
  5
265
330
1F
100
AcDbEntity
  8
0
  6
Continuous
 62
     8
370
    15
100
AcDbCircle
 10
215.208341982
 20
499.8511927696
 30
0.0
 40
4.591089914430573
100
AcDbArc
 50
182.3062687422
 51
269.9045515929
  0
ELLIPSE
  5
266
330
1F
100
AcDbEntity
  8
0
  6
Continuous
 62
     8
370
    15
100
AcDbEllipse
 10
392.2688651844
 20
493.2600948253
 30
0.0
 11
6.760553814088497
 21
-1.993559938669136
 31
0.0
210
0.0
220
0.0
230
1.0
 40
0.0237215373
 41
1.577791247109543
 42
3.061321111304606
  0
ELLIPSE
  5
267
330
1F
100
AcDbEntity
  8
0
  6
Continuous
 62
     8
370
    15
100
AcDbEllipse
 10
313.8505639496
 20
493.2600948253
 30
0.0
 11
6.760553814088554
 21
1.993559938669251
 31
0.0
210
0.0
220
0.0
230
1.0
 40
0.0237215373
 41
0.0802715422847161
 42
1.563801406480249
  0
ARC
  5
268
330
1F
100
AcDbEntity
  8
0
  6
Continuous
 62
     8
370
    15
100
AcDbCircle
 10
470.5255904993
 20
500.2503878362
 30
0.0
 40
4.99028548125151
100
AcDbArc
 50
270.0950778751
 51
357.6941617805
  0
ELLIPSE
  5
269
330
1F
100
AcDbEntity
  8
0
  6
Continuous
 62
     8
370
    15
100
AcDbEllipse
 10
477.2688651844
 20
493.2600948253
 30
0.0
 11
-1.76323343596141
 21
6.802414973564964
 31
0.0
210
0.0
220
0.0
230
1.0
 40
0.00622578
 41
4.736402929460239
 42
6.219932793657885
  0
ELLIPSE
  5
26A
330
1F
100
AcDbEntity
  8
0
  6
Continuous
 62
     8
370
    15
100
AcDbEllipse
 10
477.2688651844
 20
493.2600948253
 30
0.0
 11
6.76055381408861
 21
-1.993559938669193
 31
0.0
210
0.0
220
0.0
230
1.0
 40
0.0237215373
 41
1.577791247109544
 42
3.061321111304743
  0
ELLIPSE
  5
26B
330
1F
100
AcDbEntity
  8
0
  6
Continuous
 62
     8
370
    15
100
AcDbEllipse
 10
398.8505639496
 20
493.2600948253
 30
0.0
 11
6.760553814088666
 21
1.99355993866925
 31
0.0
210
0.0
220
0.0
230
1.0
 40
0.0237215373
 41
0.0802715422848274
 42
1.563801406480251
  0
ARC
  5
26C
330
1F
100
AcDbEntity
  8
0
  6
Continuous
 62
     8
370
    15
100
AcDbCircle
 10
398.8365507184
 20
507.9794951981
 30
0.0
 40
5.868957979169651
100
AcDbArc
 50
77.1888467251
 51
96.8245864813
  0
ELLIPSE
  5
26D
330
1F
100
AcDbEntity
  8
0
  6
Continuous
 62
     8
370
    15
100
AcDbEllipse
 10
398.6061185632
 20
500.2600948253
 30
0.0
 11
2.006972406720024
 21
-0.1863910633884416
 31
0.0
210
0.0
220
0.0
230
1.0
 40
0.2143980219
 41
6.22644123350795
 42
6.310665999860722
  0
ELLIPSE
  5
26E
330
1F
100
AcDbEntity
  8
0
  6
Continuous
 62
     8
370
    15
100
AcDbEllipse
 10
398.8505639496
 20
493.2600948253
 30
0.0
 11
1.763233435961581
 21
6.802414973565588
 31
0.0
210
0.0
220
0.0
230
1.0
 40
0.00622578
 41
0.0632525135228791
 42
1.546782377719359
  0
ARC
  5
26F
330
1F
100
AcDbEntity
  8
0
  6
Continuous
 62
     8
370
    15
100
AcDbCircle
 10
385.5255899695
 20
500.2503879391
 30
0.0
 40
4.990285586696164
100
AcDbArc
 50
270.0950950766
 51
357.6941606462
  0
ELLIPSE
  5
270
330
1F
100
AcDbEntity
  8
0
  6
Continuous
 62
     8
370
    15
100
AcDbEllipse
 10
392.2688651844
 20
493.2600948253
 30
0.0
 11
-1.76323343596141
 21
6.802414973564964
 31
0.0
210
0.0
220
0.0
230
1.0
 40
0.00622578
 41
4.736402929460239
 42
6.219932793657885
  0
ARC
  5
271
330
1F
100
AcDbEntity
  8
0
  6
Continuous
 62
     8
370
    15
100
AcDbCircle
 10
582.2828792733
 20
507.979553695
 30
0.0
 40
5.868900314296927
100
AcDbArc
 50
83.1753115982
 51
102.8112531071
  0
ELLIPSE
  5
272
330
1F
100
AcDbEntity
  8
0
  6
Continuous
 62
     8
370
    15
100
AcDbEllipse
 10
582.2688651844
 20
493.2600948253
 30
0.0
 11
-1.776607740394525
 21
6.417921642456463
 31
0.0
210
0.0
220
0.0
230
1.0
 40
0.0069855534
 41
4.737618647188337
 42
6.221148511383988
  0
ELLIPSE
  5
273
330
1F
100
AcDbEntity
  8
0
  6
Continuous
 62
     8
370
    15
100
AcDbEllipse
 10
582.4993422631
 20
499.8600948253
 30
0.0
 11
2.006592784372742
 21
0.1699842282546911
 31
0.0
210
0.0
220
0.0
230
1.0
 40
0.1976046802
 41
3.117886787956336
 42
3.202111554309537
  0
ARC
  5
274
330
1F
100
AcDbEntity
  8
0
  6
Continuous
 62
     8
370
    15
100
AcDbCircle
 10
405.5938389
 20
500.2503876607
 30
0.0
 40
4.990285307809771
100
AcDbArc
 50
182.3058362833
 51
269.904907994
  0
ARC
  5
275
330
1F
100
AcDbEntity
  8
0
  6
Continuous
 62
     8
370
    15
100
AcDbCircle
 10
392.282878419
 20
507.9794951981
 30
0.0
 40
5.86895797916965
100
AcDbArc
 50
83.1754135187
 51
102.8111532749
  0
ELLIPSE
  5
276
330
1F
100
AcDbEntity
  8
0
  6
Continuous
 62
     8
370
    15
100
AcDbEllipse
 10
392.5133105709
 20
500.2600948253
 30
0.0
 11
2.006972406720081
 21
0.1863910633884984
 31
0.0
210
0.0
220
0.0
230
1.0
 40
0.2143980219
 41
3.114111960908537
 42
3.198336727261455
  0
ARC
  5
277
330
1F
100
AcDbEntity
  8
0
  6
Continuous
 62
     8
370
    15
100
AcDbCircle
 10
483.8365515696
 20
507.9794723224
 30
0.0
 40
5.868980604713848
100
AcDbArc
 50
77.1888825376
 51
96.8245527572
  0
ELLIPSE
  5
278
330
1F
100
AcDbEntity
  8
0
  6
Continuous
 62
     8
370
    15
100
AcDbEllipse
 10
483.6061185632
 20
500.2600948253
 30
0.0
 11
2.006972406720138
 21
-0.1863910633884416
 31
0.0
210
0.0
220
0.0
230
1.0
 40
0.2143980219
 41
6.22644123350794
 42
6.31066599986071
  0
ARC
  5
279
330
1F
100
AcDbEntity
  8
0
  6
Continuous
 62
     8
370
    15
100
AcDbCircle
 10
477.282879356
 20
507.9794723224
 30
0.0
 40
5.868980604713728
100
AcDbArc
 50
83.1754472428
 51
102.8111174624
  0
ELLIPSE
  5
27A
330
1F
100
AcDbEntity
  8
0
  6
Continuous
 62
     8
370
    15
100
AcDbEllipse
 10
477.5133105709
 20
500.2600948253
 30
0.0
 11
2.006972406720024
 21
0.1863910633884984
 31
0.0
210
0.0
220
0.0
230
1.0
 40
0.2143980219
 41
3.114111960908526
 42
3.198336727261427
  0
ARC
  5
27B
330
1F
100
AcDbEntity
  8
0
  6
Continuous
 62
     8
370
    15
100
AcDbCircle
 10
575.9110871554
 20
499.8511927696
 30
0.0
 40
4.591089914430618
100
AcDbArc
 50
270.0954484071
 51
357.6937312578
  0
ARC
  5
27C
330
1F
100
AcDbEntity
  8
0
  6
Continuous
 62
     8
370
    15
100
AcDbCircle
 10
313.8365497814
 20
507.9794723224
 30
0.0
 40
5.868980604713848
100
AcDbArc
 50
77.1888825376
 51
96.8245527572
  0
ELLIPSE
  5
27D
330
1F
100
AcDbEntity
  8
0
  6
Continuous
 62
     8
370
    15
100
AcDbEllipse
 10
313.6061185632
 20
500.2600948253
 30
0.0
 11
2.006972406720024
 21
-0.1863910633884416
 31
0.0
210
0.0
220
0.0
230
1.0
 40
0.2143980219
 41
6.22644123350795
 42
6.310665999860709
  0
ELLIPSE
  5
27E
330
1F
100
AcDbEntity
  8
0
  6
Continuous
 62
     8
370
    15
100
AcDbEllipse
 10
313.8505639496
 20
493.2600948253
 30
0.0
 11
1.763233435961581
 21
6.802414973565532
 31
0.0
210
0.0
220
0.0
230
1.0
 40
0.00622578
 41
0.0632525135245485
 42
1.546782377719389
  0
ARC
  5
27F
330
1F
100
AcDbEntity
  8
0
  6
Continuous
 62
     8
370
    15
100
AcDbCircle
 10
320.5938386381
 20
500.2503878362
 30
0.0
 40
4.99028548125151
100
AcDbArc
 50
182.3058382195
 51
269.9049221249
  0
ARC
  5
280
330
1F
100
AcDbEntity
  8
0
  6
Continuous
 62
     8
370
    15
100
AcDbCircle
 10
201.9472056317
 20
513.6074143001
 30
0.0
 40
1.962696845728892
100
AcDbArc
 50
88.8364983631
 51
174.16736622
  0
LINE
  5
281
330
1F
100
AcDbEntity
  8
0
  6
Continuous
 62
     8
370
    15
100
AcDbLine
 10
201.9870592486
 20
513.806869308
 30
0.0
 11
201.9870592486
 21
515.5697064795
 31
0.0
  0
LINE
  5
282
330
1F
100
AcDbEntity
  8
0
  6
Continuous
 62
     8
370
    15
100
AcDbLine
 10
201.9870592486
 20
515.5697064795
 30
0.0
 11
208.1391377579
 21
515.5697064795
 31
0.0
  0
LINE
  5
283
330
1F
100
AcDbEntity
  8
0
  6
Continuous
 62
     8
370
    15
100
AcDbLine
 10
208.1391377579
 20
515.5697064795
 30
0.0
 11
208.1391377579
 21
513.806869308
 31
0.0
  0
ARC
  5
284
330
1F
100
AcDbEntity
  8
0
  6
Continuous
 62
     8
370
    15
100
AcDbCircle
 10
582.9457732625
 20
513.6032467993
 30
0.0
 40
1.966762612652343
100
AcDbArc
 50
88.9943656849
 51
177.1116250738
  0
LINE
  5
285
330
1F
100
AcDbEntity
  8
0
  6
Continuous
 62
     8
370
    15
100
AcDbLine
 10
582.9802913796
 20
513.806869308
 30
0.0
 11
582.9802913796
 21
515.5697064795
 31
0.0
  0
ARC
  5
286
330
1F
100
AcDbEntity
  8
0
  6
Continuous
 62
     8
370
    15
100
AcDbCircle
 10
208.173655875
 20
513.6032467993
 30
0.0
 40
1.966762612652386
100
AcDbArc
 50
2.8883749262
 51
91.0056343151
  0
LINE
  5
287
330
1F
100
AcDbEntity
  8
0
  6
Continuous
 62
     8
370
    15
100
AcDbLine
 10
477.9802872072
 20
515.5697064795
 30
0.0
 11
483.1391437184
 21
515.5697064795
 31
0.0
  0
LINE
  5
288
330
1F
100
AcDbEntity
  8
0
  6
Continuous
 62
     8
370
    15
100
AcDbLine
 10
483.1391437184
 20
515.5697064795
 30
0.0
 11
483.1391437184
 21
513.806869308
 31
0.0
  0
LINE
  5
289
330
1F
100
AcDbEntity
  8
0
  6
Continuous
 62
     8
370
    15
100
AcDbLine
 10
477.9802872072
 20
513.806869308
 30
0.0
 11
477.9802872072
 21
515.5697064795
 31
0.0
  0
ARC
  5
28A
330
1F
100
AcDbEntity
  8
0
  6
Continuous
 62
     8
370
    15
100
AcDbCircle
 10
477.9457764429
 20
513.6032389291
 30
0.0
 40
1.966770352625407
100
AcDbArc
 50
88.9945838746
 51
177.1114068841
  0
LINE
  5
28B
330
1F
100
AcDbEntity
  8
0
  6
Continuous
 62
     8
370
    15
100
AcDbLine
 10
582.9802913796
 20
515.5697064795
 30
0.0
 11
589.1323698889
 21
515.5697064795
 31
0.0
  0
LINE
  5
28C
330
1F
100
AcDbEntity
  8
0
  6
Continuous
 62
     8
370
    15
100
AcDbLine
 10
589.1323698889
 20
515.5697064795
 30
0.0
 11
589.1323698889
 21
513.806869308
 31
0.0
  0
ARC
  5
28D
330
1F
100
AcDbEntity
  8
0
  6
Continuous
 62
     8
370
    15
100
AcDbCircle
 10
392.9457799042
 20
513.6032357496
 30
0.0
 40
1.966773467465611
100
AcDbArc
 50
88.9946920146
 51
177.1113187204
  0
LINE
  5
28E
330
1F
100
AcDbEntity
  8
0
  6
Continuous
 62
     8
370
    15
100
AcDbLine
 10
392.9802870117
 20
513.806869308
 30
0.0
 11
392.9802870117
 21
515.5697064795
 31
0.0
  0
ARC
  5
28F
330
1F
100
AcDbEntity
  8
0
  6
Continuous
 62
     8
370
    15
100
AcDbCircle
 10
589.1722235058
 20
513.6074143001
 30
0.0
 40
1.962696845728977
100
AcDbArc
 50
5.83263378
 51
91.1635016369
  0
ARC
  5
290
330
1F
100
AcDbEntity
  8
0
  6
Continuous
 62
     8
370
    15
100
AcDbCircle
 10
483.1736471299
 20
513.6032310587
 30
0.0
 40
1.966778092786651
100
AcDbArc
 50
2.8888113083
 51
91.005197933
  0
ARC
  5
291
330
1F
100
AcDbEntity
  8
0
  6
Continuous
 62
     8
370
    15
100
AcDbCircle
 10
313.1736526946
 20
513.6032389291
 30
0.0
 40
1.966770352625406
100
AcDbArc
 50
2.8885931159
 51
91.0054161254
  0
LINE
  5
292
330
1F
100
AcDbEntity
  8
0
  6
Continuous
 62
     8
370
    15
100
AcDbLine
 10
313.1391419302
 20
515.5697064795
 30
0.0
 11
313.1391419302
 21
513.806869308
 31
0.0
  0
LINE
  5
293
330
1F
100
AcDbEntity
  8
0
  6
Continuous
 62
     8
370
    15
100
AcDbLine
 10
392.9802870117
 20
515.5697064795
 30
0.0
 11
398.1391421258
 21
515.5697064795
 31
0.0
  0
LINE
  5
294
330
1F
100
AcDbEntity
  8
0
  6
Continuous
 62
     8
370
    15
100
AcDbLine
 10
398.1391421258
 20
515.5697064795
 30
0.0
 11
398.1391421258
 21
513.806869308
 31
0.0
  0
ARC
  5
295
330
1F
100
AcDbEntity
  8
0
  6
Continuous
 62
     8
370
    15
100
AcDbCircle
 10
398.1736492333
 20
513.6032357496
 30
0.0
 40
1.966773467465621
100
AcDbArc
 50
2.8886812796
 51
91.0053079854
  0
LINE
  5
296
330
1F
100
AcDbEntity
  8
0
  6
Continuous
 62
     8
370
    15
100
AcDbLine
 10
307.9802854191
 20
515.5697064795
 30
0.0
 11
313.1391419302
 21
515.5697064795
 31
0.0
  0
LINE
  5
297
330
1F
100
AcDbEntity
  8
0
  6
Continuous
 62
     8
370
    15
100
AcDbLine
 10
307.9802854191
 20
513.806869308
 30
0.0
 11
307.9802854191
 21
515.5697064795
 31
0.0
  0
ARC
  5
298
330
1F
100
AcDbEntity
  8
0
  6
Continuous
 62
     8
370
    15
100
AcDbCircle
 10
307.9457820076
 20
513.6032310587
 30
0.0
 40
1.966778092786652
100
AcDbArc
 50
88.994802067
 51
177.1111886917
  0
LINE
  5
299
330
1F
100
AcDbEntity
  8
0
  6
Continuous
 62
     8
370
    15
100
AcDbLine
 10
313.1391419302
 20
515.5697064795
 30
0.0
 11
312.6467926632
 21
529.6686785617
 31
0.0
  0
ARC
  5
29A
330
1F
100
AcDbEntity
  8
0
  6
Continuous
 62
     8
370
    15
100
AcDbCircle
 10
312.681263979
 20
527.7021703684
 30
0.0
 40
1.966810297417348
100
AcDbArc
 50
2.8888506008
 51
91.0042463375
  0
LINE
  5
29B
330
1F
100
AcDbEntity
  8
0
  6
Continuous
 62
     8
370
    15
100
AcDbLine
 10
208.1391377579
 20
515.5697064795
 30
0.0
 11
207.6467884909
 21
529.6686785617
 31
0.0
  0
ARC
  5
29C
330
1F
100
AcDbEntity
  8
0
  6
Continuous
 62
     8
370
    15
100
AcDbCircle
 10
207.6812701859
 20
527.7021814779
 30
0.0
 40
1.966799371482199
100
AcDbArc
 50
2.8885426122
 51
91.0045543261
  0
LINE
  5
29D
330
1F
100
AcDbEntity
  8
0
  6
Continuous
 62
     8
370
    15
100
AcDbLine
 10
203.220562471
 20
529.6686785617
 30
0.0
 11
201.9870592486
 21
515.5697064795
 31
0.0
  0
LINE
  5
29E
330
1F
100
AcDbEntity
  8
0
  6
Continuous
 62
     8
370
    15
100
AcDbLine
 10
207.6467884909
 20
529.6686785617
 30
0.0
 11
203.220562471
 21
529.6686785617
 31
0.0
  0
ARC
  5
29F
330
1F
100
AcDbEntity
  8
0
  6
Continuous
 62
     8
370
    15
100
AcDbCircle
 10
393.4381687195
 20
527.7021636018
 30
0.0
 40
1.966816948151332
100
AcDbArc
 50
88.9959479137
 51
177.1109618067
  0
LINE
  5
2A0
330
1F
100
AcDbEntity
  8
0
  6
Continuous
 62
     8
370
    15
100
AcDbLine
 10
393.4726334847
 20
529.6686785617
 30
0.0
 11
392.9802870117
 21
515.5697064795
 31
0.0
  0
LINE
  5
2A1
330
1F
100
AcDbEntity
  8
0
  6
Continuous
 62
     8
370
    15
100
AcDbLine
 10
478.4726364742
 20
529.6686785617
 30
0.0
 11
477.9802872072
 21
515.5697064795
 31
0.0
  0
LINE
  5
2A2
330
1F
100
AcDbEntity
  8
0
  6
Continuous
 62
     8
370
    15
100
AcDbLine
 10
482.6467944514
 20
529.6686785617
 30
0.0
 11
478.4726364742
 21
529.6686785617
 31
0.0
  0
LINE
  5
2A3
330
1F
100
AcDbEntity
  8
0
  6
Continuous
 62
     8
370
    15
100
AcDbLine
 10
483.1391437184
 20
515.5697064795
 30
0.0
 11
482.6467944514
 21
529.6686785617
 31
0.0
  0
ARC
  5
2A4
330
1F
100
AcDbEntity
  8
0
  6
Continuous
 62
     8
370
    15
100
AcDbCircle
 10
482.6812627409
 20
527.7021671291
 30
0.0
 40
1.966813483093941
100
AcDbArc
 50
2.8889404002
 51
91.0041565381
  0
ARC
  5
2A5
330
1F
100
AcDbEntity
  8
0
  6
Continuous
 62
     8
370
    15
100
AcDbCircle
 10
203.1807561158
 20
527.7063363388
 30
0.0
 40
1.962745919765021
100
AcDbArc
 50
88.8379073884
 51
174.1669186113
  0
LINE
  5
2A6
330
1F
100
AcDbEntity
  8
0
  6
Continuous
 62
     8
370
    15
100
AcDbLine
 10
583.4726406466
 20
529.6686785617
 30
0.0
 11
582.9802913796
 21
515.5697064795
 31
0.0
  0
LINE
  5
2A7
330
1F
100
AcDbEntity
  8
0
  6
Continuous
 62
     8
370
    15
100
AcDbLine
 10
587.8988666664
 20
529.6686785617
 30
0.0
 11
583.4726406466
 21
529.6686785617
 31
0.0
  0
LINE
  5
2A8
330
1F
100
AcDbEntity
  8
0
  6
Continuous
 62
     8
370
    15
100
AcDbLine
 10
589.1323698889
 20
515.5697064795
 30
0.0
 11
587.8988666664
 21
529.6686785617
 31
0.0
  0
ARC
  5
2A9
330
1F
100
AcDbEntity
  8
0
  6
Continuous
 62
     8
370
    15
100
AcDbCircle
 10
308.4381663966
 20
527.7021671291
 30
0.0
 40
1.966813483093939
100
AcDbArc
 50
88.9958434619
 51
177.1110595998
  0
LINE
  5
2AA
330
1F
100
AcDbEntity
  8
0
  6
Continuous
 62
     8
370
    15
100
AcDbLine
 10
308.4726346861
 20
529.6686785617
 30
0.0
 11
307.9802854191
 21
515.5697064795
 31
0.0
  0
ARC
  5
2AB
330
1F
100
AcDbEntity
  8
0
  6
Continuous
 62
     8
370
    15
100
AcDbCircle
 10
587.9386730217
 20
527.7063363388
 30
0.0
 40
1.962745919765021
100
AcDbArc
 50
5.8330813887
 51
91.1620926116
  0
ARC
  5
2AC
330
1F
100
AcDbEntity
  8
0
  6
Continuous
 62
     8
370
    15
100
AcDbCircle
 10
583.4381589516
 20
527.7021814779
 30
0.0
 40
1.966799371482103
100
AcDbArc
 50
88.9954456739
 51
177.1114573878
  0
ARC
  5
2AD
330
1F
100
AcDbEntity
  8
0
  6
Continuous
 62
     8
370
    15
100
AcDbCircle
 10
478.4381651585
 20
527.7021703684
 30
0.0
 40
1.966810297417334
100
AcDbArc
 50
88.9957536625
 51
177.1111493992
  0
LINE
  5
2AE
330
1F
100
AcDbEntity
  8
0
  6
Continuous
 62
     8
370
    15
100
AcDbLine
 10
398.1391421258
 20
515.5697064795
 30
0.0
 11
397.6467956528
 21
529.6686785617
 31
0.0
  0
ARC
  5
2AF
330
1F
100
AcDbEntity
  8
0
  6
Continuous
 62
     8
370
    15
100
AcDbCircle
 10
397.681260418
 20
527.7021636018
 30
0.0
 40
1.96681694815136
100
AcDbArc
 50
2.8890381933
 51
91.0040520863
  0
LINE
  5
2B0
330
1F
100
AcDbEntity
  8
0
  6
Continuous
 62
     8
370
    15
100
AcDbLine
 10
397.6467956528
 20
529.6686785617
 30
0.0
 11
393.4726334847
 21
529.6686785617
 31
0.0
  0
LINE
  5
2B1
330
1F
100
AcDbEntity
  8
0
  6
Continuous
 62
     8
370
    15
100
AcDbLine
 10
312.6467926632
 20
529.6686785617
 30
0.0
 11
308.4726346861
 21
529.6686785617
 31
0.0
  0
SPLINE
  5
2B2
330
1F
100
AcDbEntity
  8
0
  6
Continuous
 62
     8
370
    15
100
AcDbSpline
210
0.0
220
0.0
230
1.0
 70
     8
 71
     3
 72
    12
 73
     8
 74
     0
 42
0.00000001
 43
0.00000001
 12
1.0
 22
0.0
 32
0.0
 13
1.0
 23
0.0
 33
0.0
 40
0.0
 40
0.0
 40
0.0
 40
0.0
 40
0.0468239833202235
 40
0.1652808665585598
 40
0.3631818729083338
 40
0.8486929238096549
 40
1.0
 40
1.0
 40
1.0
 40
1.0
 10
210.7421918045249
 20
499.5752172865766
 30
0.0
 10
210.7425173404881
 20
499.5728735963058
 30
0.0
 10
210.7436664282479
 20
499.5646007597927
 30
0.0
 10
210.758618600093
 20
499.4566061999334
 30
0.0
 10
210.801897934051
 20
499.1407225684471
 30
0.0
 10
210.8593073987076
 20
498.7274789775172
 30
0.0
 10
210.9034896517883
 20
498.3794005844899
 30
0.0
 10
210.9139872919288
 20
498.2966976561444
 30
0.0
  0
SPLINE
  5
2B3
330
1F
100
AcDbEntity
  8
0
  6
Continuous
 62
     8
370
    15
100
AcDbSpline
210
0.0
220
0.0
230
1.0
 70
     8
 71
     3
 72
    12
 73
     8
 74
     0
 42
0.00000001
 43
0.00000001
 12
1.0
 22
0.0
 32
0.0
 13
1.0
 23
0.0
 33
0.0
 40
0.0
 40
0.0
 40
0.0
 40
0.0
 40
0.1513172399057829
 40
0.6368609039292891
 40
0.8444712893710271
 40
0.9532055128761627
 40
0.9999999999999999
 40
0.9999999999999999
 40
0.9999999999999999
 40
0.9999999999999999
 10
580.205441845533
 20
498.2966976561444
 30
0.0
 10
580.2159393085733
 20
498.37939770939
 30
0.0
 10
580.2601208162783
 20
498.7274640017555
 30
0.0
 10
580.3182085946812
 20
499.1456940506841
 30
0.0
 10
580.3612947411854
 20
499.4600414944794
 30
0.0
 10
580.3759358552373
 20
499.5658635295466
 30
0.0
 10
580.3768332269923
 20
499.5722978827562
 30
0.0
 10
580.3771032224861
 20
499.5742338099378
 30
0.0
  0
LINE
  5
2B4
330
1F
100
AcDbEntity
  8
0
  6
Continuous
 62
     8
370
    15
100
AcDbLine
 10
587.8988666664
 20
529.6686785617
 30
0.0
 11
587.8988666664
 21
529.7315018573
 31
0.0
  0
LINE
  5
2B5
330
1F
100
AcDbEntity
  8
0
  6
Continuous
 62
     8
370
    15
100
AcDbLine
 10
583.4726406466
 20
529.7315018573
 30
0.0
 11
583.4726406466
 21
529.6686785617
 31
0.0
  0
LINE
  5
2B6
330
1F
100
AcDbEntity
  8
0
  6
Continuous
 62
     8
370
    15
100
AcDbLine
 10
207.6467884909
 20
529.6686785617
 30
0.0
 11
207.6467884909
 21
529.7315018573
 31
0.0
  0
LINE
  5
2B7
330
1F
100
AcDbEntity
  8
0
  6
Continuous
 62
     8
370
    15
100
AcDbLine
 10
312.6467926632
 20
529.6686785617
 30
0.0
 11
312.6467926632
 21
529.7315018573
 31
0.0
  0
LINE
  5
2B8
330
1F
100
AcDbEntity
  8
0
  6
Continuous
 62
     8
370
    15
100
AcDbLine
 10
482.6467944514
 20
529.6686785617
 30
0.0
 11
482.6467944514
 21
529.7315018573
 31
0.0
  0
LINE
  5
2B9
330
1F
100
AcDbEntity
  8
0
  6
Continuous
 62
     8
370
    15
100
AcDbLine
 10
397.6467956528
 20
529.6686785617
 30
0.0
 11
397.6467956528
 21
529.7315018573
 31
0.0
  0
LINE
  5
2BA
330
1F
100
AcDbEntity
  8
0
  6
Continuous
 62
     8
370
    15
100
AcDbLine
 10
203.220562471
 20
529.7315018573
 30
0.0
 11
203.220562471
 21
529.6686785617
 31
0.0
  0
LINE
  5
2BB
330
1F
100
AcDbEntity
  8
0
  6
Continuous
 62
     8
370
    15
100
AcDbLine
 10
308.4726346861
 20
529.7315018573
 30
0.0
 11
308.4726346861
 21
529.6686785617
 31
0.0
  0
LINE
  5
2BC
330
1F
100
AcDbEntity
  8
0
  6
Continuous
 62
     8
370
    15
100
AcDbLine
 10
393.4726334847
 20
529.7315018573
 30
0.0
 11
393.4726334847
 21
529.6686785617
 31
0.0
  0
LINE
  5
2BD
330
1F
100
AcDbEntity
  8
0
  6
Continuous
 62
     8
370
    15
100
AcDbLine
 10
478.4726364742
 20
529.7315018573
 30
0.0
 11
478.4726364742
 21
529.6686785617
 31
0.0
  0
LINE
  5
2BE
330
1F
100
AcDbEntity
  8
0
  6
Continuous
 62
     8
370
    15
100
AcDbLine
 10
595.559717549
 20
262.6958163776
 30
0.0
 11
400.559714457
 21
262.6958163776
 31
0.0
  0
LINE
  5
2BF
330
1F
100
AcDbEntity
  8
0
  6
Continuous
 62
     8
370
    15
100
AcDbLine
 10
595.559717549
 20
271.8243720331
 30
0.0
 11
400.559714457
 21
271.8243720331
 31
0.0
  0
LINE
  5
2C0
330
1F
100
AcDbEntity
  8
0
  6
Continuous
 62
     8
370
    15
100
AcDbLine
 10
210.5597121845
 20
271.8243720331
 30
0.0
 11
195.5597115885
 21
271.8243720331
 31
0.0
  0
LINE
  5
2C1
330
1F
100
AcDbEntity
  8
0
  6
Continuous
 62
     8
370
    15
100
AcDbLine
 10
210.5597121845
 20
262.6958163776
 30
0.0
 11
195.5597115885
 21
262.6958163776
 31
0.0
  0
LINE
  5
2C2
330
1F
100
AcDbEntity
  8
0
  6
Continuous
 62
     8
370
    15
100
AcDbLine
 10
595.559717549
 20
218.4958176543
 30
0.0
 11
195.5597115885
 21
218.4958176543
 31
0.0
  0
LINE
  5
2C3
330
1F
100
AcDbEntity
  8
0
  6
Continuous
 62
     8
370
    15
100
AcDbLine
 10
595.559717549
 20
391.7170362868
 30
0.0
 11
195.5597115885
 21
391.7170362868
 31
0.0
  0
LINE
  5
2C4
330
1F
100
AcDbEntity
  8
0
  6
Continuous
 62
     8
370
    15
100
AcDbLine
 10
595.559717549
 20
393.3782028355
 30
0.0
 11
195.5597115885
 21
393.3782028355
 31
0.0
  0
LINE
  5
2C5
330
1F
100
AcDbEntity
  8
0
  6
Continuous
 62
     8
370
    15
100
AcDbLine
 10
372.7683792095
 20
387.9555957713
 30
0.0
 11
372.7683792095
 21
388.2936882176
 31
0.0
  0
LINE
  5
2C6
330
1F
100
AcDbEntity
  8
0
  6
Continuous
 62
     8
370
    15
100
AcDbLine
 10
418.7683792989
 20
387.9555957713
 30
0.0
 11
418.7683792989
 21
388.2936882176
 31
0.0
  0
LWPOLYLINE
  5
2C7
330
1F
100
AcDbEntity
  8
0
  6
Continuous
 62
     8
370
    15
100
AcDbPolyline
 90
       15
 70
   128
 43
0.0
 10
440.499713106
 20
321.3981064358
 10
442.7896751295
 20
321.5574445524
 10
445.0259594451
 20
322.0317187109
 10
447.1561512183
 20
322.8098275461
 10
449.1303241085
 20
323.8735245862
 10
450.9021988343
 20
325.1978727379
 10
452.4302533101
 20
326.7518328824
 10
453.6786651443
 20
328.4989865818
 10
454.6181721817
 20
330.3983705439
 10
455.2267542313
 20
332.405482451
 10
455.4901471566
 20
334.4732644358
 10
455.4021781515
 20
336.5532504716
 10
454.9649073015
 20
338.5966914096
 10
454.1885828804
 20
340.5556874671
 10
453.9997143875
 20
340.9227775731
  0
LWPOLYLINE
  5
2C8
330
1F
100
AcDbEntity
  8
0
  6
Continuous
 62
     8
370
    15
100
AcDbPolyline
 90
        3
 70
   128
 43
0.0
 10
431.0356093775
 20
345.5428378978
 10
430.9551617335
 20
345.4831289449
 10
429.5659749042
 20
344.3028526702
  0
LWPOLYLINE
  5
2C9
330
1F
100
AcDbEntity
  8
0
  6
Continuous
 62
     8
370
    15
100
AcDbPolyline
 90
       15
 70
   128
 43
0.0
 10
426.9997155498
 20
340.9227775731
 10
426.810847057
 20
340.5556874671
 10
426.0345244985
 20
338.5966914096
 10
425.5972536485
 20
336.5532504716
 10
425.5092827808
 20
334.4732644358
 10
425.772675706
 20
332.405482451
 10
426.3812577556
 20
330.3983705439
 10
427.320764793
 20
328.4989865818
 10
428.5691766273
 20
326.7518328824
 10
430.0972273778
 20
325.1978727379
 10
431.8691058289
 20
323.8735245862
 10
433.8432787191
 20
322.8098275461
 10
435.9734704922
 20
322.0317187109
 10
438.2097548078
 20
321.5574445524
 10
440.499713106
 20
321.3981064358
  0
LWPOLYLINE
  5
2CA
330
1F
100
AcDbEntity
  8
0
  6
Continuous
 62
     8
370
    15
100
AcDbPolyline
 90
       14
 70
   128
 43
0.0
 10
440.499713106
 20
321.875688652
 10
438.2354071568
 20
322.0371948876
 10
436.0268539022
 20
322.517742435
 10
433.9284388553
 20
323.3054997721
 10
431.9918280672
 20
324.381065587
 10
430.264708979
 20
325.7179605164
 10
428.7896132301
 20
327.2832604446
 10
427.6028549503
 20
329.0384235182
 10
426.7336646299
 20
330.9402363696
 10
426.2034366112
 20
332.9418646493
 10
426.0252317618
 20
334.9940227666
 10
426.2034366112
 20
337.0461883345
 10
426.7336646299
 20
339.0478166141
 10
426.9997155498
 20
339.7260131636
  0
LWPOLYLINE
  5
2CB
330
1F
100
AcDbEntity
  8
0
  6
Continuous
 62
     8
370
    15
100
AcDbPolyline
 90
       14
 70
   128
 43
0.0
 10
453.9997143875
 20
339.7260131636
 10
454.2657634448
 20
339.0478166141
 10
454.7959914635
 20
337.0461883345
 10
454.9741981755
 20
334.9940227666
 10
454.7959914635
 20
332.9418646493
 10
454.2657634448
 20
330.9402363696
 10
453.3965712618
 20
329.0384235182
 10
452.2098167073
 20
327.2832604446
 10
450.7347209583
 20
325.7179605164
 10
449.0076018702
 20
324.381065587
 10
447.0709910821
 20
323.3054997721
 10
444.9725760351
 20
322.517742435
 10
442.7640227805
 20
322.0371948876
 10
440.499713106
 20
321.875688652
  0
LINE
  5
2CC
330
1F
100
AcDbEntity
  8
0
  6
Continuous
 62
     8
370
    15
100
AcDbLine
 10
447.4185085129
 20
319.1686245003
 30
0.0
 11
447.6067660581
 21
317.7759917774
 31
0.0
  0
SPLINE
  5
2CD
330
1F
100
AcDbEntity
  8
0
  6
Continuous
 62
     8
370
    15
100
AcDbSpline
210
0.0
220
0.0
230
1.0
 70
     8
 71
     3
 72
    12
 73
     8
 74
     0
 42
0.00000001
 43
0.00000001
 12
1.0
 22
0.0
 32
0.0
 13
1.0
 23
0.0
 33
0.0
 40
0.0
 40
0.0
 40
0.0
 40
0.0
 40
0.1248558825079272
 40
0.3563363004381396
 40
0.5785414064525028
 40
0.7921029612352898
 40
1.0
 40
1.0
 40
1.0
 40
1.0
 10
447.4185085128513
 20
319.1686245002644
 30
0.0
 10
447.393945060409
 20
319.2702859296585
 30
0.0
 10
447.3238414369875
 20
319.5604257045725
 30
0.0
 10
446.9407955063849
 20
319.8941119721592
 30
0.0
 10
446.1870845731037
 20
320.0812403369801
 30
0.0
 10
445.1766641631801
 20
320.0768132311546
 30
0.0
 10
444.3942690847243
 20
319.938207372566
 30
0.0
 10
444.0083293448653
 20
319.8698358931439
 30
0.0
  0
LWPOLYLINE
  5
2CE
330
1F
100
AcDbEntity
  8
0
  6
Continuous
 62
     8
370
    15
100
AcDbPolyline
 90
       14
 70
   128
 43
0.0
 10
424.8728336971
 20
334.2312472262
 10
424.8610841315
 20
333.68193082
 10
425.0361206214
 20
331.5672995844
 10
425.5573110859
 20
329.4999944367
 10
426.4129897784
 20
327.5263132849
 10
427.5840012561
 20
325.69041572
 10
429.0441325139
 20
324.0334214964
 10
430.7606978546
 20
322.5923972525
 10
432.6952746342
 20
321.3996263542
 10
434.8045526277
 20
320.4817893305
 10
437.041321231
 20
319.8594423332
 10
439.3555013667
 20
319.5465104976
 10
441.6953003238
 20
319.5499973693
 10
444.0083293449
 20
319.8698358931
  0
LWPOLYLINE
  5
2CF
330
1F
100
AcDbEntity
  8
0
  6
Continuous
 62
     8
370
    15
100
AcDbPolyline
 90
       14
 70
   128
 43
0.0
 10
446.7493010889
 20
310.2939548292
 10
443.7854228746
 20
309.7675415077
 10
440.7729556988
 20
309.5710622468
 10
437.7564465831
 20
309.7074302235
 10
434.7805058788
 20
310.1746114292
 10
431.8891329895
 20
310.9657066264
 10
429.1250830721
 20
312.0690184035
 10
426.5292337369
 20
313.468229989
 10
424.1399629246
 20
315.1426511207
 10
421.9926031511
 20
317.0675309696
 10
420.1189087908
 20
319.2143934169
 10
418.5465829651
 20
321.5514989891
 10
417.298878936
 20
324.0442844429
 10
416.4024790953
 20
326.6259255209
  0
ARC
  5
2D0
330
1F
100
AcDbEntity
  8
0
  6
Continuous
 62
     8
370
    15
100
AcDbCircle
 10
448.6999441118
 20
352.539768118
 30
0.0
 40
2.481730549160592
100
AcDbArc
 50
143.4847905351
 51
171.3031116953
  0
LWPOLYLINE
  5
2D1
330
1F
100
AcDbEntity
  8
0
  6
Continuous
 62
     8
370
    15
100
AcDbPolyline
 90
       30
 70
   128
 43
0.0
 10
446.2467482518
 20
352.9150234857
 10
443.4261894058
 20
353.4104125895
 10
440.5593252014
 20
353.5809563794
 10
437.6915184985
 20
353.4239726462
 10
434.8681433331
 20
352.9419349828
 10
432.1338771116
 20
352.1424727836
 10
429.5319853555
 20
351.0382371344
 10
427.1036325227
 20
349.6466921964
 10
424.8872468452
 20
347.9898767867
 10
422.917898206
 20
346.0939871468
 10
421.226744933
 20
343.9890193143
 10
419.8405476491
 20
341.7082922854
 10
418.7812408637
 20
339.2878892221
 10
418.0655846577
 20
336.7661135592
 10
417.704902051
 20
334.1828631558
 10
417.704902051
 20
331.5790044465
 10
418.0655846577
 20
328.9957540431
 10
418.7812408637
 20
326.4739783802
 10
419.8405476491
 20
324.0535753169
 10
421.226744933
 20
321.772848288
 10
422.917898206
 20
319.6678879061
 10
424.8872468452
 20
317.7719908156
 10
427.1036325227
 20
316.1151679554
 10
429.5319853555
 20
314.7236304679
 10
432.1338771116
 20
313.6193948188
 10
434.8681433331
 20
312.819925169
 10
437.6915184985
 20
312.3378875055
 10
440.5593252014
 20
312.1809037723
 10
443.4261894058
 20
312.3514550128
 10
446.2467482518
 20
312.8468441167
  0
ARC
  5
2D2
330
1F
100
AcDbEntity
  8
0
  6
Continuous
 62
     8
370
    15
100
AcDbCircle
 10
433.668911872
 20
309.0449052941
 30
0.0
 40
13.13988990846232
100
AcDbArc
 50
5.4546487895
 51
16.8186431425
  0
LWPOLYLINE
  5
2D3
330
1F
100
AcDbEntity
  8
0
  6
Continuous
 62
     8
370
    15
100
AcDbPolyline
 90
        9
 70
   128
 43
0.0
 10
446.2467482518
 20
312.8468441167
 10
446.601328833
 20
312.9486264982
 10
446.9431689213
 20
313.0163969793
 10
447.2599974107
 20
313.0477192202
 10
447.540433539
 20
313.041468183
 10
447.7744003962
 20
312.9978599348
 10
447.9535011779
 20
312.9184814491
 10
448.0712948571
 20
312.806156496
 10
448.1026804279
 20
312.7469392815
  0
ARC
  5
2D4
330
1F
100
AcDbEntity
  8
0
  6
Continuous
 62
     8
370
    15
100
AcDbCircle
 10
446.3841330034
 20
312.1077609514
 30
0.0
 40
1.850200091791071
100
AcDbArc
 50
281.383019184
 51
5.9950228518
  0
LWPOLYLINE
  5
2D5
330
1F
100
AcDbEntity
  8
0
  6
Continuous
 62
     8
370
    15
100
AcDbPolyline
 90
       19
 70
   128
 43
0.0
 10
444.4564258884
 20
317.3048543134
 10
441.9532990288
 20
316.9517712989
 10
439.4201798569
 20
316.9273631968
 10
436.9093341957
 20
317.2321217456
 10
434.4725696574
 20
317.8597661056
 10
432.1601627599
 20
318.797347168
 10
430.0198307465
 20
320.0255157747
 10
428.0957294832
 20
321.5189325013
 10
426.4275612514
 20
323.246789197
 10
425.0497458707
 20
325.1734199324
 10
423.9907128941
 20
327.2590833106
 10
423.2723130118
 20
329.4607447781
 10
422.9093691539
 20
331.7329781451
 10
422.9093691539
 20
334.0288894572
 10
423.2723130118
 20
336.3011228242
 10
423.9907128941
 20
338.5027842917
 10
425.0497458707
 20
340.5884402194
 10
426.4275612514
 20
342.515085856
 10
427.0822344552
 20
343.2539301314
  0
ARC
  5
2D6
330
1F
100
AcDbEntity
  8
0
  6
Continuous
 62
     8
370
    15
100
AcDbCircle
 10
440.0912752675
 20
330.7617693539
 30
0.0
 40
18.042408843546
100
AcDbArc
 50
103.799418379
 51
133.5398985025
  0
LINE
  5
2D7
330
1F
100
AcDbEntity
  8
0
  6
Continuous
 62
     8
370
    15
100
AcDbLine
 10
446.2467482518
 20
312.8468441167
 30
0.0
 11
444.4564258884
 21
317.3048543134
 31
0.0
  0
LINE
  5
2D8
330
1F
100
AcDbEntity
  8
0
  6
Continuous
 62
     8
370
    15
100
AcDbLine
 10
444.477581812
 20
348.5096888938
 30
0.0
 11
446.2467482518
 21
352.9150234857
 31
0.0
  0
SPLINE
  5
2D9
330
1F
100
AcDbEntity
  8
0
  6
Continuous
 62
     8
370
    15
100
AcDbSpline
210
0.0
220
0.0
230
1.0
 70
     8
 71
     3
 72
    12
 73
     8
 74
     0
 42
0.00000001
 43
0.00000001
 12
1.0
 22
0.0
 32
0.0
 13
1.0
 23
0.0
 33
0.0
 40
0.0
 40
0.0
 40
0.0
 40
0.0
 40
0.238777961452995
 40
0.4750664858363294
 40
0.7109233236661778
 40
0.9484402264146483
 40
1.0
 40
1.0
 40
1.0
 40
1.0
 10
444.4564258884159
 20
317.3048543133633
 30
0.0
 10
444.6804394510703
 20
317.324646924768
 30
0.0
 10
445.1261310691004
 20
317.3640257949465
 30
0.0
 10
445.7053000058793
 20
317.372793654467
 30
0.0
 10
446.1306466867579
 20
317.2938471460232
 30
0.0
 10
446.3351263904221
 20
317.1579906979393
 30
0.0
 10
446.3738132247389
 20
317.0358758365716
 30
0.0
 10
446.3807134162154
 20
317.0140954055684
 30
0.0
  0
ARC
  5
2DA
330
1F
100
AcDbEntity
  8
0
  6
Continuous
 62
     8
370
    15
100
AcDbCircle
 10
458.7199406908
 20
321.1182899604
 30
0.0
 40
14.76448935631226
100
AcDbArc
 50
184.850602307
 51
194.9682822916
  0
ARC
  5
2DB
330
1F
100
AcDbEntity
  8
0
  6
Continuous
 62
     8
370
    15
100
AcDbCircle
 10
448.1337844576
 20
317.4815542618
 30
0.0
 40
1.832437083943987
100
AcDbArc
 50
112.9757401678
 51
184.9176192219
  0
LINE
  5
2DC
330
1F
100
AcDbEntity
  8
0
  6
Continuous
 62
     8
370
    15
100
AcDbLine
 10
446.9781605731
 20
308.8841261663
 30
0.0
 11
446.7493010889
 21
310.2939548292
 31
0.0
  0
LINE
  5
2DD
330
1F
100
AcDbEntity
  8
0
  6
Continuous
 62
     8
370
    15
100
AcDbLine
 10
440.3997151386
 20
316.0719769397
 30
0.0
 11
440.3997151386
 21
316.1142366328
 31
0.0
  0
LINE
  5
2DE
330
1F
100
AcDbEntity
  8
0
  6
Continuous
 62
     8
370
    15
100
AcDbLine
 10
440.5997147988
 20
316.0719769397
 30
0.0
 11
440.5997147988
 21
316.1142366328
 31
0.0
  0
ARC
  5
2DF
330
1F
100
AcDbEntity
  8
0
  6
Continuous
 62
     8
370
    15
100
AcDbCircle
 10
445.7190079523
 20
350.2673018813
 30
0.0
 40
2.699803607264781
100
AcDbArc
 50
27.0462371931
 51
78.7276093621
  0
LINE
  5
2E0
330
1F
100
AcDbEntity
  8
0
  6
Continuous
 62
     8
370
    15
100
AcDbLine
 10
448.12356068
 20
351.4949279227
 30
0.0
 11
446.6106234323
 21
347.7276163497
 31
0.0
  0
LINE
  5
2E1
330
1F
100
AcDbEntity
  8
0
  6
Continuous
 62
     8
370
    15
100
AcDbLine
 10
448.337403519
 20
350.2841638722
 30
0.0
 11
448.12356068
 21
351.4949279227
 31
0.0
  0
LINE
  5
2E2
330
1F
100
AcDbEntity
  8
0
  6
Continuous
 62
     8
370
    15
100
AcDbLine
 10
500.3485469352
 20
277.9350476661
 30
0.0
 11
500.3397477995
 21
280.4793240824
 31
0.0
  0
SPLINE
  5
2E3
330
1F
100
AcDbEntity
  8
0
  6
Continuous
 62
     8
370
    15
100
AcDbSpline
210
0.0
220
0.0
230
1.0
 70
     8
 71
     3
 72
    13
 73
     9
 74
     0
 42
0.00000001
 43
0.00000001
 12
1.0
 22
0.0
 32
0.0
 13
1.0
 23
0.0
 33
0.0
 40
0.0
 40
0.0
 40
0.0
 40
0.0
 40
0.0022676331474267
 40
0.0027175165738826
 40
0.2983373633573448
 40
0.5793299735018639
 40
0.7893824527765376
 40
1.0
 40
1.0
 40
1.0
 40
1.0
 10
492.4997179042068
 20
272.0928946831124
 30
0.0
 10
492.505771160604
 20
272.0951922784132
 30
0.0
 10
492.513025343056
 20
272.0979457014337
 30
0.0
 10
493.3101602235355
 20
272.4018295414993
 30
0.0
 10
494.9400804654043
 20
273.2349848917478
 30
0.0
 10
497.0781425523649
 20
274.7424290092133
 30
0.0
 10
498.8191419879795
 20
276.4273161977275
 30
0.0
 10
499.838288960697
 20
277.4320206511947
 30
0.0
 10
500.3485469351974
 20
277.9350476660626
 30
0.0
  0
SPLINE
  5
2E4
330
1F
100
AcDbEntity
  8
0
  6
Continuous
 62
     8
370
    15
100
AcDbSpline
210
0.0
220
0.0
230
1.0
 70
     8
 71
     3
 72
    20
 73
    16
 74
     0
 42
0.00000001
 43
0.00000001
 12
1.0
 22
0.0
 32
0.0
 13
1.0
 23
0.0
 33
0.0
 40
0.0
 40
0.0
 40
0.0
 40
0.0
 40
0.2104454599158633
 40
0.4203268254107358
 40
0.7010905322460244
 40
0.883442775629164
 40
0.9282222913718797
 40
0.9524744759399598
 40
0.9674989589990909
 40
0.9773805029942911
 40
0.9840928405105015
 40
0.9887385053628316
 40
0.9919925718193999
 40
0.9977336507215051
 40
1.0
 40
1.0
 40
1.0
 40
1.0
 10
484.6508888732162
 20
277.9350476660626
 30
0.0
 10
485.1611617003703
 20
277.4319265440432
 30
0.0
 10
486.1803395796022
 20
276.4270329050926
 30
0.0
 10
487.92104545331
 20
274.7437078797154
 30
0.0
 10
489.7529632830526
 20
273.4461224311187
 30
0.0
 10
491.175310140266
 20
272.6797080056676
 30
0.0
 10
491.8633266186887
 20
272.3581248184847
 30
0.0
 10
492.0915148167975
 20
272.2580323243323
 30
0.0
 10
492.2242769969949
 20
272.2021593334235
 30
0.0
 10
492.309378575572
 20
272.1673867017594
 30
0.0
 10
492.366411817145
 20
272.1445701384736
 30
0.0
 10
492.4055992400658
 20
272.129139827004
 30
0.0
 10
492.4421255057144
 20
272.1149023931114
 30
0.0
 10
492.4722625845183
 20
272.1033104342155
 30
0.0
 10
492.4936613836899
 20
272.0951923511407
 30
0.0
 10
492.4997179042068
 20
272.0928946831124
 30
0.0
  0
SPLINE
  5
2E5
330
1F
100
AcDbEntity
  8
0
  6
Continuous
 62
     8
370
    15
100
AcDbSpline
210
0.0
220
0.0
230
1.0
 70
     8
 71
     3
 72
     9
 73
     5
 74
     0
 42
0.00000001
 43
0.00000001
 12
1.0
 22
0.0
 32
0.0
 13
1.0
 23
0.0
 33
0.0
 40
0.0
 40
0.0
 40
0.0
 40
0.0
 40
0.0000220740467037
 40
1.0
 40
1.0
 40
1.0
 40
1.0
 10
484.6596805583205
 20
280.4793240823643
 30
0.0
 10
484.6596805583213
 20
280.479306697691
 30
0.0
 10
484.6596805905007
 20
279.6917450172368
 30
0.0
 10
484.6552846833407
 20
278.8133866471879
 30
0.0
 10
484.6508888732162
 20
277.9350476660626
 30
0.0
  0
SPLINE
  5
2E6
330
1F
100
AcDbEntity
  8
0
  6
Continuous
 62
     8
370
    15
100
AcDbSpline
210
0.0
220
0.0
230
1.0
 70
     8
 71
     3
 72
    11
 73
     7
 74
     0
 42
0.00000001
 43
0.00000001
 12
1.0
 22
0.0
 32
0.0
 13
1.0
 23
0.0
 33
0.0
 40
0.0
 40
0.0
 40
0.0
 40
0.0
 40
0.2501496307628668
 40
0.5002886890391873
 40
0.7504208253984587
 40
1.0
 40
1.0
 40
1.0
 40
1.0
 10
484.6508888732162
 20
277.9350476660626
 30
0.0
 10
484.5002455494729
 20
277.7612173379654
 30
0.0
 10
484.1989652688738
 20
277.413564028649
 30
0.0
 10
483.8027054030524
 20
276.8807758569526
 30
0.0
 10
483.4953590436861
 20
276.4056641389313
 30
0.0
 10
483.4077008710736
 20
276.1962548001188
 30
0.0
 10
483.3639202843871
 20
276.091665992965
 30
0.0
  0
SPLINE
  5
2E7
330
1F
100
AcDbEntity
  8
0
  6
Continuous
 62
     8
370
    15
100
AcDbSpline
210
0.0
220
0.0
230
1.0
 70
     8
 71
     3
 72
    14
 73
    10
 74
     0
 42
0.00000001
 43
0.00000001
 12
1.0
 22
0.0
 32
0.0
 13
1.0
 23
0.0
 33
0.0
 40
0.0
 40
0.0
 40
0.0
 40
0.0
 40
0.0024047277515037
 40
0.0051902968818783
 40
0.0347287570785276
 40
0.2932231697504418
 40
0.5746718387997263
 40
0.7873324980021947
 40
1.0
 40
1.0
 40
1.0
 40
1.0
 10
492.4997179042068
 20
272.0928946831124
 30
0.0
 10
492.4918323463983
 20
272.0938927972878
 30
0.0
 10
492.4748123797598
 20
272.0960470989086
 30
0.0
 10
492.3609638724004
 20
272.1107186242544
 30
0.0
 10
491.4085540816761
 20
272.2439123709199
 30
0.0
 10
489.5605293116416
 20
272.688149106036
 30
0.0
 10
487.2301945500896
 20
273.6820851368125
 30
0.0
 10
485.1116829972879
 20
274.8404970641113
 30
0.0
 10
483.9465141038723
 20
275.6746052102274
 30
0.0
 10
483.3639202843871
 20
276.091665992965
 30
0.0
  0
SPLINE
  5
2E8
330
1F
100
AcDbEntity
  8
0
  6
Continuous
 62
     8
370
    15
100
AcDbSpline
210
0.0
220
0.0
230
1.0
 70
     8
 71
     3
 72
    11
 73
     7
 74
     0
 42
0.00000001
 43
0.00000001
 12
1.0
 22
0.0
 32
0.0
 13
1.0
 23
0.0
 33
0.0
 40
0.0
 40
0.0
 40
0.0
 40
0.0
 40
0.2501483148325338
 40
0.5002878120838655
 40
0.7504203874060006
 40
1.0
 40
1.0
 40
1.0
 40
1.0
 10
500.3485469351974
 20
277.9350476660626
 30
0.0
 10
500.4991873556822
 20
277.7612170036649
 30
0.0
 10
500.8004628866656
 20
277.4135618062983
 30
0.0
 10
501.1967232558504
 20
276.8807761173284
 30
0.0
 10
501.5040692390743
 20
276.405664074006
 30
0.0
 10
501.5917274617537
 20
276.196254778493
 30
0.0
 10
501.6355080734458
 20
276.091665992965
 30
0.0
  0
SPLINE
  5
2E9
330
1F
100
AcDbEntity
  8
0
  6
Continuous
 62
     8
370
    15
100
AcDbSpline
210
0.0
220
0.0
230
1.0
 70
     8
 71
     3
 72
    14
 73
    10
 74
     0
 42
0.00000001
 43
0.00000001
 12
1.0
 22
0.0
 32
0.0
 13
1.0
 23
0.0
 33
0.0
 40
0.0
 40
0.0
 40
0.0
 40
0.0
 40
0.2126676522218739
 40
0.4253284616435775
 40
0.7067773295025711
 40
0.965271924769767
 40
0.9948104058317937
 40
0.9975959769298385
 40
1.0
 40
1.0
 40
1.0
 40
1.0
 10
501.6355080734458
 20
276.091665992965
 30
0.0
 10
501.0529142693495
 20
275.6746051832957
 30
0.0
 10
499.8877454067109
 20
274.8404969833171
 30
0.0
 10
497.7692335982
 20
273.682085503532
 30
0.0
 10
495.438900082733
 20
272.6881472919954
 30
0.0
 10
493.5908720844498
 20
272.2439162066037
 30
0.0
 10
492.6384650197397
 20
272.1107176891693
 30
0.0
 10
492.5246181435243
 20
272.0960476602179
 30
0.0
 10
492.5076009391153
 20
272.0938928674379
 30
0.0
 10
492.4997179042068
 20
272.0928946831124
 30
0.0
  0
LINE
  5
2EA
330
1F
100
AcDbEntity
  8
0
  6
Continuous
 62
     8
370
    15
100
AcDbLine
 10
485.669681264
 20
280.4281981983
 30
0.0
 11
484.6696792375
 21
280.4281981983
 31
0.0
  0
LINE
  5
2EB
330
1F
100
AcDbEntity
  8
0
  6
Continuous
 62
     8
370
    15
100
AcDbLine
 10
500.3297491204
 20
280.4281981983
 30
0.0
 11
499.3297470938
 21
280.4281907477
 31
0.0
  0
LINE
  5
2EC
330
1F
100
AcDbEntity
  8
0
  6
Continuous
 62
     8
370
    15
100
AcDbLine
 10
501.6355080734
 20
276.091665993
 30
0.0
 11
501.7304806243
 21
274.7368077137
 31
0.0
  0
LINE
  5
2ED
330
1F
100
AcDbEntity
  8
0
  6
Continuous
 62
     8
370
    15
100
AcDbLine
 10
483.3639202844
 20
276.091665993
 30
0.0
 11
483.2689477335
 21
274.7368077137
 31
0.0
  0
LINE
  5
2EE
330
1F
100
AcDbEntity
  8
0
  6
Continuous
 62
     8
370
    15
100
AcDbLine
 10
485.669681264
 20
280.4793240824
 30
0.0
 11
499.3297470938
 21
280.4793240824
 31
0.0
  0
SPLINE
  5
2EF
330
1F
100
AcDbEntity
  8
0
  6
Continuous
 62
     8
370
    15
100
AcDbSpline
210
0.0
220
0.0
230
1.0
 70
     8
 71
     3
 72
    11
 73
     7
 74
     0
 42
0.00000001
 43
0.00000001
 12
1.0
 22
0.0
 32
0.0
 13
1.0
 23
0.0
 33
0.0
 40
0.0
 40
0.0
 40
0.0
 40
0.0
 40
0.2499784884402256
 40
0.4998058316812791
 40
0.7495352968436808
 40
0.9999999999999999
 40
0.9999999999999999
 40
0.9999999999999999
 40
0.9999999999999999
 10
484.6508888732162
 20
277.9350476660626
 30
0.0
 10
484.3974194843393
 20
277.9210166373612
 30
0.0
 10
483.8906339624974
 20
277.892963063579
 30
0.0
 10
483.2438716283764
 20
277.7656979912898
 30
0.0
 10
482.7765810427471
 20
277.5952988966053
 30
0.0
 10
482.6941650467229
 20
277.4657089175428
 30
0.0
 10
482.6528964768615
 20
277.4008186855214
 30
0.0
  0
LINE
  5
2F0
330
1F
100
AcDbEntity
  8
0
  6
Continuous
 62
     8
370
    15
100
AcDbLine
 10
482.6528964769
 20
277.4008186855
 30
0.0
 11
482.6624257694
 21
279.6783270636
 31
0.0
  0
LWPOLYLINE
  5
2F1
330
1F
100
AcDbEntity
  8
0
  6
Continuous
 62
     8
370
    15
100
AcDbPolyline
 90
        9
 70
   128
 43
0.0
 10
484.6596805583
 20
280.4793240824
 10
484.282345904
 20
280.4641472497
 10
483.9185713063
 20
280.4191531935
 10
483.581402732
 20
280.3459586897
 10
483.2829697262
 20
280.2472012439
 10
483.0339862238
 20
280.1264198818
 10
482.8433929216
 20
279.9879508414
 10
482.718036903
 20
279.8367785611
 10
482.6624257694
 20
279.6783270636
  0
SPLINE
  5
2F2
330
1F
100
AcDbEntity
  8
0
  6
Continuous
 62
     8
370
    15
100
AcDbSpline
210
0.0
220
0.0
230
1.0
 70
     8
 71
     3
 72
    11
 73
     7
 74
     0
 42
0.00000001
 43
0.00000001
 12
1.0
 22
0.0
 32
0.0
 13
1.0
 23
0.0
 33
0.0
 40
0.0
 40
0.0
 40
0.0
 40
0.0
 40
0.2440013596570763
 40
0.49193982914395
 40
0.7439070449584507
 40
1.0
 40
1.0
 40
1.0
 40
1.0
 10
483.3639202843871
 20
276.091665992965
 30
0.0
 10
483.2618357333575
 20
276.1746839372091
 30
0.0
 10
483.0560194351928
 20
276.3420593705458
 30
0.0
 10
482.8335251528713
 20
276.6628536323379
 30
0.0
 10
482.6822459350879
 20
277.0205898186736
 30
0.0
 10
482.6627324498247
 20
277.2733914319997
 30
0.0
 10
482.6528964768615
 20
277.4008186855214
 30
0.0
  0
SPLINE
  5
2F3
330
1F
100
AcDbEntity
  8
0
  6
Continuous
 62
     8
370
    15
100
AcDbSpline
210
0.0
220
0.0
230
1.0
 70
     8
 71
     3
 72
    11
 73
     7
 74
     0
 42
0.00000001
 43
0.00000001
 12
1.0
 22
0.0
 32
0.0
 13
1.0
 23
0.0
 33
0.0
 40
0.0
 40
0.0
 40
0.0
 40
0.0
 40
0.2499766730778366
 40
0.4998046210044301
 40
0.7495346906154662
 40
1.0
 40
1.0
 40
1.0
 40
1.0
 10
500.3485469351974
 20
277.9350476660626
 30
0.0
 10
500.6020137270979
 20
277.921016521519
 30
0.0
 10
501.1087965092801
 20
277.8929625803471
 30
0.0
 10
501.7555567226852
 20
277.7656980105456
 30
0.0
 10
502.2228473167842
 20
277.5952988917756
 30
0.0
 10
502.3052633116768
 20
277.4657089159313
 30
0.0
 10
502.3465318809714
 20
277.4008186855214
 30
0.0
  0
SPLINE
  5
2F4
330
1F
100
AcDbEntity
  8
0
  6
Continuous
 62
     8
370
    15
100
AcDbSpline
210
0.0
220
0.0
230
1.0
 70
     8
 71
     3
 72
    11
 73
     7
 74
     0
 42
0.00000001
 43
0.00000001
 12
1.0
 22
0.0
 32
0.0
 13
1.0
 23
0.0
 33
0.0
 40
0.0
 40
0.0
 40
0.0
 40
0.0
 40
0.2560929550415492
 40
0.5080601708560499
 40
0.7559986403429236
 40
1.0
 40
1.0
 40
1.0
 40
1.0
 10
502.3465318809714
 20
277.4008186855214
 30
0.0
 10
502.3366959080082
 20
277.2733914319996
 30
0.0
 10
502.317182422745
 20
277.0205898186736
 30
0.0
 10
502.1659032049617
 20
276.6628536323379
 30
0.0
 10
501.9434089226402
 20
276.3420593705458
 30
0.0
 10
501.7375926244755
 20
276.1746839372091
 30
0.0
 10
501.6355080734458
 20
276.091665992965
 30
0.0
  0
LWPOLYLINE
  5
2F5
330
1F
100
AcDbEntity
  8
0
  6
Continuous
 62
     8
370
    15
100
AcDbPolyline
 90
        9
 70
   128
 43
0.0
 10
500.3397477995
 20
280.4793240824
 10
500.7170824538
 20
280.4641472497
 10
501.0808645021
 20
280.4191531935
 10
501.4180256258
 20
280.3459586897
 10
501.7164586316
 20
280.2472012439
 10
501.965442134
 20
280.1264198818
 10
502.1560354363
 20
279.9879508414
 10
502.2813914548
 20
279.8367785611
 10
502.3370025884
 20
279.6783270636
  0
LINE
  5
2F6
330
1F
100
AcDbEntity
  8
0
  6
Continuous
 62
     8
370
    15
100
AcDbLine
 10
502.3370025884
 20
279.6783270636
 30
0.0
 11
502.346531881
 21
277.4008186855
 31
0.0
  0
LINE
  5
2F7
330
1F
100
AcDbEntity
  8
0
  6
Continuous
 62
     8
370
    15
100
AcDbLine
 10
500.3397477995
 20
366.1447661319
 30
0.0
 11
500.3397477995
 21
371.6879235902
 31
0.0
  0
SPLINE
  5
2F8
330
1F
100
AcDbEntity
  8
0
  6
Continuous
 62
     8
370
    15
100
AcDbSpline
210
0.0
220
0.0
230
1.0
 70
     8
 71
     3
 72
    10
 73
     6
 74
     0
 42
0.00000001
 43
0.00000001
 12
1.0
 22
0.0
 32
0.0
 13
1.0
 23
0.0
 33
0.0
 40
0.0
 40
0.0
 40
0.0
 40
0.0
 40
0.3156581298448345
 40
0.6578353190296065
 40
1.0
 40
1.0
 40
1.0
 40
1.0
 10
502.1394653450217
 20
309.1043206252949
 30
0.0
 10
501.8119617951174
 20
308.8732349009447
 30
0.0
 10
501.1294404789692
 20
308.3916494867634
 30
0.0
 10
500.4756103782151
 20
307.3136920369189
 30
0.0
 10
500.3850347739079
 20
306.5024187090409
 30
0.0
 10
500.3397477995124
 20
306.0967894592183
 30
0.0
  0
LINE
  5
2F9
330
1F
100
AcDbEntity
  8
0
  6
Continuous
 62
     8
370
    15
100
AcDbLine
 10
500.3397477995
 20
280.4793240824
 30
0.0
 11
500.3397477995
 21
306.0967894592
 31
0.0
  0
LWPOLYLINE
  5
2FA
330
1F
100
AcDbEntity
  8
0
  6
Continuous
 62
     8
370
    15
100
AcDbPolyline
 90
        9
 70
   128
 43
0.0
 10
500.3397477995
 20
306.0967894592
 10
500.7170824538
 20
306.081605176
 10
501.0808645021
 20
306.0366111197
 10
501.4180256258
 20
305.9634240665
 10
501.7164586316
 20
305.8646591701
 10
501.965442134
 20
305.7438778081
 10
502.1560354363
 20
305.6054162183
 10
502.2813914548
 20
305.454243938
 10
502.3370025884
 20
305.2957849898
  0
LINE
  5
2FB
330
1F
100
AcDbEntity
  8
0
  6
Continuous
 62
     8
370
    15
100
AcDbLine
 10
502.3370025884
 20
305.2957849898
 30
0.0
 11
502.3370025884
 21
279.6783270636
 31
0.0
  0
LINE
  5
2FC
330
1F
100
AcDbEntity
  8
0
  6
Continuous
 62
     8
370
    15
100
AcDbLine
 10
484.6596805583
 20
306.0967894592
 30
0.0
 11
484.6596805583
 21
280.4793240824
 31
0.0
  0
SPLINE
  5
2FD
330
1F
100
AcDbEntity
  8
0
  6
Continuous
 62
     8
370
    15
100
AcDbSpline
210
0.0
220
0.0
230
1.0
 70
     8
 71
     3
 72
    11
 73
     7
 74
     0
 42
0.00000001
 43
0.00000001
 12
1.0
 22
0.0
 32
0.0
 13
1.0
 23
0.0
 33
0.0
 40
0.0
 40
0.0
 40
0.0
 40
0.0
 40
0.1722060142315566
 40
0.4974649587497511
 40
0.8229458213205673
 40
1.0
 40
1.0
 40
1.0
 40
1.0
 10
484.6596805583205
 20
306.0967894592183
 30
0.0
 10
484.6472537615777
 20
306.3116907919718
 30
0.0
 10
484.6113555035717
 20
306.9324930508856
 30
0.0
 10
484.1969837199092
 20
307.904270060293
 30
0.0
 10
483.4975078940313
 20
308.7609519835995
 30
0.0
 10
482.8869050848879
 20
309.062001432313
 30
0.0
 10
482.6717762480941
 20
309.1680677928822
 30
0.0
  0
LINE
  5
2FE
330
1F
100
AcDbEntity
  8
0
  6
Continuous
 62
     8
370
    15
100
AcDbLine
 10
484.6596805583
 20
371.6879235902
 30
0.0
 11
484.6596805583
 21
366.1447661319
 31
0.0
  0
LINE
  5
2FF
330
1F
100
AcDbEntity
  8
0
  6
Continuous
 62
     8
370
    15
100
AcDbLine
 10
482.6624257694
 20
279.6783270636
 30
0.0
 11
482.6624257694
 21
305.2957849898
 31
0.0
  0
LWPOLYLINE
  5
300
330
1F
100
AcDbEntity
  8
0
  6
Continuous
 62
     8
370
    15
100
AcDbPolyline
 90
        9
 70
   128
 43
0.0
 10
484.6596805583
 20
306.0967894592
 10
484.282345904
 20
306.081605176
 10
483.9185713063
 20
306.0366111197
 10
483.581402732
 20
305.9634240665
 10
483.2829697262
 20
305.8646591701
 10
483.0339862238
 20
305.7438778081
 10
482.8433929216
 20
305.6054162183
 10
482.718036903
 20
305.454243938
 10
482.6624257694
 20
305.2957849898
  0
LINE
  5
301
330
1F
100
AcDbEntity
  8
0
  6
Continuous
 62
     8
370
    15
100
AcDbLine
 10
502.346531881
 20
277.4008186855
 30
0.0
 11
502.499715818
 21
276.1655608513
 31
0.0
  0
LINE
  5
302
330
1F
100
AcDbEntity
  8
0
  6
Continuous
 62
     8
370
    15
100
AcDbLine
 10
482.6528964769
 20
277.4008186855
 30
0.0
 11
482.4997125398
 21
276.1655608513
 31
0.0
  0
LWPOLYLINE
  5
303
330
1F
100
AcDbEntity
  8
0
  6
Continuous
 62
     8
370
    15
100
AcDbPolyline
 90
        3
 70
   128
 43
0.0
 10
482.6624257694
 20
305.2957849898
 10
482.6333983074
 20
305.0439628162
 10
482.4997125398
 20
303.8840862312
  0
LWPOLYLINE
  5
304
330
1F
100
AcDbEntity
  8
0
  6
Continuous
 62
     8
370
    15
100
AcDbPolyline
 90
        3
 70
   128
 43
0.0
 10
502.499715818
 20
303.8840862312
 10
502.3660300504
 20
305.0439628162
 10
502.3370025884
 20
305.2957849898
  0
ARC
  5
305
330
1F
100
AcDbEntity
  8
0
  6
Continuous
 62
     8
370
    15
100
AcDbCircle
 10
495.1314600625
 20
305.7706212729
 30
0.0
 40
8.545780232017277
100
AcDbArc
 50
8.1098650987
 51
23.6421518702
  0
SPLINE
  5
306
330
1F
100
AcDbEntity
  8
0
  6
Continuous
 62
     8
370
    15
100
AcDbSpline
210
0.0
220
0.0
230
1.0
 70
     8
 71
     3
 72
    11
 73
     7
 74
     0
 42
0.00000001
 43
0.00000001
 12
1.0
 22
0.0
 32
0.0
 13
1.0
 23
0.0
 33
0.0
 40
0.0
 40
0.0
 40
0.0
 40
0.0
 40
0.2835244257986063
 40
0.5667805521843451
 40
0.8499326759842011
 40
1.0
 40
1.0
 40
1.0
 40
1.0
 10
502.337002588388
 20
305.2957849898236
 30
0.0
 10
502.3586321307963
 20
305.5025378429719
 30
0.0
 10
502.4018707475578
 20
305.9158478988624
 30
0.0
 10
502.7467825606443
 20
306.4573838149767
 30
0.0
 10
503.172732806314
 20
306.8073514735577
 30
0.0
 10
503.4839659725817
 20
306.93275063654
 30
0.0
 10
503.5917772184577
 20
306.9761889376538
 30
0.0
  0
SPLINE
  5
307
330
1F
100
AcDbEntity
  8
0
  6
Continuous
 62
     8
370
    15
100
AcDbSpline
210
0.0
220
0.0
230
1.0
 70
     8
 71
     3
 72
    11
 73
     7
 74
     0
 42
0.00000001
 43
0.00000001
 12
1.0
 22
0.0
 32
0.0
 13
1.0
 23
0.0
 33
0.0
 40
0.0
 40
0.0
 40
0.0
 40
0.0
 40
0.283522846620064
 40
0.5667791926804112
 40
0.849929439459262
 40
1.0
 40
1.0
 40
1.0
 40
1.0
 10
481.4076511393752
 20
306.9761889376538
 30
0.0
 10
481.6084477848897
 20
306.8850683225139
 30
0.0
 10
482.0098523348026
 20
306.7029127421041
 30
0.0
 10
482.4350064053486
 20
306.2131647397277
 30
0.0
 10
482.6387699935051
 20
305.7198051900751
 30
0.0
 10
482.6563395563602
 20
305.4048778937109
 30
0.0
 10
482.662425769445
 20
305.2957849898236
 30
0.0
  0
ARC
  5
308
330
1F
100
AcDbEntity
  8
0
  6
Continuous
 62
     8
370
    15
100
AcDbCircle
 10
489.8679682953
 20
305.7706212729
 30
0.0
 40
8.545780232017334
100
AcDbArc
 50
156.3578481298
 51
171.8901349013
  0
ARC
  5
309
330
1F
100
AcDbEntity
  8
0
  6
Continuous
 62
     8
370
    15
100
AcDbCircle
 10
490.7402409938
 20
333.9916722351
 30
0.0
 40
28.58204980724213
100
AcDbArc
 50
207.1176397281
 51
250.942355455
  0
ARC
  5
30A
330
1F
100
AcDbEntity
  8
0
  6
Continuous
 62
     8
370
    15
100
AcDbCircle
 10
494.05404241
 20
334.2279141987
 30
0.0
 40
28.87256336003546
100
AcDbArc
 50
289.2893550105
 51
332.6506498063
  0
LINE
  5
30B
330
1F
100
AcDbEntity
  8
0
  6
Continuous
 62
     8
370
    15
100
AcDbLine
 10
503.5917772185
 20
306.9761889377
 30
0.0
 11
503.7481053005
 21
305.5621581473
 31
0.0
  0
LINE
  5
30C
330
1F
100
AcDbEntity
  8
0
  6
Continuous
 62
     8
370
    15
100
AcDbLine
 10
481.2513230573
 20
305.5621581473
 30
0.0
 11
481.4076511394
 21
306.9761889377
 31
0.0
  0
LINE
  5
30D
330
1F
100
AcDbEntity
  8
0
  6
Continuous
 62
     8
370
    15
100
AcDbLine
 10
485.669681264
 20
371.6879235902
 30
0.0
 11
499.3297470938
 21
371.6879235902
 31
0.0
  0
LINE
  5
30E
330
1F
100
AcDbEntity
  8
0
  6
Continuous
 62
     8
370
    15
100
AcDbLine
 10
484.6696792375
 20
371.6545300879
 30
0.0
 11
485.669681264
 21
371.6545300879
 31
0.0
  0
LINE
  5
30F
330
1F
100
AcDbEntity
  8
0
  6
Continuous
 62
     8
370
    15
100
AcDbLine
 10
499.3297470938
 20
371.6545300879
 30
0.0
 11
500.3297491204
 21
371.6545300879
 31
0.0
  0
LINE
  5
310
330
1F
100
AcDbEntity
  8
0
  6
Continuous
 62
     8
370
    15
100
AcDbLine
 10
482.6624257694
 20
365.5538456836
 30
0.0
 11
482.6624257694
 21
370.8869265714
 31
0.0
  0
LWPOLYLINE
  5
311
330
1F
100
AcDbEntity
  8
0
  6
Continuous
 62
     8
370
    15
100
AcDbPolyline
 90
        9
 70
   128
 43
0.0
 10
484.6596805583
 20
371.6879235902
 10
484.282345904
 20
371.6727542081
 10
483.9185713063
 20
371.6277527013
 10
483.581402732
 20
371.5545581975
 10
483.2829697262
 20
371.4558082023
 10
483.0339862238
 20
371.3350193896
 10
482.8433929216
 20
371.1965577998
 10
482.718036903
 20
371.0453855195
 10
482.6624257694
 20
370.8869265714
  0
LWPOLYLINE
  5
312
330
1F
100
AcDbEntity
  8
0
  6
Continuous
 62
     8
370
    15
100
AcDbPolyline
 90
        9
 70
   128
 43
0.0
 10
500.3397477995
 20
371.6879235902
 10
500.7170824538
 20
371.6727542081
 10
501.0808645021
 20
371.6277527013
 10
501.4180256258
 20
371.5545581975
 10
501.7164586316
 20
371.4558082023
 10
501.965442134
 20
371.3350193896
 10
502.1560354363
 20
371.1965577998
 10
502.2813914548
 20
371.0453855195
 10
502.3370025884
 20
370.8869265714
  0
LINE
  5
313
330
1F
100
AcDbEntity
  8
0
  6
Continuous
 62
     8
370
    15
100
AcDbLine
 10
502.3370025884
 20
370.8869265714
 30
0.0
 11
502.3370025884
 21
365.5538456836
 31
0.0
  0
LINE
  5
314
330
1F
100
AcDbEntity
  8
0
  6
Continuous
 62
     8
370
    15
100
AcDbLine
 10
482.5024543534
 20
374.2927210727
 30
0.0
 11
482.4997125398
 21
374.2706226506
 31
0.0
  0
SPLINE
  5
315
330
1F
100
AcDbEntity
  8
0
  6
Continuous
 62
     8
370
    15
100
AcDbSpline
210
0.0
220
0.0
230
1.0
 70
     8
 71
     3
 72
    13
 73
     9
 74
     0
 42
0.00000001
 43
0.00000001
 12
1.0
 22
0.0
 32
0.0
 13
1.0
 23
0.0
 33
0.0
 40
0.0
 40
0.0
 40
0.0
 40
0.0
 40
0.235977120907564
 40
0.4700658757071123
 40
0.6281564611837309
 40
0.7867756465136976
 40
0.8916098799980279
 40
1.0
 40
1.0
 40
1.0
 40
1.0
 10
482.662425769445
 20
370.8869265713589
 30
0.0
 10
482.6621834084892
 20
371.3685629384106
 30
0.0
 10
482.6617006260291
 20
372.3279814607648
 30
0.0
 10
482.6491474915767
 20
373.5089125586645
 30
0.0
 10
482.6194615608346
 20
374.2984793996806
 30
0.0
 10
482.5813288144939
 20
374.5734093650435
 30
0.0
 10
482.5409520852722
 20
374.589896271176
 30
0.0
 10
482.5154288123617
 20
374.3928746978379
 30
0.0
 10
482.5024543534485
 20
374.2927210726635
 30
0.0
  0
SPLINE
  5
316
330
1F
100
AcDbEntity
  8
0
  6
Continuous
 62
     8
370
    15
100
AcDbSpline
210
0.0
220
0.0
230
1.0
 70
     8
 71
     3
 72
    13
 73
     9
 74
     0
 42
0.00000001
 43
0.00000001
 12
1.0
 22
0.0
 32
0.0
 13
1.0
 23
0.0
 33
0.0
 40
0.0
 40
0.0
 40
0.0
 40
0.0
 40
0.1084785743075378
 40
0.2133983602326458
 40
0.3721469904777716
 40
0.5303665894932124
 40
0.8824112395474604
 40
1.0
 40
1.0
 40
1.0
 40
1.0
 10
502.4969740043845
 20
374.2927210726635
 30
0.0
 10
502.4839995528547
 20
374.3928760450551
 30
0.0
 10
502.4584762944688
 20
374.5899002686305
 30
0.0
 10
502.4180994410921
 20
374.5733907085255
 30
0.0
 10
502.3799674057478
 20
374.2985904752006
 30
0.0
 10
502.3439355731316
 20
373.3396156726247
 30
0.0
 10
502.3378067163472
 20
372.0807058972002
 30
0.0
 10
502.3371636116167
 20
371.1259758411612
 30
0.0
 10
502.337002588388
 20
370.8869265713589
 30
0.0
  0
LINE
  5
317
330
1F
100
AcDbEntity
  8
0
  6
Continuous
 62
     8
370
    15
100
AcDbLine
 10
502.4969740044
 20
374.2927210727
 30
0.0
 11
502.499715818
 21
374.2706226506
 31
0.0
  0
SPLINE
  5
318
330
1F
100
AcDbEntity
  8
0
  6
Continuous
 62
     8
370
    15
100
AcDbSpline
210
0.0
220
0.0
230
1.0
 70
     8
 71
     3
 72
    12
 73
     8
 74
     0
 42
0.00000001
 43
0.00000001
 12
1.0
 22
0.0
 32
0.0
 13
1.0
 23
0.0
 33
0.0
 40
0.0
 40
0.0
 40
0.0
 40
0.0
 40
0.0742678602447293
 40
0.2964482432630133
 40
0.5147143128143421
 40
0.8681168365471766
 40
1.0
 40
1.0
 40
1.0
 40
1.0
 10
484.5569892059531
 20
376.4774101176159
 30
0.0
 10
484.5619856750032
 20
376.4883446895806
 30
0.0
 10
484.5819296247484
 20
376.5319912230756
 30
0.0
 10
484.617002056762
 20
376.0535709907665
 30
0.0
 10
484.6469992648617
 20
374.776733278904
 30
0.0
 10
484.6588922775521
 20
373.154756646797
 30
0.0
 10
484.6595121101539
 20
372.0013719820752
 30
0.0
 10
484.6596805583205
 20
371.687923590173
 30
0.0
  0
SPLINE
  5
319
330
1F
100
AcDbEntity
  8
0
  6
Continuous
 62
     8
370
    15
100
AcDbSpline
210
0.0
220
0.0
230
1.0
 70
     8
 71
     3
 72
    13
 73
     9
 74
     0
 42
0.00000001
 43
0.00000001
 12
1.0
 22
0.0
 32
0.0
 13
1.0
 23
0.0
 33
0.0
 40
0.0
 40
0.0
 40
0.0
 40
0.0
 40
0.0000080255285292
 40
0.2403409226795999
 40
0.4855788632325989
 40
0.7037206004921669
 40
0.9257744214833721
 40
1.0
 40
1.0
 40
1.0
 40
1.0
 10
500.3397477995124
 20
371.687923590173
 30
0.0
 10
500.3397477995121
 20
371.6879434584037
 30
0.0
 10
500.3397477888291
 20
372.2829384022049
 30
0.0
 10
500.3416457949838
 20
373.3992709910653
 30
0.0
 10
500.3565541185799
 20
374.9553949326744
 30
0.0
 10
500.3824170220909
 20
376.0522583909766
 30
0.0
 10
500.4174928881339
 20
376.5320834216567
 30
0.0
 10
500.4374474688674
 20
376.488363162413
 30
0.0
 10
500.4424466024604
 20
376.4774101176159
 30
0.0
  0
LINE
  5
31A
330
1F
100
AcDbEntity
  8
0
  6
Continuous
 62
     8
370
    15
100
AcDbLine
 10
497.3297430407
 20
376.2165950932
 30
0.0
 11
497.3297430407
 21
376.3123946586
 31
0.0
  0
LINE
  5
31B
330
1F
100
AcDbEntity
  8
0
  6
Continuous
 62
     8
370
    15
100
AcDbLine
 10
487.6696853172
 20
376.2165950932
 30
0.0
 11
487.6696853172
 21
376.3123946586
 31
0.0
  0
LINE
  5
31C
330
1F
100
AcDbEntity
  8
0
  6
Continuous
 62
     8
370
    15
100
AcDbLine
 10
481.3200621139
 20
334.7420664825
 30
0.0
 11
478.8333041798
 21
321.6226222315
 31
0.0
  0
ARC
  5
31D
330
1F
100
AcDbEntity
  8
0
  6
Continuous
 62
     8
370
    15
100
AcDbCircle
 10
492.5001622322
 20
352.9975372106
 30
0.0
 40
21.40693462783785
100
AcDbArc
 50
238.515670542
 51
301.2904360088
  0
LINE
  5
31E
330
1F
100
AcDbEntity
  8
0
  6
Continuous
 62
     8
370
    15
100
AcDbLine
 10
506.0790939461
 20
321.5765180387
 30
0.0
 11
503.6184204947
 21
334.7043367424
 31
0.0
  0
SPLINE
  5
31F
330
1F
100
AcDbEntity
  8
0
  6
Continuous
 62
     8
370
    15
100
AcDbSpline
210
0.0
220
0.0
230
1.0
 70
     8
 71
     3
 72
    10
 73
     6
 74
     0
 42
0.00000001
 43
0.00000001
 12
1.0
 22
0.0
 32
0.0
 13
1.0
 23
0.0
 33
0.0
 40
0.0
 40
0.0
 40
0.0
 40
0.0
 40
0.2857668742203277
 40
0.6445566679943007
 40
1.0
 40
1.0
 40
1.0
 40
1.0
 10
508.3158327470985
 20
319.8361220159428
 30
0.0
 10
507.9998831247942
 20
319.863584982131
 30
0.0
 10
507.2872482668802
 20
319.9255286137287
 30
0.0
 10
506.4495589512696
 20
320.5459496360698
 30
0.0
 10
506.2021959503255
 20
321.2340699421785
 30
0.0
 10
506.079093946096
 20
321.5765180387394
 30
0.0
  0
SPLINE
  5
320
330
1F
100
AcDbEntity
  8
0
  6
Continuous
 62
     8
370
    15
100
AcDbSpline
210
0.0
220
0.0
230
1.0
 70
     8
 71
     3
 72
    10
 73
     6
 74
     0
 42
0.00000001
 43
0.00000001
 12
1.0
 22
0.0
 32
0.0
 13
1.0
 23
0.0
 33
0.0
 40
0.0
 40
0.0
 40
0.0
 40
0.0
 40
0.3554447066905253
 40
0.7142334816067759
 40
1.0
 40
1.0
 40
1.0
 40
1.0
 10
478.8333041797843
 20
321.6226222314732
 30
0.0
 10
478.7095877941794
 20
321.2805900729666
 30
0.0
 10
478.4609910837513
 20
320.5933078746573
 30
0.0
 10
477.6228157666625
 20
319.9757229121589
 30
0.0
 10
476.9108535892953
 20
319.9161901286648
 30
0.0
 10
476.5952019225326
 20
319.889795998563
 30
0.0
  0
ARC
  5
321
330
1F
100
AcDbEntity
  8
0
  6
Continuous
 62
     8
370
    15
100
AcDbCircle
 10
503.4080754326
 20
335.3561799703
 30
0.0
 40
0.6849413397476571
100
AcDbArc
 50
287.8845124301
 51
1.3688297097
  0
LWPOLYLINE
  5
322
330
1F
100
AcDbEntity
  8
0
  6
Continuous
 62
     8
370
    15
100
AcDbPolyline
 90
        9
 70
   128
 43
0.0
 10
506.0790939461
 20
321.5765180387
 10
506.2260044943
 20
321.6591598787
 10
506.353916062
 20
321.7561738887
 10
506.4588053356
 20
321.8645276823
 10
506.5373940598
 20
321.9808163443
 10
506.5872160922
 20
322.1013890901
 10
506.6066993605
 20
322.2224610248
 10
506.5952403675
 20
322.3402398028
 10
506.5531967412
 20
322.4510224857
  0
LWPOLYLINE
  5
323
330
1F
100
AcDbEntity
  8
0
  6
Continuous
 62
     8
370
    15
100
AcDbPolyline
 90
        9
 70
   128
 43
0.0
 10
478.8333041798
 20
321.6226222315
 10
478.68675871
 20
321.7057558098
 10
478.5593016278
 20
321.803209404
 10
478.4549189936
 20
321.9119133749
 10
478.376889063
 20
322.0284628072
 10
478.3276705276
 20
322.1492069163
 10
478.3087982069
 20
322.2703459062
 10
478.3208606969
 20
322.3880799808
 10
478.3634854685
 20
322.4987211027
  0
ARC
  5
324
330
1F
100
AcDbEntity
  8
0
  6
Continuous
 62
     8
370
    15
100
AcDbCircle
 10
481.5325702235
 20
335.3922287521
 30
0.0
 40
0.6840107261351625
100
AcDbArc
 50
178.4634858977
 51
251.8998149873
  0
LINE
  5
325
330
1F
100
AcDbEntity
  8
0
  6
Continuous
 62
     8
370
    15
100
AcDbLine
 10
506.6359428893
 20
362.6158135333
 30
0.0
 11
504.1314674746
 21
363.212500731
 31
0.0
  0
LWPOLYLINE
  5
326
330
1F
100
AcDbEntity
  8
0
  6
Continuous
 62
     8
370
    15
100
AcDbPolyline
 90
        3
 70
   128
 43
0.0
 10
503.7734223734
 20
353.9315807023
 10
504.9994750153
 20
358.2984255948
 10
506.6359428893
 20
362.6158135333
  0
LINE
  5
327
330
1F
100
AcDbEntity
  8
0
  6
Continuous
 62
     8
370
    15
100
AcDbLine
 10
480.9251664411
 20
363.2517801919
 30
0.0
 11
478.4462316166
 21
362.6635121503
 31
0.0
  0
LWPOLYLINE
  5
328
330
1F
100
AcDbEntity
  8
0
  6
Continuous
 62
     8
370
    15
100
AcDbPolyline
 90
        3
 70
   128
 43
0.0
 10
478.4462316166
 20
362.6635121503
 10
480.064892603
 20
358.3406107821
 10
481.1160875689
 20
354.6335446038
  0
ARC
  5
329
330
1F
100
AcDbEntity
  8
0
  6
Continuous
 62
     8
370
    15
100
AcDbCircle
 10
484.6751674194
 20
333.4910633788
 30
0.0
 40
3.580745785027492
100
AcDbArc
 50
142.4607215227
 51
159.5512486792
  0
ARC
  5
32A
330
1F
100
AcDbEntity
  8
0
  6
Continuous
 62
     8
370
    15
100
AcDbCircle
 10
492.5001658211
 20
353.1003669202
 30
0.0
 40
20.43150333852859
100
AcDbArc
 50
238.5366025932
 51
301.269518391
  0
ARC
  5
32B
330
1F
100
AcDbEntity
  8
0
  6
Continuous
 62
     8
370
    15
100
AcDbCircle
 10
500.2409886295
 20
333.4537115375
 30
0.0
 40
3.601542642617737
100
AcDbArc
 50
20.3190270363
 51
37.3127875964
  0
ARC
  5
32C
330
1F
100
AcDbEntity
  8
0
  6
Continuous
 62
     8
370
    15
100
AcDbCircle
 10
492.6095077114
 20
346.7214144759
 30
0.0
 40
20.12329778076271
100
AcDbArc
 50
58.3674665197
 51
85.9384605894
  0
ARC
  5
32D
330
1F
100
AcDbEntity
  8
0
  6
Continuous
 62
     8
370
    15
100
AcDbCircle
 10
552.7340725917
 20
349.643736329
 30
0.0
 40
51.56738203292684
100
AcDbArc
 50
164.0030675897
 51
195.7608738434
  0
ARC
  5
32E
330
1F
100
AcDbEntity
  8
0
  6
Continuous
 62
     8
370
    15
100
AcDbCircle
 10
432.2652909313
 20
349.8840806618
 30
0.0
 40
51.56744643230957
100
AcDbArc
 50
344.0030793993
 51
15.7608621584
  0
ARC
  5
32F
330
1F
100
AcDbEntity
  8
0
  6
Continuous
 62
     8
370
    15
100
AcDbCircle
 10
492.3936056085
 20
346.7093110943
 30
0.0
 40
20.13582822081019
100
AcDbArc
 50
93.8693530818
 51
121.4288404938
  0
ARC
  5
330
330
1F
100
AcDbEntity
  8
0
  6
Continuous
 62
     8
370
    15
100
AcDbCircle
 10
492.4680417649
 20
333.7624209711
 30
0.0
 40
0.501567656184354
100
AcDbArc
 50
184.4371642947
 51
355.3690282212
  0
ARC
  5
331
330
1F
100
AcDbEntity
  8
0
  6
Continuous
 62
     8
370
    15
100
AcDbCircle
 10
493.086311504
 20
335.0367877515
 30
0.0
 40
1.320176838113973
100
AcDbArc
 50
264.857152836
 51
309.108574421
  0
ARC
  5
332
330
1F
100
AcDbEntity
  8
0
  6
Continuous
 62
     8
370
    15
100
AcDbCircle
 10
491.8095301286
 20
334.8946203046
 30
0.0
 40
1.181674535564496
100
AcDbArc
 50
227.725073128
 51
277.7058335239
  0
LWPOLYLINE
  5
333
330
1F
100
AcDbEntity
  8
0
  6
Continuous
 62
     8
370
    15
100
AcDbPolyline
 90
        4
 70
   128
 43
0.0
 10
491.0360364448
 20
366.8821500935
 10
491.0363642703
 20
366.9372396865
 10
491.0366473924
 20
366.9452863135
 10
491.0368262063
 20
366.8951588073
  0
LINE
  5
334
330
1F
100
AcDbEntity
  8
0
  6
Continuous
 62
     8
370
    15
100
AcDbLine
 10
490.9683479201
 20
334.326487998
 30
0.0
 11
491.0331679713
 21
365.7943504252
 31
0.0
  0
LWPOLYLINE
  5
335
330
1F
100
AcDbEntity
  8
0
  6
Continuous
 62
     8
370
    15
100
AcDbPolyline
 90
        9
 70
   128
 43
0.0
 10
504.068040682
 20
335.4851277866
 10
504.0527967941
 20
335.5219858088
 10
503.9957253467
 20
335.5868505635
 10
503.9051933418
 20
335.6377082267
 10
503.7845982443
 20
335.6726514497
 10
503.6384849082
 20
335.6903689303
 10
503.4723369609
 20
335.6901901164
 10
503.2923979889
 20
335.6721150079
 10
503.1054331194
 20
335.6368439593
  0
LWPOLYLINE
  5
336
330
1F
100
AcDbEntity
  8
0
  6
Continuous
 62
     8
370
    15
100
AcDbPolyline
 90
        9
 70
   128
 43
0.0
 10
481.8358658086
 20
335.6728302636
 10
481.649079753
 20
335.7087420621
 10
481.4693121444
 20
335.7274206676
 10
481.3033281099
 20
335.7281582751
 10
481.1573488842
 20
335.7109399834
 10
481.036872996
 20
335.6764065423
 10
480.9464303981
 20
335.6258543529
 10
480.8894111048
 20
335.5611833134
 10
480.8743683826
 20
335.5250256457
  0
LINE
  5
337
330
1F
100
AcDbEntity
  8
0
  6
Continuous
 62
     8
370
    15
100
AcDbLine
 10
492.9679719936
 20
333.7219255366
 30
0.0
 11
493.0331645738
 21
365.3683411279
 31
0.0
  0
LWPOLYLINE
  5
338
330
1F
100
AcDbEntity
  8
0
  6
Continuous
 62
     8
370
    15
100
AcDbPolyline
 90
        9
 70
   128
 43
0.0
 10
494.0327046643
 20
365.7764243283
 10
494.013951553
 20
365.7068508067
 10
493.9570440184
 20
365.6276660361
 10
493.8646344672
 20
365.5547695556
 10
493.7402693759
 20
365.490932981
 10
493.5887394677
 20
365.4386299052
 10
493.415848745
 20
365.3998719849
 10
493.2282580267
 20
365.3761344352
 10
493.0331645738
 20
365.3683411279
  0
LINE
  5
339
330
1F
100
AcDbEntity
  8
0
  6
Continuous
 62
     8
370
    15
100
AcDbLine
 10
492.0331699978
 20
365.3700398602
 30
0.0
 11
491.9679774176
 21
333.7236168184
 31
0.0
  0
LWPOLYLINE
  5
33A
330
1F
100
AcDbEntity
  8
0
  6
Continuous
 62
     8
370
    15
100
AcDbPolyline
 90
        9
 70
   128
 43
0.0
 10
492.0331699978
 20
365.3700398602
 10
491.8380765449
 20
365.3784888186
 10
491.6504858266
 20
365.4028522172
 10
491.4776025544
 20
365.4422061839
 10
491.3260651957
 20
365.4950158992
 10
491.2017001044
 20
365.5592697062
 10
491.1092905532
 20
365.6324940123
 10
491.0523830186
 20
365.711872498
 10
491.0331679713
 20
365.7943504252
  0
ARC
  5
33B
330
1F
100
AcDbEntity
  8
0
  6
Continuous
 62
     8
370
    15
100
AcDbCircle
 10
503.0713706616
 20
362.6657685318
 30
0.0
 40
1.192778835498682
100
AcDbArc
 50
27.2818772885
 51
85.5670913866
  0
ARC
  5
33C
330
1F
100
AcDbEntity
  8
0
  6
Continuous
 62
     8
370
    15
100
AcDbCircle
 10
481.980921357
 20
362.705405698
 30
0.0
 40
1.188757136699754
100
AcDbArc
 50
94.1934124136
 51
152.6375223468
  0
LINE
  5
33D
330
1F
100
AcDbEntity
  8
0
  6
Continuous
 62
     8
370
    15
100
AcDbLine
 10
493.0331645738
 20
365.3683411279
 30
0.0
 11
492.0331699978
 21
365.3700398602
 31
0.0
  0
SPLINE
  5
33E
330
1F
100
AcDbEntity
  8
0
  6
Continuous
 62
     8
370
    15
100
AcDbSpline
210
0.0
220
0.0
230
1.0
 70
     8
 71
     3
 72
     9
 73
     5
 74
     0
 42
0.00000001
 43
0.00000001
 12
1.0
 22
0.0
 32
0.0
 13
1.0
 23
0.0
 33
0.0
 40
0.0
 40
0.0
 40
0.0
 40
0.0
 40
0.520974111343796
 40
1.0
 40
1.0
 40
1.0
 40
1.0
 10
510.2369351516929
 20
320.5377431907551
 30
0.0
 10
509.9003486598049
 20
320.3292609464925
 30
0.0
 10
509.2542772244703
 20
319.9290832030633
 30
0.0
 10
508.5988346467923
 20
319.8455261305863
 30
0.0
 10
508.284860683557
 20
319.8055001296894
 30
0.0
  0
ARC
  5
33F
330
1F
100
AcDbEntity
  8
0
  6
Continuous
 62
     8
370
    15
100
AcDbCircle
 10
496.3056524902
 20
341.1775525834
 30
0.0
 40
24.90145313753171
100
AcDbArc
 50
304.0182273217
 51
9.8305101242
  0
ARC
  5
340
330
1F
100
AcDbEntity
  8
0
  6
Continuous
 62
     8
370
    15
100
AcDbCircle
 10
488.7019549481
 20
341.1927557438
 30
0.0
 40
24.91616684821057
100
AcDbArc
 50
171.6636835041
 51
235.7475222491
  0
SPLINE
  5
341
330
1F
100
AcDbEntity
  8
0
  6
Continuous
 62
     8
370
    15
100
AcDbSpline
210
0.0
220
0.0
230
1.0
 70
     8
 71
     3
 72
     9
 73
     5
 74
     0
 42
0.00000001
 43
0.00000001
 12
1.0
 22
0.0
 32
0.0
 13
1.0
 23
0.0
 33
0.0
 40
0.0
 40
0.0
 40
0.0
 40
0.0
 40
0.4790277906991958
 40
1.0
 40
1.0
 40
1.0
 40
1.0
 10
476.6260771285263
 20
319.8590698041813
 30
0.0
 10
476.3125770839239
 20
319.9001588204159
 30
0.0
 10
475.6581264430858
 20
319.9859346710708
 30
0.0
 10
475.0137993438578
 20
320.3882953485656
 30
0.0
 10
474.6781228314605
 20
320.5979140796559
 30
0.0
  0
SPLINE
  5
342
330
1F
100
AcDbEntity
  8
0
  6
Continuous
 62
     8
370
    15
100
AcDbSpline
210
0.0
220
0.0
230
1.0
 70
     8
 71
     3
 72
    11
 73
     7
 74
     0
 42
0.00000001
 43
0.00000001
 12
1.0
 22
0.0
 32
0.0
 13
1.0
 23
0.0
 33
0.0
 40
0.0
 40
0.0
 40
0.0
 40
0.0
 40
0.2427831565676462
 40
0.6719528716509652
 40
0.9785910835649698
 40
1.0
 40
1.0
 40
1.0
 40
1.0
 10
506.7253051530089
 20
322.0776589908497
 30
0.0
 10
506.7881426697631
 20
321.9150910817337
 30
0.0
 10
506.962058564207
 20
321.465150587866
 30
0.0
 10
507.5147514517806
 20
321.0386648519087
 30
0.0
 10
508.0353834918077
 20
320.8962378756136
 30
0.0
 10
508.2754449025939
 20
320.890374400619
 30
0.0
 10
508.2911117206779
 20
320.8899917402165
 30
0.0
  0
SPLINE
  5
343
330
1F
100
AcDbEntity
  8
0
  6
Continuous
 62
     8
370
    15
100
AcDbSpline
210
0.0
220
0.0
230
1.0
 70
     8
 71
     3
 72
    11
 73
     7
 74
     0
 42
0.00000001
 43
0.00000001
 12
1.0
 22
0.0
 32
0.0
 13
1.0
 23
0.0
 33
0.0
 40
0.0
 40
0.0
 40
0.0
 40
0.0
 40
0.2804838177408926
 40
0.3270047100471282
 40
0.7544600471907932
 40
1.0
 40
1.0
 40
1.0
 40
1.0
 10
476.6234917770591
 20
320.9435763158696
 30
0.0
 10
476.8265037264811
 20
320.966334814043
 30
0.0
 10
477.0631871265844
 20
320.9928680242519
 30
0.0
 10
477.5412110424056
 20
321.2049809334237
 30
0.0
 10
477.955381599446
 20
321.5156445232344
 30
0.0
 10
478.1301857365953
 20
321.9680646714247
 30
0.0
 10
478.1939624081817
 20
322.1331285633938
 30
0.0
  0
ARC
  5
344
330
1F
100
AcDbEntity
  8
0
  6
Continuous
 62
     8
370
    15
100
AcDbCircle
 10
553.7538504671
 20
341.1916892807
 30
0.0
 40
48.30131524663402
100
AcDbArc
 50
155.6599075475
 51
204.1040385913
  0
SPLINE
  5
345
330
1F
100
AcDbEntity
  8
0
  6
Continuous
 62
     8
370
    15
100
AcDbSpline
210
0.0
220
0.0
230
1.0
 70
     8
 71
     3
 72
     9
 73
     5
 74
     0
 42
0.00000001
 43
0.00000001
 12
1.0
 22
0.0
 32
0.0
 13
1.0
 23
0.0
 33
0.0
 40
0.0
 40
0.0
 40
0.0
 40
0.0
 40
0.4684402003634079
 40
0.9999999999999999
 40
0.9999999999999999
 40
0.9999999999999999
 40
0.9999999999999999
 10
508.2911117206779
 20
320.8899917402165
 30
0.0
 10
508.5131995285217
 20
320.9167479836658
 30
0.0
 10
508.9873001878406
 20
320.9738657191389
 30
0.0
 10
509.4292347625679
 20
321.2949876777835
 30
0.0
 10
509.6641494165626
 20
321.4656832017796
 30
0.0
  0
SPLINE
  5
346
330
1F
100
AcDbEntity
  8
0
  6
Continuous
 62
     8
370
    15
100
AcDbSpline
210
0.0
220
0.0
230
1.0
 70
     8
 71
     3
 72
    11
 73
     7
 74
     0
 42
0.00000001
 43
0.00000001
 12
1.0
 22
0.0
 32
0.0
 13
1.0
 23
0.0
 33
0.0
 40
0.0
 40
0.0
 40
0.0
 40
0.0
 40
0.2357942228561858
 40
0.2749018431130549
 40
0.634253000799396
 40
1.0
 40
1.0
 40
1.0
 40
1.0
 10
508.3759365807738
 20
362.0655434527295
 30
0.0
 10
508.1730249075621
 20
362.1676320338425
 30
0.0
 10
507.9364593451009
 20
362.2866525033385
 30
0.0
 10
507.4577604688046
 20
362.4834443460105
 30
0.0
 10
506.9563640532877
 20
362.6413060328287
 30
0.0
 10
506.7433761749284
 20
362.6243608556671
 30
0.0
 10
506.6359428893294
 20
362.6158135332959
 30
0.0
  0
SPLINE
  5
347
330
1F
100
AcDbEntity
  8
0
  6
Continuous
 62
     8
370
    15
100
AcDbSpline
210
0.0
220
0.0
230
1.0
 70
     8
 71
     3
 72
     9
 73
     5
 74
     0
 42
0.00000001
 43
0.00000001
 12
1.0
 22
0.0
 32
0.0
 13
1.0
 23
0.0
 33
0.0
 40
0.0
 40
0.0
 40
0.0
 40
0.0
 40
0.5315578292492201
 40
1.0
 40
1.0
 40
1.0
 40
1.0
 10
509.7457928787437
 20
361.099173346986
 30
0.0
 10
509.5116205442541
 20
361.2881384340009
 30
0.0
 10
509.0710808294684
 20
361.6436314332888
 30
0.0
 10
508.5976919126007
 20
361.9309508986682
 30
0.0
 10
508.3759365807738
 20
362.0655434527295
 30
0.0
  0
ARC
  5
348
330
1F
100
AcDbEntity
  8
0
  6
Continuous
 62
     8
370
    15
100
AcDbCircle
 10
431.2454934929
 20
341.4314057258
 30
0.0
 40
48.3013971587848
100
AcDbArc
 50
335.6599356561
 51
24.1039889854
  0
SPLINE
  5
349
330
1F
100
AcDbEntity
  8
0
  6
Continuous
 62
     8
370
    15
100
AcDbSpline
210
0.0
220
0.0
230
1.0
 70
     8
 71
     3
 72
     9
 73
     5
 74
     0
 42
0.00000001
 43
0.00000001
 12
1.0
 22
0.0
 32
0.0
 13
1.0
 23
0.0
 33
0.0
 40
0.0
 40
0.0
 40
0.0
 40
0.0
 40
0.4684418203723093
 40
1.0
 40
1.0
 40
1.0
 40
1.0
 10
476.7083166371551
 20
362.1191280283825
 30
0.0
 10
476.4862286280828
 20
361.9852888934626
 30
0.0
 10
476.0121291787727
 20
361.6995775647569
 30
0.0
 10
475.5701983426316
 20
361.3455782932717
 30
0.0
 10
475.335286391851
 20
361.1574070849316
 30
0.0
  0
SPLINE
  5
34A
330
1F
100
AcDbEntity
  8
0
  6
Continuous
 62
     8
370
    15
100
AcDbSpline
210
0.0
220
0.0
230
1.0
 70
     8
 71
     3
 72
    11
 73
     7
 74
     0
 42
0.00000001
 43
0.00000001
 12
1.0
 22
0.0
 32
0.0
 13
1.0
 23
0.0
 33
0.0
 40
0.0
 40
0.0
 40
0.0
 40
0.0
 40
0.3658280091862408
 40
0.7252585099073582
 40
0.9820708997531702
 40
1.0
 40
1.0
 40
1.0
 40
1.0
 10
478.4462316166129
 20
362.6635121502774
 30
0.0
 10
478.3389851207849
 20
362.6721495590029
 30
0.0
 10
478.1263676289473
 20
362.6892733276169
 30
0.0
 10
477.4886926786028
 20
362.4922346869503
 30
0.0
 10
476.9640170109638
 20
362.2541060256024
 30
0.0
 10
476.7239809293201
 20
362.1273968265575
 30
0.0
 10
476.7083166371551
 20
362.1191280283825
 30
0.0
  0
SPLINE
  5
34B
330
1F
100
AcDbEntity
  8
0
  6
Continuous
 62
     8
370
    15
100
AcDbSpline
210
0.0
220
0.0
230
1.0
 70
     8
 71
     3
 72
     9
 73
     5
 74
     0
 42
0.00000001
 43
0.00000001
 12
1.0
 22
0.0
 32
0.0
 13
1.0
 23
0.0
 33
0.0
 40
0.0
 40
0.0
 40
0.0
 40
0.0
 40
0.5315605404662028
 40
1.0
 40
1.0
 40
1.0
 40
1.0
 10
475.2536354790893
 20
321.5239094891446
 30
0.0
 10
475.4878070774872
 20
321.3524194013189
 30
0.0
 10
475.9283431605314
 20
321.0298031144229
 30
0.0
 10
476.4017359259018
 20
320.9710830916167
 30
0.0
 10
476.6234917770591
 20
320.9435763158696
 30
0.0
  0
ARC
  5
34C
330
1F
100
AcDbEntity
  8
0
  6
Continuous
 62
     8
370
    15
100
AcDbCircle
 10
503.9267994162
 20
363.4683477398
 30
0.0
 40
0.8555784001537701
100
AcDbArc
 50
106.8100601837
 51
153.1346804663
  0
ARC
  5
34D
330
1F
100
AcDbEntity
  8
0
  6
Continuous
 62
     8
370
    15
100
AcDbCircle
 10
503.1546298502
 20
363.4341434919
 30
0.0
 40
1.001667239080653
100
AcDbArc
 50
347.2161369752
 51
58.4082682799
  0
ARC
  5
34E
330
1F
100
AcDbEntity
  8
0
  6
Continuous
 62
     8
370
    15
100
AcDbCircle
 10
481.9026582921
 20
363.4700922462
 30
0.0
 40
1.001573997172964
100
AcDbArc
 50
121.387985891
 51
192.589768889
  0
ARC
  5
34F
330
1F
100
AcDbEntity
  8
0
  6
Continuous
 62
     8
370
    15
100
AcDbCircle
 10
481.1291962312
 20
363.5073819032
 30
0.0
 40
0.8556081638606935
100
AcDbArc
 50
26.6368653922
 51
72.884002064
  0
LINE
  5
350
330
1F
100
AcDbEntity
  8
0
  6
Continuous
 62
     8
370
    15
100
AcDbLine
 10
503.679366244
 20
364.2873661914
 30
0.0
 11
506.166124178
 21
363.8240294852
 31
0.0
  0
ARC
  5
351
330
1F
100
AcDbEntity
  8
0
  6
Continuous
 62
     8
370
    15
100
AcDbCircle
 10
505.6932321108
 20
362.9446906188
 30
0.0
 40
0.9984306432327212
100
AcDbArc
 50
340.7680007574
 51
61.7294637531
  0
ARC
  5
352
330
1F
100
AcDbEntity
  8
0
  6
Continuous
 62
     8
370
    15
100
AcDbCircle
 10
479.389977598
 20
362.9891393178
 30
0.0
 40
0.9983433926259274
100
AcDbArc
 50
118.0617248742
 51
199.0363225678
  0
LINE
  5
353
330
1F
100
AcDbEntity
  8
0
  6
Continuous
 62
     8
370
    15
100
AcDbLine
 10
478.9203344117
 20
363.8701187768
 30
0.0
 11
481.3810078632
 21
364.3250959315
 31
0.0
  0
SPLINE
  5
354
330
1F
100
AcDbEntity
  8
0
  6
Continuous
 62
     8
370
    15
100
AcDbSpline
210
0.0
220
0.0
230
1.0
 70
     8
 71
     3
 72
    10
 73
     6
 74
     0
 42
0.00000001
 43
0.00000001
 12
1.0
 22
0.0
 32
0.0
 13
1.0
 23
0.0
 33
0.0
 40
0.0
 40
0.0
 40
0.0
 40
0.0
 40
0.2857670597578156
 40
0.6445557588346602
 40
1.0
 40
1.0
 40
1.0
 40
1.0
 10
476.6835956107345
 20
362.7979951300518
 30
0.0
 10
476.9995486680565
 20
362.9694878946754
 30
0.0
 10
477.7121898058802
 20
363.3562947195429
 30
0.0
 10
478.5498686197875
 20
363.7421108628982
 30
0.0
 10
478.7972319144734
 20
363.8275828822148
 30
0.0
 10
478.920334411737
 20
363.870118776788
 30
0.0
  0
ARC
  5
355
330
1F
100
AcDbEntity
  8
0
  6
Continuous
 62
     8
370
    15
100
AcDbCircle
 10
507.2778972164
 20
319.351980507
 30
0.0
 40
3.187779579009704
100
AcDbArc
 50
21.8372472169
 51
41.5339912111
  0
ARC
  5
356
330
1F
100
AcDbEntity
  8
0
  6
Continuous
 62
     8
370
    15
100
AcDbCircle
 10
477.6190818874
 20
319.4119276605
 30
0.0
 40
3.171088764892954
100
AcDbArc
 50
138.24002232
 51
158.0374949617
  0
ARC
  5
357
330
1F
100
AcDbEntity
  8
0
  6
Continuous
 62
     8
370
    15
100
AcDbCircle
 10
655.4162853292
 20
365.1868525811
 30
0.0
 40
162.383222176258
100
AcDbArc
 50
179.7324548201
 51
179.9359630275
  0
ARC
  5
358
330
1F
100
AcDbEntity
  8
0
  6
Continuous
 62
     8
370
    15
100
AcDbCircle
 10
658.4548616213
 20
365.178995231
 30
0.0
 40
166.4218012787777
100
AcDbArc
 50
179.7356625415
 51
179.9342270467
  0
ARC
  5
359
330
1F
100
AcDbEntity
  8
0
  6
Continuous
 62
     8
370
    15
100
AcDbCircle
 10
496.3544677387
 20
341.3099297969
 30
0.0
 40
23.89438740148809
100
AcDbArc
 50
303.8500470165
 51
55.9138991223
  0
ARC
  5
35A
330
1F
100
AcDbEntity
  8
0
  6
Continuous
 62
     8
370
    15
100
AcDbCircle
 10
510.436409249
 20
360.7090571588
 30
0.0
 40
0.7931844748368572
100
AcDbArc
 50
98.3439939465
 51
150.5387126308
  0
ARC
  5
35B
330
1F
100
AcDbEntity
  8
0
  6
Continuous
 62
     8
370
    15
100
AcDbCircle
 10
488.6449701947
 20
341.313154248
 30
0.0
 40
23.89439376902627
100
AcDbArc
 50
123.8500429111
 51
235.9138817304
  0
ARC
  5
35C
330
1F
100
AcDbEntity
  8
0
  6
Continuous
 62
     8
370
    15
100
AcDbCircle
 10
474.6437359555
 20
360.7705783158
 30
0.0
 40
0.7923878486698535
100
AcDbArc
 50
29.2211003079
 51
81.3804546576
  0
LINE
  5
35D
330
1F
100
AcDbEntity
  8
0
  6
Continuous
 62
     8
370
    15
100
AcDbLine
 10
492.0348314773
 20
365.9467893042
 30
0.0
 11
493.0348335038
 21
365.945105473
 31
0.0
  0
LINE
  5
35E
330
1F
100
AcDbEntity
  8
0
  6
Continuous
 62
     8
370
    15
100
AcDbLine
 10
501.3778595458
 20
312.7589868703
 30
0.0
 11
501.3805641066
 21
312.7525048652
 31
0.0
  0
SPLINE
  5
35F
330
1F
100
AcDbEntity
  8
0
  6
Continuous
 62
     8
370
    15
100
AcDbSpline
210
0.0
220
0.0
230
1.0
 70
     8
 71
     3
 72
     9
 73
     5
 74
     0
 42
0.00000001
 43
0.00000001
 12
1.0
 22
0.0
 32
0.0
 13
1.0
 23
0.0
 33
0.0
 40
0.0
 40
0.0
 40
0.0
 40
0.0
 40
0.5599644819973753
 40
0.9999999999999999
 40
0.9999999999999999
 40
0.9999999999999999
 40
0.9999999999999999
 10
493.0674521456924
 20
365.9461932577984
 30
0.0
 10
492.9640683771511
 20
366.0756330383433
 30
0.0
 10
492.7794427948776
 20
366.3067901647436
 30
0.0
 10
492.6317850394005
 20
366.537915456481
 30
0.0
 10
492.5668103824821
 20
366.6396187939541
 30
0.0
  0
SPLINE
  5
360
330
1F
100
AcDbEntity
  8
0
  6
Continuous
 62
     8
370
    15
100
AcDbSpline
210
0.0
220
0.0
230
1.0
 70
     8
 71
     3
 72
    13
 73
     9
 74
     0
 42
0.00000001
 43
0.00000001
 12
1.0
 22
0.0
 32
0.0
 13
1.0
 23
0.0
 33
0.0
 40
0.0
 40
0.0
 40
0.0
 40
0.0
 40
0.2395062541364566
 40
0.3683901302466135
 40
0.5000060528975305
 40
0.6315915627112649
 40
0.7604889995462109
 40
1.0
 40
1.0
 40
1.0
 40
1.0
 10
492.8170381318297
 20
366.8891387381451
 30
0.0
 10
492.8135627458211
 20
366.8577344028657
 30
0.0
 10
492.8082171739111
 20
366.8094306656395
 30
0.0
 10
492.7769028813609
 20
366.7513589403203
 30
0.0
 10
492.7446004631786
 20
366.7114060110828
 30
0.0
 10
492.7045627186582
 20
366.679232709397
 30
0.0
 10
492.6464482525187
 20
366.6481097029879
 30
0.0
 10
492.5981864904698
 20
366.6429640828052
 30
0.0
 10
492.5668103824821
 20
366.6396187939541
 30
0.0
  0
SPLINE
  5
361
330
1F
100
AcDbEntity
  8
0
  6
Continuous
 62
     8
370
    15
100
AcDbSpline
210
0.0
220
0.0
230
1.0
 70
     8
 71
     3
 72
    10
 73
     6
 74
     0
 42
0.00000001
 43
0.00000001
 12
1.0
 22
0.0
 32
0.0
 13
1.0
 23
0.0
 33
0.0
 40
0.0
 40
0.0
 40
0.0
 40
0.0
 40
0.2798941065511064
 40
0.5601311559599259
 40
1.0
 40
1.0
 40
1.0
 40
1.0
 10
492.8170381318297
 20
366.8891387381451
 30
0.0
 10
492.9307936924249
 20
366.8645172739455
 30
0.0
 10
493.1584441936739
 20
366.8152441778684
 30
0.0
 10
493.5655049527566
 20
367.055849020163
 30
0.0
 10
493.8581856061912
 20
366.9961945963025
 30
0.0
 10
494.0369663964477
 20
366.9597553410428
 30
0.0
  0
SPLINE
  5
362
330
1F
100
AcDbEntity
  8
0
  6
Continuous
 62
     8
370
    15
100
AcDbSpline
210
0.0
220
0.0
230
1.0
 70
     8
 71
     3
 72
     9
 73
     5
 74
     0
 42
0.00000001
 43
0.00000001
 12
1.0
 22
0.0
 32
0.0
 13
1.0
 23
0.0
 33
0.0
 40
0.0
 40
0.0
 40
0.0
 40
0.0
 40
0.5599884275359964
 40
1.0
 40
1.0
 40
1.0
 40
1.0
 10
491.0369752179351
 20
366.9648366370099
 30
0.0
 10
491.2702744418004
 20
366.9539795009196
 30
0.0
 10
491.6868888080862
 20
366.9345913572431
 30
0.0
 10
492.1034871294422
 20
366.9036481688142
 30
0.0
 10
492.2867952119079
 20
366.8900328078167
 30
0.0
  0
SPLINE
  5
363
330
1F
100
AcDbEntity
  8
0
  6
Continuous
 62
     8
370
    15
100
AcDbSpline
210
0.0
220
0.0
230
1.0
 70
     8
 71
     3
 72
    13
 73
     9
 74
     0
 42
0.00000001
 43
0.00000001
 12
1.0
 22
0.0
 32
0.0
 13
1.0
 23
0.0
 33
0.0
 40
0.0
 40
0.0
 40
0.0
 40
0.0
 40
0.2394976921485488
 40
0.3683923347912226
 40
0.500015905572557
 40
0.6316248677104411
 40
0.760493525369122
 40
0.9999999999999999
 40
0.9999999999999999
 40
0.9999999999999999
 40
0.9999999999999999
 10
492.5361661444869
 20
366.6396634974377
 30
0.0
 10
492.5048073363915
 20
366.6431170209958
 30
0.0
 10
492.4565716125858
 20
366.6484291874531
 30
0.0
 10
492.3985601674171
 20
366.6797437163352
 30
0.0
 10
492.3586397826456
 20
366.712065018292
 30
0.0
 10
492.3264625346396
 20
366.7521196182022
 30
0.0
 10
492.2953546197819
 20
366.8102995328211
 30
0.0
 10
492.2901676344018
 20
366.8586177503655
 30
0.0
 10
492.2867952119079
 20
366.8900328078167
 30
0.0
  0
SPLINE
  5
364
330
1F
100
AcDbEntity
  8
0
  6
Continuous
 62
     8
370
    15
100
AcDbSpline
210
0.0
220
0.0
230
1.0
 70
     8
 71
     3
 72
    10
 73
     6
 74
     0
 42
0.00000001
 43
0.00000001
 12
1.0
 22
0.0
 32
0.0
 13
1.0
 23
0.0
 33
0.0
 40
0.0
 40
0.0
 40
0.0
 40
0.0
 40
0.2799063837616853
 40
0.5601540963219283
 40
1.0
 40
1.0
 40
1.0
 40
1.0
 10
492.5361661444869
 20
366.6396634974377
 30
0.0
 10
492.4569218899618
 20
366.5752069779253
 30
0.0
 10
492.2983367473664
 20
366.4462153380981
 30
0.0
 10
492.3540131837596
 20
366.2150640990013
 30
0.0
 10
492.1356469458081
 20
366.0492676802366
 30
0.0
 10
492.0022649894919
 20
365.9479962983029
 30
0.0
  0
LINE
  5
365
330
1F
100
AcDbEntity
  8
0
  6
Continuous
 62
     8
370
    15
100
AcDbLine
 10
503.2043693792
 20
313.1556110778
 30
0.0
 11
503.2076252829
 21
313.1492929854
 31
0.0
  0
LINE
  5
366
330
1F
100
AcDbEntity
  8
0
  6
Continuous
 62
     8
370
    15
100
AcDbLine
 10
492.5668103825
 20
366.639618794
 30
0.0
 11
492.5361661445
 21
366.6396634974
 31
0.0
  0
LINE
  5
367
330
1F
100
AcDbEntity
  8
0
  6
Continuous
 62
     8
370
    15
100
AcDbLine
 10
492.8174851667
 20
367.1495812335
 30
0.0
 11
492.8170381318
 21
366.8891387381
 31
0.0
  0
SPLINE
  5
368
330
1F
100
AcDbEntity
  8
0
  6
Continuous
 62
     8
370
    15
100
AcDbSpline
210
0.0
220
0.0
230
1.0
 70
     8
 71
     3
 72
    11
 73
     7
 74
     0
 42
0.00000001
 43
0.00000001
 12
1.0
 22
0.0
 32
0.0
 13
1.0
 23
0.0
 33
0.0
 40
0.0
 40
0.0
 40
0.0
 40
0.0
 40
0.2499941329425982
 40
0.5000020520482091
 40
0.7499957095923162
 40
1.0
 40
1.0
 40
1.0
 40
1.0
 10
492.8170381318298
 20
366.8891387381451
 30
0.0
 10
492.8115920274404
 20
366.8886987047388
 30
0.0
 10
492.800699518331
 20
366.8878186136602
 30
0.0
 10
492.7423328754468
 20
366.8868195136653
 30
0.0
 10
492.6619688479395
 20
366.8861459849466
 30
0.0
 10
492.5991511979738
 20
366.8861046620088
 30
0.0
 10
492.5677417050567
 20
366.8860840001004
 30
0.0
  0
LINE
  5
369
330
1F
100
AcDbEntity
  8
0
  6
Continuous
 62
     8
370
    15
100
AcDbLine
 10
492.5677417051
 20
366.8860840001
 30
0.0
 11
492.5681887399
 21
367.1479719081
 31
0.0
  0
LINE
  5
36A
330
1F
100
AcDbEntity
  8
0
  6
Continuous
 62
     8
370
    15
100
AcDbLine
 10
492.5368963014
 20
367.1480315127
 30
0.0
 11
492.5364492665
 21
366.8861436047
 31
0.0
  0
SPLINE
  5
36B
330
1F
100
AcDbEntity
  8
0
  6
Continuous
 62
     8
370
    15
100
AcDbSpline
210
0.0
220
0.0
230
1.0
 70
     8
 71
     3
 72
    11
 73
     7
 74
     0
 42
0.00000001
 43
0.00000001
 12
1.0
 22
0.0
 32
0.0
 13
1.0
 23
0.0
 33
0.0
 40
0.0
 40
0.0
 40
0.0
 40
0.0
 40
0.2499951077151017
 40
0.499998113225066
 40
0.7499904818493085
 40
1.0
 40
1.0
 40
1.0
 40
1.0
 10
492.5364492665496
 20
366.8861436047451
 30
0.0
 10
492.5050361805315
 20
366.8862731961585
 30
0.0
 10
492.4422090160995
 20
366.8865323830792
 30
0.0
 10
492.3617639835425
 20
366.8874495494831
 30
0.0
 10
492.3032668956398
 20
366.888667013007
 30
0.0
 10
492.2922858986973
 20
366.8895775324702
 30
0.0
 10
492.2867952119079
 20
366.8900328078167
 30
0.0
  0
LINE
  5
36C
330
1F
100
AcDbEntity
  8
0
  6
Continuous
 62
     8
370
    15
100
AcDbLine
 10
492.5364492665
 20
366.8861436047
 30
0.0
 11
492.5677417051
 21
366.8860840001
 31
0.0
  0
LINE
  5
36D
330
1F
100
AcDbEntity
  8
0
  6
Continuous
 62
     8
370
    15
100
AcDbLine
 10
550.0620318781
 20
278.6216782727
 30
0.0
 11
550.0620318781
 21
279.2978706159
 31
0.0
  0
LINE
  5
36E
330
1F
100
AcDbEntity
  8
0
  6
Continuous
 62
     8
370
    15
100
AcDbLine
 10
586.0613597761
 20
278.6216782727
 30
0.0
 11
586.0613597761
 21
279.2978706159
 31
0.0
  0
LINE
  5
36F
330
1F
100
AcDbEntity
  8
0
  6
Continuous
 62
     8
370
    15
100
AcDbLine
 10
550.5974305998
 20
282.1894856491
 30
0.0
 11
585.5219973456
 21
282.1894856491
 31
0.0
  0
SPLINE
  5
370
330
1F
100
AcDbEntity
  8
0
  6
Continuous
 62
     8
370
    15
100
AcDbSpline
210
0.0
220
0.0
230
1.0
 70
     8
 71
     3
 72
    11
 73
     7
 74
     0
 42
0.00000001
 43
0.00000001
 12
1.0
 22
0.0
 32
0.0
 13
1.0
 23
0.0
 33
0.0
 40
0.0
 40
0.0
 40
0.0
 40
0.0
 40
0.2514415404303255
 40
0.5021696651131451
 40
0.7628298478980756
 40
0.9999999999999999
 40
0.9999999999999999
 40
0.9999999999999999
 40
0.9999999999999999
 10
585.5219973455635
 20
282.1894856490986
 30
0.0
 10
585.5755712819874
 20
281.9532279262224
 30
0.0
 10
585.6825671493642
 20
281.4813828151318
 30
0.0
 10
585.8348212663136
 20
280.7071019264295
 30
0.0
 10
585.9668755483823
 20
279.9546612724723
 30
0.0
 10
586.0308715804623
 20
279.5098039992109
 30
0.0
 10
586.061359776136
 20
279.2978706159489
 30
0.0
  0
SPLINE
  5
371
330
1F
100
AcDbEntity
  8
0
  6
Continuous
 62
     8
370
    15
100
AcDbSpline
210
0.0
220
0.0
230
1.0
 70
     8
 71
     3
 72
    11
 73
     7
 74
     0
 42
0.00000001
 43
0.00000001
 12
1.0
 22
0.0
 32
0.0
 13
1.0
 23
0.0
 33
0.0
 40
0.0
 40
0.0
 40
0.0
 40
0.0
 40
0.2514209402204242
 40
0.5021387130886947
 40
0.762800400019469
 40
0.9999999999999999
 40
0.9999999999999999
 40
0.9999999999999999
 40
0.9999999999999999
 10
550.5974305998054
 20
282.1894856490986
 30
0.0
 10
550.5442541416342
 20
281.9532260093033
 30
0.0
 10
550.4380499477857
 20
281.4813674943458
 30
0.0
 10
550.286903010541
 20
280.7070809204114
 30
0.0
 10
550.1558090678204
 20
279.9546369425032
 30
0.0
 10
550.0922931969797
 20
279.5098050457593
 30
0.0
 10
550.0620318781105
 20
279.2978706159489
 30
0.0
  0
SPLINE
  5
372
330
1F
100
AcDbEntity
  8
0
  6
Continuous
 62
     8
370
    15
100
AcDbSpline
210
0.0
220
0.0
230
1.0
 70
     8
 71
     3
 72
    11
 73
     7
 74
     0
 42
0.00000001
 43
0.00000001
 12
1.0
 22
0.0
 32
0.0
 13
1.0
 23
0.0
 33
0.0
 40
0.0
 40
0.0
 40
0.0
 40
0.0
 40
0.2371440002610361
 40
0.497796880184787
 40
0.7485350635377898
 40
1.0
 40
1.0
 40
1.0
 40
1.0
 10
548.0597181450096
 20
281.1050312914746
 30
0.0
 10
548.2026425338131
 20
281.2152917193303
 30
0.0
 10
548.5026598851712
 20
281.4467430608525
 30
0.0
 10
549.1260355234974
 20
281.7548523670845
 30
0.0
 10
549.8417283622924
 20
282.0196033281604
 30
0.0
 10
550.3452869490858
 20
282.1328036036213
 30
0.0
 10
550.5974305998054
 20
282.1894856490986
 30
0.0
  0
SPLINE
  5
373
330
1F
100
AcDbEntity
  8
0
  6
Continuous
 62
     8
370
    15
100
AcDbSpline
210
0.0
220
0.0
230
1.0
 70
     8
 71
     3
 72
    11
 73
     7
 74
     0
 42
0.00000001
 43
0.00000001
 12
1.0
 22
0.0
 32
0.0
 13
1.0
 23
0.0
 33
0.0
 40
0.0
 40
0.0
 40
0.0
 40
0.0
 40
0.2514425844134957
 40
0.502168399241943
 40
0.7628232384124289
 40
1.0
 40
1.0
 40
1.0
 40
1.0
 10
585.5219973455635
 20
282.1894856490986
 30
0.0
 10
585.774142474167
 20
282.1331969941792
 30
0.0
 10
586.277713959096
 20
282.0207801424261
 30
0.0
 10
586.9934163290794
 20
281.7571454494856
 30
0.0
 10
587.6167833838615
 20
281.4499935415224
 30
0.0
 10
587.9167837352036
 20
281.2190303874908
 30
0.0
 10
588.0597098003593
 20
281.1089950003521
 30
0.0
  0
SPLINE
  5
374
330
1F
100
AcDbEntity
  8
0
  6
Continuous
 62
     8
370
    15
100
AcDbSpline
210
0.0
220
0.0
230
1.0
 70
     8
 71
     3
 72
    11
 73
     7
 74
     0
 42
0.00000001
 43
0.00000001
 12
1.0
 22
0.0
 32
0.0
 13
1.0
 23
0.0
 33
0.0
 40
0.0
 40
0.0
 40
0.0
 40
0.0
 40
0.2371508182944116
 40
0.497799454691725
 40
0.748537087296054
 40
1.0
 40
1.0
 40
1.0
 40
1.0
 10
548.0597181450096
 20
331.8688171305554
 30
0.0
 10
548.2026476726559
 20
331.9233870244029
 30
0.0
 10
548.5026687370292
 20
332.0379338077339
 30
0.0
 10
549.1260368833161
 20
332.1048473029998
 30
0.0
 10
549.8417263851512
 20
332.0914390070995
 30
0.0
 10
550.3452867802539
 20
332.0092201916345
 30
0.0
 10
550.5974305998054
 20
331.9680514135258
 30
0.0
  0
LINE
  5
375
330
1F
100
AcDbEntity
  8
0
  6
Continuous
 62
     8
370
    15
100
AcDbLine
 10
550.5974305998
 20
331.9680514135
 30
0.0
 11
550.5974305998
 21
282.1894856491
 31
0.0
  0
LINE
  5
376
330
1F
100
AcDbEntity
  8
0
  6
Continuous
 62
     8
370
    15
100
AcDbLine
 10
585.5219973456
 20
282.1894856491
 30
0.0
 11
585.5219973456
 21
331.9680514135
 31
0.0
  0
SPLINE
  5
377
330
1F
100
AcDbEntity
  8
0
  6
Continuous
 62
     8
370
    15
100
AcDbSpline
210
0.0
220
0.0
230
1.0
 70
     8
 71
     3
 72
    11
 73
     7
 74
     0
 42
0.00000001
 43
0.00000001
 12
1.0
 22
0.0
 32
0.0
 13
1.0
 23
0.0
 33
0.0
 40
0.0
 40
0.0
 40
0.0
 40
0.0
 40
0.2514406358293577
 40
0.5021657288847522
 40
0.7628278302471914
 40
1.0
 40
1.0
 40
1.0
 40
1.0
 10
585.5219973455635
 20
331.9680514135258
 30
0.0
 10
585.7741427306953
 20
332.0088263921725
 30
0.0
 10
586.2777159526289
 20
332.0902603131647
 30
0.0
 10
586.9934241728463
 20
332.1025431853606
 30
0.0
 10
587.6167908720295
 20
332.0346674277939
 30
0.0
 10
587.9167885449584
 20
331.9196490724988
 30
0.0
 10
588.0597098003593
 20
331.8648534216778
 30
0.0
  0
LINE
  5
378
330
1F
100
AcDbEntity
  8
0
  6
Continuous
 62
     8
370
    15
100
AcDbLine
 10
585.5219973456
 20
331.9680514135
 30
0.0
 11
550.5974305998
 21
331.9680514135
 31
0.0
  0
SPLINE
  5
379
330
1F
100
AcDbEntity
  8
0
  6
Continuous
 62
     8
370
    15
100
AcDbSpline
210
0.0
220
0.0
230
1.0
 70
     8
 71
     3
 72
    11
 73
     7
 74
     0
 42
0.00000001
 43
0.00000001
 12
1.0
 22
0.0
 32
0.0
 13
1.0
 23
0.0
 33
0.0
 40
0.0
 40
0.0
 40
0.0
 40
0.0
 40
0.2371761250152937
 40
0.4978315372995485
 40
0.7485603288517472
 40
1.0
 40
1.0
 40
1.0
 40
1.0
 10
586.061359776136
 20
333.6763354339497
 30
0.0
 10
586.0308721358183
 20
333.6292069905449
 30
0.0
 10
585.9668787265025
 20
333.5302846161732
 30
0.0
 10
585.834818971517
 20
333.1527871721816
 30
0.0
 10
585.68256836028
 20
332.6297650536434
 30
0.0
 10
585.5755715060892
 20
332.1888306920293
 30
0.0
 10
585.5219973455635
 20
331.9680514135258
 30
0.0
  0
SPLINE
  5
37A
330
1F
100
AcDbEntity
  8
0
  6
Continuous
 62
     8
370
    15
100
AcDbSpline
210
0.0
220
0.0
230
1.0
 70
     8
 71
     3
 72
    11
 73
     7
 74
     0
 42
0.00000001
 43
0.00000001
 12
1.0
 22
0.0
 32
0.0
 13
1.0
 23
0.0
 33
0.0
 40
0.0
 40
0.0
 40
0.0
 40
0.0
 40
0.2371949550353196
 40
0.4978624295134501
 40
0.7485808997856592
 40
1.0
 40
1.0
 40
1.0
 40
1.0
 10
550.0620318781105
 20
333.6763354339497
 30
0.0
 10
550.0922937069734
 20
333.6292110536887
 30
0.0
 10
550.1558120378626
 20
333.5302989227683
 30
0.0
 10
550.2869011232422
 20
333.1528064714764
 30
0.0
 10
550.4380492583666
 20
332.6297780872239
 30
0.0
 10
550.5442540903092
 20
332.188832054661
 30
0.0
 10
550.5974305998054
 20
331.9680514135258
 30
0.0
  0
ENDSEC
  0
SECTION
  2
OBJECTS
  0
DICTIONARY
  5
C
330
0
100
AcDbDictionary
281
     1
  3
ACAD_GROUP
350
D
  3
ACAD_LAYOUT
350
1A
  3
ACAD_MLINESTYLE
350
17
  3
ACAD_PLOTSETTINGS
350
19
  3
ACAD_PLOTSTYLENAME
350
E
  0
DICTIONARY
  5
D
102
{ACAD_REACTORS
330
C
102
}
330
C
100
AcDbDictionary
281
     1
  0
DICTIONARY
  5
1A
102
{ACAD_REACTORS
330
C
102
}
330
C
100
AcDbDictionary
281
     1
  3
Layout1
350
1E
  3
Layout2
350
26
  3
Model
350
22
  0
DICTIONARY
  5
17
102
{ACAD_REACTORS
330
C
102
}
330
C
100
AcDbDictionary
281
     1
  3
Standard
350
18
  0
DICTIONARY
  5
19
102
{ACAD_REACTORS
330
C
102
}
330
C
100
AcDbDictionary
281
     1
  0
ACDBDICTIONARYWDFLT
  5
E
102
{ACAD_REACTORS
330
C
102
}
330
C
100
AcDbDictionary
281
     1
  3
Normal
350
F
100
AcDbDictionaryWithDefault
340
F
  0
LAYOUT
  5
1E
102
{ACAD_REACTORS
330
1A
102
}
330
1A
100
AcDbPlotSettings
  1

  2
none_device
  4

  6

 40
0.0
 41
0.0
 42
0.0
 43
0.0
 44
0.0
 45
0.0
 46
0.0
 47
0.0
 48
0.0
 49
0.0
140
0.0
141
0.0
142
1.0
143
1.0
 70
   688
 72
     0
 73
     0
 74
     5
  7

 75
    16
147
1.0
148
0.0
149
0.0
100
AcDbLayout
  1
Layout1
 70
     1
 71
     1
 10
0.0
 20
0.0
 11
420.0
 21
297.0
 12
0.0
 22
0.0
 32
0.0
 14
1.0000000000E+20
 24
1.0000000000E+20
 34
1.0000000000E+20
 15
-1.0000000000E+20
 25
-1.0000000000E+20
 35
-1.0000000000E+20
146
0.0
 13
0.0
 23
0.0
 33
0.0
 16
1.0
 26
0.0
 36
0.0
 17
0.0
 27
1.0
 37
0.0
 76
     0
330
1B
  0
LAYOUT
  5
26
102
{ACAD_REACTORS
330
1A
102
}
330
1A
100
AcDbPlotSettings
  1

  2
none_device
  4

  6

 40
0.0
 41
0.0
 42
0.0
 43
0.0
 44
0.0
 45
0.0
 46
0.0
 47
0.0
 48
0.0
 49
0.0
140
0.0
141
0.0
142
1.0
143
1.0
 70
   688
 72
     0
 73
     0
 74
     5
  7

 75
    16
147
1.0
148
0.0
149
0.0
100
AcDbLayout
  1
Layout2
 70
     1
 71
     2
 10
0.0
 20
0.0
 11
0.0
 21
0.0
 12
0.0
 22
0.0
 32
0.0
 14
0.0
 24
0.0
 34
0.0
 15
0.0
 25
0.0
 35
0.0
146
0.0
 13
0.0
 23
0.0
 33
0.0
 16
1.0
 26
0.0
 36
0.0
 17
0.0
 27
1.0
 37
0.0
 76
     0
330
23
  0
LAYOUT
  5
22
102
{ACAD_REACTORS
330
1A
102
}
330
1A
100
AcDbPlotSettings
  1

  2
none_device
  4

  6

 40
0.0
 41
0.0
 42
0.0
 43
0.0
 44
0.0
 45
0.0
 46
0.0
 47
0.0
 48
0.0
 49
0.0
140
0.0
141
0.0
142
1.0
143
1.0
 70
  1712
 72
     0
 73
     0
 74
     0
  7

 75
     0
147
1.0
148
0.0
149
0.0
100
AcDbLayout
  1
Model
 70
     1
 71
     0
 10
0.0
 20
0.0
 11
841.0
 21
594.0
 12
0.0
 22
0.0
 32
0.0
 14
0.0
 24
0.0
 34
0.0
 15
841.0
 25
594.0
 35
0.0
146
0.0
 13
0.0
 23
0.0
 33
0.0
 16
1.0
 26
0.0
 36
0.0
 17
0.0
 27
1.0
 37
0.0
 76
     0
330
1F
331
29
  0
MLINESTYLE
  5
18
102
{ACAD_REACTORS
330
17
102
}
330
17
100
AcDbMlineStyle
  2
Standard
 70
     0
  3

 62
   256
 51
90.0
 52
90.0
 71
     2
 49
0.5
 62
   256
  6
BYLAYER
 49
-0.5
 62
   256
  6
BYLAYER
  0
ACDBPLACEHOLDER
  5
F
102
{ACAD_REACTORS
330
E
102
}
330
E
  0
ENDSEC
  0
EOF
