  0
SECTION
  2
HEADER
  9
$ACADVER
  1
AC1015
  9
$ACADMAINTVER
 70
     6
  9
$DWGCODEPAGE
  3
ANSI_1252
  9
$INSBASE
 10
0.0
 20
0.0
 30
0.0
  9
$EXTMIN
 10
0.0
 20
0.0
 30
0.0
  9
$EXTMAX
 10
841.0
 20
594.0
 30
0.0
  9
$LIMMIN
 10
0.0
 20
0.0
  9
$LIMMAX
 10
841.0
 20
594.0
  9
$ORTHOMODE
 70
     0
  9
$REGENMODE
 70
     1
  9
$FILLMODE
 70
     1
  9
$QTEXTMODE
 70
     0
  9
$MIRRTEXT
 70
     1
  9
$LTSCALE
 40
1.0
  9
$ATTMODE
 70
     1
  9
$TEXTSIZE
 40
3.5
  9
$TRACEWID
 40
1.0
  9
$TEXTSTYLE
  7
Standard
  9
$CLAYER
  8
0
  9
$CELTYPE
  6
ByLayer
  9
$CECOLOR
 62
   256
  9
$CELTSCALE
 40
1.0
  9
$DISPSILH
 70
     0
  9
$DIMSCALE
 40
1.0
  9
$DIMASZ
 40
3.302
  9
$DIMEXO
 40
1.0
  9
$DIMDLI
 40
3.75
  9
$DIMRND
 40
0.0
  9
$DIMDLE
 40
0.0
  9
$DIMEXE
 40
1.0
  9
$DIMTP
 40
0.0
  9
$DIMTM
 40
0.0
  9
$DIMTXT
 40
3.5
  9
$DIMCEN
 40
2.5
  9
$DIMTSZ
 40
0.0
  9
$DIMTOL
 70
     0
  9
$DIMLIM
 70
     0
  9
$DIMTIH
 70
     1
  9
$DIMTOH
 70
     1
  9
$DIMSE1
 70
     0
  9
$DIMSE2
 70
     0
  9
$DIMTAD
 70
     1
  9
$DIMZIN
 70
     0
  9
$DIMBLK
  1

  9
$DIMASO
 70
     1
  9
$DIMSHO
 70
     1
  9
$DIMPOST
  1

  9
$DIMAPOST
  1

  9
$DIMALT
 70
     0
  9
$DIMALTD
 70
     3
  9
$DIMALTF
 40
0.0393700787
  9
$DIMLFAC
 40
1.0
  9
$DIMTOFL
 70
     1
  9
$DIMTVP
 40
0.0
  9
$DIMTIX
 70
     0
  9
$DIMSOXD
 70
     0
  9
$DIMSAH
 70
     0
  9
$DIMBLK1
  1

  9
$DIMBLK2
  1

  9
$DIMSTYLE
  2
ISO-25
  9
$DIMCLRD
 70
     0
  9
$DIMCLRE
 70
     0
  9
$DIMCLRT
 70
     0
  9
$DIMTFAC
 40
1.0
  9
$DIMGAP
 40
1.524
  9
$DIMJUST
 70
     0
  9
$DIMSD1
 70
     0
  9
$DIMSD2
 70
     0
  9
$DIMTOLJ
 70
     0
  9
$DIMTZIN
 70
     0
  9
$DIMALTZ
 70
     0
  9
$DIMALTTZ
 70
     0
  9
$DIMUPT
 70
     0
  9
$DIMDEC
 70
     1
  9
$DIMTDEC
 70
     1
  9
$DIMALTU
 70
     2
  9
$DIMALTTD
 70
     3
  9
$DIMTXSTY
  7
Standard
  9
$DIMAUNIT
 70
     0
  9
$DIMADEC
 70
     1
  9
$DIMALTRND
 40
0.0
  9
$DIMAZIN
 70
     0
  9
$DIMDSEP
 70
    44
  9
$DIMATFIT
 70
     3
  9
$DIMFRAC
 70
     0
  9
$DIMLDRBLK
  1

  9
$DIMLUNIT
 70
     2
  9
$DIMLWD
 70
    -2
  9
$DIMLWE
 70
    -2
  9
$DIMTMOVE
 70
     0
  9
$LUNITS
 70
     2
  9
$LUPREC
 70
     1
  9
$SKETCHINC
 40
1.0
  9
$FILLETRAD
 40
10.0
  9
$AUNITS
 70
     0
  9
$AUPREC
 70
     1
  9
$MENU
  1
.
  9
$ELEVATION
 40
0.0
  9
$PELEVATION
 40
0.0
  9
$THICKNESS
 40
0.0
  9
$LIMCHECK
 70
     0
  9
$CHAMFERA
 40
10.0
  9
$CHAMFERB
 40
10.0
  9
$CHAMFERC
 40
20.0
  9
$CHAMFERD
 40
0.0
  9
$SKPOLY
 70
     0
  9
$TDCREATE
 40
2457080.34530632
  9
$TDUCREATE
 40
2457080.34530632
  9
$TDUPDATE
 40
2457080.345307581
  9
$TDUUPDATE
 40
2457080.345307581
  9
$TDINDWG
 40
0.0000000116
  9
$TDUSRTIMER
 40
0.0000000116
  9
$USRTIMER
 70
     1
  9
$ANGBASE
 50
0.0
  9
$ANGDIR
 70
     0
  9
$PDMODE
 70
     0
  9
$PDSIZE
 40
-1.0
  9
$PLINEWID
 40
0.0
  9
$SPLFRAME
 70
     0
  9
$SPLINETYPE
 70
     6
  9
$SPLINESEGS
 70
     8
  9
$HANDSEED
  5
3F8
  9
$SURFTAB1
 70
     6
  9
$SURFTAB2
 70
     6
  9
$SURFTYPE
 70
     6
  9
$SURFU
 70
     6
  9
$SURFV
 70
     6
  9
$UCSBASE
  2

  9
$UCSNAME
  2

  9
$UCSORG
 10
0.0
 20
0.0
 30
0.0
  9
$UCSXDIR
 10
1.0
 20
0.0
 30
0.0
  9
$UCSYDIR
 10
0.0
 20
1.0
 30
0.0
  9
$UCSORTHOREF
  2

  9
$UCSORTHOVIEW
 70
     0
  9
$UCSORGTOP
 10
0.0
 20
0.0
 30
0.0
  9
$UCSORGBOTTOM
 10
0.0
 20
0.0
 30
0.0
  9
$UCSORGLEFT
 10
0.0
 20
0.0
 30
0.0
  9
$UCSORGRIGHT
 10
0.0
 20
0.0
 30
0.0
  9
$UCSORGFRONT
 10
0.0
 20
0.0
 30
0.0
  9
$UCSORGBACK
 10
0.0
 20
0.0
 30
0.0
  9
$PUCSBASE
  2

  9
$PUCSNAME
  2

  9
$PUCSORG
 10
0.0
 20
0.0
 30
0.0
  9
$PUCSXDIR
 10
1.0
 20
0.0
 30
0.0
  9
$PUCSYDIR
 10
0.0
 20
1.0
 30
0.0
  9
$PUCSORTHOREF
  2

  9
$PUCSORTHOVIEW
 70
     0
  9
$PUCSORGTOP
 10
0.0
 20
0.0
 30
0.0
  9
$PUCSORGBOTTOM
 10
0.0
 20
0.0
 30
0.0
  9
$PUCSORGLEFT
 10
0.0
 20
0.0
 30
0.0
  9
$PUCSORGRIGHT
 10
0.0
 20
0.0
 30
0.0
  9
$PUCSORGFRONT
 10
0.0
 20
0.0
 30
0.0
  9
$PUCSORGBACK
 10
0.0
 20
0.0
 30
0.0
  9
$USERI1
 70
     0
  9
$USERI2
 70
     0
  9
$USERI3
 70
     0
  9
$USERI4
 70
     0
  9
$USERI5
 70
     0
  9
$USERR1
 40
0.0
  9
$USERR2
 40
0.0
  9
$USERR3
 40
0.0
  9
$USERR4
 40
0.0
  9
$USERR5
 40
0.0
  9
$WORLDVIEW
 70
     1
  9
$SHADEDGE
 70
     3
  9
$SHADEDIF
 70
    70
  9
$TILEMODE
 70
     1
  9
$MAXACTVP
 70
    64
  9
$PINSBASE
 10
0.0
 20
0.0
 30
0.0
  9
$PLIMCHECK
 70
     0
  9
$PEXTMIN
 10
1.0000000000E+20
 20
1.0000000000E+20
 30
1.0000000000E+20
  9
$PEXTMAX
 10
-1.0000000000E+20
 20
-1.0000000000E+20
 30
-1.0000000000E+20
  9
$PLIMMIN
 10
0.0
 20
0.0
  9
$PLIMMAX
 10
420.0
 20
297.0
  9
$UNITMODE
 70
     0
  9
$VISRETAIN
 70
     1
  9
$PLINEGEN
 70
     0
  9
$PSLTSCALE
 70
     1
  9
$TREEDEPTH
 70
  3020
  9
$CMLSTYLE
  2
Standard
  9
$CMLJUST
 70
     0
  9
$CMLSCALE
 40
20.0
  9
$PROXYGRAPHICS
 70
     1
  9
$MEASUREMENT
 70
     1
  9
$CELWEIGHT
370
    -1
  9
$ENDCAPS
280
     0
  9
$JOINSTYLE
280
     0
  9
$LWDISPLAY
290
     1
  9
$INSUNITS
 70
     4
  9
$HYPERLINKBASE
  1

  9
$STYLESHEET
  1

  9
$XEDIT
290
     1
  9
$CEPSNTYPE
380
     0
  9
$PSTYLEMODE
290
     1
  9
$FINGERPRINTGUID
  2
{5D13B860-CD4B-4976-B3B4-905323AB9790}
  9
$VERSIONGUID
  2
{FAEB1C32-E019-11D5-929B-00C0DF256EC4}
  9
$EXTNAMES
290
     1
  9
$PSVPSCALE
 40
0.0
  9
$OLESTARTUP
290
     0
  0
ENDSEC
  0
SECTION
  2
CLASSES
  0
CLASS
  1
ACDBDICTIONARYWDFLT
  2
AcDbDictionaryWithDefault
  3
ObjectDBX Classes
 90
        0
280
     0
281
     0
  0
CLASS
  1
VISUALSTYLE
  2
AcDbVisualStyle
  3
ObjectDBX Classes
 90
     4095
280
     0
281
     0
  0
CLASS
  1
MATERIAL
  2
AcDbMaterial
  3
ObjectDBX Classes
 90
     1153
280
     0
281
     0
  0
CLASS
  1
ACDBPLACEHOLDER
  2
AcDbPlaceHolder
  3
ObjectDBX Classes
 90
        0
280
     0
281
     0
  0
CLASS
  1
LAYOUT
  2
AcDbLayout
  3
ObjectDBX Classes
 90
        0
280
     0
281
     0
  0
ENDSEC
  0
SECTION
  2
TABLES
  0
TABLE
  2
VPORT
  5
8
330
0
100
AcDbSymbolTable
 70
     1
  0
VPORT
  5
29
330
8
100
AcDbSymbolTableRecord
100
AcDbViewportTableRecord
  2
*Active
 70
     0
 10
0.0
 20
0.0
 11
1.0
 21
1.0
 12
420.5
 22
297.0
 13
0.0
 23
0.0
 14
10.0
 24
10.0
 15
10.0
 25
10.0
 16
0.0
 26
0.0
 36
1.0
 17
0.0
 27
0.0
 37
0.0
 40
594.0
 41
1.4158249158
 42
50.0
 43
0.0
 44
0.0
 50
0.0
 51
0.0
 71
     0
 72
  2000
 73
     1
 74
     3
 75
     0
 76
     0
 77
     0
 78
     0
281
     0
 65
     1
110
0.0
120
0.0
130
0.0
111
1.0
121
0.0
131
0.0
112
0.0
122
1.0
132
0.0
 79
     0
146
0.0
  0
ENDTAB
  0
TABLE
  2
LTYPE
  5
5
330
0
100
AcDbSymbolTable
 70
     6
  0
LTYPE
  5
14
330
5
100
AcDbSymbolTableRecord
100
AcDbLinetypeTableRecord
  2
ByBlock
 70
     0
  3

 72
    65
 73
     0
 40
0.0
  0
LTYPE
  5
15
330
5
100
AcDbSymbolTableRecord
100
AcDbLinetypeTableRecord
  2
ByLayer
 70
     0
  3

 72
    65
 73
     0
 40
0.0
  0
LTYPE
  5
16
330
5
100
AcDbSymbolTableRecord
100
AcDbLinetypeTableRecord
  2
Continuous
 70
     0
  3
Solid line
 72
    65
 73
     0
 40
0.0
  0
LTYPE
  5
3F
330
5
100
AcDbSymbolTableRecord
100
AcDbLinetypeTableRecord
  2
HIDDEN
 70
     0
  3
Hidden __ __ __ __ __ __ __ __ __ __ __ __ __ __
 72
    65
 73
     2
 40
1.905
 49
1.27
 74
     0
 49
-0.635
 74
     0
  0
LTYPE
  5
40
330
5
100
AcDbSymbolTableRecord
100
AcDbLinetypeTableRecord
  2
PHANTOM
 70
     0
  3
Phantom ______  __  __  ______  __  __  ______
 72
    65
 73
     6
 40
12.7
 49
6.35
 74
     0
 49
-1.27
 74
     0
 49
1.27
 74
     0
 49
-1.27
 74
     0
 49
1.27
 74
     0
 49
-1.27
 74
     0
  0
LTYPE
  5
41
330
5
100
AcDbSymbolTableRecord
100
AcDbLinetypeTableRecord
  2
CENTER
 70
     0
  3
Center ____ _ ____ _ ____ _ ____ _ ____ _ ____
 72
    65
 73
     4
 40
10.16
 49
6.35
 74
     0
 49
-1.27
 74
     0
 49
1.27
 74
     0
 49
-1.27
 74
     0
  0
LTYPE
  5
42
330
5
100
AcDbSymbolTableRecord
100
AcDbLinetypeTableRecord
  2
CENTERX2
 70
     0
  3
Center (2x) ________  __  ________  __  _____
 72
    65
 73
     4
 40
20.32
 49
12.7
 74
     0
 49
-2.54
 74
     0
 49
2.54
 74
     0
 49
-2.54
 74
     0
  0
LTYPE
  5
43
330
5
100
AcDbSymbolTableRecord
100
AcDbLinetypeTableRecord
  2
DOT2
 70
     0
  3
Dot (.5x) ........................................
 72
    65
 73
     2
 40
0.635
 49
0.0
 74
     0
 49
-0.635
 74
     0
  0
ENDTAB
  0
TABLE
  2
LAYER
  5
2
330
0
100
AcDbSymbolTable
 70
     4
  0
LAYER
  5
10
330
2
100
AcDbSymbolTableRecord
100
AcDbLayerTableRecord
  2
0
 70
     0
 62
     7
  6
Continuous
370
    -3
390
F
  0
LAYER
  5
44
330
2
100
AcDbSymbolTableRecord
100
AcDbLayerTableRecord
  2
FORMAT
 70
     0
 62
     7
  6
Continuous
370
    -3
390
F
  0
LAYER
  5
45
330
2
100
AcDbSymbolTableRecord
100
AcDbLayerTableRecord
  2
SLD-0
 70
     0
 62
     1
  6
Continuous
370
    -3
390
F
  0
LAYER
  5
46
330
2
100
AcDbSymbolTableRecord
100
AcDbLayerTableRecord
  2
WATERMARK
 70
     0
 62
     1
  6
Continuous
370
    -3
390
F
  0
ENDTAB
  0
TABLE
  2
STYLE
  5
3
330
0
100
AcDbSymbolTable
 70
     1
  0
STYLE
  5
11
330
3
100
AcDbSymbolTableRecord
100
AcDbTextStyleTableRecord
  2
Standard
 70
     0
 40
0.0
 41
1.0
 50
0.0
 71
     0
 42
3.5
  3
txt
  4

  0
ENDTAB
  0
TABLE
  2
VIEW
  5
6
330
0
100
AcDbSymbolTable
 70
     0
  0
ENDTAB
  0
TABLE
  2
UCS
  5
7
330
0
100
AcDbSymbolTable
 70
     0
  0
ENDTAB
  0
TABLE
  2
APPID
  5
9
330
0
100
AcDbSymbolTable
 70
     1
  0
APPID
  5
12
330
9
100
AcDbSymbolTableRecord
100
AcDbRegAppTableRecord
  2
ACAD
 70
     0
  0
ENDTAB
  0
TABLE
  2
DIMSTYLE
  5
A
330
0
100
AcDbSymbolTable
 70
     1
100
AcDbDimStyleTable
  0
DIMSTYLE
105
27
330
A
100
AcDbSymbolTableRecord
100
AcDbDimStyleTableRecord
  2
ISO-25
 70
     0
 41
2.5
 42
0.625
 43
3.75
 44
1.25
 73
     0
 74
     0
 77
     1
 78
     8
140
2.5
141
2.5
143
0.0393700787
147
0.625
171
     3
172
     1
178
     0
271
     2
272
     2
274
     3
278
    44
283
     0
284
     8
340
11
  0
ENDTAB
  0
TABLE
  2
BLOCK_RECORD
  5
1
330
0
100
AcDbSymbolTable
 70
     1
  0
BLOCK_RECORD
  5
1F
330
1
100
AcDbSymbolTableRecord
100
AcDbBlockTableRecord
  2
*Model_Space
340
22
  0
BLOCK_RECORD
  5
1B
330
1
100
AcDbSymbolTableRecord
100
AcDbBlockTableRecord
  2
*Paper_Space
340
1E
  0
BLOCK_RECORD
  5
23
330
1
100
AcDbSymbolTableRecord
100
AcDbBlockTableRecord
  2
*Paper_Space0
340
26
  0
ENDTAB
  0
ENDSEC
  0
SECTION
  2
BLOCKS
  0
BLOCK
  5
20
330
1F
100
AcDbEntity
  8
0
100
AcDbBlockBegin
  2
*Model_Space
 70
     0
 10
0.0
 20
0.0
 30
0.0
  3
*Model_Space
  1

  0
ENDBLK
  5
21
330
1F
100
AcDbEntity
  8
0
100
AcDbBlockEnd
  0
BLOCK
  5
1C
330
1B
100
AcDbEntity
 67
     1
  8
0
100
AcDbBlockBegin
  2
*Paper_Space
 70
     0
 10
0.0
 20
0.0
 30
0.0
  3
*Paper_Space
  1

  0
ENDBLK
  5
1D
330
1B
100
AcDbEntity
 67
     1
  8
0
100
AcDbBlockEnd
  0
BLOCK
  5
24
330
23
100
AcDbEntity
  8
0
100
AcDbBlockBegin
  2
*Paper_Space0
 70
     0
 10
0.0
 20
0.0
 30
0.0
  3
*Paper_Space0
  1

  0
ENDBLK
  5
25
330
23
100
AcDbEntity
  8
0
100
AcDbBlockEnd
  0
ENDSEC
  0
SECTION
  2
ENTITIES
  0
LINE
  5
47
330
1F
100
AcDbEntity
  8
0
  6
Continuous
 62
     7
370
    15
100
AcDbLine
 10
195.5597115885
 20
-109.3157200733
 30
0.0
 11
595.559717549
 21
-109.3157200733
 31
0.0
  0
LINE
  5
48
330
1F
100
AcDbEntity
  8
0
  6
Continuous
 62
     7
370
    15
100
AcDbLine
 10
195.5597115885
 20
-109.3716441312
 30
0.0
 11
210.5597121845
 21
-109.3716441312
 31
0.0
  0
LINE
  5
49
330
1F
100
AcDbEntity
  8
0
  6
Continuous
 62
     7
370
    15
100
AcDbLine
 10
400.559714457
 20
-109.3716441312
 30
0.0
 11
467.9251177441
 21
-109.3716441312
 31
0.0
  0
LINE
  5
4A
330
1F
100
AcDbEntity
  8
0
  6
Continuous
 62
     7
370
    15
100
AcDbLine
 10
517.1156836878
 20
-109.3716441312
 30
0.0
 11
595.559717549
 21
-109.3716441312
 31
0.0
  0
ARC
  5
4B
330
1F
100
AcDbEntity
  8
0
  6
Continuous
 62
     7
370
    15
100
AcDbCircle
 10
481.8939950563
 20
-114.1741038595
 30
0.0
 40
1.000000000000046
100
AcDbArc
 50
186.9403720915
 51
211.1119418508
  0
ARC
  5
4C
330
1F
100
AcDbEntity
  8
0
  6
Continuous
 62
     7
370
    15
100
AcDbCircle
 10
503.1635645065
 20
-114.1908864015
 30
0.0
 40
1.000000000000083
100
AcDbArc
 50
328.4941098709
 51
352.971293404
  0
SPLINE
  5
4D
330
1F
100
AcDbEntity
  8
0
  6
Continuous
 62
     7
370
    15
100
AcDbSpline
210
0.0
220
0.0
230
1.0
 70
     8
 71
     3
 72
     9
 73
     5
 74
     0
 42
0.00000001
 43
0.00000001
 12
1.0
 22
0.0
 32
0.0
 13
1.0
 23
0.0
 33
0.0
 40
0.0
 40
0.0
 40
0.0
 40
0.0
 40
0.4964667204341023
 40
1.0
 40
1.0
 40
1.0
 40
1.0
 10
481.0378341208663
 20
-114.6908147850457
 30
0.0
 10
481.2146731321132
 20
-114.9903862886031
 30
0.0
 10
481.5708682283167
 20
-115.5937933070946
 30
0.0
 10
481.8057947909242
 20
-116.1995454238601
 30
0.0
 10
481.924088133451
 20
-116.504561773819
 30
0.0
  0
SPLINE
  5
4E
330
1F
100
AcDbEntity
  8
0
  6
Continuous
 62
     7
370
    15
100
AcDbSpline
210
0.0
220
0.0
230
1.0
 70
     8
 71
     3
 72
    10
 73
     6
 74
     0
 42
0.00000001
 43
0.00000001
 12
1.0
 22
0.0
 32
0.0
 13
1.0
 23
0.0
 33
0.0
 40
0.0
 40
0.0
 40
0.0
 40
0.0
 40
0.0303818254912498
 40
0.7513370624783091
 40
1.0
 40
1.0
 40
1.0
 40
1.0
 10
502.829590273973
 20
-117.1667917290154
 30
0.0
 10
502.8364671294434
 20
-117.1419094548822
 30
0.0
 10
503.006530524406
 20
-116.5265753051811
 30
0.0
 10
503.4330819940307
 20
-115.7071465311066
 30
0.0
 10
503.8971381116471
 20
-114.9162905662791
 30
0.0
 10
504.0161473880973
 20
-114.7134720006409
 30
0.0
  0
SPLINE
  5
4F
330
1F
100
AcDbEntity
  8
0
  6
Continuous
 62
     7
370
    15
100
AcDbSpline
210
0.0
220
0.0
230
1.0
 70
     8
 71
     3
 72
    11
 73
     7
 74
     0
 42
0.00000001
 43
0.00000001
 12
1.0
 22
0.0
 32
0.0
 13
1.0
 23
0.0
 33
0.0
 40
0.0
 40
0.0
 40
0.0
 40
0.0
 40
0.191438207547192
 40
0.4788017339743359
 40
0.765719090177792
 40
1.0
 40
1.0
 40
1.0
 40
1.0
 10
467.9251177440848
 20
-109.3716441312256
 30
0.0
 10
468.2791036231326
 20
-109.6277495803969
 30
0.0
 10
469.1644496304009
 20
-110.2682890772643
 30
0.0
 10
470.879397861549
 20
-111.1867762926989
 30
0.0
 10
472.8647555515681
 20
-112.0830544786545
 30
0.0
 10
474.2943685028654
 20
-112.5853781602532
 30
0.0
 10
474.93698580372
 20
-112.8111748614731
 30
0.0
  0
SPLINE
  5
50
330
1F
100
AcDbEntity
  8
0
  6
Continuous
 62
     7
370
    15
100
AcDbSpline
210
0.0
220
0.0
230
1.0
 70
     8
 71
     3
 72
    12
 73
     8
 74
     0
 42
0.00000001
 43
0.00000001
 12
1.0
 22
0.0
 32
0.0
 13
1.0
 23
0.0
 33
0.0
 40
0.0
 40
0.0
 40
0.0
 40
0.0
 40
0.1479113048247203
 40
0.4303771315917268
 40
0.7136526795520223
 40
0.9978974053458723
 40
1.0
 40
1.0
 40
1.0
 40
1.0
 10
509.9786086212363
 20
-112.8390549340668
 30
0.0
 10
510.3928093708357
 20
-112.6968903954863
 30
0.0
 10
511.5980081940556
 20
-112.2832346144029
 30
0.0
 10
513.4492769467863
 20
-111.5165600873247
 30
0.0
 10
515.3999882478176
 20
-110.4973815278317
 30
0.0
 10
516.6223035975532
 20
-109.7771879262753
 30
0.0
 10
517.1120872979761
 20
-109.3746002569544
 30
0.0
 10
517.1156836878029
 20
-109.3716441312256
 30
0.0
  0
ARC
  5
51
330
1F
100
AcDbEntity
  8
0
  6
Continuous
 62
     7
370
    15
100
AcDbCircle
 10
481.835864631
 20
-127.3324399752
 30
0.0
 40
1.000000000000014
100
AcDbArc
 50
190.7194405262
 51
253.8350449055
  0
ARC
  5
52
330
1F
100
AcDbEntity
  8
0
  6
Continuous
 62
     7
370
    15
100
AcDbCircle
 10
503.1054340812
 20
-127.3492225172
 30
0.0
 40
0.9999999999999797
100
AcDbArc
 50
286.0425453548
 51
349.4084449787
  0
SPLINE
  5
53
330
1F
100
AcDbEntity
  8
0
  6
Continuous
 62
     7
370
    15
100
AcDbSpline
210
0.0
220
0.0
230
1.0
 70
     8
 71
     3
 72
    17
 73
    13
 74
     0
 42
0.00000001
 43
0.00000001
 12
1.0
 22
0.0
 32
0.0
 13
1.0
 23
0.0
 33
0.0
 40
0.0
 40
0.0
 40
0.0
 40
0.0
 40
0.0568475711327301
 40
0.1651349037980847
 40
0.2731960102071553
 40
0.381058681447707
 40
0.4888097130231818
 40
0.5965250030919086
 40
0.7042685602807387
 40
0.8120993325982705
 40
0.9200983446224366
 40
1.0
 40
1.0
 40
1.0
 40
1.0
 10
481.5574599634376
 20
-128.2929076471749
 30
0.0
 10
481.926814793633
 20
-128.3953265926758
 30
0.0
 10
482.9997432079228
 20
-128.692840494772
 30
0.0
 10
484.8983510556835
 20
-129.0935833413389
 30
0.0
 10
487.2643464940509
 20
-129.4473824117841
 30
0.0
 10
489.7131733927359
 20
-129.6668171276423
 30
0.0
 10
492.2036405114032
 20
-129.7512725725388
 30
0.0
 10
494.6979221371654
 20
-129.6990935913174
 30
0.0
 10
497.1581674397349
 20
-129.5118778071545
 30
0.0
 10
499.5427440805606
 20
-129.1896452845311
 30
0.0
 10
501.6289484584149
 20
-128.7843201431705
 30
0.0
 10
502.8588059982767
 20
-128.451716575064
 30
0.0
 10
503.3817826043334
 20
-128.3102824011269
 30
0.0
  0
SPLINE
  5
54
330
1F
100
AcDbEntity
  8
0
  6
Continuous
 62
     7
370
    15
100
AcDbSpline
210
0.0
220
0.0
230
1.0
 70
     8
 71
     3
 72
    10
 73
     6
 74
     0
 42
0.00000001
 43
0.00000001
 12
1.0
 22
0.0
 32
0.0
 13
1.0
 23
0.0
 33
0.0
 40
0.0
 40
0.0
 40
0.0
 40
0.0
 40
0.1102505575033768
 40
0.7179858254590289
 40
1.0
 40
1.0
 40
1.0
 40
1.0
 10
478.315675092813
 20
-115.9424229183617
 30
0.0
 10
478.4243138615797
 20
-116.3736984186607
 30
0.0
 10
479.1318032188778
 20
-119.1822982397814
 30
0.0
 10
480.0041917266291
 20
-123.0674692760264
 30
0.0
 10
480.6250369119941
 20
-126.4350805449092
 30
0.0
 10
480.8218194376197
 20
-127.5024755516472
 30
0.0
  0
SPLINE
  5
55
330
1F
100
AcDbEntity
  8
0
  6
Continuous
 62
     7
370
    15
100
AcDbSpline
210
0.0
220
0.0
230
1.0
 70
     8
 71
     3
 72
     9
 73
     5
 74
     0
 42
0.00000001
 43
0.00000001
 12
1.0
 22
0.0
 32
0.0
 13
1.0
 23
0.0
 33
0.0
 40
0.0
 40
0.0
 40
0.0
 40
0.0
 40
0.5240922314321286
 40
1.0
 40
1.0
 40
1.0
 40
1.0
 10
504.0893120895591
 20
-127.5326504030648
 30
0.0
 10
504.4763823665746
 20
-125.5340201673716
 30
0.0
 10
505.2149361054035
 20
-121.7205115598662
 30
0.0
 10
506.1583380119081
 20
-117.8165625121991
 30
0.0
 10
506.6073103080955
 20
-115.9586428323212
 30
0.0
  0
SPLINE
  5
56
330
1F
100
AcDbEntity
  8
0
  6
Continuous
 62
     7
370
    15
100
AcDbSpline
210
0.0
220
0.0
230
1.0
 70
     8
 71
     3
 72
    11
 73
     7
 74
     0
 42
0.00000001
 43
0.00000001
 12
1.0
 22
0.0
 32
0.0
 13
1.0
 23
0.0
 33
0.0
 40
0.0
 40
0.0
 40
0.0
 40
0.0
 40
0.2287861164445798
 40
0.4857940552226202
 40
0.7502609310380658
 40
1.0
 40
1.0
 40
1.0
 40
1.0
 10
476.5164045821395
 20
-113.6688707986298
 30
0.0
 10
476.7350540613091
 20
-113.8371974728726
 30
0.0
 10
477.1993244410368
 20
-114.1946146927343
 30
0.0
 10
477.7568196142336
 20
-114.8178785618658
 30
0.0
 10
478.1653157188711
 20
-115.4450961513233
 30
0.0
 10
478.2668224379535
 20
-115.7781030725533
 30
0.0
 10
478.3161221276488
 20
-115.9398375668946
 30
0.0
  0
SPLINE
  5
57
330
1F
100
AcDbEntity
  8
0
  6
Continuous
 62
     7
370
    15
100
AcDbSpline
210
0.0
220
0.0
230
1.0
 70
     8
 71
     3
 72
    12
 73
     8
 74
     0
 42
0.00000001
 43
0.00000001
 12
1.0
 22
0.0
 32
0.0
 13
1.0
 23
0.0
 33
0.0
 40
0.0
 40
0.0
 40
0.0
 40
0.0
 40
0.0485038104910872
 40
0.3401522484217786
 40
0.6276826376843357
 40
0.9038785568462899
 40
1.0
 40
1.0
 40
1.0
 40
1.0
 10
506.5975723992553
 20
-115.9588514485779
 30
0.0
 10
506.6030822330989
 20
-115.9313727748971
 30
0.0
 10
506.6417221327555
 20
-115.738667654587
 30
0.0
 10
506.8620831486796
 20
-115.2568803201937
 30
0.0
 10
507.380870929836
 20
-114.5673535598906
 30
0.0
 10
507.9363057737869
 20
-114.0168386559862
 30
0.0
 10
508.3050490949115
 20
-113.7670562733495
 30
0.0
 10
508.4002478252616
 20
-113.7025697746697
 30
0.0
  0
SPLINE
  5
58
330
1F
100
AcDbEntity
  8
0
  6
Continuous
 62
     7
370
    15
100
AcDbSpline
210
0.0
220
0.0
230
1.0
 70
     8
 71
     3
 72
    10
 73
     6
 74
     0
 42
0.00000001
 43
0.00000001
 12
1.0
 22
0.0
 32
0.0
 13
1.0
 23
0.0
 33
0.0
 40
0.0
 40
0.0
 40
0.0
 40
0.0
 40
0.1501494807908143
 40
0.6214398778023159
 40
1.0
 40
1.0
 40
1.0
 40
1.0
 10
474.9408079515662
 20
-112.8170906224671
 30
0.0
 10
475.0117201392056
 20
-112.8404807436593
 30
0.0
 10
475.3052120713069
 20
-112.9372879652289
 30
0.0
 10
475.8610720896468
 20
-113.2027136710151
 30
0.0
 10
476.3143060063832
 20
-113.5273024321432
 30
0.0
 10
476.5161959658828
 20
-113.6718882837716
 30
0.0
  0
SPLINE
  5
59
330
1F
100
AcDbEntity
  8
0
  6
Continuous
 62
     7
370
    15
100
AcDbSpline
210
0.0
220
0.0
230
1.0
 70
     8
 71
     3
 72
    10
 73
     6
 74
     0
 42
0.00000001
 43
0.00000001
 12
1.0
 22
0.0
 32
0.0
 13
1.0
 23
0.0
 33
0.0
 40
0.0
 40
0.0
 40
0.0
 40
0.0
 40
0.0834641918334711
 40
0.5523567276447946
 40
1.0
 40
1.0
 40
1.0
 40
1.0
 10
508.3953006397452
 20
-113.693524769825
 30
0.0
 10
508.4384511091619
 20
-113.6599861737047
 30
0.0
 10
508.7240161108671
 20
-113.438031479172
 30
0.0
 10
509.2931892288534
 20
-113.1032045458056
 30
0.0
 10
509.7539696392268
 20
-112.9260586605855
 30
0.0
 10
509.9790184031692
 20
-112.8395392218056
 30
0.0
  0
LINE
  5
5A
330
1F
100
AcDbEntity
  8
0
  6
Continuous
 62
     7
370
    15
100
AcDbLine
 10
320.5597115885
 20
-16.8568281581
 30
0.0
 11
260.5597092043
 21
-16.8568281581
 31
0.0
  0
LINE
  5
5B
330
1F
100
AcDbEntity
  8
0
  6
Continuous
 62
     7
370
    15
100
AcDbLine
 10
320.5597115885
 20
-15.3568281451
 30
0.0
 11
260.5597092043
 21
-15.3568281451
 31
0.0
  0
LINE
  5
5C
330
1F
100
AcDbEntity
  8
0
  6
Continuous
 62
     7
370
    15
100
AcDbLine
 10
295.5597130786
 20
773.1594548902
 30
0.0
 11
295.5597130786
 21
772.359441348
 31
0.0
  0
LINE
  5
5D
330
1F
100
AcDbEntity
  8
0
  6
Continuous
 62
     7
370
    15
100
AcDbLine
 10
295.5597130786
 20
772.359441348
 30
0.0
 11
293.5597164761
 21
772.359441348
 31
0.0
  0
LINE
  5
5E
330
1F
100
AcDbEntity
  8
0
  6
Continuous
 62
     7
370
    15
100
AcDbLine
 10
293.5597164761
 20
773.1594548902
 30
0.0
 11
295.5597130786
 21
773.1594548902
 31
0.0
  0
ARC
  5
5F
330
1F
100
AcDbEntity
  8
0
  6
Continuous
 62
     7
370
    15
100
AcDbCircle
 10
277.0597145687
 20
770.8594624838
 30
0.0
 40
1.500000000000114
100
AcDbArc
 50
90.0
 51
180.0
  0
ARC
  5
60
330
1F
100
AcDbEntity
  8
0
  6
Continuous
 62
     7
370
    15
100
AcDbCircle
 10
277.0597145687
 20
770.8594624838
 30
0.0
 40
2.299999999999955
100
AcDbArc
 50
90.0
 51
180.0
  0
LINE
  5
61
330
1F
100
AcDbEntity
  8
0
  6
Continuous
 62
     7
370
    15
100
AcDbLine
 10
514.0597162973
 20
772.359441348
 30
0.0
 11
497.5597126614
 21
772.359441348
 31
0.0
  0
LINE
  5
62
330
1F
100
AcDbEntity
  8
0
  6
Continuous
 62
     7
370
    15
100
AcDbLine
 10
514.0597162973
 20
773.1594548902
 30
0.0
 11
497.5597126614
 21
773.1594548902
 31
0.0
  0
LINE
  5
63
330
1F
100
AcDbEntity
  8
0
  6
Continuous
 62
     7
370
    15
100
AcDbLine
 10
275.5597172509
 20
732.8717218122
 30
0.0
 11
275.5597172509
 21
770.8594904623
 31
0.0
  0
LINE
  5
64
330
1F
100
AcDbEntity
  8
0
  6
Continuous
 62
     7
370
    15
100
AcDbLine
 10
274.7597111593
 20
732.8890667638
 30
0.0
 11
274.7597111593
 21
770.8594904623
 31
0.0
  0
LINE
  5
65
330
1F
100
AcDbEntity
  8
0
  6
Continuous
 62
     7
370
    15
100
AcDbLine
 10
515.5597118865
 20
770.8594904623
 30
0.0
 11
515.5597118865
 21
732.8717218122
 31
0.0
  0
LINE
  5
66
330
1F
100
AcDbEntity
  8
0
  6
Continuous
 62
     7
370
    15
100
AcDbLine
 10
516.3597179781
 20
770.8594904623
 30
0.0
 11
516.3597179781
 21
732.8890667638
 31
0.0
  0
LINE
  5
67
330
1F
100
AcDbEntity
  8
0
  6
Continuous
 62
     7
370
    15
100
AcDbLine
 10
497.5597126614
 20
772.359441348
 30
0.0
 11
495.5597160588
 21
772.359441348
 31
0.0
  0
LINE
  5
68
330
1F
100
AcDbEntity
  8
0
  6
Continuous
 62
     7
370
    15
100
AcDbLine
 10
495.5597160588
 20
772.359441348
 30
0.0
 11
495.5597160588
 21
773.1594548902
 31
0.0
  0
LINE
  5
69
330
1F
100
AcDbEntity
  8
0
  6
Continuous
 62
     7
370
    15
100
AcDbLine
 10
495.5597160588
 20
773.1594548902
 30
0.0
 11
497.5597126614
 21
773.1594548902
 31
0.0
  0
ARC
  5
6A
330
1F
100
AcDbEntity
  8
0
  6
Continuous
 62
     7
370
    15
100
AcDbCircle
 10
514.0597145687
 20
770.8594624838
 30
0.0
 40
1.500000000000114
100
AcDbArc
 50
0.0
 51
90.0
  0
ARC
  5
6B
330
1F
100
AcDbEntity
  8
0
  6
Continuous
 62
     7
370
    15
100
AcDbCircle
 10
514.0597145687
 20
770.8594624838
 30
0.0
 40
2.299999999999955
100
AcDbArc
 50
0.0
 51
90.0
  0
LINE
  5
6C
330
1F
100
AcDbEntity
  8
0
  6
Continuous
 62
     7
370
    15
100
AcDbLine
 10
293.5597164761
 20
772.359441348
 30
0.0
 11
277.0597128402
 21
772.359441348
 31
0.0
  0
LINE
  5
6D
330
1F
100
AcDbEntity
  8
0
  6
Continuous
 62
     7
370
    15
100
AcDbLine
 10
293.5597164761
 20
773.1594548902
 30
0.0
 11
277.0597128402
 21
773.1594548902
 31
0.0
  0
LINE
  5
6E
330
1F
100
AcDbEntity
  8
0
  6
Continuous
 62
     7
370
    15
100
AcDbLine
 10
400.559714457
 20
-115.7516433516
 30
0.0
 11
400.559714457
 21
-112.6951171675
 31
0.0
  0
LINE
  5
6F
330
1F
100
AcDbEntity
  8
0
  6
Continuous
 62
     7
370
    15
100
AcDbLine
 10
210.5597121845
 20
-115.7516433516
 30
0.0
 11
210.5597121845
 21
-112.6951171675
 31
0.0
  0
LINE
  5
70
330
1F
100
AcDbEntity
  8
0
  6
Continuous
 62
     7
370
    15
100
AcDbLine
 10
400.559714457
 20
-112.6951171675
 30
0.0
 11
400.559714457
 21
-109.3157200733
 31
0.0
  0
LINE
  5
71
330
1F
100
AcDbEntity
  8
0
  6
Continuous
 62
     7
370
    15
100
AcDbLine
 10
210.5597121845
 20
-112.6951171675
 30
0.0
 11
210.5597121845
 21
-109.3157200733
 31
0.0
  0
LINE
  5
72
330
1F
100
AcDbEntity
  8
0
  6
Continuous
 62
     7
370
    15
100
AcDbLine
 10
400.559714457
 20
-121.1189000526
 30
0.0
 11
400.559714457
 21
-115.7516433516
 31
0.0
  0
LWPOLYLINE
  5
73
330
1F
100
AcDbEntity
  8
0
  6
Continuous
 62
     7
370
    15
100
AcDbPolyline
 90
        9
 70
   128
 43
0.0
 10
395.5597145687
 20
-123.231989018
 10
396.5351661755
 20
-123.1913833538
 10
397.4731316994
 20
-123.0711384335
 10
398.3375657554
 20
-122.8758661666
 10
399.0952483583
 20
-122.6130767384
 10
399.717062639
 20
-122.2928656855
 10
400.1791122574
 20
-121.9275413671
 10
400.4636410828
 20
-121.531140677
 10
400.559714457
 20
-121.1189000526
  0
LINE
  5
74
330
1F
100
AcDbEntity
  8
0
  6
Continuous
 62
     7
370
    15
100
AcDbLine
 10
215.5597074162
 20
-123.231989018
 30
0.0
 11
395.5597145687
 21
-123.231989018
 31
0.0
  0
LWPOLYLINE
  5
75
330
1F
100
AcDbEntity
  8
0
  6
Continuous
 62
     7
370
    15
100
AcDbPolyline
 90
        9
 70
   128
 43
0.0
 10
210.5597121845
 20
-121.1189000526
 10
210.6557948719
 20
-121.531140677
 10
210.9403176438
 20
-121.9275413671
 10
211.4023728501
 20
-122.2928656855
 10
212.0241834055
 20
-122.6130767384
 10
212.7818627487
 20
-122.8758661666
 10
213.6462940108
 20
-123.0711384335
 10
214.5842625033
 20
-123.1913833538
 10
215.5597074162
 20
-123.231989018
  0
LINE
  5
76
330
1F
100
AcDbEntity
  8
0
  6
Continuous
 62
     7
370
    15
100
AcDbLine
 10
210.5597121845
 20
-121.1189000526
 30
0.0
 11
210.5597121845
 21
-115.7516433516
 31
0.0
  0
LINE
  5
77
330
1F
100
AcDbEntity
  8
0
  6
Continuous
 62
     7
370
    15
100
AcDbLine
 10
575.4597200285
 20
735.6655703268
 30
0.0
 11
575.4597200285
 21
770.7092867574
 31
0.0
  0
LINE
  5
78
330
1F
100
AcDbEntity
  8
0
  6
Continuous
 62
     7
370
    15
100
AcDbLine
 10
215.6597091089
 20
735.6655703268
 30
0.0
 11
215.6597091089
 21
770.7092867574
 31
0.0
  0
LINE
  5
79
330
1F
100
AcDbEntity
  8
0
  6
Continuous
 62
     7
370
    15
100
AcDbLine
 10
555.5597109925
 20
-37.5157209703
 30
0.0
 11
235.559718145
 21
-37.5157209703
 31
0.0
  0
LINE
  5
7A
330
1F
100
AcDbEntity
  8
0
  6
Continuous
 62
     7
370
    15
100
AcDbLine
 10
555.5597109925
 20
-41.76572027
 30
0.0
 11
555.5597109925
 21
-37.5157209703
 31
0.0
  0
LINE
  5
7B
330
1F
100
AcDbEntity
  8
0
  6
Continuous
 62
     7
370
    15
100
AcDbLine
 10
235.559718145
 20
-41.76572027
 30
0.0
 11
235.559718145
 21
-37.5157209703
 31
0.0
  0
LINE
  5
7C
330
1F
100
AcDbEntity
  8
0
  6
Continuous
 62
     7
370
    15
100
AcDbLine
 10
595.559717549
 20
-97.3157181063
 30
0.0
 11
595.559717549
 21
-109.3157200733
 31
0.0
  0
LINE
  5
7D
330
1F
100
AcDbEntity
  8
0
  6
Continuous
 62
     7
370
    15
100
AcDbLine
 10
195.5597115885
 20
-97.3157181063
 30
0.0
 11
195.5597115885
 21
-109.3157200733
 31
0.0
  0
LINE
  5
7E
330
1F
100
AcDbEntity
  8
0
  6
Continuous
 62
     7
370
    15
100
AcDbLine
 10
235.559718145
 20
-41.76572027
 30
0.0
 11
195.5597115885
 21
-41.76572027
 31
0.0
  0
LINE
  5
7F
330
1F
100
AcDbEntity
  8
0
  6
Continuous
 62
     7
370
    15
100
AcDbLine
 10
595.559717549
 20
-41.76572027
 30
0.0
 11
555.5597109925
 21
-41.76572027
 31
0.0
  0
LINE
  5
80
330
1F
100
AcDbEntity
  8
0
  6
Continuous
 62
     7
370
    15
100
AcDbLine
 10
195.5597115885
 20
-41.76572027
 30
0.0
 11
195.5597115885
 21
-97.3157181063
 31
0.0
  0
LINE
  5
81
330
1F
100
AcDbEntity
  8
0
  6
Continuous
 62
     7
370
    15
100
AcDbLine
 10
595.559717549
 20
-41.76572027
 30
0.0
 11
595.559717549
 21
-97.3157181063
 31
0.0
  0
LINE
  5
82
330
1F
100
AcDbEntity
  8
0
  6
Continuous
 62
     7
370
    15
100
AcDbLine
 10
555.5597109925
 20
11.384430655
 30
0.0
 11
553.309710158
 21
11.384430655
 31
0.0
  0
LINE
  5
83
330
1F
100
AcDbEntity
  8
0
  6
Continuous
 62
     7
370
    15
100
AcDbLine
 10
235.559718145
 20
11.384430655
 30
0.0
 11
237.8097189795
 21
11.384430655
 31
0.0
  0
LINE
  5
84
330
1F
100
AcDbEntity
  8
0
  6
Continuous
 62
     7
370
    15
100
AcDbLine
 10
237.8097189795
 20
11.384430655
 30
0.0
 11
237.8097189795
 21
12.3842799446
 31
0.0
  0
LINE
  5
85
330
1F
100
AcDbEntity
  8
0
  6
Continuous
 62
     7
370
    15
100
AcDbLine
 10
265.5597193371
 20
12.3842799446
 30
0.0
 11
237.8097189795
 21
12.3842799446
 31
0.0
  0
LINE
  5
86
330
1F
100
AcDbEntity
  8
0
  6
Continuous
 62
     7
370
    15
100
AcDbLine
 10
553.309710158
 20
12.3842799446
 30
0.0
 11
525.5597098004
 21
12.3842799446
 31
0.0
  0
LINE
  5
87
330
1F
100
AcDbEntity
  8
0
  6
Continuous
 62
     7
370
    15
100
AcDbLine
 10
553.309710158
 20
11.384430655
 30
0.0
 11
553.309710158
 21
12.3842799446
 31
0.0
  0
LINE
  5
88
330
1F
100
AcDbEntity
  8
0
  6
Continuous
 62
     7
370
    15
100
AcDbLine
 10
553.309710158
 20
12.4191840521
 30
0.0
 11
525.5597098004
 21
12.4191840521
 31
0.0
  0
LINE
  5
89
330
1F
100
AcDbEntity
  8
0
  6
Continuous
 62
     7
370
    15
100
AcDbLine
 10
553.309710158
 20
12.3842799446
 30
0.0
 11
553.309710158
 21
12.4191840521
 31
0.0
  0
LINE
  5
8A
330
1F
100
AcDbEntity
  8
0
  6
Continuous
 62
     7
370
    15
100
AcDbLine
 10
265.5597193371
 20
12.4191840521
 30
0.0
 11
237.8097189795
 21
12.4191840521
 31
0.0
  0
LINE
  5
8B
330
1F
100
AcDbEntity
  8
0
  6
Continuous
 62
     7
370
    15
100
AcDbLine
 10
237.8097189795
 20
12.3842799446
 30
0.0
 11
237.8097189795
 21
12.4191840521
 31
0.0
  0
LINE
  5
8C
330
1F
100
AcDbEntity
  8
0
  6
Continuous
 62
     7
370
    15
100
AcDbLine
 10
555.5597109925
 20
11.4193366251
 30
0.0
 11
553.309710158
 21
11.4193366251
 31
0.0
  0
LINE
  5
8D
330
1F
100
AcDbEntity
  8
0
  6
Continuous
 62
     7
370
    15
100
AcDbLine
 10
237.8097189795
 20
11.4193366251
 30
0.0
 11
235.559718145
 21
11.4193366251
 31
0.0
  0
ARC
  5
8E
330
1F
100
AcDbEntity
  8
0
  6
Continuous
 62
     7
370
    15
100
AcDbCircle
 10
264.5594168835
 20
-0.3116206113
 30
0.0
 40
3.999707691728138
100
AcDbArc
 50
89.9956963847
 51
179.9954583891
  0
LINE
  5
8F
330
1F
100
AcDbEntity
  8
0
  6
Continuous
 62
     7
370
    15
100
AcDbLine
 10
264.5597173105
 20
3.6880870691
 30
0.0
 11
269.3963809143
 21
3.6880870691
 31
0.0
  0
ARC
  5
90
330
1F
100
AcDbEntity
  8
0
  6
Continuous
 62
     7
370
    15
100
AcDbCircle
 10
316.5602649263
 20
-0.3114686564
 30
0.0
 40
3.999446665571055
100
AcDbArc
 50
0.0023650117
 51
74.9543082571
  0
LINE
  5
91
330
1F
100
AcDbEntity
  8
0
  6
Continuous
 62
     7
370
    15
100
AcDbLine
 10
260.5597092043
 20
-22.3079530181
 30
0.0
 11
260.5597092043
 21
-0.3113035703
 31
0.0
  0
LINE
  5
92
330
1F
100
AcDbEntity
  8
0
  6
Continuous
 62
     7
370
    15
100
AcDbLine
 10
320.5597115885
 20
-0.3113035703
 30
0.0
 11
320.5597115885
 21
-22.3079530181
 31
0.0
  0
ARC
  5
93
330
1F
100
AcDbEntity
  8
0
  6
Continuous
 62
     7
370
    15
100
AcDbCircle
 10
264.5594158055
 20
-22.3076375209
 30
0.0
 40
3.99970661361486
100
AcDbArc
 50
180.0045194964
 51
270.0043190587
  0
ARC
  5
94
330
1F
100
AcDbEntity
  8
0
  6
Continuous
 62
     7
370
    15
100
AcDbCircle
 10
316.5600272945
 20
-22.3076598309
 30
0.0
 40
3.999684304717799
100
AcDbArc
 50
269.9954680951
 51
359.9958000715
  0
ARC
  5
95
330
1F
100
AcDbEntity
  8
0
  6
Continuous
 62
     7
370
    15
100
AcDbCircle
 10
264.559415418
 20
-22.2378278308
 30
0.0
 40
3.999706226138245
100
AcDbArc
 50
180.0045206164
 51
270.0043246098
  0
ARC
  5
96
330
1F
100
AcDbEntity
  8
0
  6
Continuous
 62
     7
370
    15
100
AcDbCircle
 10
316.560027682
 20
-22.2378501408
 30
0.0
 40
3.999683917251982
100
AcDbArc
 50
269.9954625441
 51
359.9957989514
  0
LINE
  5
97
330
1F
100
AcDbEntity
  8
0
  6
Continuous
 62
     7
370
    15
100
AcDbLine
 10
316.5597109328
 20
-26.2375340456
 30
0.0
 11
264.5597173105
 21
-26.2375340456
 31
0.0
  0
LINE
  5
98
330
1F
100
AcDbEntity
  8
0
  6
Continuous
 62
     7
370
    15
100
AcDbLine
 10
555.5597109925
 20
674.6842966756
 30
0.0
 11
555.5597109925
 21
-37.5157209703
 31
0.0
  0
LINE
  5
99
330
1F
100
AcDbEntity
  8
0
  6
Continuous
 62
     7
370
    15
100
AcDbLine
 10
559.80971588
 20
678.9342866621
 30
0.0
 11
595.559717549
 21
678.9342866621
 31
0.0
  0
LINE
  5
9A
330
1F
100
AcDbEntity
  8
0
  6
Continuous
 62
     7
370
    15
100
AcDbLine
 10
595.559717549
 20
678.9342866621
 30
0.0
 11
595.559717549
 21
-41.76572027
 31
0.0
  0
LINE
  5
9B
330
1F
100
AcDbEntity
  8
0
  6
Continuous
 62
     7
370
    15
100
AcDbLine
 10
595.559717549
 20
-41.76572027
 30
0.0
 11
559.80971588
 21
-41.76572027
 31
0.0
  0
ARC
  5
9C
330
1F
100
AcDbEntity
  8
0
  6
Continuous
 62
     7
370
    15
100
AcDbCircle
 10
553.3855038753
 20
425.9175639714
 30
0.0
 40
210.6771133500909
100
AcDbArc
 50
89.4086918081
 51
90.0206128712
  0
ARC
  5
9D
330
1F
100
AcDbEntity
  8
0
  6
Continuous
 62
     7
370
    15
100
AcDbCircle
 10
553.8722073316
 20
604.3189195541
 30
0.0
 40
32.24578190534288
100
AcDbArc
 50
87.0001960237
 51
90.9995213905
  0
ARC
  5
9E
330
1F
100
AcDbEntity
  8
0
  6
Continuous
 62
     7
370
    15
100
AcDbCircle
 10
553.8720312552
 20
-19.6053109668
 30
0.0
 40
32.26502943536095
100
AcDbArc
 50
87.0016740736
 51
90.9986123494
  0
LINE
  5
9F
330
1F
100
AcDbEntity
  8
0
  6
Continuous
 62
     7
370
    15
100
AcDbLine
 10
525.5597098004
 20
636.5946636877
 30
0.0
 11
553.309710158
 21
636.5946636877
 31
0.0
  0
LINE
  5
A0
330
1F
100
AcDbEntity
  8
0
  6
Continuous
 62
     7
370
    15
100
AcDbLine
 10
525.5597098004
 20
636.5597949705
 30
0.0
 11
553.309710158
 21
636.5597949705
 31
0.0
  0
LINE
  5
A1
330
1F
100
AcDbEntity
  8
0
  6
Continuous
 62
     7
370
    15
100
AcDbLine
 10
525.5597098004
 20
12.6548179767
 30
0.0
 11
553.309710158
 21
12.6548179767
 31
0.0
  0
LINE
  5
A2
330
1F
100
AcDbEntity
  8
0
  6
Continuous
 62
     7
370
    15
100
AcDbLine
 10
195.5597115885
 20
-41.76572027
 30
0.0
 11
231.3097132574
 21
-41.76572027
 31
0.0
  0
LINE
  5
A3
330
1F
100
AcDbEntity
  8
0
  6
Continuous
 62
     7
370
    15
100
AcDbLine
 10
195.5597115885
 20
678.9342866621
 30
0.0
 11
195.5597115885
 21
-41.76572027
 31
0.0
  0
LINE
  5
A4
330
1F
100
AcDbEntity
  8
0
  6
Continuous
 62
     7
370
    15
100
AcDbLine
 10
231.3097132574
 20
678.9342866621
 30
0.0
 11
195.5597115885
 21
678.9342866621
 31
0.0
  0
LINE
  5
A5
330
1F
100
AcDbEntity
  8
0
  6
Continuous
 62
     7
370
    15
100
AcDbLine
 10
235.559718145
 20
674.6842966756
 30
0.0
 11
235.559718145
 21
-37.5157209703
 31
0.0
  0
ARC
  5
A6
330
1F
100
AcDbEntity
  8
0
  6
Continuous
 62
     7
370
    15
100
AcDbCircle
 10
237.2472218058
 20
604.3189195541
 30
0.0
 40
32.24578190534287
100
AcDbArc
 50
89.0004786095
 51
92.9998039763
  0
ARC
  5
A7
330
1F
100
AcDbEntity
  8
0
  6
Continuous
 62
     7
370
    15
100
AcDbCircle
 10
237.2473978822
 20
-19.6053109668
 30
0.0
 40
32.26502943536095
100
AcDbArc
 50
89.0013876506
 51
92.9983259264
  0
ARC
  5
A8
330
1F
100
AcDbEntity
  8
0
  6
Continuous
 62
     7
370
    15
100
AcDbCircle
 10
237.7339252622
 20
425.9175639714
 30
0.0
 40
210.6771133500909
100
AcDbArc
 50
89.9793871288
 51
90.5913081919
  0
LINE
  5
A9
330
1F
100
AcDbEntity
  8
0
  6
Continuous
 62
     7
370
    15
100
AcDbLine
 10
265.5597193371
 20
636.5597949705
 30
0.0
 11
237.8097189795
 21
636.5597949705
 31
0.0
  0
LINE
  5
AA
330
1F
100
AcDbEntity
  8
0
  6
Continuous
 62
     7
370
    15
100
AcDbLine
 10
265.5597193371
 20
636.5946636877
 30
0.0
 11
237.8097189795
 21
636.5946636877
 31
0.0
  0
LINE
  5
AB
330
1F
100
AcDbEntity
  8
0
  6
Continuous
 62
     7
370
    15
100
AcDbLine
 10
265.5597193371
 20
12.6548179767
 30
0.0
 11
237.8097189795
 21
12.6548179767
 31
0.0
  0
LINE
  5
AC
330
1F
100
AcDbEntity
  8
0
  6
Continuous
 62
     7
370
    15
100
AcDbLine
 10
595.559717549
 20
719.9373946867
 30
0.0
 11
595.559717549
 21
715.6874047002
 31
0.0
  0
LINE
  5
AD
330
1F
100
AcDbEntity
  8
0
  6
Continuous
 62
     7
370
    15
100
AcDbLine
 10
595.559717549
 20
715.6874047002
 30
0.0
 11
195.5597115885
 21
715.6874047002
 31
0.0
  0
LINE
  5
AE
330
1F
100
AcDbEntity
  8
0
  6
Continuous
 62
     7
370
    15
100
AcDbLine
 10
195.5597115885
 20
719.9373946867
 30
0.0
 11
195.5597115885
 21
715.6874047002
 31
0.0
  0
LINE
  5
AF
330
1F
100
AcDbEntity
  8
0
  6
Continuous
 62
     7
370
    15
100
AcDbLine
 10
195.5597115885
 20
786.4374027929
 30
0.0
 11
195.5597115885
 21
719.9373946867
 31
0.0
  0
LINE
  5
B0
330
1F
100
AcDbEntity
  8
0
  6
Continuous
 62
     7
370
    15
100
AcDbLine
 10
595.559717549
 20
786.4374027929
 30
0.0
 11
595.559717549
 21
719.9373946867
 31
0.0
  0
LINE
  5
B1
330
1F
100
AcDbEntity
  8
0
  6
Continuous
 62
     7
370
    15
100
AcDbLine
 10
595.559717549
 20
790.687452384
 30
0.0
 11
195.5597115885
 21
790.687452384
 31
0.0
  0
LINE
  5
B2
330
1F
100
AcDbEntity
  8
0
  6
Continuous
 62
     7
370
    15
100
AcDbLine
 10
195.5597115885
 20
790.687452384
 30
0.0
 11
195.5597115885
 21
786.4374027929
 31
0.0
  0
LINE
  5
B3
330
1F
100
AcDbEntity
  8
0
  6
Continuous
 62
     7
370
    15
100
AcDbLine
 10
595.559717549
 20
790.687452384
 30
0.0
 11
595.559717549
 21
786.4374027929
 31
0.0
  0
LINE
  5
B4
330
1F
100
AcDbEntity
  8
0
  6
Continuous
 62
     7
370
    15
100
AcDbLine
 10
195.5597115885
 20
715.6874047002
 30
0.0
 11
195.5597115885
 21
713.4374485693
 31
0.0
  0
LINE
  5
B5
330
1F
100
AcDbEntity
  8
0
  6
Continuous
 62
     7
370
    15
100
AcDbLine
 10
595.559717549
 20
715.6874047002
 30
0.0
 11
595.559717549
 21
713.4374485693
 31
0.0
  0
LINE
  5
B6
330
1F
100
AcDbEntity
  8
0
  6
Continuous
 62
     7
370
    15
100
AcDbLine
 10
555.5597109925
 20
674.6842966756
 30
0.0
 11
555.5597109925
 21
678.9342866621
 31
0.0
  0
LINE
  5
B7
330
1F
100
AcDbEntity
  8
0
  6
Continuous
 62
     7
370
    15
100
AcDbLine
 10
555.5597109925
 20
674.6842966756
 30
0.0
 11
235.559718145
 21
674.6842966756
 31
0.0
  0
LINE
  5
B8
330
1F
100
AcDbEntity
  8
0
  6
Continuous
 62
     7
370
    15
100
AcDbLine
 10
235.559718145
 20
674.6842966756
 30
0.0
 11
235.559718145
 21
678.9342866621
 31
0.0
  0
LINE
  5
B9
330
1F
100
AcDbEntity
  8
0
  6
Continuous
 62
     7
370
    15
100
AcDbLine
 10
595.559717549
 20
713.4374485693
 30
0.0
 11
595.559717549
 21
678.9342866621
 31
0.0
  0
LINE
  5
BA
330
1F
100
AcDbEntity
  8
0
  6
Continuous
 62
     7
370
    15
100
AcDbLine
 10
595.559717549
 20
678.9342866621
 30
0.0
 11
555.5597109925
 21
678.9342866621
 31
0.0
  0
LINE
  5
BB
330
1F
100
AcDbEntity
  8
0
  6
Continuous
 62
     7
370
    15
100
AcDbLine
 10
195.5597115885
 20
678.9342866621
 30
0.0
 11
235.559718145
 21
678.9342866621
 31
0.0
  0
LINE
  5
BC
330
1F
100
AcDbEntity
  8
0
  6
Continuous
 62
     7
370
    15
100
AcDbLine
 10
195.5597115885
 20
713.4374485693
 30
0.0
 11
195.5597115885
 21
678.9342866621
 31
0.0
  0
LINE
  5
BD
330
1F
100
AcDbEntity
  8
0
  6
Continuous
 62
     7
370
    15
100
AcDbLine
 10
553.3058507572
 20
636.9842992506
 30
0.0
 11
525.5597098004
 21
636.9842992506
 31
0.0
  0
LINE
  5
BE
330
1F
100
AcDbEntity
  8
0
  6
Continuous
 62
     7
370
    15
100
AcDbLine
 10
265.5597193371
 20
636.9842992506
 30
0.0
 11
237.8135783802
 21
636.9842992506
 31
0.0
  0
LINE
  5
BF
330
1F
100
AcDbEntity
  8
0
  6
Continuous
 62
     7
370
    15
100
AcDbLine
 10
237.8135783802
 20
637.984107562
 30
0.0
 11
237.8135783802
 21
636.9842992506
 31
0.0
  0
LINE
  5
C0
330
1F
100
AcDbEntity
  8
0
  6
Continuous
 62
     7
370
    15
100
AcDbLine
 10
237.8135783802
 20
637.984107562
 30
0.0
 11
235.559718145
 21
637.984107562
 31
0.0
  0
LINE
  5
C1
330
1F
100
AcDbEntity
  8
0
  6
Continuous
 62
     7
370
    15
100
AcDbLine
 10
553.3058507572
 20
637.984107562
 30
0.0
 11
555.5597109925
 21
637.984107562
 31
0.0
  0
LINE
  5
C2
330
1F
100
AcDbEntity
  8
0
  6
Continuous
 62
     7
370
    15
100
AcDbLine
 10
553.3058507572
 20
637.984107562
 30
0.0
 11
553.3058507572
 21
636.9842992506
 31
0.0
  0
ELLIPSE
  5
C3
330
1F
100
AcDbEntity
  8
0
  6
Continuous
 62
     7
370
    15
100
AcDbEllipse
 10
592.0520748919
 20
784.179783717
 30
0.0
 11
1.424997215780422
 21
1.424997215780422
 31
0.0
210
0.0
220
0.0
230
1.0
 40
0.9924325091
 41
5.501585242055458
 42
7.064785372303786
  0
ELLIPSE
  5
C4
330
1F
100
AcDbEntity
  8
0
  6
Continuous
 62
     7
370
    15
100
AcDbEllipse
 10
199.0673542421
 20
784.179783717
 30
0.0
 11
-1.424997215780507
 21
1.424997215780422
 31
0.0
210
0.0
220
0.0
230
1.0
 40
0.9924325091
 41
5.501585242055407
 42
7.064785372303733
  0
LINE
  5
C5
330
1F
100
AcDbEntity
  8
0
  6
Continuous
 62
     7
370
    15
100
AcDbLine
 10
594.0597219597
 20
722.1798406324
 30
0.0
 11
594.0597219597
 21
784.1950164518
 31
0.0
  0
LINE
  5
C6
330
1F
100
AcDbEntity
  8
0
  6
Continuous
 62
     7
370
    15
100
AcDbLine
 10
592.0673324
 20
786.1874209127
 30
0.0
 11
199.0520967375
 21
786.1874209127
 31
0.0
  0
LINE
  5
C7
330
1F
100
AcDbEntity
  8
0
  6
Continuous
 62
     7
370
    15
100
AcDbLine
 10
197.0597071778
 20
784.1950164518
 30
0.0
 11
197.0597071778
 21
722.1798406324
 31
0.0
  0
LINE
  5
C8
330
1F
100
AcDbEntity
  8
0
  6
Continuous
 62
     7
370
    15
100
AcDbLine
 10
580.0581140648
 20
764.5205364904
 30
0.0
 11
580.0581140648
 21
761.4569173536
 31
0.0
  0
LINE
  5
C9
330
1F
100
AcDbEntity
  8
0
  6
Continuous
 62
     7
370
    15
100
AcDbLine
 10
580.0581140648
 20
744.9179397306
 30
0.0
 11
580.0581140648
 21
741.8543205938
 31
0.0
  0
LINE
  5
CA
330
1F
100
AcDbEntity
  8
0
  6
Continuous
 62
     7
370
    15
100
AcDbLine
 10
211.0613150727
 20
764.5205364904
 30
0.0
 11
211.0613150727
 21
761.4569173536
 31
0.0
  0
LINE
  5
CB
330
1F
100
AcDbEntity
  8
0
  6
Continuous
 62
     7
370
    15
100
AcDbLine
 10
211.0613150727
 20
744.9179397306
 30
0.0
 11
211.0613150727
 21
741.8543205938
 31
0.0
  0
LINE
  5
CC
330
1F
100
AcDbEntity
  8
0
  6
Continuous
 62
     7
370
    15
100
AcDbLine
 10
475.0581247936
 20
737.0790944776
 30
0.0
 11
475.0581247936
 21
769.2957626066
 31
0.0
  0
LINE
  5
CD
330
1F
100
AcDbEntity
  8
0
  6
Continuous
 62
     7
370
    15
100
AcDbLine
 10
486.061306132
 20
768.9740763387
 30
0.0
 11
486.061306132
 21
737.4007807455
 31
0.0
  0
LINE
  5
CE
330
1F
100
AcDbEntity
  8
0
  6
Continuous
 62
     7
370
    15
100
AcDbLine
 10
401.0613075662
 20
769.7860704145
 30
0.0
 11
401.0613075662
 21
736.5887866697
 31
0.0
  0
LINE
  5
CF
330
1F
100
AcDbEntity
  8
0
  6
Continuous
 62
     7
370
    15
100
AcDbLine
 10
390.0581215713
 20
736.5887866697
 30
0.0
 11
390.0581215713
 21
769.7860704145
 31
0.0
  0
LINE
  5
D0
330
1F
100
AcDbEntity
  8
0
  6
Continuous
 62
     7
370
    15
100
AcDbLine
 10
305.0581230055
 20
737.4007807455
 30
0.0
 11
305.0581230055
 21
768.9740763387
 31
0.0
  0
LINE
  5
D1
330
1F
100
AcDbEntity
  8
0
  6
Continuous
 62
     7
370
    15
100
AcDbLine
 10
316.0613043438
 20
769.2957626066
 30
0.0
 11
316.0613043438
 21
737.0790944776
 31
0.0
  0
ELLIPSE
  5
D2
330
1F
100
AcDbEntity
  8
0
  6
Continuous
 62
     7
370
    15
100
AcDbEllipse
 10
592.0520748919
 20
722.1950630672
 30
0.0
 11
1.424997215780422
 21
-1.424997215780422
 31
0.0
210
0.0
220
0.0
230
1.0
 40
0.9924325091
 41
5.501585242055421
 42
7.064785372303708
  0
ELLIPSE
  5
D3
330
1F
100
AcDbEntity
  8
0
  6
Continuous
 62
     7
370
    15
100
AcDbEllipse
 10
199.0673542421
 20
722.1950630672
 30
0.0
 11
-1.424997215780507
 21
-1.424997215780422
 31
0.0
210
0.0
220
0.0
230
1.0
 40
0.9924325091
 41
5.501585242055468
 42
7.064785372303779
  0
LINE
  5
D4
330
1F
100
AcDbEntity
  8
0
  6
Continuous
 62
     7
370
    15
100
AcDbLine
 10
199.0520967375
 20
720.1874361715
 30
0.0
 11
592.0673324
 21
720.1874361715
 31
0.0
  0
SPLINE
  5
D5
330
1F
100
AcDbEntity
  8
0
  6
Continuous
 62
     7
370
    15
100
AcDbSpline
210
0.0
220
0.0
230
1.0
 70
     8
 71
     3
 72
    19
 73
    15
 74
     0
 42
0.00000001
 43
0.00000001
 12
1.0
 22
0.0
 32
0.0
 13
1.0
 23
0.0
 33
0.0
 40
0.0
 40
0.0
 40
0.0
 40
0.0
 40
0.324381703630739
 40
0.5392418483367127
 40
0.6822246354978984
 40
0.7780880860523872
 40
0.843079861269534
 40
0.8878385050095787
 40
0.9311115870467996
 40
0.9564447339999118
 40
0.972583090265551
 40
0.9849207175231237
 40
0.9973134609978377
 40
0.9999999999999999
 40
0.9999999999999999
 40
0.9999999999999999
 40
0.9999999999999999
 10
211.6737229953971
 20
744.5346818646965
 30
0.0
 10
211.6064107232403
 20
744.6747651623913
 30
0.0
 10
211.4945129384784
 20
744.907635190277
 30
0.0
 10
211.3522024991931
 20
745.1533586144652
 30
0.0
 10
211.2571447661267
 20
745.2792490760061
 30
0.0
 10
211.1932009132402
 20
745.3294668688675
 30
0.0
 10
211.1497839765328
 20
745.3343009373045
 30
0.0
 10
211.1175706581937
 20
745.3098479760494
 30
0.0
 10
211.0939092427978
 20
745.2625904417478
 30
0.0
 10
211.0770970170952
 20
745.187880089518
 30
0.0
 10
211.0678368567627
 20
745.1095921065778
 30
0.0
 10
211.0628161472943
 20
745.0270614375316
 30
0.0
 10
211.0613602717731
 20
744.9609093053964
 30
0.0
 10
211.0613219076417
 20
744.9244375690911
 30
0.0
 10
211.0613150726524
 20
744.9179397306023
 30
0.0
  0
SPLINE
  5
D6
330
1F
100
AcDbEntity
  8
0
  6
Continuous
 62
     7
370
    15
100
AcDbSpline
210
0.0
220
0.0
230
1.0
 70
     8
 71
     3
 72
    14
 73
    10
 74
     0
 42
0.00000001
 43
0.00000001
 12
1.0
 22
0.0
 32
0.0
 13
1.0
 23
0.0
 33
0.0
 40
0.0
 40
0.0
 40
0.0
 40
0.0
 40
0.0119882848701952
 40
0.0239923006686476
 40
0.0398827737171141
 40
0.0687367164456765
 40
0.1675517062303719
 40
0.6411399363881124
 40
1.0
 40
1.0
 40
1.0
 40
1.0
 10
211.0613150726524
 20
761.4569173535881
 30
0.0
 10
211.0615346754059
 20
761.4277367405016
 30
0.0
 10
211.061974169074
 20
761.3693372237689
 30
0.0
 10
211.0663545617891
 20
761.2836516257291
 30
0.0
 10
211.0756077741155
 20
761.1937044581565
 30
0.0
 10
211.1042041950874
 20
761.0651017914114
 30
0.0
 10
211.2321947866789
 20
760.9887219561631
 30
0.0
 10
211.4266166927243
 20
761.3398739725379
 30
0.0
 10
211.5992866977362
 20
761.6894685311748
 30
0.0
 10
211.6737229953971
 20
761.8401752194939
 30
0.0
  0
LINE
  5
D7
330
1F
100
AcDbEntity
  8
0
  6
Continuous
 62
     7
370
    15
100
AcDbLine
 10
211.6737229954
 20
761.8401752195
 30
0.0
 11
212.7689881455
 21
760.1175413808
 31
0.0
  0
LINE
  5
D8
330
1F
100
AcDbEntity
  8
0
  6
Continuous
 62
     7
370
    15
100
AcDbLine
 10
212.7689881455
 20
746.2573157034
 30
0.0
 11
211.6737229954
 21
744.5346818647
 31
0.0
  0
LINE
  5
D9
330
1F
100
AcDbEntity
  8
0
  6
Continuous
 62
     7
370
    15
100
AcDbLine
 10
579.4457061421
 20
744.5346818647
 30
0.0
 11
578.350440992
 21
746.2573157034
 31
0.0
  0
LINE
  5
DA
330
1F
100
AcDbEntity
  8
0
  6
Continuous
 62
     7
370
    15
100
AcDbLine
 10
578.350440992
 20
760.1175413808
 30
0.0
 11
579.4457061421
 21
761.8401752195
 31
0.0
  0
SPLINE
  5
DB
330
1F
100
AcDbEntity
  8
0
  6
Continuous
 62
     7
370
    15
100
AcDbSpline
210
0.0
220
0.0
230
1.0
 70
     8
 71
     3
 72
    19
 73
    15
 74
     0
 42
0.00000001
 43
0.00000001
 12
1.0
 22
0.0
 32
0.0
 13
1.0
 23
0.0
 33
0.0
 40
0.0
 40
0.0
 40
0.0
 40
0.0
 40
0.3243813393923511
 40
0.5392412428383776
 40
0.6822238694485232
 40
0.7780877289370929
 40
0.8430794311769443
 40
0.8878386309523236
 40
0.9311116643995117
 40
0.9564447829068006
 40
0.9725831210511684
 40
0.9849207344551933
 40
0.997313464014471
 40
1.0
 40
1.0
 40
1.0
 40
1.0
 10
579.4457061420646
 20
761.8401752194939
 30
0.0
 10
579.5130184340909
 20
761.7000942312661
 30
0.0
 10
579.6249162518833
 20
761.4672280425651
 30
0.0
 10
579.7672265245532
 20
761.2214852523524
 30
0.0
 10
579.8622847167017
 20
761.0956354276976
 30
0.0
 10
579.9262279427688
 20
761.0453320587569
 30
0.0
 10
579.9696455083819
 20
761.0404662479062
 30
0.0
 10
580.001858219646
 20
761.0650286608507
 30
0.0
 10
580.0255199144453
 20
761.1122636984437
 30
0.0
 10
580.0423321178915
 20
761.1869773629944
 30
0.0
 10
580.0515922810947
 20
761.2652649187372
 30
0.0
 10
580.0566129900695
 20
761.3477956612304
 30
0.0
 10
580.058068865693
 20
761.4139477781723
 30
0.0
 10
580.0581072298206
 20
761.4504195150051
 30
0.0
 10
580.0581140648094
 20
761.4569173535881
 30
0.0
  0
SPLINE
  5
DC
330
1F
100
AcDbEntity
  8
0
  6
Continuous
 62
     7
370
    15
100
AcDbSpline
210
0.0
220
0.0
230
1.0
 70
     8
 71
     3
 72
    14
 73
    10
 74
     0
 42
0.00000001
 43
0.00000001
 12
1.0
 22
0.0
 32
0.0
 13
1.0
 23
0.0
 33
0.0
 40
0.0
 40
0.0
 40
0.0
 40
0.0
 40
0.0127171204936517
 40
0.0254499439752128
 40
0.0421364405955347
 40
0.0736059621456989
 40
0.1869944667262164
 40
0.6362550544673847
 40
1.0
 40
1.0
 40
1.0
 40
1.0
 10
580.0581140648094
 20
744.9179397306023
 30
0.0
 10
580.0578614624976
 20
744.9489310767912
 30
0.0
 10
580.057355945963
 20
745.0109520370089
 30
0.0
 10
580.0524536289404
 20
745.0998657143595
 30
0.0
 10
580.0422407756187
 20
745.1919684407642
 30
0.0
 10
580.0096656143911
 20
745.3242892707005
 30
0.0
 10
579.8830791154467
 20
745.3620053791212
 30
0.0
 10
579.6898579659146
 20
745.0330694543626
 30
0.0
 10
579.5211758303865
 20
744.6887382852565
 30
0.0
 10
579.4457061420646
 20
744.5346818646965
 30
0.0
  0
ARC
  5
DD
330
1F
100
AcDbEntity
  8
0
  6
Continuous
 62
     7
370
    15
100
AcDbCircle
 10
205.559714567
 20
753.1874233921
 30
0.0
 40
10.00000000000007
100
AcDbArc
 50
316.1311450389
 51
43.8688549611
  0
ARC
  5
DE
330
1F
100
AcDbEntity
  8
0
  6
Continuous
 62
     7
370
    15
100
AcDbCircle
 10
585.559714567
 20
753.1874233921
 30
0.0
 40
10.00000000000001
100
AcDbArc
 50
136.1311450389
 51
223.8688549611
  0
ARC
  5
DF
330
1F
100
AcDbEntity
  8
0
  6
Continuous
 62
     7
370
    15
100
AcDbCircle
 10
395.559714567
 20
-4778.3542432746
 30
0.0
 40
5553.15408731135
100
AcDbArc
 50
90.1083239506
 51
90.7694911169
  0
ARC
  5
E0
330
1F
100
AcDbEntity
  8
0
  6
Continuous
 62
     7
370
    15
100
AcDbCircle
 10
395.559714567
 20
6284.7290900588
 30
0.0
 40
5553.154087311351
100
AcDbArc
 50
270.1083239506
 51
270.7694911169
  0
ARC
  5
E1
330
1F
100
AcDbEntity
  8
0
  6
Continuous
 62
     7
370
    15
100
AcDbCircle
 10
395.559714567
 20
6284.7290900588
 30
0.0
 40
5553.154087311351
100
AcDbArc
 50
269.2305088831
 51
269.8916760494
  0
ARC
  5
E2
330
1F
100
AcDbEntity
  8
0
  6
Continuous
 62
     7
370
    15
100
AcDbCircle
 10
395.559714567
 20
-4778.3542432746
 30
0.0
 40
5553.15408731135
100
AcDbArc
 50
89.2305088831
 51
89.8916760494
  0
SPLINE
  5
E3
330
1F
100
AcDbEntity
  8
0
  6
Continuous
 62
     7
370
    15
100
AcDbSpline
210
0.0
220
0.0
230
1.0
 70
     8
 71
     3
 72
    12
 73
     8
 74
     0
 42
0.00000001
 43
0.00000001
 12
1.0
 22
0.0
 32
0.0
 13
1.0
 23
0.0
 33
0.0
 40
0.0
 40
0.0
 40
0.0
 40
0.0
 40
0.2154605372783401
 40
0.4309421758325631
 40
0.6457503176077694
 40
0.859752043313675
 40
1.0
 40
1.0
 40
1.0
 40
1.0
 10
390.0581215712693
 20
769.7860704145012
 30
0.0
 10
390.0028077515373
 20
770.3504816727753
 30
0.0
 10
389.8921746948764
 20
771.4793594653278
 30
0.0
 10
389.0277434834347
 20
772.9827342530655
 30
0.0
 10
387.7564518642199
 20
774.1131582590228
 30
0.0
 10
386.3522839748981
 20
774.7077282874477
 30
0.0
 10
385.4271400227349
 20
774.7666233202086
 30
0.0
 10
385.0608742068973
 20
774.78993994804
 30
0.0
  0
SPLINE
  5
E4
330
1F
100
AcDbEntity
  8
0
  6
Continuous
 62
     7
370
    15
100
AcDbSpline
210
0.0
220
0.0
230
1.0
 70
     8
 71
     3
 72
    12
 73
     8
 74
     0
 42
0.00000001
 43
0.00000001
 12
1.0
 22
0.0
 32
0.0
 13
1.0
 23
0.0
 33
0.0
 40
0.0
 40
0.0
 40
0.0
 40
0.0
 40
0.2154605372783401
 40
0.4309421758325631
 40
0.6457503176077694
 40
0.859752043313675
 40
1.0
 40
1.0
 40
1.0
 40
1.0
 10
401.0613075661925
 20
736.5887866696892
 30
0.0
 10
401.1166213859244
 20
736.0243754114156
 30
0.0
 10
401.2272544425854
 20
734.895497618863
 30
0.0
 10
402.0916856540271
 20
733.3921228311244
 30
0.0
 10
403.3629772732418
 20
732.2616988251673
 30
0.0
 10
404.7671451625636
 20
731.6671287967431
 30
0.0
 10
405.6922891147268
 20
731.6082337639817
 30
0.0
 10
406.0585549305644
 20
731.5849171361504
 30
0.0
  0
SPLINE
  5
E5
330
1F
100
AcDbEntity
  8
0
  6
Continuous
 62
     7
370
    15
100
AcDbSpline
210
0.0
220
0.0
230
1.0
 70
     8
 71
     3
 72
    12
 73
     8
 74
     0
 42
0.00000001
 43
0.00000001
 12
1.0
 22
0.0
 32
0.0
 13
1.0
 23
0.0
 33
0.0
 40
0.0
 40
0.0
 40
0.0
 40
0.0
 40
0.2137384738820716
 40
0.4274781353467643
 40
0.6411734277989484
 40
0.8553623612366618
 40
1.0
 40
1.0
 40
1.0
 40
1.0
 10
385.0608742068973
 20
731.5849171361504
 30
0.0
 10
385.620888718086
 20
731.6388716792372
 30
0.0
 10
386.7409208520394
 20
731.7467810651956
 30
0.0
 10
388.2349888846137
 20
732.6025241560156
 30
0.0
 10
389.364391805334
 20
733.864773306225
 30
0.0
 10
389.9702439604126
 20
735.2739465473663
 30
0.0
 10
390.0328756652889
 20
736.2110530264579
 30
0.0
 10
390.0581215712693
 20
736.5887866696892
 30
0.0
  0
SPLINE
  5
E6
330
1F
100
AcDbEntity
  8
0
  6
Continuous
 62
     7
370
    15
100
AcDbSpline
210
0.0
220
0.0
230
1.0
 70
     8
 71
     3
 72
    12
 73
     8
 74
     0
 42
0.00000001
 43
0.00000001
 12
1.0
 22
0.0
 32
0.0
 13
1.0
 23
0.0
 33
0.0
 40
0.0
 40
0.0
 40
0.0
 40
0.0
 40
0.2137389011502069
 40
0.427482669931362
 40
0.6411727104963609
 40
0.8553620721026886
 40
1.0
 40
1.0
 40
1.0
 40
1.0
 10
406.0585549305645
 20
774.78993994804
 30
0.0
 10
405.4985368780315
 20
774.7359909402469
 30
0.0
 10
404.3784880192686
 20
774.6280916960402
 30
0.0
 10
402.8844793621292
 20
773.7722622748851
 30
0.0
 10
401.755016530938
 20
772.5100852235096
 30
0.0
 10
401.1491875151766
 20
771.1009080987725
 30
0.0
 10
401.0865541438814
 20
770.1638033573171
 30
0.0
 10
401.0613075661925
 20
769.7860704145012
 30
0.0
  0
SPLINE
  5
E7
330
1F
100
AcDbEntity
  8
0
  6
Continuous
 62
     7
370
    15
100
AcDbSpline
210
0.0
220
0.0
230
1.0
 70
     8
 71
     3
 72
    12
 73
     8
 74
     0
 42
0.00000001
 43
0.00000001
 12
1.0
 22
0.0
 32
0.0
 13
1.0
 23
0.0
 33
0.0
 40
0.0
 40
0.0
 40
0.0
 40
0.0
 40
0.217559021065091
 40
0.4351444866201717
 40
0.6520488817690051
 40
0.8681530783409201
 40
1.0
 40
1.0
 40
1.0
 40
1.0
 10
475.0581247936454
 20
769.2957626065788
 30
0.0
 10
475.0028075384805
 20
769.8601364756717
 30
0.0
 10
474.8921663042896
 20
770.9889528139968
 30
0.0
 10
474.0278274632172
 20
772.4921924609232
 30
0.0
 10
472.7565199794645
 20
773.6228340299936
 30
0.0
 10
471.3763893539738
 20
774.2064347483024
 30
0.0
 10
470.4777162147485
 20
774.2735895488466
 30
0.0
 10
470.1371876727309
 20
774.2990360936699
 30
0.0
  0
SPLINE
  5
E8
330
1F
100
AcDbEntity
  8
0
  6
Continuous
 62
     7
370
    15
100
AcDbSpline
210
0.0
220
0.0
230
1.0
 70
     8
 71
     3
 72
    12
 73
     8
 74
     0
 42
0.00000001
 43
0.00000001
 12
1.0
 22
0.0
 32
0.0
 13
1.0
 23
0.0
 33
0.0
 40
0.0
 40
0.0
 40
0.0
 40
0.0
 40
0.2175585426145059
 40
0.4351435296608454
 40
0.6520525557575952
 40
0.8681533682955104
 40
1.0
 40
1.0
 40
1.0
 40
1.0
 10
316.0613043438163
 20
737.0790944776115
 30
0.0
 10
316.1166204252582
 20
736.5147190545316
 30
0.0
 10
316.2272593118602
 20
735.3858996080436
 30
0.0
 10
317.091622514245
 20
733.8826714744042
 30
0.0
 10
318.3628725405612
 20
732.7519422977156
 30
0.0
 10
319.7430526295416
 20
732.1684327635951
 30
0.0
 10
320.6417143883115
 20
732.1012705551321
 30
0.0
 10
320.9822414647307
 20
732.0758209905205
 30
0.0
  0
SPLINE
  5
E9
330
1F
100
AcDbEntity
  8
0
  6
Continuous
 62
     7
370
    15
100
AcDbSpline
210
0.0
220
0.0
230
1.0
 70
     8
 71
     3
 72
    12
 73
     8
 74
     0
 42
0.00000001
 43
0.00000001
 12
1.0
 22
0.0
 32
0.0
 13
1.0
 23
0.0
 33
0.0
 40
0.0
 40
0.0
 40
0.0
 40
0.0
 40
0.2158347940584313
 40
0.4316758651258299
 40
0.6474783522730736
 40
0.8638045147735052
 40
1.0
 40
1.0
 40
1.0
 40
1.0
 10
320.9822414647307
 20
774.2990360936699
 30
0.0
 10
320.423108900295
 20
774.2365231655166
 30
0.0
 10
319.3048275104674
 20
774.1114954911801
 30
0.0
 10
317.8241655070601
 20
773.2328227426535
 30
0.0
 10
316.7137587221081
 20
771.9534045949272
 30
0.0
 10
316.1403491187464
 20
770.5593003778129
 30
0.0
 10
316.083332508475
 20
769.6478847816603
 30
0.0
 10
316.0613043438163
 20
769.2957626065788
 30
0.0
  0
SPLINE
  5
EA
330
1F
100
AcDbEntity
  8
0
  6
Continuous
 62
     7
370
    15
100
AcDbSpline
210
0.0
220
0.0
230
1.0
 70
     8
 71
     3
 72
    12
 73
     8
 74
     0
 42
0.00000001
 43
0.00000001
 12
1.0
 22
0.0
 32
0.0
 13
1.0
 23
0.0
 33
0.0
 40
0.0
 40
0.0
 40
0.0
 40
0.0
 40
0.2158342556914073
 40
0.4316709694353703
 40
0.6474787307682633
 40
0.8637972038461601
 40
1.0
 40
1.0
 40
1.0
 40
1.0
 10
470.1371876727309
 20
732.0758209905205
 30
0.0
 10
470.6963165168791
 20
732.1383393790686
 30
0.0
 10
471.8145805728767
 20
732.2633768681626
 30
0.0
 10
473.2953046776435
 20
733.1419643042012
 30
0.0
 10
474.4056311352846
 20
734.4214413246874
 30
0.0
 10
474.979096917758
 20
735.815530301637
 30
0.0
 10
475.0361004686074
 20
736.7269510370143
 30
0.0
 10
475.0581247936454
 20
737.0790944776115
 30
0.0
  0
ARC
  5
EB
330
1F
100
AcDbEntity
  8
0
  6
Continuous
 62
     7
370
    15
100
AcDbCircle
 10
220.8129060828
 20
744.9428415054
 30
0.0
 40
10.61242064468146
100
AcDbArc
 50
213.2125857976
 51
268.1932631805
  0
LINE
  5
EC
330
1F
100
AcDbEntity
  8
0
  6
Continuous
 62
     7
370
    15
100
AcDbLine
 10
211.9340909849
 20
739.1299114904
 30
0.0
 11
211.7267264258
 21
739.4644723615
 31
0.0
  0
ARC
  5
ED
330
1F
100
AcDbEntity
  8
0
  6
Continuous
 62
     7
370
    15
100
AcDbCircle
 10
570.3065230511
 20
761.4320052788
 30
0.0
 40
10.61242064468131
100
AcDbArc
 50
33.2125857976
 51
88.1932631805
  0
LINE
  5
EE
330
1F
100
AcDbEntity
  8
0
  6
Continuous
 62
     7
370
    15
100
AcDbLine
 10
579.1853381525
 20
767.2449455938
 30
0.0
 11
579.3927027117
 21
766.9103847227
 31
0.0
  0
ARC
  5
EF
330
1F
100
AcDbEntity
  8
0
  6
Continuous
 62
     7
370
    15
100
AcDbCircle
 10
570.3065230511
 20
744.9428415054
 30
0.0
 40
10.61242064468174
100
AcDbArc
 50
271.8067368195
 51
326.7874142024
  0
LINE
  5
F0
330
1F
100
AcDbEntity
  8
0
  6
Continuous
 62
     7
370
    15
100
AcDbLine
 10
579.3927027117
 20
739.4644723615
 30
0.0
 11
579.1853381525
 21
739.1299114904
 31
0.0
  0
ARC
  5
F1
330
1F
100
AcDbEntity
  8
0
  6
Continuous
 62
     7
370
    15
100
AcDbCircle
 10
220.8129060828
 20
761.4320052788
 30
0.0
 40
10.61242064468143
100
AcDbArc
 50
91.8067368195
 51
146.7874142024
  0
LINE
  5
F2
330
1F
100
AcDbEntity
  8
0
  6
Continuous
 62
     7
370
    15
100
AcDbLine
 10
211.7267264258
 20
766.9103847227
 30
0.0
 11
211.9340909849
 21
767.2449455938
 31
0.0
  0
SPLINE
  5
F3
330
1F
100
AcDbEntity
  8
0
  6
Continuous
 62
     7
370
    15
100
AcDbSpline
210
0.0
220
0.0
230
1.0
 70
     8
 71
     3
 72
    12
 73
     8
 74
     0
 42
0.00000001
 43
0.00000001
 12
1.0
 22
0.0
 32
0.0
 13
1.0
 23
0.0
 33
0.0
 40
0.0
 40
0.0
 40
0.0
 40
0.0
 40
0.211684395969836
 40
0.4233741484441997
 40
0.6349985524871167
 40
0.8470937921199964
 40
1.0
 40
1.0
 40
1.0
 40
1.0
 10
299.9845607410636
 20
732.3975072583733
 30
0.0
 10
300.5453352238088
 20
732.442857190888
 30
0.0
 10
301.6668983792495
 20
732.5335582034618
 30
0.0
 10
303.1739134913817
 20
733.3663698889923
 30
0.0
 10
304.3221495930707
 20
734.6110577935539
 30
0.0
 10
304.9609738538172
 20
736.03464106907
 30
0.0
 10
305.0294408490853
 20
736.9974439050513
 30
0.0
 10
305.058123005506
 20
737.4007807454643
 30
0.0
  0
SPLINE
  5
F4
330
1F
100
AcDbEntity
  8
0
  6
Continuous
 62
     7
370
    15
100
AcDbSpline
210
0.0
220
0.0
230
1.0
 70
     8
 71
     3
 72
    12
 73
     8
 74
     0
 42
0.00000001
 43
0.00000001
 12
1.0
 22
0.0
 32
0.0
 13
1.0
 23
0.0
 33
0.0
 40
0.0
 40
0.0
 40
0.0
 40
0.0
 40
0.2133968588278961
 40
0.4268299614709185
 40
0.6395788386823317
 40
0.8515210786306334
 40
1.0
 40
1.0
 40
1.0
 40
1.0
 10
486.0613061319556
 20
737.4007807454643
 30
0.0
 10
486.1166311630831
 20
736.8363573508112
 30
0.0
 10
486.227290621869
 20
735.7074146985332
 30
0.0
 10
487.0917144284356
 20
734.2038394943693
 30
0.0
 10
488.3630708275826
 20
733.0736741373336
 30
0.0
 10
489.7912590691823
 20
732.4681428174277
 30
0.0
 10
490.7428510428275
 20
732.4181161990584
 30
0.0
 10
491.1348683963981
 20
732.3975072583733
 30
0.0
  0
SPLINE
  5
F5
330
1F
100
AcDbEntity
  8
0
  6
Continuous
 62
     7
370
    15
100
AcDbSpline
210
0.0
220
0.0
230
1.0
 70
     8
 71
     3
 72
    12
 73
     8
 74
     0
 42
0.00000001
 43
0.00000001
 12
1.0
 22
0.0
 32
0.0
 13
1.0
 23
0.0
 33
0.0
 40
0.0
 40
0.0
 40
0.0
 40
0.0
 40
0.2133970207166655
 40
0.4268302852759527
 40
0.6395793238845585
 40
0.8515217246181155
 40
1.0
 40
1.0
 40
1.0
 40
1.0
 10
305.058123005506
 20
768.974076338726
 30
0.0
 10
305.0027979577894
 20
769.5384995701628
 30
0.0
 10
304.8921384658223
 20
770.6674418959807
 30
0.0
 10
304.0277149078818
 20
772.1710195462979
 30
0.0
 10
302.7563575680326
 20
773.3011756480679
 30
0.0
 10
301.3281743678356
 20
773.906737169217
 30
0.0
 10
300.3765785149178
 20
773.956705396923
 30
0.0
 10
299.9845607410636
 20
773.9772902211723
 30
0.0
  0
SPLINE
  5
F6
330
1F
100
AcDbEntity
  8
0
  6
Continuous
 62
     7
370
    15
100
AcDbSpline
210
0.0
220
0.0
230
1.0
 70
     8
 71
     3
 72
    12
 73
     8
 74
     0
 42
0.00000001
 43
0.00000001
 12
1.0
 22
0.0
 32
0.0
 13
1.0
 23
0.0
 33
0.0
 40
0.0
 40
0.0
 40
0.0
 40
0.0
 40
0.2116834990805934
 40
0.423373492400452
 40
0.634998137214515
 40
0.8470936181542239
 40
1.0
 40
1.0
 40
1.0
 40
1.0
 10
491.1348683963981
 20
773.9772902211723
 30
0.0
 10
490.5740931966431
 20
773.9319650549724
 30
0.0
 10
489.4525255931076
 20
773.8413133320416
 30
0.0
 10
487.9455163065923
 20
773.0084829230206
 30
0.0
 10
486.7972793659134
 20
771.7638004450254
 30
0.0
 10
486.1584553141025
 20
770.3402158181199
 30
0.0
 10
486.0899882973688
 20
769.3774131209769
 30
0.0
 10
486.0613061319557
 20
768.974076338726
 30
0.0
  0
ARC
  5
F7
330
1F
100
AcDbEntity
  8
0
  6
Continuous
 62
     7
370
    15
100
AcDbCircle
 10
395.559714567
 20
6284.7290900588
 30
0.0
 40
5553.15408731135
100
AcDbArc
 50
268.1932631805
 51
269.0138355523
  0
ARC
  5
F8
330
1F
100
AcDbEntity
  8
0
  6
Continuous
 62
     7
370
    15
100
AcDbCircle
 10
395.559714567
 20
-4778.3542432746
 30
0.0
 40
5553.154087311349
100
AcDbArc
 50
88.1932631805
 51
89.0138355523
  0
ARC
  5
F9
330
1F
100
AcDbEntity
  8
0
  6
Continuous
 62
     7
370
    15
100
AcDbCircle
 10
395.559714567
 20
-4778.3542432746
 30
0.0
 40
5553.154087311349
100
AcDbArc
 50
90.9861644477
 51
91.8067368195
  0
ARC
  5
FA
330
1F
100
AcDbEntity
  8
0
  6
Continuous
 62
     7
370
    15
100
AcDbCircle
 10
395.559714567
 20
6284.7290900588
 30
0.0
 40
5553.15408731135
100
AcDbArc
 50
270.9861644477
 51
271.8067368195
  0
SPLINE
  5
FB
330
1F
100
AcDbEntity
  8
0
  6
Continuous
 62
     7
370
    15
100
AcDbSpline
210
0.0
220
0.0
230
1.0
 70
     8
 71
     3
 72
    12
 73
     8
 74
     0
 42
0.00000001
 43
0.00000001
 12
1.0
 22
0.0
 32
0.0
 13
1.0
 23
0.0
 33
0.0
 40
0.0
 40
0.0
 40
0.0
 40
0.0
 40
0.2431866078469986
 40
0.4869640295114442
 40
0.7196756905631118
 40
0.9552525170626903
 40
1.0
 40
1.0
 40
1.0
 40
1.0
 10
579.3927027116981
 20
739.4644723615227
 30
0.0
 10
579.4925334292631
 20
739.6557785415146
 30
0.0
 10
579.6924373998183
 20
740.0388556735331
 30
0.0
 10
579.843004351303
 20
740.5648190665395
 30
0.0
 10
579.9065122967081
 20
740.9448677345633
 30
0.0
 10
579.9091656766493
 20
741.0909028028352
 30
0.0
 10
579.9000133881436
 20
741.1178376014393
 30
0.0
 10
579.8985524307457
 20
741.122137137371
 30
0.0
  0
SPLINE
  5
FC
330
1F
100
AcDbEntity
  8
0
  6
Continuous
 62
     7
370
    15
100
AcDbSpline
210
0.0
220
0.0
230
1.0
 70
     8
 71
     3
 72
    15
 73
    11
 74
     0
 42
0.00000001
 43
0.00000001
 12
1.0
 22
0.0
 32
0.0
 13
1.0
 23
0.0
 33
0.0
 40
0.0
 40
0.0
 40
0.0
 40
0.0
 40
0.3098153292085665
 40
0.5224622773619191
 40
0.6700893889192382
 40
0.8213246461693593
 40
0.8850184034024937
 40
0.9493197857275617
 40
0.9897449842354871
 40
1.0
 40
1.0
 40
1.0
 40
1.0
 10
579.8985524307457
 20
741.122137137371
 30
0.0
 10
579.916940525677
 20
741.1540201226971
 30
0.0
 10
579.9479495980127
 20
741.2077865298186
 30
0.0
 10
579.98717642228
 20
741.3120243661613
 30
0.0
 10
580.0163980908806
 20
741.418928658713
 30
0.0
 10
580.0363949860175
 20
741.5235410061875
 30
0.0
 10
580.0497439127253
 20
741.6406731467941
 30
0.0
 10
580.0561058042182
 20
741.7343434042525
 30
0.0
 10
580.0580295587984
 20
741.8123699668786
 30
0.0
 10
580.0580998429793
 20
741.8472605672674
 30
0.0
 10
580.0581140648094
 20
741.854320593792
 30
0.0
  0
SPLINE
  5
FD
330
1F
100
AcDbEntity
  8
0
  6
Continuous
 62
     7
370
    15
100
AcDbSpline
210
0.0
220
0.0
230
1.0
 70
     8
 71
     3
 72
    12
 73
     8
 74
     0
 42
0.00000001
 43
0.00000001
 12
1.0
 22
0.0
 32
0.0
 13
1.0
 23
0.0
 33
0.0
 40
0.0
 40
0.0
 40
0.0
 40
0.0
 40
0.2406712141384879
 40
0.4814820517382804
 40
0.7183704114036057
 40
0.9505630490973991
 40
1.0
 40
1.0
 40
1.0
 40
1.0
 10
579.8985524307457
 20
765.2527199468193
 30
0.0
 10
579.9032194954461
 20
765.2925230097704
 30
0.0
 10
579.9125563324069
 20
765.3721522270982
 30
0.0
 10
579.8585401288694
 20
765.7446085817783
 30
0.0
 10
579.719849619239
 20
766.2417602540535
 30
0.0
 10
579.5388543119942
 20
766.6548753014522
 30
0.0
 10
579.4145269936056
 20
766.8722304388465
 30
0.0
 10
579.3927027116981
 20
766.9103847226677
 30
0.0
  0
SPLINE
  5
FE
330
1F
100
AcDbEntity
  8
0
  6
Continuous
 62
     7
370
    15
100
AcDbSpline
210
0.0
220
0.0
230
1.0
 70
     8
 71
     3
 72
    12
 73
     8
 74
     0
 42
0.00000001
 43
0.00000001
 12
1.0
 22
0.0
 32
0.0
 13
1.0
 23
0.0
 33
0.0
 40
0.0
 40
0.0
 40
0.0
 40
0.0
 40
0.0402744849794102
 40
0.080386992017992
 40
0.1535253432175649
 40
0.3575448412936122
 40
1.0
 40
1.0
 40
1.0
 40
1.0
 10
580.0581140648094
 20
764.5205364903984
 30
0.0
 10
580.0578654340655
 20
764.5483592829974
 30
0.0
 10
580.0573691725334
 20
764.603892969095
 30
0.0
 10
580.0526862954168
 20
764.6975415840868
 30
0.0
 10
580.0385659205223
 20
764.8475882449852
 30
0.0
 10
579.9869497342337
 20
765.0991822378421
 30
0.0
 10
579.9366947951814
 20
765.1864702873912
 30
0.0
 10
579.8985524307457
 20
765.2527199468193
 30
0.0
  0
SPLINE
  5
FF
330
1F
100
AcDbEntity
  8
0
  6
Continuous
 62
     7
370
    15
100
AcDbSpline
210
0.0
220
0.0
230
1.0
 70
     8
 71
     3
 72
    15
 73
    11
 74
     0
 42
0.00000001
 43
0.00000001
 12
1.0
 22
0.0
 32
0.0
 13
1.0
 23
0.0
 33
0.0
 40
0.0
 40
0.0
 40
0.0
 40
0.0
 40
0.3098167196477434
 40
0.5224646221523488
 40
0.6700923962544167
 40
0.8213283322425046
 40
0.8850223753307502
 40
0.9493474542402233
 40
0.9897449382113742
 40
1.0
 40
1.0
 40
1.0
 40
1.0
 10
211.2208767067161
 20
765.2527199468193
 30
0.0
 10
211.2024885957944
 20
765.2208370719849
 30
0.0
 10
211.171479496493
 20
765.1670708511929
 30
0.0
 10
211.1322528126101
 20
765.0628320448117
 30
0.0
 10
211.1030307986
 20
764.9559301389966
 30
0.0
 10
211.0830348794385
 20
764.8513110476512
 30
0.0
 10
211.0696830566628
 20
764.7341813668884
 30
0.0
 10
211.0633261257183
 20
764.6404784252447
 30
0.0
 10
211.0613993854057
 20
764.5624684557932
 30
0.0
 10
211.061329268457
 20
764.5275966083926
 30
0.0
 10
211.0613150726524
 20
764.5205364903984
 30
0.0
  0
SPLINE
  5
100
330
1F
100
AcDbEntity
  8
0
  6
Continuous
 62
     7
370
    15
100
AcDbSpline
210
0.0
220
0.0
230
1.0
 70
     8
 71
     3
 72
    12
 73
     8
 74
     0
 42
0.00000001
 43
0.00000001
 12
1.0
 22
0.0
 32
0.0
 13
1.0
 23
0.0
 33
0.0
 40
0.0
 40
0.0
 40
0.0
 40
0.0
 40
0.2431866078469986
 40
0.4869640295114442
 40
0.7196756905631118
 40
0.9552525170626903
 40
1.0
 40
1.0
 40
1.0
 40
1.0
 10
211.7267264257636
 20
766.9103847226677
 30
0.0
 10
211.6268957081986
 20
766.7190785426759
 30
0.0
 10
211.4269917376434
 20
766.3360014106577
 30
0.0
 10
211.2764247861588
 20
765.8100380176502
 30
0.0
 10
211.2129168407536
 20
765.429989349627
 30
0.0
 10
211.2102634608125
 20
765.2839542813546
 30
0.0
 10
211.219415749318
 20
765.2570194827508
 30
0.0
 10
211.2208767067161
 20
765.2527199468193
 30
0.0
  0
SPLINE
  5
101
330
1F
100
AcDbEntity
  8
0
  6
Continuous
 62
     7
370
    15
100
AcDbSpline
210
0.0
220
0.0
230
1.0
 70
     8
 71
     3
 72
    12
 73
     8
 74
     0
 42
0.00000001
 43
0.00000001
 12
1.0
 22
0.0
 32
0.0
 13
1.0
 23
0.0
 33
0.0
 40
0.0
 40
0.0
 40
0.0
 40
0.0
 40
0.2406794241143447
 40
0.48149298552702
 40
0.7183672258895764
 40
0.9505624899157397
 40
1.0
 40
1.0
 40
1.0
 40
1.0
 10
211.2208767067161
 20
741.122137137371
 30
0.0
 10
211.2162098970161
 20
741.0823103975052
 30
0.0
 10
211.2068736766741
 20
741.0026347212302
 30
0.0
 10
211.2608832164537
 20
740.6301931731101
 30
0.0
 10
211.3995883693247
 20
740.1330922838185
 30
0.0
 10
211.5805747020219
 20
739.7199814175506
 30
0.0
 10
211.7049021254224
 20
739.5026265908118
 30
0.0
 10
211.7267264257636
 20
739.4644723615227
 30
0.0
  0
SPLINE
  5
102
330
1F
100
AcDbEntity
  8
0
  6
Continuous
 62
     7
370
    15
100
AcDbSpline
210
0.0
220
0.0
230
1.0
 70
     8
 71
     3
 72
    12
 73
     8
 74
     0
 42
0.00000001
 43
0.00000001
 12
1.0
 22
0.0
 32
0.0
 13
1.0
 23
0.0
 33
0.0
 40
0.0
 40
0.0
 40
0.0
 40
0.0
 40
0.0403648829996491
 40
0.080537037638583
 40
0.1538187503892978
 40
0.3585387742175384
 40
1.0
 40
1.0
 40
1.0
 40
1.0
 10
211.0613150726524
 20
741.854320593792
 30
0.0
 10
211.0615619567533
 20
741.8264328592004
 30
0.0
 10
211.0620545461691
 20
741.770790544308
 30
0.0
 10
211.0667676415536
 20
741.6770426720735
 30
0.0
 10
211.080905076587
 20
741.5266934118827
 30
0.0
 10
211.1325877185061
 20
741.2756172184813
 30
0.0
 10
211.1828071009224
 20
741.1883166950204
 30
0.0
 10
211.2208767067161
 20
741.122137137371
 30
0.0
  0
LINE
  5
103
330
1F
100
AcDbEntity
  8
0
  6
Continuous
 62
     7
370
    15
100
AcDbLine
 10
211.5938676726
 20
764.8797140798
 30
0.0
 11
211.2210406195
 21
765.2525411329
 31
0.0
  0
ELLIPSE
  5
104
330
1F
100
AcDbEntity
  8
0
  6
Continuous
 62
     7
370
    15
100
AcDbEllipse
 10
211.5862396363
 20
763.8835128628
 30
0.0
 11
0.0
 21
1.000000000000114
 31
0.0
210
0.0
220
0.0
230
1.0
 40
0.0874886635
 41
4.712388980384691
 42
6.195918844580168
  0
LINE
  5
105
330
1F
100
AcDbEntity
  8
0
  6
Continuous
 62
     7
370
    15
100
AcDbLine
 10
211.6737229954
 20
761.8401752195
 30
0.0
 11
211.6737229954
 21
763.8835416517
 31
0.0
  0
ELLIPSE
  5
106
330
1F
100
AcDbEntity
  8
0
  6
Continuous
 62
     7
370
    15
100
AcDbEllipse
 10
211.2362849822
 20
767.2449270295
 30
0.0
 11
0.0
 21
2.0
 31
0.0
210
0.0
220
0.0
230
1.0
 40
0.0874886635
 41
3.053409736769193
 42
3.054326190990039
  0
LINE
  5
107
330
1F
100
AcDbEntity
  8
0
  6
Continuous
 62
     7
370
    15
100
AcDbLine
 10
579.5255614649
 20
741.4951430044
 30
0.0
 11
579.898388518
 21
741.1223159513
 31
0.0
  0
ELLIPSE
  5
108
330
1F
100
AcDbEntity
  8
0
  6
Continuous
 62
     7
370
    15
100
AcDbEllipse
 10
579.5331894977
 20
742.4913339214
 30
0.0
 11
0.0
 21
1.000000000000114
 31
0.0
210
0.0
220
0.0
230
1.0
 40
0.0874886635
 41
1.570796326794897
 42
3.054326190991943
  0
LINE
  5
109
330
1F
100
AcDbEntity
  8
0
  6
Continuous
 62
     7
370
    15
100
AcDbLine
 10
579.4457061421
 20
742.4913154325
 30
0.0
 11
579.4457061421
 21
744.5346818647
 31
0.0
  0
ELLIPSE
  5
10A
330
1F
100
AcDbEntity
  8
0
  6
Continuous
 62
     7
370
    15
100
AcDbEllipse
 10
579.8831441518
 20
739.1299197547
 30
0.0
 11
0.0
 21
2.0
 31
0.0
210
0.0
220
0.0
230
1.0
 40
0.0874886635
 41
6.195002390609331
 42
6.195918844579542
  0
LINE
  5
10B
330
1F
100
AcDbEntity
  8
0
  6
Continuous
 62
     7
370
    15
100
AcDbLine
 10
579.4457061421
 20
761.8401752195
 30
0.0
 11
579.4457061421
 21
763.8835416517
 31
0.0
  0
ELLIPSE
  5
10C
330
1F
100
AcDbEntity
  8
0
  6
Continuous
 62
     7
370
    15
100
AcDbEllipse
 10
579.5331894977
 20
763.8835128628
 30
0.0
 11
0.0
 21
1.000000000000114
 31
0.0
210
0.0
220
0.0
230
1.0
 40
0.0874886635
 41
0.0872664625978319
 42
1.570796326794897
  0
LINE
  5
10D
330
1F
100
AcDbEntity
  8
0
  6
Continuous
 62
     7
370
    15
100
AcDbLine
 10
579.5255614649
 20
764.8797140798
 30
0.0
 11
579.898388518
 21
765.2525411329
 31
0.0
  0
ELLIPSE
  5
10E
330
1F
100
AcDbEntity
  8
0
  6
Continuous
 62
     7
370
    15
100
AcDbEllipse
 10
579.8831441518
 20
767.2449270295
 30
0.0
 11
0.0
 21
2.0
 31
0.0
210
0.0
220
0.0
230
1.0
 40
0.0874886635
 41
3.228859116190161
 42
3.229775570160371
  0
LINE
  5
10F
330
1F
100
AcDbEntity
  8
0
  6
Continuous
 62
     7
370
    15
100
AcDbLine
 10
211.6737229954
 20
742.4913154325
 30
0.0
 11
211.6737229954
 21
744.5346818647
 31
0.0
  0
ELLIPSE
  5
110
330
1F
100
AcDbEntity
  8
0
  6
Continuous
 62
     7
370
    15
100
AcDbEllipse
 10
211.5862396363
 20
742.4913339214
 30
0.0
 11
0.0
 21
1.000000000000114
 31
0.0
210
0.0
220
0.0
230
1.0
 40
0.0874886635
 41
3.228859116189549
 42
4.712388980384691
  0
LINE
  5
111
330
1F
100
AcDbEntity
  8
0
  6
Continuous
 62
     7
370
    15
100
AcDbLine
 10
211.5938676726
 20
741.4951430044
 30
0.0
 11
211.2210406195
 21
741.1223159513
 31
0.0
  0
ELLIPSE
  5
112
330
1F
100
AcDbEntity
  8
0
  6
Continuous
 62
     7
370
    15
100
AcDbEllipse
 10
211.2362849822
 20
739.1299197547
 30
0.0
 11
0.0
 21
2.0
 31
0.0
210
0.0
220
0.0
230
1.0
 40
0.0874886635
 41
0.087266462599743
 42
0.0881829168207499
  0
LINE
  5
113
330
1F
100
AcDbEntity
  8
0
  6
Continuous
 62
     7
370
    15
100
AcDbLine
 10
214.5597202908
 20
762.18743188
 30
0.0
 11
211.6737229954
 21
762.18743188
 31
0.0
  0
ARC
  5
114
330
1F
100
AcDbEntity
  8
0
  6
Continuous
 62
     7
370
    15
100
AcDbCircle
 10
214.5597145687
 20
761.1874233932
 30
0.0
 40
1.0
100
AcDbArc
 50
0.0
 51
90.0
  0
LINE
  5
115
330
1F
100
AcDbEntity
  8
0
  6
Continuous
 62
     7
370
    15
100
AcDbLine
 10
215.5597074162
 20
745.1874123296
 30
0.0
 11
215.5597074162
 21
761.1874447546
 31
0.0
  0
ARC
  5
116
330
1F
100
AcDbEntity
  8
0
  6
Continuous
 62
     7
370
    15
100
AcDbCircle
 10
214.5597145687
 20
745.1874233932
 30
0.0
 40
1.000000000000114
100
AcDbArc
 50
270.0
 51
0.0
  0
LINE
  5
117
330
1F
100
AcDbEntity
  8
0
  6
Continuous
 62
     7
370
    15
100
AcDbLine
 10
211.6737229954
 20
744.1874252042
 30
0.0
 11
214.5597202908
 21
744.1874252042
 31
0.0
  0
LINE
  5
118
330
1F
100
AcDbEntity
  8
0
  6
Continuous
 62
     7
370
    15
100
AcDbLine
 10
576.5597088467
 20
744.1874252042
 30
0.0
 11
579.4457061421
 21
744.1874252042
 31
0.0
  0
ARC
  5
119
330
1F
100
AcDbEntity
  8
0
  6
Continuous
 62
     7
370
    15
100
AcDbCircle
 10
576.5597145369
 20
745.1874233931
 30
0.0
 40
1.000000000000114
100
AcDbArc
 50
180.0
 51
270.0
  0
LINE
  5
11A
330
1F
100
AcDbEntity
  8
0
  6
Continuous
 62
     7
370
    15
100
AcDbLine
 10
575.5597217213
 20
761.1874447546
 30
0.0
 11
575.5597217213
 21
745.1874123296
 31
0.0
  0
ARC
  5
11B
330
1F
100
AcDbEntity
  8
0
  6
Continuous
 62
     7
370
    15
100
AcDbCircle
 10
576.5597145369
 20
761.1874233931
 30
0.0
 40
1.0
100
AcDbArc
 50
90.0
 51
180.0
  0
LINE
  5
11C
330
1F
100
AcDbEntity
  8
0
  6
Continuous
 62
     7
370
    15
100
AcDbLine
 10
579.4457061421
 20
762.18743188
 30
0.0
 11
576.5597088467
 21
762.18743188
 31
0.0
  0
LINE
  5
11D
330
1F
100
AcDbEntity
  8
0
  6
Continuous
 62
     7
370
    15
100
AcDbLine
 10
195.5597115885
 20
-109.3716441312
 30
0.0
 11
195.5597115885
 21
-109.3157200733
 31
0.0
  0
LINE
  5
11E
330
1F
100
AcDbEntity
  8
0
  6
Continuous
 62
     7
370
    15
100
AcDbLine
 10
595.559717549
 20
-109.3716441312
 30
0.0
 11
595.559717549
 21
-109.3157200733
 31
0.0
  0
LINE
  5
11F
330
1F
100
AcDbEntity
  8
0
  6
Continuous
 62
     7
370
    15
100
AcDbLine
 10
320.5597115885
 20
-17.3315467903
 30
0.0
 11
260.5597092043
 21
-17.3315467903
 31
0.0
  0
LINE
  5
120
330
1F
100
AcDbEntity
  8
0
  6
Continuous
 62
     7
370
    15
100
AcDbLine
 10
494.0365044605
 20
-112.805676333
 30
0.0
 11
494.0376443993
 21
-111.3270415583
 31
0.0
  0
LINE
  5
121
330
1F
100
AcDbEntity
  8
0
  6
Continuous
 62
     7
370
    15
100
AcDbLine
 10
493.9091293346
 20
-109.3157200733
 30
0.0
 11
494.0376443993
 21
-111.3270415583
 31
0.0
  0
LINE
  5
122
330
1F
100
AcDbEntity
  8
0
  6
Continuous
 62
     7
370
    15
100
AcDbLine
 10
491.169126166
 20
-109.3157200733
 30
0.0
 11
491.0376457702
 21
-111.3246722737
 31
0.0
  0
LINE
  5
123
330
1F
100
AcDbEntity
  8
0
  6
Continuous
 62
     7
370
    15
100
AcDbLine
 10
491.0376457702
 20
-111.3246722737
 30
0.0
 11
491.0365132819
 21
-112.8033070484
 31
0.0
  0
LINE
  5
124
330
1F
100
AcDbEntity
  8
0
  6
Continuous
 62
     7
370
    15
100
AcDbLine
 10
494.0369663964
 20
-111.332376174
 30
0.0
 11
494.0376443993
 21
-111.3270415583
 31
0.0
  0
SPLINE
  5
125
330
1F
100
AcDbEntity
  8
0
  6
Continuous
 62
     7
370
    15
100
AcDbSpline
210
0.0
220
0.0
230
1.0
 70
     8
 71
     3
 72
    14
 73
    10
 74
     0
 42
0.00000001
 43
0.00000001
 12
1.0
 22
0.0
 32
0.0
 13
1.0
 23
0.0
 33
0.0
 40
0.0
 40
0.0
 40
0.0
 40
0.0
 40
0.0450048188182074
 40
0.192455509289219
 40
0.4101049115842113
 40
0.62811780903734
 40
0.8446528919067284
 40
0.9597645062479768
 40
1.0
 40
1.0
 40
1.0
 40
1.0
 10
492.0022649894919
 20
-111.8320568123284
 30
0.0
 10
491.9823317791637
 20
-111.8192156396881
 30
0.0
 10
491.8970907706176
 20
-111.7643025329307
 30
0.0
 10
491.6812402157245
 20
-111.728157039131
 30
0.0
 10
491.4113321528329
 20
-111.6676998240489
 30
0.0
 10
491.1762608830744
 20
-111.6018032994453
 30
0.0
 10
491.064221789278
 20
-111.5245186374476
 30
0.0
 10
491.0380770285635
 20
-111.4372692126591
 30
0.0
 10
491.0370835270151
 20
-111.3815852846491
 30
0.0
 10
491.0368262063232
 20
-111.3671629348221
 30
0.0
  0
SPLINE
  5
126
330
1F
100
AcDbEntity
  8
0
  6
Continuous
 62
     7
370
    15
100
AcDbSpline
210
0.0
220
0.0
230
1.0
 70
     8
 71
     3
 72
    10
 73
     6
 74
     0
 42
0.00000001
 43
0.00000001
 12
1.0
 22
0.0
 32
0.0
 13
1.0
 23
0.0
 33
0.0
 40
0.0
 40
0.0
 40
0.0
 40
0.0
 40
0.3109392618943009
 40
0.7328441442060836
 40
0.9999999999999999
 40
0.9999999999999999
 40
0.9999999999999999
 40
0.9999999999999999
 10
494.0369663964477
 20
-111.3323761740151
 30
0.0
 10
494.0369514486736
 20
-111.3335068818364
 30
0.0
 10
494.0369162186782
 20
-111.3361718158192
 30
0.0
 10
494.0368692056647
 20
-111.3516518506979
 30
0.0
 10
494.0368372319505
 20
-111.3645312822694
 30
0.0
 10
494.0368248354163
 20
-111.3695247688714
 30
0.0
  0
SPLINE
  5
127
330
1F
100
AcDbEntity
  8
0
  6
Continuous
 62
     7
370
    15
100
AcDbSpline
210
0.0
220
0.0
230
1.0
 70
     8
 71
     3
 72
    15
 73
    11
 74
     0
 42
0.00000001
 43
0.00000001
 12
1.0
 22
0.0
 32
0.0
 13
1.0
 23
0.0
 33
0.0
 40
0.0
 40
0.0
 40
0.0
 40
0.0
 40
0.0802955532586316
 40
0.2296540005553699
 40
0.4389289422818466
 40
0.6497304109544119
 40
0.8665127144553021
 40
0.9462872371748805
 40
0.9895227346373324
 40
0.9999999999999999
 40
0.9999999999999999
 40
0.9999999999999999
 40
0.9999999999999999
 10
494.0368248354163
 20
-111.3695247688714
 30
0.0
 10
494.0355480205113
 20
-111.3967907769886
 30
0.0
 10
494.0318961912504
 20
-111.4747745206601
 30
0.0
 10
493.978684705009
 20
-111.5539597229137
 30
0.0
 10
493.8310453794065
 20
-111.6260202082929
 30
0.0
 10
493.5785474580192
 20
-111.6885307127871
 30
0.0
 10
493.3283144914603
 20
-111.7350398377734
 30
0.0
 10
493.1586204078022
 20
-111.7828623955011
 30
0.0
 10
493.0928362015127
 20
-111.810637522995
 30
0.0
 10
493.0715953980996
 20
-111.8292651954691
 30
0.0
 10
493.0674521456924
 20
-111.8328987279358
 30
0.0
  0
SPLINE
  5
128
330
1F
100
AcDbEntity
  8
0
  6
Continuous
 62
     7
370
    15
100
AcDbSpline
210
0.0
220
0.0
230
1.0
 70
     8
 71
     3
 72
     9
 73
     5
 74
     0
 42
0.00000001
 43
0.00000001
 12
1.0
 22
0.0
 32
0.0
 13
1.0
 23
0.0
 33
0.0
 40
0.0
 40
0.0
 40
0.0
 40
0.0
 40
0.1371740402443595
 40
1.0
 40
1.0
 40
1.0
 40
1.0
 10
493.034833503839
 20
-111.8654577651444
 30
0.0
 10
493.0363235117834
 20
-111.8639675405546
 30
0.0
 10
493.0471856832387
 20
-111.8531037897524
 30
0.0
 10
493.0580651013333
 20
-111.8422573326743
 30
0.0
 10
493.0674521456924
 20
-111.8328987279358
 30
0.0
  0
SPLINE
  5
129
330
1F
100
AcDbEntity
  8
0
  6
Continuous
 62
     7
370
    15
100
AcDbSpline
210
0.0
220
0.0
230
1.0
 70
     8
 71
     3
 72
     9
 73
     5
 74
     0
 42
0.00000001
 43
0.00000001
 12
1.0
 22
0.0
 32
0.0
 13
1.0
 23
0.0
 33
0.0
 40
0.0
 40
0.0
 40
0.0
 40
0.0
 40
0.8628267623624198
 40
1.0
 40
1.0
 40
1.0
 40
1.0
 10
492.002264989492
 20
-111.8320568123284
 30
0.0
 10
492.0116271217595
 20
-111.8414402743174
 30
0.0
 10
492.0224776570881
 20
-111.8523155303924
 30
0.0
 10
492.03334127908
 20
-111.863177967882
 30
0.0
 10
492.0348314772811
 20
-111.8646680036011
 30
0.0
  0
LINE
  5
12A
330
1F
100
AcDbEntity
  8
0
  6
Continuous
 62
     7
370
    15
100
AcDbLine
 10
480.9251664411
 20
-114.2943544903
 30
0.0
 11
480.2181808482
 21
-109.3157200733
 31
0.0
  0
LINE
  5
12B
330
1F
100
AcDbEntity
  8
0
  6
Continuous
 62
     7
370
    15
100
AcDbLine
 10
504.8405019771
 20
-109.3716441312
 30
0.0
 11
504.1314674746
 21
-114.3126680174
 31
0.0
  0
ARC
  5
12C
330
1F
100
AcDbEntity
  8
0
  6
Continuous
 62
     7
370
    15
100
AcDbCircle
 10
471.3835101908
 20
-120.7146186374
 30
0.0
 40
11.44159836225646
100
AcDbArc
 50
340.9674027925
 51
23.2007441324
  0
ARC
  5
12D
330
1F
100
AcDbEntity
  8
0
  6
Continuous
 62
     7
370
    15
100
AcDbCircle
 10
513.547243739
 20
-120.8309818993
 30
0.0
 40
11.37457442828403
100
AcDbArc
 50
159.8217912578
 51
197.6363377659
  0
LWPOLYLINE
  5
12E
330
1F
100
AcDbEntity
  8
0
  6
Continuous
 62
     7
370
    15
100
AcDbPolyline
 90
        9
 70
   128
 43
0.0
 10
494.0368248354
 20
-111.3695247689
 10
494.0366385709
 20
-111.7072223344
 10
494.0363554488
 20
-112.048525981
 10
494.0359829198
 20
-112.3834891835
 10
494.0355209838
 20
-112.7023516813
 10
494.0349994432
 20
-112.9958226004
 10
494.0344182979
 20
-113.2553486743
 10
494.0337998997
 20
-113.4733675638
 10
494.0331666003
 20
-113.643531374
  0
SPLINE
  5
12F
330
1F
100
AcDbEntity
  8
0
  6
Continuous
 62
     7
370
    15
100
AcDbSpline
210
0.0
220
0.0
230
1.0
 70
     8
 71
     3
 72
    11
 73
     7
 74
     0
 42
0.00000001
 43
0.00000001
 12
1.0
 22
0.0
 32
0.0
 13
1.0
 23
0.0
 33
0.0
 40
0.0
 40
0.0
 40
0.0
 40
0.0
 40
0.2947326600006908
 40
0.5894809950413504
 40
0.8837757743052687
 40
1.0
 40
1.0
 40
1.0
 40
1.0
 10
494.034798277494
 20
-113.7266276994172
 30
0.0
 10
494.035011466381
 20
-113.6687800333552
 30
0.0
 10
494.0354378554931
 20
-113.5530816246654
 30
0.0
 10
494.0359948465299
 20
-113.2691440673063
 30
0.0
 10
494.0363453076616
 20
-113.006999815225
 30
0.0
 10
494.0364693438918
 20
-112.8500977217736
 30
0.0
 10
494.0365044604507
 20
-112.8056763329926
 30
0.0
  0
LINE
  5
130
330
1F
100
AcDbEntity
  8
0
  6
Continuous
 62
     7
370
    15
100
AcDbLine
 10
493.9679740201
 20
-128.8536532441
 30
0.0
 11
494.0347982775
 21
-113.7266276994
 31
0.0
  0
SPLINE
  5
131
330
1F
100
AcDbEntity
  8
0
  6
Continuous
 62
     7
370
    15
100
AcDbSpline
210
0.0
220
0.0
230
1.0
 70
     8
 71
     3
 72
    11
 73
     7
 74
     0
 42
0.00000001
 43
0.00000001
 12
1.0
 22
0.0
 32
0.0
 13
1.0
 23
0.0
 33
0.0
 40
0.0
 40
0.0
 40
0.0
 40
0.0
 40
0.293314063309663
 40
0.5866011587358256
 40
0.8804974123459774
 40
1.0
 40
1.0
 40
1.0
 40
1.0
 10
491.0365132819381
 20
-112.8033070483628
 30
0.0
 10
491.0364086305734
 20
-112.9160097042595
 30
0.0
 10
491.0361993374658
 20
-113.1414046539445
 30
0.0
 10
491.0356677189725
 20
-113.4421493436668
 30
0.0
 10
491.0351849792727
 20
-113.6306184357786
 30
0.0
 10
491.0348918382412
 20
-113.7032597475063
 30
0.0
 10
491.0348070989814
 20
-113.7242584147873
 30
0.0
  0
LWPOLYLINE
  5
132
330
1F
100
AcDbEntity
  8
0
  6
Continuous
 62
     7
370
    15
100
AcDbPolyline
 90
        9
 70
   128
 43
0.0
 10
490.967975391
 20
-128.8512839594
 10
491.0810901056
 20
-129.0939717212
 10
491.4053393732
 20
-129.2998834172
 10
491.8913630973
 20
-129.4376893559
 10
492.4651770126
 20
-129.4863938013
 10
493.0394156109
 20
-129.4385908761
 10
493.5266537796
 20
-129.3015597978
 10
493.8527209889
 20
-129.0961547413
 10
493.9679740201
 20
-128.8536532441
  0
LINE
  5
133
330
1F
100
AcDbEntity
  8
0
  6
Continuous
 62
     7
370
    15
100
AcDbLine
 10
491.034807099
 20
-113.7242584148
 30
0.0
 11
490.967975391
 21
-128.8512839594
 31
0.0
  0
LWPOLYLINE
  5
134
330
1F
100
AcDbEntity
  8
0
  6
Continuous
 62
     7
370
    15
100
AcDbPolyline
 90
        3
 70
   128
 43
0.0
 10
491.0438297521
 20
-128.0519484201
 10
490.9871904384
 20
-128.22133737
 10
490.9702478181
 20
-128.3370821395
  0
LINE
  5
135
330
1F
100
AcDbEntity
  8
0
  6
Continuous
 62
     7
370
    15
100
AcDbLine
 10
480.8533130418
 20
-127.5184421459
 30
0.0
 11
480.8501539956
 21
-127.5000988164
 31
0.0
  0
LINE
  5
136
330
1F
100
AcDbEntity
  8
0
  6
Continuous
 62
     7
370
    15
100
AcDbLine
 10
490.9961758386
 20
-128.5216553727
 30
0.0
 11
490.9698380362
 21
-128.4308700481
 31
0.0
  0
SPLINE
  5
137
330
1F
100
AcDbEntity
  8
0
  6
Continuous
 62
     7
370
    15
100
AcDbSpline
210
0.0
220
0.0
230
1.0
 70
     8
 71
     3
 72
    11
 73
     7
 74
     0
 42
0.00000001
 43
0.00000001
 12
1.0
 22
0.0
 32
0.0
 13
1.0
 23
0.0
 33
0.0
 40
0.0
 40
0.0
 40
0.0
 40
0.0
 40
0.0603203831446666
 40
0.1757907195109271
 40
0.7769787784656407
 40
1.0
 40
1.0
 40
1.0
 40
1.0
 10
476.6234917770591
 20
-113.5434775271836
 30
0.0
 10
476.6197738265441
 20
-113.5481853304552
 30
0.0
 10
476.6089386633361
 20
-113.5619052055835
 30
0.0
 10
476.5658153396295
 20
-113.6159419059171
 30
0.0
 10
476.5226798186019
 20
-113.6684664781397
 30
0.0
 10
476.5268241301146
 20
-113.6575436286841
 30
0.0
 10
476.5279455314842
 20
-113.6545880356255
 30
0.0
  0
SPLINE
  5
138
330
1F
100
AcDbEntity
  8
0
  6
Continuous
 62
     7
370
    15
100
AcDbSpline
210
0.0
220
0.0
230
1.0
 70
     8
 71
     3
 72
    11
 73
     7
 74
     0
 42
0.00000001
 43
0.00000001
 12
1.0
 22
0.0
 32
0.0
 13
1.0
 23
0.0
 33
0.0
 40
0.0
 40
0.0
 40
0.0
 40
0.0
 40
0.1878206729141891
 40
0.8162400012003579
 40
0.9369483986794577
 40
1.0
 40
1.0
 40
1.0
 40
1.0
 10
508.3848325740066
 20
-113.6806352653924
 30
0.0
 10
508.3857265248315
 20
-113.6828607447766
 30
0.0
 10
508.3896114987859
 20
-113.6925323387876
 30
0.0
 10
508.3480444048636
 20
-113.6409473512369
 30
0.0
 10
508.3055130382858
 20
-113.5869174390526
 30
0.0
 10
508.2947907460392
 20
-113.5731802642466
 30
0.0
 10
508.2911117206779
 20
-113.5684667745057
 30
0.0
  0
ARC
  5
139
330
1F
100
AcDbEntity
  8
0
  6
Continuous
 62
     7
370
    15
100
AcDbCircle
 10
270.5595959765
 20
638.5254959345
 30
0.0
 40
4.999876639740307
100
AcDbArc
 50
89.9986409994
 51
179.9993099053
  0
ARC
  5
13A
330
1F
100
AcDbEntity
  8
0
  6
Continuous
 62
     7
370
    15
100
AcDbCircle
 10
520.559833161
 20
638.5254959345
 30
0.0
 40
4.999876639740364
100
AcDbArc
 50
0.0006900947
 51
90.0013590006
  0
LINE
  5
13B
330
1F
100
AcDbEntity
  8
0
  6
Continuous
 62
     7
370
    15
100
AcDbLine
 10
265.5597193371
 20
8.5506749681
 30
0.0
 11
265.5597193371
 21
638.5255561552
 31
0.0
  0
LINE
  5
13C
330
1F
100
AcDbEntity
  8
0
  6
Continuous
 62
     7
370
    15
100
AcDbLine
 10
525.5597098004
 20
638.5255561552
 30
0.0
 11
525.5597098004
 21
8.5506749681
 31
0.0
  0
ARC
  5
13D
330
1F
100
AcDbEntity
  8
0
  6
Continuous
 62
     7
370
    15
100
AcDbCircle
 10
270.5595620606
 20
638.6772832766
 30
0.0
 40
4.999842724222986
100
AcDbArc
 50
89.9982523304
 51
179.9990155262
  0
LINE
  5
13E
330
1F
100
AcDbEntity
  8
0
  6
Continuous
 62
     7
370
    15
100
AcDbLine
 10
265.5597193371
 20
638.5255561552
 30
0.0
 11
265.5597193371
 21
638.6773691854
 31
0.0
  0
LINE
  5
13F
330
1F
100
AcDbEntity
  8
0
  6
Continuous
 62
     7
370
    15
100
AcDbLine
 10
520.5597145687
 20
643.6771259985
 30
0.0
 11
270.5597145687
 21
643.6771259985
 31
0.0
  0
ARC
  5
140
330
1F
100
AcDbEntity
  8
0
  6
Continuous
 62
     7
370
    15
100
AcDbCircle
 10
520.5598670769
 20
638.6772832766
 30
0.0
 40
4.999842724223073
100
AcDbArc
 50
0.0009844738
 51
90.0017476696
  0
LINE
  5
141
330
1F
100
AcDbEntity
  8
0
  6
Continuous
 62
     7
370
    15
100
AcDbLine
 10
525.5597098004
 20
638.6773691854
 30
0.0
 11
525.5597098004
 21
638.5255561552
 31
0.0
  0
ARC
  5
142
330
1F
100
AcDbEntity
  8
0
  6
Continuous
 62
     7
370
    15
100
AcDbCircle
 10
270.5596039005
 20
8.5507580144
 30
0.0
 40
4.999884564053581
100
AcDbArc
 50
180.0009516624
 51
270.0012681942
  0
ARC
  5
143
330
1F
100
AcDbEntity
  8
0
  6
Continuous
 62
     7
370
    15
100
AcDbCircle
 10
520.559825237
 20
8.5507580144
 30
0.0
 40
4.99988456405362
100
AcDbArc
 50
269.9987318058
 51
359.9990483376
  0
LINE
  5
144
330
1F
100
AcDbEntity
  8
0
  6
Continuous
 62
     7
370
    15
100
AcDbLine
 10
520.5597145687
 20
3.5508734515
 30
0.0
 11
270.5597145687
 21
3.5508734515
 31
0.0
  0
LINE
  5
145
330
1F
100
AcDbEntity
  8
0
  6
Continuous
 62
     7
370
    15
100
AcDbLine
 10
471.5171767603
 20
774.0315304479
 30
0.0
 11
403.5377552937
 21
774.0315304479
 31
0.0
  0
LINE
  5
146
330
1F
100
AcDbEntity
  8
0
  6
Continuous
 62
     7
370
    15
100
AcDbLine
 10
387.7092287149
 20
774.0315304479
 30
0.0
 11
319.5287822019
 21
774.0315304479
 31
0.0
  0
LINE
  5
147
330
1F
100
AcDbEntity
  8
0
  6
Continuous
 62
     7
370
    15
100
AcDbLine
 10
567.3117501866
 20
772.1431956968
 30
0.0
 11
515.9681378137
 21
772.1431956968
 31
0.0
  0
LINE
  5
148
330
1F
100
AcDbEntity
  8
0
  6
Continuous
 62
     7
370
    15
100
AcDbLine
 10
514.8356570135
 20
772.1431956968
 30
0.0
 11
487.270691825
 21
772.1431956968
 31
0.0
  0
LINE
  5
149
330
1F
100
AcDbEntity
  8
0
  6
Continuous
 62
     7
370
    15
100
AcDbLine
 10
474.1184799205
 20
772.1431956968
 30
0.0
 11
401.7000574823
 21
772.1431956968
 31
0.0
  0
LINE
  5
14A
330
1F
100
AcDbEntity
  8
0
  6
Continuous
 62
     7
370
    15
100
AcDbLine
 10
389.3902710843
 20
772.1431956968
 30
0.0
 11
316.9989673625
 21
772.1431956968
 31
0.0
  0
LINE
  5
14B
330
1F
100
AcDbEntity
  8
0
  6
Continuous
 62
     7
370
    15
100
AcDbLine
 10
303.921633793
 20
772.1431956968
 30
0.0
 11
276.2837721239
 21
772.1431956968
 31
0.0
  0
LINE
  5
14C
330
1F
100
AcDbEntity
  8
0
  6
Continuous
 62
     7
370
    15
100
AcDbLine
 10
275.1512913238
 20
772.1431956968
 30
0.0
 11
223.8076789509
 21
772.1431956968
 31
0.0
  0
ARC
  5
14D
330
1F
100
AcDbEntity
  8
0
  6
Continuous
 62
     7
370
    15
100
AcDbCircle
 10
515.5597145687
 20
750.1431718549
 30
0.0
 40
14.25000000000003
100
AcDbArc
 50
273.2182972166
 51
28.9947593146
  0
LINE
  5
14E
330
1F
100
AcDbEntity
  8
0
  6
Continuous
 62
     7
370
    15
100
AcDbLine
 10
528.0236764084
 20
757.0505843839
 30
0.0
 11
527.5905890595
 21
756.8005428991
 31
0.0
  0
ARC
  5
14F
330
1F
100
AcDbEntity
  8
0
  6
Continuous
 62
     7
370
    15
100
AcDbCircle
 10
515.5597145687
 20
750.1431718549
 30
0.0
 40
13.75000000000006
100
AcDbArc
 50
273.3354562565
 51
28.9582011495
  0
ARC
  5
150
330
1F
100
AcDbEntity
  8
0
  6
Continuous
 62
     7
370
    15
100
AcDbCircle
 10
515.5597145687
 20
750.1431718549
 30
0.0
 40
10.5
100
AcDbArc
 50
90.0
 51
270.0000000001
  0
ARC
  5
151
330
1F
100
AcDbEntity
  8
0
  6
Continuous
 62
     7
370
    15
100
AcDbCircle
 10
515.5597145687
 20
750.1431718549
 30
0.0
 40
10.50000000000006
100
AcDbArc
 50
274.3696273052
 51
85.6303726948
  0
CIRCLE
  5
152
330
1F
100
AcDbEntity
  8
0
  6
Continuous
 62
     7
370
    15
100
AcDbCircle
 10
555.5597145687
 20
747.1431718549
 30
0.0
 40
10.0
  0
ARC
  5
153
330
1F
100
AcDbEntity
  8
0
  6
Continuous
 62
     7
370
    15
100
AcDbCircle
 10
475.5597145687
 20
747.1431718549
 30
0.0
 40
10.00000000000012
100
AcDbArc
 50
92.8751231828
 51
267.1248768172
  0
CIRCLE
  5
154
330
1F
100
AcDbEntity
  8
0
  6
Continuous
 62
     7
370
    15
100
AcDbCircle
 10
435.5597145687
 20
747.1431718549
 30
0.0
 40
10.0
  0
ARC
  5
155
330
1F
100
AcDbEntity
  8
0
  6
Continuous
 62
     7
370
    15
100
AcDbCircle
 10
515.5597145687
 20
750.1431718549
 30
0.0
 40
14.25000000000011
100
AcDbArc
 50
31.0052406854
 51
86.7817027834
  0
ARC
  5
156
330
1F
100
AcDbEntity
  8
0
  6
Continuous
 62
     7
370
    15
100
AcDbCircle
 10
515.5597145687
 20
750.1431718549
 30
0.0
 40
14.25000000000011
100
AcDbArc
 50
90.0
 51
148.9947593146
  0
LINE
  5
157
330
1F
100
AcDbEntity
  8
0
  6
Continuous
 62
     7
370
    15
100
AcDbLine
 10
503.3457515966
 20
757.4835525236
 30
0.0
 11
503.7788314949
 21
757.2335706434
 31
0.0
  0
ARC
  5
158
330
1F
100
AcDbEntity
  8
0
  6
Continuous
 62
     7
370
    15
100
AcDbCircle
 10
515.5597145687
 20
750.1431718549
 30
0.0
 40
13.75000000000011
100
AcDbArc
 50
90.0
 51
148.9582011495
  0
ARC
  5
159
330
1F
100
AcDbEntity
  8
0
  6
Continuous
 62
     7
370
    15
100
AcDbCircle
 10
515.5597145687
 20
750.1431718549
 30
0.0
 40
13.75000000000003
100
AcDbArc
 50
31.0417988505
 51
86.6645437435
  0
LINE
  5
15A
330
1F
100
AcDbEntity
  8
0
  6
Continuous
 62
     7
370
    15
100
AcDbLine
 10
527.3405922781
 20
757.2335706434
 30
0.0
 11
527.7736796271
 21
757.4835525236
 31
0.0
  0
CIRCLE
  5
15B
330
1F
100
AcDbEntity
  8
0
  6
Continuous
 62
     7
370
    15
100
AcDbCircle
 10
235.5597145687
 20
747.1431718549
 30
0.0
 40
10.0
  0
ARC
  5
15C
330
1F
100
AcDbEntity
  8
0
  6
Continuous
 62
     7
370
    15
100
AcDbCircle
 10
275.5597145687
 20
747.1431718549
 30
0.0
 40
10.00000000000006
100
AcDbArc
 50
94.5885657357
 51
265.4114342643
  0
ARC
  5
15D
330
1F
100
AcDbEntity
  8
0
  6
Continuous
 62
     7
370
    15
100
AcDbCircle
 10
275.5597145687
 20
747.1431718549
 30
0.0
 40
10.0
100
AcDbArc
 50
270.0000000001
 51
90.0
  0
ARC
  5
15E
330
1F
100
AcDbEntity
  8
0
  6
Continuous
 62
     7
370
    15
100
AcDbCircle
 10
315.5597145687
 20
747.1431718549
 30
0.0
 40
10.00000000000003
100
AcDbArc
 50
273.414279473
 51
87.124876837
  0
CIRCLE
  5
15F
330
1F
100
AcDbEntity
  8
0
  6
Continuous
 62
     7
370
    15
100
AcDbCircle
 10
355.5597145687
 20
747.1431718549
 30
0.0
 40
10.0
  0
ARC
  5
160
330
1F
100
AcDbEntity
  8
0
  6
Continuous
 62
     7
370
    15
100
AcDbCircle
 10
515.5597145687
 20
750.1431718549
 30
0.0
 40
13.75000000000011
100
AcDbArc
 50
151.0417988505
 51
268.9582011495
  0
LINE
  5
161
330
1F
100
AcDbEntity
  8
0
  6
Continuous
 62
     7
370
    15
100
AcDbLine
 10
503.5288347136
 20
756.8005428991
 30
0.0
 11
503.0957548152
 21
757.0505843839
 31
0.0
  0
ARC
  5
162
330
1F
100
AcDbEntity
  8
0
  6
Continuous
 62
     7
370
    15
100
AcDbCircle
 10
515.5597145687
 20
750.1431718549
 30
0.0
 40
14.25000000000009
100
AcDbArc
 50
151.0052406854
 51
268.9947593146
  0
LINE
  5
163
330
1F
100
AcDbEntity
  8
0
  6
Continuous
 62
     7
370
    15
100
AcDbLine
 10
515.3097151052
 20
735.8953462324
 30
0.0
 11
515.3097151052
 21
736.395429202
 31
0.0
  0
ARC
  5
164
330
1F
100
AcDbEntity
  8
0
  6
Continuous
 62
     7
370
    15
100
AcDbCircle
 10
395.5597145687
 20
747.1431718549
 30
0.0
 40
10.00000000000012
100
AcDbArc
 50
123.377942917
 51
236.622057083
  0
ARC
  5
165
330
1F
100
AcDbEntity
  8
0
  6
Continuous
 62
     7
370
    15
100
AcDbCircle
 10
395.5597145687
 20
747.1431718549
 30
0.0
 40
10.00000000000005
100
AcDbArc
 50
303.3779428933
 51
56.6220571067
  0
LINE
  5
166
330
1F
100
AcDbEntity
  8
0
  6
Continuous
 62
     8
370
    15
100
AcDbLine
 10
320.5597115885
 20
-14.106828173
 30
0.0
 11
260.5597092043
 21
-14.106828173
 31
0.0
  0
LINE
  5
167
330
1F
100
AcDbEntity
  8
0
  6
Continuous
 62
     8
370
    15
100
AcDbLine
 10
293.5597164761
 20
772.359441348
 30
0.0
 11
293.5597164761
 21
773.1594548902
 31
0.0
  0
LINE
  5
168
330
1F
100
AcDbEntity
  8
0
  6
Continuous
 62
     8
370
    15
100
AcDbLine
 10
275.5597172509
 20
770.8594904623
 30
0.0
 11
274.7597111593
 21
770.8594904623
 31
0.0
  0
LINE
  5
169
330
1F
100
AcDbEntity
  8
0
  6
Continuous
 62
     8
370
    15
100
AcDbLine
 10
277.0597128402
 20
772.359441348
 30
0.0
 11
277.0597128402
 21
773.1594548902
 31
0.0
  0
LINE
  5
16A
330
1F
100
AcDbEntity
  8
0
  6
Continuous
 62
     8
370
    15
100
AcDbLine
 10
514.0597162973
 20
772.359441348
 30
0.0
 11
514.0597162973
 21
773.1594548902
 31
0.0
  0
LINE
  5
16B
330
1F
100
AcDbEntity
  8
0
  6
Continuous
 62
     8
370
    15
100
AcDbLine
 10
497.5597126614
 20
773.1594548902
 30
0.0
 11
497.5597126614
 21
772.359441348
 31
0.0
  0
LINE
  5
16C
330
1F
100
AcDbEntity
  8
0
  6
Continuous
 62
     8
370
    15
100
AcDbLine
 10
515.5597118865
 20
770.8594904623
 30
0.0
 11
516.3597179781
 21
770.8594904623
 31
0.0
  0
LINE
  5
16D
330
1F
100
AcDbEntity
  8
0
  6
Continuous
 62
     8
370
    15
100
AcDbLine
 10
210.5597121845
 20
-115.7516433516
 30
0.0
 11
400.559714457
 21
-115.7516433516
 31
0.0
  0
LINE
  5
16E
330
1F
100
AcDbEntity
  8
0
  6
Continuous
 62
     8
370
    15
100
AcDbLine
 10
210.5597121845
 20
-112.6951171675
 30
0.0
 11
400.559714457
 21
-112.6951171675
 31
0.0
  0
LINE
  5
16F
330
1F
100
AcDbEntity
  8
0
  6
Continuous
 62
     8
370
    15
100
AcDbLine
 10
555.5597109925
 20
-41.76572027
 30
0.0
 11
235.559718145
 21
-41.76572027
 31
0.0
  0
LINE
  5
170
330
1F
100
AcDbEntity
  8
0
  6
Continuous
 62
     8
370
    15
100
AcDbLine
 10
595.559717549
 20
-97.3157181063
 30
0.0
 11
195.5597115885
 21
-97.3157181063
 31
0.0
  0
LINE
  5
171
330
1F
100
AcDbEntity
  8
0
  6
Continuous
 62
     8
370
    15
100
AcDbLine
 10
555.5597109925
 20
-35.2264537135
 30
0.0
 11
235.559718145
 21
-35.2264537135
 31
0.0
  0
LINE
  5
172
330
1F
100
AcDbEntity
  8
0
  6
Continuous
 62
     8
370
    15
100
AcDbLine
 10
324.5597122441
 20
-22.37776263
 30
0.0
 11
324.5597122441
 21
-0.3811136478
 31
0.0
  0
ARC
  5
173
330
1F
100
AcDbEntity
  8
0
  6
Continuous
 62
     8
370
    15
100
AcDbCircle
 10
316.5619466365
 20
-0.3811182556
 30
0.0
 40
7.997765607644416
100
AcDbArc
 50
0.0000330103
 51
29.4481861584
  0
LINE
  5
174
330
1F
100
AcDbEntity
  8
0
  6
Continuous
 62
     8
370
    15
100
AcDbLine
 10
265.6475467812
 20
7.6176685623
 30
0.0
 11
264.5597173105
 21
7.6176685623
 31
0.0
  0
ARC
  5
175
330
1F
100
AcDbEntity
  8
0
  6
Continuous
 62
     8
370
    15
100
AcDbCircle
 10
264.5591080326
 20
-0.3817234712
 30
0.0
 40
7.999392056645973
100
AcDbArc
 50
89.9956360368
 51
179.9956321297
  0
LINE
  5
176
330
1F
100
AcDbEntity
  8
0
  6
Continuous
 62
     8
370
    15
100
AcDbLine
 10
256.5597159992
 20
-0.3811136478
 30
0.0
 11
256.5597159992
 21
-22.37776263
 31
0.0
  0
ARC
  5
177
330
1F
100
AcDbEntity
  8
0
  6
Continuous
 62
     8
370
    15
100
AcDbCircle
 10
264.5591094981
 20
-22.3771513409
 30
0.0
 40
7.999393522230232
100
AcDbArc
 50
180.0043783675
 51
270.0043534659
  0
LINE
  5
178
330
1F
100
AcDbEntity
  8
0
  6
Continuous
 62
     8
370
    15
100
AcDbLine
 10
264.5597173105
 20
-30.37654484
 30
0.0
 11
316.5597109328
 21
-30.37654484
 31
0.0
  0
ARC
  5
179
330
1F
100
AcDbEntity
  8
0
  6
Continuous
 62
     8
370
    15
100
AcDbCircle
 10
316.560330468
 20
-22.3771630654
 30
0.0
 40
7.999381798586193
100
AcDbArc
 50
269.9955625632
 51
359.9957056034
  0
ARC
  5
17A
330
1F
100
AcDbEntity
  8
0
  6
Continuous
 62
     8
370
    15
100
AcDbCircle
 10
257.5594054704
 20
56.9696098105
 30
0.0
 40
57.35943566863152
100
AcDbArc
 50
269.0013694003
 51
272.9983423873
  0
LINE
  5
17B
330
1F
100
AcDbEntity
  8
0
  6
Continuous
 62
     8
370
    15
100
AcDbLine
 10
264.5597173105
 20
7.6176685623
 30
0.0
 11
264.5597173105
 21
3.6880870691
 31
0.0
  0
ARC
  5
17C
330
1F
100
AcDbEntity
  8
0
  6
Continuous
 62
     8
370
    15
100
AcDbCircle
 10
323.5600271411
 20
56.9701803055
 30
0.0
 40
57.36000600094744
100
AcDbArc
 50
267.0016756309
 51
270.9986163055
  0
ARC
  5
17D
330
1F
100
AcDbEntity
  8
0
  6
Continuous
 62
     8
370
    15
100
AcDbCircle
 10
257.5594208781
 20
34.9724600742
 30
0.0
 40
57.35893525914662
100
AcDbArc
 50
269.001345294
 51
272.9983531574
  0
ARC
  5
17E
330
1F
100
AcDbEntity
  8
0
  6
Continuous
 62
     8
370
    15
100
AcDbCircle
 10
323.5600117331
 20
34.9730305599
 30
0.0
 40
57.35950558202527
100
AcDbArc
 50
267.0016648608
 51
270.9986404117
  0
LINE
  5
17F
330
1F
100
AcDbEntity
  8
0
  6
Continuous
 62
     8
370
    15
100
AcDbLine
 10
264.5597173105
 20
-26.3073441231
 30
0.0
 11
264.5597173105
 21
-30.37654484
 31
0.0
  0
LINE
  5
180
330
1F
100
AcDbEntity
  8
0
  6
Continuous
 62
     8
370
    15
100
AcDbLine
 10
316.5597109328
 20
-26.3073441231
 30
0.0
 11
316.5597109328
 21
-30.37654484
 31
0.0
  0
LINE
  5
181
330
1F
100
AcDbEntity
  8
0
  6
Continuous
 62
     8
370
    15
100
AcDbLine
 10
316.5597109328
 20
-26.3073441231
 30
0.0
 11
264.5597173105
 21
-26.3073441231
 31
0.0
  0
LINE
  5
182
330
1F
100
AcDbEntity
  8
0
  6
Continuous
 62
     8
370
    15
100
AcDbLine
 10
264.5597173105
 20
-26.3073441231
 30
0.0
 11
264.5597173105
 21
-26.2375340456
 31
0.0
  0
LINE
  5
183
330
1F
100
AcDbEntity
  8
0
  6
Continuous
 62
     8
370
    15
100
AcDbLine
 10
316.5597109328
 20
-26.2375340456
 30
0.0
 11
316.5597109328
 21
-26.3073441231
 31
0.0
  0
LINE
  5
184
330
1F
100
AcDbEntity
  8
0
  6
Continuous
 62
     8
370
    15
100
AcDbLine
 10
559.80971588
 20
-41.76572027
 30
0.0
 11
559.80971588
 21
678.9342866621
 31
0.0
  0
LINE
  5
185
330
1F
100
AcDbEntity
  8
0
  6
Continuous
 62
     8
370
    15
100
AcDbLine
 10
553.309710158
 20
636.5946636877
 30
0.0
 11
553.309710158
 21
636.5597949705
 31
0.0
  0
LINE
  5
186
330
1F
100
AcDbEntity
  8
0
  6
Continuous
 62
     8
370
    15
100
AcDbLine
 10
553.309710158
 20
12.6548179767
 30
0.0
 11
553.309710158
 21
636.5597949705
 31
0.0
  0
LINE
  5
187
330
1F
100
AcDbEntity
  8
0
  6
Continuous
 62
     8
370
    15
100
AcDbLine
 10
231.3097132574
 20
-41.76572027
 30
0.0
 11
231.3097132574
 21
678.9342866621
 31
0.0
  0
LINE
  5
188
330
1F
100
AcDbEntity
  8
0
  6
Continuous
 62
     8
370
    15
100
AcDbLine
 10
237.8097189795
 20
12.6548179767
 30
0.0
 11
237.8097189795
 21
636.5597949705
 31
0.0
  0
LINE
  5
189
330
1F
100
AcDbEntity
  8
0
  6
Continuous
 62
     8
370
    15
100
AcDbLine
 10
237.8097189795
 20
636.5946636877
 30
0.0
 11
237.8097189795
 21
636.5597949705
 31
0.0
  0
LINE
  5
18A
330
1F
100
AcDbEntity
  8
0
  6
Continuous
 62
     8
370
    15
100
AcDbLine
 10
595.559717549
 20
719.9373946867
 30
0.0
 11
195.5597115885
 21
719.9373946867
 31
0.0
  0
LINE
  5
18B
330
1F
100
AcDbEntity
  8
0
  6
Continuous
 62
     8
370
    15
100
AcDbLine
 10
595.559717549
 20
786.4374027929
 30
0.0
 11
195.5597115885
 21
786.4374027929
 31
0.0
  0
LINE
  5
18C
330
1F
100
AcDbEntity
  8
0
  6
Continuous
 62
     8
370
    15
100
AcDbLine
 10
595.559717549
 20
713.4374485693
 30
0.0
 11
195.5597115885
 21
713.4374485693
 31
0.0
  0
LINE
  5
18D
330
1F
100
AcDbEntity
  8
0
  6
Continuous
 62
     8
370
    15
100
AcDbLine
 10
555.5597109925
 20
678.9342866621
 30
0.0
 11
235.559718145
 21
678.9342866621
 31
0.0
  0
LINE
  5
18E
330
1F
100
AcDbEntity
  8
0
  6
Continuous
 62
     8
370
    15
100
AcDbLine
 10
555.5597109925
 20
672.4735604009
 30
0.0
 11
235.559718145
 21
672.4735604009
 31
0.0
  0
LINE
  5
18F
330
1F
100
AcDbEntity
  8
0
  6
Continuous
 62
     8
370
    15
100
AcDbLine
 10
587.8988666664
 20
779.5291648588
 30
0.0
 11
587.8988666664
 21
782.0189700803
 31
0.0
  0
ARC
  5
190
330
1F
100
AcDbEntity
  8
0
  6
Continuous
 62
     8
370
    15
100
AcDbCircle
 10
587.8810259195
 20
780.0087399071
 30
0.0
 40
2.010309339809531
100
AcDbArc
 50
0.508056869
 51
89.4915146151
  0
ARC
  5
191
330
1F
100
AcDbEntity
  8
0
  6
Continuous
 62
     8
370
    15
100
AcDbCircle
 10
588.2536937455
 20
782.3469290847
 30
0.0
 40
2.840017163480669
100
AcDbArc
 50
262.8228039914
 51
305.2119703097
  0
LINE
  5
192
330
1F
100
AcDbEntity
  8
0
  6
Continuous
 62
     8
370
    15
100
AcDbLine
 10
583.4726406466
 20
782.0189700803
 30
0.0
 11
587.8988666664
 21
782.0189700803
 31
0.0
  0
LINE
  5
193
330
1F
100
AcDbEntity
  8
0
  6
Continuous
 62
     8
370
    15
100
AcDbLine
 10
587.8988666664
 20
779.5291648588
 30
0.0
 11
583.4726406466
 21
779.5291648588
 31
0.0
  0
LINE
  5
194
330
1F
100
AcDbEntity
  8
0
  6
Continuous
 62
     8
370
    15
100
AcDbLine
 10
583.4726406466
 20
782.0189700803
 30
0.0
 11
583.4726406466
 21
779.5291648588
 31
0.0
  0
ARC
  5
195
330
1F
100
AcDbEntity
  8
0
  6
Continuous
 62
     8
370
    15
100
AcDbCircle
 10
583.047125181
 20
782.0839580876
 30
0.0
 40
2.58998684423287
100
AcDbArc
 50
232.5952308335
 51
279.4561379954
  0
ARC
  5
196
330
1F
100
AcDbEntity
  8
0
  6
Continuous
 62
     8
370
    15
100
AcDbCircle
 10
583.4765582366
 20
780.0162475846
 30
0.0
 40
2.002726327365905
100
AcDbArc
 50
90.1120779792
 51
179.7048111596
  0
LINE
  5
197
330
1F
100
AcDbEntity
  8
0
  6
Continuous
 62
     8
370
    15
100
AcDbLine
 10
478.4726364742
 20
782.0189700803
 30
0.0
 11
482.6467944514
 21
782.0189700803
 31
0.0
  0
LINE
  5
198
330
1F
100
AcDbEntity
  8
0
  6
Continuous
 62
     8
370
    15
100
AcDbLine
 10
482.6467944514
 20
779.5291648588
 30
0.0
 11
482.6467944514
 21
782.0189700803
 31
0.0
  0
LINE
  5
199
330
1F
100
AcDbEntity
  8
0
  6
Continuous
 62
     8
370
    15
100
AcDbLine
 10
482.6467944514
 20
779.5291648588
 30
0.0
 11
478.4726364742
 21
779.5291648588
 31
0.0
  0
LINE
  5
19A
330
1F
100
AcDbEntity
  8
0
  6
Continuous
 62
     8
370
    15
100
AcDbLine
 10
478.4726364742
 20
782.0189700803
 30
0.0
 11
478.4726364742
 21
779.5291648588
 31
0.0
  0
ARC
  5
19B
330
1F
100
AcDbEntity
  8
0
  6
Continuous
 62
     8
370
    15
100
AcDbCircle
 10
482.6428619363
 20
780.0162326119
 30
0.0
 40
2.002741329361062
100
AcDbArc
 50
0.2956149861
 51
89.8874958751
  0
ARC
  5
19C
330
1F
100
AcDbEntity
  8
0
  6
Continuous
 62
     8
370
    15
100
AcDbCircle
 10
483.0723000363
 20
782.0839977923
 30
0.0
 40
2.590024386184513
100
AcDbArc
 50
260.5442219144
 51
307.4044092567
  0
ARC
  5
19D
330
1F
100
AcDbEntity
  8
0
  6
Continuous
 62
     8
370
    15
100
AcDbCircle
 10
478.0471284141
 20
782.0839878457
 30
0.0
 40
2.59001498140492
100
AcDbArc
 50
232.595500582
 51
279.455868247
  0
ARC
  5
19E
330
1F
100
AcDbEntity
  8
0
  6
Continuous
 62
     8
370
    15
100
AcDbCircle
 10
478.4765583318
 20
780.0162433035
 30
0.0
 40
2.002730616860201
100
AcDbArc
 50
90.1121998273
 51
179.7046893115
  0
LINE
  5
19F
330
1F
100
AcDbEntity
  8
0
  6
Continuous
 62
     8
370
    15
100
AcDbLine
 10
203.220562471
 20
782.0189700803
 30
0.0
 11
207.6467884909
 21
782.0189700803
 31
0.0
  0
LINE
  5
1A0
330
1F
100
AcDbEntity
  8
0
  6
Continuous
 62
     8
370
    15
100
AcDbLine
 10
207.6467884909
 20
779.5291648588
 30
0.0
 11
207.6467884909
 21
782.0189700803
 31
0.0
  0
LINE
  5
1A1
330
1F
100
AcDbEntity
  8
0
  6
Continuous
 62
     8
370
    15
100
AcDbLine
 10
207.6467884909
 20
779.5291648588
 30
0.0
 11
203.220562471
 21
779.5291648588
 31
0.0
  0
LINE
  5
1A2
330
1F
100
AcDbEntity
  8
0
  6
Continuous
 62
     8
370
    15
100
AcDbLine
 10
203.220562471
 20
782.0189700803
 30
0.0
 11
203.220562471
 21
779.5291648588
 31
0.0
  0
ARC
  5
1A3
330
1F
100
AcDbEntity
  8
0
  6
Continuous
 62
     8
370
    15
100
AcDbCircle
 10
202.8657353919
 20
782.3469290847
 30
0.0
 40
2.840017163480611
100
AcDbArc
 50
234.7880296903
 51
277.1771960086
  0
ARC
  5
1A4
330
1F
100
AcDbEntity
  8
0
  6
Continuous
 62
     8
370
    15
100
AcDbCircle
 10
203.2384032179
 20
780.0087399071
 30
0.0
 40
2.010309339809446
100
AcDbArc
 50
90.5084853849
 51
179.491943131
  0
LINE
  5
1A5
330
1F
100
AcDbEntity
  8
0
  6
Continuous
 62
     8
370
    15
100
AcDbLine
 10
393.4726334847
 20
782.0189700803
 30
0.0
 11
393.4726334847
 21
779.5291648588
 31
0.0
  0
ARC
  5
1A6
330
1F
100
AcDbEntity
  8
0
  6
Continuous
 62
     8
370
    15
100
AcDbCircle
 10
393.0471302205
 20
782.0840063816
 30
0.0
 40
2.590032477526393
100
AcDbArc
 50
232.5956694721
 51
279.4556962288
  0
ARC
  5
1A7
330
1F
100
AcDbEntity
  8
0
  6
Continuous
 62
     8
370
    15
100
AcDbCircle
 10
393.4765626989
 20
780.0162361573
 30
0.0
 40
2.002737777421832
100
AcDbArc
 50
90.1124098907
 51
179.7044859222
  0
LINE
  5
1A8
330
1F
100
AcDbEntity
  8
0
  6
Continuous
 62
     8
370
    15
100
AcDbLine
 10
397.6467956528
 20
779.5291648588
 30
0.0
 11
397.6467956528
 21
782.0189700803
 31
0.0
  0
ARC
  5
1A9
330
1F
100
AcDbEntity
  8
0
  6
Continuous
 62
     8
370
    15
100
AcDbCircle
 10
397.6428664386
 20
780.0162361573
 30
0.0
 40
2.002737777421833
100
AcDbArc
 50
0.2955140778
 51
89.8875901093
  0
ARC
  5
1AA
330
1F
100
AcDbEntity
  8
0
  6
Continuous
 62
     8
370
    15
100
AcDbCircle
 10
398.072298917
 20
782.0840063816
 30
0.0
 40
2.590032477526393
100
AcDbArc
 50
260.5443037712
 51
307.4043305279
  0
LINE
  5
1AB
330
1F
100
AcDbEntity
  8
0
  6
Continuous
 62
     8
370
    15
100
AcDbLine
 10
308.4726346861
 20
782.0189700803
 30
0.0
 11
308.4726346861
 21
779.5291648588
 31
0.0
  0
ARC
  5
1AC
330
1F
100
AcDbEntity
  8
0
  6
Continuous
 62
     8
370
    15
100
AcDbCircle
 10
308.0471291012
 20
782.0839977923
 30
0.0
 40
2.590024386184548
100
AcDbArc
 50
232.5955907433
 51
279.4557780856
  0
ARC
  5
1AD
330
1F
100
AcDbEntity
  8
0
  6
Continuous
 62
     8
370
    15
100
AcDbCircle
 10
308.4765672012
 20
780.0162326119
 30
0.0
 40
2.002741329361062
100
AcDbArc
 50
90.1125041249
 51
179.7043850139
  0
ARC
  5
1AE
330
1F
100
AcDbEntity
  8
0
  6
Continuous
 62
     8
370
    15
100
AcDbCircle
 10
207.6428709008
 20
780.0162475846
 30
0.0
 40
2.002726327365961
100
AcDbArc
 50
0.2951888404
 51
89.8879220208
  0
ARC
  5
1AF
330
1F
100
AcDbEntity
  8
0
  6
Continuous
 62
     8
370
    15
100
AcDbCircle
 10
208.0723039564
 20
782.0839580876
 30
0.0
 40
2.589986844233075
100
AcDbArc
 50
260.5438620046
 51
307.4047691665
  0
LINE
  5
1B0
330
1F
100
AcDbEntity
  8
0
  6
Continuous
 62
     8
370
    15
100
AcDbLine
 10
308.4726346861
 20
782.0189700803
 30
0.0
 11
312.6467926632
 21
782.0189700803
 31
0.0
  0
LINE
  5
1B1
330
1F
100
AcDbEntity
  8
0
  6
Continuous
 62
     8
370
    15
100
AcDbLine
 10
312.6467926632
 20
779.5291648588
 30
0.0
 11
312.6467926632
 21
782.0189700803
 31
0.0
  0
LINE
  5
1B2
330
1F
100
AcDbEntity
  8
0
  6
Continuous
 62
     8
370
    15
100
AcDbLine
 10
312.6467926632
 20
779.5291648588
 30
0.0
 11
308.4726346861
 21
779.5291648588
 31
0.0
  0
LINE
  5
1B3
330
1F
100
AcDbEntity
  8
0
  6
Continuous
 62
     8
370
    15
100
AcDbLine
 10
393.4726334847
 20
782.0189700803
 30
0.0
 11
397.6467956528
 21
782.0189700803
 31
0.0
  0
LINE
  5
1B4
330
1F
100
AcDbEntity
  8
0
  6
Continuous
 62
     8
370
    15
100
AcDbLine
 10
397.6467956528
 20
779.5291648588
 30
0.0
 11
393.4726334847
 21
779.5291648588
 31
0.0
  0
ARC
  5
1B5
330
1F
100
AcDbEntity
  8
0
  6
Continuous
 62
     8
370
    15
100
AcDbCircle
 10
312.6428708057
 20
780.0162433035
 30
0.0
 40
2.002730616860144
100
AcDbArc
 50
0.2953106885
 51
89.8878001727
  0
ARC
  5
1B6
330
1F
100
AcDbEntity
  8
0
  6
Continuous
 62
     8
370
    15
100
AcDbCircle
 10
313.0723007234
 20
782.0839878457
 30
0.0
 40
2.59001498140492
100
AcDbArc
 50
260.5441317531
 51
307.404499418
  0
LINE
  5
1B7
330
1F
100
AcDbEntity
  8
0
  6
Continuous
 62
     8
370
    15
100
AcDbLine
 10
589.1323698889
 20
724.6173725805
 30
0.0
 11
587.8988666664
 21
779.5291648588
 31
0.0
  0
LINE
  5
1B8
330
1F
100
AcDbEntity
  8
0
  6
Continuous
 62
     8
370
    15
100
AcDbLine
 10
589.8912562262
 20
780.0265656194
 30
0.0
 11
591.1247594486
 21
725.1147733411
 31
0.0
  0
ARC
  5
1B9
330
1F
100
AcDbEntity
  8
0
  6
Continuous
 62
     8
370
    15
100
AcDbCircle
 10
589.4872418416
 20
727.4349570606
 30
0.0
 40
2.839844433323335
100
AcDbArc
 50
262.8214526422
 51
305.2133216589
  0
LINE
  5
1BA
330
1F
100
AcDbEntity
  8
0
  6
Continuous
 62
     8
370
    15
100
AcDbLine
 10
199.9946696888
 20
725.1147733411
 30
0.0
 11
201.2281729113
 21
780.0265656194
 31
0.0
  0
LINE
  5
1BB
330
1F
100
AcDbEntity
  8
0
  6
Continuous
 62
     8
370
    15
100
AcDbLine
 10
203.220562471
 20
779.5291648588
 30
0.0
 11
201.9870592486
 21
724.6173725805
 31
0.0
  0
ARC
  5
1BC
330
1F
100
AcDbEntity
  8
0
  6
Continuous
 62
     8
370
    15
100
AcDbCircle
 10
201.6321872959
 20
727.4349570606
 30
0.0
 40
2.839844433323271
100
AcDbArc
 50
234.7866783411
 51
277.1785473578
  0
LINE
  5
1BD
330
1F
100
AcDbEntity
  8
0
  6
Continuous
 62
     8
370
    15
100
AcDbLine
 10
580.9815092217
 20
725.1147733411
 30
0.0
 11
581.4738584887
 21
780.0265656194
 31
0.0
  0
LINE
  5
1BE
330
1F
100
AcDbEntity
  8
0
  6
Continuous
 62
     8
370
    15
100
AcDbLine
 10
583.4726406466
 20
779.5291648588
 30
0.0
 11
582.9802913796
 21
724.6173725805
 31
0.0
  0
ARC
  5
1BF
330
1F
100
AcDbEntity
  8
0
  6
Continuous
 62
     8
370
    15
100
AcDbCircle
 10
582.5547808645
 20
727.1721857023
 30
0.0
 40
2.590005653639688
100
AcDbArc
 50
232.5954111582
 51
279.4559576707
  0
LINE
  5
1C0
330
1F
100
AcDbEntity
  8
0
  6
Continuous
 62
     8
370
    15
100
AcDbLine
 10
475.9815050493
 20
725.1147733411
 30
0.0
 11
476.4738543164
 21
780.0265656194
 31
0.0
  0
LINE
  5
1C1
330
1F
100
AcDbEntity
  8
0
  6
Continuous
 62
     8
370
    15
100
AcDbLine
 10
478.4726364742
 20
779.5291648588
 30
0.0
 11
477.9802872072
 21
724.6173725805
 31
0.0
  0
ARC
  5
1C2
330
1F
100
AcDbEntity
  8
0
  6
Continuous
 62
     8
370
    15
100
AcDbCircle
 10
477.5547816223
 20
727.172205514
 30
0.0
 40
2.590024386184548
100
AcDbArc
 50
232.5955907433
 51
279.4557780856
  0
LINE
  5
1C3
330
1F
100
AcDbEntity
  8
0
  6
Continuous
 62
     8
370
    15
100
AcDbLine
 10
483.1391437184
 20
724.6173725805
 30
0.0
 11
482.6467944514
 21
779.5291648588
 31
0.0
  0
LINE
  5
1C4
330
1F
100
AcDbEntity
  8
0
  6
Continuous
 62
     8
370
    15
100
AcDbLine
 10
484.6455766093
 20
780.0265656194
 30
0.0
 11
485.1379258763
 21
725.1147733411
 31
0.0
  0
ARC
  5
1C5
330
1F
100
AcDbEntity
  8
0
  6
Continuous
 62
     8
370
    15
100
AcDbCircle
 10
483.564644373
 20
727.1722253261
 30
0.0
 40
2.590043119115955
100
AcDbArc
 50
260.5444015003
 51
307.4042296708
  0
LINE
  5
1C6
330
1F
100
AcDbEntity
  8
0
  6
Continuous
 62
     8
370
    15
100
AcDbLine
 10
390.9815055523
 20
725.1147733411
 30
0.0
 11
391.4738515596
 21
780.0265656194
 31
0.0
  0
LINE
  5
1C7
330
1F
100
AcDbEntity
  8
0
  6
Continuous
 62
     8
370
    15
100
AcDbLine
 10
393.4726334847
 20
779.5291648588
 30
0.0
 11
392.9802870117
 21
724.6173725805
 31
0.0
  0
ARC
  5
1C8
330
1F
100
AcDbEntity
  8
0
  6
Continuous
 62
     8
370
    15
100
AcDbCircle
 10
392.554783793
 20
727.1722128136
 30
0.0
 40
2.590031197800096
100
AcDbArc
 50
232.595659523
 51
279.4556999217
  0
LINE
  5
1C9
330
1F
100
AcDbEntity
  8
0
  6
Continuous
 62
     8
370
    15
100
AcDbLine
 10
313.1391419302
 20
724.6173725805
 30
0.0
 11
312.6467926632
 21
779.5291648588
 31
0.0
  0
LINE
  5
1CA
330
1F
100
AcDbEntity
  8
0
  6
Continuous
 62
     8
370
    15
100
AcDbLine
 10
314.6455748211
 20
780.0265656194
 30
0.0
 11
315.1379240881
 21
725.1147733411
 31
0.0
  0
ARC
  5
1CB
330
1F
100
AcDbEntity
  8
0
  6
Continuous
 62
     8
370
    15
100
AcDbCircle
 10
313.5646475151
 20
727.172205514
 30
0.0
 40
2.590024386184513
100
AcDbArc
 50
260.5442219144
 51
307.4044092567
  0
LINE
  5
1CC
330
1F
100
AcDbEntity
  8
0
  6
Continuous
 62
     8
370
    15
100
AcDbLine
 10
398.1391421258
 20
724.6173725805
 30
0.0
 11
397.6467956528
 21
779.5291648588
 31
0.0
  0
LINE
  5
1CD
330
1F
100
AcDbEntity
  8
0
  6
Continuous
 62
     8
370
    15
100
AcDbLine
 10
399.6455775778
 20
780.0265656194
 30
0.0
 11
400.1379235852
 21
725.1147733411
 31
0.0
  0
ARC
  5
1CE
330
1F
100
AcDbEntity
  8
0
  6
Continuous
 62
     8
370
    15
100
AcDbCircle
 10
398.5646453444
 20
727.1722128136
 30
0.0
 40
2.590031197800105
100
AcDbArc
 50
260.5443000783
 51
307.404340477
  0
LINE
  5
1CF
330
1F
100
AcDbEntity
  8
0
  6
Continuous
 62
     8
370
    15
100
AcDbLine
 10
208.1391377579
 20
724.6173725805
 30
0.0
 11
207.6467884909
 21
779.5291648588
 31
0.0
  0
LINE
  5
1D0
330
1F
100
AcDbEntity
  8
0
  6
Continuous
 62
     8
370
    15
100
AcDbLine
 10
209.6455706488
 20
780.0265656194
 30
0.0
 11
210.1379199158
 21
725.1147733411
 31
0.0
  0
ARC
  5
1D1
330
1F
100
AcDbEntity
  8
0
  6
Continuous
 62
     8
370
    15
100
AcDbCircle
 10
208.564648273
 20
727.1721857023
 30
0.0
 40
2.590005653639465
100
AcDbArc
 50
260.5440423293
 51
307.4045888418
  0
LINE
  5
1D2
330
1F
100
AcDbEntity
  8
0
  6
Continuous
 62
     8
370
    15
100
AcDbLine
 10
305.9815032612
 20
725.1147733411
 30
0.0
 11
306.4738525282
 21
780.0265656194
 31
0.0
  0
LINE
  5
1D3
330
1F
100
AcDbEntity
  8
0
  6
Continuous
 62
     8
370
    15
100
AcDbLine
 10
308.4726346861
 20
779.5291648588
 30
0.0
 11
307.9802854191
 21
724.6173725805
 31
0.0
  0
ARC
  5
1D4
330
1F
100
AcDbEntity
  8
0
  6
Continuous
 62
     8
370
    15
100
AcDbCircle
 10
307.5547847644
 20
727.1722253261
 30
0.0
 40
2.590043119115955
100
AcDbArc
 50
232.5957703292
 51
279.4555984997
  0
LINE
  5
1D5
330
1F
100
AcDbEntity
  8
0
  6
Continuous
 62
     8
370
    15
100
AcDbLine
 10
582.9802913796
 20
724.6173725805
 30
0.0
 11
589.1323698889
 21
724.6173725805
 31
0.0
  0
LINE
  5
1D6
330
1F
100
AcDbEntity
  8
0
  6
Continuous
 62
     8
370
    15
100
AcDbLine
 10
477.9802872072
 20
724.6173725805
 30
0.0
 11
483.1391437184
 21
724.6173725805
 31
0.0
  0
LINE
  5
1D7
330
1F
100
AcDbEntity
  8
0
  6
Continuous
 62
     8
370
    15
100
AcDbLine
 10
392.9802870117
 20
724.6173725805
 30
0.0
 11
398.1391421258
 21
724.6173725805
 31
0.0
  0
LINE
  5
1D8
330
1F
100
AcDbEntity
  8
0
  6
Continuous
 62
     8
370
    15
100
AcDbLine
 10
201.9870592486
 20
724.6173725805
 30
0.0
 11
208.1391377579
 21
724.6173725805
 31
0.0
  0
LINE
  5
1D9
330
1F
100
AcDbEntity
  8
0
  6
Continuous
 62
     8
370
    15
100
AcDbLine
 10
307.9802854191
 20
724.6173725805
 30
0.0
 11
313.1391419302
 21
724.6173725805
 31
0.0
  0
LINE
  5
1DA
330
1F
100
AcDbEntity
  8
0
  6
Continuous
 62
     8
370
    15
100
AcDbLine
 10
594.0597219597
 20
784.1950164518
 30
0.0
 11
589.8912562262
 21
780.0265656194
 31
0.0
  0
LINE
  5
1DB
330
1F
100
AcDbEntity
  8
0
  6
Continuous
 62
     8
370
    15
100
AcDbLine
 10
587.8988666664
 20
782.0189700803
 30
0.0
 11
592.0673324
 21
786.1874209127
 31
0.0
  0
LINE
  5
1DC
330
1F
100
AcDbEntity
  8
0
  6
Continuous
 62
     8
370
    15
100
AcDbLine
 10
199.0520967375
 20
786.1874209127
 30
0.0
 11
203.220562471
 21
782.0189700803
 31
0.0
  0
LINE
  5
1DD
330
1F
100
AcDbEntity
  8
0
  6
Continuous
 62
     8
370
    15
100
AcDbLine
 10
201.2281729113
 20
780.0265656194
 30
0.0
 11
197.0597071778
 21
784.1950164518
 31
0.0
  0
LINE
  5
1DE
330
1F
100
AcDbEntity
  8
0
  6
Continuous
 62
     8
370
    15
100
AcDbLine
 10
581.4738584887
 20
780.0265656194
 30
0.0
 11
580.4925127159
 21
782.4851380071
 31
0.0
  0
ELLIPSE
  5
1DF
330
1F
100
AcDbEntity
  8
0
  6
Continuous
 62
     8
370
    15
100
AcDbEllipse
 10
582.4993422631
 20
782.4650059119
 30
0.0
 11
-0.7597615360951977
 21
1.903466686411093
 31
0.0
210
0.0
220
0.0
230
1.0
 40
0.975850931
 41
1.105278131771633
 42
1.18950289812446
  0
ELLIPSE
  5
1E0
330
1F
100
AcDbEntity
  8
0
  6
Continuous
 62
     8
370
    15
100
AcDbEllipse
 10
582.2688651844
 20
783.0424310912
 30
0.0
 11
1.112262432352963
 21
1.905223154642613
 31
0.0
210
0.0
220
0.0
230
1.0
 40
0.7275157428
 41
0.6762342302552322
 42
2.15976409445045
  0
LINE
  5
1E1
330
1F
100
AcDbEntity
  8
0
  6
Continuous
 62
     8
370
    15
100
AcDbLine
 10
582.2688652407
 20
785.0348458967
 30
0.0
 11
583.4726406466
 21
782.0189700803
 31
0.0
  0
LINE
  5
1E2
330
1F
100
AcDbEntity
  8
0
  6
Continuous
 62
     8
370
    15
100
AcDbLine
 10
476.4738543164
 20
780.0265656194
 30
0.0
 11
475.5060015451
 21
782.4514017782
 31
0.0
  0
ELLIPSE
  5
1E3
330
1F
100
AcDbEntity
  8
0
  6
Continuous
 62
     8
370
    15
100
AcDbEllipse
 10
477.5133105709
 20
782.4300104465
 30
0.0
 11
-0.7610715575460745
 21
1.906748745414802
 31
0.0
210
0.0
220
0.0
230
1.0
 40
0.974171213
 41
1.105278131771723
 42
1.189502898124573
  0
ELLIPSE
  5
1E4
330
1F
100
AcDbEntity
  8
0
  6
Continuous
 62
     8
370
    15
100
AcDbEllipse
 10
477.2688651844
 20
783.0424310912
 30
0.0
 11
1.109690935925073
 21
1.922939575916303
 31
0.0
210
0.0
220
0.0
230
1.0
 40
0.7129198498
 41
0.680483014895647
 42
2.164012879090913
  0
LINE
  5
1E5
330
1F
100
AcDbEntity
  8
0
  6
Continuous
 62
     8
370
    15
100
AcDbLine
 10
477.2688685189
 20
785.0348458967
 30
0.0
 11
478.4726364742
 21
782.0189700803
 31
0.0
  0
LINE
  5
1E6
330
1F
100
AcDbEntity
  8
0
  6
Continuous
 62
     8
370
    15
100
AcDbLine
 10
391.4738515596
 20
780.0265656194
 30
0.0
 11
390.505997857
 21
782.4514017782
 31
0.0
  0
ELLIPSE
  5
1E7
330
1F
100
AcDbEntity
  8
0
  6
Continuous
 62
     8
370
    15
100
AcDbEllipse
 10
392.5133105709
 20
782.4300104465
 30
0.0
 11
-0.7610715575461312
 21
1.906748745414802
 31
0.0
210
0.0
220
0.0
230
1.0
 40
0.974171213
 41
1.105278131771705
 42
1.189502898124552
  0
ELLIPSE
  5
1E8
330
1F
100
AcDbEntity
  8
0
  6
Continuous
 62
     8
370
    15
100
AcDbEllipse
 10
392.2688651844
 20
783.0424310912
 30
0.0
 11
1.109690935924959
 21
1.922939575916303
 31
0.0
210
0.0
220
0.0
230
1.0
 40
0.7129198498
 41
0.6804830148956167
 42
2.164012879090876
  0
LINE
  5
1E9
330
1F
100
AcDbEntity
  8
0
  6
Continuous
 62
     8
370
    15
100
AcDbLine
 10
392.2688652966
 20
785.0348458967
 30
0.0
 11
393.4726334847
 21
782.0189700803
 31
0.0
  0
LINE
  5
1EA
330
1F
100
AcDbEntity
  8
0
  6
Continuous
 62
     8
370
    15
100
AcDbLine
 10
306.4738525282
 20
780.0265656194
 30
0.0
 11
305.5059997569
 21
782.4514017782
 31
0.0
  0
ELLIPSE
  5
1EB
330
1F
100
AcDbEntity
  8
0
  6
Continuous
 62
     8
370
    15
100
AcDbEllipse
 10
307.5133105709
 20
782.4300104465
 30
0.0
 11
-0.7610715575460177
 21
1.906748745414802
 31
0.0
210
0.0
220
0.0
230
1.0
 40
0.974171213
 41
1.105278131771744
 42
1.189502898124595
  0
ELLIPSE
  5
1EC
330
1F
100
AcDbEntity
  8
0
  6
Continuous
 62
     8
370
    15
100
AcDbEllipse
 10
307.2688651844
 20
783.0424310912
 30
0.0
 11
1.109690935925073
 21
1.922939575916303
 31
0.0
210
0.0
220
0.0
230
1.0
 40
0.7129198498
 41
0.680483014895647
 42
2.164012879090913
  0
LINE
  5
1ED
330
1F
100
AcDbEntity
  8
0
  6
Continuous
 62
     8
370
    15
100
AcDbLine
 10
307.2688667308
 20
785.0348458967
 30
0.0
 11
308.4726346861
 21
782.0189700803
 31
0.0
  0
LINE
  5
1EE
330
1F
100
AcDbEntity
  8
0
  6
Continuous
 62
     8
370
    15
100
AcDbLine
 10
485.6134293805
 20
782.4514017782
 30
0.0
 11
484.6455766093
 21
780.0265656194
 31
0.0
  0
LINE
  5
1EF
330
1F
100
AcDbEntity
  8
0
  6
Continuous
 62
     8
370
    15
100
AcDbLine
 10
482.6467944514
 20
782.0189700803
 30
0.0
 11
483.8505624067
 21
785.0348458967
 31
0.0
  0
ELLIPSE
  5
1F0
330
1F
100
AcDbEntity
  8
0
  6
Continuous
 62
     8
370
    15
100
AcDbEllipse
 10
483.8505639496
 20
783.0424310912
 30
0.0
 11
-1.109690935925073
 21
1.922939575916303
 31
0.0
210
0.0
220
0.0
230
1.0
 40
0.7129198498
 41
4.119172428088694
 42
5.602702292283955
  0
ELLIPSE
  5
1F1
330
1F
100
AcDbEntity
  8
0
  6
Continuous
 62
     8
370
    15
100
AcDbEllipse
 10
483.6061185632
 20
782.4300104465
 30
0.0
 11
0.7610715575461312
 21
1.906748745414802
 31
0.0
210
0.0
220
0.0
230
1.0
 40
0.974171213
 41
5.093682409055048
 42
5.177907175407892
  0
LINE
  5
1F2
330
1F
100
AcDbEntity
  8
0
  6
Continuous
 62
     8
370
    15
100
AcDbLine
 10
315.6134275924
 20
782.4514017782
 30
0.0
 11
314.6455748211
 21
780.0265656194
 31
0.0
  0
LINE
  5
1F3
330
1F
100
AcDbEntity
  8
0
  6
Continuous
 62
     8
370
    15
100
AcDbLine
 10
312.6467926632
 20
782.0189700803
 30
0.0
 11
313.8505606185
 21
785.0348458967
 31
0.0
  0
ELLIPSE
  5
1F4
330
1F
100
AcDbEntity
  8
0
  6
Continuous
 62
     8
370
    15
100
AcDbEllipse
 10
313.8505639496
 20
783.0424310912
 30
0.0
 11
-1.109690935925073
 21
1.922939575916303
 31
0.0
210
0.0
220
0.0
230
1.0
 40
0.7129198498
 41
4.119172428088687
 42
5.602702292283955
  0
ELLIPSE
  5
1F5
330
1F
100
AcDbEntity
  8
0
  6
Continuous
 62
     8
370
    15
100
AcDbEllipse
 10
313.6061185632
 20
782.4300104465
 30
0.0
 11
0.7610715575461312
 21
1.906748745414802
 31
0.0
210
0.0
220
0.0
230
1.0
 40
0.974171213
 41
5.093682409055048
 42
5.177907175407896
  0
LINE
  5
1F6
330
1F
100
AcDbEntity
  8
0
  6
Continuous
 62
     8
370
    15
100
AcDbLine
 10
210.6269164215
 20
782.4851380071
 30
0.0
 11
209.6455706488
 21
780.0265656194
 31
0.0
  0
LINE
  5
1F7
330
1F
100
AcDbEntity
  8
0
  6
Continuous
 62
     8
370
    15
100
AcDbLine
 10
207.6467884909
 20
782.0189700803
 30
0.0
 11
208.8505638968
 21
785.0348458967
 31
0.0
  0
ELLIPSE
  5
1F8
330
1F
100
AcDbEntity
  8
0
  6
Continuous
 62
     8
370
    15
100
AcDbEllipse
 10
208.8505639496
 20
783.0424310912
 30
0.0
 11
-1.112262432352992
 21
1.905223154642613
 31
0.0
210
0.0
220
0.0
230
1.0
 40
0.7275157428
 41
4.123421212729137
 42
5.606951076924329
  0
ELLIPSE
  5
1F9
330
1F
100
AcDbEntity
  8
0
  6
Continuous
 62
     8
370
    15
100
AcDbEllipse
 10
208.620086871
 20
782.4650059119
 30
0.0
 11
0.7597615360951977
 21
1.903466686411093
 31
0.0
210
0.0
220
0.0
230
1.0
 40
0.975850931
 41
5.093682409055021
 42
5.177907175407957
  0
LINE
  5
1FA
330
1F
100
AcDbEntity
  8
0
  6
Continuous
 62
     8
370
    15
100
AcDbLine
 10
400.6134312804
 20
782.4514017782
 30
0.0
 11
399.6455775778
 21
780.0265656194
 31
0.0
  0
LINE
  5
1FB
330
1F
100
AcDbEntity
  8
0
  6
Continuous
 62
     8
370
    15
100
AcDbLine
 10
397.6467956528
 20
782.0189700803
 30
0.0
 11
398.8505638409
 21
785.0348458967
 31
0.0
  0
ELLIPSE
  5
1FC
330
1F
100
AcDbEntity
  8
0
  6
Continuous
 62
     8
370
    15
100
AcDbEllipse
 10
398.8505639496
 20
783.0424310912
 30
0.0
 11
-1.109690935924959
 21
1.922939575916303
 31
0.0
210
0.0
220
0.0
230
1.0
 40
0.7129198498
 41
4.119172428088716
 42
5.602702292284017
  0
ELLIPSE
  5
1FD
330
1F
100
AcDbEntity
  8
0
  6
Continuous
 62
     8
370
    15
100
AcDbEllipse
 10
398.6061185632
 20
782.4300104465
 30
0.0
 11
0.7610715575460745
 21
1.906748745414802
 31
0.0
210
0.0
220
0.0
230
1.0
 40
0.974171213
 41
5.093682409055027
 42
5.177907175407878
  0
LINE
  5
1FE
330
1F
100
AcDbEntity
  8
0
  6
Continuous
 62
     8
370
    15
100
AcDbLine
 10
591.1247594486
 20
725.1147733411
 30
0.0
 11
594.0597219597
 21
722.1798406324
 31
0.0
  0
LINE
  5
1FF
330
1F
100
AcDbEntity
  8
0
  6
Continuous
 62
     8
370
    15
100
AcDbLine
 10
398.8505638409
 20
785.0348458967
 30
0.0
 11
477.2688685189
 21
785.0348458967
 31
0.0
  0
LINE
  5
200
330
1F
100
AcDbEntity
  8
0
  6
Continuous
 62
     8
370
    15
100
AcDbLine
 10
313.8505606185
 20
785.0348458967
 30
0.0
 11
392.2688652966
 21
785.0348458967
 31
0.0
  0
LINE
  5
201
330
1F
100
AcDbEntity
  8
0
  6
Continuous
 62
     8
370
    15
100
AcDbLine
 10
208.8505638968
 20
785.0348458967
 30
0.0
 11
307.2688667308
 21
785.0348458967
 31
0.0
  0
LINE
  5
202
330
1F
100
AcDbEntity
  8
0
  6
Continuous
 62
     8
370
    15
100
AcDbLine
 10
483.8505624067
 20
785.0348458967
 30
0.0
 11
582.2688652407
 21
785.0348458967
 31
0.0
  0
LINE
  5
203
330
1F
100
AcDbEntity
  8
0
  6
Continuous
 62
     8
370
    15
100
AcDbLine
 10
197.0597071778
 20
722.1798406324
 30
0.0
 11
199.9946696888
 21
725.1147733411
 31
0.0
  0
SPLINE
  5
204
330
1F
100
AcDbEntity
  8
0
  6
Continuous
 62
     8
370
    15
100
AcDbSpline
210
0.0
220
0.0
230
1.0
 70
     8
 71
     3
 72
    20
 73
    16
 74
     0
 42
0.00000001
 43
0.00000001
 12
1.0
 22
0.0
 32
0.0
 13
1.0
 23
0.0
 33
0.0
 40
0.0
 40
0.0
 40
0.0
 40
0.0
 40
0.1417111463065684
 40
0.2832681240398301
 40
0.3506867848900755
 40
0.4177599740558267
 40
0.461259289785774
 40
0.4857325827605787
 40
0.5103270590728901
 40
0.5391533266524482
 40
0.5748145076712678
 40
0.6709078497848092
 40
0.767515389501048
 40
0.9142518809909491
 40
1.0
 40
1.0
 40
1.0
 40
1.0
 10
580.0581140648094
 20
761.4569173535881
 30
0.0
 10
580.1085658673142
 20
760.9311629469071
 30
0.0
 10
580.2094145854458
 20
759.8802261055384
 30
0.0
 10
580.3307061613316
 20
758.3176636717062
 30
0.0
 10
580.4225725094532
 20
756.8805746383423
 30
0.0
 10
580.4770890282628
 20
755.7290337438982
 30
0.0
 10
580.5112067713187
 20
754.6075841872026
 30
0.0
 10
580.5247268568321
 20
753.6643668656677
 30
0.0
 10
580.5257707090167
 20
752.7982353880791
 30
0.0
 10
580.5132366291948
 20
751.8757566957921
 30
0.0
 10
580.4744315236757
 20
750.5127770839679
 30
0.0
 10
580.4013970513246
 20
749.1181864864003
 30
0.0
 10
580.2868887856124
 20
747.4581412905133
 30
0.0
 10
580.1713083255765
 20
746.102055679598
 30
0.0
 10
580.0886143686544
 20
745.2370009267022
 30
0.0
 10
580.0581140648094
 20
744.9179397306023
 30
0.0
  0
LINE
  5
205
330
1F
100
AcDbEntity
  8
0
  6
Continuous
 62
     8
370
    15
100
AcDbLine
 10
580.14595641
 20
764.7963271818
 30
0.0
 11
580.0581140648
 21
764.5205364904
 31
0.0
  0
SPLINE
  5
206
330
1F
100
AcDbEntity
  8
0
  6
Continuous
 62
     8
370
    15
100
AcDbSpline
210
0.0
220
0.0
230
1.0
 70
     8
 71
     3
 72
    11
 73
     7
 74
     0
 42
0.00000001
 43
0.00000001
 12
1.0
 22
0.0
 32
0.0
 13
1.0
 23
0.0
 33
0.0
 40
0.0
 40
0.0
 40
0.0
 40
0.0
 40
0.1094853597792175
 40
0.5346669385372851
 40
0.8121000193515929
 40
0.9999999999999999
 40
0.9999999999999999
 40
0.9999999999999999
 40
0.9999999999999999
 10
580.3347839246956
 20
769.9258433064995
 30
0.0
 10
580.33091078226
 20
769.665527164594
 30
0.0
 10
580.3119964615444
 20
768.3942847361542
 30
0.0
 10
580.2674886537626
 20
766.6925694182067
 30
0.0
 10
580.2037537601865
 20
765.1924162687451
 30
0.0
 10
580.1625815962711
 20
764.9102606893879
 30
0.0
 10
580.1459564100471
 20
764.7963271817741
 30
0.0
  0
SPLINE
  5
207
330
1F
100
AcDbEntity
  8
0
  6
Continuous
 62
     8
370
    15
100
AcDbSpline
210
0.0
220
0.0
230
1.0
 70
     8
 71
     3
 72
     9
 73
     5
 74
     0
 42
0.00000001
 43
0.00000001
 12
1.0
 22
0.0
 32
0.0
 13
1.0
 23
0.0
 33
0.0
 40
0.0
 40
0.0
 40
0.0
 40
0.0
 40
0.327422254085388
 40
1.0
 40
1.0
 40
1.0
 40
1.0
 10
580.4601771961418
 20
777.0538435658989
 30
0.0
 10
580.4443440006614
 20
776.3081958756444
 30
0.0
 10
580.3959868860102
 20
774.0308684156118
 30
0.0
 10
580.359394888141
 20
771.5765579244318
 30
0.0
 10
580.3347839246956
 20
769.9258433064995
 30
0.0
  0
SPLINE
  5
208
330
1F
100
AcDbEntity
  8
0
  6
Continuous
 62
     8
370
    15
100
AcDbSpline
210
0.0
220
0.0
230
1.0
 70
     8
 71
     3
 72
    10
 73
     6
 74
     0
 42
0.00000001
 43
0.00000001
 12
1.0
 22
0.0
 32
0.0
 13
1.0
 23
0.0
 33
0.0
 40
0.0
 40
0.0
 40
0.0
 40
0.0
 40
0.2828214705461993
 40
0.6749425004750822
 40
1.0
 40
1.0
 40
1.0
 40
1.0
 10
580.4925127159324
 20
780.4250226697502
 30
0.0
 10
580.4919746453426
 20
780.091972840864
 30
0.0
 10
580.4906905606913
 20
779.2971623059454
 30
0.0
 10
580.4801534484728
 20
778.1421707343263
 30
0.0
 10
580.4664074841495
 20
777.3932761878748
 30
0.0
 10
580.4601771961418
 20
777.0538435658989
 30
0.0
  0
LINE
  5
209
330
1F
100
AcDbEntity
  8
0
  6
Continuous
 62
     8
370
    15
100
AcDbLine
 10
580.4925127159
 20
782.4851380071
 30
0.0
 11
580.4925127159
 21
780.4250226698
 31
0.0
  0
LINE
  5
20A
330
1F
100
AcDbEntity
  8
0
  6
Continuous
 62
     8
370
    15
100
AcDbLine
 10
580.4925127159
 20
723.8896594724
 30
0.0
 11
580.9815092217
 21
725.1147733411
 31
0.0
  0
LINE
  5
20B
330
1F
100
AcDbEntity
  8
0
  6
Continuous
 62
     8
370
    15
100
AcDbLine
 10
580.4925127159
 20
725.9497748098
 30
0.0
 11
580.4925127159
 21
723.8896594724
 31
0.0
  0
SPLINE
  5
20C
330
1F
100
AcDbEntity
  8
0
  6
Continuous
 62
     8
370
    15
100
AcDbSpline
210
0.0
220
0.0
230
1.0
 70
     8
 71
     3
 72
    10
 73
     6
 74
     0
 42
0.00000001
 43
0.00000001
 12
1.0
 22
0.0
 32
0.0
 13
1.0
 23
0.0
 33
0.0
 40
0.0
 40
0.0
 40
0.0
 40
0.0
 40
0.3250516877239053
 40
0.7169287346475004
 40
1.0
 40
1.0
 40
1.0
 40
1.0
 10
580.4601771961418
 20
729.3210135182915
 30
0.0
 10
580.4664069817611
 20
728.9815807328661
 30
0.0
 10
580.4801472959632
 20
728.2329332821882
 30
0.0
 10
580.4906961291567
 20
727.0779604857611
 30
0.0
 10
580.4919759591382
 20
726.2831259795479
 30
0.0
 10
580.4925127159324
 20
725.9497748097954
 30
0.0
  0
SPLINE
  5
20D
330
1F
100
AcDbEntity
  8
0
  6
Continuous
 62
     8
370
    15
100
AcDbSpline
210
0.0
220
0.0
230
1.0
 70
     8
 71
     3
 72
     9
 73
     5
 74
     0
 42
0.00000001
 43
0.00000001
 12
1.0
 22
0.0
 32
0.0
 13
1.0
 23
0.0
 33
0.0
 40
0.0
 40
0.0
 40
0.0
 40
0.0
 40
0.5030402455105291
 40
1.0
 40
1.0
 40
1.0
 40
1.0
 10
580.3347839246956
 20
736.4490137776909
 30
0.0
 10
580.3527644990427
 20
735.2097295128976
 30
0.0
 10
580.3885083078286
 20
732.7461408122841
 30
0.0
 10
580.4363846038334
 20
730.4580851155829
 30
0.0
 10
580.4601771961418
 20
729.3210135182915
 30
0.0
  0
SPLINE
  5
20E
330
1F
100
AcDbEntity
  8
0
  6
Continuous
 62
     8
370
    15
100
AcDbSpline
210
0.0
220
0.0
230
1.0
 70
     8
 71
     3
 72
    11
 73
     7
 74
     0
 42
0.00000001
 43
0.00000001
 12
1.0
 22
0.0
 32
0.0
 13
1.0
 23
0.0
 33
0.0
 40
0.0
 40
0.0
 40
0.0
 40
0.0
 40
0.0700444948475123
 40
0.2640860874845031
 40
0.5676730279422393
 40
1.0
 40
1.0
 40
1.0
 40
1.0
 10
580.1459564100471
 20
741.5785299024162
 30
0.0
 10
580.1522086221098
 20
741.5507275328322
 30
0.0
 10
580.1757810987954
 20
741.4459053191484
 30
0.0
 10
580.2224740042792
 20
740.7786294199536
 30
0.0
 10
580.2862687006508
 20
739.1586076591328
 30
0.0
 10
580.3168300590271
 20
737.4517440653727
 30
0.0
 10
580.3347839246956
 20
736.4490137776909
 30
0.0
  0
LINE
  5
20F
330
1F
100
AcDbEntity
  8
0
  6
Continuous
 62
     8
370
    15
100
AcDbLine
 10
580.0581140648
 20
741.8543205938
 30
0.0
 11
580.14595641
 21
741.5785299024
 31
0.0
  0
SPLINE
  5
210
330
1F
100
AcDbEntity
  8
0
  6
Continuous
 62
     8
370
    15
100
AcDbSpline
210
0.0
220
0.0
230
1.0
 70
     8
 71
     3
 72
     9
 73
     5
 74
     0
 42
0.00000001
 43
0.00000001
 12
1.0
 22
0.0
 32
0.0
 13
1.0
 23
0.0
 33
0.0
 40
0.0
 40
0.0
 40
0.0
 40
0.0
 40
0.6725777459146121
 40
1.0
 40
1.0
 40
1.0
 40
1.0
 10
210.7846452127662
 20
769.9258433064995
 30
0.0
 10
210.7600342493208
 20
771.576557924432
 30
0.0
 10
210.7234422514516
 20
774.0308684156121
 30
0.0
 10
210.6750851368002
 20
776.3081958756444
 30
0.0
 10
210.65925194132
 20
777.0538435658989
 30
0.0
  0
SPLINE
  5
211
330
1F
100
AcDbEntity
  8
0
  6
Continuous
 62
     8
370
    15
100
AcDbSpline
210
0.0
220
0.0
230
1.0
 70
     8
 71
     3
 72
    11
 73
     7
 74
     0
 42
0.00000001
 43
0.00000001
 12
1.0
 22
0.0
 32
0.0
 13
1.0
 23
0.0
 33
0.0
 40
0.0
 40
0.0
 40
0.0
 40
0.0
 40
0.0700444948475123
 40
0.2640860874845031
 40
0.5676730279422393
 40
1.0
 40
1.0
 40
1.0
 40
1.0
 10
210.9734727274146
 20
764.7963271817741
 30
0.0
 10
210.967220515352
 20
764.8241295513583
 30
0.0
 10
210.9436480386663
 20
764.9289517650421
 30
0.0
 10
210.8969551331825
 20
765.5962276642358
 30
0.0
 10
210.8331604368109
 20
767.2162494250576
 30
0.0
 10
210.8025990784346
 20
768.9231130188174
 30
0.0
 10
210.7846452127662
 20
769.9258433064995
 30
0.0
  0
LINE
  5
212
330
1F
100
AcDbEntity
  8
0
  6
Continuous
 62
     8
370
    15
100
AcDbLine
 10
211.0613150727
 20
764.5205364904
 30
0.0
 11
210.9734727274
 21
764.7963271818
 31
0.0
  0
SPLINE
  5
213
330
1F
100
AcDbEntity
  8
0
  6
Continuous
 62
     8
370
    15
100
AcDbSpline
210
0.0
220
0.0
230
1.0
 70
     8
 71
     3
 72
    20
 73
    16
 74
     0
 42
0.00000001
 43
0.00000001
 12
1.0
 22
0.0
 32
0.0
 13
1.0
 23
0.0
 33
0.0
 40
0.0
 40
0.0
 40
0.0
 40
0.0
 40
0.0857481190090509
 40
0.2324846104989519
 40
0.3290921502151907
 40
0.4251854923287322
 40
0.4608466733475519
 40
0.4896729409271099
 40
0.5142674172394213
 40
0.5387407102142261
 40
0.5822400259441733
 40
0.6493132151099245
 40
0.71673187596017
 40
0.8582888536934317
 40
1.0
 40
1.0
 40
1.0
 40
1.0
 10
211.0613150726524
 20
744.9179397306023
 30
0.0
 10
211.0308147688074
 20
745.2370009267024
 30
0.0
 10
210.9481208118852
 20
746.1020556795983
 30
0.0
 10
210.8325403518494
 20
747.4581412905133
 30
0.0
 10
210.7180320861371
 20
749.1181864864005
 30
0.0
 10
210.6449976137861
 20
750.5127770839676
 30
0.0
 10
210.6061925082669
 20
751.8757566957919
 30
0.0
 10
210.5936584284451
 20
752.7982353880789
 30
0.0
 10
210.5947022806296
 20
753.6643668656677
 30
0.0
 10
210.608222366143
 20
754.6075841872024
 30
0.0
 10
210.6423401091989
 20
755.7290337438984
 30
0.0
 10
210.6968566280086
 20
756.8805746383421
 30
0.0
 10
210.7887229761301
 20
758.3176636717064
 30
0.0
 10
210.9100145520161
 20
759.8802261055384
 30
0.0
 10
211.0108632701476
 20
760.9311629469071
 30
0.0
 10
211.0613150726524
 20
761.4569173535881
 30
0.0
  0
LINE
  5
214
330
1F
100
AcDbEntity
  8
0
  6
Continuous
 62
     8
370
    15
100
AcDbLine
 10
210.9734727274
 20
741.5785299024
 30
0.0
 11
211.0613150727
 21
741.8543205938
 31
0.0
  0
SPLINE
  5
215
330
1F
100
AcDbEntity
  8
0
  6
Continuous
 62
     8
370
    15
100
AcDbSpline
210
0.0
220
0.0
230
1.0
 70
     8
 71
     3
 72
    11
 73
     7
 74
     0
 42
0.00000001
 43
0.00000001
 12
1.0
 22
0.0
 32
0.0
 13
1.0
 23
0.0
 33
0.0
 40
0.0
 40
0.0
 40
0.0
 40
0.0
 40
0.1094853597792175
 40
0.5346669385372851
 40
0.8121000193515929
 40
0.9999999999999999
 40
0.9999999999999999
 40
0.9999999999999999
 40
0.9999999999999999
 10
210.7846452127662
 20
736.4490137776909
 30
0.0
 10
210.7885183552017
 20
736.7093299195961
 30
0.0
 10
210.8074326759173
 20
737.9805723480353
 30
0.0
 10
210.8519404836991
 20
739.6822876659838
 30
0.0
 10
210.9156753772752
 20
741.1824408154448
 30
0.0
 10
210.9568475411907
 20
741.4645963948024
 30
0.0
 10
210.9734727274146
 20
741.5785299024162
 30
0.0
  0
SPLINE
  5
216
330
1F
100
AcDbEntity
  8
0
  6
Continuous
 62
     8
370
    15
100
AcDbSpline
210
0.0
220
0.0
230
1.0
 70
     8
 71
     3
 72
     9
 73
     5
 74
     0
 42
0.00000001
 43
0.00000001
 12
1.0
 22
0.0
 32
0.0
 13
1.0
 23
0.0
 33
0.0
 40
0.0
 40
0.0
 40
0.0
 40
0.0
 40
0.327422254085388
 40
1.0
 40
1.0
 40
1.0
 40
1.0
 10
210.65925194132
 20
729.3210135182915
 30
0.0
 10
210.6750851368002
 20
730.0666612085456
 30
0.0
 10
210.7234422514516
 20
732.3439886685783
 30
0.0
 10
210.7600342493209
 20
734.7982991597584
 30
0.0
 10
210.7846452127662
 20
736.4490137776909
 30
0.0
  0
SPLINE
  5
217
330
1F
100
AcDbEntity
  8
0
  6
Continuous
 62
     8
370
    15
100
AcDbSpline
210
0.0
220
0.0
230
1.0
 70
     8
 71
     3
 72
    10
 73
     6
 74
     0
 42
0.00000001
 43
0.00000001
 12
1.0
 22
0.0
 32
0.0
 13
1.0
 23
0.0
 33
0.0
 40
0.0
 40
0.0
 40
0.0
 40
0.0
 40
0.1356348325088674
 40
0.6770555574973145
 40
1.0
 40
1.0
 40
1.0
 40
1.0
 10
210.6269164215293
 20
725.9497748097954
 30
0.0
 10
210.6270434063478
 20
726.1092632740656
 30
0.0
 10
210.6276772831731
 20
726.9053902651452
 30
0.0
 10
210.6365295142384
 20
728.0827545374698
 30
0.0
 10
210.6530715133302
 20
728.984211008761
 30
0.0
 10
210.65925194132
 20
729.3210135182915
 30
0.0
  0
LINE
  5
218
330
1F
100
AcDbEntity
  8
0
  6
Continuous
 62
     8
370
    15
100
AcDbLine
 10
210.6269164215
 20
723.8896594724
 30
0.0
 11
210.6269164215
 21
725.9497748098
 31
0.0
  0
LINE
  5
219
330
1F
100
AcDbEntity
  8
0
  6
Continuous
 62
     8
370
    15
100
AcDbLine
 10
210.1379199158
 20
725.1147733411
 30
0.0
 11
210.6269164215
 21
723.8896594724
 31
0.0
  0
LINE
  5
21A
330
1F
100
AcDbEntity
  8
0
  6
Continuous
 62
     8
370
    15
100
AcDbLine
 10
210.6269164215
 20
780.4250226698
 30
0.0
 11
210.6269164215
 21
782.4851380071
 31
0.0
  0
SPLINE
  5
21B
330
1F
100
AcDbEntity
  8
0
  6
Continuous
 62
     8
370
    15
100
AcDbSpline
210
0.0
220
0.0
230
1.0
 70
     8
 71
     3
 72
     9
 73
     5
 74
     0
 42
0.00000001
 43
0.00000001
 12
1.0
 22
0.0
 32
0.0
 13
1.0
 23
0.0
 33
0.0
 40
0.0
 40
0.0
 40
0.0
 40
0.0
 40
0.3235281221370455
 40
1.0
 40
1.0
 40
1.0
 40
1.0
 10
210.65925194132
 20
777.0538435658989
 30
0.0
 10
210.6529400735585
 20
777.3909490249524
 30
0.0
 10
210.6334305863465
 20
778.4329155063418
 30
0.0
 10
210.6295449471639
 20
779.6211890406092
 30
0.0
 10
210.6269164215293
 20
780.4250226697502
 30
0.0
  0
LINE
  5
21C
330
1F
100
AcDbEntity
  8
0
  6
Continuous
 62
     8
370
    15
100
AcDbLine
 10
475.5060015451
 20
723.923455306
 30
0.0
 11
475.9815050493
 21
725.1147733411
 31
0.0
  0
LINE
  5
21D
330
1F
100
AcDbEntity
  8
0
  6
Continuous
 62
     8
370
    15
100
AcDbLine
 10
475.5060015451
 20
725.7902131757
 30
0.0
 11
475.5060015451
 21
723.923455306
 31
0.0
  0
SPLINE
  5
21E
330
1F
100
AcDbEntity
  8
0
  6
Continuous
 62
     8
370
    15
100
AcDbSpline
210
0.0
220
0.0
230
1.0
 70
     8
 71
     3
 72
     9
 73
     5
 74
     0
 42
0.00000001
 43
0.00000001
 12
1.0
 22
0.0
 32
0.0
 13
1.0
 23
0.0
 33
0.0
 40
0.0
 40
0.0
 40
0.0
 40
0.0
 40
0.5053069551089927
 40
1.0
 40
1.0
 40
1.0
 40
1.0
 10
475.4513738881316
 20
730.2007184705315
 30
0.0
 10
475.4672501574011
 20
729.5253277143994
 30
0.0
 10
475.4986692168636
 20
728.188732701599
 30
0.0
 10
475.5035747914428
 20
726.5840423378713
 30
0.0
 10
475.5060015450683
 20
725.7902131757317
 30
0.0
  0
SPLINE
  5
21F
330
1F
100
AcDbEntity
  8
0
  6
Continuous
 62
     8
370
    15
100
AcDbSpline
210
0.0
220
0.0
230
1.0
 70
     8
 71
     3
 72
     9
 73
     5
 74
     0
 42
0.00000001
 43
0.00000001
 12
1.0
 22
0.0
 32
0.0
 13
1.0
 23
0.0
 33
0.0
 40
0.0
 40
0.0
 40
0.0
 40
0.0
 40
0.5000072743076248
 40
0.9999999999999999
 40
0.9999999999999999
 40
0.9999999999999999
 40
0.9999999999999999
 10
475.3378344904151
 20
734.2221842488823
 30
0.0
 10
475.3567259204358
 20
733.5511848616036
 30
0.0
 10
475.3945082307969
 20
732.2092056109859
 30
0.0
 10
475.4324188528691
 20
730.8702076904942
 30
0.0
 10
475.4513738881316
 20
730.2007184705315
 30
0.0
  0
SPLINE
  5
220
330
1F
100
AcDbEntity
  8
0
  6
Continuous
 62
     8
370
    15
100
AcDbSpline
210
0.0
220
0.0
230
1.0
 70
     8
 71
     3
 72
    10
 73
     6
 74
     0
 42
0.00000001
 43
0.00000001
 12
1.0
 22
0.0
 32
0.0
 13
1.0
 23
0.0
 33
0.0
 40
0.0
 40
0.0
 40
0.0
 40
0.0
 40
0.163327688691824
 40
0.5816577418298814
 40
1.0
 40
1.0
 40
1.0
 40
1.0
 10
475.1687584649291
 20
736.8033633908806
 30
0.0
 10
475.179337815695
 20
736.7642069771938
 30
0.0
 10
475.2170139827048
 20
736.62475951825
 30
0.0
 10
475.2798692597715
 20
735.9103930659809
 30
0.0
 10
475.3185125589631
 20
734.7849259938655
 30
0.0
 10
475.3378344904151
 20
734.2221842488823
 30
0.0
  0
LINE
  5
221
330
1F
100
AcDbEntity
  8
0
  6
Continuous
 62
     8
370
    15
100
AcDbLine
 10
475.0581247936
 20
737.0790944776
 30
0.0
 11
475.1687584649
 21
736.8033633909
 31
0.0
  0
LINE
  5
222
330
1F
100
AcDbEntity
  8
0
  6
Continuous
 62
     8
370
    15
100
AcDbLine
 10
475.1687584649
 20
769.5714936933
 30
0.0
 11
475.0581247936
 21
769.2957626066
 31
0.0
  0
SPLINE
  5
223
330
1F
100
AcDbEntity
  8
0
  6
Continuous
 62
     8
370
    15
100
AcDbSpline
210
0.0
220
0.0
230
1.0
 70
     8
 71
     3
 72
    10
 73
     6
 74
     0
 42
0.00000001
 43
0.00000001
 12
1.0
 22
0.0
 32
0.0
 13
1.0
 23
0.0
 33
0.0
 40
0.0
 40
0.0
 40
0.0
 40
0.0
 40
0.1629148619988669
 40
0.5814611355727014
 40
1.0
 40
1.0
 40
1.0
 40
1.0
 10
475.3378344904151
 20
772.1526728353081
 30
0.0
 10
475.3308206260163
 20
771.9234312458278
 30
0.0
 10
475.3057873693317
 20
771.1052426944325
 30
0.0
 10
475.2500286822118
 20
770.0090396613939
 30
0.0
 10
475.1958483775045
 20
769.7173414887186
 30
0.0
 10
475.1687584649291
 20
769.5714936933098
 30
0.0
  0
SPLINE
  5
224
330
1F
100
AcDbEntity
  8
0
  6
Continuous
 62
     8
370
    15
100
AcDbSpline
210
0.0
220
0.0
230
1.0
 70
     8
 71
     3
 72
     9
 73
     5
 74
     0
 42
0.00000001
 43
0.00000001
 12
1.0
 22
0.0
 32
0.0
 13
1.0
 23
0.0
 33
0.0
 40
0.0
 40
0.0
 40
0.0
 40
0.0
 40
0.499992725692375
 40
0.9999999999999999
 40
0.9999999999999999
 40
0.9999999999999999
 40
0.9999999999999999
 10
475.4513738881316
 20
776.1741386136589
 30
0.0
 10
475.4324188528691
 20
775.5046493936957
 30
0.0
 10
475.3945082307968
 20
774.1656514732041
 30
0.0
 10
475.3567259204358
 20
772.8236722225868
 30
0.0
 10
475.3378344904151
 20
772.1526728353081
 30
0.0
  0
SPLINE
  5
225
330
1F
100
AcDbEntity
  8
0
  6
Continuous
 62
     8
370
    15
100
AcDbSpline
210
0.0
220
0.0
230
1.0
 70
     8
 71
     3
 72
     9
 73
     5
 74
     0
 42
0.00000001
 43
0.00000001
 12
1.0
 22
0.0
 32
0.0
 13
1.0
 23
0.0
 33
0.0
 40
0.0
 40
0.0
 40
0.0
 40
0.0
 40
0.4999395272142312
 40
1.0
 40
1.0
 40
1.0
 40
1.0
 10
475.5060015450683
 20
780.5846439084587
 30
0.0
 10
475.5035231422755
 20
779.7822866319639
 30
0.0
 10
475.4985657371136
 20
778.1773779723788
 30
0.0
 10
475.4671057727734
 20
776.8419389050458
 30
0.0
 10
475.4513738881316
 20
776.1741386136589
 30
0.0
  0
LINE
  5
226
330
1F
100
AcDbEntity
  8
0
  6
Continuous
 62
     8
370
    15
100
AcDbLine
 10
475.5060015451
 20
782.4514017782
 30
0.0
 11
475.5060015451
 21
780.5846439085
 31
0.0
  0
SPLINE
  5
227
330
1F
100
AcDbEntity
  8
0
  6
Continuous
 62
     8
370
    15
100
AcDbSpline
210
0.0
220
0.0
230
1.0
 70
     8
 71
     3
 72
     9
 73
     5
 74
     0
 42
0.00000001
 43
0.00000001
 12
1.0
 22
0.0
 32
0.0
 13
1.0
 23
0.0
 33
0.0
 40
0.0
 40
0.0
 40
0.0
 40
0.0
 40
0.4999981738241494
 40
1.0
 40
1.0
 40
1.0
 40
1.0
 10
485.7803223859038
 20
771.970103808361
 30
0.0
 10
485.7611048196692
 20
772.6883857874343
 30
0.0
 10
485.7226695468208
 20
774.1249549924368
 30
0.0
 10
485.6839962778345
 20
775.5562036726349
 30
0.0
 10
485.6646595727172
 20
776.2718306264458
 30
0.0
  0
SPLINE
  5
228
330
1F
100
AcDbEntity
  8
0
  6
Continuous
 62
     8
370
    15
100
AcDbSpline
210
0.0
220
0.0
230
1.0
 70
     8
 71
     3
 72
    10
 73
     6
 74
     0
 42
0.00000001
 43
0.00000001
 12
1.0
 22
0.0
 32
0.0
 13
1.0
 23
0.0
 33
0.0
 40
0.0
 40
0.0
 40
0.0
 40
0.0
 40
0.1874614319397234
 40
0.5937319541455048
 40
1.0
 40
1.0
 40
1.0
 40
1.0
 10
485.9531833063331
 20
769.2468271932182
 30
0.0
 10
485.9406691610955
 20
769.2961035446231
 30
0.0
 10
485.9010340861391
 20
769.4521726843395
 30
0.0
 10
485.8369041567382
 20
770.2385335959418
 30
0.0
 10
485.7991829378614
 20
771.3929149102798
 30
0.0
 10
485.7803223859039
 20
771.970103808361
 30
0.0
  0
LINE
  5
229
330
1F
100
AcDbEntity
  8
0
  6
Continuous
 62
     8
370
    15
100
AcDbLine
 10
486.061306132
 20
768.9740763387
 30
0.0
 11
485.9531833063
 21
769.2468271932
 31
0.0
  0
LINE
  5
22A
330
1F
100
AcDbEntity
  8
0
  6
Continuous
 62
     8
370
    15
100
AcDbLine
 10
485.9531833063
 20
737.128029891
 30
0.0
 11
486.061306132
 21
737.4007807455
 31
0.0
  0
SPLINE
  5
22B
330
1F
100
AcDbEntity
  8
0
  6
Continuous
 62
     8
370
    15
100
AcDbSpline
210
0.0
220
0.0
230
1.0
 70
     8
 71
     3
 72
    10
 73
     6
 74
     0
 42
0.00000001
 43
0.00000001
 12
1.0
 22
0.0
 32
0.0
 13
1.0
 23
0.0
 33
0.0
 40
0.0
 40
0.0
 40
0.0
 40
0.0
 40
0.1873523101203272
 40
0.5936746206745733
 40
1.0
 40
1.0
 40
1.0
 40
1.0
 10
485.7803223859038
 20
734.4046936711845
 30
0.0
 10
485.7884721765561
 20
734.6809716929603
 30
0.0
 10
485.8142969121623
 20
735.5564306060269
 30
0.0
 10
485.8718424080483
 20
736.6867749710016
 30
0.0
 10
485.9260696053128
 20
736.9809445473614
 30
0.0
 10
485.9531833063331
 20
737.1280298909721
 30
0.0
  0
SPLINE
  5
22C
330
1F
100
AcDbEntity
  8
0
  6
Continuous
 62
     8
370
    15
100
AcDbSpline
210
0.0
220
0.0
230
1.0
 70
     8
 71
     3
 72
     9
 73
     5
 74
     0
 42
0.00000001
 43
0.00000001
 12
1.0
 22
0.0
 32
0.0
 13
1.0
 23
0.0
 33
0.0
 40
0.0
 40
0.0
 40
0.0
 40
0.0
 40
0.5000061791661975
 40
1.0
 40
1.0
 40
1.0
 40
1.0
 10
485.6646595727172
 20
730.1030264577446
 30
0.0
 10
485.6839961942646
 20
730.8186552501002
 30
0.0
 10
485.7226689594285
 20
732.2498951470726
 30
0.0
 10
485.7611047354128
 20
733.6864334142197
 30
0.0
 10
485.7803223859038
 20
734.4046936711845
 30
0.0
  0
SPLINE
  5
22D
330
1F
100
AcDbEntity
  8
0
  6
Continuous
 62
     8
370
    15
100
AcDbSpline
210
0.0
220
0.0
230
1.0
 70
     8
 71
     3
 72
     9
 73
     5
 74
     0
 42
0.00000001
 43
0.00000001
 12
1.0
 22
0.0
 32
0.0
 13
1.0
 23
0.0
 33
0.0
 40
0.0
 40
0.0
 40
0.0
 40
0.0
 40
0.4884689056598313
 40
1.0
 40
1.0
 40
1.0
 40
1.0
 10
485.6134293805328
 20
725.8150087079582
 30
0.0
 10
485.6156331398483
 20
726.5726409580717
 30
0.0
 10
485.6201447050474
 20
728.1236757145016
 30
0.0
 10
485.6495948882666
 20
729.4331762273621
 30
0.0
 10
485.6646595727173
 20
730.1030264577446
 30
0.0
  0
LINE
  5
22E
330
1F
100
AcDbEntity
  8
0
  6
Continuous
 62
     8
370
    15
100
AcDbLine
 10
485.6134293805
 20
723.923455306
 30
0.0
 11
485.6134293805
 21
725.815008708
 31
0.0
  0
LINE
  5
22F
330
1F
100
AcDbEntity
  8
0
  6
Continuous
 62
     8
370
    15
100
AcDbLine
 10
485.1379258763
 20
725.1147733411
 30
0.0
 11
485.6134293805
 21
723.923455306
 31
0.0
  0
LINE
  5
230
330
1F
100
AcDbEntity
  8
0
  6
Continuous
 62
     8
370
    15
100
AcDbLine
 10
485.6134293805
 20
780.5598483762
 30
0.0
 11
485.6134293805
 21
782.4514017782
 31
0.0
  0
SPLINE
  5
231
330
1F
100
AcDbEntity
  8
0
  6
Continuous
 62
     8
370
    15
100
AcDbSpline
210
0.0
220
0.0
230
1.0
 70
     8
 71
     3
 72
     9
 73
     5
 74
     0
 42
0.00000001
 43
0.00000001
 12
1.0
 22
0.0
 32
0.0
 13
1.0
 23
0.0
 33
0.0
 40
0.0
 40
0.0
 40
0.0
 40
0.0
 40
0.4999547266657923
 40
1.0
 40
1.0
 40
1.0
 40
1.0
 10
485.6646595727172
 20
776.2718306264458
 30
0.0
 10
485.6498962365064
 20
776.925367026442
 30
0.0
 10
485.6203668903008
 20
778.232558188239
 30
0.0
 10
485.6157420233775
 20
779.7840381531205
 30
0.0
 10
485.6134293805328
 20
780.5598483762321
 30
0.0
  0
LWPOLYLINE
  5
232
330
1F
100
AcDbEntity
  8
0
  6
Continuous
 62
     8
370
    15
100
AcDbPolyline
 90
        3
 70
   128
 43
0.0
 10
400.6741642225
 20
730.3642140112
 10
400.7290228474
 20
732.1540818891
 10
400.7838786784
 20
733.9440093717
  0
SPLINE
  5
233
330
1F
100
AcDbEntity
  8
0
  6
Continuous
 62
     8
370
    15
100
AcDbSpline
210
0.0
220
0.0
230
1.0
 70
     8
 71
     3
 72
    10
 73
     6
 74
     0
 42
0.00000001
 43
0.00000001
 12
1.0
 22
0.0
 32
0.0
 13
1.0
 23
0.0
 33
0.0
 40
0.0
 40
0.0
 40
0.0
 40
0.0
 40
0.1278236793681978
 40
0.5955825554994055
 40
1.0
 40
1.0
 40
1.0
 40
1.0
 10
400.6134312804308
 20
725.7464633664665
 30
0.0
 10
400.6136531575921
 20
725.9602898991764
 30
0.0
 10
400.6146869736059
 20
726.9565947576684
 30
0.0
 10
400.6296553156777
 20
728.633238955335
 30
0.0
 10
400.6600640609282
 20
729.8158512291228
 30
0.0
 10
400.6741642225053
 20
730.3642140111504
 30
0.0
  0
LINE
  5
234
330
1F
100
AcDbEntity
  8
0
  6
Continuous
 62
     8
370
    15
100
AcDbLine
 10
400.6134312804
 20
723.923455306
 30
0.0
 11
400.6134312804
 21
725.7464633665
 31
0.0
  0
LINE
  5
235
330
1F
100
AcDbEntity
  8
0
  6
Continuous
 62
     8
370
    15
100
AcDbLine
 10
400.1379235852
 20
725.1147733411
 30
0.0
 11
400.6134312804
 21
723.923455306
 31
0.0
  0
LINE
  5
236
330
1F
100
AcDbEntity
  8
0
  6
Continuous
 62
     8
370
    15
100
AcDbLine
 10
400.6134312804
 20
780.6283341131
 30
0.0
 11
400.6134312804
 21
782.4514017782
 31
0.0
  0
SPLINE
  5
237
330
1F
100
AcDbEntity
  8
0
  6
Continuous
 62
     8
370
    15
100
AcDbSpline
210
0.0
220
0.0
230
1.0
 70
     8
 71
     3
 72
     9
 73
     5
 74
     0
 42
0.00000001
 43
0.00000001
 12
1.0
 22
0.0
 32
0.0
 13
1.0
 23
0.0
 33
0.0
 40
0.0
 40
0.0
 40
0.0
 40
0.0
 40
0.4999568936656213
 40
0.9999999999999999
 40
0.9999999999999999
 40
0.9999999999999999
 40
0.9999999999999999
 10
400.6741642225054
 20
776.0105834683952
 30
0.0
 10
400.6567045096093
 20
776.7008976226639
 30
0.0
 10
400.6217820730608
 20
778.0816449691152
 30
0.0
 10
400.6162150379571
 20
779.7793889427448
 30
0.0
 10
400.6134312804308
 20
780.6283341130791
 30
0.0
  0
LWPOLYLINE
  5
238
330
1F
100
AcDbEntity
  8
0
  6
Continuous
 62
     8
370
    15
100
AcDbPolyline
 90
        3
 70
   128
 43
0.0
 10
400.7838786784
 20
772.4308477125
 10
400.7290228474
 20
774.2207751951
 10
400.6741642225
 20
776.0105834684
  0
SPLINE
  5
239
330
1F
100
AcDbEntity
  8
0
  6
Continuous
 62
     8
370
    15
100
AcDbSpline
210
0.0
220
0.0
230
1.0
 70
     8
 71
     3
 72
    10
 73
     6
 74
     0
 42
0.00000001
 43
0.00000001
 12
1.0
 22
0.0
 32
0.0
 13
1.0
 23
0.0
 33
0.0
 40
0.0
 40
0.0
 40
0.0
 40
0.0
 40
0.1162443570488616
 40
0.5581145323248694
 40
1.0
 40
1.0
 40
1.0
 40
1.0
 10
400.9463041293886
 20
770.0744376859245
 30
0.0
 10
400.9391608128896
 20
770.0982811052195
 30
0.0
 10
400.9048641911151
 20
770.2127585658613
 30
0.0
 10
400.8443262458926
 20
770.811574001289
 30
0.0
 10
400.8040281000075
 20
771.8910835821792
 30
0.0
 10
400.7838786784079
 20
772.4308477124748
 30
0.0
  0
LINE
  5
23A
330
1F
100
AcDbEntity
  8
0
  6
Continuous
 62
     8
370
    15
100
AcDbLine
 10
401.0613075662
 20
769.7860704145
 30
0.0
 11
400.9463041294
 21
770.0744376859
 31
0.0
  0
LINE
  5
23B
330
1F
100
AcDbEntity
  8
0
  6
Continuous
 62
     8
370
    15
100
AcDbLine
 10
400.9463041294
 20
736.3004193983
 30
0.0
 11
401.0613075662
 21
736.5887866697
 31
0.0
  0
SPLINE
  5
23C
330
1F
100
AcDbEntity
  8
0
  6
Continuous
 62
     8
370
    15
100
AcDbSpline
210
0.0
220
0.0
230
1.0
 70
     8
 71
     3
 72
    10
 73
     6
 74
     0
 42
0.00000001
 43
0.00000001
 12
1.0
 22
0.0
 32
0.0
 13
1.0
 23
0.0
 33
0.0
 40
0.0
 40
0.0
 40
0.0
 40
0.0
 40
0.1158566738587223
 40
0.5579328059330381
 40
0.9999999999999999
 40
0.9999999999999999
 40
0.9999999999999999
 40
0.9999999999999999
 10
400.783878678408
 20
733.9440093717155
 30
0.0
 10
400.7887604659575
 20
734.094382131509
 30
0.0
 10
400.8122697670166
 20
734.8185345951774
 30
0.0
 10
400.8649419865897
 20
735.8624859321048
 30
0.0
 10
400.9191835979026
 20
736.154442560031
 30
0.0
 10
400.9463041293886
 20
736.3004193982658
 30
0.0
  0
LINE
  5
23D
330
1F
100
AcDbEntity
  8
0
  6
Continuous
 62
     8
370
    15
100
AcDbLine
 10
390.505997857
 20
723.923455306
 30
0.0
 11
390.9815055523
 21
725.1147733411
 31
0.0
  0
LINE
  5
23E
330
1F
100
AcDbEntity
  8
0
  6
Continuous
 62
     8
370
    15
100
AcDbLine
 10
390.505997857
 20
725.7464633665
 30
0.0
 11
390.505997857
 21
723.923455306
 31
0.0
  0
SPLINE
  5
23F
330
1F
100
AcDbEntity
  8
0
  6
Continuous
 62
     8
370
    15
100
AcDbSpline
210
0.0
220
0.0
230
1.0
 70
     8
 71
     3
 72
    10
 73
     6
 74
     0
 42
0.00000001
 43
0.00000001
 12
1.0
 22
0.0
 32
0.0
 13
1.0
 23
0.0
 33
0.0
 40
0.0
 40
0.0
 40
0.0
 40
0.0
 40
0.0642591709967695
 40
0.5321293787750797
 40
1.0
 40
1.0
 40
1.0
 40
1.0
 10
390.4452649149563
 20
730.3642140111504
 30
0.0
 10
390.4476962725844
 20
730.2823886858207
 30
0.0
 10
390.467830314218
 20
729.604794206147
 30
0.0
 10
390.497931747359
 20
728.1040942254319
 30
0.0
 10
390.503309153015
 20
726.5323405509423
 30
0.0
 10
390.5059978570309
 20
725.7464633664665
 30
0.0
  0
LWPOLYLINE
  5
240
330
1F
100
AcDbEntity
  8
0
  6
Continuous
 62
     8
370
    15
100
AcDbPolyline
 90
        3
 70
   128
 43
0.0
 10
390.3355504591
 20
733.9440093717
 10
390.39040629
 20
732.1540818891
 10
390.445264915
 20
730.3642140112
  0
SPLINE
  5
241
330
1F
100
AcDbEntity
  8
0
  6
Continuous
 62
     8
370
    15
100
AcDbSpline
210
0.0
220
0.0
230
1.0
 70
     8
 71
     3
 72
    10
 73
     6
 74
     0
 42
0.00000001
 43
0.00000001
 12
1.0
 22
0.0
 32
0.0
 13
1.0
 23
0.0
 33
0.0
 40
0.0
 40
0.0
 40
0.0
 40
0.0
 40
0.1162278957230705
 40
0.5581093998764829
 40
1.0
 40
1.0
 40
1.0
 40
1.0
 10
390.1731250080731
 20
736.3004193982658
 30
0.0
 10
390.1802670511252
 20
736.2765744544297
 30
0.0
 10
390.2145620999763
 20
736.1620745126427
 30
0.0
 10
390.2751014687235
 20
735.5632979594304
 30
0.0
 10
390.3154006573544
 20
734.4837759378438
 30
0.0
 10
390.3355504590538
 20
733.9440093717155
 30
0.0
  0
LINE
  5
242
330
1F
100
AcDbEntity
  8
0
  6
Continuous
 62
     8
370
    15
100
AcDbLine
 10
390.0581215713
 20
736.5887866697
 30
0.0
 11
390.1731250081
 21
736.3004193983
 31
0.0
  0
LINE
  5
243
330
1F
100
AcDbEntity
  8
0
  6
Continuous
 62
     8
370
    15
100
AcDbLine
 10
390.1731250081
 20
770.0744376859
 30
0.0
 11
390.0581215713
 21
769.7860704145
 31
0.0
  0
SPLINE
  5
244
330
1F
100
AcDbEntity
  8
0
  6
Continuous
 62
     8
370
    15
100
AcDbSpline
210
0.0
220
0.0
230
1.0
 70
     8
 71
     3
 72
    10
 73
     6
 74
     0
 42
0.00000001
 43
0.00000001
 12
1.0
 22
0.0
 32
0.0
 13
1.0
 23
0.0
 33
0.0
 40
0.0
 40
0.0
 40
0.0
 40
0.0
 40
0.115884101342817
 40
0.5579479037579087
 40
1.0
 40
1.0
 40
1.0
 40
1.0
 10
390.3355504590538
 20
772.4308477124748
 30
0.0
 10
390.3306674646253
 20
772.2804336021836
 30
0.0
 10
390.3071572809686
 20
771.5562338494985
 30
0.0
 10
390.2544849733035
 20
770.5123207248865
 30
0.0
 10
390.2002447570933
 20
770.2203974105045
 30
0.0
 10
390.1731250080731
 20
770.0744376859245
 30
0.0
  0
LWPOLYLINE
  5
245
330
1F
100
AcDbEntity
  8
0
  6
Continuous
 62
     8
370
    15
100
AcDbPolyline
 90
        3
 70
   128
 43
0.0
 10
390.445264915
 20
776.0105834684
 10
390.39040629
 20
774.2207751951
 10
390.3355504591
 20
772.4308477125
  0
SPLINE
  5
246
330
1F
100
AcDbEntity
  8
0
  6
Continuous
 62
     8
370
    15
100
AcDbSpline
210
0.0
220
0.0
230
1.0
 70
     8
 71
     3
 72
     9
 73
     5
 74
     0
 42
0.00000001
 43
0.00000001
 12
1.0
 22
0.0
 32
0.0
 13
1.0
 23
0.0
 33
0.0
 40
0.0
 40
0.0
 40
0.0
 40
0.0
 40
0.499969217371569
 40
0.9999999999999999
 40
0.9999999999999999
 40
0.9999999999999999
 40
0.9999999999999999
 10
390.5059978570309
 20
780.6283341130791
 30
0.0
 10
390.5032149568607
 20
779.779518697251
 30
0.0
 10
390.4976488138392
 20
778.0817833440811
 30
0.0
 10
390.4627269312422
 20
776.7010117628095
 30
0.0
 10
390.4452649149563
 20
776.0105834683952
 30
0.0
  0
LINE
  5
247
330
1F
100
AcDbEntity
  8
0
  6
Continuous
 62
     8
370
    15
100
AcDbLine
 10
390.505997857
 20
782.4514017782
 30
0.0
 11
390.505997857
 21
780.6283341131
 31
0.0
  0
LINE
  5
248
330
1F
100
AcDbEntity
  8
0
  6
Continuous
 62
     8
370
    15
100
AcDbLine
 10
305.1662458311
 20
769.2468271932
 30
0.0
 11
305.0581230055
 21
768.9740763387
 31
0.0
  0
SPLINE
  5
249
330
1F
100
AcDbEntity
  8
0
  6
Continuous
 62
     8
370
    15
100
AcDbSpline
210
0.0
220
0.0
230
1.0
 70
     8
 71
     3
 72
    10
 73
     6
 74
     0
 42
0.00000001
 43
0.00000001
 12
1.0
 22
0.0
 32
0.0
 13
1.0
 23
0.0
 33
0.0
 40
0.0
 40
0.0
 40
0.0
 40
0.0
 40
0.1873460849263938
 40
0.5936715080658527
 40
1.0
 40
1.0
 40
1.0
 40
1.0
 10
305.3391067515578
 20
771.970103808361
 30
0.0
 10
305.3309568827254
 20
771.6938476408808
 30
0.0
 10
305.3051311766681
 20
770.8184334809049
 30
0.0
 10
305.247586925371
 20
769.6880770639488
 30
0.0
 10
305.1933595974683
 20
769.3939108537446
 30
0.0
 10
305.1662458311286
 20
769.2468271932182
 30
0.0
  0
SPLINE
  5
24A
330
1F
100
AcDbEntity
  8
0
  6
Continuous
 62
     8
370
    15
100
AcDbSpline
210
0.0
220
0.0
230
1.0
 70
     8
 71
     3
 72
     9
 73
     5
 74
     0
 42
0.00000001
 43
0.00000001
 12
1.0
 22
0.0
 32
0.0
 13
1.0
 23
0.0
 33
0.0
 40
0.0
 40
0.0
 40
0.0
 40
0.0
 40
0.4999984788192688
 40
1.0
 40
1.0
 40
1.0
 40
1.0
 10
305.4547695647445
 20
776.2718306264458
 30
0.0
 10
305.4354327953657
 20
775.556201266811
 30
0.0
 10
305.3967591389488
 20
774.1249381931212
 30
0.0
 10
305.3583242529991
 20
772.6883833934537
 30
0.0
 10
305.3391067515578
 20
771.970103808361
 30
0.0
  0
SPLINE
  5
24B
330
1F
100
AcDbEntity
  8
0
  6
Continuous
 62
     8
370
    15
100
AcDbSpline
210
0.0
220
0.0
230
1.0
 70
     8
 71
     3
 72
     9
 73
     5
 74
     0
 42
0.00000001
 43
0.00000001
 12
1.0
 22
0.0
 32
0.0
 13
1.0
 23
0.0
 33
0.0
 40
0.0
 40
0.0
 40
0.0
 40
0.0
 40
0.5000189885644515
 40
1.0
 40
1.0
 40
1.0
 40
1.0
 10
305.5059997569289
 20
780.5598483762321
 30
0.0
 10
305.5036866714073
 20
779.7840811135543
 30
0.0
 10
305.499060676046
 20
778.2326055087879
 30
0.0
 10
305.4695328947182
 20
776.9254057059946
 30
0.0
 10
305.4547695647445
 20
776.2718306264458
 30
0.0
  0
LINE
  5
24C
330
1F
100
AcDbEntity
  8
0
  6
Continuous
 62
     8
370
    15
100
AcDbLine
 10
305.5059997569
 20
782.4514017782
 30
0.0
 11
305.5059997569
 21
780.5598483762
 31
0.0
  0
LINE
  5
24D
330
1F
100
AcDbEntity
  8
0
  6
Continuous
 62
     8
370
    15
100
AcDbLine
 10
305.5059997569
 20
723.923455306
 30
0.0
 11
305.9815032612
 21
725.1147733411
 31
0.0
  0
LINE
  5
24E
330
1F
100
AcDbEntity
  8
0
  6
Continuous
 62
     8
370
    15
100
AcDbLine
 10
305.5059997569
 20
725.815008708
 30
0.0
 11
305.5059997569
 21
723.923455306
 31
0.0
  0
SPLINE
  5
24F
330
1F
100
AcDbEntity
  8
0
  6
Continuous
 62
     8
370
    15
100
AcDbSpline
210
0.0
220
0.0
230
1.0
 70
     8
 71
     3
 72
     9
 73
     5
 74
     0
 42
0.00000001
 43
0.00000001
 12
1.0
 22
0.0
 32
0.0
 13
1.0
 23
0.0
 33
0.0
 40
0.0
 40
0.0
 40
0.0
 40
0.0
 40
0.4887256162198835
 40
1.0
 40
1.0
 40
1.0
 40
1.0
 10
305.4547695647445
 20
730.1030264577446
 30
0.0
 10
305.4692360836556
 20
729.4652676677731
 30
0.0
 10
305.4988365761017
 20
728.1603252444469
 30
0.0
 10
305.5035764042257
 20
726.6084452141492
 30
0.0
 10
305.5059997569289
 20
725.8150087079582
 30
0.0
  0
SPLINE
  5
250
330
1F
100
AcDbEntity
  8
0
  6
Continuous
 62
     8
370
    15
100
AcDbSpline
210
0.0
220
0.0
230
1.0
 70
     8
 71
     3
 72
     9
 73
     5
 74
     0
 42
0.00000001
 43
0.00000001
 12
1.0
 22
0.0
 32
0.0
 13
1.0
 23
0.0
 33
0.0
 40
0.0
 40
0.0
 40
0.0
 40
0.0
 40
0.4999971682485474
 40
0.9999999999999999
 40
0.9999999999999999
 40
0.9999999999999999
 40
0.9999999999999999
 10
305.3391067515578
 20
734.4046936711845
 30
0.0
 10
305.3583243372567
 20
733.6864358081916
 30
0.0
 10
305.3967597263333
 20
732.249911946448
 30
0.0
 10
305.4354328789323
 20
730.8186576559501
 30
0.0
 10
305.4547695647445
 20
730.1030264577446
 30
0.0
  0
SPLINE
  5
251
330
1F
100
AcDbEntity
  8
0
  6
Continuous
 62
     8
370
    15
100
AcDbSpline
210
0.0
220
0.0
230
1.0
 70
     8
 71
     3
 72
    10
 73
     6
 74
     0
 42
0.00000001
 43
0.00000001
 12
1.0
 22
0.0
 32
0.0
 13
1.0
 23
0.0
 33
0.0
 40
0.0
 40
0.0
 40
0.0
 40
0.0
 40
0.1874651201899092
 40
0.5937279782391764
 40
1.0
 40
1.0
 40
1.0
 40
1.0
 10
305.1662458311286
 20
737.1280298909721
 30
0.0
 10
305.1787595899159
 20
737.0787545530004
 30
0.0
 10
305.2183923957275
 20
736.9226927386147
 30
0.0
 10
305.2825386579189
 20
736.1363151443807
 30
0.0
 10
305.3202505785741
 20
734.9819051687015
 30
0.0
 10
305.3391067515578
 20
734.4046936711845
 30
0.0
  0
LINE
  5
252
330
1F
100
AcDbEntity
  8
0
  6
Continuous
 62
     8
370
    15
100
AcDbLine
 10
305.0581230055
 20
737.4007807455
 30
0.0
 11
305.1662458311
 21
737.128029891
 31
0.0
  0
SPLINE
  5
253
330
1F
100
AcDbEntity
  8
0
  6
Continuous
 62
     8
370
    15
100
AcDbSpline
210
0.0
220
0.0
230
1.0
 70
     8
 71
     3
 72
     9
 73
     5
 74
     0
 42
0.00000001
 43
0.00000001
 12
1.0
 22
0.0
 32
0.0
 13
1.0
 23
0.0
 33
0.0
 40
0.0
 40
0.0
 40
0.0
 40
0.0
 40
0.499992725692375
 40
0.9999999999999999
 40
0.9999999999999999
 40
0.9999999999999999
 40
0.9999999999999999
 10
315.6680552493301
 20
730.2007184705315
 30
0.0
 10
315.6870102845926
 20
730.8702076904942
 30
0.0
 10
315.7249209066649
 20
732.2092056109859
 30
0.0
 10
315.7627032170259
 20
733.5511848616036
 30
0.0
 10
315.7815946470466
 20
734.2221842488823
 30
0.0
  0
SPLINE
  5
254
330
1F
100
AcDbEntity
  8
0
  6
Continuous
 62
     8
370
    15
100
AcDbSpline
210
0.0
220
0.0
230
1.0
 70
     8
 71
     3
 72
    10
 73
     6
 74
     0
 42
0.00000001
 43
0.00000001
 12
1.0
 22
0.0
 32
0.0
 13
1.0
 23
0.0
 33
0.0
 40
0.0
 40
0.0
 40
0.0
 40
0.0
 40
0.0783341518521315
 40
0.5727048259259973
 40
0.9999999999999999
 40
0.9999999999999999
 40
0.9999999999999999
 40
0.9999999999999999
 10
315.6134275923934
 20
725.7902131757317
 30
0.0
 10
315.6135056907592
 20
725.9142239904409
 30
0.0
 10
315.6140766717413
 20
726.8208731386326
 30
0.0
 10
315.6258891280489
 20
728.4225055285556
 30
0.0
 10
315.6546987624961
 20
729.6374540054613
 30
0.0
 10
315.6680552493301
 20
730.2007184705315
 30
0.0
  0
LINE
  5
255
330
1F
100
AcDbEntity
  8
0
  6
Continuous
 62
     8
370
    15
100
AcDbLine
 10
315.6134275924
 20
723.923455306
 30
0.0
 11
315.6134275924
 21
725.7902131757
 31
0.0
  0
LINE
  5
256
330
1F
100
AcDbEntity
  8
0
  6
Continuous
 62
     8
370
    15
100
AcDbLine
 10
315.1379240881
 20
725.1147733411
 30
0.0
 11
315.6134275924
 21
723.923455306
 31
0.0
  0
LINE
  5
257
330
1F
100
AcDbEntity
  8
0
  6
Continuous
 62
     8
370
    15
100
AcDbLine
 10
315.6134275924
 20
780.5846439085
 30
0.0
 11
315.6134275924
 21
782.4514017782
 31
0.0
  0
SPLINE
  5
258
330
1F
100
AcDbEntity
  8
0
  6
Continuous
 62
     8
370
    15
100
AcDbSpline
210
0.0
220
0.0
230
1.0
 70
     8
 71
     3
 72
     9
 73
     5
 74
     0
 42
0.00000001
 43
0.00000001
 12
1.0
 22
0.0
 32
0.0
 13
1.0
 23
0.0
 33
0.0
 40
0.0
 40
0.0
 40
0.0
 40
0.0
 40
0.4999685195807015
 40
1.0
 40
1.0
 40
1.0
 40
1.0
 10
315.6680552493301
 20
776.1741386136589
 30
0.0
 10
315.6523270651085
 20
776.8418061423936
 30
0.0
 10
315.6208687160212
 20
778.1772252789718
 30
0.0
 10
315.6159080710448
 20
779.7821373497598
 30
0.0
 10
315.6134275923934
 20
780.5846439084587
 30
0.0
  0
SPLINE
  5
259
330
1F
100
AcDbEntity
  8
0
  6
Continuous
 62
     8
370
    15
100
AcDbSpline
210
0.0
220
0.0
230
1.0
 70
     8
 71
     3
 72
     9
 73
     5
 74
     0
 42
0.00000001
 43
0.00000001
 12
1.0
 22
0.0
 32
0.0
 13
1.0
 23
0.0
 33
0.0
 40
0.0
 40
0.0
 40
0.0
 40
0.0
 40
0.4999983154314571
 40
1.0
 40
1.0
 40
1.0
 40
1.0
 10
315.7815946470466
 20
772.1526728353081
 30
0.0
 10
315.762703047113
 20
772.8236484160229
 30
0.0
 10
315.7249197199486
 20
774.1656040986862
 30
0.0
 10
315.6870101154438
 20
775.5046256048854
 30
0.0
 10
315.6680552493301
 20
776.1741386136589
 30
0.0
  0
SPLINE
  5
25A
330
1F
100
AcDbEntity
  8
0
  6
Continuous
 62
     8
370
    15
100
AcDbSpline
210
0.0
220
0.0
230
1.0
 70
     8
 71
     3
 72
    10
 73
     6
 74
     0
 42
0.00000001
 43
0.00000001
 12
1.0
 22
0.0
 32
0.0
 13
1.0
 23
0.0
 33
0.0
 40
0.0
 40
0.0
 40
0.0
 40
0.0
 40
0.1633763405233553
 40
0.5816812062327225
 40
1.0
 40
1.0
 40
1.0
 40
1.0
 10
315.9506706725326
 20
769.5714936933098
 30
0.0
 10
315.9400857804236
 20
769.6106657438644
 30
0.0
 10
315.9023995843067
 20
769.7501329736008
 30
0.0
 10
315.8395661590366
 20
770.4645368788838
 30
0.0
 10
315.8009186988434
 20
771.589954604539
 30
0.0
 10
315.7815946470466
 20
772.1526728353081
 30
0.0
  0
LINE
  5
25B
330
1F
100
AcDbEntity
  8
0
  6
Continuous
 62
     8
370
    15
100
AcDbLine
 10
316.0613043438
 20
769.2957626066
 30
0.0
 11
315.9506706725
 21
769.5714936933
 31
0.0
  0
LINE
  5
25C
330
1F
100
AcDbEntity
  8
0
  6
Continuous
 62
     8
370
    15
100
AcDbLine
 10
315.9506706725
 20
736.8033633909
 30
0.0
 11
316.0613043438
 21
737.0790944776
 31
0.0
  0
SPLINE
  5
25D
330
1F
100
AcDbEntity
  8
0
  6
Continuous
 62
     8
370
    15
100
AcDbSpline
210
0.0
220
0.0
230
1.0
 70
     8
 71
     3
 72
    10
 73
     6
 74
     0
 42
0.00000001
 43
0.00000001
 12
1.0
 22
0.0
 32
0.0
 13
1.0
 23
0.0
 33
0.0
 40
0.0
 40
0.0
 40
0.0
 40
0.0
 40
0.1628549829093665
 40
0.5814324964193175
 40
1.0
 40
1.0
 40
1.0
 40
1.0
 10
315.7815946470466
 20
734.2221842488823
 30
0.0
 10
315.7886063205144
 20
734.4513417179861
 30
0.0
 10
315.8136397259134
 20
735.2694904596088
 30
0.0
 10
315.8693902650542
 20
736.3657866358931
 30
0.0
 10
315.9235774193491
 20
736.6575056352677
 30
0.0
 10
315.9506706725326
 20
736.8033633908806
 30
0.0
  0
ARC
  5
25E
330
1F
100
AcDbEntity
  8
0
  6
Continuous
 62
     8
370
    15
100
AcDbCircle
 10
589.114529142
 20
725.1325990535
 30
0.0
 40
2.010309339809532
100
AcDbArc
 50
270.5084853849
 51
359.491943131
  0
LINE
  5
25F
330
1F
100
AcDbEntity
  8
0
  6
Continuous
 62
     8
370
    15
100
AcDbLine
 10
589.1323698889
 20
724.6173725805
 30
0.0
 11
589.1323698889
 21
723.1223688802
 31
0.0
  0
LINE
  5
260
330
1F
100
AcDbEntity
  8
0
  6
Continuous
 62
     8
370
    15
100
AcDbLine
 10
201.9870592486
 20
723.1223688802
 30
0.0
 11
201.9870592486
 21
724.6173725805
 31
0.0
  0
ARC
  5
261
330
1F
100
AcDbEntity
  8
0
  6
Continuous
 62
     8
370
    15
100
AcDbCircle
 10
202.0048999955
 20
725.1325990535
 30
0.0
 40
2.01030933980946
100
AcDbArc
 50
180.508056869
 51
269.4915146151
  0
LINE
  5
262
330
1F
100
AcDbEntity
  8
0
  6
Continuous
 62
     8
370
    15
100
AcDbLine
 10
582.9802913796
 20
723.1223688802
 30
0.0
 11
582.9802913796
 21
724.6173725805
 31
0.0
  0
ARC
  5
263
330
1F
100
AcDbEntity
  8
0
  6
Continuous
 62
     8
370
    15
100
AcDbCircle
 10
582.9842682378
 20
725.1251508339
 30
0.0
 40
2.0027859019897
100
AcDbArc
 50
180.2968810572
 51
269.8862298041
  0
ARC
  5
264
330
1F
100
AcDbEntity
  8
0
  6
Continuous
 62
     8
370
    15
100
AcDbCircle
 10
483.1351519334
 20
725.1251658083
 30
0.0
 40
2.002800906097154
100
AcDbArc
 50
270.1141963638
 51
359.7026927749
  0
LINE
  5
265
330
1F
100
AcDbEntity
  8
0
  6
Continuous
 62
     8
370
    15
100
AcDbLine
 10
483.1391437184
 20
724.6173725805
 30
0.0
 11
483.1391437184
 21
723.1223688802
 31
0.0
  0
ARC
  5
266
330
1F
100
AcDbEntity
  8
0
  6
Continuous
 62
     8
370
    15
100
AcDbCircle
 10
398.1351534057
 20
725.1251620316
 30
0.0
 40
2.002797123271325
100
AcDbArc
 50
270.1141089022
 51
359.702800259
  0
LINE
  5
267
330
1F
100
AcDbEntity
  8
0
  6
Continuous
 62
     8
370
    15
100
AcDbLine
 10
398.1391421258
 20
724.6173725805
 30
0.0
 11
398.1391421258
 21
723.1223688802
 31
0.0
  0
ARC
  5
268
330
1F
100
AcDbEntity
  8
0
  6
Continuous
 62
     8
370
    15
100
AcDbCircle
 10
208.1351608996
 20
725.1251508339
 30
0.0
 40
2.0027859019897
100
AcDbArc
 50
270.1137701959
 51
359.7031189428
  0
LINE
  5
269
330
1F
100
AcDbEntity
  8
0
  6
Continuous
 62
     8
370
    15
100
AcDbLine
 10
208.1391377579
 20
724.6173725805
 30
0.0
 11
208.1391377579
 21
723.1223688802
 31
0.0
  0
ARC
  5
26A
330
1F
100
AcDbEntity
  8
0
  6
Continuous
 62
     8
370
    15
100
AcDbCircle
 10
313.1351501453
 20
725.1251658083
 30
0.0
 40
2.002800906097154
100
AcDbArc
 50
270.1141963638
 51
359.7026927749
  0
LINE
  5
26B
330
1F
100
AcDbEntity
  8
0
  6
Continuous
 62
     8
370
    15
100
AcDbLine
 10
313.1391419302
 20
724.6173725805
 30
0.0
 11
313.1391419302
 21
723.1223688802
 31
0.0
  0
LINE
  5
26C
330
1F
100
AcDbEntity
  8
0
  6
Continuous
 62
     8
370
    15
100
AcDbLine
 10
477.9802872072
 20
723.1223688802
 30
0.0
 11
477.9802872072
 21
724.6173725805
 31
0.0
  0
ARC
  5
26D
330
1F
100
AcDbEntity
  8
0
  6
Continuous
 62
     8
370
    15
100
AcDbCircle
 10
477.9842789922
 20
725.1251658083
 30
0.0
 40
2.002800906097059
100
AcDbArc
 50
180.2973072251
 51
269.8858036362
  0
LINE
  5
26E
330
1F
100
AcDbEntity
  8
0
  6
Continuous
 62
     8
370
    15
100
AcDbLine
 10
392.9802870117
 20
723.1223688802
 30
0.0
 11
392.9802870117
 21
724.6173725805
 31
0.0
  0
ARC
  5
26F
330
1F
100
AcDbEntity
  8
0
  6
Continuous
 62
     8
370
    15
100
AcDbCircle
 10
392.9842757318
 20
725.1251620316
 30
0.0
 40
2.002797123271439
100
AcDbArc
 50
180.297199741
 51
269.8858910978
  0
LINE
  5
270
330
1F
100
AcDbEntity
  8
0
  6
Continuous
 62
     8
370
    15
100
AcDbLine
 10
307.9802854191
 20
723.1223688802
 30
0.0
 11
307.9802854191
 21
724.6173725805
 31
0.0
  0
ARC
  5
271
330
1F
100
AcDbEntity
  8
0
  6
Continuous
 62
     8
370
    15
100
AcDbCircle
 10
307.984277204
 20
725.1251658083
 30
0.0
 40
2.002800906097059
100
AcDbArc
 50
180.2973072251
 51
269.8858036362
  0
LINE
  5
272
330
1F
100
AcDbEntity
  8
0
  6
Continuous
 62
     8
370
    15
100
AcDbLine
 10
589.1323698889
 20
723.1223688802
 30
0.0
 11
582.9802913796
 21
723.1223688802
 31
0.0
  0
LINE
  5
273
330
1F
100
AcDbEntity
  8
0
  6
Continuous
 62
     8
370
    15
100
AcDbLine
 10
483.1391437184
 20
723.1223688802
 30
0.0
 11
477.9802872072
 21
723.1223688802
 31
0.0
  0
LINE
  5
274
330
1F
100
AcDbEntity
  8
0
  6
Continuous
 62
     8
370
    15
100
AcDbLine
 10
208.1391377579
 20
723.1223688802
 30
0.0
 11
201.9870592486
 21
723.1223688802
 31
0.0
  0
LINE
  5
275
330
1F
100
AcDbEntity
  8
0
  6
Continuous
 62
     8
370
    15
100
AcDbLine
 10
313.1391419302
 20
723.1223688802
 30
0.0
 11
307.9802854191
 21
723.1223688802
 31
0.0
  0
LINE
  5
276
330
1F
100
AcDbEntity
  8
0
  6
Continuous
 62
     8
370
    15
100
AcDbLine
 10
398.1391421258
 20
723.1223688802
 30
0.0
 11
392.9802870117
 21
723.1223688802
 31
0.0
  0
LINE
  5
277
330
1F
100
AcDbEntity
  8
0
  6
Continuous
 62
     8
370
    15
100
AcDbLine
 10
592.0673324
 20
720.1874361715
 30
0.0
 11
589.1323698889
 21
723.1223688802
 31
0.0
  0
LINE
  5
278
330
1F
100
AcDbEntity
  8
0
  6
Continuous
 62
     8
370
    15
100
AcDbLine
 10
201.9870592486
 20
723.1223688802
 30
0.0
 11
199.0520967375
 21
720.1874361715
 31
0.0
  0
ELLIPSE
  5
279
330
1F
100
AcDbEntity
  8
0
  6
Continuous
 62
     8
370
    15
100
AcDbEllipse
 10
483.6061185632
 20
723.9448363377
 30
0.0
 11
-0.7610715575460176
 21
1.906748745414915
 31
0.0
210
0.0
220
0.0
230
1.0
 40
0.974171213
 41
4.246870785361542
 42
4.331095551714385
  0
ELLIPSE
  5
27A
330
1F
100
AcDbEntity
  8
0
  6
Continuous
 62
     8
370
    15
100
AcDbEllipse
 10
483.8505639496
 20
723.332415693
 30
0.0
 11
1.109690935925016
 21
1.922939575916303
 31
0.0
210
0.0
220
0.0
230
1.0
 40
0.7129198498
 41
3.822075668485472
 42
5.305605532680569
  0
LINE
  5
27B
330
1F
100
AcDbEntity
  8
0
  6
Continuous
 62
     8
370
    15
100
AcDbLine
 10
483.8505624067
 20
721.3400111875
 30
0.0
 11
483.1391437184
 21
723.1223688802
 31
0.0
  0
LINE
  5
27C
330
1F
100
AcDbEntity
  8
0
  6
Continuous
 62
     8
370
    15
100
AcDbLine
 10
582.9802913796
 20
723.1223688802
 30
0.0
 11
582.2688652407
 21
721.3400111875
 31
0.0
  0
ELLIPSE
  5
27D
330
1F
100
AcDbEntity
  8
0
  6
Continuous
 62
     8
370
    15
100
AcDbEllipse
 10
582.2688651844
 20
723.332415693
 30
0.0
 11
-1.112262432352963
 21
1.905223154642613
 31
0.0
210
0.0
220
0.0
230
1.0
 40
0.7275157428
 41
0.9818285591392869
 42
2.465358423334561
  0
ELLIPSE
  5
27E
330
1F
100
AcDbEntity
  8
0
  6
Continuous
 62
     8
370
    15
100
AcDbEllipse
 10
582.4993422631
 20
723.9098408723
 30
0.0
 11
0.7597615360951978
 21
1.903466686410979
 31
0.0
210
0.0
220
0.0
230
1.0
 40
0.975850931
 41
1.952089755465382
 42
2.036314521818213
  0
LINE
  5
27F
330
1F
100
AcDbEntity
  8
0
  6
Continuous
 62
     8
370
    15
100
AcDbLine
 10
477.9802872072
 20
723.1223688802
 30
0.0
 11
477.2688685189
 21
721.3400111875
 31
0.0
  0
ELLIPSE
  5
280
330
1F
100
AcDbEntity
  8
0
  6
Continuous
 62
     8
370
    15
100
AcDbEllipse
 10
477.2688651844
 20
723.332415693
 30
0.0
 11
-1.109690935925016
 21
1.922939575916303
 31
0.0
210
0.0
220
0.0
230
1.0
 40
0.7129198498
 41
0.9775797744990238
 42
2.461109638694162
  0
ELLIPSE
  5
281
330
1F
100
AcDbEntity
  8
0
  6
Continuous
 62
     8
370
    15
100
AcDbEllipse
 10
477.5133105709
 20
723.9448363377
 30
0.0
 11
0.7610715575460745
 21
1.906748745414916
 31
0.0
210
0.0
220
0.0
230
1.0
 40
0.974171213
 41
1.952089755465245
 42
2.036314521818091
  0
LINE
  5
282
330
1F
100
AcDbEntity
  8
0
  6
Continuous
 62
     8
370
    15
100
AcDbLine
 10
392.9802870117
 20
723.1223688802
 30
0.0
 11
392.2688652966
 21
721.3400111875
 31
0.0
  0
ELLIPSE
  5
283
330
1F
100
AcDbEntity
  8
0
  6
Continuous
 62
     8
370
    15
100
AcDbEllipse
 10
392.2688651844
 20
723.332415693
 30
0.0
 11
-1.109690935925016
 21
1.922939575916303
 31
0.0
210
0.0
220
0.0
230
1.0
 40
0.7129198498
 41
0.9775797744990093
 42
2.461109638694177
  0
ELLIPSE
  5
284
330
1F
100
AcDbEntity
  8
0
  6
Continuous
 62
     8
370
    15
100
AcDbEllipse
 10
392.5133105709
 20
723.9448363377
 30
0.0
 11
0.7610715575461313
 21
1.906748745414916
 31
0.0
210
0.0
220
0.0
230
1.0
 40
0.974171213
 41
1.952089755465266
 42
2.036314521818114
  0
LINE
  5
285
330
1F
100
AcDbEntity
  8
0
  6
Continuous
 62
     8
370
    15
100
AcDbLine
 10
307.9802854191
 20
723.1223688802
 30
0.0
 11
307.2688667308
 21
721.3400111875
 31
0.0
  0
ELLIPSE
  5
286
330
1F
100
AcDbEntity
  8
0
  6
Continuous
 62
     8
370
    15
100
AcDbEllipse
 10
307.2688651844
 20
723.332415693
 30
0.0
 11
-1.109690935925073
 21
1.922939575916303
 31
0.0
210
0.0
220
0.0
230
1.0
 40
0.7129198498
 41
0.9775797744990016
 42
2.461109638694114
  0
ELLIPSE
  5
287
330
1F
100
AcDbEntity
  8
0
  6
Continuous
 62
     8
370
    15
100
AcDbEllipse
 10
307.5133105709
 20
723.9448363377
 30
0.0
 11
0.7610715575460745
 21
1.906748745414916
 31
0.0
210
0.0
220
0.0
230
1.0
 40
0.974171213
 41
1.952089755465247
 42
2.036314521818093
  0
ELLIPSE
  5
288
330
1F
100
AcDbEntity
  8
0
  6
Continuous
 62
     8
370
    15
100
AcDbEllipse
 10
398.6061185632
 20
723.9448363377
 30
0.0
 11
-0.7610715575461313
 21
1.906748745414916
 31
0.0
210
0.0
220
0.0
230
1.0
 40
0.974171213
 41
4.246870785361496
 42
4.33109555171434
  0
ELLIPSE
  5
289
330
1F
100
AcDbEntity
  8
0
  6
Continuous
 62
     8
370
    15
100
AcDbEllipse
 10
398.8505639496
 20
723.332415693
 30
0.0
 11
1.109690935925016
 21
1.922939575916303
 31
0.0
210
0.0
220
0.0
230
1.0
 40
0.7129198498
 41
3.822075668485425
 42
5.305605532680583
  0
LINE
  5
28A
330
1F
100
AcDbEntity
  8
0
  6
Continuous
 62
     8
370
    15
100
AcDbLine
 10
398.8505638409
 20
721.3400111875
 30
0.0
 11
398.1391421258
 21
723.1223688802
 31
0.0
  0
ELLIPSE
  5
28B
330
1F
100
AcDbEntity
  8
0
  6
Continuous
 62
     8
370
    15
100
AcDbEllipse
 10
313.6061185632
 20
723.9448363377
 30
0.0
 11
-0.7610715575460745
 21
1.906748745414916
 31
0.0
210
0.0
220
0.0
230
1.0
 40
0.974171213
 41
4.246870785361518
 42
4.331095551714363
  0
ELLIPSE
  5
28C
330
1F
100
AcDbEntity
  8
0
  6
Continuous
 62
     8
370
    15
100
AcDbEllipse
 10
313.8505639496
 20
723.332415693
 30
0.0
 11
1.109690935925016
 21
1.922939575916303
 31
0.0
210
0.0
220
0.0
230
1.0
 40
0.7129198498
 41
3.822075668485425
 42
5.30560553268059
  0
LINE
  5
28D
330
1F
100
AcDbEntity
  8
0
  6
Continuous
 62
     8
370
    15
100
AcDbLine
 10
313.8505606185
 20
721.3400111875
 30
0.0
 11
313.1391419302
 21
723.1223688802
 31
0.0
  0
ELLIPSE
  5
28E
330
1F
100
AcDbEntity
  8
0
  6
Continuous
 62
     8
370
    15
100
AcDbEllipse
 10
208.620086871
 20
723.9098408723
 30
0.0
 11
-0.7597615360951978
 21
1.903466686410979
 31
0.0
210
0.0
220
0.0
230
1.0
 40
0.975850931
 41
4.246870785361409
 42
4.331095551714236
  0
ELLIPSE
  5
28F
330
1F
100
AcDbEntity
  8
0
  6
Continuous
 62
     8
370
    15
100
AcDbEllipse
 10
208.8505639496
 20
723.332415693
 30
0.0
 11
1.112262432352963
 21
1.905223154642613
 31
0.0
210
0.0
220
0.0
230
1.0
 40
0.7275157428
 41
3.817826883845033
 42
5.301356748040335
  0
LINE
  5
290
330
1F
100
AcDbEntity
  8
0
  6
Continuous
 62
     8
370
    15
100
AcDbLine
 10
208.8505638968
 20
721.3400111875
 30
0.0
 11
208.1391377579
 21
723.1223688802
 31
0.0
  0
LINE
  5
291
330
1F
100
AcDbEntity
  8
0
  6
Continuous
 62
     8
370
    15
100
AcDbLine
 10
307.2688667308
 20
721.3400111875
 30
0.0
 11
208.8505638968
 21
721.3400111875
 31
0.0
  0
LINE
  5
292
330
1F
100
AcDbEntity
  8
0
  6
Continuous
 62
     8
370
    15
100
AcDbLine
 10
392.2688652966
 20
721.3400111875
 30
0.0
 11
313.8505606185
 21
721.3400111875
 31
0.0
  0
LINE
  5
293
330
1F
100
AcDbEntity
  8
0
  6
Continuous
 62
     8
370
    15
100
AcDbLine
 10
477.2688685189
 20
721.3400111875
 30
0.0
 11
398.8505638409
 21
721.3400111875
 31
0.0
  0
LINE
  5
294
330
1F
100
AcDbEntity
  8
0
  6
Continuous
 62
     8
370
    15
100
AcDbLine
 10
582.2688652407
 20
721.3400111875
 30
0.0
 11
483.8505624067
 21
721.3400111875
 31
0.0
  0
SPLINE
  5
295
330
1F
100
AcDbEntity
  8
0
  6
Continuous
 62
     8
370
    15
100
AcDbSpline
210
0.0
220
0.0
230
1.0
 70
     8
 71
     3
 72
    23
 73
    19
 74
     0
 42
0.00000001
 43
0.00000001
 12
1.0
 22
0.0
 32
0.0
 13
1.0
 23
0.0
 33
0.0
 40
0.0
 40
0.0
 40
0.0
 40
0.0
 40
0.1811875860442891
 40
0.3623055090904667
 40
0.4566897323610182
 40
0.4824162061498847
 40
0.4917243588812608
 40
0.4940640750851015
 40
0.4992696484304648
 40
0.5041380922401935
 40
0.509205585980194
 40
0.5176716377907886
 40
0.5384414246016855
 40
0.6043439783868192
 40
0.6752932080723427
 40
0.7859484256556173
 40
0.9582988230604891
 40
1.0
 40
1.0
 40
1.0
 40
1.0
 10
212.7689881454673
 20
760.1175413808403
 30
0.0
 10
212.5616393736573
 20
759.4587031662483
 30
0.0
 10
212.1470215514873
 20
758.1412800471631
 30
0.0
 10
211.5081933113849
 20
756.2852099055779
 30
0.0
 10
211.0177460892388
 20
754.9160278080169
 30
0.0
 10
210.8070232927934
 20
753.9991802082754
 30
0.0
 10
210.75879392116
 20
753.6040431534853
 30
0.0
 10
210.7443151028128
 20
753.3940439743354
 30
0.0
 10
210.7383115373973
 20
753.222499476905
 30
0.0
 10
210.7422572701153
 20
753.0088206280496
 30
0.0
 10
210.7579830893723
 20
752.7759894930522
 30
0.0
 10
210.8024293485373
 20
752.4188800128846
 30
0.0
 10
210.9542415112213
 20
751.7064334855861
 30
0.0
 10
211.2150307259355
 20
750.916143398264
 30
0.0
 10
211.5947487048194
 20
749.8236194317132
 30
0.0
 10
212.0888470468293
 20
748.4201955051246
 30
0.0
 10
212.4844212251255
 20
747.1988778413721
 30
0.0
 10
212.7225887404297
 20
746.4108399533145
 30
0.0
 10
212.7689881454673
 20
746.2573157033501
 30
0.0
  0
SPLINE
  5
296
330
1F
100
AcDbEntity
  8
0
  6
Continuous
 62
     8
370
    15
100
AcDbSpline
210
0.0
220
0.0
230
1.0
 70
     8
 71
     3
 72
    23
 73
    19
 74
     0
 42
0.00000001
 43
0.00000001
 12
1.0
 22
0.0
 32
0.0
 13
1.0
 23
0.0
 33
0.0
 40
0.0
 40
0.0
 40
0.0
 40
0.0
 40
0.0417010795264203
 40
0.2140510743243127
 40
0.3247060334192776
 40
0.3956550973688615
 40
0.4615574972069865
 40
0.4823272355000892
 40
0.491208029735613
 40
0.4958592723179815
 40
0.5010578570288428
 40
0.5059327807886911
 40
0.5113130360105183
 40
0.5175946519096264
 40
0.5433210656019799
 40
0.6377050683929293
 40
0.7815067199739564
 40
1.0
 40
1.0
 40
1.0
 40
1.0
 10
578.3504409919944
 20
746.2573157033501
 30
0.0
 10
578.3968404419008
 20
746.410840252995
 30
0.0
 10
578.635008187516
 20
747.1988796793077
 30
0.0
 10
579.0305773352275
 20
748.4201637435857
 30
0.0
 10
579.5246894531529
 20
749.8236796800619
 30
0.0
 10
579.9043782789767
 20
750.9160089321633
 30
0.0
 10
580.1652377471376
 20
751.7067682450538
 30
0.0
 10
580.3176204027975
 20
752.4217106486506
 30
0.0
 10
580.36200994677
 20
752.7808357074052
 30
0.0
 10
580.3775609895757
 20
753.0188060895806
 30
0.0
 10
580.3810726283895
 20
753.227733216433
 30
0.0
 10
580.3732937894124
 20
753.4397090739621
 30
0.0
 10
580.3566305874268
 20
753.6379263907593
 30
0.0
 10
580.3077213885479
 20
754.0188905352967
 30
0.0
 10
580.1013120308103
 20
754.918488316563
 30
0.0
 10
579.672122581851
 20
756.1180030918636
 30
0.0
 10
579.0195426973961
 20
757.9741959994077
 30
0.0
 10
578.602157923151
 20
759.3112120627899
 30
0.0
 10
578.3504409919944
 20
760.1175413808403
 30
0.0
  0
SPLINE
  5
297
330
1F
100
AcDbEntity
  8
0
  6
Continuous
 62
     8
370
    15
100
AcDbSpline
210
0.0
220
0.0
230
1.0
 70
     8
 71
     3
 72
     9
 73
     5
 74
     0
 42
0.00000001
 43
0.00000001
 12
1.0
 22
0.0
 32
0.0
 13
1.0
 23
0.0
 33
0.0
 40
0.0
 40
0.0
 40
0.0
 40
0.0
 40
0.4996304566550682
 40
1.0
 40
1.0
 40
1.0
 40
1.0
 10
405.6103857438531
 20
780.6283341130791
 30
0.0
 10
405.6132796005855
 20
780.3857079980053
 30
0.0
 10
405.619071594836
 20
779.9000968591281
 30
0.0
 10
405.6541326155598
 20
779.5061195481554
 30
0.0
 10
405.6716760824885
 20
779.3089853009758
 30
0.0
  0
LWPOLYLINE
  5
298
330
1F
100
AcDbEntity
  8
0
  6
Continuous
 62
     8
370
    15
100
AcDbPolyline
 90
        9
 70
   128
 43
0.0
 10
405.6716760825
 20
779.308985301
 10
404.7124855425
 20
779.2311416349
 10
403.7889227475
 20
779.0336118421
 10
402.9353139195
 20
778.7237868986
 10
402.1833836305
 20
778.3130512914
 10
401.5610785428
 20
777.816783019
 10
401.0915271211
 20
777.253340312
 10
400.7921804878
 20
776.6437636098
 10
400.6741642225
 20
776.0105834684
  0
LINE
  5
299
330
1F
100
AcDbEntity
  8
0
  6
Continuous
 62
     8
370
    15
100
AcDbLine
 10
405.6103857439
 20
780.6283341131
 30
0.0
 11
400.6134312804
 21
780.6283341131
 31
0.0
  0
SPLINE
  5
29A
330
1F
100
AcDbEntity
  8
0
  6
Continuous
 62
     8
370
    15
100
AcDbSpline
210
0.0
220
0.0
230
1.0
 70
     8
 71
     3
 72
     9
 73
     5
 74
     0
 42
0.00000001
 43
0.00000001
 12
1.0
 22
0.0
 32
0.0
 13
1.0
 23
0.0
 33
0.0
 40
0.0
 40
0.0
 40
0.0
 40
0.0
 40
0.5004532994965188
 40
1.0
 40
1.0
 40
1.0
 40
1.0
 10
385.4477530549731
 20
779.3089853009758
 30
0.0
 10
385.46529881299
 20
779.5061581756574
 30
0.0
 10
385.5003585439069
 20
779.900146735389
 30
0.0
 10
385.5061501939427
 20
780.3857517368507
 30
0.0
 10
385.5090433936086
 20
780.6283341130791
 30
0.0
  0
LINE
  5
29B
330
1F
100
AcDbEntity
  8
0
  6
Continuous
 62
     8
370
    15
100
AcDbLine
 10
385.5090433936
 20
780.6283341131
 30
0.0
 11
390.505997857
 21
780.6283341131
 31
0.0
  0
LWPOLYLINE
  5
29C
330
1F
100
AcDbEntity
  8
0
  6
Continuous
 62
     8
370
    15
100
AcDbPolyline
 90
        9
 70
   128
 43
0.0
 10
385.447753055
 20
779.308985301
 10
386.406943595
 20
779.2311416349
 10
387.3305063899
 20
779.0336118421
 10
388.184115218
 20
778.7237868986
 10
388.9360455069
 20
778.3130512914
 10
389.5583505947
 20
777.816783019
 10
390.0279020164
 20
777.253340312
 10
390.3272486496
 20
776.6437636098
 10
390.445264915
 20
776.0105834684
  0
LINE
  5
29D
330
1F
100
AcDbEntity
  8
0
  6
Continuous
 62
     8
370
    15
100
AcDbLine
 10
475.5060015451
 20
725.7902131757
 30
0.0
 11
470.5090461503
 21
725.7902131757
 31
0.0
  0
SPLINE
  5
29E
330
1F
100
AcDbEntity
  8
0
  6
Continuous
 62
     8
370
    15
100
AcDbSpline
210
0.0
220
0.0
230
1.0
 70
     8
 71
     3
 72
     9
 73
     5
 74
     0
 42
0.00000001
 43
0.00000001
 12
1.0
 22
0.0
 32
0.0
 13
1.0
 23
0.0
 33
0.0
 40
0.0
 40
0.0
 40
0.0
 40
0.0
 40
0.4943691654813083
 40
1.0
 40
1.0
 40
1.0
 40
1.0
 10
470.5090461503234
 20
725.7902131757317
 30
0.0
 10
470.5072530184573
 20
726.0170791284623
 30
0.0
 10
470.5036259074007
 20
726.4759790125395
 30
0.0
 10
470.473294177216
 20
726.8574376976442
 30
0.0
 10
470.4579575191703
 20
727.0503149709282
 30
0.0
  0
LWPOLYLINE
  5
29F
330
1F
100
AcDbEntity
  8
0
  6
Continuous
 62
     8
370
    15
100
AcDbPolyline
 90
        9
 70
   128
 43
0.0
 10
475.4513738881
 20
730.2007184705
 10
475.3327457439
 20
729.5966253957
 10
475.0332175027
 20
729.0148840627
 10
474.5638756286
 20
728.4771905622
 10
473.9421395789
 20
728.0033932409
 10
473.1910614501
 20
727.611075469
 10
472.338498963
 20
727.3147807798
 10
471.4160574805
 20
727.1255360326
 10
470.4579575192
 20
727.0503149709
  0
LINE
  5
2A0
330
1F
100
AcDbEntity
  8
0
  6
Continuous
 62
     8
370
    15
100
AcDbLine
 10
315.6134275924
 20
780.5846439085
 30
0.0
 11
320.6103829871
 21
780.5846439085
 31
0.0
  0
SPLINE
  5
2A1
330
1F
100
AcDbEntity
  8
0
  6
Continuous
 62
     8
370
    15
100
AcDbSpline
210
0.0
220
0.0
230
1.0
 70
     8
 71
     3
 72
     9
 73
     5
 74
     0
 42
0.00000001
 43
0.00000001
 12
1.0
 22
0.0
 32
0.0
 13
1.0
 23
0.0
 33
0.0
 40
0.0
 40
0.0
 40
0.0
 40
0.0
 40
0.4996945269812404
 40
0.9999999999999999
 40
0.9999999999999999
 40
0.9999999999999999
 40
0.9999999999999999
 10
320.6103829871383
 20
780.5846439084587
 30
0.0
 10
320.6122254920952
 20
780.3553035076833
 30
0.0
 10
320.6159127547276
 20
779.8963423056047
 30
0.0
 10
320.6462791463612
 20
779.5152197924726
 30
0.0
 10
320.6614716182914
 20
779.3245421132622
 30
0.0
  0
LWPOLYLINE
  5
2A2
330
1F
100
AcDbEntity
  8
0
  6
Continuous
 62
     8
370
    15
100
AcDbPolyline
 90
        9
 70
   128
 43
0.0
 10
315.6680552493
 20
776.1741386137
 10
315.7866833936
 20
776.7782316885
 10
316.0862116348
 20
777.3599730215
 10
316.5555535089
 20
777.897666522
 10
317.1772895585
 20
778.3714638433
 10
317.9283676873
 20
778.7637816152
 10
318.7809301745
 20
779.0600763044
 10
319.703371657
 20
779.2493210516
 10
320.6614716183
 20
779.3245421133
  0
SPLINE
  5
2A3
330
1F
100
AcDbEntity
  8
0
  6
Continuous
 62
     8
370
    15
100
AcDbSpline
210
0.0
220
0.0
230
1.0
 70
     8
 71
     3
 72
     9
 73
     5
 74
     0
 42
0.00000001
 43
0.00000001
 12
1.0
 22
0.0
 32
0.0
 13
1.0
 23
0.0
 33
0.0
 40
0.0
 40
0.0
 40
0.0
 40
0.0
 40
0.5004015921888453
 40
1.0
 40
1.0
 40
1.0
 40
1.0
 10
470.4579575191703
 20
779.3245421132622
 30
0.0
 10
470.4731537546402
 20
779.5152567124892
 30
0.0
 10
470.5035218344128
 20
779.8963797988349
 30
0.0
 10
470.5072056979604
 20
780.3553454165888
 30
0.0
 10
470.5090461503234
 20
780.5846439084587
 30
0.0
  0
LINE
  5
2A4
330
1F
100
AcDbEntity
  8
0
  6
Continuous
 62
     8
370
    15
100
AcDbLine
 10
470.5090461503
 20
780.5846439085
 30
0.0
 11
475.5060015451
 21
780.5846439085
 31
0.0
  0
LWPOLYLINE
  5
2A5
330
1F
100
AcDbEntity
  8
0
  6
Continuous
 62
     8
370
    15
100
AcDbPolyline
 90
        9
 70
   128
 43
0.0
 10
470.4579575192
 20
779.3245421133
 10
471.4160574805
 20
779.2493210516
 10
472.338498963
 20
779.0600763044
 10
473.1910614501
 20
778.7637816152
 10
473.9421395789
 20
778.3714638433
 10
474.5638756286
 20
777.897666522
 10
475.0332175027
 20
777.3599730215
 10
475.3327457439
 20
776.7782316885
 10
475.4513738881
 20
776.1741386137
  0
LWPOLYLINE
  5
2A6
330
1F
100
AcDbEntity
  8
0
  6
Continuous
 62
     8
370
    15
100
AcDbPolyline
 90
        9
 70
   128
 43
0.0
 10
400.6741642225
 20
730.3642140112
 10
400.7921804878
 20
729.7310934743
 10
401.0915271211
 20
729.1215167722
 10
401.5610785428
 20
728.5580740652
 10
402.1833836305
 20
728.0618057928
 10
402.9353139195
 20
727.6510701856
 10
403.7889227475
 20
727.3411856374
 10
404.7124855425
 20
727.1436558446
 10
405.6716760825
 20
727.0658717832
  0
SPLINE
  5
2A7
330
1F
100
AcDbEntity
  8
0
  6
Continuous
 62
     8
370
    15
100
AcDbSpline
210
0.0
220
0.0
230
1.0
 70
     8
 71
     3
 72
    10
 73
     6
 74
     0
 42
0.00000001
 43
0.00000001
 12
1.0
 22
0.0
 32
0.0
 13
1.0
 23
0.0
 33
0.0
 40
0.0
 40
0.0
 40
0.0
 40
0.0
 40
0.4048101197559688
 40
0.8722890168385938
 40
1.0
 40
1.0
 40
1.0
 40
1.0
 10
405.6716760824885
 20
727.0658717832146
 30
0.0
 10
405.6575114957453
 20
726.9092687000945
 30
0.0
 10
405.6269894982921
 20
726.5718187630938
 30
0.0
 10
405.6117855879499
 20
726.0923473509529
 30
0.0
 10
405.6106330467337
 20
725.8075688180638
 30
0.0
 10
405.6103857438531
 20
725.7464633664665
 30
0.0
  0
LINE
  5
2A8
330
1F
100
AcDbEntity
  8
0
  6
Continuous
 62
     8
370
    15
100
AcDbLine
 10
400.6134312804
 20
725.7464633665
 30
0.0
 11
405.6103857439
 21
725.7464633665
 31
0.0
  0
LWPOLYLINE
  5
2A9
330
1F
100
AcDbEntity
  8
0
  6
Continuous
 62
     8
370
    15
100
AcDbPolyline
 90
        9
 70
   128
 43
0.0
 10
315.6680552493
 20
730.2007184705
 10
315.7866833936
 20
729.5966253957
 10
316.0862116348
 20
729.0148840627
 10
316.5555535089
 20
728.4771905622
 10
317.1772895585
 20
728.0033932409
 10
317.9283676873
 20
727.611075469
 10
318.7809301745
 20
727.3147807798
 10
319.703371657
 20
727.1255360326
 10
320.6614716183
 20
727.0503149709
  0
SPLINE
  5
2AA
330
1F
100
AcDbEntity
  8
0
  6
Continuous
 62
     8
370
    15
100
AcDbSpline
210
0.0
220
0.0
230
1.0
 70
     8
 71
     3
 72
    10
 73
     6
 74
     0
 42
0.00000001
 43
0.00000001
 12
1.0
 22
0.0
 32
0.0
 13
1.0
 23
0.0
 33
0.0
 40
0.0
 40
0.0
 40
0.0
 40
0.0
 40
0.4276436258956999
 40
0.9217408193391163
 40
1.0
 40
1.0
 40
1.0
 40
1.0
 10
320.6614716182914
 20
727.0503149709282
 30
0.0
 10
320.6485643778542
 20
726.8894492040581
 30
0.0
 10
320.6207441797837
 20
726.5427199772442
 30
0.0
 10
320.6102070368808
 20
726.0847302593427
 30
0.0
 10
320.6103618229918
 20
725.8256391127311
 30
0.0
 10
320.6103829871383
 20
725.7902131757317
 30
0.0
  0
LINE
  5
2AB
330
1F
100
AcDbEntity
  8
0
  6
Continuous
 62
     8
370
    15
100
AcDbLine
 10
315.6134275924
 20
725.7902131757
 30
0.0
 11
320.6103829871
 21
725.7902131757
 31
0.0
  0
LWPOLYLINE
  5
2AC
330
1F
100
AcDbEntity
  8
0
  6
Continuous
 62
     8
370
    15
100
AcDbPolyline
 90
        9
 70
   128
 43
0.0
 10
485.6646595727
 20
730.1030264577
 10
485.783891214
 20
729.5153246603
 10
486.0842539202
 20
728.9494977674
 10
486.5545941721
 20
728.4264670095
 10
487.1774552594
 20
727.9657231054
 10
487.9296956788
 20
727.5843129835
 10
488.7833832036
 20
727.2964225492
 10
489.7068156134
 20
727.1127806387
 10
490.6657127868
 20
727.0401821813
  0
SPLINE
  5
2AD
330
1F
100
AcDbEntity
  8
0
  6
Continuous
 62
     8
370
    15
100
AcDbSpline
210
0.0
220
0.0
230
1.0
 70
     8
 71
     3
 72
     9
 73
     5
 74
     0
 42
0.00000001
 43
0.00000001
 12
1.0
 22
0.0
 32
0.0
 13
1.0
 23
0.0
 33
0.0
 40
0.0
 40
0.0
 40
0.0
 40
0.0
 40
0.5118983885649773
 40
1.0
 40
1.0
 40
1.0
 40
1.0
 10
490.6657127867904
 20
727.0401821813164
 30
0.0
 10
490.6500078165133
 20
726.8488775427933
 30
0.0
 10
490.6193279577209
 20
726.4751615030542
 30
0.0
 10
490.6133181648583
 20
726.0315407247263
 30
0.0
 10
490.6103847752776
 20
725.8150087079582
 30
0.0
  0
LINE
  5
2AE
330
1F
100
AcDbEntity
  8
0
  6
Continuous
 62
     8
370
    15
100
AcDbLine
 10
485.6134293805
 20
725.815008708
 30
0.0
 11
490.6103847753
 21
725.815008708
 31
0.0
  0
SPLINE
  5
2AF
330
1F
100
AcDbEntity
  8
0
  6
Continuous
 62
     8
370
    15
100
AcDbSpline
210
0.0
220
0.0
230
1.0
 70
     8
 71
     3
 72
     9
 73
     5
 74
     0
 42
0.00000001
 43
0.00000001
 12
1.0
 22
0.0
 32
0.0
 13
1.0
 23
0.0
 33
0.0
 40
0.0
 40
0.0
 40
0.0
 40
0.0
 40
0.5109143405731473
 40
1.0
 40
1.0
 40
1.0
 40
1.0
 10
300.5090443621841
 20
725.8150087079582
 30
0.0
 10
300.505860101109
 20
726.0417834900524
 30
0.0
 10
300.4996276256779
 20
726.4856441611769
 30
0.0
 10
300.4687957694204
 20
726.8580458538727
 30
0.0
 10
300.4537163506713
 20
727.0401821813164
 30
0.0
  0
LWPOLYLINE
  5
2B0
330
1F
100
AcDbEntity
  8
0
  6
Continuous
 62
     8
370
    15
100
AcDbPolyline
 90
        9
 70
   128
 43
0.0
 10
300.4537163507
 20
727.0401821813
 10
301.4126135241
 20
727.1127806387
 10
302.3360459338
 20
727.2964225492
 10
303.1897334586
 20
727.5843129835
 10
303.941973878
 20
727.9657231054
 10
304.5648349653
 20
728.4264670095
 10
305.0351752173
 20
728.9494977674
 10
305.3355379235
 20
729.5153246603
 10
305.4547695647
 20
730.1030264577
  0
LINE
  5
2B1
330
1F
100
AcDbEntity
  8
0
  6
Continuous
 62
     8
370
    15
100
AcDbLine
 10
300.5090443622
 20
725.815008708
 30
0.0
 11
305.5059997569
 21
725.815008708
 31
0.0
  0
LINE
  5
2B2
330
1F
100
AcDbEntity
  8
0
  6
Continuous
 62
     8
370
    15
100
AcDbLine
 10
390.505997857
 20
725.7464633665
 30
0.0
 11
385.5090433936
 21
725.7464633665
 31
0.0
  0
SPLINE
  5
2B3
330
1F
100
AcDbEntity
  8
0
  6
Continuous
 62
     8
370
    15
100
AcDbSpline
210
0.0
220
0.0
230
1.0
 70
     8
 71
     3
 72
    10
 73
     6
 74
     0
 42
0.00000001
 43
0.00000001
 12
1.0
 22
0.0
 32
0.0
 13
1.0
 23
0.0
 33
0.0
 40
0.0
 40
0.0
 40
0.0
 40
0.0
 40
0.4674808590094045
 40
0.9355996727422518
 40
1.0
 40
1.0
 40
1.0
 40
1.0
 10
385.5090433936086
 20
725.7464633664665
 30
0.0
 10
385.5062586593846
 20
725.9710713013135
 30
0.0
 10
385.5006853907076
 20
726.4205936855743
 30
0.0
 10
385.4703799977788
 20
726.8490306171047
 30
0.0
 10
385.4501942260172
 20
727.0424772671984
 30
0.0
 10
385.4477530549731
 20
727.0658717832146
 30
0.0
  0
LWPOLYLINE
  5
2B4
330
1F
100
AcDbEntity
  8
0
  6
Continuous
 62
     8
370
    15
100
AcDbPolyline
 90
        9
 70
   128
 43
0.0
 10
390.445264915
 20
730.3642140112
 10
390.3272486496
 20
729.7310934743
 10
390.0279020164
 20
729.1215167722
 10
389.5583505947
 20
728.5580740652
 10
388.9360455069
 20
728.0618057928
 10
388.184115218
 20
727.6510701856
 10
387.3305063899
 20
727.3411856374
 10
386.406943595
 20
727.1436558446
 10
385.447753055
 20
727.0658717832
  0
LINE
  5
2B5
330
1F
100
AcDbEntity
  8
0
  6
Continuous
 62
     8
370
    15
100
AcDbLine
 10
485.6134293805
 20
780.5598483762
 30
0.0
 11
490.6103847753
 21
780.5598483762
 31
0.0
  0
SPLINE
  5
2B6
330
1F
100
AcDbEntity
  8
0
  6
Continuous
 62
     8
370
    15
100
AcDbSpline
210
0.0
220
0.0
230
1.0
 70
     8
 71
     3
 72
     9
 73
     5
 74
     0
 42
0.00000001
 43
0.00000001
 12
1.0
 22
0.0
 32
0.0
 13
1.0
 23
0.0
 33
0.0
 40
0.0
 40
0.0
 40
0.0
 40
0.0
 40
0.4996646714421449
 40
1.0
 40
1.0
 40
1.0
 40
1.0
 10
490.6103847752776
 20
780.5598483762321
 30
0.0
 10
490.6134465978303
 20
780.3381181212343
 30
0.0
 10
490.6195743525578
 20
779.8943600016985
 30
0.0
 10
490.6503264340121
 20
779.5212802689114
 30
0.0
 10
490.6657127867904
 20
779.3346152982292
 30
0.0
  0
LWPOLYLINE
  5
2B7
330
1F
100
AcDbEntity
  8
0
  6
Continuous
 62
     8
370
    15
100
AcDbPolyline
 90
        9
 70
   128
 43
0.0
 10
485.6646595727
 20
776.2718306264
 10
485.783891214
 20
776.8595324239
 10
486.0842539202
 20
777.4253593168
 10
486.5545941721
 20
777.9483900747
 10
487.1774552594
 20
778.4091339788
 10
487.9296956788
 20
778.7905441007
 10
488.7833832036
 20
779.0783749303
 10
489.7068156134
 20
779.2620168409
 10
490.6657127868
 20
779.3346152982
  0
LWPOLYLINE
  5
2B8
330
1F
100
AcDbEntity
  8
0
  6
Continuous
 62
     8
370
    15
100
AcDbPolyline
 90
        9
 70
   128
 43
0.0
 10
305.4547695647
 20
776.2718306264
 10
305.3355379235
 20
776.8595324239
 10
305.0351752173
 20
777.4253593168
 10
304.5648349653
 20
777.9483900747
 10
303.941973878
 20
778.4091339788
 10
303.1897334586
 20
778.7905441007
 10
302.3360459338
 20
779.0783749303
 10
301.4126135241
 20
779.2620168409
 10
300.4537163507
 20
779.3346152982
  0
SPLINE
  5
2B9
330
1F
100
AcDbEntity
  8
0
  6
Continuous
 62
     8
370
    15
100
AcDbSpline
210
0.0
220
0.0
230
1.0
 70
     8
 71
     3
 72
     9
 73
     5
 74
     0
 42
0.00000001
 43
0.00000001
 12
1.0
 22
0.0
 32
0.0
 13
1.0
 23
0.0
 33
0.0
 40
0.0
 40
0.0
 40
0.0
 40
0.0
 40
0.5003355671180926
 40
1.0
 40
1.0
 40
1.0
 40
1.0
 10
300.4537163506713
 20
779.3346152982292
 30
0.0
 10
300.4691064301658
 20
779.5212802145029
 30
0.0
 10
300.4998659453909
 20
779.8943596606612
 30
0.0
 10
300.5059862591037
 20
780.3381180781972
 30
0.0
 10
300.5090443621841
 20
780.5598483762321
 30
0.0
  0
LINE
  5
2BA
330
1F
100
AcDbEntity
  8
0
  6
Continuous
 62
     8
370
    15
100
AcDbLine
 10
305.5059997569
 20
780.5598483762
 30
0.0
 11
300.5090443622
 21
780.5598483762
 31
0.0
  0
LINE
  5
2BB
330
1F
100
AcDbEntity
  8
0
  6
Continuous
 62
     8
370
    15
100
AcDbLine
 10
210.6269164215
 20
780.4250226698
 30
0.0
 11
215.2241034638
 21
780.4250226698
 31
0.0
  0
SPLINE
  5
2BC
330
1F
100
AcDbEntity
  8
0
  6
Continuous
 62
     8
370
    15
100
AcDbSpline
210
0.0
220
0.0
230
1.0
 70
     8
 71
     3
 72
    10
 73
     6
 74
     0
 42
0.00000001
 43
0.00000001
 12
1.0
 22
0.0
 32
0.0
 13
1.0
 23
0.0
 33
0.0
 40
0.0
 40
0.0
 40
0.0
 40
0.0
 40
0.0486244725034483
 40
0.6765313517455727
 40
1.0
 40
1.0
 40
1.0
 40
1.0
 10
215.2241034637657
 20
780.4250226697502
 30
0.0
 10
215.2240552500382
 20
780.4077033851511
 30
0.0
 10
215.2233844335422
 20
780.1667333875804
 30
0.0
 10
215.2296699551461
 20
779.8055710492378
 30
0.0
 10
215.2466999576462
 20
779.5055318879834
 30
0.0
 10
215.2524901758399
 20
779.4035182675896
 30
0.0
  0
LWPOLYLINE
  5
2BD
330
1F
100
AcDbEntity
  8
0
  6
Continuous
 62
     8
370
    15
100
AcDbPolyline
 90
        9
 70
   128
 43
0.0
 10
210.6592519413
 20
777.0538435659
 10
210.7705487143
 20
777.5035606107
 10
211.0475613009
 20
777.9366479597
 10
211.4800377022
 20
778.3371315679
 10
212.0520038735
 20
778.6902294836
 10
212.7423448693
 20
778.9828882894
 10
213.5255648028
 20
779.2042599401
 10
214.3726958166
 20
779.346238204
 10
215.2524901758
 20
779.4035182676
  0
LINE
  5
2BE
330
1F
100
AcDbEntity
  8
0
  6
Continuous
 62
     8
370
    15
100
AcDbLine
 10
470.5090461503
 20
780.5846439085
 30
0.0
 11
470.5090461503
 21
782.4514017782
 31
0.0
  0
LINE
  5
2BF
330
1F
100
AcDbEntity
  8
0
  6
Continuous
 62
     8
370
    15
100
AcDbLine
 10
470.5090461503
 20
782.4514017782
 30
0.0
 11
475.5060015451
 21
782.4514017782
 31
0.0
  0
LINE
  5
2C0
330
1F
100
AcDbEntity
  8
0
  6
Continuous
 62
     8
370
    15
100
AcDbLine
 10
485.6134293805
 20
723.923455306
 30
0.0
 11
490.6103847753
 21
723.923455306
 31
0.0
  0
ELLIPSE
  5
2C1
330
1F
100
AcDbEntity
  8
0
  6
Continuous
 62
     8
370
    15
100
AcDbEllipse
 10
483.6061185632
 20
723.9448363377
 30
0.0
 11
-2.60643701293543
 21
6.530030527538655
 31
0.0
210
0.0
220
0.0
230
1.0
 40
0.9955924488
 41
4.246870785361487
 42
4.331095551714316
  0
LWPOLYLINE
  5
2C2
330
1F
100
AcDbEntity
  8
0
  6
Continuous
 62
     8
370
    15
100
AcDbPolyline
 90
        9
 70
   128
 43
0.0
 10
485.6075955759
 20
723.7514363012
 10
485.738040341
 20
723.7404690466
 10
486.044944657
 20
723.7146006307
 10
486.5171401035
 20
723.6749039373
 10
487.1374381911
 20
723.6226902685
 10
487.88325621
 20
723.5598669729
 10
488.7274516951
 20
723.4888182363
 10
489.6392761003
 20
723.4120474538
 10
490.5855594407
 20
723.3324156484
  0
ELLIPSE
  5
2C3
330
1F
100
AcDbEntity
  8
0
  6
Continuous
 62
     8
370
    15
100
AcDbEllipse
 10
392.5133105709
 20
782.4300104465
 30
0.0
 11
-2.606437012935487
 21
6.530030527538656
 31
0.0
210
0.0
220
0.0
230
1.0
 40
0.9955924488
 41
1.10527813177166
 42
1.189502898124521
  0
LWPOLYLINE
  5
2C4
330
1F
100
AcDbEntity
  8
0
  6
Continuous
 62
     8
370
    15
100
AcDbPolyline
 90
        9
 70
   128
 43
0.0
 10
385.5338724534
 20
783.0424414358
 10
386.480150206
 20
782.9627500257
 10
387.3919811304
 20
782.8860388479
 10
388.2361714933
 20
782.8149901113
 10
388.9819904435
 20
782.7521668157
 10
389.6022889968
 20
782.6999531469
 10
390.0744858402
 20
782.6601968488
 10
390.3813920188
 20
782.6343880376
 10
390.5118349213
 20
782.623420783
  0
LINE
  5
2C5
330
1F
100
AcDbEntity
  8
0
  6
Continuous
 62
     8
370
    15
100
AcDbLine
 10
385.5090433936
 20
782.4514017782
 30
0.0
 11
390.505997857
 21
782.4514017782
 31
0.0
  0
LINE
  5
2C6
330
1F
100
AcDbEntity
  8
0
  6
Continuous
 62
     8
370
    15
100
AcDbLine
 10
485.6134293805
 20
782.4514017782
 30
0.0
 11
490.6103847753
 21
782.4514017782
 31
0.0
  0
LINE
  5
2C7
330
1F
100
AcDbEntity
  8
0
  6
Continuous
 62
     8
370
    15
100
AcDbLine
 10
490.6103847753
 20
782.4514017782
 30
0.0
 11
490.6103847753
 21
780.5598483762
 31
0.0
  0
LWPOLYLINE
  5
2C8
330
1F
100
AcDbEntity
  8
0
  6
Continuous
 62
     8
370
    15
100
AcDbPolyline
 90
        9
 70
   128
 43
0.0
 10
485.6075955759
 20
782.623420783
 10
485.738040341
 20
782.6343880376
 10
486.044944657
 20
782.6601968488
 10
486.5171401035
 20
782.6999531469
 10
487.1374381911
 20
782.7521668157
 10
487.88325621
 20
782.8149901113
 10
488.7274516951
 20
782.8860388479
 10
489.6392761003
 20
782.9627500257
 10
490.5855594407
 20
783.0424414358
  0
ELLIPSE
  5
2C9
330
1F
100
AcDbEntity
  8
0
  6
Continuous
 62
     8
370
    15
100
AcDbEllipse
 10
483.6061185632
 20
782.4300104465
 30
0.0
 11
-2.606437012935487
 21
-6.530030527538429
 31
0.0
210
0.0
220
0.0
230
1.0
 40
0.9955924488
 41
1.952089755465295
 42
2.036314521818157
  0
LINE
  5
2CA
330
1F
100
AcDbEntity
  8
0
  6
Continuous
 62
     8
370
    15
100
AcDbLine
 10
400.6134312804
 20
723.923455306
 30
0.0
 11
405.6103857439
 21
723.923455306
 31
0.0
  0
ELLIPSE
  5
2CB
330
1F
100
AcDbEntity
  8
0
  6
Continuous
 62
     8
370
    15
100
AcDbEllipse
 10
398.6061185632
 20
723.9448363377
 30
0.0
 11
-2.606437012935487
 21
6.530030527538656
 31
0.0
210
0.0
220
0.0
230
1.0
 40
0.9955924488
 41
4.246870785361484
 42
4.331095551714311
  0
LWPOLYLINE
  5
2CC
330
1F
100
AcDbEntity
  8
0
  6
Continuous
 62
     8
370
    15
100
AcDbPolyline
 90
        9
 70
   128
 43
0.0
 10
400.6075942162
 20
723.7514363012
 10
400.7380371186
 20
723.7404690466
 10
401.0449432972
 20
723.7146006307
 10
401.5171401407
 20
723.6749039373
 10
402.1374382283
 20
723.6226902685
 10
402.8832576442
 20
723.5598669729
 10
403.727448007
 20
723.4888182363
 10
404.6392789315
 20
723.4120474538
 10
405.585556684
 20
723.3324156484
  0
LINE
  5
2CD
330
1F
100
AcDbEntity
  8
0
  6
Continuous
 62
     8
370
    15
100
AcDbLine
 10
390.505997857
 20
723.923455306
 30
0.0
 11
385.5090433936
 21
723.923455306
 31
0.0
  0
LINE
  5
2CE
330
1F
100
AcDbEntity
  8
0
  6
Continuous
 62
     8
370
    15
100
AcDbLine
 10
385.5090433936
 20
723.923455306
 30
0.0
 11
385.5090433936
 21
725.7464633665
 31
0.0
  0
LWPOLYLINE
  5
2CF
330
1F
100
AcDbEntity
  8
0
  6
Continuous
 62
     8
370
    15
100
AcDbPolyline
 90
        9
 70
   128
 43
0.0
 10
390.5118349213
 20
723.7514363012
 10
390.3813920188
 20
723.7404690466
 10
390.0744858402
 20
723.7146006307
 10
389.6022889968
 20
723.6749039373
 10
388.9819904435
 20
723.6226902685
 10
388.2361714933
 20
723.5598669729
 10
387.3919811304
 20
723.4888182363
 10
386.480150206
 20
723.4120474538
 10
385.5338724534
 20
723.3324156484
  0
ELLIPSE
  5
2D0
330
1F
100
AcDbEntity
  8
0
  6
Continuous
 62
     8
370
    15
100
AcDbEllipse
 10
392.5133105709
 20
723.9448363377
 30
0.0
 11
-2.60643701293543
 21
-6.530030527538429
 31
0.0
210
0.0
220
0.0
230
1.0
 40
0.9955924488
 41
5.093682409055112
 42
5.177907175407942
  0
LINE
  5
2D1
330
1F
100
AcDbEntity
  8
0
  6
Continuous
 62
     8
370
    15
100
AcDbLine
 10
315.6134275924
 20
723.923455306
 30
0.0
 11
320.6103829871
 21
723.923455306
 31
0.0
  0
ELLIPSE
  5
2D2
330
1F
100
AcDbEntity
  8
0
  6
Continuous
 62
     8
370
    15
100
AcDbEllipse
 10
313.6061185632
 20
723.9448363377
 30
0.0
 11
-2.606437012935487
 21
6.530030527538656
 31
0.0
210
0.0
220
0.0
230
1.0
 40
0.9955924488
 41
4.246870785361484
 42
4.331095551714311
  0
LWPOLYLINE
  5
2D3
330
1F
100
AcDbEntity
  8
0
  6
Continuous
 62
     8
370
    15
100
AcDbPolyline
 90
        9
 70
   128
 43
0.0
 10
315.6075937878
 20
723.7514363012
 10
315.7380385529
 20
723.7404690466
 10
316.0449428688
 20
723.7146006307
 10
316.5171383153
 20
723.6749039373
 10
317.1374364029
 20
723.6226902685
 10
317.8832544218
 20
723.5598669729
 10
318.7274499069
 20
723.4888182363
 10
319.6392817627
 20
723.4120474538
 10
320.5855576526
 20
723.3324156484
  0
LINE
  5
2D4
330
1F
100
AcDbEntity
  8
0
  6
Continuous
 62
     8
370
    15
100
AcDbLine
 10
305.5059997569
 20
782.4514017782
 30
0.0
 11
300.5090443622
 21
782.4514017782
 31
0.0
  0
ELLIPSE
  5
2D5
330
1F
100
AcDbEntity
  8
0
  6
Continuous
 62
     8
370
    15
100
AcDbEllipse
 10
307.5133105709
 20
782.4300104465
 30
0.0
 11
-2.606437012935373
 21
6.530030527538657
 31
0.0
210
0.0
220
0.0
230
1.0
 40
0.9955924488
 41
1.10527813177167
 42
1.189502898124531
  0
LWPOLYLINE
  5
2D6
330
1F
100
AcDbEntity
  8
0
  6
Continuous
 62
     8
370
    15
100
AcDbPolyline
 90
        9
 70
   128
 43
0.0
 10
305.5118335615
 20
782.623420783
 10
305.3813887964
 20
782.6343880376
 10
305.0744844805
 20
782.6601968488
 10
304.602289034
 20
782.6999531469
 10
303.9819909464
 20
782.7521668157
 10
303.2361729275
 20
782.8149901113
 10
302.3919774424
 20
782.8860388479
 10
301.4801530372
 20
782.9627500257
 10
300.5338696967
 20
783.0424414358
  0
LINE
  5
2D7
330
1F
100
AcDbEntity
  8
0
  6
Continuous
 62
     8
370
    15
100
AcDbLine
 10
490.6103847753
 20
725.815008708
 30
0.0
 11
490.6103847753
 21
723.923455306
 31
0.0
  0
LINE
  5
2D8
330
1F
100
AcDbEntity
  8
0
  6
Continuous
 62
     8
370
    15
100
AcDbLine
 10
405.6103857439
 20
725.7464633665
 30
0.0
 11
405.6103857439
 21
723.923455306
 31
0.0
  0
LINE
  5
2D9
330
1F
100
AcDbEntity
  8
0
  6
Continuous
 62
     8
370
    15
100
AcDbLine
 10
320.6103829871
 20
725.7902131757
 30
0.0
 11
320.6103829871
 21
723.923455306
 31
0.0
  0
LINE
  5
2DA
330
1F
100
AcDbEntity
  8
0
  6
Continuous
 62
     8
370
    15
100
AcDbLine
 10
300.5090443622
 20
723.923455306
 30
0.0
 11
300.5090443622
 21
725.815008708
 31
0.0
  0
LINE
  5
2DB
330
1F
100
AcDbEntity
  8
0
  6
Continuous
 62
     8
370
    15
100
AcDbLine
 10
300.5090443622
 20
723.923455306
 30
0.0
 11
305.5059997569
 21
723.923455306
 31
0.0
  0
ELLIPSE
  5
2DC
330
1F
100
AcDbEntity
  8
0
  6
Continuous
 62
     8
370
    15
100
AcDbEllipse
 10
477.5133105709
 20
782.4300104465
 30
0.0
 11
-2.606437012935373
 21
6.530030527538657
 31
0.0
210
0.0
220
0.0
230
1.0
 40
0.9955924488
 41
1.105278131771669
 42
1.189502898124531
  0
LWPOLYLINE
  5
2DD
330
1F
100
AcDbEntity
  8
0
  6
Continuous
 62
     8
370
    15
100
AcDbPolyline
 90
        9
 70
   128
 43
0.0
 10
470.5338714849
 20
783.0424414358
 10
471.4801473747
 20
782.9627500257
 10
472.3919792305
 20
782.8860388479
 10
473.2361747156
 20
782.8149901113
 10
473.9819927345
 20
782.7521668157
 10
474.6022908221
 20
782.6999531469
 10
475.0744862686
 20
782.6601968488
 10
475.3813905846
 20
782.6343880376
 10
475.5118353497
 20
782.623420783
  0
LINE
  5
2DE
330
1F
100
AcDbEntity
  8
0
  6
Continuous
 62
     8
370
    15
100
AcDbLine
 10
475.5060015451
 20
723.923455306
 30
0.0
 11
470.5090461503
 21
723.923455306
 31
0.0
  0
LINE
  5
2DF
330
1F
100
AcDbEntity
  8
0
  6
Continuous
 62
     8
370
    15
100
AcDbLine
 10
470.5090461503
 20
723.923455306
 30
0.0
 11
470.5090461503
 21
725.7902131757
 31
0.0
  0
LINE
  5
2E0
330
1F
100
AcDbEntity
  8
0
  6
Continuous
 62
     8
370
    15
100
AcDbLine
 10
315.6134275924
 20
782.4514017782
 30
0.0
 11
320.6103829871
 21
782.4514017782
 31
0.0
  0
LINE
  5
2E1
330
1F
100
AcDbEntity
  8
0
  6
Continuous
 62
     8
370
    15
100
AcDbLine
 10
320.6103829871
 20
782.4514017782
 30
0.0
 11
320.6103829871
 21
780.5846439085
 31
0.0
  0
LWPOLYLINE
  5
2E2
330
1F
100
AcDbEntity
  8
0
  6
Continuous
 62
     8
370
    15
100
AcDbPolyline
 90
        9
 70
   128
 43
0.0
 10
315.6075937878
 20
782.623420783
 10
315.7380385529
 20
782.6343880376
 10
316.0449428688
 20
782.6601968488
 10
316.5171383153
 20
782.6999531469
 10
317.1374364029
 20
782.7521668157
 10
317.8832544218
 20
782.8149901113
 10
318.7274499069
 20
782.8860388479
 10
319.6392817627
 20
782.9627500257
 10
320.5855576526
 20
783.0424414358
  0
ELLIPSE
  5
2E3
330
1F
100
AcDbEntity
  8
0
  6
Continuous
 62
     8
370
    15
100
AcDbEllipse
 10
313.6061185632
 20
782.4300104465
 30
0.0
 11
-2.606437012935487
 21
-6.530030527538429
 31
0.0
210
0.0
220
0.0
230
1.0
 40
0.9955924488
 41
1.952089755465295
 42
2.036314521818157
  0
ELLIPSE
  5
2E4
330
1F
100
AcDbEntity
  8
0
  6
Continuous
 62
     8
370
    15
100
AcDbEllipse
 10
307.5133105709
 20
723.9448363377
 30
0.0
 11
-2.60643701293543
 21
-6.530030527538429
 31
0.0
210
0.0
220
0.0
230
1.0
 40
0.9955924488
 41
5.093682409055114
 42
5.177907175407944
  0
LWPOLYLINE
  5
2E5
330
1F
100
AcDbEntity
  8
0
  6
Continuous
 62
     8
370
    15
100
AcDbPolyline
 90
        9
 70
   128
 43
0.0
 10
300.5338696967
 20
723.3324156484
 10
301.4801530372
 20
723.4120474538
 10
302.3919774424
 20
723.4888182363
 10
303.2361729275
 20
723.5598669729
 10
303.9819909464
 20
723.6226902685
 10
304.602289034
 20
723.6749039373
 10
305.0744844805
 20
723.7146006307
 10
305.3813887964
 20
723.7404690466
 10
305.5118335615
 20
723.7514363012
  0
LINE
  5
2E6
330
1F
100
AcDbEntity
  8
0
  6
Continuous
 62
     8
370
    15
100
AcDbLine
 10
300.5090443622
 20
780.5598483762
 30
0.0
 11
300.5090443622
 21
782.4514017782
 31
0.0
  0
LINE
  5
2E7
330
1F
100
AcDbEntity
  8
0
  6
Continuous
 62
     8
370
    15
100
AcDbLine
 10
385.5090433936
 20
780.6283341131
 30
0.0
 11
385.5090433936
 21
782.4514017782
 31
0.0
  0
LWPOLYLINE
  5
2E8
330
1F
100
AcDbEntity
  8
0
  6
Continuous
 62
     8
370
    15
100
AcDbPolyline
 90
        9
 70
   128
 43
0.0
 10
475.5118353497
 20
723.7514363012
 10
475.3813905846
 20
723.7404690466
 10
475.0744862686
 20
723.7146006307
 10
474.6022908221
 20
723.6749039373
 10
473.9819927345
 20
723.6226902685
 10
473.2361747156
 20
723.5598669729
 10
472.3919792305
 20
723.4888182363
 10
471.4801473747
 20
723.4120474538
 10
470.5338714849
 20
723.3324156484
  0
ELLIPSE
  5
2E9
330
1F
100
AcDbEntity
  8
0
  6
Continuous
 62
     8
370
    15
100
AcDbEllipse
 10
477.5133105709
 20
723.9448363377
 30
0.0
 11
-2.60643701293543
 21
-6.530030527538429
 31
0.0
210
0.0
220
0.0
230
1.0
 40
0.9955924488
 41
5.093682409055112
 42
5.177907175407941
  0
LINE
  5
2EA
330
1F
100
AcDbEntity
  8
0
  6
Continuous
 62
     8
370
    15
100
AcDbLine
 10
405.6103857439
 20
782.4514017782
 30
0.0
 11
405.6103857439
 21
780.6283341131
 31
0.0
  0
LINE
  5
2EB
330
1F
100
AcDbEntity
  8
0
  6
Continuous
 62
     8
370
    15
100
AcDbLine
 10
405.6103857439
 20
782.4514017782
 30
0.0
 11
400.6134312804
 21
782.4514017782
 31
0.0
  0
ELLIPSE
  5
2EC
330
1F
100
AcDbEntity
  8
0
  6
Continuous
 62
     8
370
    15
100
AcDbEllipse
 10
398.6061185632
 20
782.4300104465
 30
0.0
 11
-2.606437012935487
 21
-6.530030527538429
 31
0.0
210
0.0
220
0.0
230
1.0
 40
0.9955924488
 41
1.952089755465295
 42
2.036314521818157
  0
LWPOLYLINE
  5
2ED
330
1F
100
AcDbEntity
  8
0
  6
Continuous
 62
     8
370
    15
100
AcDbPolyline
 90
        9
 70
   128
 43
0.0
 10
405.585556684
 20
783.0424414358
 10
404.6392789315
 20
782.9627500257
 10
403.727448007
 20
782.8860388479
 10
402.8832576442
 20
782.8149901113
 10
402.1374382283
 20
782.7521668157
 10
401.5171401407
 20
782.6999531469
 10
401.0449432972
 20
782.6601968488
 10
400.7380371186
 20
782.6343880376
 10
400.6075942162
 20
782.623420783
  0
ELLIPSE
  5
2EE
330
1F
100
AcDbEntity
  8
0
  6
Continuous
 62
     8
370
    15
100
AcDbEllipse
 10
477.2688651844
 20
783.0424310912
 30
0.0
 11
6.760485546893904
 21
0.190870206325485
 31
0.0
210
0.0
220
0.0
230
1.0
 40
0.294486438
 41
1.562482221002527
 42
3.046012085197737
  0
ELLIPSE
  5
2EF
330
1F
100
AcDbEntity
  8
0
  6
Continuous
 62
     8
370
    15
100
AcDbEllipse
 10
313.8505639496
 20
783.0424310912
 30
0.0
 11
6.760485546893904
 21
-0.190870206325485
 31
0.0
210
0.0
220
0.0
230
1.0
 40
0.294486438
 41
0.0955805683920567
 42
1.579110432587266
  0
ELLIPSE
  5
2F0
330
1F
100
AcDbEntity
  8
0
  6
Continuous
 62
     8
370
    15
100
AcDbEllipse
 10
483.8505639496
 20
783.0424310912
 30
0.0
 11
6.760485546893904
 21
-0.190870206325485
 31
0.0
210
0.0
220
0.0
230
1.0
 40
0.294486438
 41
0.0955805683920566
 42
1.579110432587266
  0
ELLIPSE
  5
2F1
330
1F
100
AcDbEntity
  8
0
  6
Continuous
 62
     8
370
    15
100
AcDbEllipse
 10
398.8505639496
 20
723.332415693
 30
0.0
 11
6.760485546893904
 21
0.190870206325485
 31
0.0
210
0.0
220
0.0
230
1.0
 40
0.294486438
 41
4.704074874592324
 42
6.187604738787576
  0
ELLIPSE
  5
2F2
330
1F
100
AcDbEntity
  8
0
  6
Continuous
 62
     8
370
    15
100
AcDbEllipse
 10
483.8505639496
 20
723.332415693
 30
0.0
 11
6.760485546893904
 21
0.190870206325485
 31
0.0
210
0.0
220
0.0
230
1.0
 40
0.294486438
 41
4.704074874592333
 42
6.187604738787575
  0
ELLIPSE
  5
2F3
330
1F
100
AcDbEntity
  8
0
  6
Continuous
 62
     8
370
    15
100
AcDbEllipse
 10
307.2688651844
 20
723.332415693
 30
0.0
 11
6.760485546893904
 21
-0.190870206325485
 31
0.0
210
0.0
220
0.0
230
1.0
 40
0.294486438
 41
3.237173221981896
 42
4.720703086177055
  0
ELLIPSE
  5
2F4
330
1F
100
AcDbEntity
  8
0
  6
Continuous
 62
     8
370
    15
100
AcDbEllipse
 10
398.8505639496
 20
783.0424310912
 30
0.0
 11
6.760485546893904
 21
-0.190870206325485
 31
0.0
210
0.0
220
0.0
230
1.0
 40
0.294486438
 41
0.0955805683920567
 42
1.579110432587266
  0
ELLIPSE
  5
2F5
330
1F
100
AcDbEntity
  8
0
  6
Continuous
 62
     8
370
    15
100
AcDbEllipse
 10
307.2688651844
 20
783.0424310912
 30
0.0
 11
6.760485546893904
 21
0.190870206325485
 31
0.0
210
0.0
220
0.0
230
1.0
 40
0.294486438
 41
1.562482221002527
 42
3.046012085197737
  0
ELLIPSE
  5
2F6
330
1F
100
AcDbEntity
  8
0
  6
Continuous
 62
     8
370
    15
100
AcDbEllipse
 10
392.2688651844
 20
783.0424310912
 30
0.0
 11
6.760485546893904
 21
0.190870206325485
 31
0.0
210
0.0
220
0.0
230
1.0
 40
0.294486438
 41
1.562482221002536
 42
3.046012085197737
  0
ELLIPSE
  5
2F7
330
1F
100
AcDbEntity
  8
0
  6
Continuous
 62
     8
370
    15
100
AcDbEllipse
 10
313.8505639496
 20
723.332415693
 30
0.0
 11
6.760485546893904
 21
0.190870206325485
 31
0.0
210
0.0
220
0.0
230
1.0
 40
0.294486438
 41
4.704074874592324
 42
6.187604738787575
  0
ELLIPSE
  5
2F8
330
1F
100
AcDbEntity
  8
0
  6
Continuous
 62
     8
370
    15
100
AcDbEllipse
 10
392.2688651844
 20
723.332415693
 30
0.0
 11
6.760485546893904
 21
-0.190870206325485
 31
0.0
210
0.0
220
0.0
230
1.0
 40
0.294486438
 41
3.237173221981896
 42
4.720703086177063
  0
ELLIPSE
  5
2F9
330
1F
100
AcDbEntity
  8
0
  6
Continuous
 62
     8
370
    15
100
AcDbEllipse
 10
477.2688651844
 20
723.332415693
 30
0.0
 11
6.760485546893904
 21
-0.190870206325485
 31
0.0
210
0.0
220
0.0
230
1.0
 40
0.294486438
 41
3.237173221981896
 42
4.720703086177063
  0
SPLINE
  5
2FA
330
1F
100
AcDbEntity
  8
0
  6
Continuous
 62
     8
370
    15
100
AcDbSpline
210
0.0
220
0.0
230
1.0
 70
     8
 71
     3
 72
    10
 73
     6
 74
     0
 42
0.00000001
 43
0.00000001
 12
1.0
 22
0.0
 32
0.0
 13
1.0
 23
0.0
 33
0.0
 40
0.0
 40
0.0
 40
0.0
 40
0.0
 40
0.3231088925905385
 40
0.8644044357923997
 40
1.0
 40
1.0
 40
1.0
 40
1.0
 10
215.2524901758399
 20
726.9713388166008
 30
0.0
 10
215.2467055275384
 20
726.8693026221946
 30
0.0
 10
215.231230015208
 20
726.596327965419
 30
0.0
 10
215.2237651744249
 20
726.2393984373709
 30
0.0
 10
215.2240470067977
 20
725.99810997708
 30
0.0
 10
215.2241034637656
 20
725.9497748097954
 30
0.0
  0
LINE
  5
2FB
330
1F
100
AcDbEntity
  8
0
  6
Continuous
 62
     8
370
    15
100
AcDbLine
 10
215.2241034638
 20
725.9497748098
 30
0.0
 11
210.6269164215
 21
725.9497748098
 31
0.0
  0
LWPOLYLINE
  5
2FC
330
1F
100
AcDbEntity
  8
0
  6
Continuous
 62
     8
370
    15
100
AcDbPolyline
 90
        9
 70
   128
 43
0.0
 10
215.2524901758
 20
726.9713388166
 10
214.3726958166
 20
727.0286188802
 10
213.5255648028
 20
727.1705971441
 10
212.7423448693
 20
727.3919687948
 10
212.0520038735
 20
727.6846276006
 10
211.4800377022
 20
728.0376659116
 10
211.0475613009
 20
728.4382091245
 10
210.7705487143
 20
728.8712964735
 10
210.6592519413
 20
729.3210135183
  0
LWPOLYLINE
  5
2FD
330
1F
100
AcDbEntity
  8
0
  6
Continuous
 62
     8
370
    15
100
AcDbPolyline
 90
        9
 70
   128
 43
0.0
 10
580.4601771961
 20
777.0538435659
 10
580.3488804232
 20
777.5035606107
 10
580.0718678366
 20
777.9366479597
 10
579.6393914353
 20
778.3371315679
 10
579.067425264
 20
778.6902294836
 10
578.3770842682
 20
778.9828882894
 10
577.5938643347
 20
779.2042599401
 10
576.7467333208
 20
779.346238204
 10
575.8669389616
 20
779.4035182676
  0
SPLINE
  5
2FE
330
1F
100
AcDbEntity
  8
0
  6
Continuous
 62
     8
370
    15
100
AcDbSpline
210
0.0
220
0.0
230
1.0
 70
     8
 71
     3
 72
    10
 73
     6
 74
     0
 42
0.00000001
 43
0.00000001
 12
1.0
 22
0.0
 32
0.0
 13
1.0
 23
0.0
 33
0.0
 40
0.0
 40
0.0
 40
0.0
 40
0.0
 40
0.325201483100228
 40
0.7172851233052775
 40
1.0
 40
1.0
 40
1.0
 40
1.0
 10
575.8669389616218
 20
779.4035182675896
 30
0.0
 10
575.8727668187702
 20
779.5063390896091
 30
0.0
 10
575.885621112033
 20
779.7331272496682
 30
0.0
 10
575.8948195731914
 20
780.083204144157
 30
0.0
 10
575.8951762427401
 20
780.3240975203356
 30
0.0
 10
575.8953256736961
 20
780.4250226697502
 30
0.0
  0
LINE
  5
2FF
330
1F
100
AcDbEntity
  8
0
  6
Continuous
 62
     8
370
    15
100
AcDbLine
 10
580.4925127159
 20
780.4250226698
 30
0.0
 11
575.8953256737
 21
780.4250226698
 31
0.0
  0
SPLINE
  5
300
330
1F
100
AcDbEntity
  8
0
  6
Continuous
 62
     8
370
    15
100
AcDbSpline
210
0.0
220
0.0
230
1.0
 70
     8
 71
     3
 72
    10
 73
     6
 74
     0
 42
0.00000001
 43
0.00000001
 12
1.0
 22
0.0
 32
0.0
 13
1.0
 23
0.0
 33
0.0
 40
0.0
 40
0.0
 40
0.0
 40
0.0
 40
0.2829782062809478
 40
0.6748171348771163
 40
1.0
 40
1.0
 40
1.0
 40
1.0
 10
575.8953256736961
 20
725.9497748097954
 30
0.0
 10
575.8951774326383
 20
726.0508004358397
 30
0.0
 10
575.8948239227082
 20
726.291715891529
 30
0.0
 10
575.8856159655563
 20
726.6417996095366
 30
0.0
 10
575.8727664558666
 20
726.868517837425
 30
0.0
 10
575.8669389616218
 20
726.9713388166008
 30
0.0
  0
LWPOLYLINE
  5
301
330
1F
100
AcDbEntity
  8
0
  6
Continuous
 62
     8
370
    15
100
AcDbPolyline
 90
        9
 70
   128
 43
0.0
 10
575.8669389616
 20
726.9713388166
 10
576.7467333208
 20
727.0286188802
 10
577.5938643347
 20
727.1705971441
 10
578.3770842682
 20
727.3919687948
 10
579.067425264
 20
727.6846276006
 10
579.6393914353
 20
728.0376659116
 10
580.0718678366
 20
728.4382091245
 10
580.3488804232
 20
728.8712964735
 10
580.4601771961
 20
729.3210135183
  0
LINE
  5
302
330
1F
100
AcDbEntity
  8
0
  6
Continuous
 62
     8
370
    15
100
AcDbLine
 10
575.8953256737
 20
725.9497748098
 30
0.0
 11
580.4925127159
 21
725.9497748098
 31
0.0
  0
LINE
  5
303
330
1F
100
AcDbEntity
  8
0
  6
Continuous
 62
     8
370
    15
100
AcDbLine
 10
215.2241034638
 20
725.9497748098
 30
0.0
 11
215.2241034638
 21
723.8896594724
 31
0.0
  0
LINE
  5
304
330
1F
100
AcDbEntity
  8
0
  6
Continuous
 62
     8
370
    15
100
AcDbLine
 10
215.2241034638
 20
723.8896594724
 30
0.0
 11
210.6269164215
 21
723.8896594724
 31
0.0
  0
ELLIPSE
  5
305
330
1F
100
AcDbEntity
  8
0
  6
Continuous
 62
     8
370
    15
100
AcDbEllipse
 10
208.620086871
 20
723.9098408723
 30
0.0
 11
-2.457497755053425
 21
6.156885925964845
 31
0.0
210
0.0
220
0.0
230
1.0
 40
0.9955924488
 41
4.246870785361438
 42
4.331095551714284
  0
LWPOLYLINE
  5
306
330
1F
100
AcDbEntity
  8
0
  6
Continuous
 62
     8
370
    15
100
AcDbPolyline
 90
        9
 70
   128
 43
0.0
 10
215.2006937395
 20
723.3324156484
 10
214.3301231991
 20
723.4056697568
 10
213.4912474285
 20
723.4763012609
 10
212.7145840059
 20
723.5416875562
 10
212.0284302365
 20
723.599444457
 10
211.4577604662
 20
723.6474858007
 10
211.0233320128
 20
723.6840234479
 10
210.7409848105
 20
723.7078057012
 10
210.6209708582
 20
723.7179384908
  0
LINE
  5
307
330
1F
100
AcDbEntity
  8
0
  6
Continuous
 62
     8
370
    15
100
AcDbLine
 10
575.8953256737
 20
723.8896594724
 30
0.0
 11
575.8953256737
 21
725.9497748098
 31
0.0
  0
LINE
  5
308
330
1F
100
AcDbEntity
  8
0
  6
Continuous
 62
     8
370
    15
100
AcDbLine
 10
575.8953256737
 20
723.8896594724
 30
0.0
 11
580.4925127159
 21
723.8896594724
 31
0.0
  0
ELLIPSE
  5
309
330
1F
100
AcDbEntity
  8
0
  6
Continuous
 62
     8
370
    15
100
AcDbEllipse
 10
582.4993422631
 20
723.9098408723
 30
0.0
 11
-2.457497755053396
 21
-6.156885925964957
 31
0.0
210
0.0
220
0.0
230
1.0
 40
0.9955924488
 41
5.093682409055111
 42
5.177907175407955
  0
LWPOLYLINE
  5
30A
330
1F
100
AcDbEntity
  8
0
  6
Continuous
 62
     8
370
    15
100
AcDbPolyline
 90
        9
 70
   128
 43
0.0
 10
575.9187353979
 20
723.3324156484
 10
576.7893059384
 20
723.4056697568
 10
577.6281817089
 20
723.4763012609
 10
578.4048451315
 20
723.5416875562
 10
579.090998901
 20
723.599444457
 10
579.6616686712
 20
723.6474858007
 10
580.0960971247
 20
723.6840234479
 10
580.378444327
 20
723.7078057012
 10
580.4984582792
 20
723.7179384908
  0
LINE
  5
30B
330
1F
100
AcDbEntity
  8
0
  6
Continuous
 62
     8
370
    15
100
AcDbLine
 10
575.8953256737
 20
780.4250226698
 30
0.0
 11
575.8953256737
 21
782.4851380071
 31
0.0
  0
LINE
  5
30C
330
1F
100
AcDbEntity
  8
0
  6
Continuous
 62
     8
370
    15
100
AcDbLine
 10
580.4925127159
 20
782.4851380071
 30
0.0
 11
575.8953256737
 21
782.4851380071
 31
0.0
  0
ELLIPSE
  5
30D
330
1F
100
AcDbEntity
  8
0
  6
Continuous
 62
     8
370
    15
100
AcDbEllipse
 10
582.4993422631
 20
782.4650059119
 30
0.0
 11
-2.457497755053396
 21
6.156885925964843
 31
0.0
210
0.0
220
0.0
230
1.0
 40
0.9955924488
 41
1.105278131771648
 42
1.189502898124511
  0
LWPOLYLINE
  5
30E
330
1F
100
AcDbEntity
  8
0
  6
Continuous
 62
     8
370
    15
100
AcDbPolyline
 90
        9
 70
   128
 43
0.0
 10
580.4984582792
 20
782.6569185934
 10
580.378444327
 20
782.667051383
 10
580.0960971247
 20
782.6907740316
 10
579.6616686712
 20
782.7273712835
 10
579.090998901
 20
782.7754126272
 10
578.4048451315
 20
782.833169528
 10
577.6281817089
 20
782.8985558233
 10
576.7893059384
 20
782.9691277227
 10
575.9187353979
 20
783.0424414358
  0
LINE
  5
30F
330
1F
100
AcDbEntity
  8
0
  6
Continuous
 62
     8
370
    15
100
AcDbLine
 10
210.6269164215
 20
782.4851380071
 30
0.0
 11
215.2241034638
 21
782.4851380071
 31
0.0
  0
LINE
  5
310
330
1F
100
AcDbEntity
  8
0
  6
Continuous
 62
     8
370
    15
100
AcDbLine
 10
215.2241034638
 20
782.4851380071
 30
0.0
 11
215.2241034638
 21
780.4250226698
 31
0.0
  0
LWPOLYLINE
  5
311
330
1F
100
AcDbEntity
  8
0
  6
Continuous
 62
     8
370
    15
100
AcDbPolyline
 90
        9
 70
   128
 43
0.0
 10
210.6209708582
 20
782.6569185934
 10
210.7409848105
 20
782.667051383
 10
211.0233320128
 20
782.6907740316
 10
211.4577604662
 20
782.7273712835
 10
212.0284302365
 20
782.7754126272
 10
212.7145840059
 20
782.833169528
 10
213.4912474285
 20
782.8985558233
 10
214.3301231991
 20
782.9691277227
 10
215.2006937395
 20
783.0424414358
  0
ELLIPSE
  5
312
330
1F
100
AcDbEntity
  8
0
  6
Continuous
 62
     8
370
    15
100
AcDbEllipse
 10
208.620086871
 20
782.4650059119
 30
0.0
 11
-2.457497755053424
 21
-6.156885925964957
 31
0.0
210
0.0
220
0.0
230
1.0
 40
0.9955924488
 41
1.952089755465271
 42
2.036314521818133
  0
ELLIPSE
  5
313
330
1F
100
AcDbEntity
  8
0
  6
Continuous
 62
     8
370
    15
100
AcDbEllipse
 10
208.8505639496
 20
723.332415693
 30
0.0
 11
6.374106954951999
 21
0.1931586225252886
 31
0.0
210
0.0
220
0.0
230
1.0
 40
0.3123026642
 41
4.702925356387931
 42
6.186455220583159
  0
ELLIPSE
  5
314
330
1F
100
AcDbEntity
  8
0
  6
Continuous
 62
     8
370
    15
100
AcDbEllipse
 10
208.8505639496
 20
783.0424310912
 30
0.0
 11
6.374106954951999
 21
-0.1931586225252886
 31
0.0
210
0.0
220
0.0
230
1.0
 40
0.3123026642
 41
0.09673008659647
 42
1.580259950791655
  0
ELLIPSE
  5
315
330
1F
100
AcDbEntity
  8
0
  6
Continuous
 62
     8
370
    15
100
AcDbEllipse
 10
582.2688651844
 20
783.0424310912
 30
0.0
 11
6.37410695495214
 21
0.1931586225252886
 31
0.0
210
0.0
220
0.0
230
1.0
 40
0.3123026642
 41
1.561332702798125
 42
3.044862566993324
  0
ELLIPSE
  5
316
330
1F
100
AcDbEntity
  8
0
  6
Continuous
 62
     8
370
    15
100
AcDbEllipse
 10
582.2688651844
 20
723.332415693
 30
0.0
 11
6.37410695495214
 21
-0.1931586225252886
 31
0.0
210
0.0
220
0.0
230
1.0
 40
0.3123026642
 41
3.238322740186307
 42
4.721852604381465
  0
LWPOLYLINE
  5
317
330
1F
100
AcDbEntity
  8
0
  6
Continuous
 62
     8
370
    15
100
AcDbPolyline
 90
        9
 70
   128
 43
0.0
 10
210.7846452128
 20
769.9258433065
 10
210.8725024592
 20
770.2040777883
 10
211.0843075644
 20
770.4746828756
 10
211.414204372
 20
770.7302079877
 10
211.8531627785
 20
770.9636197767
 10
212.389097942
 20
771.1685405454
 10
213.0073024164
 20
771.3393078527
 10
213.6907590758
 20
771.4711533269
 10
214.4206924568
 20
771.5606198988
  0
SPLINE
  5
318
330
1F
100
AcDbEntity
  8
0
  6
Continuous
 62
     8
370
    15
100
AcDbSpline
210
0.0
220
0.0
230
1.0
 70
     8
 71
     3
 72
     9
 73
     5
 74
     0
 42
0.00000001
 43
0.00000001
 12
1.0
 22
0.0
 32
0.0
 13
1.0
 23
0.0
 33
0.0
 40
0.0
 40
0.0
 40
0.0
 40
0.0
 40
0.9999678302035047
 40
1.0
 40
1.0
 40
1.0
 40
1.0
 10
215.2524901758399
 20
779.4035182675896
 30
0.0
 10
215.2631816441812
 20
778.8207141922514
 30
0.0
 10
215.2738734564759
 20
778.2378913676214
 30
0.0
 10
215.2738733421568
 20
777.6202863734263
 30
0.0
 10
215.2738733421531
 20
777.6202665051994
 30
0.0
  0
SPLINE
  5
319
330
1F
100
AcDbEntity
  8
0
  6
Continuous
 62
     8
370
    15
100
AcDbSpline
210
0.0
220
0.0
230
1.0
 70
     8
 71
     3
 72
    11
 73
     7
 74
     0
 42
0.00000001
 43
0.00000001
 12
1.0
 22
0.0
 32
0.0
 13
1.0
 23
0.0
 33
0.0
 40
0.0
 40
0.0
 40
0.0
 40
0.0
 40
0.0000049525306719
 40
0.1017599347765921
 40
0.549086558474775
 40
1.0
 40
1.0
 40
1.0
 40
1.0
 10
215.2738733421531
 20
777.6202665051994
 30
0.0
 10
215.2738683750274
 20
777.6202665054419
 30
0.0
 10
215.1718085550492
 20
777.6202714882594
 30
0.0
 10
215.1131829033104
 20
775.9624791213977
 30
0.0
 10
214.6695244296978
 20
774.5226403278454
 30
0.0
 10
214.5038569601229
 20
772.5505849537824
 30
0.0
 10
214.4206924568381
 20
771.5606198987541
 30
0.0
  0
SPLINE
  5
31A
330
1F
100
AcDbEntity
  8
0
  6
Continuous
 62
     8
370
    15
100
AcDbSpline
210
0.0
220
0.0
230
1.0
 70
     8
 71
     3
 72
    11
 73
     7
 74
     0
 42
0.00000001
 43
0.00000001
 12
1.0
 22
0.0
 32
0.0
 13
1.0
 23
0.0
 33
0.0
 40
0.0
 40
0.0
 40
0.0
 40
0.0
 40
0.4478019846777255
 40
0.8982352738360795
 40
0.9999898503728757
 40
1.0
 40
1.0
 40
1.0
 40
1.0
 10
214.4206924568381
 20
734.8142371854362
 30
0.0
 10
214.5170792495882
 20
733.8836394882828
 30
0.0
 10
214.7104192081912
 20
732.0169758603064
 30
0.0
 10
215.0002030152808
 20
729.9923869551887
 30
0.0
 10
215.2240661762947
 20
728.9537587602273
 30
0.0
 10
215.273868375071
 20
728.754550842587
 30
0.0
 10
215.2738733421531
 20
728.7545309743462
 30
0.0
  0
SPLINE
  5
31B
330
1F
100
AcDbEntity
  8
0
  6
Continuous
 62
     8
370
    15
100
AcDbSpline
210
0.0
220
0.0
230
1.0
 70
     8
 71
     3
 72
     9
 73
     5
 74
     0
 42
0.00000001
 43
0.00000001
 12
1.0
 22
0.0
 32
0.0
 13
1.0
 23
0.0
 33
0.0
 40
0.0
 40
0.0
 40
0.0
 40
0.0
 40
0.0000143870262021
 40
1.0
 40
1.0
 40
1.0
 40
1.0
 10
215.2738733421531
 20
728.7545309743462
 30
0.0
 10
215.2738733421539
 20
728.7545309744077
 30
0.0
 10
215.2738733947782
 20
728.7545352452349
 30
0.0
 10
215.2631817083983
 20
727.8629306171482
 30
0.0
 10
215.2524901758399
 20
726.9713388166008
 30
0.0
  0
LWPOLYLINE
  5
31C
330
1F
100
AcDbEntity
  8
0
  6
Continuous
 62
     8
370
    15
100
AcDbPolyline
 90
        9
 70
   128
 43
0.0
 10
214.4206924568
 20
734.8142371854
 10
213.6907590758
 20
734.9036441526
 10
213.0073024164
 20
735.0355492315
 10
212.389097942
 20
735.2063165388
 10
211.8531627785
 20
735.4111777029
 10
211.414204372
 20
735.6446490964
 10
211.0843075644
 20
735.9001742086
 10
210.8725024592
 20
736.1707792959
 10
210.7846452128
 20
736.4490137777
  0
LWPOLYLINE
  5
31D
330
1F
100
AcDbEntity
  8
0
  6
Continuous
 62
     8
370
    15
100
AcDbPolyline
 90
        9
 70
   128
 43
0.0
 10
580.3347839247
 20
769.9258433065
 10
580.2469266783
 20
770.2040777883
 10
580.0351215731
 20
770.4746828756
 10
579.7052247654
 20
770.7302079877
 10
579.266266359
 20
770.9636197767
 10
578.7303311955
 20
771.1685405454
 10
578.112126721
 20
771.3393078527
 10
577.4286700617
 20
771.4711533269
 10
576.6987366806
 20
771.5606198988
  0
SPLINE
  5
31E
330
1F
100
AcDbEntity
  8
0
  6
Continuous
 62
     8
370
    15
100
AcDbSpline
210
0.0
220
0.0
230
1.0
 70
     8
 71
     3
 72
    11
 73
     7
 74
     0
 42
0.00000001
 43
0.00000001
 12
1.0
 22
0.0
 32
0.0
 13
1.0
 23
0.0
 33
0.0
 40
0.0
 40
0.0
 40
0.0
 40
0.0
 40
0.4478043119687691
 40
0.8982399420934329
 40
0.9999950474633356
 40
1.0
 40
1.0
 40
1.0
 40
1.0
 10
576.6987366806236
 20
771.5606198987541
 30
0.0
 10
576.6160754988064
 20
772.5435356633557
 30
0.0
 10
576.4502674143721
 20
774.515142849532
 30
0.0
 10
576.0066894863866
 20
775.9535129531971
 30
0.0
 10
575.9476205824361
 20
777.620271487612
 30
0.0
 10
575.8455607624343
 20
777.6202665054419
 30
0.0
 10
575.8455557953087
 20
777.6202665051994
 30
0.0
  0
SPLINE
  5
31F
330
1F
100
AcDbEntity
  8
0
  6
Continuous
 62
     8
370
    15
100
AcDbSpline
210
0.0
220
0.0
230
1.0
 70
     8
 71
     3
 72
     9
 73
     5
 74
     0
 42
0.00000001
 43
0.00000001
 12
1.0
 22
0.0
 32
0.0
 13
1.0
 23
0.0
 33
0.0
 40
0.0
 40
0.0
 40
0.0
 40
0.0
 40
0.0000321697964954
 40
1.0
 40
1.0
 40
1.0
 40
1.0
 10
575.8455557953087
 20
777.6202665051994
 30
0.0
 10
575.8455557953049
 20
777.6202863734263
 30
0.0
 10
575.8455556807655
 20
778.2378913662537
 30
0.0
 10
575.8562474931705
 20
778.8207141915677
 30
0.0
 10
575.8669389616218
 20
779.4035182675896
 30
0.0
  0
SPLINE
  5
320
330
1F
100
AcDbEntity
  8
0
  6
Continuous
 62
     8
370
    15
100
AcDbSpline
210
0.0
220
0.0
230
1.0
 70
     8
 71
     3
 72
     9
 73
     5
 74
     0
 42
0.00000001
 43
0.00000001
 12
1.0
 22
0.0
 32
0.0
 13
1.0
 23
0.0
 33
0.0
 40
0.0
 40
0.0
 40
0.0
 40
0.0
 40
0.999985612973798
 40
1.0
 40
1.0
 40
1.0
 40
1.0
 10
575.8669389616218
 20
726.9713388166008
 30
0.0
 10
575.8562474306228
 20
727.8629306198685
 30
0.0
 10
575.8455557458022
 20
728.7545352506752
 30
0.0
 10
575.8455557953079
 20
728.7545309744077
 30
0.0
 10
575.8455557953087
 20
728.7545309743462
 30
0.0
  0
SPLINE
  5
321
330
1F
100
AcDbEntity
  8
0
  6
Continuous
 62
     8
370
    15
100
AcDbSpline
210
0.0
220
0.0
230
1.0
 70
     8
 71
     3
 72
    10
 73
     6
 74
     0
 42
0.00000001
 43
0.00000001
 12
1.0
 22
0.0
 32
0.0
 13
1.0
 23
0.0
 33
0.0
 40
0.0
 40
0.0
 40
0.0
 40
0.0
 40
0.0000101514265508
 40
0.3355579639592731
 40
0.9999999999999999
 40
0.9999999999999999
 40
0.9999999999999999
 40
0.9999999999999999
 10
575.8455557953087
 20
728.7545309743462
 30
0.0
 10
575.8455607623795
 20
728.7545508425645
 30
0.0
 10
576.0097485398408
 20
729.4112998066597
 30
0.0
 10
576.332272896702
 20
731.3354811492705
 30
0.0
 10
576.5524441558439
 20
733.4255160458536
 30
0.0
 10
576.6987366806236
 20
734.8142371854362
 30
0.0
  0
LWPOLYLINE
  5
322
330
1F
100
AcDbEntity
  8
0
  6
Continuous
 62
     8
370
    15
100
AcDbPolyline
 90
        9
 70
   128
 43
0.0
 10
576.6987366806
 20
734.8142371854
 10
577.4286700617
 20
734.9036441526
 10
578.112126721
 20
735.0355492315
 10
578.7303311955
 20
735.2063165388
 10
579.266266359
 20
735.4111777029
 10
579.7052247654
 20
735.6446490964
 10
580.0351215731
 20
735.9001742086
 10
580.2469266783
 20
736.1707792959
 10
580.3347839247
 20
736.4490137777
  0
SPLINE
  5
323
330
1F
100
AcDbEntity
  8
0
  6
Continuous
 62
     8
370
    15
100
AcDbSpline
210
0.0
220
0.0
230
1.0
 70
     8
 71
     3
 72
     9
 73
     5
 74
     0
 42
0.00000001
 43
0.00000001
 12
1.0
 22
0.0
 32
0.0
 13
1.0
 23
0.0
 33
0.0
 40
0.0
 40
0.0
 40
0.0
 40
0.0
 40
0.49993366191206
 40
1.0
 40
1.0
 40
1.0
 40
1.0
 10
300.4537163506713
 20
727.0401821813164
 30
0.0
 10
300.4288483709109
 20
727.7598419780549
 30
0.0
 10
300.3791058117374
 20
729.1993525602916
 30
0.0
 10
300.3289212034948
 20
730.6441899760146
 30
0.0
 10
300.3038255702224
 20
731.3667045316276
 30
0.0
  0
LWPOLYLINE
  5
324
330
1F
100
AcDbEntity
  8
0
  6
Continuous
 62
     8
370
    15
100
AcDbPolyline
 90
        9
 70
   128
 43
0.0
 10
300.3038255702
 20
731.3667045316
 10
301.2674464117
 20
731.4353094778
 10
302.1964146029
 20
731.6151962957
 10
303.0559284817
 20
731.8995700559
 10
303.8137866389
 20
732.277761527
 10
304.4416098129
 20
732.7355848035
 10
304.9158765207
 20
733.2559929571
 10
305.2188245784
 20
733.8193760595
 10
305.3391067516
 20
734.4046936712
  0
LWPOLYLINE
  5
325
330
1F
100
AcDbEntity
  8
0
  6
Continuous
 62
     8
370
    15
100
AcDbPolyline
 90
        9
 70
   128
 43
0.0
 10
305.3391067516
 20
771.9701038084
 10
305.2188245784
 20
772.5554810247
 10
304.9158765207
 20
773.1188641271
 10
304.4416098129
 20
773.6392722807
 10
303.8137866389
 20
774.0970955572
 10
303.0559284817
 20
774.4752870283
 10
302.1964146029
 20
774.7596607885
 10
301.2674464117
 20
774.9394880018
 10
300.3038255702
 20
775.0081525526
  0
SPLINE
  5
326
330
1F
100
AcDbEntity
  8
0
  6
Continuous
 62
     8
370
    15
100
AcDbSpline
210
0.0
220
0.0
230
1.0
 70
     8
 71
     3
 72
     9
 73
     5
 74
     0
 42
0.00000001
 43
0.00000001
 12
1.0
 22
0.0
 32
0.0
 13
1.0
 23
0.0
 33
0.0
 40
0.0
 40
0.0
 40
0.0
 40
0.0
 40
0.500070654914598
 40
0.9999999999999999
 40
0.9999999999999999
 40
0.9999999999999999
 40
0.9999999999999999
 10
300.3038255702224
 20
775.0081525525627
 30
0.0
 10
300.3289210962584
 20
775.730668971315
 30
0.0
 10
300.3791050568435
 20
777.1754976403269
 30
0.0
 10
300.4288482624634
 20
778.6149772164661
 30
0.0
 10
300.4537163506713
 20
779.3346152982292
 30
0.0
  0
SPLINE
  5
327
330
1F
100
AcDbEntity
  8
0
  6
Continuous
 62
     8
370
    15
100
AcDbSpline
210
0.0
220
0.0
230
1.0
 70
     8
 71
     3
 72
     9
 73
     5
 74
     0
 42
0.00000001
 43
0.00000001
 12
1.0
 22
0.0
 32
0.0
 13
1.0
 23
0.0
 33
0.0
 40
0.0
 40
0.0
 40
0.0
 40
0.0
 40
0.4999293450854019
 40
0.9999999999999999
 40
0.9999999999999999
 40
0.9999999999999999
 40
0.9999999999999999
 10
490.6657127867904
 20
779.3346152982292
 30
0.0
 10
490.6905808749984
 20
778.6149772164658
 30
0.0
 10
490.7403240806182
 20
777.1754976403266
 30
0.0
 10
490.7905080412033
 20
775.7306689713148
 30
0.0
 10
490.8156035672393
 20
775.0081525525627
 30
0.0
  0
LWPOLYLINE
  5
328
330
1F
100
AcDbEntity
  8
0
  6
Continuous
 62
     8
370
    15
100
AcDbPolyline
 90
        9
 70
   128
 43
0.0
 10
485.7803223859
 20
771.9701038084
 10
485.9006045591
 20
772.5554810247
 10
486.2035526167
 20
773.1188641271
 10
486.6778193246
 20
773.6392722807
 10
487.3056424986
 20
774.0970955572
 10
488.0635006558
 20
774.4752870283
 10
488.9230145346
 20
774.7596607885
 10
489.8519827257
 20
774.9394880018
 10
490.8156035672
 20
775.0081525526
  0
LWPOLYLINE
  5
329
330
1F
100
AcDbEntity
  8
0
  6
Continuous
 62
     8
370
    15
100
AcDbPolyline
 90
        9
 70
   128
 43
0.0
 10
485.7803223859
 20
734.4046936712
 10
485.9006045591
 20
733.8193760595
 10
486.2035526167
 20
733.2559929571
 10
486.6778193246
 20
732.7355848035
 10
487.3056424986
 20
732.277761527
 10
488.0635006558
 20
731.8995700559
 10
488.9230145346
 20
731.6151962957
 10
489.8519827257
 20
731.4353094778
 10
490.8156035672
 20
731.3667045316
  0
SPLINE
  5
32A
330
1F
100
AcDbEntity
  8
0
  6
Continuous
 62
     8
370
    15
100
AcDbSpline
210
0.0
220
0.0
230
1.0
 70
     8
 71
     3
 72
     9
 73
     5
 74
     0
 42
0.00000001
 43
0.00000001
 12
1.0
 22
0.0
 32
0.0
 13
1.0
 23
0.0
 33
0.0
 40
0.0
 40
0.0
 40
0.0
 40
0.0
 40
0.5000663380879401
 40
1.0
 40
1.0
 40
1.0
 40
1.0
 10
490.8156035672393
 20
731.3667045316276
 30
0.0
 10
490.790507933967
 20
730.6441899760146
 30
0.0
 10
490.7403233257243
 20
729.1993525602918
 30
0.0
 10
490.6905807665509
 20
727.7598419780551
 30
0.0
 10
490.6657127867904
 20
727.0401821813164
 30
0.0
  0
LWPOLYLINE
  5
32B
330
1F
100
AcDbEntity
  8
0
  6
Continuous
 62
     8
370
    15
100
AcDbPolyline
 90
        9
 70
   128
 43
0.0
 10
315.781594647
 20
734.2221842489
 10
315.8995373379
 20
733.6229191503
 10
316.1971358787
 20
733.0457077703
 10
316.6634230148
 20
732.5118885717
 10
317.2812326084
 20
732.0409522733
 10
318.0278180371
 20
731.6503630361
 10
318.8756866585
 20
731.3544855794
 10
319.7936205398
 20
731.1642275533
 10
320.7478238474
 20
731.0865030965
  0
SPLINE
  5
32C
330
1F
100
AcDbEntity
  8
0
  6
Continuous
 62
     8
370
    15
100
AcDbSpline
210
0.0
220
0.0
230
1.0
 70
     8
 71
     3
 72
     9
 73
     5
 74
     0
 42
0.00000001
 43
0.00000001
 12
1.0
 22
0.0
 32
0.0
 13
1.0
 23
0.0
 33
0.0
 40
0.0
 40
0.0
 40
0.0
 40
0.0
 40
0.5000395732042406
 40
1.0
 40
1.0
 40
1.0
 40
1.0
 10
320.7478238474097
 20
731.0865030965385
 30
0.0
 10
320.7336037512489
 20
730.4129971915736
 30
0.0
 10
320.7051658096881
 20
729.0660919843532
 30
0.0
 10
320.6760355802393
 20
727.7222051874654
 30
0.0
 10
320.6614716182914
 20
727.0503149709282
 30
0.0
  0
SPLINE
  5
32D
330
1F
100
AcDbEntity
  8
0
  6
Continuous
 62
     8
370
    15
100
AcDbSpline
210
0.0
220
0.0
230
1.0
 70
     8
 71
     3
 72
     9
 73
     5
 74
     0
 42
0.00000001
 43
0.00000001
 12
1.0
 22
0.0
 32
0.0
 13
1.0
 23
0.0
 33
0.0
 40
0.0
 40
0.0
 40
0.0
 40
0.0
 40
0.4999604267957595
 40
1.0
 40
1.0
 40
1.0
 40
1.0
 10
320.6614716182914
 20
779.3245421132622
 30
0.0
 10
320.6760355802393
 20
778.6526518967249
 30
0.0
 10
320.7051658096881
 20
777.3087650998369
 30
0.0
 10
320.7336037512489
 20
775.9618598926168
 30
0.0
 10
320.7478238474097
 20
775.2883539876518
 30
0.0
  0
LWPOLYLINE
  5
32E
330
1F
100
AcDbEntity
  8
0
  6
Continuous
 62
     8
370
    15
100
AcDbPolyline
 90
        9
 70
   128
 43
0.0
 10
315.781594647
 20
772.1526728353
 10
315.8995373379
 20
772.7519379339
 10
316.1971358787
 20
773.3290897092
 10
316.6634230148
 20
773.8629685125
 10
317.2812326084
 20
774.3339048109
 10
318.0278180371
 20
774.7244344434
 10
318.8756866585
 20
775.0203715047
 10
319.7936205398
 20
775.2106295309
 10
320.7478238474
 20
775.2883539877
  0
SPLINE
  5
32F
330
1F
100
AcDbEntity
  8
0
  6
Continuous
 62
     8
370
    15
100
AcDbSpline
210
0.0
220
0.0
230
1.0
 70
     8
 71
     3
 72
     9
 73
     5
 74
     0
 42
0.00000001
 43
0.00000001
 12
1.0
 22
0.0
 32
0.0
 13
1.0
 23
0.0
 33
0.0
 40
0.0
 40
0.0
 40
0.0
 40
0.0
 40
0.4999568178403774
 40
1.0
 40
1.0
 40
1.0
 40
1.0
 10
470.4579575191703
 20
727.0503149709282
 30
0.0
 10
470.4433935061239
 20
727.722207618414
 30
0.0
 10
470.4142629641916
 20
729.0661089785111
 30
0.0
 10
470.3858253334307
 20
730.4129996160984
 30
0.0
 10
470.3716052900519
 20
731.0865030965385
 30
0.0
  0
LWPOLYLINE
  5
330
330
1F
100
AcDbEntity
  8
0
  6
Continuous
 62
     8
370
    15
100
AcDbPolyline
 90
        9
 70
   128
 43
0.0
 10
475.3378344904
 20
734.2221842489
 10
475.2198917996
 20
733.6229191503
 10
474.9222932588
 20
733.0457077703
 10
474.4560061227
 20
732.5118885717
 10
473.838196529
 20
732.0409522733
 10
473.0916111003
 20
731.6503630361
 10
472.243742479
 20
731.3544855794
 10
471.3258085977
 20
731.1642275533
 10
470.3716052901
 20
731.0865030965
  0
SPLINE
  5
331
330
1F
100
AcDbEntity
  8
0
  6
Continuous
 62
     8
370
    15
100
AcDbSpline
210
0.0
220
0.0
230
1.0
 70
     8
 71
     3
 72
     9
 73
     5
 74
     0
 42
0.00000001
 43
0.00000001
 12
1.0
 22
0.0
 32
0.0
 13
1.0
 23
0.0
 33
0.0
 40
0.0
 40
0.0
 40
0.0
 40
0.0
 40
0.5000431821596226
 40
1.0
 40
1.0
 40
1.0
 40
1.0
 10
470.3716052900519
 20
775.2883539876518
 30
0.0
 10
470.3858253334307
 20
775.9618574680918
 30
0.0
 10
470.4142629641915
 20
777.3087481056791
 30
0.0
 10
470.4433935061239
 20
778.6526494657766
 30
0.0
 10
470.4579575191703
 20
779.3245421132622
 30
0.0
  0
LWPOLYLINE
  5
332
330
1F
100
AcDbEntity
  8
0
  6
Continuous
 62
     8
370
    15
100
AcDbPolyline
 90
        9
 70
   128
 43
0.0
 10
470.3716052901
 20
775.2883539877
 10
471.3258085977
 20
775.2106295309
 10
472.243742479
 20
775.0203715047
 10
473.0916111003
 20
774.7244344434
 10
473.838196529
 20
774.3339048109
 10
474.4560061227
 20
773.8629685125
 10
474.9222932588
 20
773.3290897092
 10
475.2198917996
 20
772.7519379339
 10
475.3378344904
 20
772.1526728353
  0
LWPOLYLINE
  5
333
330
1F
100
AcDbEntity
  8
0
  6
Continuous
 62
     8
370
    15
100
AcDbPolyline
 90
        3
 70
   128
 43
0.0
 10
405.6716760825
 20
779.308985301
 10
405.7283675503
 20
777.5189982137
 10
405.7851633261
 20
775.7288919172
  0
LWPOLYLINE
  5
334
330
1F
100
AcDbEntity
  8
0
  6
Continuous
 62
     8
370
    15
100
AcDbPolyline
 90
        9
 70
   128
 43
0.0
 10
405.7851633261
 20
775.7288919172
 10
404.8254419323
 20
775.6514654836
 10
403.9012616705
 20
775.4542337141
 10
403.0470060389
 20
775.1445279798
 10
402.2944545578
 20
774.7338519773
 10
401.6716027837
 20
774.2375241003
 10
401.2016234193
 20
773.6740217886
 10
400.9019997175
 20
773.0642066679
 10
400.7838786784
 20
772.4308477125
  0
LWPOLYLINE
  5
335
330
1F
100
AcDbEntity
  8
0
  6
Continuous
 62
     8
370
    15
100
AcDbPolyline
 90
        9
 70
   128
 43
0.0
 10
400.7838786784
 20
733.9440093717
 10
400.9019997175
 20
733.3106504163
 10
401.2016234193
 20
732.7008352956
 10
401.6716027837
 20
732.1373329839
 10
402.2944545578
 20
731.6409455022
 10
403.0470060389
 20
731.2303291044
 10
403.9012616705
 20
730.9206233701
 10
404.8254419323
 20
730.7233916006
 10
405.7851633261
 20
730.645965167
  0
LWPOLYLINE
  5
336
330
1F
100
AcDbEntity
  8
0
  6
Continuous
 62
     8
370
    15
100
AcDbPolyline
 90
        3
 70
   128
 43
0.0
 10
405.7851633261
 20
730.645965167
 10
405.7283675503
 20
728.8558588705
 10
405.6716760825
 20
727.0658717832
  0
LWPOLYLINE
  5
337
330
1F
100
AcDbEntity
  8
0
  6
Continuous
 62
     8
370
    15
100
AcDbPolyline
 90
        3
 70
   128
 43
0.0
 10
385.3342658113
 20
775.7288919172
 10
385.3910615872
 20
777.5189982137
 10
385.447753055
 20
779.308985301
  0
LWPOLYLINE
  5
338
330
1F
100
AcDbEntity
  8
0
  6
Continuous
 62
     8
370
    15
100
AcDbPolyline
 90
        9
 70
   128
 43
0.0
 10
385.3342658113
 20
775.7288919172
 10
386.2939872052
 20
775.6514654836
 10
387.218167467
 20
775.4542337141
 10
388.0724230986
 20
775.1445279798
 10
388.8249745797
 20
774.7338519773
 10
389.4478263538
 20
774.2375241003
 10
389.9178057182
 20
773.6740217886
 10
390.2174294199
 20
773.0642066679
 10
390.3355504591
 20
772.4308477125
  0
LWPOLYLINE
  5
339
330
1F
100
AcDbEntity
  8
0
  6
Continuous
 62
     8
370
    15
100
AcDbPolyline
 90
        3
 70
   128
 43
0.0
 10
385.447753055
 20
727.0658717832
 10
385.3910615872
 20
728.8558588705
 10
385.3342658113
 20
730.645965167
  0
LWPOLYLINE
  5
33A
330
1F
100
AcDbEntity
  8
0
  6
Continuous
 62
     8
370
    15
100
AcDbPolyline
 90
        9
 70
   128
 43
0.0
 10
390.3355504591
 20
733.9440093717
 10
390.2174294199
 20
733.3106504163
 10
389.9178057182
 20
732.7008352956
 10
389.4478263538
 20
732.1373329839
 10
388.8249745797
 20
731.6409455022
 10
388.0724230986
 20
731.2303291044
 10
387.218167467
 20
730.9206233701
 10
386.2939872052
 20
730.7233916006
 10
385.3342658113
 20
730.645965167
  0
SPLINE
  5
33B
330
1F
100
AcDbEntity
  8
0
  6
Continuous
 62
     8
370
    15
100
AcDbSpline
210
0.0
220
0.0
230
1.0
 70
     8
 71
     3
 72
    10
 73
     6
 74
     0
 42
0.00000001
 43
0.00000001
 12
1.0
 22
0.0
 32
0.0
 13
1.0
 23
0.0
 33
0.0
 40
0.0
 40
0.0
 40
0.0
 40
0.0
 40
0.2022451761765022
 40
0.9055197192710037
 40
1.0
 40
1.0
 40
1.0
 40
1.0
 10
405.6103857438531
 20
780.6283341130791
 30
0.0
 10
409.9855337396035
 20
780.6273207481291
 30
0.0
 10
429.5745437707915
 20
780.6227835722007
 30
0.0
 10
451.2074320268255
 20
780.6059028707482
 30
0.0
 10
468.4651656623152
 20
780.5868950558465
 30
0.0
 10
470.5090461503234
 20
780.5846439084587
 30
0.0
  0
SPLINE
  5
33C
330
1F
100
AcDbEntity
  8
0
  6
Continuous
 62
     8
370
    15
100
AcDbSpline
210
0.0
220
0.0
230
1.0
 70
     8
 71
     3
 72
    10
 73
     6
 74
     0
 42
0.00000001
 43
0.00000001
 12
1.0
 22
0.0
 32
0.0
 13
1.0
 23
0.0
 33
0.0
 40
0.0
 40
0.0
 40
0.0
 40
0.0
 40
0.0938761936689386
 40
0.7983578555995705
 40
1.0
 40
1.0
 40
1.0
 40
1.0
 10
470.4579575191703
 20
779.3245421132622
 30
0.0
 10
468.4306620363809
 20
779.3236952502336
 30
0.0
 10
451.1897917896145
 20
779.3164932139649
 30
0.0
 10
429.5943627034582
 20
779.3108416058772
 30
0.0
 10
410.0262257298094
 20
779.3093231966304
 30
0.0
 10
405.6716760824885
 20
779.3089853009758
 30
0.0
  0
SPLINE
  5
33D
330
1F
100
AcDbEntity
  8
0
  6
Continuous
 62
     8
370
    15
100
AcDbSpline
210
0.0
220
0.0
230
1.0
 70
     8
 71
     3
 72
    10
 73
     6
 74
     0
 42
0.00000001
 43
0.00000001
 12
1.0
 22
0.0
 32
0.0
 13
1.0
 23
0.0
 33
0.0
 40
0.0
 40
0.0
 40
0.0
 40
0.0
 40
0.1906733295272833
 40
0.8951548688083215
 40
1.0
 40
1.0
 40
1.0
 40
1.0
 10
385.4477530549731
 20
779.3089853009758
 30
0.0
 10
381.3300797282697
 20
779.3093128858333
 30
0.0
 10
361.9988217295814
 20
779.3108507998181
 30
0.0
 10
340.4033923160746
 20
779.3162555419538
 30
0.0
 10
322.9256458815605
 20
779.3235917375729
 30
0.0
 10
320.6614716182914
 20
779.3245421132622
 30
0.0
  0
SPLINE
  5
33E
330
1F
100
AcDbEntity
  8
0
  6
Continuous
 62
     8
370
    15
100
AcDbSpline
210
0.0
220
0.0
230
1.0
 70
     8
 71
     3
 72
    10
 73
     6
 74
     0
 42
0.00000001
 43
0.00000001
 12
1.0
 22
0.0
 32
0.0
 13
1.0
 23
0.0
 33
0.0
 40
0.0
 40
0.0
 40
0.0
 40
0.0
 40
0.1054303383615276
 40
0.8087048755130107
 40
1.0
 40
1.0
 40
1.0
 40
1.0
 10
320.6103829871383
 20
780.5846439084587
 30
0.0
 10
322.8911447414101
 20
780.5871615693092
 30
0.0
 10
340.3857594721194
 20
780.6064733218499
 30
0.0
 10
362.0186480798728
 20
780.6229029877285
 30
0.0
 10
381.3707766837878
 20
780.6273773201032
 30
0.0
 10
385.5090433936086
 20
780.6283341130791
 30
0.0
  0
SPLINE
  5
33F
330
1F
100
AcDbEntity
  8
0
  6
Continuous
 62
     8
370
    15
100
AcDbSpline
210
0.0
220
0.0
230
1.0
 70
     8
 71
     3
 72
    10
 73
     6
 74
     0
 42
0.00000001
 43
0.00000001
 12
1.0
 22
0.0
 32
0.0
 13
1.0
 23
0.0
 33
0.0
 40
0.0
 40
0.0
 40
0.0
 40
0.0
 40
0.1906733295272833
 40
0.8951548688083215
 40
1.0
 40
1.0
 40
1.0
 40
1.0
 10
405.6716760824885
 20
727.0658717832146
 30
0.0
 10
409.7893494091921
 20
727.0655441983571
 30
0.0
 10
429.1206074078803
 20
727.0640062843727
 30
0.0
 10
450.7160368213871
 20
727.0586015422372
 30
0.0
 10
468.1937832559013
 20
727.0512653466172
 30
0.0
 10
470.4579575191703
 20
727.0503149709282
 30
0.0
  0
SPLINE
  5
340
330
1F
100
AcDbEntity
  8
0
  6
Continuous
 62
     8
370
    15
100
AcDbSpline
210
0.0
220
0.0
230
1.0
 70
     8
 71
     3
 72
    10
 73
     6
 74
     0
 42
0.00000001
 43
0.00000001
 12
1.0
 22
0.0
 32
0.0
 13
1.0
 23
0.0
 33
0.0
 40
0.0
 40
0.0
 40
0.0
 40
0.0
 40
0.1054303383352613
 40
0.8087048753115348
 40
1.0
 40
1.0
 40
1.0
 40
1.0
 10
470.5090461503234
 20
725.7902131757317
 30
0.0
 10
468.2282843961434
 20
725.7876951764666
 30
0.0
 10
450.7336696661384
 20
725.7683808281132
 30
0.0
 10
429.1007810338298
 20
725.7520218157372
 30
0.0
 10
409.7486524529789
 20
725.7474425899018
 30
0.0
 10
405.6103857438531
 20
725.7464633664665
 30
0.0
  0
SPLINE
  5
341
330
1F
100
AcDbEntity
  8
0
  6
Continuous
 62
     8
370
    15
100
AcDbSpline
210
0.0
220
0.0
230
1.0
 70
     8
 71
     3
 72
    10
 73
     6
 74
     0
 42
0.00000001
 43
0.00000001
 12
1.0
 22
0.0
 32
0.0
 13
1.0
 23
0.0
 33
0.0
 40
0.0
 40
0.0
 40
0.0
 40
0.0
 40
0.2022451763777981
 40
0.9055197192948437
 40
1.0
 40
1.0
 40
1.0
 40
1.0
 10
385.5090433936086
 20
725.7464633664665
 30
0.0
 10
381.1338953985938
 20
725.7474992765951
 30
0.0
 10
361.54488538968
 20
725.7521373948712
 30
0.0
 10
339.9119971099681
 20
725.7689517816186
 30
0.0
 10
322.6542634750758
 20
725.7879617708336
 30
0.0
 10
320.6103829871383
 20
725.7902131757317
 30
0.0
  0
SPLINE
  5
342
330
1F
100
AcDbEntity
  8
0
  6
Continuous
 62
     8
370
    15
100
AcDbSpline
210
0.0
220
0.0
230
1.0
 70
     8
 71
     3
 72
    10
 73
     6
 74
     0
 42
0.00000001
 43
0.00000001
 12
1.0
 22
0.0
 32
0.0
 13
1.0
 23
0.0
 33
0.0
 40
0.0
 40
0.0
 40
0.0
 40
0.0
 40
0.0938761936689386
 40
0.7983578555995705
 40
1.0
 40
1.0
 40
1.0
 40
1.0
 10
320.6614716182914
 20
727.0503149709282
 30
0.0
 10
322.6887671010808
 20
727.0511618339568
 30
0.0
 10
339.9296373478472
 20
727.0583638702261
 30
0.0
 10
361.5250664340036
 20
727.064015478313
 30
0.0
 10
381.0932034076524
 20
727.06553388756
 30
0.0
 10
385.4477530549731
 20
727.0658717832146
 30
0.0
  0
SPLINE
  5
343
330
1F
100
AcDbEntity
  8
0
  6
Continuous
 62
     8
370
    15
100
AcDbSpline
210
0.0
220
0.0
230
1.0
 70
     8
 71
     3
 72
    10
 73
     6
 74
     0
 42
0.00000001
 43
0.00000001
 12
1.0
 22
0.0
 32
0.0
 13
1.0
 23
0.0
 33
0.0
 40
0.0
 40
0.0
 40
0.0
 40
0.0
 40
0.2275730779492735
 40
0.6248744607080676
 40
1.0
 40
1.0
 40
1.0
 40
1.0
 10
300.5090443621841
 20
725.8150087079582
 30
0.0
 10
294.0395236652159
 20
725.8240072284476
 30
0.0
 10
276.2753914005957
 20
725.8487155361646
 30
0.0
 10
247.8470792547339
 20
725.8947937563258
 30
0.0
 10
225.8882881517374
 20
725.9318019518839
 30
0.0
 10
215.2241034637657
 20
725.9497748097954
 30
0.0
  0
SPLINE
  5
344
330
1F
100
AcDbEntity
  8
0
  6
Continuous
 62
     8
370
    15
100
AcDbSpline
210
0.0
220
0.0
230
1.0
 70
     8
 71
     3
 72
    11
 73
     7
 74
     0
 42
0.00000001
 43
0.00000001
 12
1.0
 22
0.0
 32
0.0
 13
1.0
 23
0.0
 33
0.0
 40
0.0
 40
0.0
 40
0.0
 40
0.0
 40
0.0295313371119196
 40
0.2173217713889066
 40
0.9684834606840906
 40
1.0
 40
1.0
 40
1.0
 40
1.0
 10
215.2524901758399
 20
726.9713388166008
 30
0.0
 10
216.0911921001074
 20
726.9721954553656
 30
0.0
 10
222.263218349996
 20
726.9784994792275
 30
0.0
 10
249.7685401251457
 20
727.0049237975751
 30
0.0
 10
277.3302428867366
 20
727.0274326947233
 30
0.0
 10
299.558633393553
 20
727.0396886634119
 30
0.0
 10
300.4537163506713
 20
727.0401821813164
 30
0.0
  0
SPLINE
  5
345
330
1F
100
AcDbEntity
  8
0
  6
Continuous
 62
     8
370
    15
100
AcDbSpline
210
0.0
220
0.0
230
1.0
 70
     8
 71
     3
 72
    10
 73
     6
 74
     0
 42
0.00000001
 43
0.00000001
 12
1.0
 22
0.0
 32
0.0
 13
1.0
 23
0.0
 33
0.0
 40
0.0
 40
0.0
 40
0.0
 40
0.0
 40
0.2187858008614449
 40
0.7544764339870097
 40
1.0
 40
1.0
 40
1.0
 40
1.0
 10
490.6657127867904
 20
727.0401821813164
 30
0.0
 10
496.8793209660806
 20
727.0364650304575
 30
0.0
 10
518.3067670016311
 20
727.0236465444603
 30
0.0
 10
546.7071711200914
 20
727.0001651376441
 30
0.0
 10
568.8939703735747
 20
726.9782320481327
 30
0.0
 10
575.8669389616218
 20
726.9713388166008
 30
0.0
  0
LWPOLYLINE
  5
346
330
1F
100
AcDbEntity
  8
0
  6
Continuous
 62
     8
370
    15
100
AcDbPolyline
 90
        3
 70
   128
 43
0.0
 10
575.8953256737
 20
725.9497748098
 10
554.9498362671
 20
725.9145484647
 10
490.6103847753
 20
725.815008708
  0
SPLINE
  5
347
330
1F
100
AcDbEntity
  8
0
  6
Continuous
 62
     8
370
    15
100
AcDbSpline
210
0.0
220
0.0
230
1.0
 70
     8
 71
     3
 72
    10
 73
     6
 74
     0
 42
0.00000001
 43
0.00000001
 12
1.0
 22
0.0
 32
0.0
 13
1.0
 23
0.0
 33
0.0
 40
0.0
 40
0.0
 40
0.0
 40
0.0
 40
0.2187858012013344
 40
0.7544764340938318
 40
1.0
 40
1.0
 40
1.0
 40
1.0
 10
300.4537163506713
 20
779.3346152982292
 30
0.0
 10
294.240108173421
 20
779.3383555972571
 30
0.0
 10
272.8126621751592
 20
779.3512539090191
 30
0.0
 10
244.4122580136871
 20
779.3746860241673
 30
0.0
 10
222.2254587630063
 20
779.3966236198406
 30
0.0
 10
215.2524901758399
 20
779.4035182675896
 30
0.0
  0
LWPOLYLINE
  5
348
330
1F
100
AcDbEntity
  8
0
  6
Continuous
 62
     8
370
    15
100
AcDbPolyline
 90
        3
 70
   128
 43
0.0
 10
215.2241034638
 20
780.4250226698
 10
236.1695928704
 20
780.4602490148
 10
300.5090443622
 20
780.5598483762
  0
SPLINE
  5
349
330
1F
100
AcDbEntity
  8
0
  6
Continuous
 62
     8
370
    15
100
AcDbSpline
210
0.0
220
0.0
230
1.0
 70
     8
 71
     3
 72
    10
 73
     6
 74
     0
 42
0.00000001
 43
0.00000001
 12
1.0
 22
0.0
 32
0.0
 13
1.0
 23
0.0
 33
0.0
 40
0.0
 40
0.0
 40
0.0
 40
0.0
 40
0.227573077682735
 40
0.6248744599762013
 40
1.0
 40
1.0
 40
1.0
 40
1.0
 10
490.6103847752777
 20
780.5598483762321
 30
0.0
 10
497.0799054712156
 20
780.5508492410254
 30
0.0
 10
514.8440377330072
 20
780.526139245406
 30
0.0
 10
543.2723499449271
 20
780.4800805749123
 30
0.0
 10
565.2311409945293
 20
780.4430206498724
 30
0.0
 10
575.8953256736961
 20
780.4250226697502
 30
0.0
  0
SPLINE
  5
34A
330
1F
100
AcDbEntity
  8
0
  6
Continuous
 62
     8
370
    15
100
AcDbSpline
210
0.0
220
0.0
230
1.0
 70
     8
 71
     3
 72
    11
 73
     7
 74
     0
 42
0.00000001
 43
0.00000001
 12
1.0
 22
0.0
 32
0.0
 13
1.0
 23
0.0
 33
0.0
 40
0.0
 40
0.0
 40
0.0
 40
0.0
 40
0.0295313371002259
 40
0.2173217713028524
 40
0.9684834603005945
 40
1.0
 40
1.0
 40
1.0
 40
1.0
 10
575.8669389616218
 20
779.4035182675896
 30
0.0
 10
575.0282370373094
 20
779.4026617081839
 30
0.0
 10
568.8562107870902
 20
779.3963582683292
 30
0.0
 10
541.3508890429902
 20
779.3698790948105
 30
0.0
 10
513.7891859753743
 20
779.347890985503
 30
0.0
 10
491.5607957436256
 20
779.3351291847601
 30
0.0
 10
490.6657127867904
 20
779.3346152982292
 30
0.0
  0
SPLINE
  5
34B
330
1F
100
AcDbEntity
  8
0
  6
Continuous
 62
     8
370
    15
100
AcDbSpline
210
0.0
220
0.0
230
1.0
 70
     8
 71
     3
 72
    10
 73
     6
 74
     0
 42
0.00000001
 43
0.00000001
 12
1.0
 22
0.0
 32
0.0
 13
1.0
 23
0.0
 33
0.0
 40
0.0
 40
0.0
 40
0.0
 40
0.0
 40
0.4060854168962992
 40
0.8125721355128039
 40
1.0
 40
1.0
 40
1.0
 40
1.0
 10
300.3038255702224
 20
731.3667045316276
 30
0.0
 10
300.2763011208615
 20
731.5320423232458
 30
0.0
 10
300.2212250219291
 20
731.8628812965906
 30
0.0
 10
300.1424241588665
 20
732.0883110981704
 30
0.0
 10
300.0977513352663
 20
732.1335023261761
 30
0.0
 10
300.0836534630027
 20
732.1477637967644
 30
0.0
  0
ARC
  5
34C
330
1F
100
AcDbEntity
  8
0
  6
Continuous
 62
     8
370
    15
100
AcDbCircle
 10
300.159291454
 20
737.154215305
 30
0.0
 40
5.007022848974429
100
AcDbArc
 50
269.1344352456
 51
359.7003567601
  0
ARC
  5
34D
330
1F
100
AcDbEntity
  8
0
  6
Continuous
 62
     8
370
    15
100
AcDbCircle
 10
300.1591990477
 20
769.2205474742
 30
0.0
 40
5.007115748159345
100
AcDbArc
 50
0.3007168151
 51
90.8644911792
  0
SPLINE
  5
34E
330
1F
100
AcDbEntity
  8
0
  6
Continuous
 62
     8
370
    15
100
AcDbSpline
210
0.0
220
0.0
230
1.0
 70
     8
 71
     3
 72
    10
 73
     6
 74
     0
 42
0.00000001
 43
0.00000001
 12
1.0
 22
0.0
 32
0.0
 13
1.0
 23
0.0
 33
0.0
 40
0.0
 40
0.0
 40
0.0
 40
0.0
 40
0.4064312107528928
 40
0.8128503854784213
 40
0.9999999999999999
 40
0.9999999999999999
 40
0.9999999999999999
 40
0.9999999999999999
 10
300.0836534630027
 20
774.227093287426
 30
0.0
 10
300.1147009602662
 20
774.2695436238425
 30
0.0
 10
300.1767950353549
 20
774.3544430395548
 30
0.0
 10
300.2528052423125
 20
774.6781056575704
 30
0.0
 10
300.2915952517683
 20
774.9290354869556
 30
0.0
 10
300.3038255702224
 20
775.0081525525627
 30
0.0
  0
ARC
  5
34F
330
1F
100
AcDbEntity
  8
0
  6
Continuous
 62
     8
370
    15
100
AcDbCircle
 10
490.9601376834
 20
737.154215305
 30
0.0
 40
5.007022848974318
100
AcDbArc
 50
180.2996432399
 51
270.8655647544
  0
SPLINE
  5
350
330
1F
100
AcDbEntity
  8
0
  6
Continuous
 62
     8
370
    15
100
AcDbSpline
210
0.0
220
0.0
230
1.0
 70
     8
 71
     3
 72
    10
 73
     6
 74
     0
 42
0.00000001
 43
0.00000001
 12
1.0
 22
0.0
 32
0.0
 13
1.0
 23
0.0
 33
0.0
 40
0.0
 40
0.0
 40
0.0
 40
0.0
 40
0.4064312107528928
 40
0.8128503854784213
 40
0.9999999999999999
 40
0.9999999999999999
 40
0.9999999999999999
 40
0.9999999999999999
 10
491.035775674459
 20
732.1477637967644
 30
0.0
 10
491.0047281771954
 20
732.1053134603472
 30
0.0
 10
490.9426341021069
 20
732.0204140446351
 30
0.0
 10
490.8666238951492
 20
731.6967514266197
 30
0.0
 10
490.8278338856935
 20
731.4458215972353
 30
0.0
 10
490.8156035672394
 20
731.3667045316276
 30
0.0
  0
SPLINE
  5
351
330
1F
100
AcDbEntity
  8
0
  6
Continuous
 62
     8
370
    15
100
AcDbSpline
210
0.0
220
0.0
230
1.0
 70
     8
 71
     3
 72
    10
 73
     6
 74
     0
 42
0.00000001
 43
0.00000001
 12
1.0
 22
0.0
 32
0.0
 13
1.0
 23
0.0
 33
0.0
 40
0.0
 40
0.0
 40
0.0
 40
0.0
 40
0.4060854168962992
 40
0.8125721355128039
 40
1.0
 40
1.0
 40
1.0
 40
1.0
 10
490.8156035672393
 20
775.0081525525627
 30
0.0
 10
490.8431280166002
 20
774.8428147609443
 30
0.0
 10
490.8982041155326
 20
774.5119757875996
 30
0.0
 10
490.9770049785952
 20
774.2865459860204
 30
0.0
 10
491.0216778021955
 20
774.241354758014
 30
0.0
 10
491.035775674459
 20
774.227093287426
 30
0.0
  0
ARC
  5
352
330
1F
100
AcDbEntity
  8
0
  6
Continuous
 62
     8
370
    15
100
AcDbCircle
 10
490.9602300898
 20
769.2205474742
 30
0.0
 40
5.007115748159411
100
AcDbArc
 50
89.1355088208
 51
179.6992831849
  0
SPLINE
  5
353
330
1F
100
AcDbEntity
  8
0
  6
Continuous
 62
     8
370
    15
100
AcDbSpline
210
0.0
220
0.0
230
1.0
 70
     8
 71
     3
 72
    10
 73
     6
 74
     0
 42
0.00000001
 43
0.00000001
 12
1.0
 22
0.0
 32
0.0
 13
1.0
 23
0.0
 33
0.0
 40
0.0
 40
0.0
 40
0.0
 40
0.0
 40
0.4177177380813593
 40
0.8363290617354577
 40
1.0
 40
1.0
 40
1.0
 40
1.0
 10
470.3716052900519
 20
731.0865030965385
 30
0.0
 10
470.3590508691626
 20
731.2472150173784
 30
0.0
 10
470.333915170853
 20
731.5689826554561
 30
0.0
 10
470.2821508843422
 20
731.7723388427441
 30
0.0
 10
470.2482990422623
 20
731.8117276592556
 30
0.0
 10
470.2387837897506
 20
731.8227992734489
 30
0.0
  0
ARC
  5
354
330
1F
100
AcDbEntity
  8
0
  6
Continuous
 62
     8
370
    15
100
AcDbCircle
 10
470.1621469514
 20
736.828889286
 30
0.0
 40
5.006676584188708
100
AcDbArc
 50
270.8770566274
 51
359.7078835891
  0
SPLINE
  5
355
330
1F
100
AcDbEntity
  8
0
  6
Continuous
 62
     8
370
    15
100
AcDbSpline
210
0.0
220
0.0
230
1.0
 70
     8
 71
     3
 72
    10
 73
     6
 74
     0
 42
0.00000001
 43
0.00000001
 12
1.0
 22
0.0
 32
0.0
 13
1.0
 23
0.0
 33
0.0
 40
0.0
 40
0.0
 40
0.0
 40
0.0
 40
0.4191413597223777
 40
0.8373988861087043
 40
0.9999999999999999
 40
0.9999999999999999
 40
0.9999999999999999
 40
0.9999999999999999
 10
470.2387837897506
 20
774.5520578107414
 30
0.0
 10
470.2626932059235
 20
774.5934240691255
 30
0.0
 10
470.3104616210566
 20
774.6760693578565
 30
0.0
 10
470.3519075152206
 20
774.9889745062223
 30
0.0
 10
470.3672972153905
 20
775.2228770914467
 30
0.0
 10
470.3716052900519
 20
775.2883539876518
 30
0.0
  0
ARC
  5
356
330
1F
100
AcDbEntity
  8
0
  6
Continuous
 62
     8
370
    15
100
AcDbCircle
 10
470.162085503
 20
769.5459069739
 30
0.0
 40
5.00673834227008
100
AcDbArc
 50
0.2928088732
 51
89.1222509103
  0
SPLINE
  5
357
330
1F
100
AcDbEntity
  8
0
  6
Continuous
 62
     8
370
    15
100
AcDbSpline
210
0.0
220
0.0
230
1.0
 70
     8
 71
     3
 72
    10
 73
     6
 74
     0
 42
0.00000001
 43
0.00000001
 12
1.0
 22
0.0
 32
0.0
 13
1.0
 23
0.0
 33
0.0
 40
0.0
 40
0.0
 40
0.0
 40
0.0
 40
0.4177050557261484
 40
0.8362861542577903
 40
1.0
 40
1.0
 40
1.0
 40
1.0
 10
320.7478238474097
 20
775.2883539876518
 30
0.0
 10
320.7603787557279
 20
775.1276313614535
 30
0.0
 10
320.7855149034727
 20
774.8058490293439
 30
0.0
 10
320.8372744650028
 20
774.6026111749593
 30
0.0
 10
320.8711274786237
 20
774.5631518967389
 30
0.0
 10
320.8806453477111
 20
774.5520578107414
 30
0.0
  0
ARC
  5
358
330
1F
100
AcDbEntity
  8
0
  6
Continuous
 62
     8
370
    15
100
AcDbCircle
 10
320.9573436345
 20
769.5459069739
 30
0.0
 40
5.006738342270026
100
AcDbArc
 50
90.8777490897
 51
179.7071911268
  0
ARC
  5
359
330
1F
100
AcDbEntity
  8
0
  6
Continuous
 62
     8
370
    15
100
AcDbCircle
 10
320.9572821861
 20
736.828889286
 30
0.0
 40
5.006676584188682
100
AcDbArc
 50
180.2921164109
 51
269.1229433726
  0
SPLINE
  5
35A
330
1F
100
AcDbEntity
  8
0
  6
Continuous
 62
     8
370
    15
100
AcDbSpline
210
0.0
220
0.0
230
1.0
 70
     8
 71
     3
 72
    10
 73
     6
 74
     0
 42
0.00000001
 43
0.00000001
 12
1.0
 22
0.0
 32
0.0
 13
1.0
 23
0.0
 33
0.0
 40
0.0
 40
0.0
 40
0.0
 40
0.0
 40
0.4191897874236015
 40
0.8374499766156407
 40
1.0
 40
1.0
 40
1.0
 40
1.0
 10
320.8806453477111
 20
731.8227992734489
 30
0.0
 10
320.8567320123746
 20
731.7814113481916
 30
0.0
 10
320.8089583720828
 20
731.698727279832
 30
0.0
 10
320.7675275922633
 20
731.3858439873127
 30
0.0
 10
320.7521324504689
 20
731.1519597438563
 30
0.0
 10
320.7478238474097
 20
731.0865030965385
 30
0.0
  0
LINE
  5
35B
330
1F
100
AcDbEntity
  8
0
  6
Continuous
 62
     8
370
    15
100
AcDbLine
 10
405.585556684
 20
723.3324156484
 30
0.0
 11
470.5338714849
 21
723.3324156484
 31
0.0
  0
LINE
  5
35C
330
1F
100
AcDbEntity
  8
0
  6
Continuous
 62
     8
370
    15
100
AcDbLine
 10
575.9187353979
 20
783.0424414358
 30
0.0
 11
490.5855594407
 21
783.0424414358
 31
0.0
  0
LINE
  5
35D
330
1F
100
AcDbEntity
  8
0
  6
Continuous
 62
     8
370
    15
100
AcDbLine
 10
385.5338724534
 20
783.0424414358
 30
0.0
 11
320.5855576526
 21
783.0424414358
 31
0.0
  0
LINE
  5
35E
330
1F
100
AcDbEntity
  8
0
  6
Continuous
 62
     8
370
    15
100
AcDbLine
 10
215.2006937395
 20
723.3324156484
 30
0.0
 11
300.5338696967
 21
723.3324156484
 31
0.0
  0
LINE
  5
35F
330
1F
100
AcDbEntity
  8
0
  6
Continuous
 62
     8
370
    15
100
AcDbLine
 10
470.5338714849
 20
783.0424414358
 30
0.0
 11
405.585556684
 21
783.0424414358
 31
0.0
  0
LINE
  5
360
330
1F
100
AcDbEntity
  8
0
  6
Continuous
 62
     8
370
    15
100
AcDbLine
 10
320.5855576526
 20
723.3324156484
 30
0.0
 11
385.5338724534
 21
723.3324156484
 31
0.0
  0
LINE
  5
361
330
1F
100
AcDbEntity
  8
0
  6
Continuous
 62
     8
370
    15
100
AcDbLine
 10
490.5855594407
 20
723.3324156484
 30
0.0
 11
575.9187353979
 21
723.3324156484
 31
0.0
  0
LINE
  5
362
330
1F
100
AcDbEntity
  8
0
  6
Continuous
 62
     8
370
    15
100
AcDbLine
 10
300.5338696967
 20
783.0424414358
 30
0.0
 11
215.2006937395
 21
783.0424414358
 31
0.0
  0
ARC
  5
363
330
1F
100
AcDbEntity
  8
0
  6
Continuous
 62
     8
370
    15
100
AcDbCircle
 10
405.953133458
 20
736.3263344131
 30
0.0
 40
5.006896395393165
100
AcDbArc
 50
180.2965564869
 51
269.9936635388
  0
SPLINE
  5
364
330
1F
100
AcDbEntity
  8
0
  6
Continuous
 62
     8
370
    15
100
AcDbSpline
210
0.0
220
0.0
230
1.0
 70
     8
 71
     3
 72
    10
 73
     6
 74
     0
 42
0.00000001
 43
0.00000001
 12
1.0
 22
0.0
 32
0.0
 13
1.0
 23
0.0
 33
0.0
 40
0.0
 40
0.0
 40
0.0
 40
0.0
 40
0.4425277490814615
 40
0.8843617561992689
 40
1.0
 40
1.0
 40
1.0
 40
1.0
 10
405.9525797347989
 20
731.3194380483208
 30
0.0
 10
405.9249611281334
 20
731.2777271844673
 30
0.0
 10
405.8697672119435
 20
731.1943708460528
 30
0.0
 10
405.8150686282206
 20
730.8961842845474
 30
0.0
 10
405.7903009619971
 20
730.6889520161839
 30
0.0
 10
405.7851633261409
 20
730.6459651670036
 30
0.0
  0
SPLINE
  5
365
330
1F
100
AcDbEntity
  8
0
  6
Continuous
 62
     8
370
    15
100
AcDbSpline
210
0.0
220
0.0
230
1.0
 70
     8
 71
     3
 72
    10
 73
     6
 74
     0
 42
0.00000001
 43
0.00000001
 12
1.0
 22
0.0
 32
0.0
 13
1.0
 23
0.0
 33
0.0
 40
0.0
 40
0.0
 40
0.0
 40
0.0
 40
0.44139952715665
 40
0.8836080993909521
 40
1.0
 40
1.0
 40
1.0
 40
1.0
 10
405.7851633261409
 20
775.7288919171867
 30
0.0
 10
405.8062713861555
 20
775.5746022837136
 30
0.0
 10
405.8485261953337
 20
775.2657402179399
 30
0.0
 10
405.9104972048735
 20
775.0950505465224
 30
0.0
 10
405.9453232592696
 20
775.0622035446229
 30
0.0
 10
405.9525797347989
 20
775.0553594312248
 30
0.0
  0
ARC
  5
366
330
1F
100
AcDbEntity
  8
0
  6
Continuous
 62
     8
370
    15
100
AcDbCircle
 10
405.9530485315
 20
770.0485481148
 30
0.0
 40
5.006811338368177
100
AcDbArc
 50
90.0053647064
 51
179.7037296457
  0
SPLINE
  5
367
330
1F
100
AcDbEntity
  8
0
  6
Continuous
 62
     8
370
    15
100
AcDbSpline
210
0.0
220
0.0
230
1.0
 70
     8
 71
     3
 72
    10
 73
     6
 74
     0
 42
0.00000001
 43
0.00000001
 12
1.0
 22
0.0
 32
0.0
 13
1.0
 23
0.0
 33
0.0
 40
0.0
 40
0.0
 40
0.0
 40
0.0
 40
0.4414023272928722
 40
0.8836318703074749
 40
1.0
 40
1.0
 40
1.0
 40
1.0
 10
385.3342658113208
 20
730.6459651670036
 30
0.0
 10
385.3131563914936
 20
730.800247979275
 30
0.0
 10
385.270897991459
 20
731.109102739511
 30
0.0
 10
385.2089340572088
 20
731.2798650054499
 30
0.0
 10
385.1741050480908
 20
731.312615419724
 30
0.0
 10
385.1668494026628
 20
731.3194380483208
 30
0.0
  0
ARC
  5
368
330
1F
100
AcDbEntity
  8
0
  6
Continuous
 62
     8
370
    15
100
AcDbCircle
 10
385.1662956794
 20
736.3263344131
 30
0.0
 40
5.006896395393222
100
AcDbArc
 50
270.0063364612
 51
359.7034435131
  0
SPLINE
  5
369
330
1F
100
AcDbEntity
  8
0
  6
Continuous
 62
     8
370
    15
100
AcDbSpline
210
0.0
220
0.0
230
1.0
 70
     8
 71
     3
 72
    10
 73
     6
 74
     0
 42
0.00000001
 43
0.00000001
 12
1.0
 22
0.0
 32
0.0
 13
1.0
 23
0.0
 33
0.0
 40
0.0
 40
0.0
 40
0.0
 40
0.0
 40
0.4425166517927033
 40
0.8843486263307045
 40
1.0
 40
1.0
 40
1.0
 40
1.0
 10
385.1668494026628
 20
775.0553594312248
 30
0.0
 10
385.1944673482631
 20
775.09709428082
 30
0.0
 10
385.2496605080116
 20
775.1804994063903
 30
0.0
 10
385.3043552291325
 20
775.4786939495494
 30
0.0
 10
385.3291268698803
 20
775.6859053682746
 30
0.0
 10
385.3342658113208
 20
775.7288919171867
 30
0.0
  0
ARC
  5
36A
330
1F
100
AcDbEntity
  8
0
  6
Continuous
 62
     8
370
    15
100
AcDbCircle
 10
385.166380606
 20
770.0485481148
 30
0.0
 40
5.006811338368177
100
AcDbArc
 50
0.2962703543
 51
89.9946352936
  0
SPLINE
  5
36B
330
1F
100
AcDbEntity
  8
0
  6
Continuous
 62
     8
370
    15
100
AcDbSpline
210
0.0
220
0.0
230
1.0
 70
     8
 71
     3
 72
    13
 73
     9
 74
     0
 42
0.00000001
 43
0.00000001
 12
1.0
 22
0.0
 32
0.0
 13
1.0
 23
0.0
 33
0.0
 40
0.0
 40
0.0
 40
0.0
 40
0.0
 40
0.4595571911726093
 40
0.8017000139095165
 40
0.8794352369610746
 40
0.9641638729272375
 40
0.9874454039668071
 40
1.0
 40
1.0
 40
1.0
 40
1.0
 10
576.6987366806236
 20
734.8142371854362
 30
0.0
 10
577.177655212652
 20
735.4666931737204
 30
0.0
 10
578.0131311907539
 20
736.6049061860074
 30
0.0
 10
578.8177869848693
 20
737.9175195222043
 30
0.0
 10
579.2069005477044
 20
738.6647992331283
 30
0.0
 10
579.3370267191362
 20
738.9360161090979
 30
0.0
 10
579.3953108858296
 20
739.0729994166892
 30
0.0
 10
579.4027482423631
 20
739.0955476325909
 30
0.0
 10
579.4053537975517
 20
739.1034470281181
 30
0.0
  0
ARC
  5
36C
330
1F
100
AcDbEntity
  8
0
  6
Continuous
 62
     8
370
    15
100
AcDbCircle
 10
575.5756196737
 20
741.5977371764
 30
0.0
 40
4.570377096377936
100
AcDbArc
 50
326.9239666323
 51
359.7592104658
  0
ARC
  5
36D
330
1F
100
AcDbEntity
  8
0
  6
Continuous
 62
     8
370
    15
100
AcDbCircle
 10
575.5756196737
 20
764.7771199078
 30
0.0
 40
4.570377096377936
100
AcDbArc
 50
0.2407895342
 51
33.0760333677
  0
SPLINE
  5
36E
330
1F
100
AcDbEntity
  8
0
  6
Continuous
 62
     8
370
    15
100
AcDbSpline
210
0.0
220
0.0
230
1.0
 70
     8
 71
     3
 72
    12
 73
     8
 74
     0
 42
0.00000001
 43
0.00000001
 12
1.0
 22
0.0
 32
0.0
 13
1.0
 23
0.0
 33
0.0
 40
0.0
 40
0.0
 40
0.0
 40
0.0
 40
0.0234858303541718
 40
0.0616255397736554
 40
0.2040228629642259
 40
0.7688759870566257
 40
1.0
 40
1.0
 40
1.0
 40
1.0
 10
579.4053537975517
 20
767.2714100560722
 30
0.0
 10
579.3991064928624
 20
767.2888095099304
 30
0.0
 10
579.3827139055957
 20
767.3344647292513
 30
0.0
 10
579.2580476015197
 20
767.6096010017873
 30
0.0
 10
578.6900090017951
 20
768.7246849449019
 30
0.0
 10
577.7690496269731
 20
770.0992121824311
 30
0.0
 10
576.9395844523067
 20
771.2317658068765
 30
0.0
 10
576.6987366806236
 20
771.5606198987541
 30
0.0
  0
SPLINE
  5
36F
330
1F
100
AcDbEntity
  8
0
  6
Continuous
 62
     8
370
    15
100
AcDbSpline
210
0.0
220
0.0
230
1.0
 70
     8
 71
     3
 72
    13
 73
     9
 74
     0
 42
0.00000001
 43
0.00000001
 12
1.0
 22
0.0
 32
0.0
 13
1.0
 23
0.0
 33
0.0
 40
0.0
 40
0.0
 40
0.0
 40
0.0
 40
0.4595571911726093
 40
0.8017000139095165
 40
0.8794352369610746
 40
0.9641638729272375
 40
0.9874454039668071
 40
1.0
 40
1.0
 40
1.0
 40
1.0
 10
214.4206924568382
 20
771.5606198987541
 30
0.0
 10
213.9417739248098
 20
770.9081639104697
 30
0.0
 10
213.1062979467078
 20
769.7699508981825
 30
0.0
 10
212.3016421525924
 20
768.4573375619872
 30
0.0
 10
211.9125285897573
 20
767.7100578510614
 30
0.0
 10
211.7824024183255
 20
767.4388409750934
 30
0.0
 10
211.7241182516321
 20
767.3018576675008
 30
0.0
 10
211.7166808950986
 20
767.2793094515995
 30
0.0
 10
211.7140753399101
 20
767.2714100560722
 30
0.0
  0
ARC
  5
370
330
1F
100
AcDbEntity
  8
0
  6
Continuous
 62
     8
370
    15
100
AcDbCircle
 10
215.5438094638
 20
764.7771199078
 30
0.0
 40
4.570377096377827
100
AcDbArc
 50
146.9239666323
 51
179.7592104658
  0
SPLINE
  5
371
330
1F
100
AcDbEntity
  8
0
  6
Continuous
 62
     8
370
    15
100
AcDbSpline
210
0.0
220
0.0
230
1.0
 70
     8
 71
     3
 72
    12
 73
     8
 74
     0
 42
0.00000001
 43
0.00000001
 12
1.0
 22
0.0
 32
0.0
 13
1.0
 23
0.0
 33
0.0
 40
0.0
 40
0.0
 40
0.0
 40
0.0
 40
0.0234858303541718
 40
0.0616255397736554
 40
0.2040228629642259
 40
0.7688759870566257
 40
1.0
 40
1.0
 40
1.0
 40
1.0
 10
211.71407533991
 20
739.1034470281181
 30
0.0
 10
211.7203226445993
 20
739.0860475742604
 30
0.0
 10
211.7367152318661
 20
739.0403923549392
 30
0.0
 10
211.861381535942
 20
738.7652560824023
 30
0.0
 10
212.4294201356666
 20
737.6501721392897
 30
0.0
 10
213.3503795104886
 20
736.2756449017592
 30
0.0
 10
214.1798446851551
 20
735.143091277314
 30
0.0
 10
214.4206924568381
 20
734.8142371854362
 30
0.0
  0
ARC
  5
372
330
1F
100
AcDbEntity
  8
0
  6
Continuous
 62
     8
370
    15
100
AcDbCircle
 10
215.5438094638
 20
741.5977371764
 30
0.0
 40
4.570377096377851
100
AcDbArc
 50
180.2407895342
 51
213.0760333677
  0
SPLINE
  5
373
330
1F
100
AcDbEntity
  8
0
  6
Continuous
 62
     8
370
    15
100
AcDbSpline
210
0.0
220
0.0
230
1.0
 70
     8
 71
     3
 72
     9
 73
     5
 74
     0
 42
0.00000001
 43
0.00000001
 12
1.0
 22
0.0
 32
0.0
 13
1.0
 23
0.0
 33
0.0
 40
0.0
 40
0.0
 40
0.0
 40
0.0
 40
0.9999566085689755
 40
1.0
 40
1.0
 40
1.0
 40
1.0
 10
220.4332364927497
 20
733.1329689702568
 30
0.0
 10
219.9782868621375
 20
733.191380678031
 30
0.0
 10
219.5233174897531
 20
733.2497949204828
 30
0.0
 10
219.0654340714996
 20
733.2497940740529
 30
0.0
 10
219.0654142032829
 20
733.2497940740166
 30
0.0
  0
SPLINE
  5
374
330
1F
100
AcDbEntity
  8
0
  6
Continuous
 62
     8
370
    15
100
AcDbSpline
210
0.0
220
0.0
230
1.0
 70
     8
 71
     3
 72
     9
 73
     5
 74
     0
 42
0.00000001
 43
0.00000001
 12
1.0
 22
0.0
 32
0.0
 13
1.0
 23
0.0
 33
0.0
 40
0.0
 40
0.0
 40
0.0
 40
0.0
 40
0.6503364133579238
 40
1.0
 40
1.0
 40
1.0
 40
1.0
 10
300.3038255702224
 20
731.3667045316276
 30
0.0
 10
282.9877208834203
 20
731.6697820916021
 30
0.0
 10
256.3613405499053
 20
732.1358140617475
 30
0.0
 10
229.7412965532056
 20
732.8746314369647
 30
0.0
 10
220.4332364927497
 20
733.1329689702568
 30
0.0
  0
SPLINE
  5
375
330
1F
100
AcDbEntity
  8
0
  6
Continuous
 62
     8
370
    15
100
AcDbSpline
210
0.0
220
0.0
230
1.0
 70
     8
 71
     3
 72
    10
 73
     6
 74
     0
 42
0.00000001
 43
0.00000001
 12
1.0
 22
0.0
 32
0.0
 13
1.0
 23
0.0
 33
0.0
 40
0.0
 40
0.0
 40
0.0
 40
0.0
 40
0.0000120794519683
 40
0.5538297239455524
 40
1.0
 40
1.0
 40
1.0
 40
1.0
 10
219.0654142032829
 20
733.2497940740166
 30
0.0
 10
219.0653943350669
 20
733.249794073976
 30
0.0
 10
218.1544582572949
 20
733.2497922173815
 30
0.0
 10
216.5220849688395
 20
733.711704452718
 30
0.0
 10
215.0690163258181
 20
734.4740826056179
 30
0.0
 10
214.4206924568382
 20
734.8142371854362
 30
0.0
  0
SPLINE
  5
376
330
1F
100
AcDbEntity
  8
0
  6
Continuous
 62
     8
370
    15
100
AcDbSpline
210
0.0
220
0.0
230
1.0
 70
     8
 71
     3
 72
     9
 73
     5
 74
     0
 42
0.00000001
 43
0.00000001
 12
1.0
 22
0.0
 32
0.0
 13
1.0
 23
0.0
 33
0.0
 40
0.0
 40
0.0
 40
0.0
 40
0.0
 40
0.6188877883999158
 40
1.0
 40
1.0
 40
1.0
 40
1.0
 10
220.4332364927497
 20
773.2418881139336
 30
0.0
 10
236.908560517025
 20
773.6834996483226
 30
0.0
 10
263.5294186646237
 20
774.3970563587088
 30
0.0
 10
290.1560798415558
 20
774.839523081341
 30
0.0
 10
300.3038255702224
 20
775.0081525525627
 30
0.0
  0
SPLINE
  5
377
330
1F
100
AcDbEntity
  8
0
  6
Continuous
 62
     8
370
    15
100
AcDbSpline
210
0.0
220
0.0
230
1.0
 70
     8
 71
     3
 72
     9
 73
     5
 74
     0
 42
0.00000001
 43
0.00000001
 12
1.0
 22
0.0
 32
0.0
 13
1.0
 23
0.0
 33
0.0
 40
0.0
 40
0.0
 40
0.0
 40
0.0
 40
0.0000433914310246
 40
1.0
 40
1.0
 40
1.0
 40
1.0
 10
219.0654142032829
 20
773.1250630101738
 30
0.0
 10
219.0654340714996
 20
773.1250630101372
 30
0.0
 10
219.5233174896377
 20
773.1250621653513
 30
0.0
 10
219.9782868620798
 20
773.1834764069812
 30
0.0
 10
220.4332364927497
 20
773.2418881139336
 30
0.0
  0
SPLINE
  5
378
330
1F
100
AcDbEntity
  8
0
  6
Continuous
 62
     8
370
    15
100
AcDbSpline
210
0.0
220
0.0
230
1.0
 70
     8
 71
     3
 72
    10
 73
     6
 74
     0
 42
0.00000001
 43
0.00000001
 12
1.0
 22
0.0
 32
0.0
 13
1.0
 23
0.0
 33
0.0
 40
0.0
 40
0.0
 40
0.0
 40
0.0
 40
0.4654143395418221
 40
0.9999879211812268
 40
1.0
 40
1.0
 40
1.0
 40
1.0
 10
214.4206924568382
 20
771.5606198987541
 30
0.0
 10
215.09808332991
 20
771.9137830404319
 30
0.0
 10
216.5535234258408
 20
772.6725883583598
 30
0.0
 10
218.1860646929624
 20
773.1250648296729
 30
0.0
 10
219.0653943350668
 20
773.1250630102151
 30
0.0
 10
219.0654142032829
 20
773.1250630101738
 30
0.0
  0
SPLINE
  5
379
330
1F
100
AcDbEntity
  8
0
  6
Continuous
 62
     8
370
    15
100
AcDbSpline
210
0.0
220
0.0
230
1.0
 70
     8
 71
     3
 72
     9
 73
     5
 74
     0
 42
0.00000001
 43
0.00000001
 12
1.0
 22
0.0
 32
0.0
 13
1.0
 23
0.0
 33
0.0
 40
0.0
 40
0.0
 40
0.0
 40
0.0
 40
0.9999566085689755
 40
1.0
 40
1.0
 40
1.0
 40
1.0
 10
570.686192644712
 20
773.2418881139336
 30
0.0
 10
571.1411422753243
 20
773.1834764078804
 30
0.0
 10
571.5961116477087
 20
773.1250621671497
 30
0.0
 10
572.0539950659621
 20
773.125063010137
 30
0.0
 10
572.0540149341789
 20
773.1250630101738
 30
0.0
  0
SPLINE
  5
37A
330
1F
100
AcDbEntity
  8
0
  6
Continuous
 62
     8
370
    15
100
AcDbSpline
210
0.0
220
0.0
230
1.0
 70
     8
 71
     3
 72
     9
 73
     5
 74
     0
 42
0.00000001
 43
0.00000001
 12
1.0
 22
0.0
 32
0.0
 13
1.0
 23
0.0
 33
0.0
 40
0.0
 40
0.0
 40
0.0
 40
0.0
 40
0.6503364133579238
 40
1.0
 40
1.0
 40
1.0
 40
1.0
 10
490.8156035672393
 20
775.0081525525627
 30
0.0
 10
508.1317082540414
 20
774.7050749925879
 30
0.0
 10
534.7580885875564
 20
774.2390430224426
 30
0.0
 10
561.3781325842562
 20
773.5002256472254
 30
0.0
 10
570.686192644712
 20
773.2418881139336
 30
0.0
  0
SPLINE
  5
37B
330
1F
100
AcDbEntity
  8
0
  6
Continuous
 62
     8
370
    15
100
AcDbSpline
210
0.0
220
0.0
230
1.0
 70
     8
 71
     3
 72
    10
 73
     6
 74
     0
 42
0.00000001
 43
0.00000001
 12
1.0
 22
0.0
 32
0.0
 13
1.0
 23
0.0
 33
0.0
 40
0.0
 40
0.0
 40
0.0
 40
0.0
 40
0.0000120794519683
 40
0.5538297239455524
 40
1.0
 40
1.0
 40
1.0
 40
1.0
 10
572.0540149341789
 20
773.1250630101738
 30
0.0
 10
572.0540348023949
 20
773.1250630102143
 30
0.0
 10
572.9649708801669
 20
773.1250648729198
 30
0.0
 10
574.5973441686223
 20
772.6631526294061
 30
0.0
 10
576.0504128116437
 20
771.9007744779349
 30
0.0
 10
576.6987366806236
 20
771.5606198987541
 30
0.0
  0
SPLINE
  5
37C
330
1F
100
AcDbEntity
  8
0
  6
Continuous
 62
     8
370
    15
100
AcDbSpline
210
0.0
220
0.0
230
1.0
 70
     8
 71
     3
 72
     9
 73
     5
 74
     0
 42
0.00000001
 43
0.00000001
 12
1.0
 22
0.0
 32
0.0
 13
1.0
 23
0.0
 33
0.0
 40
0.0
 40
0.0
 40
0.0
 40
0.0
 40
0.6188877883999158
 40
1.0
 40
1.0
 40
1.0
 40
1.0
 10
570.686192644712
 20
733.1329689702568
 30
0.0
 10
554.2108686204368
 20
732.6913574358678
 30
0.0
 10
527.5900104728379
 20
731.9778007254813
 30
0.0
 10
500.963349295906
 20
731.5353340028494
 30
0.0
 10
490.8156035672393
 20
731.3667045316276
 30
0.0
  0
SPLINE
  5
37D
330
1F
100
AcDbEntity
  8
0
  6
Continuous
 62
     8
370
    15
100
AcDbSpline
210
0.0
220
0.0
230
1.0
 70
     8
 71
     3
 72
     9
 73
     5
 74
     0
 42
0.00000001
 43
0.00000001
 12
1.0
 22
0.0
 32
0.0
 13
1.0
 23
0.0
 33
0.0
 40
0.0
 40
0.0
 40
0.0
 40
0.0
 40
0.0000433914310246
 40
1.0
 40
1.0
 40
1.0
 40
1.0
 10
572.0540149341789
 20
733.2497940740166
 30
0.0
 10
572.0539950659621
 20
733.2497940740532
 30
0.0
 10
571.5961116478239
 20
733.2497949186592
 30
0.0
 10
571.141142275382
 20
733.1913806771191
 30
0.0
 10
570.686192644712
 20
733.1329689702568
 30
0.0
  0
SPLINE
  5
37E
330
1F
100
AcDbEntity
  8
0
  6
Continuous
 62
     8
370
    15
100
AcDbSpline
210
0.0
220
0.0
230
1.0
 70
     8
 71
     3
 72
    10
 73
     6
 74
     0
 42
0.00000001
 43
0.00000001
 12
1.0
 22
0.0
 32
0.0
 13
1.0
 23
0.0
 33
0.0
 40
0.0
 40
0.0
 40
0.0
 40
0.0
 40
0.4654143395418221
 40
0.9999879211812268
 40
1.0
 40
1.0
 40
1.0
 40
1.0
 10
576.6987366806236
 20
734.8142371854362
 30
0.0
 10
576.0213458075517
 20
734.4610740440424
 30
0.0
 10
574.565905711621
 20
733.7022687267249
 30
0.0
 10
572.9333644444994
 20
733.2497922520888
 30
0.0
 10
572.0540348023949
 20
733.2497940739755
 30
0.0
 10
572.0540149341789
 20
733.2497940740166
 30
0.0
  0
SPLINE
  5
37F
330
1F
100
AcDbEntity
  8
0
  6
Continuous
 62
     8
370
    15
100
AcDbSpline
210
0.0
220
0.0
230
1.0
 70
     8
 71
     3
 72
     9
 73
     5
 74
     0
 42
0.00000001
 43
0.00000001
 12
1.0
 22
0.0
 32
0.0
 13
1.0
 23
0.0
 33
0.0
 40
0.0
 40
0.0
 40
0.0
 40
0.0
 40
0.8425272559038193
 40
1.0
 40
1.0
 40
1.0
 40
1.0
 10
320.7478238474097
 20
775.2883539876518
 30
0.0
 10
338.8861547907444
 20
775.4665390069147
 30
0.0
 10
360.414634512005
 20
775.6780277368209
 30
0.0
 10
381.94398060367
 20
775.7219719079691
 30
0.0
 10
385.3342658113208
 20
775.7288919171867
 30
0.0
  0
SPLINE
  5
380
330
1F
100
AcDbEntity
  8
0
  6
Continuous
 62
     8
370
    15
100
AcDbSpline
210
0.0
220
0.0
230
1.0
 70
     8
 71
     3
 72
     9
 73
     5
 74
     0
 42
0.00000001
 43
0.00000001
 12
1.0
 22
0.0
 32
0.0
 13
1.0
 23
0.0
 33
0.0
 40
0.0
 40
0.0
 40
0.0
 40
0.0
 40
0.8425272559038193
 40
1.0
 40
1.0
 40
1.0
 40
1.0
 10
470.371605290052
 20
731.0865030965385
 30
0.0
 10
452.2332743467173
 20
730.9083180772759
 30
0.0
 10
430.7047946254568
 20
730.6968293473694
 30
0.0
 10
409.1754485337918
 20
730.6528851762213
 30
0.0
 10
405.7851633261409
 20
730.6459651670036
 30
0.0
  0
SPLINE
  5
381
330
1F
100
AcDbEntity
  8
0
  6
Continuous
 62
     8
370
    15
100
AcDbSpline
210
0.0
220
0.0
230
1.0
 70
     8
 71
     3
 72
     9
 73
     5
 74
     0
 42
0.00000001
 43
0.00000001
 12
1.0
 22
0.0
 32
0.0
 13
1.0
 23
0.0
 33
0.0
 40
0.0
 40
0.0
 40
0.0
 40
0.0
 40
0.8234426570872316
 40
1.0
 40
1.0
 40
1.0
 40
1.0
 10
405.7851633261409
 20
775.7288919171867
 30
0.0
 10
423.5133789268515
 20
775.6622607301367
 30
0.0
 10
445.0427658830978
 20
775.5813429072904
 30
0.0
 10
466.5706918779739
 20
775.3323206888633
 30
0.0
 10
470.3716052900519
 20
775.2883539876518
 30
0.0
  0
SPLINE
  5
382
330
1F
100
AcDbEntity
  8
0
  6
Continuous
 62
     8
370
    15
100
AcDbSpline
210
0.0
220
0.0
230
1.0
 70
     8
 71
     3
 72
     9
 73
     5
 74
     0
 42
0.00000001
 43
0.00000001
 12
1.0
 22
0.0
 32
0.0
 13
1.0
 23
0.0
 33
0.0
 40
0.0
 40
0.0
 40
0.0
 40
0.0
 40
0.8234426570872316
 40
1.0
 40
1.0
 40
1.0
 40
1.0
 10
385.3342658113208
 20
730.6459651670036
 30
0.0
 10
367.6060502106102
 20
730.712596354054
 30
0.0
 10
346.076663254364
 20
730.7935141769004
 30
0.0
 10
324.5487372594878
 20
731.0425363953268
 30
0.0
 10
320.7478238474097
 20
731.0865030965385
 30
0.0
  0
SPLINE
  5
383
330
1F
100
AcDbEntity
  8
0
  6
Continuous
 62
     8
370
    15
100
AcDbSpline
210
0.0
220
0.0
230
1.0
 70
     8
 71
     3
 72
     9
 73
     5
 74
     0
 42
0.00000001
 43
0.00000001
 12
1.0
 22
0.0
 32
0.0
 13
1.0
 23
0.0
 33
0.0
 40
0.0
 40
0.0
 40
0.0
 40
0.0
 40
0.1555426151421826
 40
1.0
 40
1.0
 40
1.0
 40
1.0
 10
405.9525797347989
 20
731.3194380483208
 30
0.0
 10
409.2857727728333
 20
731.3273627671009
 30
0.0
 10
430.7152249842894
 20
731.3783116261825
 30
0.0
 10
452.1435101428039
 20
731.6192972140931
 30
0.0
 10
470.2387837897506
 20
731.8227992734489
 30
0.0
  0
SPLINE
  5
384
330
1F
100
AcDbEntity
  8
0
  6
Continuous
 62
     8
370
    15
100
AcDbSpline
210
0.0
220
0.0
230
1.0
 70
     8
 71
     3
 72
     9
 73
     5
 74
     0
 42
0.00000001
 43
0.00000001
 12
1.0
 22
0.0
 32
0.0
 13
1.0
 23
0.0
 33
0.0
 40
0.0
 40
0.0
 40
0.0
 40
0.0
 40
0.1555426164038431
 40
1.0
 40
1.0
 40
1.0
 40
1.0
 10
385.1668494026628
 20
775.0553594312248
 30
0.0
 10
381.8336563671183
 20
775.047434427869
 30
0.0
 10
360.4042043454912
 20
774.9964837396342
 30
0.0
 10
338.9759190680506
 20
774.7555316130926
 30
0.0
 10
320.8806453477111
 20
774.5520578107414
 30
0.0
  0
SPLINE
  5
385
330
1F
100
AcDbEntity
  8
0
  6
Continuous
 62
     8
370
    15
100
AcDbSpline
210
0.0
220
0.0
230
1.0
 70
     8
 71
     3
 72
     9
 73
     5
 74
     0
 42
0.00000001
 43
0.00000001
 12
1.0
 22
0.0
 32
0.0
 13
1.0
 23
0.0
 33
0.0
 40
0.0
 40
0.0
 40
0.0
 40
0.0
 40
0.1755082775273117
 40
1.0
 40
1.0
 40
1.0
 40
1.0
 10
320.8806453477111
 20
731.8227992734489
 30
0.0
 10
324.6413580906083
 20
731.7731087068862
 30
0.0
 10
346.0689100891857
 20
731.4899849291205
 30
0.0
 10
367.4984067714116
 20
731.3965085495353
 30
0.0
 10
385.1668494026628
 20
731.3194380483208
 30
0.0
  0
SPLINE
  5
386
330
1F
100
AcDbEntity
  8
0
  6
Continuous
 62
     8
370
    15
100
AcDbSpline
210
0.0
220
0.0
230
1.0
 70
     8
 71
     3
 72
     9
 73
     5
 74
     0
 42
0.00000001
 43
0.00000001
 12
1.0
 22
0.0
 32
0.0
 13
1.0
 23
0.0
 33
0.0
 40
0.0
 40
0.0
 40
0.0
 40
0.0
 40
0.1755082678256484
 40
1.0
 40
1.0
 40
1.0
 40
1.0
 10
470.2387837897506
 20
774.5520578107414
 30
0.0
 10
466.478071024725
 20
774.6017267656138
 30
0.0
 10
445.0505177156037
 20
774.8847274212972
 30
0.0
 10
423.6210218777631
 20
774.9782504594773
 30
0.0
 10
405.9525797347989
 20
775.0553594312248
 30
0.0
  0
ARC
  5
387
330
1F
100
AcDbEntity
  8
0
  6
Continuous
 62
     8
370
    15
100
AcDbCircle
 10
278.3065828781
 20
731.3807342099
 30
0.0
 40
57.89986656713433
100
AcDbArc
 50
177.2911732886
 51
178.2657820562
  0
SPLINE
  5
388
330
1F
100
AcDbEntity
  8
0
  6
Continuous
 62
     8
370
    15
100
AcDbSpline
210
0.0
220
0.0
230
1.0
 70
     8
 71
     3
 72
     9
 73
     5
 74
     0
 42
0.00000001
 43
0.00000001
 12
1.0
 22
0.0
 32
0.0
 13
1.0
 23
0.0
 33
0.0
 40
0.0
 40
0.0
 40
0.0
 40
0.0
 40
0.3507128763868221
 40
1.0
 40
1.0
 40
1.0
 40
1.0
 10
220.4714132677284
 20
734.1171012601433
 30
0.0
 10
229.7769930245746
 20
733.831678947601
 30
0.0
 10
256.3103209500154
 20
733.0178442361907
 30
0.0
 10
282.8510802188387
 20
732.4902948319851
 30
0.0
 10
300.0836534630027
 20
732.1477637967644
 30
0.0
  0
ARC
  5
389
330
1F
100
AcDbEntity
  8
0
  6
Continuous
 62
     8
370
    15
100
AcDbCircle
 10
512.863089994
 20
774.9921738033
 30
0.0
 40
57.84958686241026
100
AcDbArc
 50
357.2907497399
 51
358.2662056048
  0
SPLINE
  5
38A
330
1F
100
AcDbEntity
  8
0
  6
Continuous
 62
     8
370
    15
100
AcDbSpline
210
0.0
220
0.0
230
1.0
 70
     8
 71
     3
 72
     9
 73
     5
 74
     0
 42
0.00000001
 43
0.00000001
 12
1.0
 22
0.0
 32
0.0
 13
1.0
 23
0.0
 33
0.0
 40
0.0
 40
0.0
 40
0.0
 40
0.0
 40
0.3507128763868221
 40
1.0
 40
1.0
 40
1.0
 40
1.0
 10
570.6480158697334
 20
772.2577558240471
 30
0.0
 10
561.3424361128872
 20
772.5431781365893
 30
0.0
 10
534.8091081874463
 20
773.3570128479996
 30
0.0
 10
508.268348918623
 20
773.8845622522055
 30
0.0
 10
491.035775674459
 20
774.227093287426
 30
0.0
  0
ARC
  5
38B
330
1F
100
AcDbEntity
  8
0
  6
Continuous
 62
     8
370
    15
100
AcDbCircle
 10
512.8128462594
 20
731.3807342099
 30
0.0
 40
57.89986656713442
100
AcDbArc
 50
1.7342179438
 51
2.7088267114
  0
SPLINE
  5
38C
330
1F
100
AcDbEntity
  8
0
  6
Continuous
 62
     8
370
    15
100
AcDbSpline
210
0.0
220
0.0
230
1.0
 70
     8
 71
     3
 72
     9
 73
     5
 74
     0
 42
0.00000001
 43
0.00000001
 12
1.0
 22
0.0
 32
0.0
 13
1.0
 23
0.0
 33
0.0
 40
0.0
 40
0.0
 40
0.0
 40
0.0
 40
0.3792546921492428
 40
1.0
 40
1.0
 40
1.0
 40
1.0
 10
491.035775674459
 20
732.1477637967644
 30
0.0
 10
501.1016270882371
 20
732.3380121978098
 30
0.0
 10
527.6427658589529
 20
732.8396497648159
 30
0.0
 10
554.1770089645579
 20
733.6278374517644
 30
0.0
 10
570.6480158697334
 20
734.1171012601433
 30
0.0
  0
ARC
  5
38D
330
1F
100
AcDbEntity
  8
0
  6
Continuous
 62
     8
370
    15
100
AcDbCircle
 10
278.2563391435
 20
774.9921738033
 30
0.0
 40
57.84958686241011
100
AcDbArc
 50
181.7337943952
 51
182.7092502601
  0
SPLINE
  5
38E
330
1F
100
AcDbEntity
  8
0
  6
Continuous
 62
     8
370
    15
100
AcDbSpline
210
0.0
220
0.0
230
1.0
 70
     8
 71
     3
 72
     9
 73
     5
 74
     0
 42
0.00000001
 43
0.00000001
 12
1.0
 22
0.0
 32
0.0
 13
1.0
 23
0.0
 33
0.0
 40
0.0
 40
0.0
 40
0.0
 40
0.0
 40
0.3792546921492428
 40
1.0
 40
1.0
 40
1.0
 40
1.0
 10
300.0836534630027
 20
774.227093287426
 30
0.0
 10
290.0178020492245
 20
774.0368448863805
 30
0.0
 10
263.4766632785089
 20
773.535207319374
 30
0.0
 10
236.9424201729039
 20
772.747019632426
 30
0.0
 10
220.4714132677284
 20
772.2577558240471
 30
0.0
  0
SPLINE
  5
38F
330
1F
100
AcDbEntity
  8
0
  6
Continuous
 62
     8
370
    15
100
AcDbSpline
210
0.0
220
0.0
230
1.0
 70
     8
 71
     3
 72
    11
 73
     7
 74
     0
 42
0.00000001
 43
0.00000001
 12
1.0
 22
0.0
 32
0.0
 13
1.0
 23
0.0
 33
0.0
 40
0.0
 40
0.0
 40
0.0
 40
0.0
 40
0.2966938672605677
 40
0.6454643858379473
 40
0.8201481044285667
 40
0.9999999999999999
 40
0.9999999999999999
 40
0.9999999999999999
 40
0.9999999999999999
 10
211.7140753399101
 20
739.1034470281181
 30
0.0
 10
212.3483306177071
 20
738.2788050622875
 30
0.0
 10
213.7281676771236
 20
736.4847773497305
 30
0.0
 10
216.2712356806146
 20
735.0148165395265
 30
0.0
 10
218.6138611744346
 20
734.2778912132981
 30
0.0
 10
219.846240974184
 20
734.1712162559786
 30
0.0
 10
220.4714132677284
 20
734.1171012601433
 30
0.0
  0
SPLINE
  5
390
330
1F
100
AcDbEntity
  8
0
  6
Continuous
 62
     8
370
    15
100
AcDbSpline
210
0.0
220
0.0
230
1.0
 70
     8
 71
     3
 72
    11
 73
     7
 74
     0
 42
0.00000001
 43
0.00000001
 12
1.0
 22
0.0
 32
0.0
 13
1.0
 23
0.0
 33
0.0
 40
0.0
 40
0.0
 40
0.0
 40
0.0
 40
0.2966938672605677
 40
0.6454643858379473
 40
0.8201481044285667
 40
0.9999999999999999
 40
0.9999999999999999
 40
0.9999999999999999
 40
0.9999999999999999
 10
579.4053537975517
 20
767.2714100560722
 30
0.0
 10
578.7710985197546
 20
768.0960520219027
 30
0.0
 10
577.3912614603381
 20
769.8900797344596
 30
0.0
 10
574.8481934568472
 20
771.3600405446634
 30
0.0
 10
572.5055679630273
 20
772.0969658708927
 30
0.0
 10
571.2731881632777
 20
772.2036408282116
 30
0.0
 10
570.6480158697334
 20
772.2577558240471
 30
0.0
  0
SPLINE
  5
391
330
1F
100
AcDbEntity
  8
0
  6
Continuous
 62
     8
370
    15
100
AcDbSpline
210
0.0
220
0.0
230
1.0
 70
     8
 71
     3
 72
    11
 73
     7
 74
     0
 42
0.00000001
 43
0.00000001
 12
1.0
 22
0.0
 32
0.0
 13
1.0
 23
0.0
 33
0.0
 40
0.0
 40
0.0
 40
0.0
 40
0.0
 40
0.1705915506935343
 40
0.346153510381325
 40
0.690371880217702
 40
1.0
 40
1.0
 40
1.0
 40
1.0
 10
220.4714132677284
 20
772.2577558240471
 30
0.0
 10
219.87845177041
 20
772.2079524481862
 30
0.0
 10
218.6752520633715
 20
772.106894609665
 30
0.0
 10
216.3702793726954
 20
771.4030045780122
 30
0.0
 10
213.7841863239174
 20
769.9440516336589
 30
0.0
 10
212.3793389238849
 20
768.1303065733711
 30
0.0
 10
211.71407533991
 20
767.2714100560722
 30
0.0
  0
SPLINE
  5
392
330
1F
100
AcDbEntity
  8
0
  6
Continuous
 62
     8
370
    15
100
AcDbSpline
210
0.0
220
0.0
230
1.0
 70
     8
 71
     3
 72
    11
 73
     7
 74
     0
 42
0.00000001
 43
0.00000001
 12
1.0
 22
0.0
 32
0.0
 13
1.0
 23
0.0
 33
0.0
 40
0.0
 40
0.0
 40
0.0
 40
0.0
 40
0.1705913160415299
 40
0.3461530342404217
 40
0.6903680254375976
 40
1.0
 40
1.0
 40
1.0
 40
1.0
 10
570.6480158697334
 20
734.1171012601433
 30
0.0
 10
571.2409776756203
 20
734.1669041700125
 30
0.0
 10
572.4441780087866
 20
734.2679610629737
 30
0.0
 10
574.7491346469719
 20
734.9718577265454
 30
0.0
 10
577.3352794525821
 20
736.4307395232132
 30
0.0
 10
578.740096696333
 20
738.2445224916929
 30
0.0
 10
579.4053537975517
 20
739.1034470281181
 30
0.0
  0
LINE
  5
393
330
1F
100
AcDbEntity
  8
0
  6
Continuous
 62
     8
370
    15
100
AcDbLine
 10
385.0608742069
 20
774.789939948
 30
0.0
 11
385.1668494027
 21
775.0553594312
 31
0.0
  0
LINE
  5
394
330
1F
100
AcDbEntity
  8
0
  6
Continuous
 62
     8
370
    15
100
AcDbLine
 10
320.8806453477
 20
774.5520578107
 30
0.0
 11
320.9822414647
 21
774.2990360937
 31
0.0
  0
LINE
  5
395
330
1F
100
AcDbEntity
  8
0
  6
Continuous
 62
     8
370
    15
100
AcDbLine
 10
406.0585549306
 20
731.5849171362
 30
0.0
 11
405.9525797348
 21
731.3194380483
 31
0.0
  0
LINE
  5
396
330
1F
100
AcDbEntity
  8
0
  6
Continuous
 62
     8
370
    15
100
AcDbLine
 10
470.2387837898
 20
731.8227992734
 30
0.0
 11
470.1371876727
 21
732.0758209905
 31
0.0
  0
LINE
  5
397
330
1F
100
AcDbEntity
  8
0
  6
Continuous
 62
     8
370
    15
100
AcDbLine
 10
385.1668494027
 20
731.3194380483
 30
0.0
 11
385.0608742069
 21
731.5849171362
 31
0.0
  0
LINE
  5
398
330
1F
100
AcDbEntity
  8
0
  6
Continuous
 62
     8
370
    15
100
AcDbLine
 10
320.9822414647
 20
732.0758209905
 30
0.0
 11
320.8806453477
 21
731.8227992734
 31
0.0
  0
LINE
  5
399
330
1F
100
AcDbEntity
  8
0
  6
Continuous
 62
     8
370
    15
100
AcDbLine
 10
470.1371876727
 20
774.2990360937
 30
0.0
 11
470.2387837898
 21
774.5520578107
 31
0.0
  0
LINE
  5
39A
330
1F
100
AcDbEntity
  8
0
  6
Continuous
 62
     8
370
    15
100
AcDbLine
 10
405.9525797348
 20
775.0553594312
 30
0.0
 11
406.0585549306
 21
774.789939948
 31
0.0
  0
LINE
  5
39B
330
1F
100
AcDbEntity
  8
0
  6
Continuous
 62
     8
370
    15
100
AcDbLine
 10
220.4714132677
 20
734.1171012601
 30
0.0
 11
220.4783125054
 21
734.3356714925
 31
0.0
  0
LINE
  5
39C
330
1F
100
AcDbEntity
  8
0
  6
Continuous
 62
     8
370
    15
100
AcDbLine
 10
211.7267264258
 20
739.4644723615
 30
0.0
 11
211.7140753399
 21
739.1034470281
 31
0.0
  0
LINE
  5
39D
330
1F
100
AcDbEntity
  8
0
  6
Continuous
 62
     8
370
    15
100
AcDbLine
 10
570.6480158697
 20
772.257755824
 30
0.0
 11
570.6411166321
 21
772.039125987
 31
0.0
  0
LINE
  5
39E
330
1F
100
AcDbEntity
  8
0
  6
Continuous
 62
     8
370
    15
100
AcDbLine
 10
579.3927027117
 20
766.9103847227
 30
0.0
 11
579.4053537976
 21
767.2714100561
 31
0.0
  0
LINE
  5
39F
330
1F
100
AcDbEntity
  8
0
  6
Continuous
 62
     8
370
    15
100
AcDbLine
 10
570.6480158697
 20
734.1171012601
 30
0.0
 11
570.6411166321
 21
734.3356714925
 31
0.0
  0
LINE
  5
3A0
330
1F
100
AcDbEntity
  8
0
  6
Continuous
 62
     8
370
    15
100
AcDbLine
 10
579.4053537976
 20
739.1034470281
 30
0.0
 11
579.3927027117
 21
739.4644723615
 31
0.0
  0
LINE
  5
3A1
330
1F
100
AcDbEntity
  8
0
  6
Continuous
 62
     8
370
    15
100
AcDbLine
 10
220.4714132677
 20
772.257755824
 30
0.0
 11
220.4783125054
 21
772.039125987
 31
0.0
  0
LINE
  5
3A2
330
1F
100
AcDbEntity
  8
0
  6
Continuous
 62
     8
370
    15
100
AcDbLine
 10
211.7140753399
 20
767.2714100561
 30
0.0
 11
211.7267264258
 21
766.9103847227
 31
0.0
  0
LINE
  5
3A3
330
1F
100
AcDbEntity
  8
0
  6
Continuous
 62
     8
370
    15
100
AcDbLine
 10
300.083653463
 20
732.1477637968
 30
0.0
 11
299.9845607411
 21
732.3975072584
 31
0.0
  0
LINE
  5
3A4
330
1F
100
AcDbEntity
  8
0
  6
Continuous
 62
     8
370
    15
100
AcDbLine
 10
491.1348683964
 20
732.3975072584
 30
0.0
 11
491.0357756745
 21
732.1477637968
 31
0.0
  0
LINE
  5
3A5
330
1F
100
AcDbEntity
  8
0
  6
Continuous
 62
     8
370
    15
100
AcDbLine
 10
299.9845607411
 20
773.9772902212
 30
0.0
 11
300.083653463
 21
774.2270932874
 31
0.0
  0
LINE
  5
3A6
330
1F
100
AcDbEntity
  8
0
  6
Continuous
 62
     8
370
    15
100
AcDbLine
 10
491.0357756745
 20
774.2270932874
 30
0.0
 11
491.1348683964
 21
773.9772902212
 31
0.0
  0
LINE
  5
3A7
330
1F
100
AcDbEntity
  8
0
  6
Continuous
 62
     8
370
    15
100
AcDbLine
 10
503.679366244
 20
-114.2449794927
 30
0.0
 11
504.3792141806
 21
-109.3157200733
 31
0.0
  0
ARC
  5
3A8
330
1F
100
AcDbEntity
  8
0
  6
Continuous
 62
     8
370
    15
100
AcDbCircle
 10
493.0193343782
 20
-152.64205035
 30
0.0
 40
39.8493579597328
100
AcDbArc
 50
74.4839533631
 51
88.5373444836
  0
ARC
  5
3A9
330
1F
100
AcDbEntity
  8
0
  6
Continuous
 62
     8
370
    15
100
AcDbCircle
 10
491.9980642737
 20
-152.7677701458
 30
0.0
 40
39.97602895455047
100
AcDbArc
 50
91.3782791542
 51
105.4017503194
  0
LINE
  5
3AA
330
1F
100
AcDbEntity
  8
0
  6
Continuous
 62
     8
370
    15
100
AcDbLine
 10
480.6911213528
 20
-109.3157200733
 30
0.0
 11
481.3810078632
 21
-114.2273886719
 31
0.0
  0
LINE
  5
3AB
330
1F
100
AcDbEntity
  8
0
  6
Continuous
 62
     8
370
    15
100
AcDbLine
 10
493.9081831108
 20
-109.3157200733
 30
0.0
 11
494.0369663964
 21
-111.332376174
 31
0.0
  0
LINE
  5
3AC
330
1F
100
AcDbEntity
  8
0
  6
Continuous
 62
     8
370
    15
100
AcDbLine
 10
492.0909716021
 20
-109.3157200733
 30
0.0
 11
492.0022649895
 21
-111.8320568123
 31
0.0
  0
LINE
  5
3AD
330
1F
100
AcDbEntity
  8
0
  6
Continuous
 62
     8
370
    15
100
AcDbLine
 10
493.0674521457
 20
-111.8328987279
 30
0.0
 11
492.9989440571
 21
-109.3157200733
 31
0.0
  0
LINE
  5
3AE
330
1F
100
AcDbEntity
  8
0
  6
Continuous
 62
     8
370
    15
100
AcDbLine
 10
492.0348314773
 20
-111.8646680036
 30
0.0
 11
493.0348335038
 21
-111.8654577651
 31
0.0
  0
ARC
  5
3AF
330
1F
100
AcDbEntity
  8
0
  6
Continuous
 62
     8
370
    15
100
AcDbCircle
 10
482.0596201038
 20
-120.7828265987
 30
0.0
 40
6.59046895029121
100
AcDbArc
 50
95.9101491798
 51
100.1224883639
  0
ARC
  5
3B0
330
1F
100
AcDbEntity
  8
0
  6
Continuous
 62
     8
370
    15
100
AcDbCircle
 10
502.6328665837
 20
-123.24930344
 30
0.0
 40
9.06493305468028
100
AcDbArc
 50
80.3267034092
 51
83.3707171512
  0
LWPOLYLINE
  5
3B1
330
1F
100
AcDbEntity
  8
0
  6
Continuous
 62
     8
370
    15
100
AcDbPolyline
 90
        3
 70
   128
 43
0.0
 10
480.8679608833
 20
-127.2422938266
 10
481.7200837861
 20
-125.6470053115
 10
482.1996329557
 20
-124.4457929054
  0
LINE
  5
3B2
330
1F
100
AcDbEntity
  8
0
  6
Continuous
 62
     8
370
    15
100
AcDbLine
 10
478.3634854685
 20
-115.5667422929
 30
0.0
 11
480.8679608833
 21
-127.2422938266
 31
0.0
  0
LWPOLYLINE
  5
3B3
330
1F
100
AcDbEntity
  8
0
  6
Continuous
 62
     8
370
    15
100
AcDbPolyline
 90
        3
 70
   128
 43
0.0
 10
480.7023568283
 20
-112.4730302611
 10
479.9999533426
 20
-113.5535060087
 10
478.3634854685
 20
-115.5667422929
  0
LINE
  5
3B4
330
1F
100
AcDbEntity
  8
0
  6
Continuous
 62
     8
370
    15
100
AcDbLine
 10
504.0742619168
 20
-127.2606073537
 30
0.0
 11
506.5531967412
 21
-115.588982276
 31
0.0
  0
LWPOLYLINE
  5
3B5
330
1F
100
AcDbEntity
  8
0
  6
Continuous
 62
     8
370
    15
100
AcDbPolyline
 90
        3
 70
   128
 43
0.0
 10
502.7072889935
 20
-124.2771862665
 10
503.2362504135
 20
-125.6639851847
 10
504.0742619168
 20
-127.2606073537
  0
LWPOLYLINE
  5
3B6
330
1F
100
AcDbEntity
  8
0
  6
Continuous
 62
     8
370
    15
100
AcDbPolyline
 90
        3
 70
   128
 43
0.0
 10
506.5531967412
 20
-115.588982276
 10
504.9345357548
 20
-113.573182992
 10
504.2820362579
 20
-112.5600753942
  0
LINE
  5
3B7
330
1F
100
AcDbEntity
  8
0
  6
Continuous
 62
     8
370
    15
100
AcDbLine
 10
493.9679740201
 20
-128.4005014816
 30
0.0
 11
493.9679740201
 21
-128.8536532441
 31
0.0
  0
LINE
  5
3B8
330
1F
100
AcDbEntity
  8
0
  6
Continuous
 62
     8
370
    15
100
AcDbLine
 10
494.0331666003
 20
-113.643531374
 30
0.0
 11
493.9679740201
 21
-128.4005014816
 31
0.0
  0
ARC
  5
3B9
330
1F
100
AcDbEntity
  8
0
  6
Continuous
 62
     8
370
    15
100
AcDbCircle
 10
492.0118453007
 20
-151.7934562931
 30
0.0
 40
38.08173355754887
100
AcDbArc
 50
91.4701617664
 51
105.4078229447
  0
ARC
  5
3BA
330
1F
100
AcDbEntity
  8
0
  6
Continuous
 62
     8
370
    15
100
AcDbCircle
 10
482.7676383755
 20
-113.9742650985
 30
0.0
 40
1.409544508424307
100
AcDbArc
 50
190.3451965722
 51
231.6980831837
  0
ARC
  5
3BB
330
1F
100
AcDbEntity
  8
0
  6
Continuous
 62
     8
370
    15
100
AcDbCircle
 10
502.2969527897
 20
-113.9904721023
 30
0.0
 40
1.405646104243278
100
AcDbArc
 50
308.062492032
 51
349.5684462383
  0
ARC
  5
3BC
330
1F
100
AcDbEntity
  8
0
  6
Continuous
 62
     8
370
    15
100
AcDbCircle
 10
493.0049750581
 20
-151.6726127415
 30
0.0
 40
37.95995675288468
100
AcDbArc
 50
74.4777093017
 51
88.4454206646
  0
ARC
  5
3BD
330
1F
100
AcDbEntity
  8
0
  6
Continuous
 62
     8
370
    15
100
AcDbCircle
 10
189.6191547956
 20
-111.7232725039
 30
0.0
 40
302.4157097366285
100
AcDbArc
 50
359.8081945866
 51
359.9732111613
  0
ARC
  5
3BE
330
1F
100
AcDbEntity
  8
0
  6
Continuous
 62
     8
370
    15
100
AcDbCircle
 10
491.9876437122
 20
-113.6903033202
 30
0.0
 40
0.9557399231331619
100
AcDbArc
 50
87.2697054666
 51
177.0527262391
  0
ARC
  5
3BF
330
1F
100
AcDbEntity
  8
0
  6
Continuous
 62
     8
370
    15
100
AcDbCircle
 10
493.0769395345
 20
-113.692939591
 30
0.0
 40
0.9575026753590737
100
AcDbArc
 50
2.9578404033
 51
92.6203530272
  0
ARC
  5
3C0
330
1F
100
AcDbEntity
  8
0
  6
Continuous
 62
     8
370
    15
100
AcDbCircle
 10
186.2866042785
 20
-111.7131735153
 30
0.0
 40
306.7482670259076
100
AcDbArc
 50
359.8088698247
 51
359.9715556823
  0
ARC
  5
3C1
330
1F
100
AcDbEntity
  8
0
  6
Continuous
 62
     8
370
    15
100
AcDbCircle
 10
513.2782915922
 20
-121.7211720636
 30
0.0
 40
12.09069303687268
100
AcDbArc
 50
146.779828416
 51
212.7139450739
  0
ARC
  5
3C2
330
1F
100
AcDbEntity
  8
0
  6
Continuous
 62
     8
370
    15
100
AcDbCircle
 10
492.5017974545
 20
-88.7623166188
 30
0.0
 40
40.89194102971371
100
AcDbArc
 50
254.8805571138
 51
285.0290462259
  0
ARC
  5
3C3
330
1F
100
AcDbEntity
  8
0
  6
Continuous
 62
     8
370
    15
100
AcDbCircle
 10
471.7211312593
 20
-121.6147690914
 30
0.0
 40
12.09069765666584
100
AcDbArc
 50
326.7798426152
 51
32.7139308747
  0
LINE
  5
3C4
330
1F
100
AcDbEntity
  8
0
  6
Continuous
 62
     8
370
    15
100
AcDbLine
 10
493.0331645738
 20
-112.7364380875
 30
0.0
 11
492.0331699978
 21
-112.735648326
 31
0.0
  0
LINE
  5
3C5
330
1F
100
AcDbEntity
  8
0
  6
Continuous
 62
     8
370
    15
100
AcDbLine
 10
492.0331699978
 20
-112.735648326
 30
0.0
 11
491.9679774176
 21
-127.4926109829
 31
0.0
  0
ARC
  5
3C6
330
1F
100
AcDbEntity
  8
0
  6
Continuous
 62
     8
370
    15
100
AcDbCircle
 10
491.9347107706
 20
-128.48076287
 30
0.0
 40
0.9887116979264746
100
AcDbArc
 50
88.0718360174
 51
154.2967432017
  0
ARC
  5
3C7
330
1F
100
AcDbEntity
  8
0
  6
Continuous
 62
     8
370
    15
100
AcDbCircle
 10
493.0117442053
 20
-128.4499048727
 30
0.0
 40
0.9575051717374122
100
AcDbArc
 50
2.9575435316
 51
92.6201815196
  0
LINE
  5
3C8
330
1F
100
AcDbEntity
  8
0
  6
Continuous
 62
     8
370
    15
100
AcDbLine
 10
492.9679719936
 20
-127.4934007445
 30
0.0
 11
493.0331645738
 21
-112.7364380875
 31
0.0
  0
LWPOLYLINE
  5
3C9
330
1F
100
AcDbEntity
  8
0
  6
Continuous
 62
     8
370
    15
100
AcDbPolyline
 90
        9
 70
   128
 43
0.0
 10
491.9679774176
 20
-127.4926109829
 10
492.0056773554
 20
-127.5735093871
 10
492.1137629281
 20
-127.6421441355
 10
492.2757683526
 20
-127.6880769649
 10
492.4670396577
 20
-127.7043192306
 10
492.6584525238
 20
-127.6883824387
 10
492.8208677303
 20
-127.6427029291
 10
492.9295568
 20
-127.574239544
 10
492.9679719936
 20
-127.4934007445
  0
ARC
  5
3CA
330
1F
100
AcDbEntity
  8
0
  6
Continuous
 62
     8
370
    15
100
AcDbCircle
 10
481.7688013885
 20
-114.2200057572
 30
0.0
 40
0.8694678182834306
100
AcDbArc
 50
212.7851977736
 51
278.2787420192
  0
ARC
  5
3CB
330
1F
100
AcDbEntity
  8
0
  6
Continuous
 62
     8
370
    15
100
AcDbCircle
 10
503.2899704387
 20
-114.2390201751
 30
0.0
 40
0.8674315515625535
100
AcDbArc
 50
261.6206401752
 51
326.8411792823
  0
ARC
  5
3CC
330
1F
100
AcDbEntity
  8
0
  6
Continuous
 62
     8
370
    15
100
AcDbCircle
 10
481.9380647158
 20
-127.1711647471
 30
0.0
 40
1.072465178123257
100
AcDbArc
 50
183.8028178792
 51
264.5317900977
  0
ARC
  5
3CD
330
1F
100
AcDbEntity
  8
0
  6
Continuous
 62
     8
370
    15
100
AcDbCircle
 10
503.0058089586
 20
-127.1893456513
 30
0.0
 40
1.070826761880553
100
AcDbArc
 50
275.338221548
 51
356.1842431757
  0
LWPOLYLINE
  5
3CE
330
1F
100
AcDbEntity
  8
0
  6
Continuous
 62
     8
370
    15
100
AcDbPolyline
 90
        3
 70
   128
 43
0.0
 10
475.2536354791
 20
-112.7689375201
 10
476.9325120579
 20
-110.787746183
 10
477.8969301115
 20
-109.3157200733
  0
SPLINE
  5
3CF
330
1F
100
AcDbEntity
  8
0
  6
Continuous
 62
     8
370
    15
100
AcDbSpline
210
0.0
220
0.0
230
1.0
 70
     8
 71
     3
 72
    11
 73
     7
 74
     0
 42
0.00000001
 43
0.00000001
 12
1.0
 22
0.0
 32
0.0
 13
1.0
 23
0.0
 33
0.0
 40
0.0
 40
0.0
 40
0.0
 40
0.0
 40
0.2357950358840982
 40
0.2749038713208808
 40
0.6342538237439829
 40
1.0
 40
1.0
 40
1.0
 40
1.0
 10
476.6234917770591
 20
-113.5434775271836
 30
0.0
 10
476.8264056785717
 20
-113.6959153966367
 30
0.0
 10
477.0629747685929
 20
-113.8736365275819
 30
0.0
 10
477.5416573817345
 20
-114.3080743838524
 30
0.0
 10
478.0430685493479
 20
-114.857449254923
 30
0.0
 10
478.2560535670649
 20
-115.3289249518464
 30
0.0
 10
478.3634854685035
 20
-115.566742292923
 30
0.0
  0
SPLINE
  5
3D0
330
1F
100
AcDbEntity
  8
0
  6
Continuous
 62
     8
370
    15
100
AcDbSpline
210
0.0
220
0.0
230
1.0
 70
     8
 71
     3
 72
     9
 73
     5
 74
     0
 42
0.00000001
 43
0.00000001
 12
1.0
 22
0.0
 32
0.0
 13
1.0
 23
0.0
 33
0.0
 40
0.0
 40
0.0
 40
0.0
 40
0.0
 40
0.5315605404662028
 40
1.0
 40
1.0
 40
1.0
 40
1.0
 10
475.2536354790893
 20
-112.7689375200692
 30
0.0
 10
475.4878070774872
 20
-112.8717205778399
 30
0.0
 10
475.9283431605314
 20
-113.0650815404134
 30
0.0
 10
476.4017359259018
 20
-113.390866838312
 30
0.0
 10
476.6234917770591
 20
-113.5434775271836
 30
0.0
  0
LWPOLYLINE
  5
3D1
330
1F
100
AcDbEntity
  8
0
  6
Continuous
 62
     8
370
    15
100
AcDbPolyline
 90
        3
 70
   128
 43
0.0
 10
507.0383636485
 20
-109.3157200733
 10
508.0027891527
 20
-110.8122585931
 10
509.6641494166
 20
-112.7960948863
  0
SPLINE
  5
3D2
330
1F
100
AcDbEntity
  8
0
  6
Continuous
 62
     8
370
    15
100
AcDbSpline
210
0.0
220
0.0
230
1.0
 70
     8
 71
     3
 72
     9
 73
     5
 74
     0
 42
0.00000001
 43
0.00000001
 12
1.0
 22
0.0
 32
0.0
 13
1.0
 23
0.0
 33
0.0
 40
0.0
 40
0.0
 40
0.0
 40
0.0
 40
0.4684402003634079
 40
0.9999999999999999
 40
0.9999999999999999
 40
0.9999999999999999
 40
0.9999999999999999
 10
508.2911117206779
 20
-113.5684667745057
 30
0.0
 10
508.5131995285217
 20
-113.416204288352
 30
0.0
 10
508.9873001878406
 20
-113.091162829409
 30
0.0
 10
509.4292347625679
 20
-112.898504375502
 30
0.0
 10
509.6641494165626
 20
-112.796094886345
 30
0.0
  0
SPLINE
  5
3D3
330
1F
100
AcDbEntity
  8
0
  6
Continuous
 62
     8
370
    15
100
AcDbSpline
210
0.0
220
0.0
230
1.0
 70
     8
 71
     3
 72
    11
 73
     7
 74
     0
 42
0.00000001
 43
0.00000001
 12
1.0
 22
0.0
 32
0.0
 13
1.0
 23
0.0
 33
0.0
 40
0.0
 40
0.0
 40
0.0
 40
0.0
 40
0.3658282072713726
 40
0.7252593662053547
 40
0.9820699565339325
 40
0.9999999999999999
 40
0.9999999999999999
 40
0.9999999999999999
 40
0.9999999999999999
 10
506.55319674122
 20
-115.5889822760048
 30
0.0
 10
506.6604443508404
 20
-115.3511142278976
 30
0.0
 10
506.8730641866928
 20
-114.8795376070089
 30
0.0
 10
507.5107236097982
 20
-114.1776659287584
 30
0.0
 10
508.0354252569381
 20
-113.7499768858375
 30
0.0
 10
508.2754474612739
 20
-113.5795867275402
 30
0.0
 10
508.2911117206779
 20
-113.5684667745057
 30
0.0
  0
ARC
  5
3D4
330
1F
100
AcDbEntity
  8
0
  6
Continuous
 62
     8
370
    15
100
AcDbCircle
 10
482.3753061027
 20
-89.5458585939
 30
0.0
 40
24.29052463990485
100
AcDbArc
 50
234.4779432951
 51
252.9511349601
  0
ARC
  5
3D5
330
1F
100
AcDbEntity
  8
0
  6
Continuous
 62
     8
370
    15
100
AcDbCircle
 10
475.047419135
 20
-112.4311238266
 30
0.0
 40
0.3957818490878503
100
AcDbArc
 50
253.8305024892
 51
301.4017280479
  0
ARC
  5
3D6
330
1F
100
AcDbEntity
  8
0
  6
Continuous
 62
     8
370
    15
100
AcDbCircle
 10
509.8700092842
 20
-112.4616827839
 30
0.0
 40
0.3926954791752461
100
AcDbArc
 50
238.3840723386
 51
286.0271680274
  0
ARC
  5
3D7
330
1F
100
AcDbEntity
  8
0
  6
Continuous
 62
     8
370
    15
100
AcDbCircle
 10
502.5571525111
 20
-89.4249674252
 30
0.0
 40
24.4278325649113
100
AcDbArc
 50
286.9141508532
 51
305.4851533312
  0
ARC
  5
3D8
330
1F
100
AcDbEntity
  8
0
  6
Continuous
 62
     8
370
    15
100
AcDbCircle
 10
481.4335679152
 20
-127.4108784219
 30
0.0
 40
0.59019664551688
100
AcDbArc
 50
163.4028081296
 51
188.694771954
  0
ARC
  5
3D9
330
1F
100
AcDbEntity
  8
0
  6
Continuous
 62
     8
370
    15
100
AcDbCircle
 10
481.6371349526
 20
-127.9598193929
 30
0.0
 40
0.3424848741394817
100
AcDbArc
 50
256.5475694459
 51
305.4689514643
  0
ARC
  5
3DA
330
1F
100
AcDbEntity
  8
0
  6
Continuous
 62
     8
370
    15
100
AcDbCircle
 10
503.3036424854
 20
-127.9799056207
 30
0.0
 40
0.3394918190720263
100
AcDbArc
 50
234.2788203489
 51
283.3069568934
  0
ARC
  5
3DB
330
1F
100
AcDbEntity
  8
0
  6
Continuous
 62
     8
370
    15
100
AcDbCircle
 10
503.5093203746
 20
-127.4264955986
 30
0.0
 40
0.5887935596140814
100
AcDbArc
 50
349.5756337218
 51
16.3642377595
  0
ARC
  5
3DC
330
1F
100
AcDbEntity
  8
0
  6
Continuous
 62
     8
370
    15
100
AcDbCircle
 10
478.8914030785
 20
-115.8126860705
 30
0.0
 40
0.582396209322421
100
AcDbArc
 50
155.0203509449
 51
192.7684359205
  0
ARC
  5
3DD
330
1F
100
AcDbEntity
  8
0
  6
Continuous
 62
     8
370
    15
100
AcDbCircle
 10
506.0241554177
 20
-115.8326182205
 30
0.0
 40
0.5824458734080046
100
AcDbArc
 50
347.7021154072
 51
24.7271797218
  0
LWPOLYLINE
  5
3DE
330
1F
100
AcDbEntity
  8
0
  6
Continuous
 62
     8
370
    15
100
AcDbPolyline
 90
        9
 70
   128
 43
0.0
 10
493.9679740201
 20
-128.4005014816
 10
493.8527209889
 20
-128.6430029788
 10
493.5266537796
 20
-128.8484080353
 10
493.0394156109
 20
-128.9854391137
 10
492.4651770126
 20
-129.0332420388
 10
491.8913630973
 20
-128.9845301428
 10
491.4053393732
 20
-128.8467316547
 10
491.0810901056
 20
-128.6408125081
 10
490.9961758386
 20
-128.5216553727
  0
ARC
  5
3DF
330
1F
100
AcDbEntity
  8
0
  6
Continuous
 62
     8
370
    15
100
AcDbCircle
 10
270.5596815708
 20
638.5165441478
 30
0.0
 40
3.999960207761459
100
AcDbArc
 50
89.9995273346
 51
179.9989785395
  0
ARC
  5
3E0
330
1F
100
AcDbEntity
  8
0
  6
Continuous
 62
     8
370
    15
100
AcDbCircle
 10
266.3118037987
 20
666.7161993646
 30
0.0
 40
28.20067367277671
100
AcDbArc
 50
268.4717962542
 51
270.503704744
  0
LINE
  5
3E1
330
1F
100
AcDbEntity
  8
0
  6
Continuous
 62
     8
370
    15
100
AcDbLine
 10
270.5597145687
 20
643.5253725729
 30
0.0
 11
270.5597145687
 21
642.5165043554
 31
0.0
  0
LINE
  5
3E2
330
1F
100
AcDbEntity
  8
0
  6
Continuous
 62
     8
370
    15
100
AcDbLine
 10
270.5597145687
 20
643.5253725729
 30
0.0
 11
520.5597145687
 21
643.5253725729
 31
0.0
  0
LINE
  5
3E3
330
1F
100
AcDbEntity
  8
0
  6
Continuous
 62
     8
370
    15
100
AcDbLine
 10
520.5597145687
 20
643.5253725729
 30
0.0
 11
520.5597145687
 21
642.5165043554
 31
0.0
  0
LINE
  5
3E4
330
1F
100
AcDbEntity
  8
0
  6
Continuous
 62
     8
370
    15
100
AcDbLine
 10
520.5597145687
 20
642.5165043554
 30
0.0
 11
270.5597145687
 21
642.5165043554
 31
0.0
  0
ARC
  5
3E5
330
1F
100
AcDbEntity
  8
0
  6
Continuous
 62
     8
370
    15
100
AcDbCircle
 10
524.8076253387
 20
666.7161993646
 30
0.0
 40
28.20067367277682
100
AcDbArc
 50
269.496295256
 51
271.5282037458
  0
ARC
  5
3E6
330
1F
100
AcDbEntity
  8
0
  6
Continuous
 62
     8
370
    15
100
AcDbCircle
 10
520.5597475667
 20
638.5165441478
 30
0.0
 40
3.999960207761468
100
AcDbArc
 50
0.0010214605
 51
90.0004726654
  0
ARC
  5
3E7
330
1F
100
AcDbEntity
  8
0
  6
Continuous
 62
     8
370
    15
100
AcDbCircle
 10
270.5596208584
 20
8.5418063358
 30
0.0
 40
3.999899495216638
100
AcDbArc
 50
180.0008455057
 51
270.0013423347
  0
LINE
  5
3E8
330
1F
100
AcDbEntity
  8
0
  6
Continuous
 62
     8
370
    15
100
AcDbLine
 10
266.5597213637
 20
638.5166154584
 30
0.0
 11
266.5597213637
 21
8.5417473099
 31
0.0
  0
LINE
  5
3E9
330
1F
100
AcDbEntity
  8
0
  6
Continuous
 62
     8
370
    15
100
AcDbLine
 10
524.5597077738
 20
8.5417473099
 30
0.0
 11
524.5597077738
 21
638.5166154584
 31
0.0
  0
ARC
  5
3EA
330
1F
100
AcDbEntity
  8
0
  6
Continuous
 62
     8
370
    15
100
AcDbCircle
 10
520.559808279
 20
8.5418063358
 30
0.0
 40
3.999899495216694
100
AcDbArc
 50
269.9986576653
 51
359.9991544943
  0
LINE
  5
3EB
330
1F
100
AcDbEntity
  8
0
  6
Continuous
 62
     8
370
    15
100
AcDbLine
 10
270.5597145687
 20
4.5419068417
 30
0.0
 11
520.5597145687
 21
4.5419068417
 31
0.0
  0
ARC
  5
3EC
330
1F
100
AcDbEntity
  8
0
  6
Continuous
 62
     8
370
    15
100
AcDbCircle
 10
266.3096694072
 20
36.5434258335
 30
0.0
 40
28.00279496984826
100
AcDbArc
 50
268.4653634736
 51
270.5116315062
  0
ARC
  5
3ED
330
1F
100
AcDbEntity
  8
0
  6
Continuous
 62
     8
370
    15
100
AcDbCircle
 10
524.8097597303
 20
36.5434258335
 30
0.0
 40
28.00279496984826
100
AcDbArc
 50
269.4883684938
 51
271.5346365264
  0
LINE
  5
3EE
330
1F
100
AcDbEntity
  8
0
  6
Continuous
 62
     8
370
    15
100
AcDbLine
 10
270.5597145687
 20
643.6771259985
 30
0.0
 11
270.5597145687
 21
643.5253725729
 31
0.0
  0
LINE
  5
3EF
330
1F
100
AcDbEntity
  8
0
  6
Continuous
 62
     8
370
    15
100
AcDbLine
 10
520.5597145687
 20
643.5253725729
 30
0.0
 11
520.5597145687
 21
643.6771259985
 31
0.0
  0
LINE
  5
3F0
330
1F
100
AcDbEntity
  8
0
  6
Continuous
 62
     8
370
    15
100
AcDbLine
 10
270.5597145687
 20
4.5419068417
 30
0.0
 11
270.5597145687
 21
3.5508734515
 31
0.0
  0
LINE
  5
3F1
330
1F
100
AcDbEntity
  8
0
  6
Continuous
 62
     8
370
    15
100
AcDbLine
 10
520.5597145687
 20
4.5419068417
 30
0.0
 11
520.5597145687
 21
3.5508734515
 31
0.0
  0
LINE
  5
3F2
330
1F
100
AcDbEntity
  8
0
  6
Continuous
 62
     8
370
    15
100
AcDbLine
 10
236.8531836401
 20
772.5315199575
 30
0.0
 11
275.4803834687
 21
772.5315199575
 31
0.0
  0
LINE
  5
3F3
330
1F
100
AcDbEntity
  8
0
  6
Continuous
 62
     8
370
    15
100
AcDbLine
 10
295.5597130786
 20
772.5315199575
 30
0.0
 11
303.4842549096
 21
772.5315199575
 31
0.0
  0
LINE
  5
3F4
330
1F
100
AcDbEntity
  8
0
  6
Continuous
 62
     8
370
    15
100
AcDbLine
 10
317.3356590997
 20
772.5315199575
 30
0.0
 11
389.1750391777
 21
772.5315199575
 31
0.0
  0
LINE
  5
3F5
330
1F
100
AcDbEntity
  8
0
  6
Continuous
 62
     8
370
    15
100
AcDbLine
 10
401.8962680567
 20
772.5315199575
 30
0.0
 11
473.846280409
 21
772.5315199575
 31
0.0
  0
LINE
  5
3F6
330
1F
100
AcDbEntity
  8
0
  6
Continuous
 62
     8
370
    15
100
AcDbLine
 10
487.6287667285
 20
772.5315199575
 30
0.0
 11
495.5597160588
 21
772.5315199575
 31
0.0
  0
LINE
  5
3F7
330
1F
100
AcDbEntity
  8
0
  6
Continuous
 62
     8
370
    15
100
AcDbLine
 10
515.6390456687
 20
772.5315199575
 30
0.0
 11
554.2662454973
 21
772.5315199575
 31
0.0
  0
ENDSEC
  0
SECTION
  2
OBJECTS
  0
DICTIONARY
  5
C
330
0
100
AcDbDictionary
281
     1
  3
ACAD_GROUP
350
D
  3
ACAD_LAYOUT
350
1A
  3
ACAD_MLINESTYLE
350
17
  3
ACAD_PLOTSETTINGS
350
19
  3
ACAD_PLOTSTYLENAME
350
E
  0
DICTIONARY
  5
D
102
{ACAD_REACTORS
330
C
102
}
330
C
100
AcDbDictionary
281
     1
  0
DICTIONARY
  5
1A
102
{ACAD_REACTORS
330
C
102
}
330
C
100
AcDbDictionary
281
     1
  3
Layout1
350
1E
  3
Layout2
350
26
  3
Model
350
22
  0
DICTIONARY
  5
17
102
{ACAD_REACTORS
330
C
102
}
330
C
100
AcDbDictionary
281
     1
  3
Standard
350
18
  0
DICTIONARY
  5
19
102
{ACAD_REACTORS
330
C
102
}
330
C
100
AcDbDictionary
281
     1
  0
ACDBDICTIONARYWDFLT
  5
E
102
{ACAD_REACTORS
330
C
102
}
330
C
100
AcDbDictionary
281
     1
  3
Normal
350
F
100
AcDbDictionaryWithDefault
340
F
  0
LAYOUT
  5
1E
102
{ACAD_REACTORS
330
1A
102
}
330
1A
100
AcDbPlotSettings
  1

  2
none_device
  4

  6

 40
0.0
 41
0.0
 42
0.0
 43
0.0
 44
0.0
 45
0.0
 46
0.0
 47
0.0
 48
0.0
 49
0.0
140
0.0
141
0.0
142
1.0
143
1.0
 70
   688
 72
     0
 73
     0
 74
     5
  7

 75
    16
147
1.0
148
0.0
149
0.0
100
AcDbLayout
  1
Layout1
 70
     1
 71
     1
 10
0.0
 20
0.0
 11
420.0
 21
297.0
 12
0.0
 22
0.0
 32
0.0
 14
1.0000000000E+20
 24
1.0000000000E+20
 34
1.0000000000E+20
 15
-1.0000000000E+20
 25
-1.0000000000E+20
 35
-1.0000000000E+20
146
0.0
 13
0.0
 23
0.0
 33
0.0
 16
1.0
 26
0.0
 36
0.0
 17
0.0
 27
1.0
 37
0.0
 76
     0
330
1B
  0
LAYOUT
  5
26
102
{ACAD_REACTORS
330
1A
102
}
330
1A
100
AcDbPlotSettings
  1

  2
none_device
  4

  6

 40
0.0
 41
0.0
 42
0.0
 43
0.0
 44
0.0
 45
0.0
 46
0.0
 47
0.0
 48
0.0
 49
0.0
140
0.0
141
0.0
142
1.0
143
1.0
 70
   688
 72
     0
 73
     0
 74
     5
  7

 75
    16
147
1.0
148
0.0
149
0.0
100
AcDbLayout
  1
Layout2
 70
     1
 71
     2
 10
0.0
 20
0.0
 11
0.0
 21
0.0
 12
0.0
 22
0.0
 32
0.0
 14
0.0
 24
0.0
 34
0.0
 15
0.0
 25
0.0
 35
0.0
146
0.0
 13
0.0
 23
0.0
 33
0.0
 16
1.0
 26
0.0
 36
0.0
 17
0.0
 27
1.0
 37
0.0
 76
     0
330
23
  0
LAYOUT
  5
22
102
{ACAD_REACTORS
330
1A
102
}
330
1A
100
AcDbPlotSettings
  1

  2
none_device
  4

  6

 40
0.0
 41
0.0
 42
0.0
 43
0.0
 44
0.0
 45
0.0
 46
0.0
 47
0.0
 48
0.0
 49
0.0
140
0.0
141
0.0
142
1.0
143
1.0
 70
  1712
 72
     0
 73
     0
 74
     0
  7

 75
     0
147
1.0
148
0.0
149
0.0
100
AcDbLayout
  1
Model
 70
     1
 71
     0
 10
0.0
 20
0.0
 11
841.0
 21
594.0
 12
0.0
 22
0.0
 32
0.0
 14
0.0
 24
0.0
 34
0.0
 15
841.0
 25
594.0
 35
0.0
146
0.0
 13
0.0
 23
0.0
 33
0.0
 16
1.0
 26
0.0
 36
0.0
 17
0.0
 27
1.0
 37
0.0
 76
     0
330
1F
331
29
  0
MLINESTYLE
  5
18
102
{ACAD_REACTORS
330
17
102
}
330
17
100
AcDbMlineStyle
  2
Standard
 70
     0
  3

 62
   256
 51
90.0
 52
90.0
 71
     2
 49
0.5
 62
   256
  6
BYLAYER
 49
-0.5
 62
   256
  6
BYLAYER
  0
ACDBPLACEHOLDER
  5
F
102
{ACAD_REACTORS
330
E
102
}
330
E
  0
ENDSEC
  0
EOF
