  0
SECTION
  2
HEADER
  9
$ACADVER
  1
AC1015
  9
$ACADMAINTVER
 70
     6
  9
$DWGCODEPAGE
  3
ANSI_1252
  9
$INSBASE
 10
0.0
 20
0.0
 30
0.0
  9
$EXTMIN
 10
0.0
 20
0.0
 30
0.0
  9
$EXTMAX
 10
841.0
 20
594.0
 30
0.0
  9
$LIMMIN
 10
0.0
 20
0.0
  9
$LIMMAX
 10
841.0
 20
594.0
  9
$ORTHOMODE
 70
     0
  9
$REGENMODE
 70
     1
  9
$FILLMODE
 70
     1
  9
$QTEXTMODE
 70
     0
  9
$MIRRTEXT
 70
     1
  9
$LTSCALE
 40
1.0
  9
$ATTMODE
 70
     1
  9
$TEXTSIZE
 40
3.5
  9
$TRACEWID
 40
1.0
  9
$TEXTSTYLE
  7
Standard
  9
$CLAYER
  8
0
  9
$CELTYPE
  6
ByLayer
  9
$CECOLOR
 62
   256
  9
$CELTSCALE
 40
1.0
  9
$DISPSILH
 70
     0
  9
$DIMSCALE
 40
1.0
  9
$DIMASZ
 40
3.302
  9
$DIMEXO
 40
1.0
  9
$DIMDLI
 40
3.75
  9
$DIMRND
 40
0.0
  9
$DIMDLE
 40
0.0
  9
$DIMEXE
 40
1.0
  9
$DIMTP
 40
0.0
  9
$DIMTM
 40
0.0
  9
$DIMTXT
 40
3.5
  9
$DIMCEN
 40
2.5
  9
$DIMTSZ
 40
0.0
  9
$DIMTOL
 70
     0
  9
$DIMLIM
 70
     0
  9
$DIMTIH
 70
     1
  9
$DIMTOH
 70
     1
  9
$DIMSE1
 70
     0
  9
$DIMSE2
 70
     0
  9
$DIMTAD
 70
     1
  9
$DIMZIN
 70
     0
  9
$DIMBLK
  1

  9
$DIMASO
 70
     1
  9
$DIMSHO
 70
     1
  9
$DIMPOST
  1

  9
$DIMAPOST
  1

  9
$DIMALT
 70
     0
  9
$DIMALTD
 70
     3
  9
$DIMALTF
 40
0.0393700787
  9
$DIMLFAC
 40
1.0
  9
$DIMTOFL
 70
     1
  9
$DIMTVP
 40
0.0
  9
$DIMTIX
 70
     0
  9
$DIMSOXD
 70
     0
  9
$DIMSAH
 70
     0
  9
$DIMBLK1
  1

  9
$DIMBLK2
  1

  9
$DIMSTYLE
  2
ISO-25
  9
$DIMCLRD
 70
     0
  9
$DIMCLRE
 70
     0
  9
$DIMCLRT
 70
     0
  9
$DIMTFAC
 40
1.0
  9
$DIMGAP
 40
1.524
  9
$DIMJUST
 70
     0
  9
$DIMSD1
 70
     0
  9
$DIMSD2
 70
     0
  9
$DIMTOLJ
 70
     0
  9
$DIMTZIN
 70
     0
  9
$DIMALTZ
 70
     0
  9
$DIMALTTZ
 70
     0
  9
$DIMUPT
 70
     0
  9
$DIMDEC
 70
     1
  9
$DIMTDEC
 70
     1
  9
$DIMALTU
 70
     2
  9
$DIMALTTD
 70
     3
  9
$DIMTXSTY
  7
Standard
  9
$DIMAUNIT
 70
     0
  9
$DIMADEC
 70
     1
  9
$DIMALTRND
 40
0.0
  9
$DIMAZIN
 70
     0
  9
$DIMDSEP
 70
    44
  9
$DIMATFIT
 70
     3
  9
$DIMFRAC
 70
     0
  9
$DIMLDRBLK
  1

  9
$DIMLUNIT
 70
     2
  9
$DIMLWD
 70
    -2
  9
$DIMLWE
 70
    -2
  9
$DIMTMOVE
 70
     0
  9
$LUNITS
 70
     2
  9
$LUPREC
 70
     1
  9
$SKETCHINC
 40
1.0
  9
$FILLETRAD
 40
10.0
  9
$AUNITS
 70
     0
  9
$AUPREC
 70
     1
  9
$MENU
  1
.
  9
$ELEVATION
 40
0.0
  9
$PELEVATION
 40
0.0
  9
$THICKNESS
 40
0.0
  9
$LIMCHECK
 70
     0
  9
$CHAMFERA
 40
10.0
  9
$CHAMFERB
 40
10.0
  9
$CHAMFERC
 40
20.0
  9
$CHAMFERD
 40
0.0
  9
$SKPOLY
 70
     0
  9
$TDCREATE
 40
2457080.365053901
  9
$TDUCREATE
 40
2457080.365053901
  9
$TDUPDATE
 40
2457080.365054803
  9
$TDUUPDATE
 40
2457080.365054803
  9
$TDINDWG
 40
0.0000000116
  9
$TDUSRTIMER
 40
0.0000000116
  9
$USRTIMER
 70
     1
  9
$ANGBASE
 50
0.0
  9
$ANGDIR
 70
     0
  9
$PDMODE
 70
     0
  9
$PDSIZE
 40
-1.0
  9
$PLINEWID
 40
0.0
  9
$SPLFRAME
 70
     0
  9
$SPLINETYPE
 70
     6
  9
$SPLINESEGS
 70
     8
  9
$HANDSEED
  5
2C4
  9
$SURFTAB1
 70
     6
  9
$SURFTAB2
 70
     6
  9
$SURFTYPE
 70
     6
  9
$SURFU
 70
     6
  9
$SURFV
 70
     6
  9
$UCSBASE
  2

  9
$UCSNAME
  2

  9
$UCSORG
 10
0.0
 20
0.0
 30
0.0
  9
$UCSXDIR
 10
1.0
 20
0.0
 30
0.0
  9
$UCSYDIR
 10
0.0
 20
1.0
 30
0.0
  9
$UCSORTHOREF
  2

  9
$UCSORTHOVIEW
 70
     0
  9
$UCSORGTOP
 10
0.0
 20
0.0
 30
0.0
  9
$UCSORGBOTTOM
 10
0.0
 20
0.0
 30
0.0
  9
$UCSORGLEFT
 10
0.0
 20
0.0
 30
0.0
  9
$UCSORGRIGHT
 10
0.0
 20
0.0
 30
0.0
  9
$UCSORGFRONT
 10
0.0
 20
0.0
 30
0.0
  9
$UCSORGBACK
 10
0.0
 20
0.0
 30
0.0
  9
$PUCSBASE
  2

  9
$PUCSNAME
  2

  9
$PUCSORG
 10
0.0
 20
0.0
 30
0.0
  9
$PUCSXDIR
 10
1.0
 20
0.0
 30
0.0
  9
$PUCSYDIR
 10
0.0
 20
1.0
 30
0.0
  9
$PUCSORTHOREF
  2

  9
$PUCSORTHOVIEW
 70
     0
  9
$PUCSORGTOP
 10
0.0
 20
0.0
 30
0.0
  9
$PUCSORGBOTTOM
 10
0.0
 20
0.0
 30
0.0
  9
$PUCSORGLEFT
 10
0.0
 20
0.0
 30
0.0
  9
$PUCSORGRIGHT
 10
0.0
 20
0.0
 30
0.0
  9
$PUCSORGFRONT
 10
0.0
 20
0.0
 30
0.0
  9
$PUCSORGBACK
 10
0.0
 20
0.0
 30
0.0
  9
$USERI1
 70
     0
  9
$USERI2
 70
     0
  9
$USERI3
 70
     0
  9
$USERI4
 70
     0
  9
$USERI5
 70
     0
  9
$USERR1
 40
0.0
  9
$USERR2
 40
0.0
  9
$USERR3
 40
0.0
  9
$USERR4
 40
0.0
  9
$USERR5
 40
0.0
  9
$WORLDVIEW
 70
     1
  9
$SHADEDGE
 70
     3
  9
$SHADEDIF
 70
    70
  9
$TILEMODE
 70
     1
  9
$MAXACTVP
 70
    64
  9
$PINSBASE
 10
0.0
 20
0.0
 30
0.0
  9
$PLIMCHECK
 70
     0
  9
$PEXTMIN
 10
1.0000000000E+20
 20
1.0000000000E+20
 30
1.0000000000E+20
  9
$PEXTMAX
 10
-1.0000000000E+20
 20
-1.0000000000E+20
 30
-1.0000000000E+20
  9
$PLIMMIN
 10
0.0
 20
0.0
  9
$PLIMMAX
 10
420.0
 20
297.0
  9
$UNITMODE
 70
     0
  9
$VISRETAIN
 70
     1
  9
$PLINEGEN
 70
     0
  9
$PSLTSCALE
 70
     1
  9
$TREEDEPTH
 70
  3020
  9
$CMLSTYLE
  2
Standard
  9
$CMLJUST
 70
     0
  9
$CMLSCALE
 40
20.0
  9
$PROXYGRAPHICS
 70
     1
  9
$MEASUREMENT
 70
     1
  9
$CELWEIGHT
370
    -1
  9
$ENDCAPS
280
     0
  9
$JOINSTYLE
280
     0
  9
$LWDISPLAY
290
     1
  9
$INSUNITS
 70
     4
  9
$HYPERLINKBASE
  1

  9
$STYLESHEET
  1

  9
$XEDIT
290
     1
  9
$CEPSNTYPE
380
     0
  9
$PSTYLEMODE
290
     1
  9
$FINGERPRINTGUID
  2
{0471BC0C-F6FA-45FB-9DCA-63FB7DE5BD55}
  9
$VERSIONGUID
  2
{FAEB1C32-E019-11D5-929B-00C0DF256EC4}
  9
$EXTNAMES
290
     1
  9
$PSVPSCALE
 40
0.0
  9
$OLESTARTUP
290
     0
  0
ENDSEC
  0
SECTION
  2
CLASSES
  0
CLASS
  1
ACDBDICTIONARYWDFLT
  2
AcDbDictionaryWithDefault
  3
ObjectDBX Classes
 90
        0
280
     0
281
     0
  0
CLASS
  1
VISUALSTYLE
  2
AcDbVisualStyle
  3
ObjectDBX Classes
 90
     4095
280
     0
281
     0
  0
CLASS
  1
MATERIAL
  2
AcDbMaterial
  3
ObjectDBX Classes
 90
     1153
280
     0
281
     0
  0
CLASS
  1
ACDBPLACEHOLDER
  2
AcDbPlaceHolder
  3
ObjectDBX Classes
 90
        0
280
     0
281
     0
  0
CLASS
  1
LAYOUT
  2
AcDbLayout
  3
ObjectDBX Classes
 90
        0
280
     0
281
     0
  0
ENDSEC
  0
SECTION
  2
TABLES
  0
TABLE
  2
VPORT
  5
8
330
0
100
AcDbSymbolTable
 70
     1
  0
VPORT
  5
29
330
8
100
AcDbSymbolTableRecord
100
AcDbViewportTableRecord
  2
*Active
 70
     0
 10
0.0
 20
0.0
 11
1.0
 21
1.0
 12
420.5
 22
297.0
 13
0.0
 23
0.0
 14
10.0
 24
10.0
 15
10.0
 25
10.0
 16
0.0
 26
0.0
 36
1.0
 17
0.0
 27
0.0
 37
0.0
 40
594.0
 41
1.4158249158
 42
50.0
 43
0.0
 44
0.0
 50
0.0
 51
0.0
 71
     0
 72
  2000
 73
     1
 74
     3
 75
     0
 76
     0
 77
     0
 78
     0
281
     0
 65
     1
110
0.0
120
0.0
130
0.0
111
1.0
121
0.0
131
0.0
112
0.0
122
1.0
132
0.0
 79
     0
146
0.0
  0
ENDTAB
  0
TABLE
  2
LTYPE
  5
5
330
0
100
AcDbSymbolTable
 70
     6
  0
LTYPE
  5
14
330
5
100
AcDbSymbolTableRecord
100
AcDbLinetypeTableRecord
  2
ByBlock
 70
     0
  3

 72
    65
 73
     0
 40
0.0
  0
LTYPE
  5
15
330
5
100
AcDbSymbolTableRecord
100
AcDbLinetypeTableRecord
  2
ByLayer
 70
     0
  3

 72
    65
 73
     0
 40
0.0
  0
LTYPE
  5
16
330
5
100
AcDbSymbolTableRecord
100
AcDbLinetypeTableRecord
  2
Continuous
 70
     0
  3
Solid line
 72
    65
 73
     0
 40
0.0
  0
LTYPE
  5
3F
330
5
100
AcDbSymbolTableRecord
100
AcDbLinetypeTableRecord
  2
HIDDEN
 70
     0
  3
Hidden __ __ __ __ __ __ __ __ __ __ __ __ __ __
 72
    65
 73
     2
 40
1.905
 49
1.27
 74
     0
 49
-0.635
 74
     0
  0
LTYPE
  5
40
330
5
100
AcDbSymbolTableRecord
100
AcDbLinetypeTableRecord
  2
PHANTOM
 70
     0
  3
Phantom ______  __  __  ______  __  __  ______
 72
    65
 73
     6
 40
12.7
 49
6.35
 74
     0
 49
-1.27
 74
     0
 49
1.27
 74
     0
 49
-1.27
 74
     0
 49
1.27
 74
     0
 49
-1.27
 74
     0
  0
LTYPE
  5
41
330
5
100
AcDbSymbolTableRecord
100
AcDbLinetypeTableRecord
  2
CENTER
 70
     0
  3
Center ____ _ ____ _ ____ _ ____ _ ____ _ ____
 72
    65
 73
     4
 40
10.16
 49
6.35
 74
     0
 49
-1.27
 74
     0
 49
1.27
 74
     0
 49
-1.27
 74
     0
  0
LTYPE
  5
42
330
5
100
AcDbSymbolTableRecord
100
AcDbLinetypeTableRecord
  2
CENTERX2
 70
     0
  3
Center (2x) ________  __  ________  __  _____
 72
    65
 73
     4
 40
20.32
 49
12.7
 74
     0
 49
-2.54
 74
     0
 49
2.54
 74
     0
 49
-2.54
 74
     0
  0
LTYPE
  5
43
330
5
100
AcDbSymbolTableRecord
100
AcDbLinetypeTableRecord
  2
DOT2
 70
     0
  3
Dot (.5x) ........................................
 72
    65
 73
     2
 40
0.635
 49
0.0
 74
     0
 49
-0.635
 74
     0
  0
ENDTAB
  0
TABLE
  2
LAYER
  5
2
330
0
100
AcDbSymbolTable
 70
     4
  0
LAYER
  5
10
330
2
100
AcDbSymbolTableRecord
100
AcDbLayerTableRecord
  2
0
 70
     0
 62
     7
  6
Continuous
370
    -3
390
F
  0
LAYER
  5
44
330
2
100
AcDbSymbolTableRecord
100
AcDbLayerTableRecord
  2
FORMAT
 70
     0
 62
     7
  6
Continuous
370
    -3
390
F
  0
LAYER
  5
45
330
2
100
AcDbSymbolTableRecord
100
AcDbLayerTableRecord
  2
SLD-0
 70
     0
 62
     1
  6
Continuous
370
    -3
390
F
  0
LAYER
  5
46
330
2
100
AcDbSymbolTableRecord
100
AcDbLayerTableRecord
  2
WATERMARK
 70
     0
 62
     1
  6
Continuous
370
    -3
390
F
  0
ENDTAB
  0
TABLE
  2
STYLE
  5
3
330
0
100
AcDbSymbolTable
 70
     1
  0
STYLE
  5
11
330
3
100
AcDbSymbolTableRecord
100
AcDbTextStyleTableRecord
  2
Standard
 70
     0
 40
0.0
 41
1.0
 50
0.0
 71
     0
 42
3.5
  3
txt
  4

  0
ENDTAB
  0
TABLE
  2
VIEW
  5
6
330
0
100
AcDbSymbolTable
 70
     0
  0
ENDTAB
  0
TABLE
  2
UCS
  5
7
330
0
100
AcDbSymbolTable
 70
     0
  0
ENDTAB
  0
TABLE
  2
APPID
  5
9
330
0
100
AcDbSymbolTable
 70
     1
  0
APPID
  5
12
330
9
100
AcDbSymbolTableRecord
100
AcDbRegAppTableRecord
  2
ACAD
 70
     0
  0
ENDTAB
  0
TABLE
  2
DIMSTYLE
  5
A
330
0
100
AcDbSymbolTable
 70
     1
100
AcDbDimStyleTable
  0
DIMSTYLE
105
27
330
A
100
AcDbSymbolTableRecord
100
AcDbDimStyleTableRecord
  2
ISO-25
 70
     0
 41
2.5
 42
0.625
 43
3.75
 44
1.25
 73
     0
 74
     0
 77
     1
 78
     8
140
2.5
141
2.5
143
0.0393700787
147
0.625
171
     3
172
     1
178
     0
271
     2
272
     2
274
     3
278
    44
283
     0
284
     8
340
11
  0
ENDTAB
  0
TABLE
  2
BLOCK_RECORD
  5
1
330
0
100
AcDbSymbolTable
 70
     1
  0
BLOCK_RECORD
  5
1F
330
1
100
AcDbSymbolTableRecord
100
AcDbBlockTableRecord
  2
*Model_Space
340
22
  0
BLOCK_RECORD
  5
1B
330
1
100
AcDbSymbolTableRecord
100
AcDbBlockTableRecord
  2
*Paper_Space
340
1E
  0
BLOCK_RECORD
  5
23
330
1
100
AcDbSymbolTableRecord
100
AcDbBlockTableRecord
  2
*Paper_Space0
340
26
  0
ENDTAB
  0
ENDSEC
  0
SECTION
  2
BLOCKS
  0
BLOCK
  5
20
330
1F
100
AcDbEntity
  8
0
100
AcDbBlockBegin
  2
*Model_Space
 70
     0
 10
0.0
 20
0.0
 30
0.0
  3
*Model_Space
  1

  0
ENDBLK
  5
21
330
1F
100
AcDbEntity
  8
0
100
AcDbBlockEnd
  0
BLOCK
  5
1C
330
1B
100
AcDbEntity
 67
     1
  8
0
100
AcDbBlockBegin
  2
*Paper_Space
 70
     0
 10
0.0
 20
0.0
 30
0.0
  3
*Paper_Space
  1

  0
ENDBLK
  5
1D
330
1B
100
AcDbEntity
 67
     1
  8
0
100
AcDbBlockEnd
  0
BLOCK
  5
24
330
23
100
AcDbEntity
  8
0
100
AcDbBlockBegin
  2
*Paper_Space0
 70
     0
 10
0.0
 20
0.0
 30
0.0
  3
*Paper_Space0
  1

  0
ENDBLK
  5
25
330
23
100
AcDbEntity
  8
0
100
AcDbBlockEnd
  0
ENDSEC
  0
SECTION
  2
ENTITIES
  0
LINE
  5
47
330
1F
100
AcDbEntity
  8
0
  6
Continuous
 62
     7
100
AcDbLine
 10
792.9945853605
 20
595.4223728961
 30
0.0
 11
790.4705496939
 21
600.8351848507
 31
0.0
  0
LINE
  5
48
330
1F
100
AcDbEntity
  8
0
  6
CENTERX2
 62
     7
100
AcDbLine
 10
826.7207001914
 20
511.2654783236
 30
0.0
 11
828.8240632469
 21
506.7548016948
 31
0.0
  0
LINE
  5
49
330
1F
100
AcDbEntity
  8
0
  6
CENTERX2
 62
     7
100
AcDbLine
 10
785.3041105408
 20
600.0836414532
 30
0.0
 11
787.4074735963
 21
595.5729648243
 31
0.0
  0
LINE
  5
4A
330
1F
100
AcDbEntity
  8
0
  6
Continuous
 62
     7
370
    15
100
AcDbLine
 10
100.243375454
 20
-202.6317557085
 30
0.0
 11
100.243375454
 21
-198.6317557085
 31
0.0
  0
LINE
  5
4B
330
1F
100
AcDbEntity
  8
0
  6
Continuous
 62
     7
370
    15
100
AcDbLine
 10
43.243375454
 20
-198.6317557085
 30
0.0
 11
43.243375454
 21
-202.6317557085
 31
0.0
  0
ARC
  5
4C
330
1F
100
AcDbEntity
  8
0
  6
Continuous
 62
     7
370
    15
100
AcDbCircle
 10
98.243375454
 20
-202.6317557085
 30
0.0
 40
2.0
100
AcDbArc
 50
270.0
 51
0.0
  0
ARC
  5
4D
330
1F
100
AcDbEntity
  8
0
  6
Continuous
 62
     7
370
    15
100
AcDbCircle
 10
45.243375454
 20
-202.6317557085
 30
0.0
 40
2.0
100
AcDbArc
 50
180.0
 51
270.0
  0
ARC
  5
4E
330
1F
100
AcDbEntity
  8
0
  6
Continuous
 62
     7
370
    15
100
AcDbCircle
 10
677.243375454
 20
-202.6317557085
 30
0.0
 40
2.0
100
AcDbArc
 50
270.0
 51
0.0
  0
ARC
  5
4F
330
1F
100
AcDbEntity
  8
0
  6
Continuous
 62
     7
370
    15
100
AcDbCircle
 10
624.243375454
 20
-202.6317557085
 30
0.0
 40
2.0
100
AcDbArc
 50
180.0
 51
270.0
  0
LINE
  5
50
330
1F
100
AcDbEntity
  8
0
  6
Continuous
 62
     7
370
    15
100
AcDbLine
 10
679.243375454
 20
-202.6317557085
 30
0.0
 11
679.243375454
 21
-198.6317557085
 31
0.0
  0
LINE
  5
51
330
1F
100
AcDbEntity
  8
0
  6
Continuous
 62
     7
370
    15
100
AcDbLine
 10
622.243375454
 20
-198.6317557085
 30
0.0
 11
622.243375454
 21
-202.6317557085
 31
0.0
  0
LINE
  5
52
330
1F
100
AcDbEntity
  8
0
  6
Continuous
 62
     7
370
    15
100
AcDbLine
 10
679.043375454
 20
-198.6317557085
 30
0.0
 11
679.043375454
 21
-130.6317557085
 31
0.0
  0
LINE
  5
53
330
1F
100
AcDbEntity
  8
0
  6
Continuous
 62
     7
370
    15
100
AcDbLine
 10
622.443375454
 20
-130.6317557085
 30
0.0
 11
622.443375454
 21
-198.6317557085
 31
0.0
  0
LINE
  5
54
330
1F
100
AcDbEntity
  8
0
  6
Continuous
 62
     7
370
    15
100
AcDbLine
 10
100.043375454
 20
-198.6317557085
 30
0.0
 11
100.043375454
 21
-130.6317557085
 31
0.0
  0
LINE
  5
55
330
1F
100
AcDbEntity
  8
0
  6
Continuous
 62
     7
370
    15
100
AcDbLine
 10
43.443375454
 20
-130.6317557085
 30
0.0
 11
43.443375454
 21
-198.6317557085
 31
0.0
  0
ARC
  5
56
330
1F
100
AcDbEntity
  8
0
  6
Continuous
 62
     7
370
    15
100
AcDbCircle
 10
684.143375454
 20
-38.1317557085
 30
0.0
 40
1.500000000000114
100
AcDbArc
 50
90.0
 51
180.0
  0
ARC
  5
57
330
1F
100
AcDbEntity
  8
0
  6
Continuous
 62
     7
370
    15
100
AcDbCircle
 10
617.343375454
 20
-38.1317557085
 30
0.0
 40
1.5
100
AcDbArc
 50
0.0
 51
90.0
  0
LINE
  5
58
330
1F
100
AcDbEntity
  8
0
  6
Continuous
 62
     7
370
    15
100
AcDbLine
 10
682.643375454
 20
-124.5991897629
 30
0.0
 11
682.643375454
 21
-38.1317557085
 31
0.0
  0
LINE
  5
59
330
1F
100
AcDbEntity
  8
0
  6
Continuous
 62
     7
370
    15
100
AcDbLine
 10
618.843375454
 20
-38.1317557085
 30
0.0
 11
618.843375454
 21
-124.5991897629
 31
0.0
  0
ARC
  5
5A
330
1F
100
AcDbEntity
  8
0
  6
Continuous
 62
     7
370
    15
100
AcDbCircle
 10
677.943375454
 20
-124.5991897629
 30
0.0
 40
4.699999999999932
100
AcDbArc
 50
350.5402980318
 51
0.0
  0
ARC
  5
5B
330
1F
100
AcDbEntity
  8
0
  6
Continuous
 62
     7
370
    15
100
AcDbCircle
 10
623.543375454
 20
-124.5991897629
 30
0.0
 40
4.700000000000045
100
AcDbArc
 50
180.0
 51
189.4597019682
  0
LINE
  5
5C
330
1F
100
AcDbEntity
  8
0
  6
Continuous
 62
     7
370
    15
100
AcDbLine
 10
618.907288681
 20
-125.3716529874
 30
0.0
 11
619.7837252337
 21
-130.6317557085
 31
0.0
  0
LINE
  5
5D
330
1F
100
AcDbEntity
  8
0
  6
Continuous
 62
     7
370
    15
100
AcDbLine
 10
681.7030256744
 20
-130.6317557085
 30
0.0
 11
682.579462227
 21
-125.3716529874
 31
0.0
  0
ARC
  5
5E
330
1F
100
AcDbEntity
  8
0
  6
Continuous
 62
     7
370
    15
100
AcDbCircle
 10
105.143375454
 20
-38.1317557085
 30
0.0
 40
1.5
100
AcDbArc
 50
90.0
 51
180.0
  0
ARC
  5
5F
330
1F
100
AcDbEntity
  8
0
  6
Continuous
 62
     7
370
    15
100
AcDbCircle
 10
38.343375454
 20
-38.1317557085
 30
0.0
 40
1.5
100
AcDbArc
 50
0.0
 51
90.0
  0
ARC
  5
60
330
1F
100
AcDbEntity
  8
0
  6
Continuous
 62
     7
370
    15
100
AcDbCircle
 10
98.943375454
 20
-124.5991897629
 30
0.0
 40
4.700000000000045
100
AcDbArc
 50
350.5402980318
 51
0.0
  0
ARC
  5
61
330
1F
100
AcDbEntity
  8
0
  6
Continuous
 62
     7
370
    15
100
AcDbCircle
 10
44.543375454
 20
-124.5991897629
 30
0.0
 40
4.700000000000045
100
AcDbArc
 50
180.0
 51
189.4597019682
  0
LINE
  5
62
330
1F
100
AcDbEntity
  8
0
  6
Continuous
 62
     7
370
    15
100
AcDbLine
 10
103.643375454
 20
-124.5991897629
 30
0.0
 11
103.643375454
 21
-38.1317557085
 31
0.0
  0
LINE
  5
63
330
1F
100
AcDbEntity
  8
0
  6
Continuous
 62
     7
370
    15
100
AcDbLine
 10
39.843375454
 20
-38.1317557085
 30
0.0
 11
39.843375454
 21
-124.5991897629
 31
0.0
  0
LINE
  5
64
330
1F
100
AcDbEntity
  8
0
  6
Continuous
 62
     7
370
    15
100
AcDbLine
 10
39.907288681
 20
-125.3716529874
 30
0.0
 11
40.7837252337
 21
-130.6317557085
 31
0.0
  0
LINE
  5
65
330
1F
100
AcDbEntity
  8
0
  6
Continuous
 62
     7
370
    15
100
AcDbLine
 10
102.7030256744
 20
-130.6317557085
 30
0.0
 11
103.579462227
 21
-125.3716529874
 31
0.0
  0
SPLINE
  5
66
330
1F
100
AcDbEntity
  8
0
  6
Continuous
 62
     7
370
    15
100
AcDbSpline
210
0.0
220
0.0
230
1.0
 70
     8
 71
     3
 72
    13
 73
     9
 74
     0
 42
0.00000001
 43
0.00000001
 12
1.0
 22
0.0
 32
0.0
 13
1.0
 23
0.0
 33
0.0
 40
0.0
 40
0.0
 40
0.0
 40
0.0
 40
0.0634888169669198
 40
0.2470479163400922
 40
0.4311284030612047
 40
0.6187780680115179
 40
0.8315552681811456
 40
1.0
 40
1.0
 40
1.0
 40
1.0
 10
1.734218892732897
 20
-47.98164681823369
 30
0.0
 10
1.733746560900584
 20
-47.97142075608068
 30
0.0
 10
1.731908621549982
 20
-47.93162906570181
 30
0.0
 10
1.74525363849104
 20
-47.8640696222119
 30
0.0
 10
1.771201583599946
 20
-47.79397010863867
 30
0.0
 10
1.803169697263407
 20
-47.74750194525046
 30
0.0
 10
1.826184981420453
 20
-47.73147531971439
 30
0.0
 10
1.825442490649698
 20
-47.73217589756307
 30
0.0
 10
1.825114417555784
 20
-47.73248545123232
 30
0.0
  0
ARC
  5
67
330
1F
100
AcDbEntity
  8
0
  6
Continuous
 62
     7
370
    15
100
AcDbCircle
 10
1.4824236304
 20
-53.0817557085
 30
0.0
 40
0.2499999999999725
100
AcDbArc
 50
270.0
 51
0.0
  0
LINE
  5
68
330
1F
100
AcDbEntity
  8
0
  6
Continuous
 62
     7
370
    15
100
AcDbLine
 10
1.7324236304
 20
-53.0817557085
 30
0.0
 11
1.7324236304
 21
-47.9817557085
 31
0.0
  0
ARC
  5
69
330
1F
100
AcDbEntity
  8
0
  6
Continuous
 62
     7
370
    15
100
AcDbCircle
 10
-3.5742705418
 20
-53.0817557085
 30
0.0
 40
0.2499999999999725
100
AcDbArc
 50
180.0
 51
270.0
  0
LINE
  5
6A
330
1F
100
AcDbEntity
  8
0
  6
Continuous
 62
     7
370
    15
100
AcDbLine
 10
-3.8242705418
 20
-47.9817557085
 30
0.0
 11
-3.8242705418
 21
-53.0817557085
 31
0.0
  0
ARC
  5
6B
330
1F
100
AcDbEntity
  8
0
  6
Continuous
 62
     7
370
    15
100
AcDbCircle
 10
-3.606624546
 20
-47.4817557085
 30
0.0
 40
0.2500000000000835
100
AcDbArc
 50
180.0
 51
232.7089330724
  0
ARC
  5
6C
330
1F
100
AcDbEntity
  8
0
  6
Continuous
 62
     7
370
    15
100
AcDbCircle
 10
-3.606624546
 20
-46.7817557085
 30
0.0
 40
0.2500000000000835
100
AcDbArc
 50
90.0
 51
180.0
  0
LINE
  5
6D
330
1F
100
AcDbEntity
  8
0
  6
Continuous
 62
     7
370
    15
100
AcDbLine
 10
-3.856624546
 20
-46.7817557085
 30
0.0
 11
-3.856624546
 21
-47.4817557085
 31
0.0
  0
ARC
  5
6E
330
1F
100
AcDbEntity
  8
0
  6
Continuous
 62
     7
370
    15
100
AcDbCircle
 10
13.2610214499
 20
-53.0817557085
 30
0.0
 40
0.2500000000000284
100
AcDbArc
 50
270.0
 51
0.0
  0
LINE
  5
6F
330
1F
100
AcDbEntity
  8
0
  6
Continuous
 62
     7
370
    15
100
AcDbLine
 10
13.5110214499
 20
-53.0817557085
 30
0.0
 11
13.5110214499
 21
-48.8047606698
 31
0.0
  0
ARC
  5
70
330
1F
100
AcDbEntity
  8
0
  6
Continuous
 62
     7
370
    15
100
AcDbCircle
 10
-3.606624546
 20
-48.6817557085
 30
0.0
 40
0.2500000000000835
100
AcDbArc
 50
180.0
 51
209.4734267879
  0
LINE
  5
71
330
1F
100
AcDbEntity
  8
0
  6
Continuous
 62
     7
370
    15
100
AcDbLine
 10
-3.856624546
 20
-47.9817557085
 30
0.0
 11
-3.856624546
 21
-48.6817557085
 31
0.0
  0
SPLINE
  5
72
330
1F
100
AcDbEntity
  8
0
  6
Continuous
 62
     7
370
    15
100
AcDbSpline
210
0.0
220
0.0
230
1.0
 70
     8
 71
     3
 72
    13
 73
     9
 74
     0
 42
0.00000001
 43
0.00000001
 12
1.0
 22
0.0
 32
0.0
 13
1.0
 23
0.0
 33
0.0
 40
0.0
 40
0.0
 40
0.0
 40
0.0
 40
0.0546880530911545
 40
0.2134688124182716
 40
0.3745771152271763
 40
0.5445034158438804
 40
0.7475374221024841
 40
1.0
 40
1.0
 40
1.0
 40
1.0
 10
8.797650364899045
 20
-47.48184777363795
 30
0.0
 10
8.798144322786083
 20
-47.49143150105367
 30
0.0
 10
8.800072433178208
 20
-47.52884052906542
 30
0.0
 10
8.786038085060566
 20
-47.59268626173368
 30
0.0
 10
8.758397340762391
 20
-47.66007728071286
 30
0.0
 10
8.72149136518935
 20
-47.70767329641912
 30
0.0
 10
8.686714462440237
 20
-47.73054778889574
 30
0.0
 10
8.674884289952944
 20
-47.73100172893419
 30
0.0
 10
8.668327323453074
 20
-47.73125332878436
 30
0.0
  0
LINE
  5
73
330
1F
100
AcDbEntity
  8
0
  6
Continuous
 62
     7
370
    15
100
AcDbLine
 10
8.7995252037
 20
-42.3817557085
 30
0.0
 11
8.7995252037
 21
-47.4817557085
 31
0.0
  0
ARC
  5
74
330
1F
100
AcDbEntity
  8
0
  6
Continuous
 62
     7
370
    15
100
AcDbCircle
 10
9.0495252037
 20
-42.3817557085
 30
0.0
 40
0.2500000000000284
100
AcDbArc
 50
90.0
 51
180.0
  0
ARC
  5
75
330
1F
100
AcDbEntity
  8
0
  6
Continuous
 62
     7
370
    15
100
AcDbCircle
 10
13.749495603
 20
-42.3817557085
 30
0.0
 40
0.2500000000000835
100
AcDbArc
 50
0.0
 51
90.0
  0
LINE
  5
76
330
1F
100
AcDbEntity
  8
0
  6
Continuous
 62
     7
370
    15
100
AcDbLine
 10
13.999495603
 20
-47.4817557085
 30
0.0
 11
13.999495603
 21
-42.3817557085
 31
0.0
  0
ARC
  5
77
330
1F
100
AcDbEntity
  8
0
  6
Continuous
 62
     7
370
    15
100
AcDbCircle
 10
13.293375454
 20
-48.6817557085
 30
0.0
 40
0.2500000000000835
100
AcDbArc
 50
270.0
 51
0.0
  0
LINE
  5
78
330
1F
100
AcDbEntity
  8
0
  6
Continuous
 62
     7
370
    15
100
AcDbLine
 10
-4.3127446949
 20
-42.3817557085
 30
0.0
 11
-4.3127446949
 21
-47.4817557085
 31
0.0
  0
ARC
  5
79
330
1F
100
AcDbEntity
  8
0
  6
Continuous
 62
     7
370
    15
100
AcDbCircle
 10
-4.0627446949
 20
-42.3817557085
 30
0.0
 40
0.2500000000000284
100
AcDbArc
 50
90.0
 51
180.0
  0
LINE
  5
7A
330
1F
100
AcDbEntity
  8
0
  6
Continuous
 62
     7
370
    15
100
AcDbLine
 10
-0.6183159498
 20
-53.8651980523
 30
0.0
 11
-0.156624546
 21
-54.1317557085
 31
0.0
  0
LINE
  5
7B
330
1F
100
AcDbEntity
  8
0
  6
Continuous
 62
     7
370
    15
100
AcDbLine
 10
9.843375454
 20
-54.1317557085
 30
0.0
 11
10.3050668579
 21
-53.8651980523
 31
0.0
  0
LINE
  5
7C
330
1F
100
AcDbEntity
  8
0
  6
Continuous
 62
     7
370
    15
100
AcDbLine
 10
10.3050668579
 20
-49.1983133648
 30
0.0
 11
9.843375454
 21
-48.9317557085
 31
0.0
  0
LINE
  5
7D
330
1F
100
AcDbEntity
  8
0
  6
Continuous
 62
     7
370
    15
100
AcDbLine
 10
-0.2458756958
 20
-41.0302265332
 30
0.0
 11
-0.156624546
 21
-41.0817557085
 31
0.0
  0
LINE
  5
7E
330
1F
100
AcDbEntity
  8
0
  6
Continuous
 62
     7
370
    15
100
AcDbLine
 10
9.843375454
 20
-41.0817557085
 30
0.0
 11
9.9326266038
 21
-41.0302265332
 31
0.0
  0
LINE
  5
7F
330
1F
100
AcDbEntity
  8
0
  6
Continuous
 62
     7
370
    15
100
AcDbLine
 10
10.0907565075
 20
-41.4745812264
 30
0.0
 11
9.843375454
 21
-41.3317557085
 31
0.0
  0
LINE
  5
80
330
1F
100
AcDbEntity
  8
0
  6
Continuous
 62
     7
370
    15
100
AcDbLine
 10
-0.156624546
 20
-41.3317557085
 30
0.0
 11
-0.4040055995
 21
-41.4745812264
 31
0.0
  0
LINE
  5
81
330
1F
100
AcDbEntity
  8
0
  6
Continuous
 62
     7
370
    15
100
AcDbLine
 10
-0.4040055995
 20
-46.3889301907
 30
0.0
 11
-0.156624546
 21
-46.5317557085
 31
0.0
  0
LINE
  5
82
330
1F
100
AcDbEntity
  8
0
  6
Continuous
 62
     7
370
    15
100
AcDbLine
 10
1.843375454
 20
-41.0817557085
 30
0.0
 11
1.843375454
 21
-41.3317557085
 31
0.0
  0
LINE
  5
83
330
1F
100
AcDbEntity
  8
0
  6
Continuous
 62
     7
370
    15
100
AcDbLine
 10
7.843375454
 20
-41.3317557085
 30
0.0
 11
7.843375454
 21
-41.0817557085
 31
0.0
  0
LINE
  5
84
330
1F
100
AcDbEntity
  8
0
  6
Continuous
 62
     7
370
    15
100
AcDbLine
 10
805.8108099464
 20
567.6304805778
 30
0.0
 11
805.7874756697
 21
567.6379798339
 31
0.0
  0
ARC
  5
85
330
1F
100
AcDbEntity
  8
0
  6
Continuous
 62
     7
370
    15
100
AcDbCircle
 10
782.1661403383
 20
551.7130321192
 30
0.0
 40
40.00000000000016
100
AcDbArc
 50
5.2753664413
 51
18.1017040567
  0
ARC
  5
86
330
1F
100
AcDbEntity
  8
0
  6
Continuous
 62
     7
370
    15
100
AcDbCircle
 10
782.1661403383
 20
551.7130321192
 30
0.0
 40
40.00000000000012
100
AcDbArc
 50
31.8984990376
 51
44.7246335587
  0
LINE
  5
87
330
1F
100
AcDbEntity
  8
0
  6
Continuous
 62
     7
370
    15
100
AcDbLine
 10
810.5860200578
 20
579.8610415822
 30
0.0
 11
806.6283992046
 21
578.0155726703
 31
0.0
  0
LINE
  5
88
330
1F
100
AcDbEntity
  8
0
  6
Continuous
 62
     7
370
    15
100
AcDbLine
 10
818.0390922716
 20
553.5452624203
 30
0.0
 11
821.9967131248
 21
555.3907313323
 31
0.0
  0
LINE
  5
89
330
1F
100
AcDbEntity
  8
0
  6
Continuous
 62
     7
370
    15
100
AcDbLine
 10
813.8259790816
 20
538.9182969814
 30
0.0
 11
816.5710036341
 21
540.3778524261
 31
0.0
  0
LINE
  5
8A
330
1F
100
AcDbEntity
  8
0
  6
Continuous
 62
     7
370
    15
100
AcDbLine
 10
795.5776181031
 20
585.3983129823
 30
0.0
 11
792.6950659946
 21
584.2336863332
 31
0.0
  0
ARC
  5
8B
330
1F
100
AcDbEntity
  8
0
  6
Continuous
 62
     7
370
    15
100
AcDbCircle
 10
796.3268312899
 20
583.5439452732
 30
0.0
 40
2.000000000000075
100
AcDbArc
 50
25.0
 51
112.0
  0
ARC
  5
8C
330
1F
100
AcDbEntity
  8
0
  6
Continuous
 62
     7
370
    15
100
AcDbCircle
 10
815.6320605086
 20
542.1437476118
 30
0.0
 40
2.000000000000042
100
AcDbArc
 50
298.0
 51
25.0
  0
ARC
  5
8D
330
1F
100
AcDbEntity
  8
0
  6
Continuous
 62
     7
370
    15
100
AcDbCircle
 10
802.1514277712
 20
580.5178641426
 30
0.0
 40
2.000000000000051
100
AcDbArc
 50
205.0
 51
292.0
  0
ARC
  5
8E
330
1F
100
AcDbEntity
  8
0
  6
Continuous
 62
     7
370
    15
100
AcDbCircle
 10
817.0579263236
 20
548.5507748363
 30
0.0
 40
2.000000000000096
100
AcDbArc
 50
118.0
 51
205.0
  0
LINE
  5
8F
330
1F
100
AcDbEntity
  8
0
  6
Continuous
 62
     7
370
    15
100
AcDbLine
 10
816.118983198
 20
550.316670022
 30
0.0
 11
818.4450647606
 21
551.5534695277
 31
0.0
  0
LINE
  5
90
330
1F
100
AcDbEntity
  8
0
  6
Continuous
 62
     7
370
    15
100
AcDbLine
 10
805.3432607541
 20
579.6503788908
 30
0.0
 11
802.900640958
 21
578.6634964335
 31
0.0
  0
ARC
  5
91
330
1F
100
AcDbEntity
  8
0
  6
Continuous
 62
     7
370
    15
100
AcDbCircle
 10
805.5305640508
 20
579.1867869635
 30
0.0
 40
0.5000000000000308
100
AcDbArc
 50
25.0
 51
112.0
  0
ARC
  5
92
330
1F
100
AcDbEntity
  8
0
  6
Continuous
 62
     7
370
    15
100
AcDbCircle
 10
818.2103289792
 20
551.9949433241
 30
0.0
 40
0.4999999999999572
100
AcDbArc
 50
298.0
 51
25.0
  0
ARC
  5
93
330
1F
100
AcDbEntity
  8
0
  6
Continuous
 62
     7
370
    15
100
AcDbCircle
 10
799.5049757778
 20
586.1931987572
 30
0.0
 40
1.999999999999979
100
AcDbArc
 50
205.0
 51
292.0
  0
ARC
  5
94
330
1F
100
AcDbEntity
  8
0
  6
Continuous
 62
     7
370
    15
100
AcDbCircle
 10
819.704378317
 20
542.8754402218
 30
0.0
 40
2.000000000000075
100
AcDbArc
 50
118.0
 51
205.0
  0
LINE
  5
95
330
1F
100
AcDbEntity
  8
0
  6
Continuous
 62
     7
370
    15
100
AcDbLine
 10
818.7654351914
 20
544.6413354075
 30
0.0
 11
821.5104597439
 21
546.1008908522
 31
0.0
  0
LINE
  5
96
330
1F
100
AcDbEntity
  8
0
  6
Continuous
 62
     7
370
    15
100
AcDbLine
 10
803.1367410731
 20
585.5034576972
 30
0.0
 11
800.2541889647
 21
584.338831048
 31
0.0
  0
LINE
  5
97
330
1F
100
AcDbEntity
  8
0
  6
Continuous
 62
     7
370
    15
100
AcDbLine
 10
830.7307095513
 20
502.6659854999
 30
0.0
 11
831.008497373
 21
502.8136879047
 31
0.0
  0
LINE
  5
98
330
1F
100
AcDbEntity
  8
0
  6
Continuous
 62
     7
370
    15
100
AcDbLine
 10
830.6003781798
 20
538.4385057753
 30
0.0
 11
837.6148093271
 21
545.9084845123
 31
0.0
  0
LINE
  5
99
330
1F
100
AcDbEntity
  8
0
  6
Continuous
 62
     7
370
    15
100
AcDbLine
 10
813.883742084
 20
597.949463402
 30
0.0
 11
803.1301911667
 21
597.3485119327
 31
0.0
  0
LINE
  5
9A
330
1F
100
AcDbEntity
  8
0
  6
Continuous
 62
     7
370
    15
100
AcDbLine
 10
838.1979787393
 20
546.5508349385
 30
0.0
 11
851.8733190986
 21
562.4093882159
 31
0.0
  0
LINE
  5
9B
330
1F
100
AcDbEntity
  8
0
  6
Continuous
 62
     7
370
    15
100
AcDbLine
 10
814.386596217
 20
597.956241475
 30
0.0
 11
813.883742084
 21
597.949463402
 31
0.0
  0
ARC
  5
9C
330
1F
100
AcDbEntity
  8
0
  6
Continuous
 62
     7
370
    15
100
AcDbCircle
 10
851.1160077147
 20
563.0624421706
 30
0.0
 40
0.9999999999999782
100
AcDbArc
 50
319.227745318
 51
25.0
  0
LINE
  5
9D
330
1F
100
AcDbEntity
  8
0
  6
Continuous
 62
     7
370
    15
100
AcDbLine
 10
100.243375454
 20
-198.6317557085
 30
0.0
 11
43.243375454
 21
-198.6317557085
 31
0.0
  0
LINE
  5
9E
330
1F
100
AcDbEntity
  8
0
  6
Continuous
 62
     7
370
    15
100
AcDbLine
 10
98.243375454
 20
-204.6317557085
 30
0.0
 11
45.243375454
 21
-204.6317557085
 31
0.0
  0
LINE
  5
9F
330
1F
100
AcDbEntity
  8
0
  6
Continuous
 62
     7
370
    15
100
AcDbLine
 10
677.243375454
 20
-204.6317557085
 30
0.0
 11
624.243375454
 21
-204.6317557085
 31
0.0
  0
LINE
  5
A0
330
1F
100
AcDbEntity
  8
0
  6
Continuous
 62
     7
370
    15
100
AcDbLine
 10
679.243375454
 20
-198.6317557085
 30
0.0
 11
622.243375454
 21
-198.6317557085
 31
0.0
  0
LINE
  5
A1
330
1F
100
AcDbEntity
  8
0
  6
Continuous
 62
     7
370
    15
100
AcDbLine
 10
695.743375454
 20
-36.6317557085
 30
0.0
 11
695.743375454
 21
-36.1317557085
 31
0.0
  0
LINE
  5
A2
330
1F
100
AcDbEntity
  8
0
  6
Continuous
 62
     7
370
    15
100
AcDbLine
 10
605.743375454
 20
-36.6317557085
 30
0.0
 11
605.743375454
 21
-36.1317557085
 31
0.0
  0
LINE
  5
A3
330
1F
100
AcDbEntity
  8
0
  6
Continuous
 62
     7
370
    15
100
AcDbLine
 10
605.743375454
 20
-36.6317557085
 30
0.0
 11
695.743375454
 21
-36.6317557085
 31
0.0
  0
LINE
  5
A4
330
1F
100
AcDbEntity
  8
0
  6
Continuous
 62
     7
370
    15
100
AcDbLine
 10
681.7030256744
 20
-130.6317557085
 30
0.0
 11
619.7837252337
 21
-130.6317557085
 31
0.0
  0
LINE
  5
A5
330
1F
100
AcDbEntity
  8
0
  6
Continuous
 62
     7
370
    15
100
AcDbLine
 10
116.743375454
 20
-36.6317557085
 30
0.0
 11
116.743375454
 21
-36.1317557085
 31
0.0
  0
LINE
  5
A6
330
1F
100
AcDbEntity
  8
0
  6
Continuous
 62
     7
370
    15
100
AcDbLine
 10
26.743375454
 20
-36.6317557085
 30
0.0
 11
116.743375454
 21
-36.6317557085
 31
0.0
  0
LINE
  5
A7
330
1F
100
AcDbEntity
  8
0
  6
Continuous
 62
     7
370
    15
100
AcDbLine
 10
26.743375454
 20
-36.6317557085
 30
0.0
 11
26.743375454
 21
-36.1317557085
 31
0.0
  0
LINE
  5
A8
330
1F
100
AcDbEntity
  8
0
  6
Continuous
 62
     7
370
    15
100
AcDbLine
 10
102.7030256744
 20
-130.6317557085
 30
0.0
 11
40.7837252337
 21
-130.6317557085
 31
0.0
  0
SPLINE
  5
A9
330
1F
100
AcDbEntity
  8
0
  6
Continuous
 62
     7
370
    15
100
AcDbSpline
210
0.0
220
0.0
230
1.0
 70
     8
 71
     3
 72
    10
 73
     6
 74
     0
 42
0.00000001
 43
0.00000001
 12
1.0
 22
0.0
 32
0.0
 13
1.0
 23
0.0
 33
0.0
 40
0.0
 40
0.0
 40
0.0
 40
0.0
 40
0.3127604165767011
 40
0.6593519189484389
 40
1.0
 40
1.0
 40
1.0
 40
1.0
 10
736.1433754540177
 20
443.1682442914542
 30
0.0
 10
736.3948565472622
 20
443.2725323914995
 30
0.0
 10
736.9250212759866
 20
443.4923893658599
 30
0.0
 10
737.6565826534755
 20
443.8263110502928
 30
0.0
 10
737.9799500384114
 20
444.0557098778169
 30
0.0
 10
738.1402354495114
 20
444.169417342108
 30
0.0
  0
SPLINE
  5
AA
330
1F
100
AcDbEntity
  8
0
  6
Continuous
 62
     7
370
    15
100
AcDbSpline
210
0.0
220
0.0
230
1.0
 70
     8
 71
     3
 72
    10
 73
     6
 74
     0
 42
0.00000001
 43
0.00000001
 12
1.0
 22
0.0
 32
0.0
 13
1.0
 23
0.0
 33
0.0
 40
0.0
 40
0.0
 40
0.0
 40
0.0
 40
0.4303529957474759
 40
0.8610853432759737
 40
1.0
 40
1.0
 40
1.0
 40
1.0
 10
736.1433754540177
 20
443.1682442914542
 30
0.0
 10
736.3404395141391
 20
443.2948238583033
 30
0.0
 10
736.7347413443433
 20
443.5480945706001
 30
0.0
 10
737.1568896974738
 20
443.8422283586654
 30
0.0
 10
737.2902401395498
 20
444.0097802323308
 30
0.0
 10
737.3227591043591
 20
444.0506395905649
 30
0.0
  0
LINE
  5
AB
330
1F
100
AcDbEntity
  8
0
  6
Continuous
 62
     7
370
    15
100
AcDbLine
 10
738.443375454
 20
-35.3246846407
 30
0.0
 11
738.443375454
 21
443.8682442915
 31
0.0
  0
SPLINE
  5
AC
330
1F
100
AcDbEntity
  8
0
  6
Continuous
 62
     7
370
    15
100
AcDbSpline
210
0.0
220
0.0
230
1.0
 70
     8
 71
     3
 72
    12
 73
     8
 74
     0
 42
0.00000001
 43
0.00000001
 12
1.0
 22
0.0
 32
0.0
 13
1.0
 23
0.0
 33
0.0
 40
0.0
 40
0.0
 40
0.0
 40
0.0
 40
0.2096821001528693
 40
0.4420453733185992
 40
0.6744332966681272
 40
0.9068208701180506
 40
0.9999999999999999
 40
0.9999999999999999
 40
0.9999999999999999
 40
0.9999999999999999
 10
738.4433754540177
 20
-35.32468464073391
 30
0.0
 10
738.4190354838491
 20
-35.2203994328063
 30
0.0
 10
738.3677227051621
 20
-35.00054855551971
 30
0.0
 10
737.9467921182335
 20
-34.66458042563658
 30
0.0
 10
737.295002640338
 20
-34.31767515722007
 30
0.0
 10
736.6455616012355
 20
-34.03929849498704
 30
0.0
 10
736.2551216841291
 20
-33.87793803376537
 30
0.0
 10
736.1433754540177
 20
-33.83175570854574
 30
0.0
  0
LINE
  5
AD
330
1F
100
AcDbEntity
  8
0
  6
Continuous
 62
     7
370
    15
100
AcDbLine
 10
736.143375454
 20
-33.8317557085
 30
0.0
 11
736.143375454
 21
443.1682442915
 31
0.0
  0
LINE
  5
AE
330
1F
100
AcDbEntity
  8
0
  6
Continuous
 62
     7
370
    15
100
AcDbLine
 10
-3.456624546
 20
-33.8317557085
 30
0.0
 11
736.143375454
 21
-33.8317557085
 31
0.0
  0
LINE
  5
AF
330
1F
100
AcDbEntity
  8
0
  6
Continuous
 62
     7
370
    15
100
AcDbLine
 10
-3.456624546
 20
444.6682442915
 30
0.0
 11
-3.456624546
 21
-33.8317557085
 31
0.0
  0
LINE
  5
B0
330
1F
100
AcDbEntity
  8
0
  6
Continuous
 62
     7
370
    15
100
AcDbLine
 10
-3.456624546
 20
444.6682442915
 30
0.0
 11
-2.506624546
 21
444.6682442915
 31
0.0
  0
LINE
  5
B1
330
1F
100
AcDbEntity
  8
0
  6
Continuous
 62
     7
370
    15
100
AcDbLine
 10
-2.506624546
 20
443.1682442915
 30
0.0
 11
-2.506624546
 21
444.6682442915
 31
0.0
  0
ARC
  5
B2
330
1F
100
AcDbEntity
  8
0
  6
Continuous
 62
     7
370
    15
100
AcDbCircle
 10
-2.381624546
 20
443.1682442915
 30
0.0
 40
0.1250000000000417
100
AcDbArc
 50
180.0
 51
0.0
  0
LINE
  5
B3
330
1F
100
AcDbEntity
  8
0
  6
Continuous
 62
     7
370
    15
100
AcDbLine
 10
736.143375454
 20
443.1682442915
 30
0.0
 11
-2.256624546
 21
443.1682442915
 31
0.0
  0
LINE
  5
B4
330
1F
100
AcDbEntity
  8
0
  6
Continuous
 62
     7
370
    15
100
AcDbLine
 10
-2.256624546
 20
443.1682442915
 30
0.0
 11
-2.256624546
 21
444.6682442915
 31
0.0
  0
SPLINE
  5
B5
330
1F
100
AcDbEntity
  8
0
  6
Continuous
 62
     7
370
    15
100
AcDbSpline
210
0.0
220
0.0
230
1.0
 70
     8
 71
     3
 72
    10
 73
     6
 74
     0
 42
0.00000001
 43
0.00000001
 12
1.0
 22
0.0
 32
0.0
 13
1.0
 23
0.0
 33
0.0
 40
0.0
 40
0.0
 40
0.0
 40
0.0
 40
0.2804432289760579
 40
0.7940585657608527
 40
1.0
 40
1.0
 40
1.0
 40
1.0
 10
736.8186826309125
 20
444.6439704832404
 30
0.0
 10
736.7555204653208
 20
444.5319018875045
 30
0.0
 10
736.5766804954521
 20
444.2145862271414
 30
0.0
 10
736.3509158522277
 20
443.668536119386
 30
0.0
 10
736.1895572478093
 20
443.2795689985109
 30
0.0
 10
736.1433754540177
 20
443.1682442914542
 30
0.0
  0
SPLINE
  5
B6
330
1F
100
AcDbEntity
  8
0
  6
Continuous
 62
     7
370
    15
100
AcDbSpline
210
0.0
220
0.0
230
1.0
 70
     8
 71
     3
 72
     9
 73
     5
 74
     0
 42
0.00000001
 43
0.00000001
 12
1.0
 22
0.0
 32
0.0
 13
1.0
 23
0.0
 33
0.0
 40
0.0
 40
0.0
 40
0.0
 40
0.0
 40
0.4868496287509272
 40
1.0
 40
1.0
 40
1.0
 40
1.0
 10
736.8315647777907
 20
444.1546599572245
 30
0.0
 10
736.7198280390857
 20
444.0133869904222
 30
0.0
 10
736.4903182847253
 20
443.7232091645405
 30
0.0
 10
736.2610331870246
 20
443.3564479466001
 30
0.0
 10
736.1433754540177
 20
443.1682442914542
 30
0.0
  0
SPLINE
  5
B7
330
1F
100
AcDbEntity
  8
0
  6
Continuous
 62
     7
370
    15
100
AcDbSpline
210
0.0
220
0.0
230
1.0
 70
     8
 71
     3
 72
    12
 73
     8
 74
     0
 42
0.00000001
 43
0.00000001
 12
1.0
 22
0.0
 32
0.0
 13
1.0
 23
0.0
 33
0.0
 40
0.0
 40
0.0
 40
0.0
 40
0.0
 40
0.2096821001528706
 40
0.4420453733186094
 40
0.6744332966681329
 40
0.9068208701180643
 40
1.0
 40
1.0
 40
1.0
 40
1.0
 10
736.1433754540177
 20
-33.83175570854574
 30
0.0
 10
736.2476606619452
 20
-34.08408666652113
 30
0.0
 10
736.4675115392321
 20
-34.61604305400823
 30
0.0
 10
736.803479669115
 20
-35.33742448382316
 30
0.0
 10
737.1503849375316
 20
-35.88078341780954
 30
0.0
 10
737.4287615997646
 20
-36.10940525795292
 30
0.0
 10
737.5901220609862
 20
-36.12678229657723
 30
0.0
 10
737.6363043862058
 20
-36.13175570854582
 30
0.0
  0
LINE
  5
B8
330
1F
100
AcDbEntity
  8
0
  6
Continuous
 62
     7
370
    15
100
AcDbLine
 10
737.6363043862
 20
-36.1317557085
 30
0.0
 11
-4.9495534782
 21
-36.1317557085
 31
0.0
  0
SPLINE
  5
B9
330
1F
100
AcDbEntity
  8
0
  6
Continuous
 62
     7
370
    15
100
AcDbSpline
210
0.0
220
0.0
230
1.0
 70
     8
 71
     3
 72
    12
 73
     8
 74
     0
 42
0.00000001
 43
0.00000001
 12
1.0
 22
0.0
 32
0.0
 13
1.0
 23
0.0
 33
0.0
 40
0.0
 40
0.0
 40
0.0
 40
0.0
 40
0.2096821001528717
 40
0.4420453733186053
 40
0.6744332966681365
 40
0.9068208701180435
 40
1.0
 40
1.0
 40
1.0
 40
1.0
 10
-4.949553478170776
 20
-36.13175570854582
 30
0.0
 10
-4.845268270243174
 20
-36.10741573837723
 30
0.0
 10
-4.625417392956576
 20
-36.05610295969036
 30
0.0
 10
-4.289449263073564
 20
-35.63517237276176
 30
0.0
 10
-3.942543994656711
 20
-34.98338289486591
 30
0.0
 10
-3.664167332424084
 20
-34.33394185576355
 30
0.0
 10
-3.502806871202135
 20
-33.94350193865731
 30
0.0
 10
-3.456624545982445
 20
-33.83175570854574
 30
0.0
  0
LINE
  5
BA
330
1F
100
AcDbEntity
  8
0
  6
Continuous
 62
     7
370
    15
100
AcDbLine
 10
738.443375454
 20
-35.3246846407
 30
0.0
 11
737.643375454
 21
-35.3246846407
 31
0.0
  0
SPLINE
  5
BB
330
1F
100
AcDbEntity
  8
0
  6
Continuous
 62
     7
370
    15
100
AcDbSpline
210
0.0
220
0.0
230
1.0
 70
     8
 71
     3
 72
    11
 73
     7
 74
     0
 42
0.00000001
 43
0.00000001
 12
1.0
 22
0.0
 32
0.0
 13
1.0
 23
0.0
 33
0.0
 40
0.0
 40
0.0
 40
0.0
 40
0.0
 40
0.2543211584721395
 40
0.5088664984542358
 40
0.7634130007197222
 40
0.9999999999999999
 40
0.9999999999999999
 40
0.9999999999999999
 40
0.9999999999999999
 10
737.6433754540177
 20
-35.32468464073391
 30
0.0
 10
737.6200213919985
 20
-35.1981035329485
 30
0.0
 10
737.5732926815928
 20
-34.94482973742086
 30
0.0
 10
737.2144050653975
 20
-34.56488506793537
 30
0.0
 10
736.715182086108
 20
-34.1936599362645
 30
0.0
 10
736.3292737695127
 20
-33.94941329159534
 30
0.0
 10
736.1433754540177
 20
-33.83175570854574
 30
0.0
  0
SPLINE
  5
BC
330
1F
100
AcDbEntity
  8
0
  6
Continuous
 62
     7
370
    15
100
AcDbSpline
210
0.0
220
0.0
230
1.0
 70
     8
 71
     3
 72
    11
 73
     7
 74
     0
 42
0.00000001
 43
0.00000001
 12
1.0
 22
0.0
 32
0.0
 13
1.0
 23
0.0
 33
0.0
 40
0.0
 40
0.0
 40
0.0
 40
0.0
 40
0.2543211584721553
 40
0.5088664984542722
 40
0.7634130007197462
 40
1.0
 40
1.0
 40
1.0
 40
1.0
 10
736.1433754540177
 20
-33.83175570854574
 30
0.0
 10
736.2699565618032
 20
-34.03173089868505
 30
0.0
 10
736.5232303573308
 20
-34.43185755505623
 30
0.0
 10
736.9031750268163
 20
-34.93348130915186
 30
0.0
 10
737.2744001584872
 20
-35.26954655601061
 30
0.0
 10
737.5186468031562
 20
-35.31153108012125
 30
0.0
 10
737.6363043862058
 20
-35.33175570854574
 30
0.0
  0
LINE
  5
BD
330
1F
100
AcDbEntity
  8
0
  6
Continuous
 62
     7
370
    15
100
AcDbLine
 10
737.6363043862
 20
-36.1317557085
 30
0.0
 11
737.6363043862
 21
-35.3317557085
 31
0.0
  0
LINE
  5
BE
330
1F
100
AcDbEntity
  8
0
  6
Continuous
 62
     7
370
    15
100
AcDbLine
 10
-4.9495534782
 20
-36.1317557085
 30
0.0
 11
-4.9495534782
 21
-35.3317557085
 31
0.0
  0
SPLINE
  5
BF
330
1F
100
AcDbEntity
  8
0
  6
Continuous
 62
     7
370
    15
100
AcDbSpline
210
0.0
220
0.0
230
1.0
 70
     8
 71
     3
 72
    11
 73
     7
 74
     0
 42
0.00000001
 43
0.00000001
 12
1.0
 22
0.0
 32
0.0
 13
1.0
 23
0.0
 33
0.0
 40
0.0
 40
0.0
 40
0.0
 40
0.0
 40
0.25432115847212
 40
0.5088664984542461
 40
0.7634130007197533
 40
1.0
 40
1.0
 40
1.0
 40
1.0
 10
-4.949553478170666
 20
-35.33175570854574
 30
0.0
 10
-4.822972370385036
 20
-35.30840164652671
 30
0.0
 10
-4.569698574857284
 20
-35.26167293612082
 30
0.0
 10
-4.189753905372518
 20
-34.90278531992541
 30
0.0
 10
-3.81852877370098
 20
-34.40356234063607
 30
0.0
 10
-3.574282129031825
 20
-34.01765402404083
 30
0.0
 10
-3.456624545982445
 20
-33.83175570854574
 30
0.0
  0
SPLINE
  5
C0
330
1F
100
AcDbEntity
  8
0
  6
Continuous
 62
     7
370
    15
100
AcDbSpline
210
0.0
220
0.0
230
1.0
 70
     8
 71
     3
 72
    12
 73
     8
 74
     0
 42
0.00000001
 43
0.00000001
 12
1.0
 22
0.0
 32
0.0
 13
1.0
 23
0.0
 33
0.0
 40
0.0
 40
0.0
 40
0.0
 40
0.0
 40
0.2096821001528759
 40
0.4420453733186293
 40
0.6744332966681579
 40
0.9068208701180872
 40
1.0
 40
1.0
 40
1.0
 40
1.0
 10
-3.456624545982445
 20
-33.83175570854574
 30
0.0
 10
-3.708955503957612
 20
-33.93604091647323
 30
0.0
 10
-4.240911891444988
 20
-34.15589179376
 30
0.0
 10
-4.962293321260136
 20
-34.49185992364318
 30
0.0
 10
-5.50565225524563
 20
-34.83876519205958
 30
0.0
 10
-5.734274095389457
 20
-35.11714185429265
 30
0.0
 10
-5.751651134013713
 20
-35.27850231551422
 30
0.0
 10
-5.756624545982413
 20
-35.32468464073391
 30
0.0
  0
SPLINE
  5
C1
330
1F
100
AcDbEntity
  8
0
  6
Continuous
 62
     7
370
    15
100
AcDbSpline
210
0.0
220
0.0
230
1.0
 70
     8
 71
     3
 72
    11
 73
     7
 74
     0
 42
0.00000001
 43
0.00000001
 12
1.0
 22
0.0
 32
0.0
 13
1.0
 23
0.0
 33
0.0
 40
0.0
 40
0.0
 40
0.0
 40
0.0
 40
0.2543211584721726
 40
0.5088664984542824
 40
0.7634130007198221
 40
1.0
 40
1.0
 40
1.0
 40
1.0
 10
-3.456624545982445
 20
-33.83175570854574
 30
0.0
 10
-3.656599736121591
 20
-33.95833681633103
 30
0.0
 10
-4.056726392492827
 20
-34.21161061185868
 30
0.0
 10
-4.558350146588619
 20
-34.59155528134461
 30
0.0
 10
-4.894415393447316
 20
-34.96278041301504
 30
0.0
 10
-4.936399917557843
 20
-35.20702705768436
 30
0.0
 10
-4.956624545982391
 20
-35.32468464073391
 30
0.0
  0
LINE
  5
C2
330
1F
100
AcDbEntity
  8
0
  6
Continuous
 62
     7
370
    15
100
AcDbLine
 10
-5.756624546
 20
-35.3246846407
 30
0.0
 11
-4.956624546
 21
-35.3246846407
 31
0.0
  0
LINE
  5
C3
330
1F
100
AcDbEntity
  8
0
  6
Continuous
 62
     7
370
    15
100
AcDbLine
 10
-5.756624546
 20
442.9182442915
 30
0.0
 11
-5.756624546
 21
-35.3246846407
 31
0.0
  0
SPLINE
  5
C4
330
1F
100
AcDbEntity
  8
0
  6
Continuous
 62
     7
370
    15
100
AcDbSpline
210
0.0
220
0.0
230
1.0
 70
     8
 71
     3
 72
    12
 73
     8
 74
     0
 42
0.00000001
 43
0.00000001
 12
1.0
 22
0.0
 32
0.0
 13
1.0
 23
0.0
 33
0.0
 40
0.0
 40
0.0
 40
0.0
 40
0.0
 40
0.2039309378941953
 40
0.442561640255038
 40
0.6812426816310381
 40
0.9199234516442691
 40
1.0
 40
1.0
 40
1.0
 40
1.0
 10
-5.756624545982413
 20
442.9182442914542
 30
0.0
 10
-5.733559922282138
 20
443.0370796303445
 30
0.0
 10
-5.683506125629235
 20
443.2949706744527
 30
0.0
 10
-5.261041910566034
 20
443.6928523495647
 30
0.0
 10
-4.587845988229644
 20
444.1104643613739
 30
0.0
 10
-3.934867875255155
 20
444.4365646081575
 30
0.0
 10
-3.552644664326088
 20
444.6217284087513
 30
0.0
 10
-3.456624545982445
 20
444.6682442914542
 30
0.0
  0
LINE
  5
C5
330
1F
100
AcDbEntity
  8
0
  6
Continuous
 62
     7
370
    15
100
AcDbLine
 10
-2.506624546
 20
443.8682442915
 30
0.0
 11
-2.256624546
 21
443.8682442915
 31
0.0
  0
LINE
  5
C6
330
1F
100
AcDbEntity
  8
0
  6
Continuous
 62
     7
370
    15
100
AcDbLine
 10
-4.9495534782
 20
-35.3317557085
 30
0.0
 11
-4.956624546
 21
-35.3317557085
 31
0.0
  0
LINE
  5
C7
330
1F
100
AcDbEntity
  8
0
  6
Continuous
 62
     7
370
    15
100
AcDbLine
 10
-4.956624546
 20
-35.3317557085
 30
0.0
 11
-4.956624546
 21
-35.3246846407
 31
0.0
  0
LINE
  5
C8
330
1F
100
AcDbEntity
  8
0
  6
Continuous
 62
     7
370
    15
100
AcDbLine
 10
-4.156624546
 20
-34.8530318067
 30
0.0
 11
-4.156624546
 21
-34.3223715769
 31
0.0
  0
LINE
  5
C9
330
1F
100
AcDbEntity
  8
0
  6
Continuous
 62
     7
370
    15
100
AcDbLine
 10
-3.8877598699
 20
-34.1108707607
 30
0.0
 11
-3.7789501497
 21
-34.2945558802
 31
0.0
  0
LWPOLYLINE
  5
CA
330
1F
100
AcDbEntity
  8
0
  6
Continuous
 62
     7
370
    15
100
AcDbPolyline
 90
        3
 70
   128
 43
0.0
 10
736.7356310496
 20
-34.6914912653
 10
736.7697210507
 20
-34.6581013053
 10
736.9859108447
 20
-34.4083687021
  0
SPLINE
  5
CB
330
1F
100
AcDbEntity
  8
0
  6
Continuous
 62
     7
370
    15
100
AcDbSpline
210
0.0
220
0.0
230
1.0
 70
     8
 71
     3
 72
    13
 73
     9
 74
     0
 42
0.00000001
 43
0.00000001
 12
1.0
 22
0.0
 32
0.0
 13
1.0
 23
0.0
 33
0.0
 40
0.0
 40
0.0
 40
0.0
 40
0.0
 40
0.1695411050601112
 40
0.3386458383080436
 40
0.5184804584268481
 40
0.7277236211483793
 40
0.9924537768859102
 40
0.9999999999999999
 40
0.9999999999999999
 40
0.9999999999999999
 40
0.9999999999999999
 10
2.112370199400082
 20
-46.78175570854798
 30
0.0
 10
2.111667396004713
 20
-46.75714456126134
 30
0.0
 10
2.110263598118112
 20
-46.70798561186273
 30
0.0
 10
2.099625672426331
 20
-46.64184981848263
 30
0.0
 10
2.083633008097496
 20
-46.58617821537803
 30
0.0
 10
2.060756763015925
 20
-46.54345943610588
 30
0.0
 10
2.04229216383861
 20
-46.53187377649387
 30
0.0
 10
2.031999821192232
 20
-46.53175889259054
 30
0.0
 10
2.03171456576795
 20
-46.53175570854806
 30
0.0
  0
LINE
  5
CC
330
1F
100
AcDbEntity
  8
0
  6
Continuous
 62
     7
370
    15
100
AcDbLine
 10
2.0317145658
 20
-46.5317557085
 30
0.0
 11
8.7995252037
 21
-46.5317557085
 31
0.0
  0
SPLINE
  5
CD
330
1F
100
AcDbEntity
  8
0
  6
Continuous
 62
     7
370
    15
100
AcDbSpline
210
0.0
220
0.0
230
1.0
 70
     8
 71
     3
 72
    13
 73
     9
 74
     0
 42
0.00000001
 43
0.00000001
 12
1.0
 22
0.0
 32
0.0
 13
1.0
 23
0.0
 33
0.0
 40
0.0
 40
0.0
 40
0.0
 40
0.0
 40
0.0075462231142012
 40
0.2722763788512355
 40
0.4815195415732212
 40
0.66135416169231
 40
0.830458894939986
 40
1.0
 40
1.0
 40
1.0
 40
1.0
 10
2.031714565768283
 20
-47.73175570854804
 30
0.0
 10
2.031999821192565
 20
-47.73175252450551
 30
0.0
 10
2.042292163835391
 20
-47.7316376406024
 30
0.0
 10
2.060756763017146
 20
-47.72005198099
 30
0.0
 10
2.08363300809683
 20
-47.67733320171796
 30
0.0
 10
2.099625672426442
 20
-47.6216615986137
 30
0.0
 10
2.110263598118223
 20
-47.55552580523298
 30
0.0
 10
2.111667396004824
 20
-47.50636685583465
 30
0.0
 10
2.112370199399971
 20
-47.48175570854806
 30
0.0
  0
LINE
  5
CE
330
1F
100
AcDbEntity
  8
0
  6
Continuous
 62
     7
370
    15
100
AcDbLine
 10
8.4542348538
 20
-47.7317557085
 30
0.0
 11
2.0317145658
 21
-47.7317557085
 31
0.0
  0
LINE
  5
CF
330
1F
100
AcDbEntity
  8
0
  6
Continuous
 62
     7
370
    15
100
AcDbLine
 10
2.1123701994
 20
-47.4817557085
 30
0.0
 11
2.1123701994
 21
-46.7817557085
 31
0.0
  0
SPLINE
  5
D0
330
1F
100
AcDbEntity
  8
0
  6
Continuous
 62
     7
370
    15
100
AcDbSpline
210
0.0
220
0.0
230
1.0
 70
     8
 71
     3
 72
    12
 73
     8
 74
     0
 42
0.00000001
 43
0.00000001
 12
1.0
 22
0.0
 32
0.0
 13
1.0
 23
0.0
 33
0.0
 40
0.0
 40
0.0
 40
0.0
 40
0.0
 40
0.202820202046664
 40
0.4049472449426632
 40
0.6098312030740727
 40
0.8226939241827802
 40
1.0
 40
1.0
 40
1.0
 40
1.0
 10
0.9100393865620338
 20
-47.98175570854768
 30
0.0
 10
0.9194910514847554
 20
-47.82461486801232
 30
0.0
 10
0.9383620792814962
 20
-47.51087023211997
 30
0.0
 10
1.084708187888139
 20
-47.0904739816505
 30
0.0
 10
1.301344821901529
 20
-46.76339544621083
 30
0.0
 10
1.560572882296885
 20
-46.56518617994487
 30
0.0
 10
1.7423551951809
 20
-46.5422009740229
 30
0.0
 10
1.824963309423777
 20
-46.53175570854812
 30
0.0
  0
LINE
  5
D1
330
1F
100
AcDbEntity
  8
0
  6
Continuous
 62
     7
370
    15
100
AcDbLine
 10
0.9100393866
 20
-47.9817557085
 30
0.0
 11
-3.785769185
 21
-47.9817557085
 31
0.0
  0
SPLINE
  5
D2
330
1F
100
AcDbEntity
  8
0
  6
Continuous
 62
     7
370
    15
100
AcDbSpline
210
0.0
220
0.0
230
1.0
 70
     8
 71
     3
 72
    12
 73
     8
 74
     0
 42
0.00000001
 43
0.00000001
 12
1.0
 22
0.0
 32
0.0
 13
1.0
 23
0.0
 33
0.0
 40
0.0
 40
0.0
 40
0.0
 40
0.0
 40
0.2289440738515878
 40
0.459421430024112
 40
0.6825355698157265
 40
0.8947175231628792
 40
1.0
 40
1.0
 40
1.0
 40
1.0
 10
-2.755751914756466
 20
-46.53175570854795
 30
0.0
 10
-2.877562829120606
 20
-46.54909019312559
 30
0.0
 10
-3.122000448877615
 20
-46.58387525464458
 30
0.0
 10
-3.441940210270611
 20
-46.85774510045687
 30
0.0
 10
-3.671386700764334
 20
-47.25478163494002
 30
0.0
 10
-3.774132910136563
 20
-47.65565762429258
 30
0.0
 10
-3.782871243391772
 20
-47.90054301737973
 30
0.0
 10
-3.785769184959376
 20
-47.98175570854796
 30
0.0
  0
LINE
  5
D3
330
1F
100
AcDbEntity
  8
0
  6
Continuous
 62
     7
370
    15
100
AcDbLine
 10
-2.7557519148
 20
-46.5317557085
 30
0.0
 11
1.8249633094
 21
-46.5317557085
 31
0.0
  0
LINE
  5
D4
330
1F
100
AcDbEntity
  8
0
  6
Continuous
 62
     7
370
    15
100
AcDbLine
 10
1.0064446823
 20
-53.3317557085
 30
0.0
 11
-3.5742705418
 21
-53.3317557085
 31
0.0
  0
ARC
  5
D5
330
1F
100
AcDbEntity
  8
0
  6
Continuous
 62
     7
370
    15
100
AcDbCircle
 10
-3.5532676601
 20
-53.0995240325
 30
0.0
 40
0.2331794853687345
100
AcDbArc
 50
175.6298138038
 51
264.8322658056
  0
LINE
  5
D6
330
1F
100
AcDbEntity
  8
0
  6
Continuous
 62
     7
370
    15
100
AcDbLine
 10
-3.785769185
 20
-53.0817557085
 30
0.0
 11
0.9100393866
 21
-53.0817557085
 31
0.0
  0
LWPOLYLINE
  5
D7
330
1F
100
AcDbEntity
  8
0
  6
Continuous
 62
     7
370
    15
100
AcDbPolyline
 90
        9
 70
   128
 43
0.0
 10
1.0064446823
 20
-53.3317557085
 10
0.9876369421
 20
-53.3269520286
 10
0.9695519728
 20
-53.3127255917
 10
0.9528847697
 20
-53.2896231116
 10
0.938275844
 20
-53.2585324038
 10
0.9262866084
 20
-53.2206482668
 10
0.9173778027
 20
-53.1774265666
 10
0.9118917873
 20
-53.1305282891
 10
0.9100393866
 20
-53.0817557085
  0
LINE
  5
D8
330
1F
100
AcDbEntity
  8
0
  6
Continuous
 62
     7
370
    15
100
AcDbLine
 10
0.9100393866
 20
-53.0817557085
 30
0.0
 11
0.9100393866
 21
-47.9817557085
 31
0.0
  0
LINE
  5
D9
330
1F
100
AcDbEntity
  8
0
  6
Continuous
 62
     7
370
    15
100
AcDbLine
 10
-3.785769185
 20
-47.9817557085
 30
0.0
 11
-3.785769185
 21
-53.0817557085
 31
0.0
  0
SPLINE
  5
DA
330
1F
100
AcDbEntity
  8
0
  6
Continuous
 62
     7
370
    15
100
AcDbSpline
210
0.0
220
0.0
230
1.0
 70
     8
 71
     3
 72
    12
 73
     8
 74
     0
 42
0.00000001
 43
0.00000001
 12
1.0
 22
0.0
 32
0.0
 13
1.0
 23
0.0
 33
0.0
 40
0.0
 40
0.0
 40
0.0
 40
0.0
 40
0.1789601577904866
 40
0.3929009169381721
 40
0.5976976172813053
 40
0.7987833678438274
 40
1.0
 40
1.0
 40
1.0
 40
1.0
 10
2.015826443764579
 20
-46.78175570854809
 30
0.0
 10
1.941256276805026
 20
-46.79036767840194
 30
0.0
 10
1.777540020983126
 20
-46.80927496421383
 30
0.0
 10
1.54561025595118
 20
-46.97281098936546
 30
0.0
 10
1.352514774949187
 20
-47.24338330113126
 30
0.0
 10
1.222453702073467
 20
-47.59151342069118
 30
0.0
 10
1.205691596220249
 20
-47.85164673608455
 30
0.0
 10
1.197307816673876
 20
-47.9817557085479
 30
0.0
  0
LINE
  5
DB
330
1F
100
AcDbEntity
  8
0
  6
Continuous
 62
     7
370
    15
100
AcDbLine
 10
1.1973078167
 20
-47.9817557085
 30
0.0
 11
0.9100393866
 21
-47.9817557085
 31
0.0
  0
ARC
  5
DC
330
1F
100
AcDbEntity
  8
0
  6
Continuous
 62
     7
370
    15
100
AcDbCircle
 10
1.790814148
 20
-46.7556844446
 30
0.0
 40
0.2265176462355389
100
AcDbArc
 50
353.3908406059
 51
81.3291912471
  0
LINE
  5
DD
330
1F
100
AcDbEntity
  8
0
  6
Continuous
 62
     7
370
    15
100
AcDbLine
 10
1.1973078167
 20
-53.0817557085
 30
0.0
 11
0.9100393866
 21
-53.0817557085
 31
0.0
  0
ARC
  5
DE
330
1F
100
AcDbEntity
  8
0
  6
Continuous
 62
     7
370
    15
100
AcDbCircle
 10
0.9722955209
 20
-53.1078269725
 30
0.0
 40
0.2265176462359658
100
AcDbArc
 50
278.6708087531
 51
6.609159394
  0
LINE
  5
DF
330
1F
100
AcDbEntity
  8
0
  6
Continuous
 62
     7
370
    15
100
AcDbLine
 10
1.1973078167
 20
-47.9817557085
 30
0.0
 11
1.1973078167
 21
-53.0817557085
 31
0.0
  0
LINE
  5
E0
330
1F
100
AcDbEntity
  8
0
  6
Continuous
 62
     7
370
    15
100
AcDbLine
 10
1.6732867647
 20
-53.0817557085
 30
0.0
 11
1.6732867647
 21
-47.9817557085
 31
0.0
  0
LINE
  5
E1
330
1F
100
AcDbEntity
  8
0
  6
Continuous
 62
     7
370
    15
100
AcDbLine
 10
1.1973078167
 20
-53.0817557085
 30
0.0
 11
1.6732867647
 21
-53.0817557085
 31
0.0
  0
LINE
  5
E2
330
1F
100
AcDbEntity
  8
0
  6
Continuous
 62
     7
370
    15
100
AcDbLine
 10
2.1123701994
 20
-46.7817557085
 30
0.0
 11
2.0158264438
 21
-46.7817557085
 31
0.0
  0
LINE
  5
E3
330
1F
100
AcDbEntity
  8
0
  6
Continuous
 62
     7
370
    15
100
AcDbLine
 10
2.0158264438
 20
-47.4817557085
 30
0.0
 11
2.1123701994
 21
-47.4817557085
 31
0.0
  0
SPLINE
  5
E4
330
1F
100
AcDbEntity
  8
0
  6
Continuous
 62
     7
370
    15
100
AcDbSpline
210
0.0
220
0.0
230
1.0
 70
     8
 71
     3
 72
    12
 73
     8
 74
     0
 42
0.00000001
 43
0.00000001
 12
1.0
 22
0.0
 32
0.0
 13
1.0
 23
0.0
 33
0.0
 40
0.0
 40
0.0
 40
0.0
 40
0.0
 40
0.181860311864592
 40
0.3964966430180066
 40
0.6005836871111148
 40
0.8002123703308749
 40
1.0
 40
1.0
 40
1.0
 40
1.0
 10
2.01582644376469
 20
-47.48175570854812
 30
0.0
 10
1.984186970874713
 20
-47.48547346014193
 30
0.0
 10
1.915205758541261
 20
-47.49357900011076
 30
0.0
 10
1.818069411133105
 20
-47.56273369911751
 30
0.0
 10
1.737772582204145
 20
-47.67557310607112
 30
0.0
 10
1.683747225825927
 20
-47.81999420681649
 30
0.0
 10
1.676774510019963
 20
-47.92782090487374
 30
0.0
 10
1.67328676473194
 20
-47.98175570854784
 30
0.0
  0
ARC
  5
E5
330
1F
100
AcDbEntity
  8
0
  6
Continuous
 62
     7
370
    15
100
AcDbCircle
 10
1.448274469
 20
-53.1078269725
 30
0.0
 40
0.2265176462359657
100
AcDbArc
 50
278.6708087531
 51
6.609159394
  0
LINE
  5
E6
330
1F
100
AcDbEntity
  8
0
  6
Continuous
 62
     7
370
    15
100
AcDbLine
 10
1.4824236304
 20
-53.3317557085
 30
0.0
 11
1.0064446823
 21
-53.3317557085
 31
0.0
  0
ARC
  5
E7
330
1F
100
AcDbEntity
  8
0
  6
Continuous
 62
     7
370
    15
100
AcDbCircle
 10
1.790814148
 20
-47.5078269725
 30
0.0
 40
0.226517646235757
100
AcDbArc
 50
278.670808753
 51
6.609159394
  0
LINE
  5
E8
330
1F
100
AcDbEntity
  8
0
  6
Continuous
 62
     7
370
    15
100
AcDbLine
 10
1.8249633094
 20
-46.5317557085
 30
0.0
 11
2.0317145658
 21
-46.5317557085
 31
0.0
  0
LINE
  5
E9
330
1F
100
AcDbEntity
  8
0
  6
Continuous
 62
     7
370
    15
100
AcDbLine
 10
2.0317145658
 20
-47.7317557085
 30
0.0
 11
1.8249633094
 21
-47.7317557085
 31
0.0
  0
LINE
  5
EA
330
1F
100
AcDbEntity
  8
0
  6
Continuous
 62
     7
370
    15
100
AcDbLine
 10
-3.785769185
 20
-47.9817557085
 30
0.0
 11
-3.8242705418
 21
-47.9817557085
 31
0.0
  0
LINE
  5
EB
330
1F
100
AcDbEntity
  8
0
  6
Continuous
 62
     7
370
    15
100
AcDbLine
 10
-3.606624546
 20
-46.5317557085
 30
0.0
 11
-2.7557519148
 21
-46.5317557085
 31
0.0
  0
LINE
  5
EC
330
1F
100
AcDbEntity
  8
0
  6
Continuous
 62
     7
370
    15
100
AcDbLine
 10
12.9759056362
 20
-53.0817557085
 30
0.0
 11
13.4518845842
 21
-53.0817557085
 31
0.0
  0
LINE
  5
ED
330
1F
100
AcDbEntity
  8
0
  6
Continuous
 62
     7
370
    15
100
AcDbLine
 10
12.5704028519
 20
-53.0817557085
 30
0.0
 11
12.9759056362
 21
-53.0817557085
 31
0.0
  0
ARC
  5
EE
330
1F
100
AcDbEntity
  8
0
  6
Continuous
 62
     7
370
    15
100
AcDbCircle
 10
12.7508933404
 20
-53.1078269725
 30
0.0
 40
0.2265176462353144
100
AcDbArc
 50
278.6708087529
 51
6.6091593941
  0
ARC
  5
EF
330
1F
100
AcDbEntity
  8
0
  6
Continuous
 62
     7
370
    15
100
AcDbCircle
 10
12.8041790182
 20
-53.0981855292
 30
0.0
 40
0.2343528001289604
100
AcDbArc
 50
175.9798550465
 51
265.3161909111
  0
LINE
  5
F0
330
1F
100
AcDbEntity
  8
0
  6
Continuous
 62
     7
370
    15
100
AcDbLine
 10
12.7850425018
 20
-53.3317557085
 30
0.0
 11
10.5731634904
 21
-53.3317557085
 31
0.0
  0
LINE
  5
F1
330
1F
100
AcDbEntity
  8
0
  6
Continuous
 62
     7
370
    15
100
AcDbLine
 10
13.2610214499
 20
-53.3317557085
 30
0.0
 11
12.7850425018
 21
-53.3317557085
 31
0.0
  0
ARC
  5
F2
330
1F
100
AcDbEntity
  8
0
  6
Continuous
 62
     7
370
    15
100
AcDbCircle
 10
13.2268722884
 20
-53.1078269725
 30
0.0
 40
0.2265176462362041
100
AcDbArc
 50
278.670808753
 51
6.6091593939
  0
SPLINE
  5
F3
330
1F
100
AcDbEntity
  8
0
  6
Continuous
 62
     7
370
    15
100
AcDbSpline
210
0.0
220
0.0
230
1.0
 70
     8
 71
     3
 72
    13
 73
     9
 74
     0
 42
0.00000001
 43
0.00000001
 12
1.0
 22
0.0
 32
0.0
 13
1.0
 23
0.0
 33
0.0
 40
0.0
 40
0.0
 40
0.0
 40
0.0
 40
0.1695411050600815
 40
0.3386458383078367
 40
0.5184804584269798
 40
0.7277236211483011
 40
0.9924537768852112
 40
1.0
 40
1.0
 40
1.0
 40
1.0
 10
8.38697099725666
 20
-47.98175570854779
 30
0.0
 10
8.387420988492932
 20
-47.9571445612611
 30
0.0
 10
8.388319812759281
 20
-47.90798561186266
 30
0.0
 10
8.395118954887371
 20
-47.84184981848239
 30
0.0
 10
8.405304646498745
 20
-47.78617821537806
 30
0.0
 10
8.419802161275857
 20
-47.74345943610547
 30
0.0
 10
8.431417119710572
 20
-47.73187377649302
 30
0.0
 10
8.437860344894855
 20
-47.73175889259041
 30
0.0
 10
8.438038920851653
 20
-47.73175570854782
 30
0.0
  0
LINE
  5
F4
330
1F
100
AcDbEntity
  8
0
  6
Continuous
 62
     7
370
    15
100
AcDbLine
 10
2.0317145658
 20
-47.7317557085
 30
0.0
 11
8.4380389209
 21
-47.7317557085
 31
0.0
  0
SPLINE
  5
F5
330
1F
100
AcDbEntity
  8
0
  6
Continuous
 62
     7
370
    15
100
AcDbSpline
210
0.0
220
0.0
230
1.0
 70
     8
 71
     3
 72
    13
 73
     9
 74
     0
 42
0.00000001
 43
0.00000001
 12
1.0
 22
0.0
 32
0.0
 13
1.0
 23
0.0
 33
0.0
 40
0.0
 40
0.0
 40
0.0
 40
0.0
 40
0.0075462231150223
 40
0.2722763788518185
 40
0.4815195415730665
 40
0.6613541616925656
 40
0.8304588949400076
 40
1.0
 40
1.0
 40
1.0
 40
1.0
 10
8.438038920851653
 20
-48.9317557085478
 30
0.0
 10
8.437860344894965
 20
-48.93175252450527
 30
0.0
 10
8.431417119708795
 20
-48.93163764060193
 30
0.0
 10
8.419802161276523
 20
-48.92005198099015
 30
0.0
 10
8.40530464649808
 20
-48.87733320171744
 30
0.0
 10
8.395118954887593
 20
-48.82166159861323
 30
0.0
 10
8.388319812759281
 20
-48.75552580523296
 30
0.0
 10
8.387420988492822
 20
-48.70636685583457
 30
0.0
 10
8.386970997256771
 20
-48.68175570854783
 30
0.0
  0
LINE
  5
F6
330
1F
100
AcDbEntity
  8
0
  6
Continuous
 62
     7
370
    15
100
AcDbLine
 10
8.4380389209
 20
-48.9317557085
 30
0.0
 11
1.843375454
 21
-48.9317557085
 31
0.0
  0
LINE
  5
F7
330
1F
100
AcDbEntity
  8
0
  6
Continuous
 62
     7
370
    15
100
AcDbLine
 10
8.3869709973
 20
-47.9817557085
 30
0.0
 11
8.3869709973
 21
-48.6817557085
 31
0.0
  0
SPLINE
  5
F8
330
1F
100
AcDbEntity
  8
0
  6
Continuous
 62
     7
370
    15
100
AcDbSpline
210
0.0
220
0.0
230
1.0
 70
     8
 71
     3
 72
    12
 73
     8
 74
     0
 42
0.00000001
 43
0.00000001
 12
1.0
 22
0.0
 32
0.0
 13
1.0
 23
0.0
 33
0.0
 40
0.0
 40
0.0
 40
0.0
 40
0.0
 40
0.2289440738516634
 40
0.4594214300242335
 40
0.6825355698157349
 40
0.8947175231628394
 40
1.0
 40
1.0
 40
1.0
 40
1.0
 10
12.83829740093351
 20
-48.93175570854807
 30
0.0
 10
12.97238941755291
 20
-48.91442122397049
 30
0.0
 10
13.24147149071481
 20
-48.87963616245139
 30
0.0
 10
13.59407854615718
 20
-48.6057663166391
 30
0.0
 10
13.84708811482399
 20
-48.20872978215601
 30
0.0
 10
13.96043095968996
 20
-47.80785379280334
 30
0.0
 10
13.97007061427041
 20
-47.5629683997163
 30
0.0
 10
13.97326746599165
 20
-47.48175570854801
 30
0.0
  0
SPLINE
  5
F9
330
1F
100
AcDbEntity
  8
0
  6
Continuous
 62
     7
370
    15
100
AcDbSpline
210
0.0
220
0.0
230
1.0
 70
     8
 71
     3
 72
    12
 73
     8
 74
     0
 42
0.00000001
 43
0.00000001
 12
1.0
 22
0.0
 32
0.0
 13
1.0
 23
0.0
 33
0.0
 40
0.0
 40
0.0
 40
0.0
 40
0.0
 40
0.2028202020467641
 40
0.4049472449426856
 40
0.6098312030740198
 40
0.8226939241827474
 40
1.0
 40
1.0
 40
1.0
 40
1.0
 10
9.698394052202685
 20
-47.48175570854779
 30
0.0
 10
9.687767101966116
 20
-47.63889654908316
 30
0.0
 10
9.66654952020124
 20
-47.95264118497566
 30
0.0
 10
9.501966266187656
 20
-48.37303743544557
 30
0.0
 10
9.25819419635049
 20
-48.70011597088492
 30
0.0
 10
8.966290959464384
 20
-48.8983252371511
 30
0.0
 10
8.761337963295645
 20
-48.92131044307308
 30
0.0
 10
8.668200296306383
 20
-48.93175570854796
 30
0.0
  0
LINE
  5
FA
330
1F
100
AcDbEntity
  8
0
  6
Continuous
 62
     7
370
    15
100
AcDbLine
 10
9.6983940522
 20
-47.4817557085
 30
0.0
 11
13.973267466
 21
-47.4817557085
 31
0.0
  0
LINE
  5
FB
330
1F
100
AcDbEntity
  8
0
  6
Continuous
 62
     7
370
    15
100
AcDbLine
 10
12.8382974009
 20
-48.9317557085
 30
0.0
 11
8.6682002963
 21
-48.9317557085
 31
0.0
  0
LINE
  5
FC
330
1F
100
AcDbEntity
  8
0
  6
Continuous
 62
     7
370
    15
100
AcDbLine
 10
13.973267466
 20
-47.4817557085
 30
0.0
 11
13.973267466
 21
-42.3817557085
 31
0.0
  0
LINE
  5
FD
330
1F
100
AcDbEntity
  8
0
  6
Continuous
 62
     7
370
    15
100
AcDbLine
 10
9.6983940522
 20
-42.3817557085
 30
0.0
 11
9.6983940522
 21
-47.4817557085
 31
0.0
  0
LINE
  5
FE
330
1F
100
AcDbEntity
  8
0
  6
Continuous
 62
     7
370
    15
100
AcDbLine
 10
13.973267466
 20
-42.3817557085
 30
0.0
 11
9.6983940522
 21
-42.3817557085
 31
0.0
  0
LWPOLYLINE
  5
FF
330
1F
100
AcDbEntity
  8
0
  6
Continuous
 62
     7
370
    15
100
AcDbPolyline
 90
        9
 70
   128
 43
0.0
 10
9.6983940522
 20
-42.3817557085
 10
9.696107586
 20
-42.332983128
 10
9.689336055
 20
-42.2860848505
 10
9.6783396854
 20
-42.2428631503
 10
9.6635410614
 20
-42.2049790133
 10
9.6455088859
 20
-42.1738883055
 10
9.6249361253
 20
-42.1507858254
 10
9.6026133793
 20
-42.1365593884
 10
9.5793984983
 20
-42.1317557085
  0
LINE
  5
100
330
1F
100
AcDbEntity
  8
0
  6
Continuous
 62
     7
370
    15
100
AcDbLine
 10
9.5793984983
 20
-42.1317557085
 30
0.0
 11
13.749495603
 21
-42.1317557085
 31
0.0
  0
ARC
  5
101
330
1F
100
AcDbEntity
  8
0
  6
Continuous
 62
     7
370
    15
100
AcDbCircle
 10
13.7356129893
 20
-42.3693295552
 30
0.0
 40
0.2379791158746994
100
AcDbArc
 50
357.0069219841
 51
86.6557275501
  0
SPLINE
  5
102
330
1F
100
AcDbEntity
  8
0
  6
Continuous
 62
     7
370
    15
100
AcDbSpline
210
0.0
220
0.0
230
1.0
 70
     8
 71
     3
 72
    12
 73
     8
 74
     0
 42
0.00000001
 43
0.00000001
 12
1.0
 22
0.0
 32
0.0
 13
1.0
 23
0.0
 33
0.0
 40
0.0
 40
0.0
 40
0.0
 40
0.0
 40
0.1789601577904625
 40
0.3929009169381012
 40
0.5976976172812599
 40
0.7987833678438526
 40
1.0
 40
1.0
 40
1.0
 40
1.0
 10
8.49444625028034
 20
-48.68175570854799
 30
0.0
 10
8.577459879792249
 20
-48.67314373869408
 30
0.0
 10
8.759713469397134
 20
-48.65423645288259
 30
0.0
 10
9.017904276420518
 20
-48.49070042773007
 30
0.0
 10
9.232863654599132
 20
-48.22012811596471
 30
0.0
 10
9.377651337902638
 20
-47.87199799640468
 30
0.0
 10
9.396311390600543
 20
-47.6118646810112
 30
0.0
 10
9.4056444522998
 20
-47.4817557085479
 30
0.0
  0
LINE
  5
103
330
1F
100
AcDbEntity
  8
0
  6
Continuous
 62
     7
370
    15
100
AcDbLine
 10
9.4056444523
 20
-47.4817557085
 30
0.0
 11
9.6983940522
 21
-47.4817557085
 31
0.0
  0
ARC
  5
104
330
1F
100
AcDbEntity
  8
0
  6
Continuous
 62
     7
370
    15
100
AcDbCircle
 10
8.7146877483
 20
-48.71406524
 30
0.0
 40
0.2225987944097831
100
AcDbArc
 50
171.6542123666
 51
257.94563917
  0
LINE
  5
105
330
1F
100
AcDbEntity
  8
0
  6
Continuous
 62
     7
370
    15
100
AcDbLine
 10
9.4056444523
 20
-47.4817557085
 30
0.0
 11
9.4056444523
 21
-42.3817557085
 31
0.0
  0
LINE
  5
106
330
1F
100
AcDbEntity
  8
0
  6
Continuous
 62
     7
370
    15
100
AcDbLine
 10
9.4056444523
 20
-42.3817557085
 30
0.0
 11
9.6983940522
 21
-42.3817557085
 31
0.0
  0
ARC
  5
107
330
1F
100
AcDbEntity
  8
0
  6
Continuous
 62
     7
370
    15
100
AcDbCircle
 10
9.6258859503
 20
-42.3494461771
 30
0.0
 40
0.2225987944095106
100
AcDbArc
 50
102.0543608299
 51
188.3457876334
  0
LINE
  5
108
330
1F
100
AcDbEntity
  8
0
  6
Continuous
 62
     7
370
    15
100
AcDbLine
 10
8.8757711576
 20
-42.3817557085
 30
0.0
 11
8.8757711576
 21
-47.4817557085
 31
0.0
  0
LINE
  5
109
330
1F
100
AcDbEntity
  8
0
  6
Continuous
 62
     7
370
    15
100
AcDbLine
 10
9.4056444523
 20
-42.3817557085
 30
0.0
 11
8.8757711576
 21
-42.3817557085
 31
0.0
  0
LINE
  5
10A
330
1F
100
AcDbEntity
  8
0
  6
Continuous
 62
     7
370
    15
100
AcDbLine
 10
8.3869709973
 20
-48.6817557085
 30
0.0
 11
8.4944462503
 21
-48.6817557085
 31
0.0
  0
LINE
  5
10B
330
1F
100
AcDbEntity
  8
0
  6
Continuous
 62
     7
370
    15
100
AcDbLine
 10
8.4944462503
 20
-47.9817557085
 30
0.0
 11
8.3869709973
 21
-47.9817557085
 31
0.0
  0
SPLINE
  5
10C
330
1F
100
AcDbEntity
  8
0
  6
Continuous
 62
     7
370
    15
100
AcDbSpline
210
0.0
220
0.0
230
1.0
 70
     8
 71
     3
 72
    12
 73
     8
 74
     0
 42
0.00000001
 43
0.00000001
 12
1.0
 22
0.0
 32
0.0
 13
1.0
 23
0.0
 33
0.0
 40
0.0
 40
0.0
 40
0.0
 40
0.0
 40
0.1818603118646171
 40
0.3964966430178146
 40
0.6005836871107253
 40
0.8002123703305867
 40
1.0
 40
1.0
 40
1.0
 40
1.0
 10
8.49444625028034
 20
-47.98175570854796
 30
0.0
 10
8.529668210851604
 20
-47.9780379569541
 30
0.0
 10
8.606460057207832
 20
-47.96993241698544
 30
0.0
 10
8.714595000236914
 20
-47.90077771797851
 30
0.0
 10
8.803983712633967
 20
-47.78793831102496
 30
0.0
 10
8.864126275021478
 20
-47.64351721027954
 30
0.0
 10
8.871888500455672
 20
-47.53569051222212
 30
0.0
 10
8.875771157649204
 20
-47.4817557085479
 30
0.0
  0
ARC
  5
10D
330
1F
100
AcDbEntity
  8
0
  6
Continuous
 62
     7
370
    15
100
AcDbCircle
 10
9.0960126557
 20
-42.3494461771
 30
0.0
 40
0.2225987944093911
100
AcDbArc
 50
102.0543608299
 51
188.3457876334
  0
LINE
  5
10E
330
1F
100
AcDbEntity
  8
0
  6
Continuous
 62
     7
370
    15
100
AcDbLine
 10
9.0495252037
 20
-42.1317557085
 30
0.0
 11
9.5793984983
 21
-42.1317557085
 31
0.0
  0
ARC
  5
10F
330
1F
100
AcDbEntity
  8
0
  6
Continuous
 62
     7
370
    15
100
AcDbCircle
 10
8.7146877483
 20
-47.9494461771
 30
0.0
 40
0.2225987944099548
100
AcDbArc
 50
102.0543608301
 51
188.3457876333
  0
LINE
  5
110
330
1F
100
AcDbEntity
  8
0
  6
Continuous
 62
     7
370
    15
100
AcDbLine
 10
8.4380389209
 20
-47.7317557085
 30
0.0
 11
8.6682002963
 21
-47.7317557085
 31
0.0
  0
LINE
  5
111
330
1F
100
AcDbEntity
  8
0
  6
Continuous
 62
     7
370
    15
100
AcDbLine
 10
8.6682002963
 20
-48.9317557085
 30
0.0
 11
8.4380389209
 21
-48.9317557085
 31
0.0
  0
LINE
  5
112
330
1F
100
AcDbEntity
  8
0
  6
Continuous
 62
     7
370
    15
100
AcDbLine
 10
13.973267466
 20
-47.4817557085
 30
0.0
 11
13.999495603
 21
-47.4817557085
 31
0.0
  0
LINE
  5
113
330
1F
100
AcDbEntity
  8
0
  6
Continuous
 62
     7
370
    15
100
AcDbLine
 10
13.293375454
 20
-48.9317557085
 30
0.0
 11
12.8382974009
 21
-48.9317557085
 31
0.0
  0
LINE
  5
114
330
1F
100
AcDbEntity
  8
0
  6
Continuous
 62
     7
370
    15
100
AcDbLine
 10
-4.2364987409
 20
-42.3817557085
 30
0.0
 11
-4.2364987409
 21
-47.4817557085
 31
0.0
  0
LINE
  5
115
330
1F
100
AcDbEntity
  8
0
  6
Continuous
 62
     7
370
    15
100
AcDbLine
 10
-3.7066254463
 20
-42.3817557085
 30
0.0
 11
-4.2364987409
 21
-42.3817557085
 31
0.0
  0
SPLINE
  5
116
330
1F
100
AcDbEntity
  8
0
  6
Continuous
 62
     7
370
    15
100
AcDbSpline
210
0.0
220
0.0
230
1.0
 70
     8
 71
     3
 72
    11
 73
     7
 74
     0
 42
0.00000001
 43
0.00000001
 12
1.0
 22
0.0
 32
0.0
 13
1.0
 23
0.0
 33
0.0
 40
0.0
 40
0.0
 40
0.0
 40
0.0
 40
0.0449088511988275
 40
0.4391056468595719
 40
0.8139875175675453
 40
0.9999999999999999
 40
0.9999999999999999
 40
0.9999999999999999
 40
0.9999999999999999
 10
-3.856624545980292
 20
-48.60892993324806
 30
0.0
 10
-3.869604755352862
 20
-48.59953542610656
 30
0.0
 10
-3.996521456198388
 20
-48.50767867570733
 30
0.0
 10
-4.155663671929711
 20
-48.19869119674647
 30
0.0
 10
-4.274183191039615
 20
-47.80893451818319
 30
0.0
 10
-4.283445009952979
 20
-47.56323754762209
 30
0.0
 10
-4.286516557951813
 20
-47.48175570854801
 30
0.0
  0
LINE
  5
117
330
1F
100
AcDbEntity
  8
0
  6
Continuous
 62
     7
370
    15
100
AcDbLine
 10
-3.3064863501
 20
-42.3817557085
 30
0.0
 11
-3.7066254463
 21
-42.3817557085
 31
0.0
  0
ARC
  5
118
330
1F
100
AcDbEntity
  8
0
  6
Continuous
 62
     7
370
    15
100
AcDbCircle
 10
-3.4863839483
 20
-42.3494461771
 30
0.0
 40
0.2225987944099184
100
AcDbArc
 50
102.05436083
 51
188.3457876333
  0
ARC
  5
119
330
1F
100
AcDbEntity
  8
0
  6
Continuous
 62
     7
370
    15
100
AcDbCircle
 10
-3.545294713
 20
-42.3705058995
 30
0.0
 40
0.2390731945683413
100
AcDbArc
 50
357.3028984186
 51
87.0213133888
  0
LINE
  5
11A
330
1F
100
AcDbEntity
  8
0
  6
Continuous
 62
     7
370
    15
100
AcDbLine
 10
-4.0627446949
 20
-42.1317557085
 30
0.0
 11
-3.5328714003
 21
-42.1317557085
 31
0.0
  0
ARC
  5
11B
330
1F
100
AcDbEntity
  8
0
  6
Continuous
 62
     7
370
    15
100
AcDbCircle
 10
-4.0162572429
 20
-42.3494461771
 30
0.0
 40
0.2225987944090438
100
AcDbArc
 50
102.0543608299
 51
188.3457876336
  0
LINE
  5
11C
330
1F
100
AcDbEntity
  8
0
  6
Continuous
 62
     7
370
    15
100
AcDbLine
 10
-3.5328714003
 20
-42.1317557085
 30
0.0
 11
-0.7968098034
 21
-42.1317557085
 31
0.0
  0
LINE
  5
11D
330
1F
100
AcDbEntity
  8
0
  6
Continuous
 62
     7
370
    15
100
AcDbLine
 10
2.5926042194
 20
-49.3783376959
 30
0.0
 11
5.4574982376
 21
-48.9317557085
 31
0.0
  0
SPLINE
  5
11E
330
1F
100
AcDbEntity
  8
0
  6
Continuous
 62
     7
370
    15
100
AcDbSpline
210
0.0
220
0.0
230
1.0
 70
     8
 71
     3
 72
     9
 73
     5
 74
     0
 42
0.00000001
 43
0.00000001
 12
1.0
 22
0.0
 32
0.0
 13
1.0
 23
0.0
 33
0.0
 40
0.0
 40
0.0
 40
0.0
 40
0.0
 40
0.0702005767033971
 40
1.0
 40
1.0
 40
1.0
 40
1.0
 10
5.457498237645908
 20
-48.93175570854813
 30
0.0
 10
5.52541317727756
 20
-48.93220182481567
 30
0.0
 10
6.492854512105295
 20
-48.93855670519631
 30
0.0
 10
7.44090005593706
 20
-49.16644618709148
 30
0.0
 10
8.322392255850463
 20
-49.37833769593314
 30
0.0
  0
LINE
  5
11F
330
1F
100
AcDbEntity
  8
0
  6
Continuous
 62
     7
370
    15
100
AcDbLine
 10
8.3223922559
 20
-49.3783376959
 30
0.0
 11
8.3223922559
 21
-53.6851737212
 31
0.0
  0
SPLINE
  5
120
330
1F
100
AcDbEntity
  8
0
  6
Continuous
 62
     7
370
    15
100
AcDbSpline
210
0.0
220
0.0
230
1.0
 70
     8
 71
     3
 72
     9
 73
     5
 74
     0
 42
0.00000001
 43
0.00000001
 12
1.0
 22
0.0
 32
0.0
 13
1.0
 23
0.0
 33
0.0
 40
0.0
 40
0.0
 40
0.0
 40
0.0
 40
0.0702005767034806
 40
1.0
 40
1.0
 40
1.0
 40
1.0
 10
5.457498237645797
 20
-54.13175570854823
 30
0.0
 10
5.52541317727745
 20
-54.13130959228074
 30
0.0
 10
6.492854512105295
 20
-54.12495471190015
 30
0.0
 10
7.440900055936838
 20
-53.89706523000459
 30
0.0
 10
8.322392255850353
 20
-53.68517372116271
 30
0.0
  0
LINE
  5
121
330
1F
100
AcDbEntity
  8
0
  6
Continuous
 62
     7
370
    15
100
AcDbLine
 10
2.5926042194
 20
-53.6851737212
 30
0.0
 11
5.4574982376
 21
-54.1317557085
 31
0.0
  0
LINE
  5
122
330
1F
100
AcDbEntity
  8
0
  6
Continuous
 62
     7
370
    15
100
AcDbLine
 10
2.5926042194
 20
-49.3783376959
 30
0.0
 11
2.5926042194
 21
-53.6851737212
 31
0.0
  0
SPLINE
  5
123
330
1F
100
AcDbEntity
  8
0
  6
Continuous
 62
     7
370
    15
100
AcDbSpline
210
0.0
220
0.0
230
1.0
 70
     8
 71
     3
 72
     9
 73
     5
 74
     0
 42
0.00000001
 43
0.00000001
 12
1.0
 22
0.0
 32
0.0
 13
1.0
 23
0.0
 33
0.0
 40
0.0
 40
0.0
 40
0.0
 40
0.0
 40
0.2575513451037428
 40
0.9999999999999999
 40
0.9999999999999999
 40
0.9999999999999999
 40
0.9999999999999999
 10
2.592604219441574
 20
-53.68517372116283
 30
0.0
 10
2.446569466915183
 20
-53.7525889439377
 30
0.0
 10
1.879557275743127
 20
-54.01434344088174
 30
0.0
 10
1.290465910363137
 20
-54.0817269286743
 30
0.0
 10
0.8530958185259396
 20
-54.131755708548
 30
0.0
  0
LINE
  5
124
330
1F
100
AcDbEntity
  8
0
  6
Continuous
 62
     7
370
    15
100
AcDbLine
 10
5.4574982376
 20
-54.1317557085
 30
0.0
 11
0.8530958185
 21
-54.1317557085
 31
0.0
  0
SPLINE
  5
125
330
1F
100
AcDbEntity
  8
0
  6
Continuous
 62
     7
370
    15
100
AcDbSpline
210
0.0
220
0.0
230
1.0
 70
     8
 71
     3
 72
     9
 73
     5
 74
     0
 42
0.00000001
 43
0.00000001
 12
1.0
 22
0.0
 32
0.0
 13
1.0
 23
0.0
 33
0.0
 40
0.0
 40
0.0
 40
0.0
 40
0.0
 40
0.5174000252723627
 40
1.0
 40
1.0
 40
1.0
 40
1.0
 10
2.592604219441574
 20
-49.37833769593325
 30
0.0
 10
2.447062011908641
 20
-49.30658642025371
 30
0.0
 10
2.165766688321524
 20
-49.1679098215394
 30
0.0
 10
1.873480795081595
 20
-49.1259872089303
 30
0.0
 10
1.732423630391
 20
-49.10575535714457
 30
0.0
  0
LINE
  5
126
330
1F
100
AcDbEntity
  8
0
  6
Continuous
 62
     7
370
    15
100
AcDbLine
 10
8.3223922559
 20
-49.3783376959
 30
0.0
 11
9.4477778731
 21
-48.9317557085
 31
0.0
  0
LINE
  5
127
330
1F
100
AcDbEntity
  8
0
  6
Continuous
 62
     7
370
    15
100
AcDbLine
 10
8.3223922559
 20
-53.6851737212
 30
0.0
 11
9.4477778731
 21
-54.1317557085
 31
0.0
  0
LINE
  5
128
330
1F
100
AcDbEntity
  8
0
  6
Continuous
 62
     7
370
    15
100
AcDbLine
 10
9.4477778731
 20
-54.1317557085
 30
0.0
 11
5.4574982376
 21
-54.1317557085
 31
0.0
  0
SPLINE
  5
129
330
1F
100
AcDbEntity
  8
0
  6
Continuous
 62
     7
370
    15
100
AcDbSpline
210
0.0
220
0.0
230
1.0
 70
     8
 71
     3
 72
     9
 73
     5
 74
     0
 42
0.00000001
 43
0.00000001
 12
1.0
 22
0.0
 32
0.0
 13
1.0
 23
0.0
 33
0.0
 40
0.0
 40
0.0
 40
0.0
 40
0.0
 40
0.2686336050555387
 40
1.0
 40
1.0
 40
1.0
 40
1.0
 10
0.8530958185259396
 20
-54.131755708548
 30
0.0
 10
0.6949258302378358
 20
-54.12512675596359
 30
0.0
 10
0.1061313335278258
 20
-54.10045019852727
 30
0.0
 10
-0.4671406895490615
 20
-53.86059543492716
 30
0.0
 10
-0.8864125823894731
 20
-53.68517372116266
 30
0.0
  0
LINE
  5
12A
330
1F
100
AcDbEntity
  8
0
  6
Continuous
 62
     7
370
    15
100
AcDbLine
 10
-0.8864125824
 20
-53.3317557085
 30
0.0
 11
-0.8864125824
 21
-53.6851737212
 31
0.0
  0
LINE
  5
12B
330
1F
100
AcDbEntity
  8
0
  6
Continuous
 62
     7
370
    15
100
AcDbLine
 10
10.5731634904
 20
-49.3783376959
 30
0.0
 11
10.5731634904
 21
-53.6851737212
 31
0.0
  0
SPLINE
  5
12C
330
1F
100
AcDbEntity
  8
0
  6
Continuous
 62
     7
370
    15
100
AcDbSpline
210
0.0
220
0.0
230
1.0
 70
     8
 71
     3
 72
     9
 73
     5
 74
     0
 42
0.00000001
 43
0.00000001
 12
1.0
 22
0.0
 32
0.0
 13
1.0
 23
0.0
 33
0.0
 40
0.0
 40
0.0
 40
0.0
 40
0.0
 40
0.0702005767034387
 40
1.0
 40
1.0
 40
1.0
 40
1.0
 10
9.447777873139607
 20
-54.131755708548
 30
0.0
 10
9.47445617110626
 20
-54.13130959228041
 30
0.0
 10
9.85448578367537
 20
-54.12495471190005
 30
0.0
 10
10.2268963555085
 20
-53.89706523000471
 30
0.0
 10
10.57316349042864
 20
-53.68517372116294
 30
0.0
  0
LINE
  5
12D
330
1F
100
AcDbEntity
  8
0
  6
Continuous
 62
     7
370
    15
100
AcDbLine
 10
-0.5876617179
 20
-53.812103365
 30
0.0
 11
-0.8864125824
 21
-53.6851737212
 31
0.0
  0
LINE
  5
12E
330
1F
100
AcDbEntity
  8
0
  6
Continuous
 62
     7
370
    15
100
AcDbLine
 10
0.8530958185
 20
-54.1317557085
 30
0.0
 11
-0.156624546
 21
-54.1317557085
 31
0.0
  0
LINE
  5
12F
330
1F
100
AcDbEntity
  8
0
  6
Continuous
 62
     7
370
    15
100
AcDbLine
 10
9.843375454
 20
-54.1317557085
 30
0.0
 11
9.4477778731
 21
-54.1317557085
 31
0.0
  0
LINE
  5
130
330
1F
100
AcDbEntity
  8
0
  6
Continuous
 62
     7
370
    15
100
AcDbLine
 10
3.766856042
 20
-36.3283376959
 30
0.0
 11
4.966506559
 21
-36.1317557085
 31
0.0
  0
LINE
  5
131
330
1F
100
AcDbEntity
  8
0
  6
Continuous
 62
     7
370
    15
100
AcDbLine
 10
8.0969586166
 20
-36.1317557085
 30
0.0
 11
9.2174298123
 21
-36.3283376959
 31
0.0
  0
LINE
  5
132
330
1F
100
AcDbEntity
  8
0
  6
Continuous
 62
     7
370
    15
100
AcDbLine
 10
9.2174298123
 20
-36.3283376959
 30
0.0
 11
9.2174298123
 21
-40.6351737212
 31
0.0
  0
SPLINE
  5
133
330
1F
100
AcDbEntity
  8
0
  6
Continuous
 62
     7
370
    15
100
AcDbSpline
210
0.0
220
0.0
230
1.0
 70
     8
 71
     3
 72
     9
 73
     5
 74
     0
 42
0.00000001
 43
0.00000001
 12
1.0
 22
0.0
 32
0.0
 13
1.0
 23
0.0
 33
0.0
 40
0.0
 40
0.0
 40
0.0
 40
0.0
 40
0.0702005767034372
 40
0.9999999999999999
 40
0.9999999999999999
 40
0.9999999999999999
 40
0.9999999999999999
 10
6.492142927136124
 20
-41.08175570854799
 30
0.0
 10
6.556748351668363
 20
-41.08130959228035
 30
0.0
 10
7.477045984054353
 20
-41.07495471189954
 30
0.0
 10
8.378892988075092
 20
-40.84706523000436
 30
0.0
 10
9.217429812315492
 20
-40.63517372116293
 30
0.0
  0
LINE
  5
134
330
1F
100
AcDbEntity
  8
0
  6
Continuous
 62
     7
370
    15
100
AcDbLine
 10
3.766856042
 20
-40.6351737212
 30
0.0
 11
6.4921429271
 21
-41.0817557085
 31
0.0
  0
LINE
  5
135
330
1F
100
AcDbEntity
  8
0
  6
Continuous
 62
     7
370
    15
100
AcDbLine
 10
3.766856042
 20
-36.3283376959
 30
0.0
 11
3.766856042
 21
-40.6351737212
 31
0.0
  0
LINE
  5
136
330
1F
100
AcDbEntity
  8
0
  6
Continuous
 62
     7
370
    15
100
AcDbLine
 10
2.8676842991
 20
-36.1317557085
 30
0.0
 11
3.766856042
 21
-36.3283376959
 31
0.0
  0
SPLINE
  5
137
330
1F
100
AcDbEntity
  8
0
  6
Continuous
 62
     7
370
    15
100
AcDbSpline
210
0.0
220
0.0
230
1.0
 70
     8
 71
     3
 72
     9
 73
     5
 74
     0
 42
0.00000001
 43
0.00000001
 12
1.0
 22
0.0
 32
0.0
 13
1.0
 23
0.0
 33
0.0
 40
0.0
 40
0.0
 40
0.0
 40
0.0
 40
0.070200576703495
 40
1.0
 40
1.0
 40
1.0
 40
1.0
 10
1.579828862808552
 20
-41.08175570854822
 30
0.0
 10
1.631674347458534
 20
-41.08130959228063
 30
0.0
 10
2.370207947673786
 20
-41.07495471190048
 30
0.0
 10
3.093935023877836
 20
-40.84706523000475
 30
0.0
 10
3.766856041956312
 20
-40.63517372116277
 30
0.0
  0
LINE
  5
138
330
1F
100
AcDbEntity
  8
0
  6
Continuous
 62
     7
370
    15
100
AcDbLine
 10
6.4921429271
 20
-41.0817557085
 30
0.0
 11
1.5798288628
 21
-41.0817557085
 31
0.0
  0
LINE
  5
139
330
1F
100
AcDbEntity
  8
0
  6
Continuous
 62
     7
370
    15
100
AcDbLine
 10
-0.6071983163
 20
-36.3283376959
 30
0.0
 11
0.3555143803
 21
-36.1317557085
 31
0.0
  0
LINE
  5
13A
330
1F
100
AcDbEntity
  8
0
  6
Continuous
 62
     7
370
    15
100
AcDbLine
 10
-0.6071983163
 20
-40.6351737212
 30
0.0
 11
1.5798288628
 21
-41.0817557085
 31
0.0
  0
LINE
  5
13B
330
1F
100
AcDbEntity
  8
0
  6
Continuous
 62
     7
370
    15
100
AcDbLine
 10
-0.6071983163
 20
-36.3283376959
 30
0.0
 11
-0.6071983163
 21
-40.6351737212
 31
0.0
  0
SPLINE
  5
13C
330
1F
100
AcDbEntity
  8
0
  6
Continuous
 62
     7
370
    15
100
AcDbSpline
210
0.0
220
0.0
230
1.0
 70
     8
 71
     3
 72
     9
 73
     5
 74
     0
 42
0.00000001
 43
0.00000001
 12
1.0
 22
0.0
 32
0.0
 13
1.0
 23
0.0
 33
0.0
 40
0.0
 40
0.0
 40
0.0
 40
0.0
 40
0.2575513451038181
 40
1.0
 40
1.0
 40
1.0
 40
1.0
 10
9.217429812315492
 20
-40.63517372116293
 30
0.0
 10
9.262617649824001
 20
-40.7025889439378
 30
0.0
 10
9.438069412618432
 20
-40.96434344088151
 30
0.0
 10
9.620353180255725
 20
-41.03172692867424
 30
0.0
 10
9.75568951834721
 20
-41.08175570854827
 30
0.0
  0
LINE
  5
13D
330
1F
100
AcDbEntity
  8
0
  6
Continuous
 62
     7
370
    15
100
AcDbLine
 10
9.7556895183
 20
-41.0817557085
 30
0.0
 11
6.4921429271
 21
-41.0817557085
 31
0.0
  0
SPLINE
  5
13E
330
1F
100
AcDbEntity
  8
0
  6
Continuous
 62
     7
370
    15
100
AcDbSpline
210
0.0
220
0.0
230
1.0
 70
     8
 71
     3
 72
     9
 73
     5
 74
     0
 42
0.00000001
 43
0.00000001
 12
1.0
 22
0.0
 32
0.0
 13
1.0
 23
0.0
 33
0.0
 40
0.0
 40
0.0
 40
0.0
 40
0.0
 40
0.9250528693158226
 40
0.9999999999999999
 40
0.9999999999999999
 40
0.9999999999999999
 40
0.9999999999999999
 10
9.217429812315714
 20
-36.32833769593336
 30
0.0
 10
9.262226139701902
 20
-36.24978398316858
 30
0.0
 10
9.310651833920936
 20
-36.16486590402912
 30
0.0
 10
9.360979681082682
 20
-36.13406420733334
 30
0.0
 10
9.364751608820942
 20
-36.13175570854577
 30
0.0
  0
SPLINE
  5
13F
330
1F
100
AcDbEntity
  8
0
  6
Continuous
 62
     7
370
    15
100
AcDbSpline
210
0.0
220
0.0
230
1.0
 70
     8
 71
     3
 72
     9
 73
     5
 74
     0
 42
0.00000001
 43
0.00000001
 12
1.0
 22
0.0
 32
0.0
 13
1.0
 23
0.0
 33
0.0
 40
0.0
 40
0.0
 40
0.0
 40
0.0
 40
0.2575513451037507
 40
0.9999999999999999
 40
0.9999999999999999
 40
0.9999999999999999
 40
0.9999999999999999
 10
-0.607198316338875
 20
-40.63517372116277
 30
0.0
 10
-0.562010478830477
 20
-40.70258894393758
 30
0.0
 10
-0.3865587160368222
 20
-40.96434344088151
 30
0.0
 10
-0.2042749483995299
 20
-41.03172692867413
 30
0.0
 10
-0.0689386103078227
 20
-41.08175570854799
 30
0.0
  0
LINE
  5
140
330
1F
100
AcDbEntity
  8
0
  6
Continuous
 62
     7
370
    15
100
AcDbLine
 10
1.5798288628
 20
-41.0817557085
 30
0.0
 11
-0.1486017585
 21
-41.0817557085
 31
0.0
  0
SPLINE
  5
141
330
1F
100
AcDbEntity
  8
0
  6
Continuous
 62
     7
370
    15
100
AcDbSpline
210
0.0
220
0.0
230
1.0
 70
     8
 71
     3
 72
     9
 73
     5
 74
     0
 42
0.00000001
 43
0.00000001
 12
1.0
 22
0.0
 32
0.0
 13
1.0
 23
0.0
 33
0.0
 40
0.0
 40
0.0
 40
0.0
 40
0.0
 40
0.9250528693185073
 40
1.0
 40
1.0
 40
1.0
 40
1.0
 10
-0.607198316338986
 20
-36.32833769593319
 30
0.0
 10
-0.5624019889524656
 20
-36.24978398316853
 30
0.0
 10
-0.5139762947328763
 20
-36.1648659040294
 30
0.0
 10
-0.4636484475724623
 20
-36.13406420733328
 30
0.0
 10
-0.4598765198343124
 20
-36.13175570854577
 30
0.0
  0
LINE
  5
142
330
1F
100
AcDbEntity
  8
0
  6
Continuous
 62
     7
370
    15
100
AcDbLine
 10
10.106637401
 20
-36.1317557085
 30
0.0
 11
10.2939492244
 21
-36.3283376959
 31
0.0
  0
LINE
  5
143
330
1F
100
AcDbEntity
  8
0
  6
Continuous
 62
     7
370
    15
100
AcDbLine
 10
10.2939492244
 20
-36.3283376959
 30
0.0
 11
10.2939492244
 21
-40.6351737212
 31
0.0
  0
SPLINE
  5
144
330
1F
100
AcDbEntity
  8
0
  6
Continuous
 62
     7
370
    15
100
AcDbSpline
210
0.0
220
0.0
230
1.0
 70
     8
 71
     3
 72
     9
 73
     5
 74
     0
 42
0.00000001
 43
0.00000001
 12
1.0
 22
0.0
 32
0.0
 13
1.0
 23
0.0
 33
0.0
 40
0.0
 40
0.0
 40
0.0
 40
0.0
 40
0.2686336050555603
 40
1.0
 40
1.0
 40
1.0
 40
1.0
 10
9.75568951834721
 20
-41.08175570854827
 30
0.0
 10
9.804632387122203
 20
-41.07512675596369
 30
0.0
 10
9.986824294068331
 20
-41.05045019852738
 30
0.0
 10
10.16421304968179
 20
-40.81059543492744
 30
0.0
 10
10.29394922437882
 20
-40.63517372116282
 30
0.0
  0
LINE
  5
145
330
1F
100
AcDbEntity
  8
0
  6
Continuous
 62
     7
370
    15
100
AcDbLine
 10
10.2939492244
 20
-40.6351737212
 30
0.0
 11
8.1069220452
 21
-41.0817557085
 31
0.0
  0
LINE
  5
146
330
1F
100
AcDbEntity
  8
0
  6
Continuous
 62
     7
370
    15
100
AcDbLine
 10
10.2939492244
 20
-36.3283376959
 30
0.0
 11
9.3312365277
 21
-36.1317557085
 31
0.0
  0
LINE
  5
147
330
1F
100
AcDbEntity
  8
0
  6
Continuous
 62
     7
370
    15
100
AcDbLine
 10
0.9549978931
 20
-41.7783376959
 30
0.0
 11
3.7750905218
 21
-41.3317557085
 31
0.0
  0
SPLINE
  5
148
330
1F
100
AcDbEntity
  8
0
  6
Continuous
 62
     7
370
    15
100
AcDbSpline
210
0.0
220
0.0
230
1.0
 70
     8
 71
     3
 72
     9
 73
     5
 74
     0
 42
0.00000001
 43
0.00000001
 12
1.0
 22
0.0
 32
0.0
 13
1.0
 23
0.0
 33
0.0
 40
0.0
 40
0.0
 40
0.0
 40
0.0
 40
0.0702005767033711
 40
1.0
 40
1.0
 40
1.0
 40
1.0
 10
3.77509052180619
 20
-41.33175570854814
 30
0.0
 10
3.841943403419867
 20
-41.33220182481567
 30
0.0
 10
4.794255830939232
 20
-41.33855670519642
 30
0.0
 10
5.727475780039349
 20
-41.56644618709166
 30
0.0
 10
6.595183150521711
 20
-41.77833769593315
 30
0.0
  0
LINE
  5
149
330
1F
100
AcDbEntity
  8
0
  6
Continuous
 62
     7
370
    15
100
AcDbLine
 10
6.5951831505
 20
-41.7783376959
 30
0.0
 11
6.5951831505
 21
-46.0851737212
 31
0.0
  0
SPLINE
  5
14A
330
1F
100
AcDbEntity
  8
0
  6
Continuous
 62
     7
370
    15
100
AcDbSpline
210
0.0
220
0.0
230
1.0
 70
     8
 71
     3
 72
     9
 73
     5
 74
     0
 42
0.00000001
 43
0.00000001
 12
1.0
 22
0.0
 32
0.0
 13
1.0
 23
0.0
 33
0.0
 40
0.0
 40
0.0
 40
0.0
 40
0.0
 40
0.070200576703507
 40
1.0
 40
1.0
 40
1.0
 40
1.0
 10
3.775090521805968
 20
-46.53175570854822
 30
0.0
 10
3.841943403419867
 20
-46.53130959228064
 30
0.0
 10
4.79425583094012
 20
-46.52495471190004
 30
0.0
 10
5.727475780039681
 20
-46.29706523000448
 30
0.0
 10
6.595183150521489
 20
-46.08517372116272
 30
0.0
  0
LINE
  5
14B
330
1F
100
AcDbEntity
  8
0
  6
Continuous
 62
     7
370
    15
100
AcDbLine
 10
0.9549978931
 20
-46.0851737212
 30
0.0
 11
3.7750905218
 21
-46.5317557085
 31
0.0
  0
LINE
  5
14C
330
1F
100
AcDbEntity
  8
0
  6
Continuous
 62
     7
370
    15
100
AcDbLine
 10
0.9549978931
 20
-41.7783376959
 30
0.0
 11
0.9549978931
 21
-46.0851737212
 31
0.0
  0
LINE
  5
14D
330
1F
100
AcDbEntity
  8
0
  6
Continuous
 62
     7
370
    15
100
AcDbLine
 10
6.5951831505
 20
-41.7783376959
 30
0.0
 11
8.539371931
 21
-41.3317557085
 31
0.0
  0
LINE
  5
14E
330
1F
100
AcDbEntity
  8
0
  6
Continuous
 62
     7
370
    15
100
AcDbLine
 10
3.7750905218
 20
-41.3317557085
 30
0.0
 11
8.539371931
 21
-41.3317557085
 31
0.0
  0
LINE
  5
14F
330
1F
100
AcDbEntity
  8
0
  6
Continuous
 62
     7
370
    15
100
AcDbLine
 10
6.5951831505
 20
-46.0851737212
 30
0.0
 11
8.539371931
 21
-46.5317557085
 31
0.0
  0
SPLINE
  5
150
330
1F
100
AcDbEntity
  8
0
  6
Continuous
 62
     7
370
    15
100
AcDbSpline
210
0.0
220
0.0
230
1.0
 70
     8
 71
     3
 72
     9
 73
     5
 74
     0
 42
0.00000001
 43
0.00000001
 12
1.0
 22
0.0
 32
0.0
 13
1.0
 23
0.0
 33
0.0
 40
0.0
 40
0.0
 40
0.0
 40
0.0
 40
0.2575513451037537
 40
1.0
 40
1.0
 40
1.0
 40
1.0
 10
0.954997893090892
 20
-46.08517372116277
 30
0.0
 10
0.8814642432107278
 20
-46.15258894393764
 30
0.0
 10
0.5959536012431488
 20
-46.41434344088147
 30
0.0
 10
0.2993253161274745
 20
-46.48172692867419
 30
0.0
 10
0.0790940448395783
 20
-46.53175570854795
 30
0.0
  0
SPLINE
  5
151
330
1F
100
AcDbEntity
  8
0
  6
Continuous
 62
     7
370
    15
100
AcDbSpline
210
0.0
220
0.0
230
1.0
 70
     8
 71
     3
 72
     9
 73
     5
 74
     0
 42
0.00000001
 43
0.00000001
 12
1.0
 22
0.0
 32
0.0
 13
1.0
 23
0.0
 33
0.0
 40
0.0
 40
0.0
 40
0.0
 40
0.0
 40
0.2575513451037955
 40
1.0
 40
1.0
 40
1.0
 40
1.0
 10
0.954997893090892
 20
-41.7783376959332
 30
0.0
 10
0.8814642432108388
 20
-41.71092247315828
 30
0.0
 10
0.5959536012431488
 20
-41.4491679762144
 30
0.0
 10
0.2993253161278076
 20
-41.38178448842178
 30
0.0
 10
0.0790940448399113
 20
-41.33175570854786
 30
0.0
  0
LINE
  5
152
330
1F
100
AcDbEntity
  8
0
  6
Continuous
 62
     7
370
    15
100
AcDbLine
 10
0.0790940448
 20
-41.3317557085
 30
0.0
 11
3.7750905218
 21
-41.3317557085
 31
0.0
  0
SPLINE
  5
153
330
1F
100
AcDbEntity
  8
0
  6
Continuous
 62
     7
370
    15
100
AcDbSpline
210
0.0
220
0.0
230
1.0
 70
     8
 71
     3
 72
     9
 73
     5
 74
     0
 42
0.00000001
 43
0.00000001
 12
1.0
 22
0.0
 32
0.0
 13
1.0
 23
0.0
 33
0.0
 40
0.0
 40
0.0
 40
0.0
 40
0.0
 40
0.0702005767033683
 40
1.0
 40
1.0
 40
1.0
 40
1.0
 10
8.539371930986139
 20
-41.33175570854808
 30
0.0
 10
8.585460708727622
 20
-41.33220182481573
 30
0.0
 10
9.241990610699247
 20
-41.3385567051962
 30
0.0
 10
9.88535804348184
 20
-41.5664461870916
 30
0.0
 10
10.48356071145079
 20
-41.77833769593337
 30
0.0
  0
LINE
  5
154
330
1F
100
AcDbEntity
  8
0
  6
Continuous
 62
     7
370
    15
100
AcDbLine
 10
10.4835607115
 20
-41.7783376959
 30
0.0
 11
10.4835607115
 21
-42.1317557085
 31
0.0
  0
SPLINE
  5
155
330
1F
100
AcDbEntity
  8
0
  6
Continuous
 62
     7
370
    15
100
AcDbSpline
210
0.0
220
0.0
230
1.0
 70
     8
 71
     3
 72
     9
 73
     5
 74
     0
 42
0.00000001
 43
0.00000001
 12
1.0
 22
0.0
 32
0.0
 13
1.0
 23
0.0
 33
0.0
 40
0.0
 40
0.0
 40
0.0
 40
0.0
 40
0.5278771639354616
 40
1.0
 40
1.0
 40
1.0
 40
1.0
 10
8.539371930986139
 20
-46.53175570854806
 30
0.0
 10
8.58560167508876
 20
-46.53368216586018
 30
0.0
 10
8.673178382817392
 20
-46.53733160827528
 30
0.0
 10
8.759004658834002
 20
-46.51151992251784
 30
0.0
 10
8.799525203675607
 20
-46.49933363623443
 30
0.0
  0
LINE
  5
156
330
1F
100
AcDbEntity
  8
0
  6
Continuous
 62
     7
370
    15
100
AcDbLine
 10
-0.3928864204
 20
-46.34567686
 30
0.0
 11
-0.7968098034
 21
-46.0851737212
 31
0.0
  0
LINE
  5
157
330
1F
100
AcDbEntity
  8
0
  6
Continuous
 62
     7
370
    15
100
AcDbLine
 10
-0.7968098034
 20
-41.7783376959
 30
0.0
 11
-0.7968098034
 21
-46.0851737212
 31
0.0
  0
SPLINE
  5
158
330
1F
100
AcDbEntity
  8
0
  6
Continuous
 62
     7
370
    15
100
AcDbSpline
210
0.0
220
0.0
230
1.0
 70
     8
 71
     3
 72
     9
 73
     5
 74
     0
 42
0.00000001
 43
0.00000001
 12
1.0
 22
0.0
 32
0.0
 13
1.0
 23
0.0
 33
0.0
 40
0.0
 40
0.0
 40
0.0
 40
0.0
 40
0.268633605055601
 40
1.0
 40
1.0
 40
1.0
 40
1.0
 10
0.0790940448399113
 20
-41.33175570854786
 30
0.0
 10
-0.0005501243671158
 20
-41.33838466113238
 30
0.0
 10
-0.2970289256346015
 20
-41.36306121856864
 30
0.0
 10
-0.5856916138074486
 20
-41.6029159821687
 30
0.0
 10
-0.7968098034112914
 20
-41.77833769593309
 30
0.0
  0
SPLINE
  5
159
330
1F
100
AcDbEntity
  8
0
  6
Continuous
 62
     7
370
    15
100
AcDbSpline
210
0.0
220
0.0
230
1.0
 70
     8
 71
     3
 72
     9
 73
     5
 74
     0
 42
0.00000001
 43
0.00000001
 12
1.0
 22
0.0
 32
0.0
 13
1.0
 23
0.0
 33
0.0
 40
0.0
 40
0.0
 40
0.0
 40
0.0
 40
0.55693421104919
 40
1.0
 40
1.0
 40
1.0
 40
1.0
 10
10.48356071145079
 20
-41.77833769593337
 30
0.0
 10
10.41031280893884
 20
-41.70592671968903
 30
0.0
 10
10.27879296142581
 20
-41.57590961029312
 30
0.0
 10
10.1421318173463
 20
-41.5357783686765
 30
0.0
 10
10.08158193972569
 20
-41.51799758844798
 30
0.0
  0
LINE
  5
15A
330
1F
100
AcDbEntity
  8
0
  6
Continuous
 62
     7
370
    15
100
AcDbLine
 10
8.539371931
 20
-41.3317557085
 30
0.0
 11
9.843375454
 21
-41.3317557085
 31
0.0
  0
LINE
  5
15B
330
1F
100
AcDbEntity
  8
0
  6
Continuous
 62
     7
370
    15
100
AcDbLine
 10
0.0790940448
 20
-41.3317557085
 30
0.0
 11
-0.156624546
 21
-41.3317557085
 31
0.0
  0
LINE
  5
15C
330
1F
100
AcDbEntity
  8
0
  6
Continuous
 62
     7
370
    15
100
AcDbLine
 10
-50.7729151749
 20
691.0682442915
 30
0.0
 11
-50.7729151749
 21
691.2682442908
 31
0.0
  0
LINE
  5
15D
330
1F
100
AcDbEntity
  8
0
  6
Continuous
 62
     7
370
    15
100
AcDbLine
 10
-8.1729151749
 20
691.2682442908
 30
0.0
 11
-8.1729151749
 21
691.0682442915
 31
0.0
  0
SPLINE
  5
15E
330
1F
100
AcDbEntity
  8
0
  6
Continuous
 62
     7
370
    15
100
AcDbSpline
210
0.0
220
0.0
230
1.0
 70
     8
 71
     3
 72
     9
 73
     5
 74
     0
 42
0.00000001
 43
0.00000001
 12
1.0
 22
0.0
 32
0.0
 13
1.0
 23
0.0
 33
0.0
 40
0.0
 40
0.0
 40
0.0
 40
0.0
 40
0.4957807219113131
 40
1.0
 40
1.0
 40
1.0
 40
1.0
 10
820.0297836943173
 20
564.1857150433814
 30
0.0
 10
819.7182535846448
 20
564.5250936797529
 30
0.0
 10
819.0898908914131
 20
565.2096274289943
 30
0.0
 10
817.8803195909888
 20
565.5893558871385
 30
0.0
 10
817.2704304230921
 20
565.7808222961736
 30
0.0
  0
LINE
  5
15F
330
1F
100
AcDbEntity
  8
0
  6
Continuous
 62
     7
370
    15
100
AcDbLine
 10
820.0297836943
 20
564.1857150434
 30
0.0
 11
820.1133025174
 21
564.1118704375
 31
0.0
  0
LINE
  5
160
330
1F
100
AcDbEntity
  8
0
  6
Continuous
 62
     7
370
    15
100
AcDbLine
 10
821.9967131248
 20
555.3907313323
 30
0.0
 11
816.9948811801
 21
566.117194553
 31
0.0
  0
SPLINE
  5
161
330
1F
100
AcDbEntity
  8
0
  6
Continuous
 62
     7
370
    15
100
AcDbSpline
210
0.0
220
0.0
230
1.0
 70
     8
 71
     3
 72
    11
 73
     7
 74
     0
 42
0.00000001
 43
0.00000001
 12
1.0
 22
0.0
 32
0.0
 13
1.0
 23
0.0
 33
0.0
 40
0.0
 40
0.0
 40
0.0
 40
0.0
 40
0.2674052398524739
 40
0.5345854440016493
 40
0.808048930846255
 40
1.0
 40
1.0
 40
1.0
 40
1.0
 10
816.9948811800567
 20
566.1171945530035
 30
0.0
 10
817.0188557913999
 20
566.0699477783351
 30
0.0
 10
817.066784838178
 20
565.975493989667
 30
0.0
 10
817.1477332147163
 20
565.8666579118917
 30
0.0
 10
817.2176825133575
 20
565.8010298615766
 30
0.0
 10
817.2550280088468
 20
565.7867229146965
 30
0.0
 10
817.2704304230921
 20
565.7808222961736
 30
0.0
  0
SPLINE
  5
162
330
1F
100
AcDbEntity
  8
0
  6
Continuous
 62
     7
370
    15
100
AcDbSpline
210
0.0
220
0.0
230
1.0
 70
     8
 71
     3
 72
     9
 73
     5
 74
     0
 42
0.00000001
 43
0.00000001
 12
1.0
 22
0.0
 32
0.0
 13
1.0
 23
0.0
 33
0.0
 40
0.0
 40
0.0
 40
0.0
 40
0.0
 40
0.4957807219113138
 40
1.0
 40
1.0
 40
1.0
 40
1.0
 10
815.5072955436791
 20
569.5618772468665
 30
0.0
 10
815.7493835435553
 20
570.1425650265727
 30
0.0
 10
816.2376800609006
 20
571.3138243233594
 30
0.0
 10
816.1189277795596
 20
572.2360006057363
 30
0.0
 10
816.0590505899905
 20
572.7009796651068
 30
0.0
  0
SPLINE
  5
163
330
1F
100
AcDbEntity
  8
0
  6
Continuous
 62
     7
370
    15
100
AcDbSpline
210
0.0
220
0.0
230
1.0
 70
     8
 71
     3
 72
    11
 73
     7
 74
     0
 42
0.00000001
 43
0.00000001
 12
1.0
 22
0.0
 32
0.0
 13
1.0
 23
0.0
 33
0.0
 40
0.0
 40
0.0
 40
0.0
 40
0.0
 40
0.294272455723018
 40
0.5890262479634775
 40
0.8714554557704228
 40
1.0
 40
1.0
 40
1.0
 40
1.0
 10
815.5072955436791
 20
569.5618772468665
 30
0.0
 10
815.5000018559397
 20
569.5363334366373
 30
0.0
 10
815.485402550298
 20
569.485204034597
 30
0.0
 10
815.5048651772028
 20
569.3560121909853
 30
0.0
 10
815.544233322093
 20
569.2322594161678
 30
0.0
 10
815.5774595034757
 20
569.1578516531372
 30
0.0
 10
815.5878520025615
 20
569.1345783615011
 30
0.0
  0
LINE
  5
164
330
1F
100
AcDbEntity
  8
0
  6
Continuous
 62
     7
370
    15
100
AcDbLine
 10
815.5878520026
 20
569.1345783615
 30
0.0
 11
810.5860200578
 21
579.8610415822
 31
0.0
  0
LINE
  5
165
330
1F
100
AcDbEntity
  8
0
  6
Continuous
 62
     7
370
    15
100
AcDbLine
 10
816.05905059
 20
572.7009796651
 30
0.0
 11
816.0561672046
 21
572.8124251931
 31
0.0
  0
LINE
  5
166
330
1F
100
AcDbEntity
  8
0
  6
Continuous
 62
     7
370
    15
100
AcDbLine
 10
826.4936788567
 20
574.2200489421
 30
0.0
 11
815.5878520026
 21
569.1345783615
 31
0.0
  0
LINE
  5
167
330
1F
100
AcDbEntity
  8
0
  6
Continuous
 62
     7
370
    15
100
AcDbLine
 10
826.4936788567
 20
574.2200489421
 30
0.0
 11
827.9007080342
 21
571.2026651336
 31
0.0
  0
LINE
  5
168
330
1F
100
AcDbEntity
  8
0
  6
Continuous
 62
     7
370
    15
100
AcDbLine
 10
816.9948811801
 20
566.117194553
 30
0.0
 11
827.9007080342
 21
571.2026651336
 31
0.0
  0
LINE
  5
169
330
1F
100
AcDbEntity
  8
0
  6
Continuous
 62
     7
370
    15
100
AcDbLine
 10
826.3156260057
 20
574.6018845132
 30
0.0
 11
815.5072955437
 21
569.5618772469
 31
0.0
  0
LINE
  5
16A
330
1F
100
AcDbEntity
  8
0
  6
Continuous
 62
     7
370
    15
100
AcDbLine
 10
826.4936788567
 20
574.2200489421
 30
0.0
 11
826.3156260057
 21
574.6018845132
 31
0.0
  0
LINE
  5
16B
330
1F
100
AcDbEntity
  8
0
  6
Continuous
 62
     7
370
    15
100
AcDbLine
 10
817.2704304231
 20
565.7808222962
 30
0.0
 11
828.0787608851
 21
570.8208295625
 31
0.0
  0
LINE
  5
16C
330
1F
100
AcDbEntity
  8
0
  6
Continuous
 62
     7
370
    15
100
AcDbLine
 10
828.0787608851
 20
570.8208295625
 30
0.0
 11
827.9007080342
 21
571.2026651336
 31
0.0
  0
LINE
  5
16D
330
1F
100
AcDbEntity
  8
0
  6
Continuous
 62
     7
370
    15
100
AcDbLine
 10
829.1825599976
 20
568.453724727
 30
0.0
 11
820.0297836943
 21
564.1857150434
 31
0.0
  0
LINE
  5
16E
330
1F
100
AcDbEntity
  8
0
  6
Continuous
 62
     7
370
    15
100
AcDbLine
 10
828.0787608851
 20
570.8208295625
 30
0.0
 11
829.1825599976
 21
568.453724727
 31
0.0
  0
LINE
  5
16F
330
1F
100
AcDbEntity
  8
0
  6
Continuous
 62
     7
370
    15
100
AcDbLine
 10
816.05905059
 20
572.7009796651
 30
0.0
 11
825.2118268932
 21
576.9689893487
 31
0.0
  0
LINE
  5
170
330
1F
100
AcDbEntity
  8
0
  6
Continuous
 62
     7
370
    15
100
AcDbLine
 10
825.2118268932
 20
576.9689893487
 30
0.0
 11
826.3156260057
 21
574.6018845132
 31
0.0
  0
LINE
  5
171
330
1F
100
AcDbEntity
  8
0
  6
Continuous
 62
     7
370
    15
100
AcDbLine
 10
820.1133025174
 20
564.1118704375
 30
0.0
 11
829.2257611018
 21
568.3610796601
 31
0.0
  0
LINE
  5
172
330
1F
100
AcDbEntity
  8
0
  6
Continuous
 62
     7
370
    15
100
AcDbLine
 10
829.1825599976
 20
568.453724727
 30
0.0
 11
829.2257611018
 21
568.3610796601
 31
0.0
  0
LINE
  5
173
330
1F
100
AcDbEntity
  8
0
  6
Continuous
 62
     7
370
    15
100
AcDbLine
 10
825.1686257891
 20
577.0616344156
 30
0.0
 11
816.0561672046
 21
572.8124251931
 31
0.0
  0
LINE
  5
174
330
1F
100
AcDbEntity
  8
0
  6
Continuous
 62
     7
370
    15
100
AcDbLine
 10
825.2118268932
 20
576.9689893487
 30
0.0
 11
825.1686257891
 21
577.0616344156
 31
0.0
  0
LINE
  5
175
330
1F
100
AcDbEntity
  8
0
  6
Continuous
 62
     7
370
    15
100
AcDbLine
 10
833.9557385886
 20
496.4422259839
 30
0.0
 11
833.230692359
 21
496.7803205933
 31
0.0
  0
LINE
  5
176
330
1F
100
AcDbEntity
  8
0
  6
Continuous
 62
     7
370
    15
100
AcDbLine
 10
833.9557385886
 20
496.4422259839
 30
0.0
 11
816.0787585316
 21
458.1049185339
 31
0.0
  0
LINE
  5
177
330
1F
100
AcDbEntity
  8
0
  6
Continuous
 62
     7
370
    15
100
AcDbLine
 10
815.353712302
 20
458.4430131433
 30
0.0
 11
816.0787585316
 21
458.1049185339
 31
0.0
  0
LINE
  5
178
330
1F
100
AcDbEntity
  8
0
  6
Continuous
 62
     7
370
    15
100
AcDbLine
 10
833.230692359
 20
496.7803205933
 30
0.0
 11
815.353712302
 21
458.4430131433
 31
0.0
  0
ARC
  5
179
330
1F
100
AcDbEntity
  8
0
  6
Continuous
 62
     7
370
    15
100
AcDbCircle
 10
831.8712306784
 20
497.4142479859
 30
0.0
 40
2.299999999999972
100
AcDbArc
 50
335.0
 51
25.0
  0
ARC
  5
17A
330
1F
100
AcDbEntity
  8
0
  6
Continuous
 62
     7
370
    15
100
AcDbCircle
 10
831.8712306784
 20
497.4142479859
 30
0.0
 40
1.50000000000002
100
AcDbArc
 50
335.0
 51
25.0
  0
LINE
  5
17B
330
1F
100
AcDbEntity
  8
0
  6
Continuous
 62
     7
370
    15
100
AcDbLine
 10
833.230692359
 20
498.0481753785
 30
0.0
 11
833.9557385886
 21
498.3862699879
 31
0.0
  0
LINE
  5
17C
330
1F
100
AcDbEntity
  8
0
  6
Continuous
 62
     7
370
    15
100
AcDbLine
 10
816.2055440101
 20
536.4516851017
 30
0.0
 11
815.4804977805
 21
536.1135904924
 31
0.0
  0
LINE
  5
17D
330
1F
100
AcDbEntity
  8
0
  6
Continuous
 62
     7
370
    15
100
AcDbLine
 10
816.2055440101
 20
536.4516851017
 30
0.0
 11
833.9557385886
 21
498.3862699879
 31
0.0
  0
LINE
  5
17E
330
1F
100
AcDbEntity
  8
0
  6
Continuous
 62
     7
370
    15
100
AcDbLine
 10
815.4804977805
 20
536.1135904924
 30
0.0
 11
833.230692359
 21
498.0481753785
 31
0.0
  0
LINE
  5
17F
330
1F
100
AcDbEntity
  8
0
  6
Continuous
 62
     7
370
    15
100
AcDbLine
 10
845.6185356892
 20
530.6373992053
 30
0.0
 11
844.8934894596
 21
530.2993045959
 31
0.0
  0
LINE
  5
180
330
1F
100
AcDbEntity
  8
0
  6
Continuous
 62
     7
370
    15
100
AcDbLine
 10
844.8934894596
 20
530.2993045959
 30
0.0
 11
842.7803981509
 21
534.8308435311
 31
0.0
  0
LINE
  5
181
330
1F
100
AcDbEntity
  8
0
  6
Continuous
 62
     7
370
    15
100
AcDbLine
 10
842.7803981509
 20
534.8308435311
 30
0.0
 11
843.5054443805
 21
535.1689381405
 31
0.0
  0
LINE
  5
182
330
1F
100
AcDbEntity
  8
0
  6
Continuous
 62
     7
370
    15
100
AcDbLine
 10
843.5054443805
 20
535.1689381405
 30
0.0
 11
845.6185356892
 21
530.6373992053
 31
0.0
  0
LINE
  5
183
330
1F
100
AcDbEntity
  8
0
  6
Continuous
 62
     7
370
    15
100
AcDbLine
 10
838.1381924564
 20
546.6790470359
 30
0.0
 11
837.4131462268
 21
546.3409524265
 31
0.0
  0
LINE
  5
184
330
1F
100
AcDbEntity
  8
0
  6
Continuous
 62
     7
370
    15
100
AcDbLine
 10
842.7803981509
 20
534.8308435311
 30
0.0
 11
837.4131462268
 21
546.3409524265
 31
0.0
  0
LINE
  5
185
330
1F
100
AcDbEntity
  8
0
  6
Continuous
 62
     7
370
    15
100
AcDbLine
 10
843.5054443805
 20
535.1689381405
 30
0.0
 11
838.1381924564
 21
546.6790470359
 31
0.0
  0
LINE
  5
186
330
1F
100
AcDbEntity
  8
0
  6
Continuous
 62
     7
370
    15
100
AcDbLine
 10
813.9656672229
 20
453.5733795987
 30
0.0
 11
813.2406209933
 21
453.9114742081
 31
0.0
  0
LINE
  5
187
330
1F
100
AcDbEntity
  8
0
  6
Continuous
 62
     7
370
    15
100
AcDbLine
 10
816.0787585316
 20
458.1049185339
 30
0.0
 11
813.9656672229
 21
453.5733795987
 31
0.0
  0
LINE
  5
188
330
1F
100
AcDbEntity
  8
0
  6
Continuous
 62
     7
370
    15
100
AcDbLine
 10
813.2406209933
 20
453.9114742081
 30
0.0
 11
815.353712302
 21
458.4430131433
 31
0.0
  0
LINE
  5
189
330
1F
100
AcDbEntity
  8
0
  6
Continuous
 62
     7
370
    15
100
AcDbLine
 10
835.4197571536
 20
547.0664867144
 30
0.0
 11
835.0816625442
 21
547.791532944
 31
0.0
  0
LINE
  5
18A
330
1F
100
AcDbEntity
  8
0
  6
Continuous
 62
     7
370
    15
100
AcDbLine
 10
816.5929836887
 20
539.1701204045
 30
0.0
 11
816.9310782981
 21
538.4450741749
 31
0.0
  0
LINE
  5
18B
330
1F
100
AcDbEntity
  8
0
  6
Continuous
 62
     7
370
    15
100
AcDbLine
 10
835.4197571536
 20
547.0664867144
 30
0.0
 11
816.9310782981
 21
538.4450741749
 31
0.0
  0
LINE
  5
18C
330
1F
100
AcDbEntity
  8
0
  6
Continuous
 62
     7
370
    15
100
AcDbLine
 10
835.0816625442
 20
547.791532944
 30
0.0
 11
816.5929836887
 21
539.1701204045
 31
0.0
  0
ARC
  5
18D
330
1F
100
AcDbEntity
  8
0
  6
Continuous
 62
     7
370
    15
100
AcDbCircle
 10
817.5650056907
 20
537.0856124944
 30
0.0
 40
1.500000000000044
100
AcDbArc
 50
115.0
 51
205.0
  0
ARC
  5
18E
330
1F
100
AcDbEntity
  8
0
  6
Continuous
 62
     7
370
    15
100
AcDbCircle
 10
817.5650056907
 20
537.0856124944
 30
0.0
 40
2.299999999999972
100
AcDbArc
 50
115.0
 51
205.0
  0
ARC
  5
18F
330
1F
100
AcDbEntity
  8
0
  6
Continuous
 62
     7
370
    15
100
AcDbCircle
 10
836.0536845462
 20
545.7070250339
 30
0.0
 40
1.499999999999996
100
AcDbArc
 50
25.0
 51
115.0
  0
ARC
  5
190
330
1F
100
AcDbEntity
  8
0
  6
Continuous
 62
     7
370
    15
100
AcDbCircle
 10
836.0536845462
 20
545.7070250339
 30
0.0
 40
2.299999999999972
100
AcDbArc
 50
25.0
 51
115.0
  0
CIRCLE
  5
191
330
1F
100
AcDbEntity
  8
0
  6
Continuous
 62
     7
370
    15
100
AcDbCircle
 10
399.3022681445
 20
671.0682442915
 30
0.0
 40
2.524999999999977
  0
CIRCLE
  5
192
330
1F
100
AcDbEntity
  8
0
  6
Continuous
 62
     7
370
    15
100
AcDbCircle
 10
399.3022681445
 20
671.0682442915
 30
0.0
 40
2.100000000000023
  0
CIRCLE
  5
193
330
1F
100
AcDbEntity
  8
0
  6
Continuous
 62
     7
370
    15
100
AcDbCircle
 10
9.3022681445
 20
671.0682442915
 30
0.0
 40
2.524999999999999
  0
CIRCLE
  5
194
330
1F
100
AcDbEntity
  8
0
  6
Continuous
 62
     7
370
    15
100
AcDbCircle
 10
9.3022681445
 20
671.0682442915
 30
0.0
 40
2.099999999999991
  0
LINE
  5
195
330
1F
100
AcDbEntity
  8
0
  6
Continuous
 62
     7
370
    15
100
AcDbLine
 10
810.3355928604
 20
639.2299574336
 30
0.0
 11
809.4903563369
 21
641.0425730077
 31
0.0
  0
LINE
  5
196
330
1F
100
AcDbEntity
  8
0
  6
Continuous
 62
     7
370
    15
100
AcDbLine
 10
791.9439678107
 20
632.860557665
 30
0.0
 11
792.7892043342
 21
631.0479420909
 31
0.0
  0
LINE
  5
197
330
1F
100
AcDbEntity
  8
0
  6
Continuous
 62
     7
370
    15
100
AcDbLine
 10
809.4903563369
 20
641.0425730077
 30
0.0
 11
791.9439678107
 21
632.860557665
 31
0.0
  0
LINE
  5
198
330
1F
100
AcDbEntity
  8
0
  6
Continuous
 62
     7
370
    15
100
AcDbLine
 10
810.3355928604
 20
639.2299574336
 30
0.0
 11
792.7892043342
 21
631.0479420909
 31
0.0
  0
LINE
  5
199
330
1F
100
AcDbEntity
  8
0
  6
Continuous
 62
     7
370
    15
100
AcDbLine
 10
790.9765887601
 20
630.2027055674
 30
0.0
 11
790.1313522367
 21
632.0153211415
 31
0.0
  0
LINE
  5
19A
330
1F
100
AcDbEntity
  8
0
  6
Continuous
 62
     7
370
    15
100
AcDbLine
 10
790.1313522367
 20
632.0153211415
 30
0.0
 11
791.9439678107
 21
632.860557665
 31
0.0
  0
LINE
  5
19B
330
1F
100
AcDbEntity
  8
0
  6
Continuous
 62
     7
370
    15
100
AcDbLine
 10
792.7892043342
 20
631.0479420909
 30
0.0
 11
790.9765887601
 21
630.2027055674
 31
0.0
  0
LINE
  5
19C
330
1F
100
AcDbEntity
  8
0
  6
Continuous
 62
     7
370
    15
100
AcDbLine
 10
830.577961589
 20
675.9968251506
 30
0.0
 11
828.7653460149
 21
676.842061674
 31
0.0
  0
LINE
  5
19D
330
1F
100
AcDbEntity
  8
0
  6
Continuous
 62
     7
370
    15
100
AcDbLine
 10
830.577961589
 20
675.9968251506
 30
0.0
 11
816.139867164
 21
645.0342317372
 31
0.0
  0
LINE
  5
19E
330
1F
100
AcDbEntity
  8
0
  6
Continuous
 62
     7
370
    15
100
AcDbLine
 10
814.3272515899
 20
645.8794682606
 30
0.0
 11
816.139867164
 21
645.0342317372
 31
0.0
  0
LINE
  5
19F
330
1F
100
AcDbEntity
  8
0
  6
Continuous
 62
     7
370
    15
100
AcDbLine
 10
828.7653460149
 20
676.842061674
 30
0.0
 11
814.3272515899
 21
645.8794682606
 31
0.0
  0
ARC
  5
1A0
330
1F
100
AcDbEntity
  8
0
  6
Continuous
 62
     7
370
    15
100
AcDbCircle
 10
819.7022681445
 20
681.0682442915
 30
0.0
 40
12.0
100
AcDbArc
 50
335.0
 51
90.0
  0
LINE
  5
1A1
330
1F
100
AcDbEntity
  8
0
  6
Continuous
 62
     7
370
    15
100
AcDbLine
 10
819.7022681445
 20
691.0682442915
 30
0.0
 11
819.7022681445
 21
693.0682442915
 31
0.0
  0
ARC
  5
1A2
330
1F
100
AcDbEntity
  8
0
  6
Continuous
 62
     7
370
    15
100
AcDbCircle
 10
819.7022681445
 20
681.0682442915
 30
0.0
 40
10.0
100
AcDbArc
 50
335.0
 51
90.0
  0
LINE
  5
1A3
330
1F
100
AcDbEntity
  8
0
  6
Continuous
 62
     7
370
    15
100
AcDbLine
 10
764.1522681445
 20
693.0682442915
 30
0.0
 11
764.1522681445
 21
691.0682442915
 31
0.0
  0
LINE
  5
1A4
330
1F
100
AcDbEntity
  8
0
  6
Continuous
 62
     7
370
    15
100
AcDbLine
 10
764.1522681445
 20
693.0682442915
 30
0.0
 11
819.7022681445
 21
693.0682442915
 31
0.0
  0
LINE
  5
1A5
330
1F
100
AcDbEntity
  8
0
  6
Continuous
 62
     7
370
    15
100
AcDbLine
 10
764.1522681445
 20
691.0682442915
 30
0.0
 11
819.7022681445
 21
691.0682442915
 31
0.0
  0
ARC
  5
1A6
330
1F
100
AcDbEntity
  8
0
  6
Continuous
 62
     7
370
    15
100
AcDbCircle
 10
805.2641737195
 20
650.105650878
 30
0.0
 40
10.00000000000018
100
AcDbArc
 50
295.0
 51
335.0
  0
ARC
  5
1A7
330
1F
100
AcDbEntity
  8
0
  6
Continuous
 62
     7
370
    15
100
AcDbCircle
 10
805.2641737195
 20
650.105650878
 30
0.0
 40
12.00000000000011
100
AcDbArc
 50
295.0
 51
335.0
  0
LINE
  5
1A8
330
1F
100
AcDbEntity
  8
0
  6
Continuous
 62
     7
370
    15
100
AcDbLine
 10
43.4522681445
 20
691.0682442915
 30
0.0
 11
43.4522681445
 21
693.0682442915
 31
0.0
  0
LINE
  5
1A9
330
1F
100
AcDbEntity
  8
0
  6
Continuous
 62
     7
370
    15
100
AcDbLine
 10
43.4522681445
 20
693.0682442915
 30
0.0
 11
764.1522681445
 21
693.0682442915
 31
0.0
  0
LINE
  5
1AA
330
1F
100
AcDbEntity
  8
0
  6
Continuous
 62
     7
370
    15
100
AcDbLine
 10
43.4522681445
 20
691.0682442915
 30
0.0
 11
764.1522681445
 21
691.0682442915
 31
0.0
  0
ARC
  5
1AB
330
1F
100
AcDbEntity
  8
0
  6
Continuous
 62
     7
370
    15
100
AcDbCircle
 10
-64.0508760843
 20
706.8182442915
 30
0.0
 40
4.250000000000114
100
AcDbArc
 50
90.0
 51
180.0
  0
LINE
  5
1AC
330
1F
100
AcDbEntity
  8
0
  6
Continuous
 62
     7
370
    15
100
AcDbLine
 10
-64.0508760843
 20
711.0682442915
 30
0.0
 11
-64.0508760843
 21
709.0682442915
 31
0.0
  0
ARC
  5
1AD
330
1F
100
AcDbEntity
  8
0
  6
Continuous
 62
     7
370
    15
100
AcDbCircle
 10
-64.0508760843
 20
706.8182442915
 30
0.0
 40
2.250000000000114
100
AcDbArc
 50
90.0
 51
180.0
  0
LINE
  5
1AE
330
1F
100
AcDbEntity
  8
0
  6
Continuous
 62
     7
370
    15
100
AcDbLine
 10
-66.3008760843
 20
706.8182442915
 30
0.0
 11
-68.3008760843
 21
706.8182442915
 31
0.0
  0
ARC
  5
1AF
330
1F
100
AcDbEntity
  8
0
  6
Continuous
 62
     7
370
    15
100
AcDbCircle
 10
2.4491239157
 20
706.8182442915
 30
0.0
 40
4.250000000000114
100
AcDbArc
 50
0.0
 51
90.0
  0
LINE
  5
1B0
330
1F
100
AcDbEntity
  8
0
  6
Continuous
 62
     7
370
    15
100
AcDbLine
 10
6.6991239157
 20
706.8182442915
 30
0.0
 11
4.6991239157
 21
706.8182442915
 31
0.0
  0
ARC
  5
1B1
330
1F
100
AcDbEntity
  8
0
  6
Continuous
 62
     7
370
    15
100
AcDbCircle
 10
2.4491239157
 20
706.8182442915
 30
0.0
 40
2.250000000000114
100
AcDbArc
 50
0.0
 51
90.0
  0
LINE
  5
1B2
330
1F
100
AcDbEntity
  8
0
  6
Continuous
 62
     7
370
    15
100
AcDbLine
 10
2.4491239157
 20
709.0682442915
 30
0.0
 11
2.4491239157
 21
711.0682442915
 31
0.0
  0
LINE
  5
1B3
330
1F
100
AcDbEntity
  8
0
  6
Continuous
 62
     7
370
    15
100
AcDbLine
 10
-64.0508760843
 20
693.0682442914
 30
0.0
 11
-64.0508760843
 21
691.0682442914
 31
0.0
  0
LINE
  5
1B4
330
1F
100
AcDbEntity
  8
0
  6
Continuous
 62
     7
370
    15
100
AcDbLine
 10
-55.3008760843
 20
693.0682442914
 30
0.0
 11
-64.0508760843
 21
693.0682442914
 31
0.0
  0
LINE
  5
1B5
330
1F
100
AcDbEntity
  8
0
  6
Continuous
 62
     7
370
    15
100
AcDbLine
 10
-55.3008760843
 20
691.0682442914
 30
0.0
 11
-55.3008760843
 21
693.0682442914
 31
0.0
  0
LINE
  5
1B6
330
1F
100
AcDbEntity
  8
0
  6
Continuous
 62
     7
370
    15
100
AcDbLine
 10
-55.3008760843
 20
691.0682442914
 30
0.0
 11
-64.0508760843
 21
691.0682442914
 31
0.0
  0
LINE
  5
1B7
330
1F
100
AcDbEntity
  8
0
  6
Continuous
 62
     7
370
    15
100
AcDbLine
 10
-68.3008760843
 20
695.3182442914
 30
0.0
 11
-66.3008760843
 21
695.3182442914
 31
0.0
  0
LINE
  5
1B8
330
1F
100
AcDbEntity
  8
0
  6
Continuous
 62
     7
370
    15
100
AcDbLine
 10
-66.3008760843
 20
695.3182442914
 30
0.0
 11
-66.3008760843
 21
706.8182442915
 31
0.0
  0
LINE
  5
1B9
330
1F
100
AcDbEntity
  8
0
  6
Continuous
 62
     7
370
    15
100
AcDbLine
 10
-68.3008760843
 20
695.3182442914
 30
0.0
 11
-68.3008760843
 21
706.8182442915
 31
0.0
  0
ARC
  5
1BA
330
1F
100
AcDbEntity
  8
0
  6
Continuous
 62
     7
370
    15
100
AcDbCircle
 10
-64.0508760843
 20
695.3182442914
 30
0.0
 40
2.25
100
AcDbArc
 50
180.0
 51
270.0
  0
ARC
  5
1BB
330
1F
100
AcDbEntity
  8
0
  6
Continuous
 62
     7
370
    15
100
AcDbCircle
 10
-64.0508760843
 20
695.3182442914
 30
0.0
 40
4.25
100
AcDbArc
 50
180.0
 51
270.0
  0
LINE
  5
1BC
330
1F
100
AcDbEntity
  8
0
  6
Continuous
 62
     7
370
    15
100
AcDbLine
 10
-55.3008760843
 20
693.0682442914
 30
0.0
 11
-53.3008760843
 21
693.0682442914
 31
0.0
  0
LINE
  5
1BD
330
1F
100
AcDbEntity
  8
0
  6
Continuous
 62
     7
370
    15
100
AcDbLine
 10
-53.3008760843
 20
693.0682442914
 30
0.0
 11
-53.3008760843
 21
691.0682442914
 31
0.0
  0
LINE
  5
1BE
330
1F
100
AcDbEntity
  8
0
  6
Continuous
 62
     7
370
    15
100
AcDbLine
 10
-53.3008760843
 20
691.0682442914
 30
0.0
 11
-55.3008760843
 21
691.0682442914
 31
0.0
  0
LINE
  5
1BF
330
1F
100
AcDbEntity
  8
0
  6
Continuous
 62
     7
370
    15
100
AcDbLine
 10
8.9491239157
 20
693.0682442915
 30
0.0
 11
8.9491239157
 21
691.0682442915
 31
0.0
  0
LINE
  5
1C0
330
1F
100
AcDbEntity
  8
0
  6
Continuous
 62
     7
370
    15
100
AcDbLine
 10
4.6991239157
 20
695.3182442915
 30
0.0
 11
6.6991239157
 21
695.3182442915
 31
0.0
  0
ARC
  5
1C1
330
1F
100
AcDbEntity
  8
0
  6
Continuous
 62
     7
370
    15
100
AcDbCircle
 10
8.9491239157
 20
695.3182442915
 30
0.0
 40
4.249999999999975
100
AcDbArc
 50
180.0
 51
270.0
  0
ARC
  5
1C2
330
1F
100
AcDbEntity
  8
0
  6
Continuous
 62
     7
370
    15
100
AcDbCircle
 10
8.9491239157
 20
695.3182442915
 30
0.0
 40
2.249999999999973
100
AcDbArc
 50
180.0
 51
270.0
  0
LINE
  5
1C3
330
1F
100
AcDbEntity
  8
0
  6
Continuous
 62
     7
370
    15
100
AcDbLine
 10
-64.0508760843
 20
709.0682442915
 30
0.0
 11
2.4491239157
 21
709.0682442915
 31
0.0
  0
LINE
  5
1C4
330
1F
100
AcDbEntity
  8
0
  6
Continuous
 62
     7
370
    15
100
AcDbLine
 10
-64.0508760843
 20
711.0682442915
 30
0.0
 11
2.4491239157
 21
711.0682442915
 31
0.0
  0
LINE
  5
1C5
330
1F
100
AcDbEntity
  8
0
  6
Continuous
 62
     7
370
    15
100
AcDbLine
 10
8.9491239157
 20
691.0682442915
 30
0.0
 11
43.4522681445
 21
691.0682442915
 31
0.0
  0
LINE
  5
1C6
330
1F
100
AcDbEntity
  8
0
  6
Continuous
 62
     7
370
    15
100
AcDbLine
 10
8.9491239157
 20
693.0682442915
 30
0.0
 11
43.4522681445
 21
693.0682442915
 31
0.0
  0
LINE
  5
1C7
330
1F
100
AcDbEntity
  8
0
  6
Continuous
 62
     7
370
    15
100
AcDbLine
 10
4.6991239157
 20
706.8182442915
 30
0.0
 11
4.6991239157
 21
695.3182442915
 31
0.0
  0
LINE
  5
1C8
330
1F
100
AcDbEntity
  8
0
  6
Continuous
 62
     7
370
    15
100
AcDbLine
 10
6.6991239157
 20
706.8182442915
 30
0.0
 11
6.6991239157
 21
695.3182442915
 31
0.0
  0
LINE
  5
1C9
330
1F
100
AcDbEntity
  8
0
  6
Continuous
 62
     7
370
    15
100
AcDbLine
 10
-63.8008760832
 20
711.0682442915
 30
0.0
 11
-59.6324154326
 21
758.7139675499
 31
0.0
  0
ARC
  5
1CA
330
1F
100
AcDbEntity
  8
0
  6
Continuous
 62
     7
370
    15
100
AcDbCircle
 10
-58.6362207345
 20
752.9482648901
 30
0.0
 40
5.851130748653733
100
AcDbArc
 50
80.1972507075
 51
99.8027492925
  0
LINE
  5
1CB
330
1F
100
AcDbEntity
  8
0
  6
Continuous
 62
     7
370
    15
100
AcDbLine
 10
-57.6400260364
 20
758.7139675499
 30
0.0
 11
-61.808486687
 21
711.0682442915
 31
0.0
  0
LINE
  5
1CC
330
1F
100
AcDbEntity
  8
0
  6
Continuous
 62
     7
370
    15
100
AcDbLine
 10
0.2067345206
 20
711.0682442915
 30
0.0
 11
-2.7282275289
 21
744.6150140239
 31
0.0
  0
ARC
  5
1CD
330
1F
100
AcDbEntity
  8
0
  6
Continuous
 62
     7
370
    15
100
AcDbCircle
 10
-1.7320328308
 20
738.8493113641
 30
0.0
 40
5.851130748658997
100
AcDbArc
 50
80.1972507075
 51
99.8027492925
  0
LINE
  5
1CE
330
1F
100
AcDbEntity
  8
0
  6
Continuous
 62
     7
370
    15
100
AcDbLine
 10
-0.7358381327
 20
744.6150140239
 30
0.0
 11
2.1991239168
 21
711.0682442915
 31
0.0
  0
LINE
  5
1CF
330
1F
100
AcDbEntity
  8
0
  6
Continuous
 62
     7
370
    15
100
AcDbLine
 10
-2.7282275289
 20
744.6150140239
 30
0.0
 11
-57.6400260364
 21
758.7139675499
 31
0.0
  0
ARC
  5
1D0
330
1F
100
AcDbEntity
  8
0
  6
Continuous
 62
     7
370
    15
100
AcDbCircle
 10
-37.7430820789
 20
754.0517483948
 30
0.0
 40
20.43586715308025
100
AcDbArc
 50
161.6752935119
 51
166.812465909
  0
LINE
  5
1D1
330
1F
100
AcDbEntity
  8
0
  6
Continuous
 62
     7
370
    15
100
AcDbLine
 10
-57.142646262
 20
760.4768223867
 30
0.0
 11
-2.2308477545
 21
746.3778688606
 31
0.0
  0
ARC
  5
1D2
330
1F
100
AcDbEntity
  8
0
  6
Continuous
 62
     7
370
    15
100
AcDbCircle
 10
17.1687164286
 20
739.9527948687
 30
0.0
 40
20.43586715299501
100
AcDbArc
 50
161.6752935119
 51
166.812465909
  0
ARC
  5
1D3
330
1F
100
AcDbEntity
  8
0
  6
Continuous
 62
     7
370
    15
100
AcDbCircle
 10
-2.7282275289
 20
744.4407025384
 30
0.0
 40
2.000000000000067
100
AcDbArc
 50
5.0
 51
75.6
  0
ARC
  5
1D4
330
1F
100
AcDbEntity
  8
0
  6
Continuous
 62
     7
370
    15
100
AcDbCircle
 10
-57.6400260364
 20
758.5396560644
 30
0.0
 40
2.00000000000002
100
AcDbArc
 50
75.6
 51
175.0
  0
LINE
  5
1D5
330
1F
100
AcDbEntity
  8
0
  6
Continuous
 62
     7
370
    15
100
AcDbLine
 10
-66.20248314
 20
695.4182442913
 30
0.0
 11
-66.20248314
 21
706.9182442913
 31
0.0
  0
LINE
  5
1D6
330
1F
100
AcDbEntity
  8
0
  6
Continuous
 62
     7
370
    15
100
AcDbLine
 10
-64.05248314
 20
709.0682442913
 30
0.0
 11
-64.0508760842
 21
709.0682442913
 31
0.0
  0
LINE
  5
1D7
330
1F
100
AcDbEntity
  8
0
  6
Continuous
 62
     7
370
    15
100
AcDbLine
 10
-64.0508760842
 20
709.0682442913
 30
0.0
 11
-64.0508760842
 21
706.7682442913
 31
0.0
  0
LINE
  5
1D8
330
1F
100
AcDbEntity
  8
0
  6
Continuous
 62
     7
370
    15
100
AcDbLine
 10
2.44751686
 20
706.7682442913
 30
0.0
 11
-64.0508760842
 21
706.7682442913
 31
0.0
  0
LINE
  5
1D9
330
1F
100
AcDbEntity
  8
0
  6
Continuous
 62
     7
370
    15
100
AcDbLine
 10
2.44751686
 20
706.7682442913
 30
0.0
 11
2.44751686
 21
709.0682442913
 31
0.0
  0
ARC
  5
1DA
330
1F
100
AcDbEntity
  8
0
  6
Continuous
 62
     7
370
    15
100
AcDbCircle
 10
2.44751686
 20
706.9182442913
 30
0.0
 40
2.149999999999985
100
AcDbArc
 50
359.9999999959
 51
90.0
  0
LINE
  5
1DB
330
1F
100
AcDbEntity
  8
0
  6
Continuous
 62
     7
370
    15
100
AcDbLine
 10
4.59751686
 20
706.9182442912
 30
0.0
 11
4.59751686
 21
695.4182442911
 31
0.0
  0
ARC
  5
1DC
330
1F
100
AcDbEntity
  8
0
  6
Continuous
 62
     7
370
    15
100
AcDbCircle
 10
8.94751686
 20
695.4182442908
 30
0.0
 40
4.349999999999966
100
AcDbArc
 50
179.999999996
 51
252.5584061437
  0
LINE
  5
1DD
330
1F
100
AcDbEntity
  8
0
  6
Continuous
 62
     7
370
    15
100
AcDbLine
 10
7.643676379
 20
691.2682442908
 30
0.0
 11
2.44751686
 21
691.2682442908
 31
0.0
  0
LINE
  5
1DE
330
1F
100
AcDbEntity
  8
0
  6
Continuous
 62
     7
370
    15
100
AcDbLine
 10
2.44751686
 20
691.2682442908
 30
0.0
 11
2.44751686
 21
693.5682442908
 31
0.0
  0
LINE
  5
1DF
330
1F
100
AcDbEntity
  8
0
  6
Continuous
 62
     7
370
    15
100
AcDbLine
 10
-53.2024831411
 20
693.5682442908
 30
0.0
 11
2.44751686
 21
693.5682442908
 31
0.0
  0
LINE
  5
1E0
330
1F
100
AcDbEntity
  8
0
  6
Continuous
 62
     7
370
    15
100
AcDbLine
 10
-53.2024831411
 20
693.5682442908
 30
0.0
 11
-53.2024831411
 21
693.2682442913
 31
0.0
  0
ARC
  5
1E1
330
1F
100
AcDbEntity
  8
0
  6
Continuous
 62
     7
370
    15
100
AcDbCircle
 10
-64.05248314
 20
706.9182442913
 30
0.0
 40
2.149999999999991
100
AcDbArc
 50
90.0
 51
180.0
  0
ARC
  5
1E2
330
1F
100
AcDbEntity
  8
0
  6
Continuous
 62
     7
370
    15
100
AcDbCircle
 10
-64.05248314
 20
695.4182442913
 30
0.0
 40
2.150000000000091
100
AcDbArc
 50
180.0
 51
270.0
  0
LINE
  5
1E3
330
1F
100
AcDbEntity
  8
0
  6
Continuous
 62
     7
370
    15
100
AcDbLine
 10
-53.2024831411
 20
693.2682442913
 30
0.0
 11
-64.05248314
 21
693.2682442913
 31
0.0
  0
LINE
  5
1E4
330
1F
100
AcDbEntity
  8
0
  6
Continuous
 62
     7
370
    15
100
AcDbLine
 10
2.44751686
 20
691.2682442908
 30
0.0
 11
-53.2024831411
 21
691.2682442908
 31
0.0
  0
LINE
  5
1E5
330
1F
100
AcDbEntity
  8
0
  6
Continuous
 62
     7
370
    15
100
AcDbLine
 10
-53.2024831411
 20
691.2682442908
 30
0.0
 11
-53.2024831411
 21
693.2682442913
 31
0.0
  0
ARC
  5
1E6
330
1F
100
AcDbEntity
  8
0
  6
Continuous
 62
     7
370
    15
100
AcDbCircle
 10
820.9581899622
 20
498.0682442915
 30
0.0
 40
10.80000000000009
100
AcDbArc
 50
335.0
 51
25.0
  0
LINE
  5
1E7
330
1F
100
AcDbEntity
  8
0
  6
Continuous
 62
     7
370
    15
100
AcDbLine
 10
830.7463140622
 20
493.5039670647
 30
0.0
 11
830.0212678326
 21
493.842061674
 31
0.0
  0
ARC
  5
1E8
330
1F
100
AcDbEntity
  8
0
  6
Continuous
 62
     7
370
    15
100
AcDbCircle
 10
820.9581899622
 20
498.0682442915
 30
0.0
 40
10.00000000000003
100
AcDbArc
 50
335.0
 51
25.0
  0
LINE
  5
1E9
330
1F
100
AcDbEntity
  8
0
  6
Continuous
 62
     7
370
    15
100
AcDbLine
 10
830.0212678326
 20
502.2944269089
 30
0.0
 11
830.7463140622
 21
502.6325215183
 31
0.0
  0
LINE
  5
1EA
330
1F
100
AcDbEntity
  8
0
  6
Continuous
 62
     7
370
    15
100
AcDbLine
 10
774.8394444361
 20
622.5251903355
 30
0.0
 11
774.1143982065
 21
622.1870957261
 31
0.0
  0
LINE
  5
1EB
330
1F
100
AcDbEntity
  8
0
  6
Continuous
 62
     7
370
    15
100
AcDbLine
 10
830.7463140622
 20
502.6325215183
 30
0.0
 11
774.8394444361
 21
622.5251903355
 31
0.0
  0
LINE
  5
1EC
330
1F
100
AcDbEntity
  8
0
  6
Continuous
 62
     7
370
    15
100
AcDbLine
 10
830.0212678326
 20
502.2944269089
 30
0.0
 11
774.1143982065
 21
622.1870957261
 31
0.0
  0
ARC
  5
1ED
330
1F
100
AcDbEntity
  8
0
  6
Continuous
 62
     7
370
    15
100
AcDbCircle
 10
775.9723291699
 20
623.0534631627
 30
0.0
 40
1.249999999999977
100
AcDbArc
 50
115.0
 51
205.0
  0
ARC
  5
1EE
330
1F
100
AcDbEntity
  8
0
  6
Continuous
 62
     7
370
    15
100
AcDbCircle
 10
775.9723291699
 20
623.0534631627
 30
0.0
 40
2.050000000000057
100
AcDbArc
 50
115.0
 51
205.0
  0
LINE
  5
1EF
330
1F
100
AcDbEntity
  8
0
  6
Continuous
 62
     7
370
    15
100
AcDbLine
 10
775.1059617333
 20
624.9113941261
 30
0.0
 11
775.4440563427
 21
624.1863478965
 31
0.0
  0
LINE
  5
1F0
330
1F
100
AcDbEntity
  8
0
  6
Continuous
 62
     7
370
    15
100
AcDbLine
 10
775.1059617333
 20
624.9113941261
 30
0.0
 11
787.7489553625
 21
630.8069188774
 31
0.0
  0
LINE
  5
1F1
330
1F
100
AcDbEntity
  8
0
  6
Continuous
 62
     7
370
    15
100
AcDbLine
 10
788.0870499719
 20
630.0818726478
 30
0.0
 11
787.7489553625
 21
630.8069188774
 31
0.0
  0
LINE
  5
1F2
330
1F
100
AcDbEntity
  8
0
  6
Continuous
 62
     7
370
    15
100
AcDbLine
 10
775.4440563427
 20
624.1863478965
 30
0.0
 11
788.0870499719
 21
630.0818726478
 31
0.0
  0
LINE
  5
1F3
330
1F
100
AcDbEntity
  8
0
  6
Continuous
 62
     7
370
    15
100
AcDbLine
 10
809.4104693421
 20
449.642061674
 30
0.0
 11
810.1355155718
 21
449.3039670647
 31
0.0
  0
LINE
  5
1F4
330
1F
100
AcDbEntity
  8
0
  6
Continuous
 62
     7
370
    15
100
AcDbLine
 10
810.1355155718
 20
449.3039670647
 30
0.0
 11
830.7463140622
 21
493.5039670647
 31
0.0
  0
LINE
  5
1F5
330
1F
100
AcDbEntity
  8
0
  6
Continuous
 62
     7
370
    15
100
AcDbLine
 10
809.4104693421
 20
449.642061674
 30
0.0
 11
830.0212678326
 21
493.842061674
 31
0.0
  0
LINE
  5
1F6
330
1F
100
AcDbEntity
  8
0
  6
Continuous
 62
     7
370
    15
100
AcDbLine
 10
741.7180940799
 20
443.8682442915
 30
0.0
 11
741.7180940799
 21
443.0682442915
 31
0.0
  0
LINE
  5
1F7
330
1F
100
AcDbEntity
  8
0
  6
Continuous
 62
     7
370
    15
100
AcDbLine
 10
741.7180940799
 20
443.0682442915
 30
0.0
 11
739.7180940799
 21
443.0682442915
 31
0.0
  0
LINE
  5
1F8
330
1F
100
AcDbEntity
  8
0
  6
Continuous
 62
     7
370
    15
100
AcDbLine
 10
739.7180940799
 20
443.0682442915
 30
0.0
 11
739.7180940799
 21
443.8682442915
 31
0.0
  0
LINE
  5
1F9
330
1F
100
AcDbEntity
  8
0
  6
Continuous
 62
     7
370
    15
100
AcDbLine
 10
739.7180940799
 20
443.8682442915
 30
0.0
 11
741.7180940799
 21
443.8682442915
 31
0.0
  0
LINE
  5
1FA
330
1F
100
AcDbEntity
  8
0
  6
Continuous
 62
     7
370
    15
100
AcDbLine
 10
800.3473914718
 20
443.0682442915
 30
0.0
 11
800.3473914718
 21
443.8682442915
 31
0.0
  0
ARC
  5
1FB
330
1F
100
AcDbEntity
  8
0
  6
Continuous
 62
     7
370
    15
100
AcDbCircle
 10
800.3473914718
 20
453.8682442915
 30
0.0
 40
10.80000000000006
100
AcDbArc
 50
270.0
 51
335.0
  0
ARC
  5
1FC
330
1F
100
AcDbEntity
  8
0
  6
Continuous
 62
     7
370
    15
100
AcDbCircle
 10
800.3473914718
 20
453.8682442915
 30
0.0
 40
10.00000000000003
100
AcDbArc
 50
270.0
 51
335.0
  0
LINE
  5
1FD
330
1F
100
AcDbEntity
  8
0
  6
Continuous
 62
     7
370
    15
100
AcDbLine
 10
789.5615709366
 20
631.6521554009
 30
0.0
 11
789.8996655459
 21
630.9271091713
 31
0.0
  0
LINE
  5
1FE
330
1F
100
AcDbEntity
  8
0
  6
Continuous
 62
     7
370
    15
100
AcDbLine
 10
789.8996655459
 20
630.9271091713
 30
0.0
 11
788.0870499719
 21
630.0818726478
 31
0.0
  0
LINE
  5
1FF
330
1F
100
AcDbEntity
  8
0
  6
Continuous
 62
     7
370
    15
100
AcDbLine
 10
787.7489553625
 20
630.8069188774
 30
0.0
 11
789.5615709366
 21
631.6521554009
 31
0.0
  0
LINE
  5
200
330
1F
100
AcDbEntity
  8
0
  6
Continuous
 62
     7
370
    15
100
AcDbLine
 10
741.7180940799
 20
443.0682442915
 30
0.0
 11
800.3473914718
 21
443.0682442915
 31
0.0
  0
LINE
  5
201
330
1F
100
AcDbEntity
  8
0
  6
Continuous
 62
     7
370
    15
100
AcDbLine
 10
741.7180940799
 20
443.8682442915
 30
0.0
 11
800.3473914718
 21
443.8682442915
 31
0.0
  0
LINE
  5
202
330
1F
100
AcDbEntity
  8
0
  6
Continuous
 62
     7
370
    15
100
AcDbLine
 10
798.139446864
 20
584.3891817967
 30
0.0
 11
817.4446760826
 21
542.9889841353
 31
0.0
  0
LINE
  5
203
330
1F
100
AcDbEntity
  8
0
  6
Continuous
 62
     7
370
    15
100
AcDbLine
 10
805.9837180907
 20
579.3980957805
 30
0.0
 11
818.6634828727
 21
552.206252455
 31
0.0
  0
LINE
  5
204
330
1F
100
AcDbEntity
  8
0
  6
Continuous
 62
     7
370
    15
100
AcDbLine
 10
794.3682425928
 20
587.9918271338
 30
0.0
 11
791.5069195523
 21
586.7816746014
 31
0.0
  0
LINE
  5
205
330
1F
100
AcDbEntity
  8
0
  6
Continuous
 62
     7
370
    15
100
AcDbLine
 10
796.8695781081
 20
587.1124241319
 30
0.0
 11
798.113626414
 21
584.4445539304
 31
0.0
  0
LINE
  5
206
330
1F
100
AcDbEntity
  8
0
  6
Continuous
 62
     7
370
    15
100
AcDbLine
 10
817.4704965327
 20
542.9336120016
 30
0.0
 11
818.7145448386
 21
540.2657418001
 31
0.0
  0
ARC
  5
207
330
1F
100
AcDbEntity
  8
0
  6
Continuous
 62
     7
370
    15
100
AcDbCircle
 10
795.1566501306
 20
586.2372928398
 30
0.0
 40
1.92353243651824
100
AcDbArc
 50
27.0623931934
 51
114.1969723043
  0
LINE
  5
208
330
1F
100
AcDbEntity
  8
0
  6
Continuous
 62
     7
370
    15
100
AcDbLine
 10
803.1367410731
 20
585.5034576972
 30
0.0
 11
805.9837180907
 21
579.3980957805
 31
0.0
  0
LINE
  5
209
330
1F
100
AcDbEntity
  8
0
  6
Continuous
 62
     7
370
    15
100
AcDbLine
 10
818.6634828727
 20
552.206252455
 30
0.0
 11
821.5104597439
 21
546.1008908522
 31
0.0
  0
SPLINE
  5
20A
330
1F
100
AcDbEntity
  8
0
  6
Continuous
 62
     7
370
    15
100
AcDbSpline
210
0.0
220
0.0
230
1.0
 70
     8
 71
     3
 72
    11
 73
     7
 74
     0
 42
0.00000001
 43
0.00000001
 12
1.0
 22
0.0
 32
0.0
 13
1.0
 23
0.0
 33
0.0
 40
0.0
 40
0.0
 40
0.0
 40
0.0
 40
0.2835227646035572
 40
0.5667788824161034
 40
0.8499302227267685
 40
1.0
 40
1.0
 40
1.0
 40
1.0
 10
817.7803791444944
 20
537.7843382746943
 30
0.0
 10
817.8303633330928
 20
537.693217227458
 30
0.0
 10
817.9302847012831
 20
537.5110608302833
 30
0.0
 10
818.1620110825146
 20
537.0213169579263
 30
0.0
 10
818.3827753719257
 20
536.527956621499
 30
0.0
 10
818.517347614547
 20
536.2130277968489
 30
0.0
 10
818.5639640551074
 20
536.1039350110776
 30
0.0
  0
LWPOLYLINE
  5
20B
330
1F
100
AcDbEntity
  8
0
  6
Continuous
 62
     7
370
    15
100
AcDbPolyline
 90
        3
 70
   128
 43
0.0
 10
790.7244198802
 20
588.4597505635
 10
793.074477633
 20
589.4559930999
 10
793.5846576822
 20
589.6722303974
  0
SPLINE
  5
20C
330
1F
100
AcDbEntity
  8
0
  6
Continuous
 62
     7
370
    15
100
AcDbSpline
210
0.0
220
0.0
230
1.0
 70
     8
 71
     3
 72
    11
 73
     7
 74
     0
 42
0.00000001
 43
0.00000001
 12
1.0
 22
0.0
 32
0.0
 13
1.0
 23
0.0
 33
0.0
 40
0.0
 40
0.0
 40
0.0
 40
0.0
 40
0.2835227523786794
 40
0.5667788888047312
 40
0.8499302218874425
 40
1.0
 40
1.0
 40
1.0
 40
1.0
 10
793.5846576821641
 20
589.672230397382
 30
0.0
 10
793.6858842271756
 20
589.4712181489197
 30
0.0
 10
793.8882421269135
 20
589.0693826776434
 30
0.0
 10
794.1429233235973
 20
588.530418493414
 30
0.0
 10
794.3001429676461
 20
588.1733330567913
 30
0.0
 10
794.3507218397299
 20
588.0385251948815
 30
0.0
 10
794.3682425927925
 20
587.9918271337716
 30
0.0
  0
LINE
  5
20D
330
1F
100
AcDbEntity
  8
0
  6
Continuous
 62
     7
370
    15
100
AcDbLine
 10
820.2817146598
 20
536.9049352729
 30
0.0
 11
818.5639640551
 21
536.1039350111
 31
0.0
  0
SPLINE
  5
20E
330
1F
100
AcDbEntity
  8
0
  6
Continuous
 62
     7
370
    15
100
AcDbSpline
210
0.0
220
0.0
230
1.0
 70
    24
 71
     3
 72
    10
 73
     6
 74
     0
 42
0.00000001
 43
0.00000001
 12
1.0
 22
0.0
 32
0.0
 13
1.0
 23
0.0
 33
0.0
 40
0.0
 40
0.0
 40
0.0
 40
0.0
 40
0.2260957725290107
 40
0.65313749176129
 40
1.0
 40
1.0
 40
1.0
 40
1.0
 10
820.2817146598107
 20
536.9049352728512
 30
0.0
 10
820.1819394759713
 20
537.1189038450902
 30
0.0
 10
819.8937124446384
 20
537.7370087084614
 30
0.0
 10
819.4595571246192
 20
538.6680577968186
 30
0.0
 10
819.2066951255899
 20
539.2103221036706
 30
0.0
 10
819.0933628241137
 20
539.4533640085039
 30
0.0
  0
LINE
  5
20F
330
1F
100
AcDbEntity
  8
0
  6
Continuous
 62
     7
370
    15
100
AcDbLine
 10
795.3024082869
 20
590.4732306592
 30
0.0
 11
793.5846576822
 21
589.6722303974
 31
0.0
  0
SPLINE
  5
210
330
1F
100
AcDbEntity
  8
0
  6
Continuous
 62
     7
370
    15
100
AcDbSpline
210
0.0
220
0.0
230
1.0
 70
    24
 71
     3
 72
    11
 73
     7
 74
     0
 42
0.00000001
 43
0.00000001
 12
1.0
 22
0.0
 32
0.0
 13
1.0
 23
0.0
 33
0.0
 40
0.0
 40
0.0
 40
0.0
 40
0.0
 40
0.1499515950756874
 40
0.4331749432232066
 40
0.7165923323728246
 40
0.9999999999999999
 40
0.9999999999999999
 40
0.9999999999999999
 40
0.9999999999999999
 10
796.8695781080935
 20
587.1124241319225
 30
0.0
 10
796.827419592684
 20
587.2028333599766
 30
0.0
 10
796.7056335422609
 20
587.4640043879303
 30
0.0
 10
796.3756970333593
 20
588.1715555145988
 30
0.0
 10
795.8723689792984
 20
589.2509460098189
 30
0.0
 10
795.4923930120427
 20
590.0658071012258
 30
0.0
 10
795.3024082868674
 20
590.4732306591555
 30
0.0
  0
LINE
  5
211
330
1F
100
AcDbEntity
  8
0
  6
Continuous
 62
     7
370
    15
100
AcDbLine
 10
782.1781628654
 20
606.9109978618
 30
0.0
 11
782.5938375869
 21
607.0789413508
 31
0.0
  0
SPLINE
  5
212
330
1F
100
AcDbEntity
  8
0
  6
Continuous
 62
     7
370
    15
100
AcDbSpline
210
0.0
220
0.0
230
1.0
 70
     8
 71
     3
 72
    14
 73
    10
 74
     0
 42
0.00000001
 43
0.00000001
 12
1.0
 22
0.0
 32
0.0
 13
1.0
 23
0.0
 33
0.0
 40
0.0
 40
0.0
 40
0.0
 40
0.0
 40
0.0000064140457958
 40
0.0730558909548045
 40
0.2154935957733528
 40
0.4037789030075387
 40
0.5887468703998134
 40
0.8882363243876871
 40
1.0
 40
1.0
 40
1.0
 40
1.0
 10
782.5938375869299
 20
607.0789413507697
 30
0.0
 10
782.5938561268996
 20
607.0789488412715
 30
0.0
 10
782.8050261196655
 20
607.1642655518143
 30
0.0
 10
783.4560410550957
 20
607.3504076737833
 30
0.0
 10
784.7339719576694
 20
607.3562729741442
 30
0.0
 10
786.3055839309985
 20
606.8822345786435
 30
0.0
 10
787.9972550240706
 20
605.5754026988443
 30
0.0
 10
788.9900725364242
 20
603.963817264046
 30
0.0
 10
789.5451999492717
 20
602.809718229257
 30
0.0
 10
789.69606343365
 20
602.4960759956427
 30
0.0
  0
LINE
  5
213
330
1F
100
AcDbEntity
  8
0
  6
Continuous
 62
     7
370
    15
100
AcDbLine
 10
789.6960634337
 20
602.4960759956
 30
0.0
 11
787.9783128289
 21
601.6950757339
 31
0.0
  0
SPLINE
  5
214
330
1F
100
AcDbEntity
  8
0
  6
Continuous
 62
     7
370
    15
100
AcDbSpline
210
0.0
220
0.0
230
1.0
 70
     8
 71
     3
 72
    13
 73
     9
 74
     0
 42
0.00000001
 43
0.00000001
 12
1.0
 22
0.0
 32
0.0
 13
1.0
 23
0.0
 33
0.0
 40
0.0
 40
0.0
 40
0.0
 40
0.0
 40
0.2359779310481754
 40
0.470066440534635
 40
0.6281567545471096
 40
0.7867756990089814
 40
0.8916100492377189
 40
1.0
 40
1.0
 40
1.0
 40
1.0
 10
787.9783128289469
 20
601.6950757338692
 30
0.0
 10
787.7486582372695
 20
602.1767138409725
 30
0.0
 10
787.2911878459381
 20
603.1361336885246
 30
0.0
 10
786.4762594220874
 20
604.3170667436193
 30
0.0
 10
785.4829574438962
 20
605.1066263778673
 30
0.0
 10
784.5520193548947
 20
605.3815676476728
 30
0.0
 10
783.6942155806111
 20
605.3980357752519
 30
0.0
 10
783.2487121327622
 20
605.2010193009008
 30
0.0
 10
783.0222459347146
 20
605.1008683994556
 30
0.0
  0
SPLINE
  5
215
330
1F
100
AcDbEntity
  8
0
  6
Continuous
 62
     7
370
    15
100
AcDbSpline
210
0.0
220
0.0
230
1.0
 70
     8
 71
     3
 72
    15
 73
    11
 74
     0
 42
0.00000001
 43
0.00000001
 12
1.0
 22
0.0
 32
0.0
 13
1.0
 23
0.0
 33
0.0
 40
0.0
 40
0.0
 40
0.0
 40
0.0
 40
0.0125258353877768
 40
0.2274813526119373
 40
0.4424404199769005
 40
0.4999991763207048
 40
0.7148755009569783
 40
0.9297495265588458
 40
0.987474164614659
 40
1.0
 40
1.0
 40
1.0
 40
1.0
 10
783.0222459347146
 20
605.1008683994556
 30
0.0
 10
783.0170433078488
 20
605.1128258373845
 30
0.0
 10
782.9225585441624
 20
605.3299845393499
 30
0.0
 10
782.7360676913693
 20
605.7529986071409
 30
0.0
 10
782.5513357819763
 20
606.1607164189568
 30
0.0
 10
782.3937392468208
 20
606.5006778257107
 30
0.0
 10
782.2639168946963
 20
606.7715396211937
 30
0.0
 10
782.1954639985232
 20
606.8963018828049
 30
0.0
 10
782.1804708874135
 20
606.9113515317714
 30
0.0
 10
782.1785162884105
 20
606.9110530643669
 30
0.0
 10
782.1781677785123
 20
606.9109998468812
 30
0.0
  0
LINE
  5
216
330
1F
100
AcDbEntity
  8
0
  6
Continuous
 62
     7
370
    15
100
AcDbLine
 10
783.0222459347
 20
605.1008683995
 30
0.0
 11
782.9748459746
 21
605.0787654351
 31
0.0
  0
LINE
  5
217
330
1F
100
AcDbEntity
  8
0
  6
Continuous
 62
     7
370
    15
100
AcDbLine
 10
793.5846576822
 20
589.6722303974
 30
0.0
 11
787.9783128289
 21
601.6950757339
 31
0.0
  0
SPLINE
  5
218
330
1F
100
AcDbEntity
  8
0
  6
Continuous
 62
     7
370
    15
100
AcDbSpline
210
0.0
220
0.0
230
1.0
 70
     8
 71
     3
 72
     9
 73
     5
 74
     0
 42
0.00000001
 43
0.00000001
 12
1.0
 22
0.0
 32
0.0
 13
1.0
 23
0.0
 33
0.0
 40
0.0
 40
0.0
 40
0.0
 40
0.0
 40
0.0000220488581463
 40
1.0
 40
1.0
 40
1.0
 40
1.0
 10
832.2273334391385
 20
511.2874731308145
 30
0.0
 10
832.2273418914997
 20
511.2874550046562
 30
0.0
 10
832.6106887782761
 20
510.4653644365646
 30
0.0
 10
832.9016268385403
 20
509.6042701935914
 30
0.0
 10
833.1925584839524
 20
508.7431949367631
 30
0.0
  0
SPLINE
  5
219
330
1F
100
AcDbEntity
  8
0
  6
Continuous
 62
     7
370
    15
100
AcDbSpline
210
0.0
220
0.0
230
1.0
 70
     8
 71
     3
 72
    11
 73
     7
 74
     0
 42
0.00000001
 43
0.00000001
 12
1.0
 22
0.0
 32
0.0
 13
1.0
 23
0.0
 33
0.0
 40
0.0
 40
0.0
 40
0.0
 40
0.0
 40
0.249976881450029
 40
0.4998058427200026
 40
0.7495361389842387
 40
1.0
 40
1.0
 40
1.0
 40
1.0
 10
833.1925584839524
 20
508.743194936763
 30
0.0
 10
833.1672089149865
 20
508.7291640153497
 30
0.0
 10
833.116524777293
 20
508.7011104751165
 30
0.0
 10
832.7017034518083
 20
508.5738461993196
 30
0.0
 10
832.101672204792
 20
508.403447809967
 30
0.0
 10
831.6147972753442
 20
508.273858430514
 30
0.0
 10
831.3710027949681
 20
508.2089687154863
 30
0.0
  0
LINE
  5
21A
330
1F
100
AcDbEntity
  8
0
  6
Continuous
 62
     7
370
    15
100
AcDbLine
 10
831.371002795
 20
508.2089687155
 30
0.0
 11
830.5095828344
 21
510.486472869
 31
0.0
  0
LINE
  5
21B
330
1F
100
AcDbEntity
  8
0
  6
Continuous
 62
     7
370
    15
100
AcDbLine
 10
832.2273334391
 20
511.2874731308
 30
0.0
 11
830.5095828344
 21
510.486472869
 31
0.0
  0
LINE
  5
21C
330
1F
100
AcDbEntity
  8
0
  6
Continuous
 62
     7
370
    15
100
AcDbLine
 10
830.5095828344
 20
510.486472869
 30
0.0
 11
818.5639640551
 21
536.1039350111
 31
0.0
  0
SPLINE
  5
21D
330
1F
100
AcDbEntity
  8
0
  6
Continuous
 62
     7
370
    15
100
AcDbSpline
210
0.0
220
0.0
230
1.0
 70
     8
 71
     3
 72
    11
 73
     7
 74
     0
 42
0.00000001
 43
0.00000001
 12
1.0
 22
0.0
 32
0.0
 13
1.0
 23
0.0
 33
0.0
 40
0.0
 40
0.0
 40
0.0
 40
0.0
 40
0.2440033155445717
 40
0.4919416665511639
 40
0.7439093003410311
 40
1.0
 40
1.0
 40
1.0
 40
1.0
 10
832.0058619513085
 20
506.8998149103847
 30
0.0
 10
831.9689195170683
 20
506.9828336583907
 30
0.0
 10
831.8944388788608
 20
507.1502099957077
 30
0.0
 10
831.7415428416497
 20
507.4710035264902
 30
0.0
 10
831.5656978104255
 20
507.8287390457155
 30
0.0
 10
831.4362513009119
 20
508.0815416326217
 30
0.0
 10
831.3710027949681
 20
508.2089687154863
 30
0.0
  0
SPLINE
  5
21E
330
1F
100
AcDbEntity
  8
0
  6
Continuous
 62
     7
370
    15
100
AcDbSpline
210
0.0
220
0.0
230
1.0
 70
     8
 71
     3
 72
    11
 73
     7
 74
     0
 42
0.00000001
 43
0.00000001
 12
1.0
 22
0.0
 32
0.0
 13
1.0
 23
0.0
 33
0.0
 40
0.0
 40
0.0
 40
0.0
 40
0.0
 40
0.2501480011265382
 40
0.5002880311524616
 40
0.7504202668475187
 40
1.0
 40
1.0
 40
1.0
 40
1.0
 10
833.1925584839524
 20
508.743194936763
 30
0.0
 10
833.2142117270705
 20
508.5693648233204
 30
0.0
 10
833.2575175233145
 20
508.2217101356252
 30
0.0
 10
833.0253788108477
 20
507.6889291772917
 30
0.0
 10
832.608398736108
 20
507.2138101184253
 30
0.0
 10
832.2065594494436
 20
507.0044028032237
 30
0.0
 10
832.0058619513085
 20
506.8998149103847
 30
0.0
  0
LINE
  5
21F
330
1F
100
AcDbEntity
  8
0
  6
Continuous
 62
     7
370
    15
100
AcDbLine
 10
820.2817146598
 20
536.9049352729
 30
0.0
 11
832.2273334391
 21
511.2874731308
 31
0.0
  0
LINE
  5
220
330
1F
100
AcDbEntity
  8
0
  6
Continuous
 62
     7
370
    15
100
AcDbLine
 10
789.6960634337
 20
602.4960759956
 30
0.0
 11
795.3024082869
 21
590.4732306592
 31
0.0
  0
SPLINE
  5
221
330
1F
100
AcDbEntity
  8
0
  6
Continuous
 62
     7
370
    15
100
AcDbSpline
210
0.0
220
0.0
230
1.0
 70
     8
 71
     3
 72
    12
 73
     8
 74
     0
 42
0.00000001
 43
0.00000001
 12
1.0
 22
0.0
 32
0.0
 13
1.0
 23
0.0
 33
0.0
 40
0.0
 40
0.0
 40
0.0
 40
0.0
 40
0.2296372793305617
 40
0.4662189559750572
 40
0.7775726823823484
 40
0.9797928817936031
 40
1.0
 40
1.0
 40
1.0
 40
1.0
 10
833.1925584839524
 20
508.743194936763
 30
0.0
 10
833.2973345425412
 20
508.2541533198666
 30
0.0
 10
833.510055163465
 20
507.2612811140887
 30
0.0
 10
833.3131627462526
 20
505.5512677721647
 30
0.0
 10
832.6723326398339
 20
504.2599569363413
 30
0.0
 10
832.0501109744025
 20
503.521429451441
 30
0.0
 10
831.720408391318
 20
503.2672747229646
 30
0.0
 10
831.6904555098972
 20
503.2441852270518
 30
0.0
  0
SPLINE
  5
222
330
1F
100
AcDbEntity
  8
0
  6
Continuous
 62
     7
370
    15
100
AcDbSpline
210
0.0
220
0.0
230
1.0
 70
     8
 71
     3
 72
    10
 73
     6
 74
     0
 42
0.00000001
 43
0.00000001
 12
1.0
 22
0.0
 32
0.0
 13
1.0
 23
0.0
 33
0.0
 40
0.0
 40
0.0
 40
0.0
 40
0.0
 40
0.4527378322259983
 40
0.9055954617465347
 40
1.0
 40
1.0
 40
1.0
 40
1.0
 10
833.3146402261373
 20
505.9462730369235
 30
0.0
 10
833.3222632729853
 20
505.9987724609627
 30
0.0
 10
833.3375113837877
 20
506.1037852007207
 30
0.0
 10
833.4608724011265
 20
506.5864540596998
 30
0.0
 10
833.4188518689176
 20
507.0628998401596
 30
0.0
 10
833.4116031878029
 20
507.1450883168271
 30
0.0
  0
SPLINE
  5
223
330
1F
100
AcDbEntity
  8
0
  6
Continuous
 62
     7
370
    15
100
AcDbSpline
210
0.0
220
0.0
230
1.0
 70
     8
 71
     3
 72
    12
 73
     8
 74
     0
 42
0.00000001
 43
0.00000001
 12
1.0
 22
0.0
 32
0.0
 13
1.0
 23
0.0
 33
0.0
 40
0.0
 40
0.0
 40
0.0
 40
0.0
 40
0.4616906276044875
 40
0.7307729957151746
 40
0.9175829515524071
 40
0.9719359527203909
 40
1.0
 40
1.0
 40
1.0
 40
1.0
 10
833.1715077395602
 20
508.8185807355624
 30
0.0
 10
833.1414939466686
 20
508.9271405755833
 30
0.0
 10
833.0939875256307
 20
509.0989712231276
 30
0.0
 10
833.0223641450509
 20
509.3230702171758
 30
0.0
 10
832.9808729161912
 20
509.4474389670868
 30
0.0
 10
832.9583856963363
 20
509.5131105700888
 30
0.0
 10
832.9514415005868
 20
509.5331984744307
 30
0.0
 10
832.9490769141148
 20
509.5400386598998
 30
0.0
  0
LINE
  5
224
330
1F
100
AcDbEntity
  8
0
  6
Continuous
 62
     7
370
    15
100
AcDbLine
 10
788.3262235935
 20
604.7572203437
 30
0.0
 11
787.8806108701
 21
605.4921093615
 31
0.0
  0
LINE
  5
225
330
1F
100
AcDbEntity
  8
0
  6
Continuous
 62
     7
370
    15
100
AcDbLine
 10
832.2735151862
 20
511.1879276702
 30
0.0
 11
832.2314812288
 21
511.2785741588
 31
0.0
  0
SPLINE
  5
226
330
1F
100
AcDbEntity
  8
0
  6
Continuous
 62
     7
370
    15
100
AcDbSpline
210
0.0
220
0.0
230
1.0
 70
     8
 71
     3
 72
     9
 73
     5
 74
     0
 42
0.00000001
 43
0.00000001
 12
1.0
 22
0.0
 32
0.0
 13
1.0
 23
0.0
 33
0.0
 40
0.0
 40
0.0
 40
0.0
 40
0.0
 40
0.5000138394956792
 40
1.0
 40
1.0
 40
1.0
 40
1.0
 10
832.7413220263118
 20
510.1002923891522
 30
0.0
 10
832.6733526138739
 20
510.269009384452
 30
0.0
 10
832.5374175515436
 20
510.6064340354774
 30
0.0
 10
832.3614810180808
 20
510.994100035358
 30
0.0
 10
832.2735151862224
 20
511.1879276701964
 30
0.0
  0
SPLINE
  5
227
330
1F
100
AcDbEntity
  8
0
  6
Continuous
 62
     7
370
    15
100
AcDbSpline
210
0.0
220
0.0
230
1.0
 70
     8
 71
     3
 72
    13
 73
     9
 74
     0
 42
0.00000001
 43
0.00000001
 12
1.0
 22
0.0
 32
0.0
 13
1.0
 23
0.0
 33
0.0
 40
0.0
 40
0.0
 40
0.0
 40
0.0
 40
0.1254648118065518
 40
0.2502435788816416
 40
0.3760698054095832
 40
0.5019139201694206
 40
0.7508310514861681
 40
1.0
 40
1.0
 40
1.0
 40
1.0
 10
787.8806108696841
 20
605.4921093619246
 30
0.0
 10
787.7929338973942
 20
605.5893816402896
 30
0.0
 10
787.6180593726931
 20
605.7833943097669
 30
0.0
 10
787.3443773405122
 20
606.042794447016
 30
0.0
 10
787.0773767134866
 20
606.2662666154101
 30
0.0
 10
786.752517697777
 20
606.5047403694425
 30
0.0
 10
786.4198313580349
 20
606.7023012048767
 30
0.0
 10
786.3669166681004
 20
606.7292654050907
 30
0.0
 10
786.3404459471028
 20
606.742754321338
 30
0.0
  0
SPLINE
  5
228
330
1F
100
AcDbEntity
  8
0
  6
Continuous
 62
     7
370
    15
100
AcDbSpline
210
0.0
220
0.0
230
1.0
 70
     8
 71
     3
 72
     9
 73
     5
 74
     0
 42
0.00000001
 43
0.00000001
 12
1.0
 22
0.0
 32
0.0
 13
1.0
 23
0.0
 33
0.0
 40
0.0
 40
0.0
 40
0.0
 40
0.0
 40
0.7838918077675148
 40
1.0
 40
1.0
 40
1.0
 40
1.0
 10
833.4307757239684
 20
506.9374094206511
 30
0.0
 10
833.436990109939
 20
506.9549872551233
 30
0.0
 10
833.4449177166686
 20
506.9774110568497
 30
0.0
 10
833.4217302016974
 20
507.2679245826597
 30
0.0
 10
833.4167191897545
 20
507.3307069355416
 30
0.0
  0
SPLINE
  5
229
330
1F
100
AcDbEntity
  8
0
  6
Continuous
 62
     7
370
    15
100
AcDbSpline
210
0.0
220
0.0
230
1.0
 70
     8
 71
     3
 72
     9
 73
     5
 74
     0
 42
0.00000001
 43
0.00000001
 12
1.0
 22
0.0
 32
0.0
 13
1.0
 23
0.0
 33
0.0
 40
0.0
 40
0.0
 40
0.0
 40
0.0
 40
0.037016333024889
 40
1.0
 40
1.0
 40
1.0
 40
1.0
 10
833.1845151272386
 20
508.7643967665376
 30
0.0
 10
833.1819518500172
 20
508.7772721692213
 30
0.0
 10
833.1127046552826
 20
509.1251024817227
 30
0.0
 10
832.9235117265696
 20
509.6218921004221
 30
0.0
 10
832.7413220263118
 20
510.1002923891522
 30
0.0
  0
LINE
  5
22A
330
1F
100
AcDbEntity
  8
0
  6
Continuous
 62
     7
370
    15
100
AcDbLine
 10
832.9490769143
 20
509.5400386593
 30
0.0
 11
832.7799727597
 21
509.9851349259
 31
0.0
  0
LINE
  5
22B
330
1F
100
AcDbEntity
  8
0
  6
Continuous
 62
     7
370
    15
100
AcDbLine
 10
830.6003781798
 20
538.4385057753
 30
0.0
 11
828.1564406945
 21
543.6795466259
 31
0.0
  0
LINE
  5
22C
330
1F
100
AcDbEntity
  8
0
  6
Continuous
 62
     7
370
    15
100
AcDbLine
 10
827.8183460851
 20
544.4045928555
 30
0.0
 11
821.7603929341
 21
557.3959153119
 31
0.0
  0
LINE
  5
22D
330
1F
100
AcDbEntity
  8
0
  6
Continuous
 62
     7
370
    15
100
AcDbLine
 10
811.9701764124
 20
578.3911023961
 30
0.0
 11
803.1302151054
 21
597.3484605958
 31
0.0
  0
LINE
  5
22E
330
1F
100
AcDbEntity
  8
0
  6
Continuous
 62
     7
370
    15
100
AcDbLine
 10
815.8999308617
 20
593.6257326152
 30
0.0
 11
813.883742084
 21
597.949463402
 31
0.0
  0
SPLINE
  5
22F
330
1F
100
AcDbEntity
  8
0
  6
Continuous
 62
     7
370
    15
100
AcDbSpline
210
0.0
220
0.0
230
1.0
 70
     8
 71
     3
 72
     9
 73
     5
 74
     0
 42
0.00000001
 43
0.00000001
 12
1.0
 22
0.0
 32
0.0
 13
1.0
 23
0.0
 33
0.0
 40
0.0
 40
0.0
 40
0.0
 40
0.0
 40
0.5209744652335047
 40
1.0
 40
1.0
 40
1.0
 40
1.0
 10
815.7955491806937
 20
592.3621634756233
 30
0.0
 10
815.7182560389867
 20
592.5943905598317
 30
0.0
 10
815.5698934092133
 20
593.0401457737738
 30
0.0
 10
815.7930386117132
 20
593.4360732460511
 30
0.0
 10
815.8999308616714
 20
593.6257326151874
 30
0.0
  0
SPLINE
  5
230
330
1F
100
AcDbEntity
  8
0
  6
Continuous
 62
     7
370
    15
100
AcDbSpline
210
0.0
220
0.0
230
1.0
 70
     8
 71
     3
 72
     9
 73
     5
 74
     0
 42
0.00000001
 43
0.00000001
 12
1.0
 22
0.0
 32
0.0
 13
1.0
 23
0.0
 33
0.0
 40
0.0
 40
0.0
 40
0.0
 40
0.0
 40
0.4790255347664815
 40
1.0
 40
1.0
 40
1.0
 40
1.0
 10
835.9318141781157
 20
550.6672202122337
 30
0.0
 10
835.717322558177
 20
550.7083084366633
 30
0.0
 10
835.2695559896509
 20
550.7940830383234
 30
0.0
 10
835.0224351650671
 20
551.1964448291973
 30
0.0
 10
834.8936915256315
 20
551.4060650480283
 30
0.0
  0
LINE
  5
231
330
1F
100
AcDbEntity
  8
0
  6
Continuous
 62
     7
370
    15
100
AcDbLine
 10
837.3630392384
 20
547.5979481656
 30
0.0
 11
835.9318141781
 21
550.6672202122
 31
0.0
  0
LINE
  5
232
330
1F
100
AcDbEntity
  8
0
  6
Continuous
 62
     7
370
    15
100
AcDbLine
 10
816.6740859904
 20
591.9655515841
 30
0.0
 11
823.8997948873
 21
576.4699688492
 31
0.0
  0
LINE
  5
233
330
1F
100
AcDbEntity
  8
0
  6
Continuous
 62
     7
370
    15
100
AcDbLine
 10
827.9569302
 20
567.7694140936
 30
0.0
 11
835.1554878275
 21
552.3320574437
 31
0.0
  0
ARC
  5
234
330
1F
100
AcDbEntity
  8
0
  6
Continuous
 62
     7
370
    15
100
AcDbCircle
 10
834.393421218
 20
552.0475050096
 30
0.0
 40
0.8134590371249887
100
AcDbArc
 50
307.9512950048
 51
20.4754182492
  0
ARC
  5
235
330
1F
100
AcDbEntity
  8
0
  6
Continuous
 62
     7
370
    15
100
AcDbCircle
 10
815.9643055381
 20
591.5646450598
 30
0.0
 40
0.8151774847987624
100
AcDbArc
 50
29.4591397587
 51
101.947652455
  0
SPLINE
  5
236
330
1F
100
AcDbEntity
  8
0
  6
Continuous
 62
     7
370
    15
100
AcDbSpline
210
0.0
220
0.0
230
1.0
 70
     8
 71
     3
 72
     9
 73
     5
 74
     0
 42
0.00000001
 43
0.00000001
 12
1.0
 22
0.0
 32
0.0
 13
1.0
 23
0.0
 33
0.0
 40
0.0
 40
0.0
 40
0.0
 40
0.0
 40
0.53155894267482
 40
1.0
 40
1.0
 40
1.0
 40
1.0
 10
835.1554878275173
 20
552.3320574436659
 30
0.0
 10
835.2582703630183
 20
552.160569961159
 30
0.0
 10
835.451630924283
 20
551.837957605803
 30
0.0
 10
835.7774153227824
 20
551.7792325365363
 30
0.0
 10
835.9300261108755
 20
551.7517233029973
 30
0.0
  0
SPLINE
  5
237
330
1F
100
AcDbEntity
  8
0
  6
Continuous
 62
     7
370
    15
100
AcDbSpline
210
0.0
220
0.0
230
1.0
 70
     8
 71
     3
 72
    12
 73
     8
 74
     0
 42
0.00000001
 43
0.00000001
 12
1.0
 22
0.0
 32
0.0
 13
1.0
 23
0.0
 33
0.0
 40
0.0
 40
0.0
 40
0.0
 40
0.0
 40
0.030471745945942
 40
0.0888135668586267
 40
0.3925556175487492
 40
0.6962774394174349
 40
1.0
 40
1.0
 40
1.0
 40
1.0
 10
835.9300261108755
 20
551.7517233029973
 30
0.0
 10
835.9347258400616
 20
551.7422235561469
 30
0.0
 10
835.9484237657736
 20
551.7145354018958
 30
0.0
 10
836.0032187000593
 20
551.5878643248193
 30
0.0
 10
836.060271723497
 20
551.3497988881011
 30
0.0
 10
836.0517105865911
 20
551.0046196503102
 30
0.0
 10
835.9718326968043
 20
550.8001719509981
 30
0.0
 10
835.9318937033411
 20
550.6979479770273
 30
0.0
  0
SPLINE
  5
238
330
1F
100
AcDbEntity
  8
0
  6
Continuous
 62
     7
370
    15
100
AcDbSpline
210
0.0
220
0.0
230
1.0
 70
     8
 71
     3
 72
    10
 73
     6
 74
     0
 42
0.00000001
 43
0.00000001
 12
1.0
 22
0.0
 32
0.0
 13
1.0
 23
0.0
 33
0.0
 40
0.0
 40
0.0
 40
0.0
 40
0.0
 40
0.2117958997125465
 40
0.4880069094709386
 40
1.0
 40
1.0
 40
1.0
 40
1.0
 10
835.9318937033411
 20
550.6979479770273
 30
0.0
 10
835.930779684576
 20
550.6952056457114
 30
0.0
 10
835.9282128319815
 20
550.688886936841
 30
0.0
 10
835.9278173263992
 20
550.6777022066183
 30
0.0
 10
835.9302402934177
 20
550.6713478235972
 30
0.0
 10
835.9318141781152
 20
550.6672202122334
 30
0.0
  0
SPLINE
  5
239
330
1F
100
AcDbEntity
  8
0
  6
Continuous
 62
     7
370
    15
100
AcDbSpline
210
0.0
220
0.0
230
1.0
 70
     8
 71
     3
 72
    12
 73
     8
 74
     0
 42
0.00000001
 43
0.00000001
 12
1.0
 22
0.0
 32
0.0
 13
1.0
 23
0.0
 33
0.0
 40
0.0
 40
0.0
 40
0.0
 40
0.0
 40
0.030471745951582
 40
0.0888135668586373
 40
0.3925556175487563
 40
0.6962774394174037
 40
1.0
 40
1.0
 40
1.0
 40
1.0
 10
816.7295521091585
 20
592.927272676743
 30
0.0
 10
816.7252899821258
 20
592.9369916925717
 30
0.0
 10
816.7128675005009
 20
592.9653189326152
 30
0.0
 10
816.6509847997409
 20
593.0888638513871
 30
0.0
 10
816.5052137167704
 20
593.2857561144834
 30
0.0
 10
816.2352850533075
 20
593.5010813462001
 30
0.0
 10
816.027409775675
 20
593.5711249309289
 30
0.0
 10
815.92347201046
 20
593.6061467658834
 30
0.0
  0
SPLINE
  5
23A
330
1F
100
AcDbEntity
  8
0
  6
Continuous
 62
     7
370
    15
100
AcDbSpline
210
0.0
220
0.0
230
1.0
 70
     8
 71
     3
 72
     9
 73
     5
 74
     0
 42
0.00000001
 43
0.00000001
 12
1.0
 22
0.0
 32
0.0
 13
1.0
 23
0.0
 33
0.0
 40
0.0
 40
0.0
 40
0.0
 40
0.0
 40
0.4684410573252074
 40
1.0
 40
1.0
 40
1.0
 40
1.0
 10
816.7295521091584
 20
592.927272676743
 30
0.0
 10
816.6521788698819
 20
592.793434466162
 30
0.0
 10
816.4870070983932
 20
592.5077246452831
 30
0.0
 10
816.6091564240254
 20
592.1537238646993
 30
0.0
 10
816.6740859904069
 20
591.965551584066
 30
0.0
  0
SPLINE
  5
23B
330
1F
100
AcDbEntity
  8
0
  6
Continuous
 62
     7
370
    15
100
AcDbSpline
210
0.0
220
0.0
230
1.0
 70
     8
 71
     3
 72
    11
 73
     7
 74
     0
 42
0.00000001
 43
0.00000001
 12
1.0
 22
0.0
 32
0.0
 13
1.0
 23
0.0
 33
0.0
 40
0.0
 40
0.0
 40
0.0
 40
0.0
 40
0.3704320937877235
 40
0.7442498469284174
 40
0.9442480537681747
 40
1.0
 40
1.0
 40
1.0
 40
1.0
 10
815.8999308616714
 20
593.6257326151874
 30
0.0
 10
815.901416809184
 20
593.6229533118442
 30
0.0
 10
815.9044022854084
 20
593.617369303
 30
0.0
 10
815.911661073579
 20
593.610685408479
 30
0.0
 10
815.9191801818524
 20
593.6072790199103
 30
0.0
 10
815.9227038686134
 20
593.6063494141665
 30
0.0
 10
815.92347201046
 20
593.6061467658834
 30
0.0
  0
SPLINE
  5
23C
330
1F
100
AcDbEntity
  8
0
  6
Continuous
 62
     7
370
    15
100
AcDbSpline
210
0.0
220
0.0
230
1.0
 70
     8
 71
     3
 72
    11
 73
     7
 74
     0
 42
0.00000001
 43
0.00000001
 12
1.0
 22
0.0
 32
0.0
 13
1.0
 23
0.0
 33
0.0
 40
0.0
 40
0.0
 40
0.0
 40
0.0
 40
0.3658281109894385
 40
0.7252591430831267
 40
0.9820690181776703
 40
1.0
 40
1.0
 40
1.0
 40
1.0
 10
819.2241377819989
 20
593.4716648835714
 30
0.0
 10
818.8437815686522
 20
593.4803059242553
 30
0.0
 10
818.0897202675342
 20
593.4974369034597
 30
0.0
 10
817.2326723501626
 20
593.3003688893474
 30
0.0
 10
816.8510371970124
 20
593.0622750458789
 30
0.0
 10
816.7369950763785
 20
592.9355438005974
 30
0.0
 10
816.7295521091584
 20
592.927272676743
 30
0.0
  0
LINE
  5
23D
330
1F
100
AcDbEntity
  8
0
  6
Continuous
 62
     7
370
    15
100
AcDbLine
 10
819.224137782
 20
593.4716648836
 30
0.0
 11
837.9532877054
 21
553.3068732575
 31
0.0
  0
SPLINE
  5
23E
330
1F
100
AcDbEntity
  8
0
  6
Continuous
 62
     7
370
    15
100
AcDbSpline
210
0.0
220
0.0
230
1.0
 70
     8
 71
     3
 72
    11
 73
     7
 74
     0
 42
0.00000001
 43
0.00000001
 12
1.0
 22
0.0
 32
0.0
 13
1.0
 23
0.0
 33
0.0
 40
0.0
 40
0.0
 40
0.0
 40
0.0
 40
0.235794853775872
 40
0.2749019968044777
 40
0.6342531696138447
 40
1.0
 40
1.0
 40
1.0
 40
1.0
 10
835.9300261108755
 20
551.7517233029973
 30
0.0
 10
836.082464740714
 20
551.7745624999568
 30
0.0
 10
836.2601856835662
 20
551.8011896326062
 30
0.0
 10
836.6946221639096
 20
552.012774534075
 30
0.0
 10
837.2440023243988
 20
552.4219226012509
 30
0.0
 10
837.715473057589
 20
553.0101602075723
 30
0.0
 10
837.9532877054355
 20
553.3068732575017
 30
0.0
  0
LINE
  5
23F
330
1F
100
AcDbEntity
  8
0
  6
Continuous
 62
     7
370
    15
100
AcDbLine
 10
850.4087261347
 20
565.5502179627
 30
0.0
 11
838.7953518343
 21
552.430770543
 31
0.0
  0
SPLINE
  5
240
330
1F
100
AcDbEntity
  8
0
  6
Continuous
 62
     7
370
    15
100
AcDbSpline
210
0.0
220
0.0
230
1.0
 70
     8
 71
     3
 72
    10
 73
     6
 74
     0
 42
0.00000001
 43
0.00000001
 12
1.0
 22
0.0
 32
0.0
 13
1.0
 23
0.0
 33
0.0
 40
0.0
 40
0.0
 40
0.0
 40
0.0
 40
0.3554439450437147
 40
0.7142330220663329
 40
1.0
 40
1.0
 40
1.0
 40
1.0
 10
838.7953518343485
 20
552.4307705429585
 30
0.0
 10
838.4522755068472
 20
552.0887385136722
 30
0.0
 10
837.7628941132198
 20
551.4014555445093
 30
0.0
 10
836.7373509533827
 20
550.7838740220556
 30
0.0
 10
836.1793057054756
 20
550.7243418481296
 30
0.0
 10
835.9318937033411
 20
550.6979479770273
 30
0.0
  0
ARC
  5
241
330
1F
100
AcDbEntity
  8
0
  6
Continuous
 62
     7
370
    15
100
AcDbCircle
 10
835.3898843163
 20
550.0003385605
 30
0.0
 40
4.183803130850575
100
AcDbArc
 50
35.514890755
 51
52.2152339756
  0
ELLIPSE
  5
242
330
1F
100
AcDbEntity
  8
0
  6
Continuous
 62
     7
370
    15
100
AcDbEllipse
 10
814.9080682357
 20
559.0535534585
 30
0.0
 11
-0.5243918029667612
 21
38.9026486601274
 31
0.0
210
0.0
220
0.0
230
1.0
 40
0.000684204
 41
6.281214576121347
 42
6.282115130875503
  0
SPLINE
  5
243
330
1F
100
AcDbEntity
  8
0
  6
Continuous
 62
     7
370
    15
100
AcDbSpline
210
0.0
220
0.0
230
1.0
 70
     8
 71
     3
 72
    12
 73
     8
 74
     0
 42
0.00000001
 43
0.00000001
 12
1.0
 22
0.0
 32
0.0
 13
1.0
 23
0.0
 33
0.0
 40
0.0
 40
0.0
 40
0.0
 40
0.0
 40
0.2486242961365409
 40
0.4972483524683878
 40
0.7458782348958498
 40
0.9945104321495456
 40
0.9999999999999999
 40
0.9999999999999999
 40
0.9999999999999999
 40
0.9999999999999999
 10
814.6173692442311
 20
597.9586220448961
 30
0.0
 10
814.5895216132442
 20
597.958278885847
 30
0.0
 10
814.5338263781301
 20
597.9575925680799
 30
0.0
 10
814.4616549656267
 20
597.9569068247961
 30
0.0
 10
814.410256704
 20
597.9564698417228
 30
0.0
 10
814.3887971266181
 20
597.9562871413556
 30
0.0
 10
814.3866427705294
 20
597.9562413569097
 30
0.0
 10
814.3865962318793
 20
597.9562403678688
 30
0.0
  0
LINE
  5
244
330
1F
100
AcDbEntity
  8
0
  6
Continuous
 62
     7
370
    15
100
AcDbLine
 10
814.6173692442
 20
597.9586220449
 30
0.0
 11
833.7112195997
 21
598.1688115689
 31
0.0
  0
LINE
  5
245
330
1F
100
AcDbEntity
  8
0
  6
Continuous
 62
     7
370
    15
100
AcDbLine
 10
833.7112195997
 20
598.1688115689
 30
0.0
 11
835.1898555084
 21
598.1871913433
 31
0.0
  0
LINE
  5
246
330
1F
100
AcDbEntity
  8
0
  6
Continuous
 62
     7
370
    15
100
AcDbLine
 10
836.6139339677
 20
595.133245232
 30
0.0
 11
835.1898555084
 21
598.1871913433
 31
0.0
  0
LINE
  5
247
330
1F
100
AcDbEntity
  8
0
  6
Continuous
 62
     7
370
    15
100
AcDbLine
 10
819.0950173445
 20
594.6782741928
 30
0.0
 11
836.6139339677
 21
595.133245232
 31
0.0
  0
SPLINE
  5
248
330
1F
100
AcDbEntity
  8
0
  6
Continuous
 62
     7
370
    15
100
AcDbSpline
210
0.0
220
0.0
230
1.0
 70
     8
 71
     3
 72
    10
 73
     6
 74
     0
 42
0.00000001
 43
0.00000001
 12
1.0
 22
0.0
 32
0.0
 13
1.0
 23
0.0
 33
0.0
 40
0.0
 40
0.0
 40
0.0
 40
0.0
 40
0.2857669779336573
 40
0.6445560549562911
 40
1.0
 40
1.0
 40
1.0
 40
1.0
 10
815.92347201046
 20
593.6061467658834
 30
0.0
 10
816.103222619445
 20
593.777640962846
 30
0.0
 10
816.5086555502936
 20
594.1644513068592
 30
0.0
 10
817.6422791989996
 20
594.5502534729607
 30
0.0
 10
818.6122856475131
 20
594.6357340698523
 30
0.0
 10
819.0950173444878
 20
594.6782741928167
 30
0.0
  0
ARC
  5
249
330
1F
100
AcDbEntity
  8
0
  6
Continuous
 62
     7
370
    15
100
AcDbCircle
 10
815.0263831494
 20
593.6326723779
 30
0.0
 40
4.200841269180201
100
AcDbArc
 50
357.803461405
 51
14.4126043511
  0
LINE
  5
24A
330
1F
100
AcDbEntity
  8
0
  6
Continuous
 62
     7
370
    15
100
AcDbLine
 10
837.9532877054
 20
553.3068732575
 30
0.0
 11
849.6288433224
 21
566.2929724135
 31
0.0
  0
ARC
  5
24B
330
1F
100
AcDbEntity
  8
0
  6
Continuous
 62
     7
370
    15
100
AcDbCircle
 10
846.1541430723
 20
561.8637701556
 30
0.0
 40
5.629509256528456
100
AcDbArc
 50
40.9077878936
 51
51.8858872546
  0
LINE
  5
24C
330
1F
100
AcDbEntity
  8
0
  6
Continuous
 62
     7
370
    15
100
AcDbLine
 10
836.6809014755
 20
594.0599233106
 30
0.0
 11
819.224137782
 21
593.4716648836
 31
0.0
  0
LINE
  5
24D
330
1F
100
AcDbEntity
  8
0
  6
Continuous
 62
     7
370
    15
100
AcDbLine
 10
849.6288433224
 20
566.2929724135
 30
0.0
 11
836.6809014755
 21
594.0599233106
 31
0.0
  0
ARC
  5
24E
330
1F
100
AcDbEntity
  8
0
  6
Continuous
 62
     7
370
    15
100
AcDbCircle
 10
831.0101993754
 20
594.2448627085
 30
0.0
 40
5.673717025806173
100
AcDbArc
 50
358.1320668253
 51
9.0083598779
  0
ARC
  5
24F
330
1F
100
AcDbEntity
  8
0
  6
Continuous
 62
     7
370
    15
100
AcDbCircle
 10
850.3256422352
 20
565.3345294365
 30
0.0
 40
1.184964837051597
100
AcDbArc
 50
75.3520521405
 51
126.01757679
  0
ARC
  5
250
330
1F
100
AcDbEntity
  8
0
  6
Continuous
 62
     7
370
    15
100
AcDbCircle
 10
849.8502078178
 20
566.1707502365
 30
0.0
 40
0.8348670631569047
100
AcDbArc
 50
311.9892157314
 51
21.813852472
  0
LINE
  5
251
330
1F
100
AcDbEntity
  8
0
  6
Continuous
 62
     7
370
    15
100
AcDbLine
 10
837.4669589555
 20
594.6991232762
 30
0.0
 11
850.6252950712
 21
566.4809804136
 31
0.0
  0
ARC
  5
252
330
1F
100
AcDbEntity
  8
0
  6
Continuous
 62
     7
370
    15
100
AcDbCircle
 10
836.3901440282
 20
595.2204107717
 30
0.0
 40
1.196357405021144
100
AcDbArc
 50
284.0657738339
 51
334.1683160447
  0
ARC
  5
253
330
1F
100
AcDbEntity
  8
0
  6
Continuous
 62
     7
370
    15
100
AcDbCircle
 10
836.7291898109
 20
594.3045826127
 30
0.0
 40
0.8366394958118581
100
AcDbArc
 50
28.1367677157
 51
97.9182744665
  0
LINE
  5
254
330
1F
100
AcDbEntity
  8
0
  6
Continuous
 62
     7
370
    15
100
AcDbLine
 10
850.6252950712
 20
566.4809804136
 30
0.0
 11
852.0223155017
 21
563.4850604323
 31
0.0
  0
LINE
  5
255
330
1F
100
AcDbEntity
  8
0
  6
Continuous
 62
     7
370
    15
100
AcDbLine
 10
836.1108093936
 20
597.607395397
 30
0.0
 11
837.4669589555
 21
594.6991232762
 31
0.0
  0
SPLINE
  5
256
330
1F
100
AcDbEntity
  8
0
  6
Continuous
 62
     7
370
    15
100
AcDbSpline
210
0.0
220
0.0
230
1.0
 70
     8
 71
     3
 72
    11
 73
     7
 74
     0
 42
0.00000001
 43
0.00000001
 12
1.0
 22
0.0
 32
0.0
 13
1.0
 23
0.0
 33
0.0
 40
0.0
 40
0.0
 40
0.0
 40
0.0
 40
0.2933118760926807
 40
0.5865991201419951
 40
0.8805021461502809
 40
1.0
 40
1.0
 40
1.0
 40
1.0
 10
835.1898555083741
 20
598.1871913432883
 30
0.0
 10
835.3025563355209
 20
598.1775210080057
 30
0.0
 10
835.5279485253095
 20
598.1581811495456
 30
0.0
 10
835.8287047984378
 20
597.9889772197322
 30
0.0
 10
836.0171526654578
 20
597.7883771556179
 30
0.0
 10
836.089807696065
 20
597.6479789645147
 30
0.0
 10
836.1108093935745
 20
597.6073953969931
 30
0.0
  0
LINE
  5
257
330
1F
100
AcDbEntity
  8
0
  6
Continuous
 62
     7
370
    15
100
AcDbLine
 10
790.1412833866
 20
631.9940237218
 30
0.0
 11
774.0816202388
 21
624.5052798086
 31
0.0
  0
SPLINE
  5
258
330
1F
100
AcDbEntity
  8
0
  6
Continuous
 62
     7
370
    15
100
AcDbSpline
210
0.0
220
0.0
230
1.0
 70
     8
 71
     3
 72
    14
 73
    10
 74
     0
 42
0.00000001
 43
0.00000001
 12
1.0
 22
0.0
 32
0.0
 13
1.0
 23
0.0
 33
0.0
 40
0.0
 40
0.0
 40
0.0
 40
0.0
 40
0.1424979789612897
 40
0.2891107491291741
 40
0.4316087267218906
 40
0.5782214232939499
 40
0.720967110898728
 40
0.8678498166738062
 40
1.0
 40
1.0
 40
1.0
 40
1.0
 10
774.0816202388058
 20
624.5052798086045
 30
0.0
 10
773.9370031106281
 20
624.4501503379263
 30
0.0
 10
773.6435928702218
 20
624.3382994704044
 30
0.0
 10
773.143378690075
 20
624.3044823914092
 30
0.0
 10
772.5966944818397
 20
624.3600399880766
 30
0.0
 10
772.0147387647609
 20
624.5008544971416
 30
0.0
 10
771.3961068361741
 20
624.7093842180927
 30
0.0
 10
770.7769333929606
 20
624.9558146537235
 30
0.0
 10
770.3610572017014
 20
625.1325678996883
 30
0.0
 10
770.1640979289331
 20
625.2162783681316
 30
0.0
  0
LINE
  5
259
330
1F
100
AcDbEntity
  8
0
  6
Continuous
 62
     7
370
    15
100
AcDbLine
 10
770.1640979289
 20
625.2162783681
 30
0.0
 11
808.5028842084
 21
643.0939480146
 31
0.0
  0
LINE
  5
25A
330
1F
100
AcDbEntity
  8
0
  6
Continuous
 62
     7
370
    15
100
AcDbLine
 10
773.6203291278
 20
623.2466302845
 30
0.0
 11
774.1143982065
 21
622.1870957261
 31
0.0
  0
LINE
  5
25B
330
1F
100
AcDbEntity
  8
0
  6
Continuous
 62
     7
370
    15
100
AcDbLine
 10
830.0212678326
 20
502.2944269089
 30
0.0
 11
827.9367599224
 21
501.3224049069
 31
0.0
  0
LINE
  5
25C
330
1F
100
AcDbEntity
  8
0
  6
Continuous
 62
     7
370
    15
100
AcDbLine
 10
827.9367599224
 20
501.3224049069
 30
0.0
 11
770.1640979289
 21
625.2162783681
 31
0.0
  0
SPLINE
  5
25D
330
1F
100
AcDbEntity
  8
0
  6
Continuous
 62
     7
370
    15
100
AcDbSpline
210
0.0
220
0.0
230
1.0
 70
     8
 71
     3
 72
    11
 73
     7
 74
     0
 42
0.00000001
 43
0.00000001
 12
1.0
 22
0.0
 32
0.0
 13
1.0
 23
0.0
 33
0.0
 40
0.0
 40
0.0
 40
0.0
 40
0.0
 40
0.288807707719413
 40
0.577615336219724
 40
0.8669345414323455
 40
1.0
 40
1.0
 40
1.0
 40
1.0
 10
770.1640979289333
 20
625.2162783681318
 30
0.0
 10
770.6117959537111
 20
625.0800696132756
 30
0.0
 10
771.5071918804643
 20
624.8076521409246
 30
0.0
 10
772.654353469525
 20
624.30764281381
 30
0.0
 10
773.3292410182567
 20
623.7713920833814
 30
0.0
 10
773.5505951027062
 20
623.3723439473292
 30
0.0
 10
773.6203291278232
 20
623.2466302844819
 30
0.0
  0
LINE
  5
25E
330
1F
100
AcDbEntity
  8
0
  6
Continuous
 62
     7
370
    15
100
AcDbLine
 10
827.9367599224
 20
494.8140836761
 30
0.0
 11
830.0212678326
 21
493.842061674
 31
0.0
  0
ARC
  5
25F
330
1F
100
AcDbEntity
  8
0
  6
Continuous
 62
     7
370
    15
100
AcDbCircle
 10
820.9581899622
 20
498.0682442915
 30
0.0
 40
7.699999999999647
100
AcDbArc
 50
335.0
 51
25.0
  0
SPLINE
  5
260
330
1F
100
AcDbEntity
  8
0
  6
Continuous
 62
     7
370
    15
100
AcDbSpline
210
0.0
220
0.0
230
1.0
 70
     8
 71
     3
 72
    12
 73
     8
 74
     0
 42
0.00000001
 43
0.00000001
 12
1.0
 22
0.0
 32
0.0
 13
1.0
 23
0.0
 33
0.0
 40
0.0
 40
0.0
 40
0.0
 40
0.0
 40
0.2096821001528681
 40
0.4420453733185877
 40
0.6744332966681263
 40
0.9068208701180616
 40
1.0
 40
1.0
 40
1.0
 40
1.0
 10
-65.94495426546027
 20
446.1682442914548
 30
0.0
 10
-66.19728522343566
 20
446.0639590835273
 30
0.0
 10
-66.72924161092314
 20
445.8441082062405
 30
0.0
 10
-67.4506230407374
 20
445.5081400763575
 30
0.0
 10
-67.99398197472412
 20
445.1612348079408
 30
0.0
 10
-68.22260381486706
 20
444.8828581457079
 30
0.0
 10
-68.23998085349187
 20
444.7214976844863
 30
0.0
 10
-68.24495426546035
 20
444.6753153592666
 30
0.0
  0
LINE
  5
261
330
1F
100
AcDbEntity
  8
0
  6
Continuous
 62
     7
370
    15
100
AcDbLine
 10
-68.2449542655
 20
690.2611732236
 30
0.0
 11
-68.2449542655
 21
444.6753153593
 31
0.0
  0
SPLINE
  5
262
330
1F
100
AcDbEntity
  8
0
  6
Continuous
 62
     7
370
    15
100
AcDbSpline
210
0.0
220
0.0
230
1.0
 70
     8
 71
     3
 72
    12
 73
     8
 74
     0
 42
0.00000001
 43
0.00000001
 12
1.0
 22
0.0
 32
0.0
 13
1.0
 23
0.0
 33
0.0
 40
0.0
 40
0.0
 40
0.0
 40
0.0
 40
0.2096821001528617
 40
0.4420453733185935
 40
0.6744332966681255
 40
0.9068208701180397
 40
0.9999999999999999
 40
0.9999999999999999
 40
0.9999999999999999
 40
0.9999999999999999
 10
-68.24495426546024
 20
690.2611732236434
 30
0.0
 10
-68.22061429529153
 20
690.1568880157157
 30
0.0
 10
-68.16930151660466
 20
689.937037138429
 30
0.0
 10
-67.74837092967661
 20
689.6010690085462
 30
0.0
 10
-67.09658145178027
 20
689.2541637401292
 30
0.0
 10
-66.44714041267835
 20
688.9757870778967
 30
0.0
 10
-66.05670049557172
 20
688.814426616675
 30
0.0
 10
-65.94495426546027
 20
688.7682442914552
 30
0.0
  0
LINE
  5
263
330
1F
100
AcDbEntity
  8
0
  6
Continuous
 62
     7
370
    15
100
AcDbLine
 10
-65.9449542655
 20
688.7682442915
 30
0.0
 11
-65.9449542655
 21
446.1682442915
 31
0.0
  0
CIRCLE
  5
264
330
1F
100
AcDbEntity
  8
0
  6
Continuous
 62
     7
370
    15
100
AcDbCircle
 10
9.3022681445
 20
671.0682442915
 30
0.0
 40
6.34766310537168
  0
CIRCLE
  5
265
330
1F
100
AcDbEntity
  8
0
  6
Continuous
 62
     7
370
    15
100
AcDbCircle
 10
779.3022681445
 20
671.0682442915
 30
0.0
 40
6.34766310537168
  0
LINE
  5
266
330
1F
100
AcDbEntity
  8
0
  6
Continuous
 62
     7
370
    15
100
AcDbLine
 10
-65.9449542655
 20
446.1682442915
 30
0.0
 11
800.3473914718
 21
446.1682442915
 31
0.0
  0
LINE
  5
267
330
1F
100
AcDbEntity
  8
0
  6
Continuous
 62
     7
370
    15
100
AcDbLine
 10
819.7022681445
 20
688.7682442915
 30
0.0
 11
-65.9449542655
 21
688.7682442915
 31
0.0
  0
ARC
  5
268
330
1F
100
AcDbEntity
  8
0
  6
Continuous
 62
     7
370
    15
100
AcDbCircle
 10
819.7022681445
 20
681.0682442915
 30
0.0
 40
7.699999999999704
100
AcDbArc
 50
335.0
 51
90.0
  0
LINE
  5
269
330
1F
100
AcDbEntity
  8
0
  6
Continuous
 62
     7
370
    15
100
AcDbLine
 10
812.2272935532
 20
646.8183573594
 30
0.0
 11
826.6808381047
 21
677.8140836761
 31
0.0
  0
ARC
  5
26A
330
1F
100
AcDbEntity
  8
0
  6
Continuous
 62
     7
370
    15
100
AcDbCircle
 10
805.248723593
 20
650.0725179748
 30
0.0
 40
7.700000000000203
100
AcDbArc
 50
295.0
 51
335.0
  0
LINE
  5
26B
330
1F
100
AcDbEntity
  8
0
  6
Continuous
 62
     7
370
    15
100
AcDbLine
 10
807.325961432
 20
450.6140836761
 30
0.0
 11
827.9367599224
 21
494.8140836761
 31
0.0
  0
ARC
  5
26C
330
1F
100
AcDbEntity
  8
0
  6
Continuous
 62
     7
370
    15
100
AcDbCircle
 10
800.3473914718
 20
453.8682442915
 30
0.0
 40
7.699999999999932
100
AcDbArc
 50
270.0
 51
335.0
  0
CIRCLE
  5
26D
330
1F
100
AcDbEntity
  8
0
  6
Continuous
 62
     7
370
    15
100
AcDbCircle
 10
399.3022681445
 20
671.0682442915
 30
0.0
 40
6.34766310537168
  0
SPLINE
  5
26E
330
1F
100
AcDbEntity
  8
0
  6
Continuous
 62
     7
370
    15
100
AcDbSpline
210
0.0
220
0.0
230
1.0
 70
     8
 71
     3
 72
    12
 73
     8
 74
     0
 42
0.00000001
 43
0.00000001
 12
1.0
 22
0.0
 32
0.0
 13
1.0
 23
0.0
 33
0.0
 40
0.0
 40
0.0
 40
0.0
 40
0.0
 40
0.2096821001528853
 40
0.4420453733185798
 40
0.6744332966681246
 40
0.9068208701180606
 40
0.9999999999999999
 40
0.9999999999999999
 40
0.9999999999999999
 40
0.9999999999999999
 10
-65.94495426546027
 20
688.7682442914552
 30
0.0
 10
-66.04923947338776
 20
689.0205752494305
 30
0.0
 10
-66.26909035067446
 20
689.5525316369177
 30
0.0
 10
-66.60505848055726
 20
690.2739130667325
 30
0.0
 10
-66.95196374897422
 20
690.817272000719
 30
0.0
 10
-67.2303404112073
 20
691.0458938408624
 30
0.0
 10
-67.39170087242869
 20
691.0632708794866
 30
0.0
 10
-67.43788319764838
 20
691.0682442914552
 30
0.0
  0
SPLINE
  5
26F
330
1F
100
AcDbEntity
  8
0
  6
Continuous
 62
     7
370
    15
100
AcDbSpline
210
0.0
220
0.0
230
1.0
 70
     8
 71
     3
 72
    11
 73
     7
 74
     0
 42
0.00000001
 43
0.00000001
 12
1.0
 22
0.0
 32
0.0
 13
1.0
 23
0.0
 33
0.0
 40
0.0
 40
0.0
 40
0.0
 40
0.0
 40
0.2543211584720612
 40
0.5088664984541674
 40
0.7634130007196556
 40
1.0
 40
1.0
 40
1.0
 40
1.0
 10
-65.94495426546027
 20
688.7682442914552
 30
0.0
 10
-66.07153537324578
 20
688.9682194815945
 30
0.0
 10
-66.3248091687732
 20
689.3683461379657
 30
0.0
 10
-66.70475383825841
 20
689.869969892061
 30
0.0
 10
-67.07597896993006
 20
690.2060351389201
 30
0.0
 10
-67.32022561459877
 20
690.2480196630307
 30
0.0
 10
-67.43788319764838
 20
690.2682442914552
 30
0.0
  0
LINE
  5
270
330
1F
100
AcDbEntity
  8
0
  6
Continuous
 62
     7
370
    15
100
AcDbLine
 10
-67.4378831976
 20
691.0682442915
 30
0.0
 11
-67.4378831976
 21
690.2682442915
 31
0.0
  0
LINE
  5
271
330
1F
100
AcDbEntity
  8
0
  6
Continuous
 62
     7
370
    15
100
AcDbLine
 10
-68.2449542655
 20
690.2611732236
 30
0.0
 11
-67.4449542655
 21
690.2611732236
 31
0.0
  0
SPLINE
  5
272
330
1F
100
AcDbEntity
  8
0
  6
Continuous
 62
     7
370
    15
100
AcDbSpline
210
0.0
220
0.0
230
1.0
 70
     8
 71
     3
 72
    11
 73
     7
 74
     0
 42
0.00000001
 43
0.00000001
 12
1.0
 22
0.0
 32
0.0
 13
1.0
 23
0.0
 33
0.0
 40
0.0
 40
0.0
 40
0.0
 40
0.0
 40
0.2543211584721097
 40
0.5088664984542219
 40
0.7634130007196832
 40
0.9999999999999999
 40
0.9999999999999999
 40
0.9999999999999999
 40
0.9999999999999999
 10
-67.44495426546032
 20
690.2611732236434
 30
0.0
 10
-67.42160020344129
 20
690.1345921158579
 30
0.0
 10
-67.3748714930355
 20
689.8813183203303
 30
0.0
 10
-67.01598387683988
 20
689.5013736508448
 30
0.0
 10
-66.51676089755082
 20
689.1301485191739
 30
0.0
 10
-66.13085258095536
 20
688.8859018745047
 30
0.0
 10
-65.94495426546027
 20
688.7682442914552
 30
0.0
  0
LINE
  5
273
330
1F
100
AcDbEntity
  8
0
  6
Continuous
 62
     7
370
    15
100
AcDbLine
 10
-67.4378831976
 20
691.0682442915
 30
0.0
 11
-64.0508760843
 21
691.0682442915
 31
0.0
  0
LINE
  5
274
330
1F
100
AcDbEntity
  8
0
  6
Continuous
 62
     7
370
    15
100
AcDbLine
 10
-53.3008760843
 20
691.0682442915
 30
0.0
 11
8.9491239157
 21
691.0682442915
 31
0.0
  0
LINE
  5
275
330
1F
100
AcDbEntity
  8
0
  6
Continuous
 62
     7
370
    15
100
AcDbLine
 10
819.7022681445
 20
691.0682442915
 30
0.0
 11
819.7022681445
 21
688.7682442915
 31
0.0
  0
SPLINE
  5
276
330
1F
100
AcDbEntity
  8
0
  6
Continuous
 62
     7
370
    15
100
AcDbSpline
210
0.0
220
0.0
230
1.0
 70
     8
 71
     3
 72
    11
 73
     7
 74
     0
 42
0.00000001
 43
0.00000001
 12
1.0
 22
0.0
 32
0.0
 13
1.0
 23
0.0
 33
0.0
 40
0.0
 40
0.0
 40
0.0
 40
0.0
 40
0.2543211584721276
 40
0.5088664984542407
 40
0.7634130007197292
 40
1.0
 40
1.0
 40
1.0
 40
1.0
 10
-65.94495426546027
 20
446.1682442914548
 30
0.0
 10
-66.14492945559941
 20
446.0416631836694
 30
0.0
 10
-66.54505611197075
 20
445.7883893881416
 30
0.0
 10
-67.04667986606621
 20
445.4084447186563
 30
0.0
 10
-67.38274511292491
 20
445.0372195869853
 30
0.0
 10
-67.42472963703577
 20
444.7929729423162
 30
0.0
 10
-67.44495426546032
 20
444.6753153592666
 30
0.0
  0
LINE
  5
277
330
1F
100
AcDbEntity
  8
0
  6
Continuous
 62
     7
370
    15
100
AcDbLine
 10
-68.2449542655
 20
444.6753153593
 30
0.0
 11
-67.4449542655
 21
444.6753153593
 31
0.0
  0
LINE
  5
278
330
1F
100
AcDbEntity
  8
0
  6
Continuous
 62
     7
370
    15
100
AcDbLine
 10
809.4104693421
 20
449.642061674
 30
0.0
 11
807.325961432
 21
450.6140836761
 31
0.0
  0
LINE
  5
279
330
1F
100
AcDbEntity
  8
0
  6
Continuous
 62
     7
370
    15
100
AcDbLine
 10
800.3473914718
 20
446.1682442915
 30
0.0
 11
800.3473914718
 21
443.8682442915
 31
0.0
  0
LINE
  5
27A
330
1F
100
AcDbEntity
  8
0
  6
Continuous
 62
     7
370
    15
100
AcDbLine
 10
814.3118014634
 20
645.8463353574
 30
0.0
 11
812.2272935532
 21
646.8183573594
 31
0.0
  0
LINE
  5
27B
330
1F
100
AcDbEntity
  8
0
  6
Continuous
 62
     7
370
    15
100
AcDbLine
 10
739.7180940799
 20
443.8682442915
 30
0.0
 11
738.443375454
 21
443.8682442915
 31
0.0
  0
LINE
  5
27C
330
1F
100
AcDbEntity
  8
0
  6
Continuous
 62
     7
370
    15
100
AcDbLine
 10
737.1414068484
 20
443.8682442915
 30
0.0
 11
736.6143690129
 21
443.8682442915
 31
0.0
  0
LINE
  5
27D
330
1F
100
AcDbEntity
  8
0
  6
Continuous
 62
     7
370
    15
100
AcDbLine
 10
-4.9446145886
 20
443.8682442915
 30
0.0
 11
-67.4378831976
 21
443.8682442915
 31
0.0
  0
SPLINE
  5
27E
330
1F
100
AcDbEntity
  8
0
  6
Continuous
 62
     7
370
    15
100
AcDbSpline
210
0.0
220
0.0
230
1.0
 70
     8
 71
     3
 72
    12
 73
     8
 74
     0
 42
0.00000001
 43
0.00000001
 12
1.0
 22
0.0
 32
0.0
 13
1.0
 23
0.0
 33
0.0
 40
0.0
 40
0.0
 40
0.0
 40
0.0
 40
0.2096821001528683
 40
0.4420453733186042
 40
0.6744332966681316
 40
0.9068208701180644
 40
1.0
 40
1.0
 40
1.0
 40
1.0
 10
-67.43788319764838
 20
443.8682442914547
 30
0.0
 10
-67.33359798972089
 20
443.8925842616234
 30
0.0
 10
-67.11374711243428
 20
443.9438970403102
 30
0.0
 10
-66.77777898255115
 20
444.3648276272389
 30
0.0
 10
-66.43087371413442
 20
445.0166171051345
 30
0.0
 10
-66.15249705190158
 20
445.666058144237
 30
0.0
 10
-65.99113659068007
 20
446.0564980613433
 30
0.0
 10
-65.94495426546027
 20
446.1682442914548
 30
0.0
  0
LINE
  5
27F
330
1F
100
AcDbEntity
  8
0
  6
Continuous
 62
     7
370
    15
100
AcDbLine
 10
826.6808381047
 20
677.8140836761
 30
0.0
 11
828.7653460149
 21
676.842061674
 31
0.0
  0
LINE
  5
280
330
1F
100
AcDbEntity
  8
0
  6
Continuous
 62
     7
370
    15
100
AcDbLine
 10
-67.4378831976
 20
443.8682442915
 30
0.0
 11
-67.4378831976
 21
444.6682442915
 31
0.0
  0
SPLINE
  5
281
330
1F
100
AcDbEntity
  8
0
  6
Continuous
 62
     7
370
    15
100
AcDbSpline
210
0.0
220
0.0
230
1.0
 70
     8
 71
     3
 72
    11
 73
     7
 74
     0
 42
0.00000001
 43
0.00000001
 12
1.0
 22
0.0
 32
0.0
 13
1.0
 23
0.0
 33
0.0
 40
0.0
 40
0.0
 40
0.0
 40
0.0
 40
0.2543211584721284
 40
0.5088664984542423
 40
0.7634130007197338
 40
1.0
 40
1.0
 40
1.0
 40
1.0
 10
-67.43788319764838
 20
444.6682442914548
 30
0.0
 10
-67.31130208986296
 20
444.6915983534738
 30
0.0
 10
-67.05802829433533
 20
444.7383270638798
 30
0.0
 10
-66.67808362485
 20
445.0972146800749
 30
0.0
 10
-66.30685849317891
 20
445.5964376593644
 30
0.0
 10
-66.06261184850986
 20
445.9823459759597
 30
0.0
 10
-65.94495426546027
 20
446.1682442914548
 30
0.0
  0
CIRCLE
  5
282
330
1F
100
AcDbEntity
  8
0
  6
Continuous
 62
     7
370
    15
100
AcDbCircle
 10
9.3022681445
 20
671.0682442915
 30
0.0
 40
4.700000000000045
  0
CIRCLE
  5
283
330
1F
100
AcDbEntity
  8
0
  6
Continuous
 62
     7
370
    15
100
AcDbCircle
 10
399.3022681445
 20
671.0682442915
 30
0.0
 40
4.700000000000045
  0
CIRCLE
  5
284
330
1F
100
AcDbEntity
  8
0
  6
Continuous
 62
     7
370
    15
100
AcDbCircle
 10
779.3022681445
 20
671.0682442915
 30
0.0
 40
4.700000000000045
  0
CIRCLE
  5
285
330
1F
100
AcDbEntity
  8
0
  6
Continuous
 62
     7
370
    15
100
AcDbCircle
 10
9.3022681445
 20
671.0682442915
 30
0.0
 40
2.700000000000045
  0
CIRCLE
  5
286
330
1F
100
AcDbEntity
  8
0
  6
Continuous
 62
     7
370
    15
100
AcDbCircle
 10
399.3022681445
 20
671.0682442915
 30
0.0
 40
2.700000000000045
  0
CIRCLE
  5
287
330
1F
100
AcDbEntity
  8
0
  6
Continuous
 62
     7
370
    15
100
AcDbCircle
 10
779.3022681445
 20
671.0682442915
 30
0.0
 40
2.700000000000045
  0
LINE
  5
288
330
1F
100
AcDbEntity
  8
0
  6
Continuous
 62
     8
370
    15
100
AcDbLine
 10
100.243375454
 20
-202.6317557085
 30
0.0
 11
43.243375454
 21
-202.6317557085
 31
0.0
  0
LINE
  5
289
330
1F
100
AcDbEntity
  8
0
  6
Continuous
 62
     8
370
    15
100
AcDbLine
 10
679.243375454
 20
-202.6317557085
 30
0.0
 11
622.243375454
 21
-202.6317557085
 31
0.0
  0
LINE
  5
28A
330
1F
100
AcDbEntity
  8
0
  6
Continuous
 62
     8
370
    15
100
AcDbLine
 10
682.643375454
 20
-38.1317557085
 30
0.0
 11
618.843375454
 21
-38.1317557085
 31
0.0
  0
LINE
  5
28B
330
1F
100
AcDbEntity
  8
0
  6
Continuous
 62
     8
370
    15
100
AcDbLine
 10
682.643375454
 20
-124.5991897629
 30
0.0
 11
618.843375454
 21
-124.5991897629
 31
0.0
  0
LINE
  5
28C
330
1F
100
AcDbEntity
  8
0
  6
Continuous
 62
     8
370
    15
100
AcDbLine
 10
682.579462227
 20
-125.3716529874
 30
0.0
 11
618.907288681
 21
-125.3716529874
 31
0.0
  0
LINE
  5
28D
330
1F
100
AcDbEntity
  8
0
  6
Continuous
 62
     8
370
    15
100
AcDbLine
 10
103.643375454
 20
-38.1317557085
 30
0.0
 11
39.843375454
 21
-38.1317557085
 31
0.0
  0
LINE
  5
28E
330
1F
100
AcDbEntity
  8
0
  6
Continuous
 62
     8
370
    15
100
AcDbLine
 10
103.579462227
 20
-125.3716529874
 30
0.0
 11
39.907288681
 21
-125.3716529874
 31
0.0
  0
LINE
  5
28F
330
1F
100
AcDbEntity
  8
0
  6
Continuous
 62
     8
370
    15
100
AcDbLine
 10
103.643375454
 20
-124.5991897629
 30
0.0
 11
39.843375454
 21
-124.5991897629
 31
0.0
  0
LINE
  5
290
330
1F
100
AcDbEntity
  8
0
  6
Continuous
 62
     8
370
    15
100
AcDbLine
 10
8.7995252037
 20
-46.7817557085
 30
0.0
 11
2.1123701994
 21
-46.7817557085
 31
0.0
  0
LINE
  5
291
330
1F
100
AcDbEntity
  8
0
  6
Continuous
 62
     8
370
    15
100
AcDbLine
 10
2.1123701994
 20
-47.4817557085
 30
0.0
 11
8.7995252037
 21
-47.4817557085
 31
0.0
  0
LINE
  5
292
330
1F
100
AcDbEntity
  8
0
  6
Continuous
 62
     8
370
    15
100
AcDbLine
 10
1.6732867647
 20
-47.9817557085
 30
0.0
 11
1.7324091697
 21
-47.9817557085
 31
0.0
  0
LINE
  5
293
330
1F
100
AcDbEntity
  8
0
  6
Continuous
 62
     8
370
    15
100
AcDbLine
 10
1.6732867647
 20
-53.0817557085
 30
0.0
 11
1.7324236304
 21
-53.0817557085
 31
0.0
  0
LINE
  5
294
330
1F
100
AcDbEntity
  8
0
  6
Continuous
 62
     8
370
    15
100
AcDbLine
 10
-3.785769185
 20
-53.0817557085
 30
0.0
 11
-3.8242705418
 21
-53.0817557085
 31
0.0
  0
LINE
  5
295
330
1F
100
AcDbEntity
  8
0
  6
Continuous
 62
     8
370
    15
100
AcDbLine
 10
-3.4741855536
 20
-46.7817557085
 30
0.0
 11
-3.856624546
 21
-46.7817557085
 31
0.0
  0
LINE
  5
296
330
1F
100
AcDbEntity
  8
0
  6
Continuous
 62
     8
370
    15
100
AcDbLine
 10
13.4518845842
 20
-53.0817557085
 30
0.0
 11
13.4518845842
 21
-48.8750814845
 31
0.0
  0
LINE
  5
297
330
1F
100
AcDbEntity
  8
0
  6
Continuous
 62
     8
370
    15
100
AcDbLine
 10
12.9759056362
 20
-48.9317557085
 30
0.0
 11
12.9759056362
 21
-53.0817557085
 31
0.0
  0
LINE
  5
298
330
1F
100
AcDbEntity
  8
0
  6
Continuous
 62
     8
370
    15
100
AcDbLine
 10
12.5704028519
 20
-53.0817557085
 30
0.0
 11
12.5704028519
 21
-48.9317557085
 31
0.0
  0
LINE
  5
299
330
1F
100
AcDbEntity
  8
0
  6
Continuous
 62
     8
370
    15
100
AcDbLine
 10
10.5731634904
 20
-53.0817557085
 30
0.0
 11
12.5704028519
 21
-53.0817557085
 31
0.0
  0
LINE
  5
29A
330
1F
100
AcDbEntity
  8
0
  6
Continuous
 62
     8
370
    15
100
AcDbLine
 10
13.5110214499
 20
-53.0817557085
 30
0.0
 11
13.4518845842
 21
-53.0817557085
 31
0.0
  0
LINE
  5
29B
330
1F
100
AcDbEntity
  8
0
  6
Continuous
 62
     8
370
    15
100
AcDbLine
 10
8.3869709973
 20
-47.9817557085
 30
0.0
 11
1.7228426038
 21
-47.9817557085
 31
0.0
  0
LINE
  5
29C
330
1F
100
AcDbEntity
  8
0
  6
Continuous
 62
     8
370
    15
100
AcDbLine
 10
-3.8242705418
 20
-47.9817557085
 30
0.0
 11
-3.856624546
 21
-47.9817557085
 31
0.0
  0
LINE
  5
29D
330
1F
100
AcDbEntity
  8
0
  6
Continuous
 62
     8
370
    15
100
AcDbLine
 10
-3.856624546
 20
-48.6817557085
 30
0.0
 11
-3.8242705418
 21
-48.6817557085
 31
0.0
  0
LINE
  5
29E
330
1F
100
AcDbEntity
  8
0
  6
Continuous
 62
     8
370
    15
100
AcDbLine
 10
1.7324236304
 20
-48.6817557085
 30
0.0
 11
8.3869709973
 21
-48.6817557085
 31
0.0
  0
LINE
  5
29F
330
1F
100
AcDbEntity
  8
0
  6
Continuous
 62
     8
370
    15
100
AcDbLine
 10
8.8757711576
 20
-47.4817557085
 30
0.0
 11
8.7995378263
 21
-47.4817557085
 31
0.0
  0
LINE
  5
2A0
330
1F
100
AcDbEntity
  8
0
  6
Continuous
 62
     8
370
    15
100
AcDbLine
 10
8.8757711576
 20
-42.3817557085
 30
0.0
 11
8.7995252037
 21
-42.3817557085
 31
0.0
  0
LINE
  5
2A1
330
1F
100
AcDbEntity
  8
0
  6
Continuous
 62
     8
370
    15
100
AcDbLine
 10
13.973267466
 20
-42.3817557085
 30
0.0
 11
13.999495603
 21
-42.3817557085
 31
0.0
  0
SPLINE
  5
2A2
330
1F
100
AcDbEntity
  8
0
  6
Continuous
 62
     8
370
    15
100
AcDbSpline
210
0.0
220
0.0
230
1.0
 70
     8
 71
     3
 72
    11
 73
     7
 74
     0
 42
0.00000001
 43
0.00000001
 12
1.0
 22
0.0
 32
0.0
 13
1.0
 23
0.0
 33
0.0
 40
0.0
 40
0.0
 40
0.0
 40
0.0
 40
0.1765355567984261
 40
0.5328390668039196
 40
0.9091282388557655
 40
1.0
 40
1.0
 40
1.0
 40
1.0
 10
-4.236498740939842
 20
-47.48175570854806
 30
0.0
 10
-4.23400097172838
 20
-47.54915735151211
 30
0.0
 10
-4.226461929509762
 20
-47.75259641607932
 30
0.0
 10
-4.131795714849284
 20
-48.07740105977886
 30
0.0
 10
-3.992707252404248
 20
-48.34304109104936
 30
0.0
 10
-3.878784672653068
 20
-48.42515985678053
 30
0.0
 10
-3.856624545980292
 20
-48.44113353166346
 30
0.0
  0
LINE
  5
2A3
330
1F
100
AcDbEntity
  8
0
  6
Continuous
 62
     8
370
    15
100
AcDbLine
 10
-3.7066254463
 20
-46.5526273167
 30
0.0
 11
-3.7066254463
 21
-42.3817557085
 31
0.0
  0
LINE
  5
2A4
330
1F
100
AcDbEntity
  8
0
  6
Continuous
 62
     8
370
    15
100
AcDbLine
 10
-4.3127446949
 20
-47.4817557085
 30
0.0
 11
-4.2364987409
 21
-47.4817557085
 31
0.0
  0
LINE
  5
2A5
330
1F
100
AcDbEntity
  8
0
  6
Continuous
 62
     8
370
    15
100
AcDbLine
 10
-3.3064863501
 20
-42.3817557085
 30
0.0
 11
-3.3064863501
 21
-46.5317557085
 31
0.0
  0
LINE
  5
2A6
330
1F
100
AcDbEntity
  8
0
  6
Continuous
 62
     8
370
    15
100
AcDbLine
 10
-0.7968098034
 20
-42.3817557085
 30
0.0
 11
-3.3064863501
 21
-42.3817557085
 31
0.0
  0
LINE
  5
2A7
330
1F
100
AcDbEntity
  8
0
  6
Continuous
 62
     8
370
    15
100
AcDbLine
 10
-4.3127446949
 20
-42.3817557085
 30
0.0
 11
-4.2364987409
 21
-42.3817557085
 31
0.0
  0
LINE
  5
2A8
330
1F
100
AcDbEntity
  8
0
  6
Continuous
 62
     8
370
    15
100
AcDbLine
 10
-48.4729151749
 20
691.2682442908
 30
0.0
 11
-48.4729151749
 21
691.0682442915
 31
0.0
  0
LINE
  5
2A9
330
1F
100
AcDbEntity
  8
0
  6
Continuous
 62
     8
370
    15
100
AcDbLine
 10
-10.4729151749
 20
691.2682442908
 30
0.0
 11
-10.4729151749
 21
691.0682442915
 31
0.0
  0
SPLINE
  5
2AA
330
1F
100
AcDbEntity
  8
0
  6
Continuous
 62
     8
370
    15
100
AcDbSpline
210
0.0
220
0.0
230
1.0
 70
     8
 71
     3
 72
     9
 73
     5
 74
     0
 42
0.00000001
 43
0.00000001
 12
1.0
 22
0.0
 32
0.0
 13
1.0
 23
0.0
 33
0.0
 40
0.0
 40
0.0
 40
0.0
 40
0.0
 40
0.8306545325013065
 40
1.0
 40
1.0
 40
1.0
 40
1.0
 10
807.3199510365312
 20
564.9381472231623
 30
0.0
 10
807.2905562457704
 20
564.9894629300402
 30
0.0
 10
807.2551687415663
 20
565.0512403656286
 30
0.0
 10
807.1510652020586
 20
565.0684697523108
 30
0.0
 10
807.1334357394924
 20
565.0713874708531
 30
0.0
  0
SPLINE
  5
2AB
330
1F
100
AcDbEntity
  8
0
  6
Continuous
 62
     8
370
    15
100
AcDbSpline
210
0.0
220
0.0
230
1.0
 70
     8
 71
     3
 72
     9
 73
     5
 74
     0
 42
0.00000001
 43
0.00000001
 12
1.0
 22
0.0
 32
0.0
 13
1.0
 23
0.0
 33
0.0
 40
0.0
 40
0.0
 40
0.0
 40
0.0
 40
0.1245182549278142
 40
1.0
 40
1.0
 40
1.0
 40
1.0
 10
808.5292259374183
 20
562.1082286711323
 30
0.0
 10
808.532814201251
 20
562.1245412862959
 30
0.0
 10
808.5616313721534
 20
562.2555470988423
 30
0.0
 10
808.510493979916
 20
562.3757731709409
 30
0.0
 10
808.4657241265213
 20
562.481028902345
 30
0.0
  0
SPLINE
  5
2AC
330
1F
100
AcDbEntity
  8
0
  6
Continuous
 62
     8
370
    15
100
AcDbSpline
210
0.0
220
0.0
230
1.0
 70
     8
 71
     3
 72
     9
 73
     5
 74
     0
 42
0.00000001
 43
0.00000001
 12
1.0
 22
0.0
 32
0.0
 13
1.0
 23
0.0
 33
0.0
 40
0.0
 40
0.0
 40
0.0
 40
0.0
 40
0.8756857391868504
 40
0.9999999999999999
 40
0.9999999999999999
 40
0.9999999999999999
 40
0.9999999999999999
 10
807.3199510365312
 20
564.9381472231622
 30
0.0
 10
807.2680935208862
 20
565.040109747383
 30
0.0
 10
807.2088741990169
 20
565.1565470943191
 30
0.0
 10
807.0899662529181
 20
565.2187040325406
 30
0.0
 10
807.075184299494
 20
565.22643102637
 30
0.0
  0
LINE
  5
2AD
330
1F
100
AcDbEntity
  8
0
  6
Continuous
 62
     8
370
    15
100
AcDbLine
 10
816.5710036341
 20
540.3778524261
 30
0.0
 11
795.5776181031
 21
585.3983129823
 31
0.0
  0
LINE
  5
2AE
330
1F
100
AcDbEntity
  8
0
  6
Continuous
 62
     8
370
    15
100
AcDbLine
 10
802.900640958
 20
578.6634964335
 30
0.0
 11
816.118983198
 21
550.316670022
 31
0.0
  0
LINE
  5
2AF
330
1F
100
AcDbEntity
  8
0
  6
Continuous
 62
     8
370
    15
100
AcDbLine
 10
818.4450647606
 20
551.5534695277
 30
0.0
 11
805.3432607541
 21
579.6503788908
 31
0.0
  0
LINE
  5
2B0
330
1F
100
AcDbEntity
  8
0
  6
Continuous
 62
     8
370
    15
100
AcDbLine
 10
817.7803791445
 20
537.7843382747
 30
0.0
 11
817.3756122194
 21
538.6523637467
 31
0.0
  0
LINE
  5
2B1
330
1F
100
AcDbEntity
  8
0
  6
Continuous
 62
     8
370
    15
100
AcDbLine
 10
817.03751761
 20
539.3774099764
 30
0.0
 11
816.5710036342
 21
540.3778524261
 31
0.0
  0
LINE
  5
2B2
330
1F
100
AcDbEntity
  8
0
  6
Continuous
 62
     8
370
    15
100
AcDbLine
 10
795.5776181031
 20
585.3983129824
 30
0.0
 11
794.3682425928
 21
587.9918271338
 31
0.0
  0
LINE
  5
2B3
330
1F
100
AcDbEntity
  8
0
  6
Continuous
 62
     8
370
    15
100
AcDbLine
 10
815.014125524
 20
536.3703087132
 30
0.0
 11
815.3678707888
 21
536.5511331531
 31
0.0
  0
LINE
  5
2B4
330
1F
100
AcDbEntity
  8
0
  6
Continuous
 62
     8
370
    15
100
AcDbLine
 10
816.0855176007
 20
536.9179736334
 30
0.0
 11
817.7803791445
 21
537.7843382747
 31
0.0
  0
LINE
  5
2B5
330
1F
100
AcDbEntity
  8
0
  6
Continuous
 62
     8
370
    15
100
AcDbLine
 10
818.7145448386
 20
540.2657418001
 30
0.0
 11
818.7528253878
 21
540.1772711293
 31
0.0
  0
ARC
  5
2B6
330
1F
100
AcDbEntity
  8
0
  6
Continuous
 62
     8
370
    15
100
AcDbCircle
 10
816.8701281534
 20
539.5776738821
 30
0.0
 40
2.011121445255149
100
AcDbArc
 50
296.9111767314
 51
353.4520560863
  0
LINE
  5
2B7
330
1F
100
AcDbEntity
  8
0
  6
Continuous
 62
     8
370
    15
100
AcDbLine
 10
800.2541889647
 20
584.338831048
 30
0.0
 11
802.900640958
 21
578.6634964335
 31
0.0
  0
LINE
  5
2B8
330
1F
100
AcDbEntity
  8
0
  6
Continuous
 62
     8
370
    15
100
AcDbLine
 10
816.1189831981
 20
550.3166700221
 30
0.0
 11
818.7654351914
 21
544.6413354075
 31
0.0
  0
LWPOLYLINE
  5
2B9
330
1F
100
AcDbEntity
  8
0
  6
Continuous
 62
     8
370
    15
100
AcDbPolyline
 90
        3
 70
   128
 43
0.0
 10
818.5639640551
 20
536.1039350111
 10
818.0703792606
 20
535.852109075
 10
816.7897539876
 20
535.1988427621
  0
LINE
  5
2BA
330
1F
100
AcDbEntity
  8
0
  6
Continuous
 62
     8
370
    15
100
AcDbLine
 10
816.0766727132
 20
534.8350892234
 30
0.0
 11
815.7966251961
 21
534.6922327511
 31
0.0
  0
LINE
  5
2BB
330
1F
100
AcDbEntity
  8
0
  6
Continuous
 62
     8
370
    15
100
AcDbLine
 10
831.371002795
 20
508.2089687155
 30
0.0
 11
829.7317768746
 21
507.4445851154
 31
0.0
  0
LINE
  5
2BC
330
1F
100
AcDbEntity
  8
0
  6
Continuous
 62
     8
370
    15
100
AcDbLine
 10
829.006730645
 20
507.106490506
 30
0.0
 11
828.721984146
 21
506.9737110329
 31
0.0
  0
LINE
  5
2BD
330
1F
100
AcDbEntity
  8
0
  6
Continuous
 62
     8
370
    15
100
AcDbLine
 10
832.0058619513
 20
506.8998149104
 30
0.0
 11
830.3785636649
 21
506.0575463677
 31
0.0
  0
LINE
  5
2BE
330
1F
100
AcDbEntity
  8
0
  6
Continuous
 62
     8
370
    15
100
AcDbLine
 10
829.6674838618
 20
505.6895006599
 30
0.0
 11
829.38822238
 21
505.5449585294
 31
0.0
  0
SPLINE
  5
2BF
330
1F
100
AcDbEntity
  8
0
  6
Continuous
 62
     8
370
    15
100
AcDbSpline
210
0.0
220
0.0
230
1.0
 70
     8
 71
     3
 72
    11
 73
     7
 74
     0
 42
0.00000001
 43
0.00000001
 12
1.0
 22
0.0
 32
0.0
 13
1.0
 23
0.0
 33
0.0
 40
0.0
 40
0.0
 40
0.0
 40
0.0
 40
0.1002094763403831
 40
0.458495272193981
 40
0.7256539342241234
 40
1.0
 40
1.0
 40
1.0
 40
1.0
 10
831.6348402821238
 20
503.3634524678975
 30
0.0
 10
831.6917436058824
 20
503.4198877961231
 30
0.0
 10
831.9520972756973
 20
503.678100213962
 30
0.0
 10
832.2454828007859
 20
504.5019725825481
 30
0.0
 10
832.3185039829832
 20
505.640532388691
 30
0.0
 10
832.1109940564199
 20
506.4763561011946
 30
0.0
 10
832.0058619513085
 20
506.8998149103847
 30
0.0
  0
LINE
  5
2C0
330
1F
100
AcDbEntity
  8
0
  6
Continuous
 62
     8
370
    15
100
AcDbLine
 10
834.8936915256
 20
551.406065048
 30
0.0
 11
827.3872166749
 21
567.503752314
 31
0.0
  0
LINE
  5
2C1
330
1F
100
AcDbEntity
  8
0
  6
Continuous
 62
     8
370
    15
100
AcDbLine
 10
823.3300813622
 20
576.2043070695
 30
0.0
 11
815.7955491807
 21
592.3621634756
 31
0.0
  0
LINE
  5
2C2
330
1F
100
AcDbEntity
  8
0
  6
Continuous
 62
     8
370
    15
100
AcDbLine
 10
851.8733190986
 20
562.4093882159
 30
0.0
 11
850.4087261347
 21
565.5502179627
 31
0.0
  0
LINE
  5
2C3
330
1F
100
AcDbEntity
  8
0
  6
Continuous
 62
     8
370
    15
100
AcDbLine
 10
808.5028842084
 20
643.0939480146
 30
0.0
 11
809.4649750605
 21
641.0307375241
 31
0.0
  0
ENDSEC
  0
SECTION
  2
OBJECTS
  0
DICTIONARY
  5
C
330
0
100
AcDbDictionary
281
     1
  3
ACAD_GROUP
350
D
  3
ACAD_LAYOUT
350
1A
  3
ACAD_MLINESTYLE
350
17
  3
ACAD_PLOTSETTINGS
350
19
  3
ACAD_PLOTSTYLENAME
350
E
  0
DICTIONARY
  5
D
102
{ACAD_REACTORS
330
C
102
}
330
C
100
AcDbDictionary
281
     1
  0
DICTIONARY
  5
1A
102
{ACAD_REACTORS
330
C
102
}
330
C
100
AcDbDictionary
281
     1
  3
Layout1
350
1E
  3
Layout2
350
26
  3
Model
350
22
  0
DICTIONARY
  5
17
102
{ACAD_REACTORS
330
C
102
}
330
C
100
AcDbDictionary
281
     1
  3
Standard
350
18
  0
DICTIONARY
  5
19
102
{ACAD_REACTORS
330
C
102
}
330
C
100
AcDbDictionary
281
     1
  0
ACDBDICTIONARYWDFLT
  5
E
102
{ACAD_REACTORS
330
C
102
}
330
C
100
AcDbDictionary
281
     1
  3
Normal
350
F
100
AcDbDictionaryWithDefault
340
F
  0
LAYOUT
  5
1E
102
{ACAD_REACTORS
330
1A
102
}
330
1A
100
AcDbPlotSettings
  1

  2
none_device
  4

  6

 40
0.0
 41
0.0
 42
0.0
 43
0.0
 44
0.0
 45
0.0
 46
0.0
 47
0.0
 48
0.0
 49
0.0
140
0.0
141
0.0
142
1.0
143
1.0
 70
   688
 72
     0
 73
     0
 74
     5
  7

 75
    16
147
1.0
148
0.0
149
0.0
100
AcDbLayout
  1
Layout1
 70
     1
 71
     1
 10
0.0
 20
0.0
 11
420.0
 21
297.0
 12
0.0
 22
0.0
 32
0.0
 14
1.0000000000E+20
 24
1.0000000000E+20
 34
1.0000000000E+20
 15
-1.0000000000E+20
 25
-1.0000000000E+20
 35
-1.0000000000E+20
146
0.0
 13
0.0
 23
0.0
 33
0.0
 16
1.0
 26
0.0
 36
0.0
 17
0.0
 27
1.0
 37
0.0
 76
     0
330
1B
  0
LAYOUT
  5
26
102
{ACAD_REACTORS
330
1A
102
}
330
1A
100
AcDbPlotSettings
  1

  2
none_device
  4

  6

 40
0.0
 41
0.0
 42
0.0
 43
0.0
 44
0.0
 45
0.0
 46
0.0
 47
0.0
 48
0.0
 49
0.0
140
0.0
141
0.0
142
1.0
143
1.0
 70
   688
 72
     0
 73
     0
 74
     5
  7

 75
    16
147
1.0
148
0.0
149
0.0
100
AcDbLayout
  1
Layout2
 70
     1
 71
     2
 10
0.0
 20
0.0
 11
0.0
 21
0.0
 12
0.0
 22
0.0
 32
0.0
 14
0.0
 24
0.0
 34
0.0
 15
0.0
 25
0.0
 35
0.0
146
0.0
 13
0.0
 23
0.0
 33
0.0
 16
1.0
 26
0.0
 36
0.0
 17
0.0
 27
1.0
 37
0.0
 76
     0
330
23
  0
LAYOUT
  5
22
102
{ACAD_REACTORS
330
1A
102
}
330
1A
100
AcDbPlotSettings
  1

  2
none_device
  4

  6

 40
0.0
 41
0.0
 42
0.0
 43
0.0
 44
0.0
 45
0.0
 46
0.0
 47
0.0
 48
0.0
 49
0.0
140
0.0
141
0.0
142
1.0
143
1.0
 70
  1712
 72
     0
 73
     0
 74
     0
  7

 75
     0
147
1.0
148
0.0
149
0.0
100
AcDbLayout
  1
Model
 70
     1
 71
     0
 10
0.0
 20
0.0
 11
841.0
 21
594.0
 12
0.0
 22
0.0
 32
0.0
 14
0.0
 24
0.0
 34
0.0
 15
841.0
 25
594.0
 35
0.0
146
0.0
 13
0.0
 23
0.0
 33
0.0
 16
1.0
 26
0.0
 36
0.0
 17
0.0
 27
1.0
 37
0.0
 76
     0
330
1F
331
29
  0
MLINESTYLE
  5
18
102
{ACAD_REACTORS
330
17
102
}
330
17
100
AcDbMlineStyle
  2
Standard
 70
     0
  3

 62
   256
 51
90.0
 52
90.0
 71
     2
 49
0.5
 62
   256
  6
BYLAYER
 49
-0.5
 62
   256
  6
BYLAYER
  0
ACDBPLACEHOLDER
  5
F
102
{ACAD_REACTORS
330
E
102
}
330
E
  0
ENDSEC
  0
EOF
