  0
SECTION
  2
HEADER
  9
$ACADVER
  1
AC1015
  9
$ACADMAINTVER
 70
     6
  9
$DWGCODEPAGE
  3
ANSI_1252
  9
$INSBASE
 10
0.0
 20
0.0
 30
0.0
  9
$EXTMIN
 10
0.0
 20
0.0
 30
0.0
  9
$EXTMAX
 10
841.0
 20
594.0
 30
0.0
  9
$LIMMIN
 10
0.0
 20
0.0
  9
$LIMMAX
 10
841.0
 20
594.0
  9
$ORTHOMODE
 70
     0
  9
$REGENMODE
 70
     1
  9
$FILLMODE
 70
     1
  9
$QTEXTMODE
 70
     0
  9
$MIRRTEXT
 70
     1
  9
$LTSCALE
 40
1.0
  9
$ATTMODE
 70
     1
  9
$TEXTSIZE
 40
3.5
  9
$TRACEWID
 40
1.0
  9
$TEXTSTYLE
  7
Standard
  9
$CLAYER
  8
0
  9
$CELTYPE
  6
ByLayer
  9
$CECOLOR
 62
   256
  9
$CELTSCALE
 40
1.0
  9
$DISPSILH
 70
     0
  9
$DIMSCALE
 40
1.0
  9
$DIMASZ
 40
3.302
  9
$DIMEXO
 40
1.0
  9
$DIMDLI
 40
3.75
  9
$DIMRND
 40
0.0
  9
$DIMDLE
 40
0.0
  9
$DIMEXE
 40
1.0
  9
$DIMTP
 40
0.0
  9
$DIMTM
 40
0.0
  9
$DIMTXT
 40
3.5
  9
$DIMCEN
 40
2.5
  9
$DIMTSZ
 40
0.0
  9
$DIMTOL
 70
     0
  9
$DIMLIM
 70
     0
  9
$DIMTIH
 70
     1
  9
$DIMTOH
 70
     1
  9
$DIMSE1
 70
     0
  9
$DIMSE2
 70
     0
  9
$DIMTAD
 70
     1
  9
$DIMZIN
 70
     0
  9
$DIMBLK
  1

  9
$DIMASO
 70
     1
  9
$DIMSHO
 70
     1
  9
$DIMPOST
  1

  9
$DIMAPOST
  1

  9
$DIMALT
 70
     0
  9
$DIMALTD
 70
     3
  9
$DIMALTF
 40
0.0393700787
  9
$DIMLFAC
 40
1.0
  9
$DIMTOFL
 70
     1
  9
$DIMTVP
 40
0.0
  9
$DIMTIX
 70
     0
  9
$DIMSOXD
 70
     0
  9
$DIMSAH
 70
     0
  9
$DIMBLK1
  1

  9
$DIMBLK2
  1

  9
$DIMSTYLE
  2
ISO-25
  9
$DIMCLRD
 70
     0
  9
$DIMCLRE
 70
     0
  9
$DIMCLRT
 70
     0
  9
$DIMTFAC
 40
1.0
  9
$DIMGAP
 40
1.524
  9
$DIMJUST
 70
     0
  9
$DIMSD1
 70
     0
  9
$DIMSD2
 70
     0
  9
$DIMTOLJ
 70
     0
  9
$DIMTZIN
 70
     0
  9
$DIMALTZ
 70
     0
  9
$DIMALTTZ
 70
     0
  9
$DIMUPT
 70
     0
  9
$DIMDEC
 70
     1
  9
$DIMTDEC
 70
     1
  9
$DIMALTU
 70
     2
  9
$DIMALTTD
 70
     3
  9
$DIMTXSTY
  7
Standard
  9
$DIMAUNIT
 70
     0
  9
$DIMADEC
 70
     1
  9
$DIMALTRND
 40
0.0
  9
$DIMAZIN
 70
     0
  9
$DIMDSEP
 70
    44
  9
$DIMATFIT
 70
     3
  9
$DIMFRAC
 70
     0
  9
$DIMLDRBLK
  1

  9
$DIMLUNIT
 70
     2
  9
$DIMLWD
 70
    -2
  9
$DIMLWE
 70
    -2
  9
$DIMTMOVE
 70
     0
  9
$LUNITS
 70
     2
  9
$LUPREC
 70
     1
  9
$SKETCHINC
 40
1.0
  9
$FILLETRAD
 40
10.0
  9
$AUNITS
 70
     0
  9
$AUPREC
 70
     1
  9
$MENU
  1
.
  9
$ELEVATION
 40
0.0
  9
$PELEVATION
 40
0.0
  9
$THICKNESS
 40
0.0
  9
$LIMCHECK
 70
     0
  9
$CHAMFERA
 40
10.0
  9
$CHAMFERB
 40
10.0
  9
$CHAMFERC
 40
20.0
  9
$CHAMFERD
 40
0.0
  9
$SKPOLY
 70
     0
  9
$TDCREATE
 40
2457080.387225845
  9
$TDUCREATE
 40
2457080.387225845
  9
$TDUPDATE
 40
2457080.387226922
  9
$TDUUPDATE
 40
2457080.387226922
  9
$TDINDWG
 40
0.0000000116
  9
$TDUSRTIMER
 40
0.0000000116
  9
$USRTIMER
 70
     1
  9
$ANGBASE
 50
0.0
  9
$ANGDIR
 70
     0
  9
$PDMODE
 70
     0
  9
$PDSIZE
 40
-1.0
  9
$PLINEWID
 40
0.0
  9
$SPLFRAME
 70
     0
  9
$SPLINETYPE
 70
     6
  9
$SPLINESEGS
 70
     8
  9
$HANDSEED
  5
2C2
  9
$SURFTAB1
 70
     6
  9
$SURFTAB2
 70
     6
  9
$SURFTYPE
 70
     6
  9
$SURFU
 70
     6
  9
$SURFV
 70
     6
  9
$UCSBASE
  2

  9
$UCSNAME
  2

  9
$UCSORG
 10
0.0
 20
0.0
 30
0.0
  9
$UCSXDIR
 10
1.0
 20
0.0
 30
0.0
  9
$UCSYDIR
 10
0.0
 20
1.0
 30
0.0
  9
$UCSORTHOREF
  2

  9
$UCSORTHOVIEW
 70
     0
  9
$UCSORGTOP
 10
0.0
 20
0.0
 30
0.0
  9
$UCSORGBOTTOM
 10
0.0
 20
0.0
 30
0.0
  9
$UCSORGLEFT
 10
0.0
 20
0.0
 30
0.0
  9
$UCSORGRIGHT
 10
0.0
 20
0.0
 30
0.0
  9
$UCSORGFRONT
 10
0.0
 20
0.0
 30
0.0
  9
$UCSORGBACK
 10
0.0
 20
0.0
 30
0.0
  9
$PUCSBASE
  2

  9
$PUCSNAME
  2

  9
$PUCSORG
 10
0.0
 20
0.0
 30
0.0
  9
$PUCSXDIR
 10
1.0
 20
0.0
 30
0.0
  9
$PUCSYDIR
 10
0.0
 20
1.0
 30
0.0
  9
$PUCSORTHOREF
  2

  9
$PUCSORTHOVIEW
 70
     0
  9
$PUCSORGTOP
 10
0.0
 20
0.0
 30
0.0
  9
$PUCSORGBOTTOM
 10
0.0
 20
0.0
 30
0.0
  9
$PUCSORGLEFT
 10
0.0
 20
0.0
 30
0.0
  9
$PUCSORGRIGHT
 10
0.0
 20
0.0
 30
0.0
  9
$PUCSORGFRONT
 10
0.0
 20
0.0
 30
0.0
  9
$PUCSORGBACK
 10
0.0
 20
0.0
 30
0.0
  9
$USERI1
 70
     0
  9
$USERI2
 70
     0
  9
$USERI3
 70
     0
  9
$USERI4
 70
     0
  9
$USERI5
 70
     0
  9
$USERR1
 40
0.0
  9
$USERR2
 40
0.0
  9
$USERR3
 40
0.0
  9
$USERR4
 40
0.0
  9
$USERR5
 40
0.0
  9
$WORLDVIEW
 70
     1
  9
$SHADEDGE
 70
     3
  9
$SHADEDIF
 70
    70
  9
$TILEMODE
 70
     1
  9
$MAXACTVP
 70
    64
  9
$PINSBASE
 10
0.0
 20
0.0
 30
0.0
  9
$PLIMCHECK
 70
     0
  9
$PEXTMIN
 10
1.0000000000E+20
 20
1.0000000000E+20
 30
1.0000000000E+20
  9
$PEXTMAX
 10
-1.0000000000E+20
 20
-1.0000000000E+20
 30
-1.0000000000E+20
  9
$PLIMMIN
 10
0.0
 20
0.0
  9
$PLIMMAX
 10
420.0
 20
297.0
  9
$UNITMODE
 70
     0
  9
$VISRETAIN
 70
     1
  9
$PLINEGEN
 70
     0
  9
$PSLTSCALE
 70
     1
  9
$TREEDEPTH
 70
  3020
  9
$CMLSTYLE
  2
Standard
  9
$CMLJUST
 70
     0
  9
$CMLSCALE
 40
20.0
  9
$PROXYGRAPHICS
 70
     1
  9
$MEASUREMENT
 70
     1
  9
$CELWEIGHT
370
    -1
  9
$ENDCAPS
280
     0
  9
$JOINSTYLE
280
     0
  9
$LWDISPLAY
290
     1
  9
$INSUNITS
 70
     4
  9
$HYPERLINKBASE
  1

  9
$STYLESHEET
  1

  9
$XEDIT
290
     1
  9
$CEPSNTYPE
380
     0
  9
$PSTYLEMODE
290
     1
  9
$FINGERPRINTGUID
  2
{C910CA0D-5ACF-436C-A1A0-296DB20C1A5B}
  9
$VERSIONGUID
  2
{FAEB1C32-E019-11D5-929B-00C0DF256EC4}
  9
$EXTNAMES
290
     1
  9
$PSVPSCALE
 40
0.0
  9
$OLESTARTUP
290
     0
  0
ENDSEC
  0
SECTION
  2
CLASSES
  0
CLASS
  1
ACDBDICTIONARYWDFLT
  2
AcDbDictionaryWithDefault
  3
ObjectDBX Classes
 90
        0
280
     0
281
     0
  0
CLASS
  1
VISUALSTYLE
  2
AcDbVisualStyle
  3
ObjectDBX Classes
 90
     4095
280
     0
281
     0
  0
CLASS
  1
MATERIAL
  2
AcDbMaterial
  3
ObjectDBX Classes
 90
     1153
280
     0
281
     0
  0
CLASS
  1
ACDBPLACEHOLDER
  2
AcDbPlaceHolder
  3
ObjectDBX Classes
 90
        0
280
     0
281
     0
  0
CLASS
  1
LAYOUT
  2
AcDbLayout
  3
ObjectDBX Classes
 90
        0
280
     0
281
     0
  0
ENDSEC
  0
SECTION
  2
TABLES
  0
TABLE
  2
VPORT
  5
8
330
0
100
AcDbSymbolTable
 70
     1
  0
VPORT
  5
29
330
8
100
AcDbSymbolTableRecord
100
AcDbViewportTableRecord
  2
*Active
 70
     0
 10
0.0
 20
0.0
 11
1.0
 21
1.0
 12
420.5
 22
297.0
 13
0.0
 23
0.0
 14
10.0
 24
10.0
 15
10.0
 25
10.0
 16
0.0
 26
0.0
 36
1.0
 17
0.0
 27
0.0
 37
0.0
 40
594.0
 41
1.4158249158
 42
50.0
 43
0.0
 44
0.0
 50
0.0
 51
0.0
 71
     0
 72
  2000
 73
     1
 74
     3
 75
     0
 76
     0
 77
     0
 78
     0
281
     0
 65
     1
110
0.0
120
0.0
130
0.0
111
1.0
121
0.0
131
0.0
112
0.0
122
1.0
132
0.0
 79
     0
146
0.0
  0
ENDTAB
  0
TABLE
  2
LTYPE
  5
5
330
0
100
AcDbSymbolTable
 70
     6
  0
LTYPE
  5
14
330
5
100
AcDbSymbolTableRecord
100
AcDbLinetypeTableRecord
  2
ByBlock
 70
     0
  3

 72
    65
 73
     0
 40
0.0
  0
LTYPE
  5
15
330
5
100
AcDbSymbolTableRecord
100
AcDbLinetypeTableRecord
  2
ByLayer
 70
     0
  3

 72
    65
 73
     0
 40
0.0
  0
LTYPE
  5
16
330
5
100
AcDbSymbolTableRecord
100
AcDbLinetypeTableRecord
  2
Continuous
 70
     0
  3
Solid line
 72
    65
 73
     0
 40
0.0
  0
LTYPE
  5
3F
330
5
100
AcDbSymbolTableRecord
100
AcDbLinetypeTableRecord
  2
HIDDEN
 70
     0
  3
Hidden __ __ __ __ __ __ __ __ __ __ __ __ __ __
 72
    65
 73
     2
 40
1.905
 49
1.27
 74
     0
 49
-0.635
 74
     0
  0
LTYPE
  5
40
330
5
100
AcDbSymbolTableRecord
100
AcDbLinetypeTableRecord
  2
PHANTOM
 70
     0
  3
Phantom ______  __  __  ______  __  __  ______
 72
    65
 73
     6
 40
12.7
 49
6.35
 74
     0
 49
-1.27
 74
     0
 49
1.27
 74
     0
 49
-1.27
 74
     0
 49
1.27
 74
     0
 49
-1.27
 74
     0
  0
LTYPE
  5
41
330
5
100
AcDbSymbolTableRecord
100
AcDbLinetypeTableRecord
  2
CENTER
 70
     0
  3
Center ____ _ ____ _ ____ _ ____ _ ____ _ ____
 72
    65
 73
     4
 40
10.16
 49
6.35
 74
     0
 49
-1.27
 74
     0
 49
1.27
 74
     0
 49
-1.27
 74
     0
  0
LTYPE
  5
42
330
5
100
AcDbSymbolTableRecord
100
AcDbLinetypeTableRecord
  2
CENTERX2
 70
     0
  3
Center (2x) ________  __  ________  __  _____
 72
    65
 73
     4
 40
20.32
 49
12.7
 74
     0
 49
-2.54
 74
     0
 49
2.54
 74
     0
 49
-2.54
 74
     0
  0
LTYPE
  5
43
330
5
100
AcDbSymbolTableRecord
100
AcDbLinetypeTableRecord
  2
DOT2
 70
     0
  3
Dot (.5x) ........................................
 72
    65
 73
     2
 40
0.635
 49
0.0
 74
     0
 49
-0.635
 74
     0
  0
ENDTAB
  0
TABLE
  2
LAYER
  5
2
330
0
100
AcDbSymbolTable
 70
     4
  0
LAYER
  5
10
330
2
100
AcDbSymbolTableRecord
100
AcDbLayerTableRecord
  2
0
 70
     0
 62
     7
  6
Continuous
370
    -3
390
F
  0
LAYER
  5
44
330
2
100
AcDbSymbolTableRecord
100
AcDbLayerTableRecord
  2
FORMAT
 70
     0
 62
     7
  6
Continuous
370
    -3
390
F
  0
LAYER
  5
45
330
2
100
AcDbSymbolTableRecord
100
AcDbLayerTableRecord
  2
SLD-0
 70
     0
 62
     1
  6
Continuous
370
    -3
390
F
  0
LAYER
  5
46
330
2
100
AcDbSymbolTableRecord
100
AcDbLayerTableRecord
  2
WATERMARK
 70
     0
 62
     1
  6
Continuous
370
    -3
390
F
  0
ENDTAB
  0
TABLE
  2
STYLE
  5
3
330
0
100
AcDbSymbolTable
 70
     1
  0
STYLE
  5
11
330
3
100
AcDbSymbolTableRecord
100
AcDbTextStyleTableRecord
  2
Standard
 70
     0
 40
0.0
 41
1.0
 50
0.0
 71
     0
 42
3.5
  3
txt
  4

  0
ENDTAB
  0
TABLE
  2
VIEW
  5
6
330
0
100
AcDbSymbolTable
 70
     0
  0
ENDTAB
  0
TABLE
  2
UCS
  5
7
330
0
100
AcDbSymbolTable
 70
     0
  0
ENDTAB
  0
TABLE
  2
APPID
  5
9
330
0
100
AcDbSymbolTable
 70
     1
  0
APPID
  5
12
330
9
100
AcDbSymbolTableRecord
100
AcDbRegAppTableRecord
  2
ACAD
 70
     0
  0
ENDTAB
  0
TABLE
  2
DIMSTYLE
  5
A
330
0
100
AcDbSymbolTable
 70
     1
100
AcDbDimStyleTable
  0
DIMSTYLE
105
27
330
A
100
AcDbSymbolTableRecord
100
AcDbDimStyleTableRecord
  2
ISO-25
 70
     0
 41
2.5
 42
0.625
 43
3.75
 44
1.25
 73
     0
 74
     0
 77
     1
 78
     8
140
2.5
141
2.5
143
0.0393700787
147
0.625
171
     3
172
     1
178
     0
271
     2
272
     2
274
     3
278
    44
283
     0
284
     8
340
11
  0
ENDTAB
  0
TABLE
  2
BLOCK_RECORD
  5
1
330
0
100
AcDbSymbolTable
 70
     1
  0
BLOCK_RECORD
  5
1F
330
1
100
AcDbSymbolTableRecord
100
AcDbBlockTableRecord
  2
*Model_Space
340
22
  0
BLOCK_RECORD
  5
1B
330
1
100
AcDbSymbolTableRecord
100
AcDbBlockTableRecord
  2
*Paper_Space
340
1E
  0
BLOCK_RECORD
  5
23
330
1
100
AcDbSymbolTableRecord
100
AcDbBlockTableRecord
  2
*Paper_Space0
340
26
  0
ENDTAB
  0
ENDSEC
  0
SECTION
  2
BLOCKS
  0
BLOCK
  5
20
330
1F
100
AcDbEntity
  8
0
100
AcDbBlockBegin
  2
*Model_Space
 70
     0
 10
0.0
 20
0.0
 30
0.0
  3
*Model_Space
  1

  0
ENDBLK
  5
21
330
1F
100
AcDbEntity
  8
0
100
AcDbBlockEnd
  0
BLOCK
  5
1C
330
1B
100
AcDbEntity
 67
     1
  8
0
100
AcDbBlockBegin
  2
*Paper_Space
 70
     0
 10
0.0
 20
0.0
 30
0.0
  3
*Paper_Space
  1

  0
ENDBLK
  5
1D
330
1B
100
AcDbEntity
 67
     1
  8
0
100
AcDbBlockEnd
  0
BLOCK
  5
24
330
23
100
AcDbEntity
  8
0
100
AcDbBlockBegin
  2
*Paper_Space0
 70
     0
 10
0.0
 20
0.0
 30
0.0
  3
*Paper_Space0
  1

  0
ENDBLK
  5
25
330
23
100
AcDbEntity
  8
0
100
AcDbBlockEnd
  0
ENDSEC
  0
SECTION
  2
ENTITIES
  0
ARC
  5
47
330
1F
100
AcDbEntity
  8
0
  6
Continuous
 62
     7
370
    15
100
AcDbCircle
 10
703.5174452643
 20
-182.5076275947
 30
0.0
 40
2.0
100
AcDbArc
 50
270.0
 51
0.0
  0
ARC
  5
48
330
1F
100
AcDbEntity
  8
0
  6
Continuous
 62
     7
370
    15
100
AcDbCircle
 10
650.5174452643
 20
-182.5076275947
 30
0.0
 40
2.0
100
AcDbArc
 50
180.0
 51
270.0
  0
LINE
  5
49
330
1F
100
AcDbEntity
  8
0
  6
Continuous
 62
     7
370
    15
100
AcDbLine
 10
705.5174452643
 20
-182.5076275947
 30
0.0
 11
705.5174452643
 21
-178.5076275947
 31
0.0
  0
LINE
  5
4A
330
1F
100
AcDbEntity
  8
0
  6
Continuous
 62
     7
370
    15
100
AcDbLine
 10
648.5174452643
 20
-178.5076275947
 30
0.0
 11
648.5174452643
 21
-182.5076275947
 31
0.0
  0
ARC
  5
4B
330
1F
100
AcDbEntity
  8
0
  6
Continuous
 62
     7
370
    15
100
AcDbCircle
 10
124.5174452643
 20
-182.5076275947
 30
0.0
 40
2.0
100
AcDbArc
 50
270.0
 51
0.0
  0
ARC
  5
4C
330
1F
100
AcDbEntity
  8
0
  6
Continuous
 62
     7
370
    15
100
AcDbCircle
 10
71.5174452643
 20
-182.5076275947
 30
0.0
 40
2.0
100
AcDbArc
 50
180.0
 51
270.0
  0
LINE
  5
4D
330
1F
100
AcDbEntity
  8
0
  6
Continuous
 62
     7
370
    15
100
AcDbLine
 10
126.5174452643
 20
-182.5076275947
 30
0.0
 11
126.5174452643
 21
-178.5076275947
 31
0.0
  0
LINE
  5
4E
330
1F
100
AcDbEntity
  8
0
  6
Continuous
 62
     7
370
    15
100
AcDbLine
 10
69.5174452643
 20
-178.5076275947
 30
0.0
 11
69.5174452643
 21
-182.5076275947
 31
0.0
  0
LINE
  5
4F
330
1F
100
AcDbEntity
  8
0
  6
Continuous
 62
     7
370
    15
100
AcDbLine
 10
126.3174452643
 20
-178.5076275947
 30
0.0
 11
126.3174452643
 21
-110.5076275947
 31
0.0
  0
LINE
  5
50
330
1F
100
AcDbEntity
  8
0
  6
Continuous
 62
     7
370
    15
100
AcDbLine
 10
69.7174452643
 20
-110.5076275947
 30
0.0
 11
69.7174452643
 21
-178.5076275947
 31
0.0
  0
LINE
  5
51
330
1F
100
AcDbEntity
  8
0
  6
Continuous
 62
     7
370
    15
100
AcDbLine
 10
705.3174452643
 20
-178.5076275947
 30
0.0
 11
705.3174452643
 21
-110.5076275947
 31
0.0
  0
LINE
  5
52
330
1F
100
AcDbEntity
  8
0
  6
Continuous
 62
     7
370
    15
100
AcDbLine
 10
648.7174452643
 20
-110.5076275947
 30
0.0
 11
648.7174452643
 21
-178.5076275947
 31
0.0
  0
ARC
  5
53
330
1F
100
AcDbEntity
  8
0
  6
Continuous
 62
     7
370
    15
100
AcDbCircle
 10
710.4174452643
 20
-18.0076275947
 30
0.0
 40
1.500000000000114
100
AcDbArc
 50
90.0
 51
180.0
  0
ARC
  5
54
330
1F
100
AcDbEntity
  8
0
  6
Continuous
 62
     7
370
    15
100
AcDbCircle
 10
643.6174452643
 20
-18.0076275947
 30
0.0
 40
1.5
100
AcDbArc
 50
0.0
 51
90.0
  0
ARC
  5
55
330
1F
100
AcDbEntity
  8
0
  6
Continuous
 62
     7
370
    15
100
AcDbCircle
 10
704.2174452643
 20
-104.475061649
 30
0.0
 40
4.699999999999932
100
AcDbArc
 50
350.5402980318
 51
0.0
  0
ARC
  5
56
330
1F
100
AcDbEntity
  8
0
  6
Continuous
 62
     7
370
    15
100
AcDbCircle
 10
649.8174452643
 20
-104.475061649
 30
0.0
 40
4.700000000000045
100
AcDbArc
 50
180.0
 51
189.4597019682
  0
LINE
  5
57
330
1F
100
AcDbEntity
  8
0
  6
Continuous
 62
     7
370
    15
100
AcDbLine
 10
708.9174452643
 20
-104.475061649
 30
0.0
 11
708.9174452643
 21
-18.0076275947
 31
0.0
  0
LINE
  5
58
330
1F
100
AcDbEntity
  8
0
  6
Continuous
 62
     7
370
    15
100
AcDbLine
 10
645.1174452643
 20
-18.0076275947
 30
0.0
 11
645.1174452643
 21
-104.475061649
 31
0.0
  0
LINE
  5
59
330
1F
100
AcDbEntity
  8
0
  6
Continuous
 62
     7
370
    15
100
AcDbLine
 10
645.1813584913
 20
-105.2475248735
 30
0.0
 11
646.0577950439
 21
-110.5076275947
 31
0.0
  0
LINE
  5
5A
330
1F
100
AcDbEntity
  8
0
  6
Continuous
 62
     7
370
    15
100
AcDbLine
 10
707.9770954846
 20
-110.5076275947
 30
0.0
 11
708.8535320373
 21
-105.2475248735
 31
0.0
  0
ARC
  5
5B
330
1F
100
AcDbEntity
  8
0
  6
Continuous
 62
     7
370
    15
100
AcDbCircle
 10
131.4174452643
 20
-18.0076275947
 30
0.0
 40
1.499999999999972
100
AcDbArc
 50
90.0
 51
180.0
  0
ARC
  5
5C
330
1F
100
AcDbEntity
  8
0
  6
Continuous
 62
     7
370
    15
100
AcDbCircle
 10
64.6174452643
 20
-18.0076275947
 30
0.0
 40
1.499999999999947
100
AcDbArc
 50
0.0
 51
90.0
  0
ARC
  5
5D
330
1F
100
AcDbEntity
  8
0
  6
Continuous
 62
     7
370
    15
100
AcDbCircle
 10
125.2174452643
 20
-104.475061649
 30
0.0
 40
4.700000000000045
100
AcDbArc
 50
350.5402980318
 51
0.0
  0
ARC
  5
5E
330
1F
100
AcDbEntity
  8
0
  6
Continuous
 62
     7
370
    15
100
AcDbCircle
 10
70.8174452643
 20
-104.475061649
 30
0.0
 40
4.700000000000045
100
AcDbArc
 50
180.0
 51
189.4597019682
  0
LINE
  5
5F
330
1F
100
AcDbEntity
  8
0
  6
Continuous
 62
     7
370
    15
100
AcDbLine
 10
129.9174452643
 20
-104.475061649
 30
0.0
 11
129.9174452643
 21
-18.0076275947
 31
0.0
  0
LINE
  5
60
330
1F
100
AcDbEntity
  8
0
  6
Continuous
 62
     7
370
    15
100
AcDbLine
 10
66.1174452643
 20
-18.0076275947
 30
0.0
 11
66.1174452643
 21
-104.475061649
 31
0.0
  0
LINE
  5
61
330
1F
100
AcDbEntity
  8
0
  6
Continuous
 62
     7
370
    15
100
AcDbLine
 10
66.1813584913
 20
-105.2475248735
 30
0.0
 11
67.0577950439
 21
-110.5076275947
 31
0.0
  0
LINE
  5
62
330
1F
100
AcDbEntity
  8
0
  6
Continuous
 62
     7
370
    15
100
AcDbLine
 10
128.9770954846
 20
-110.5076275947
 30
0.0
 11
129.8535320373
 21
-105.2475248735
 31
0.0
  0
LINE
  5
63
330
1F
100
AcDbEntity
  8
0
  6
Continuous
 62
     7
370
    15
100
AcDbLine
 10
4.973193726
 20
731.1923724053
 30
0.0
 11
4.973193726
 21
740.6923724053
 31
0.0
  0
LINE
  5
64
330
1F
100
AcDbEntity
  8
0
  6
Continuous
 62
     7
370
    15
100
AcDbLine
 10
-14.026806274
 20
740.6923724053
 30
0.0
 11
-14.026806274
 21
731.1923724053
 31
0.0
  0
ARC
  5
65
330
1F
100
AcDbEntity
  8
0
  6
Continuous
 62
     7
370
    15
100
AcDbCircle
 10
-12.026806274
 20
740.6923724053
 30
0.0
 40
2.000000000000004
100
AcDbArc
 50
90.0
 51
180.0
  0
ARC
  5
66
330
1F
100
AcDbEntity
  8
0
  6
Continuous
 62
     7
370
    15
100
AcDbCircle
 10
2.973193726
 20
740.6923724053
 30
0.0
 40
2.000000000000002
100
AcDbArc
 50
0.0
 51
90.0
  0
LINE
  5
67
330
1F
100
AcDbEntity
  8
0
  6
Continuous
 62
     7
370
    15
100
AcDbLine
 10
835.839607995
 20
579.6617366465
 30
0.0
 11
835.8552179921
 21
579.7000193988
 31
0.0
  0
LINE
  5
68
330
1F
100
AcDbEntity
  8
0
  6
Continuous
 62
     7
370
    15
100
AcDbLine
 10
832.1154452216
 20
587.7546086917
 30
0.0
 11
832.0921109448
 21
587.7621079478
 31
0.0
  0
ARC
  5
69
330
1F
100
AcDbEntity
  8
0
  6
Continuous
 62
     7
370
    15
100
AcDbCircle
 10
808.4707756135
 20
571.8371602331
 30
0.0
 40
40.00000000000014
100
AcDbArc
 50
31.8984990376
 51
44.7246335587
  0
ARC
  5
6A
330
1F
100
AcDbEntity
  8
0
  6
Continuous
 62
     7
370
    15
100
AcDbCircle
 10
808.4707756135
 20
571.8371602331
 30
0.0
 40
40.0000000000001
100
AcDbArc
 50
5.2753664413
 51
18.1017040567
  0
LINE
  5
6B
330
1F
100
AcDbEntity
  8
0
  6
Continuous
 62
     7
370
    15
100
AcDbLine
 10
836.890655333
 20
599.9851696961
 30
0.0
 11
832.9079281962
 21
598.1279935319
 31
0.0
  0
LINE
  5
6C
330
1F
100
AcDbEntity
  8
0
  6
Continuous
 62
     7
370
    15
100
AcDbLine
 10
844.3186212632
 20
573.6576832819
 30
0.0
 11
848.3013484
 21
575.5148594461
 31
0.0
  0
LINE
  5
6D
330
1F
100
AcDbEntity
  8
0
  6
Continuous
 62
     7
370
    15
100
AcDbLine
 10
853.7329362003
 20
557.0834699731
 30
0.0
 11
861.1055410237
 21
564.9348837386
 31
0.0
  0
LINE
  5
6E
330
1F
100
AcDbEntity
  8
0
  6
Continuous
 62
     7
370
    15
100
AcDbLine
 10
837.0163001045
 20
616.5944275997
 30
0.0
 11
826.2627491872
 21
615.9934761305
 31
0.0
  0
LINE
  5
6F
330
1F
100
AcDbEntity
  8
0
  6
Continuous
 62
     7
370
    15
100
AcDbLine
 10
861.1055410237
 20
564.9348837386
 30
0.0
 11
861.7583303749
 21
565.6918882762
 31
0.0
  0
LINE
  5
70
330
1F
100
AcDbEntity
  8
0
  6
Continuous
 62
     7
370
    15
100
AcDbLine
 10
863.0310583566
 20
567.1678021456
 30
0.0
 11
875.0058771191
 21
581.0543524137
 31
0.0
  0
LINE
  5
71
330
1F
100
AcDbEntity
  8
0
  6
Continuous
 62
     7
370
    15
100
AcDbLine
 10
840.3831576589
 20
616.6398101566
 30
0.0
 11
837.0163001045
 21
616.5944275997
 31
0.0
  0
ARC
  5
72
330
1F
100
AcDbEntity
  8
0
  6
Continuous
 62
     7
370
    15
100
AcDbCircle
 10
874.2485657352
 20
581.7074063684
 30
0.0
 40
1.000000000000052
100
AcDbArc
 50
319.227745318
 51
25.0
  0
ARC
  5
73
330
1F
100
AcDbEntity
  8
0
  6
Continuous
 62
     7
370
    15
100
AcDbCircle
 10
825.794650099
 20
606.2838628894
 30
0.0
 40
2.000000000000027
100
AcDbArc
 50
205.0
 51
292.0
  0
ARC
  5
74
330
1F
100
AcDbEntity
  8
0
  6
Continuous
 62
     7
370
    15
100
AcDbCircle
 10
845.9940526382
 20
562.966104354
 30
0.0
 40
2.000000000000075
100
AcDbArc
 50
118.0
 51
205.0
  0
LINE
  5
75
330
1F
100
AcDbEntity
  8
0
  6
Continuous
 62
     7
370
    15
100
AcDbLine
 10
845.0551095126
 20
564.7319995397
 30
0.0
 11
847.8001340651
 21
566.1915549844
 31
0.0
  0
LINE
  5
76
330
1F
100
AcDbEntity
  8
0
  6
Continuous
 62
     7
370
    15
100
AcDbLine
 10
829.4264153943
 20
605.5941218294
 30
0.0
 11
826.5438632859
 21
604.4294951802
 31
0.0
  0
LINE
  5
77
330
1F
100
AcDbEntity
  8
0
  6
Continuous
 62
     7
370
    15
100
AcDbLine
 10
857.0203838725
 20
522.7566496321
 30
0.0
 11
857.4624635237
 21
522.9917075522
 31
0.0
  0
LINE
  5
78
330
1F
100
AcDbEntity
  8
0
  6
Continuous
 62
     7
370
    15
100
AcDbLine
 10
840.1156534029
 20
559.0089611136
 30
0.0
 11
842.8606779554
 21
560.4685165583
 31
0.0
  0
LINE
  5
79
330
1F
100
AcDbEntity
  8
0
  6
Continuous
 62
     7
370
    15
100
AcDbLine
 10
821.8672924243
 20
605.4889771146
 30
0.0
 11
818.9847403158
 21
604.3243504654
 31
0.0
  0
ARC
  5
7A
330
1F
100
AcDbEntity
  8
0
  6
Continuous
 62
     7
370
    15
100
AcDbCircle
 10
822.6165056111
 20
603.6346094055
 30
0.0
 40
2.000000000000027
100
AcDbArc
 50
25.0
 51
112.0
  0
ARC
  5
7B
330
1F
100
AcDbEntity
  8
0
  6
Continuous
 62
     7
370
    15
100
AcDbCircle
 10
841.9217348298
 20
562.234411744
 30
0.0
 40
1.999999999999942
100
AcDbArc
 50
298.0
 51
25.0
  0
ARC
  5
7C
330
1F
100
AcDbEntity
  8
0
  6
Continuous
 62
     7
370
    15
100
AcDbCircle
 10
828.4411020924
 20
600.6085282748
 30
0.0
 40
2.000000000000027
100
AcDbArc
 50
205.0
 51
292.0
  0
ARC
  5
7D
330
1F
100
AcDbEntity
  8
0
  6
Continuous
 62
     7
370
    15
100
AcDbCircle
 10
843.3476006448
 20
568.6414389686
 30
0.0
 40
2.000000000000075
100
AcDbArc
 50
118.0
 51
205.0
  0
LINE
  5
7E
330
1F
100
AcDbEntity
  8
0
  6
Continuous
 62
     7
370
    15
100
AcDbLine
 10
842.4086575192
 20
570.4073341543
 30
0.0
 11
844.7347390818
 21
571.6441336599
 31
0.0
  0
LINE
  5
7F
330
1F
100
AcDbEntity
  8
0
  6
Continuous
 62
     7
370
    15
100
AcDbLine
 10
831.6329350753
 20
599.741043023
 30
0.0
 11
829.1903152792
 21
598.7541605657
 31
0.0
  0
ARC
  5
80
330
1F
100
AcDbEntity
  8
0
  6
Continuous
 62
     7
370
    15
100
AcDbCircle
 10
831.820238372
 20
599.2774510958
 30
0.0
 40
0.4999999999999827
100
AcDbArc
 50
25.0
 51
112.0
  0
ARC
  5
81
330
1F
100
AcDbEntity
  8
0
  6
Continuous
 62
     7
370
    15
100
AcDbCircle
 10
844.5000033004
 20
572.0856074563
 30
0.0
 40
0.4999999999999277
100
AcDbArc
 50
298.0
 51
25.0
  0
ARC
  5
82
330
1F
100
AcDbEntity
  8
0
  6
Continuous
 62
     7
370
    15
100
AcDbCircle
 10
22.6674452643
 20
-28.5576275947
 30
0.0
 40
0.2500000000000817
100
AcDbArc
 50
180.0
 51
209.4734267878
  0
LINE
  5
83
330
1F
100
AcDbEntity
  8
0
  6
Continuous
 62
     7
370
    15
100
AcDbLine
 10
22.4174452643
 20
-27.8576275947
 30
0.0
 11
22.4174452643
 21
-28.5576275947
 31
0.0
  0
SPLINE
  5
84
330
1F
100
AcDbEntity
  8
0
  6
Continuous
 62
     7
370
    15
100
AcDbSpline
210
0.0
220
0.0
230
1.0
 70
     8
 71
     3
 72
    13
 73
     9
 74
     0
 42
0.00000001
 43
0.00000001
 12
1.0
 22
0.0
 32
0.0
 13
1.0
 23
0.0
 33
0.0
 40
0.0
 40
0.0
 40
0.0
 40
0.0
 40
0.0546880530902033
 40
0.2134688124167282
 40
0.3745771152275425
 40
0.5445034158378387
 40
0.7475374221067175
 40
1.0
 40
1.0
 40
1.0
 40
1.0
 10
35.07172017515558
 20
-27.3577196597593
 30
0.0
 10
35.07221413304251
 20
-27.36730338717486
 30
0.0
 10
35.07414224343486
 20
-27.40471241518649
 30
0.0
 10
35.0601078953171
 20
-27.46855814785443
 30
0.0
 10
35.03246715101882
 20
-27.53594916683377
 30
0.0
 10
34.99556117544644
 20
-27.58354518254013
 30
0.0
 10
34.96078427269666
 20
-27.6064196750172
 30
0.0
 10
34.94895410020904
 20
-27.60687361505587
 30
0.0
 10
34.94239713370939
 20
-27.60712521490593
 30
0.0
  0
LINE
  5
85
330
1F
100
AcDbEntity
  8
0
  6
Continuous
 62
     7
370
    15
100
AcDbLine
 10
35.0735950139
 20
-22.2576275947
 30
0.0
 11
35.0735950139
 21
-27.3576275947
 31
0.0
  0
ARC
  5
86
330
1F
100
AcDbEntity
  8
0
  6
Continuous
 62
     7
370
    15
100
AcDbCircle
 10
35.3235950139
 20
-22.2576275947
 30
0.0
 40
0.2499999999999751
100
AcDbArc
 50
90.0
 51
180.0
  0
ARC
  5
87
330
1F
100
AcDbEntity
  8
0
  6
Continuous
 62
     7
370
    15
100
AcDbCircle
 10
40.0235654132
 20
-22.2576275947
 30
0.0
 40
0.2500000000000817
100
AcDbArc
 50
0.0
 51
90.0
  0
LINE
  5
88
330
1F
100
AcDbEntity
  8
0
  6
Continuous
 62
     7
370
    15
100
AcDbLine
 10
40.2735654132
 20
-27.3576275947
 30
0.0
 11
40.2735654132
 21
-22.2576275947
 31
0.0
  0
ARC
  5
89
330
1F
100
AcDbEntity
  8
0
  6
Continuous
 62
     7
370
    15
100
AcDbCircle
 10
39.5674452643
 20
-28.5576275947
 30
0.0
 40
0.2500000000000782
100
AcDbArc
 50
270.0
 51
0.0
  0
ARC
  5
8A
330
1F
100
AcDbEntity
  8
0
  6
Continuous
 62
     7
370
    15
100
AcDbCircle
 10
22.2113251153
 20
-22.2576275947
 30
0.0
 40
0.2499999999999751
100
AcDbArc
 50
90.0
 51
180.0
  0
LINE
  5
8B
330
1F
100
AcDbEntity
  8
0
  6
Continuous
 62
     7
370
    15
100
AcDbLine
 10
21.9613251153
 20
-22.2576275947
 30
0.0
 11
21.9613251153
 21
-27.3576275947
 31
0.0
  0
SPLINE
  5
8C
330
1F
100
AcDbEntity
  8
0
  6
Continuous
 62
     7
370
    15
100
AcDbSpline
210
0.0
220
0.0
230
1.0
 70
     8
 71
     3
 72
    13
 73
     9
 74
     0
 42
0.00000001
 43
0.00000001
 12
1.0
 22
0.0
 32
0.0
 13
1.0
 23
0.0
 33
0.0
 40
0.0
 40
0.0
 40
0.0
 40
0.0
 40
0.0634888169694606
 40
0.2470479163430369
 40
0.4311284030607967
 40
0.6187780680185279
 40
0.831555268179298
 40
1.0
 40
1.0
 40
1.0
 40
1.0
 10
28.00828870298977
 20
-27.85751870435504
 30
0.0
 10
28.00781637115757
 20
-27.84729264220165
 30
0.0
 10
28.0059784318073
 20
-27.80750095182216
 30
0.0
 10
28.01932344874758
 20
-27.73994150833259
 30
0.0
 10
28.04527139385682
 20
-27.6698419947593
 30
0.0
 10
28.07723950752028
 20
-27.6233738313717
 30
0.0
 10
28.10025479167677
 20
-27.60734720583602
 30
0.0
 10
28.09951230090624
 20
-27.60804778368464
 30
0.0
 10
28.09918422781232
 20
-27.60835733735378
 30
0.0
  0
ARC
  5
8D
330
1F
100
AcDbEntity
  8
0
  6
Continuous
 62
     7
370
    15
100
AcDbCircle
 10
27.7564934406
 20
-32.9576275947
 30
0.0
 40
0.2499999999999751
100
AcDbArc
 50
270.0
 51
0.0
  0
LINE
  5
8E
330
1F
100
AcDbEntity
  8
0
  6
Continuous
 62
     7
370
    15
100
AcDbLine
 10
28.0064934406
 20
-32.9576275947
 30
0.0
 11
28.0064934406
 21
-27.8576275947
 31
0.0
  0
ARC
  5
8F
330
1F
100
AcDbEntity
  8
0
  6
Continuous
 62
     7
370
    15
100
AcDbCircle
 10
22.6997992684
 20
-32.9576275947
 30
0.0
 40
0.2500000000000817
100
AcDbArc
 50
180.0
 51
270.0
  0
LINE
  5
90
330
1F
100
AcDbEntity
  8
0
  6
Continuous
 62
     7
370
    15
100
AcDbLine
 10
22.4497992684
 20
-27.8576275947
 30
0.0
 11
22.4497992684
 21
-32.9576275947
 31
0.0
  0
ARC
  5
91
330
1F
100
AcDbEntity
  8
0
  6
Continuous
 62
     7
370
    15
100
AcDbCircle
 10
22.6674452643
 20
-27.3576275947
 30
0.0
 40
0.2500000000000817
100
AcDbArc
 50
180.0
 51
232.7089330724
  0
ARC
  5
92
330
1F
100
AcDbEntity
  8
0
  6
Continuous
 62
     7
370
    15
100
AcDbCircle
 10
22.6674452643
 20
-26.6576275947
 30
0.0
 40
0.2500000000000817
100
AcDbArc
 50
90.0
 51
180.0
  0
LINE
  5
93
330
1F
100
AcDbEntity
  8
0
  6
Continuous
 62
     7
370
    15
100
AcDbLine
 10
22.4174452643
 20
-26.6576275947
 30
0.0
 11
22.4174452643
 21
-27.3576275947
 31
0.0
  0
ARC
  5
94
330
1F
100
AcDbEntity
  8
0
  6
Continuous
 62
     7
370
    15
100
AcDbCircle
 10
39.5350912601
 20
-32.9576275947
 30
0.0
 40
0.2500000000000782
100
AcDbArc
 50
270.0
 51
0.0
  0
LINE
  5
95
330
1F
100
AcDbEntity
  8
0
  6
Continuous
 62
     7
370
    15
100
AcDbLine
 10
39.7850912601
 20
-32.9576275947
 30
0.0
 11
39.7850912601
 21
-28.6806325559
 31
0.0
  0
LINE
  5
96
330
1F
100
AcDbEntity
  8
0
  6
Continuous
 62
     7
370
    15
100
AcDbLine
 10
25.6557538604
 20
-33.7410699384
 30
0.0
 11
26.1174452643
 21
-34.0076275947
 31
0.0
  0
LINE
  5
97
330
1F
100
AcDbEntity
  8
0
  6
Continuous
 62
     7
370
    15
100
AcDbLine
 10
36.5791366681
 20
-29.074185251
 30
0.0
 11
36.1174452643
 21
-28.8076275947
 31
0.0
  0
LINE
  5
98
330
1F
100
AcDbEntity
  8
0
  6
Continuous
 62
     7
370
    15
100
AcDbLine
 10
36.1174452643
 20
-34.0076275947
 30
0.0
 11
36.5791366681
 21
-33.7410699384
 31
0.0
  0
LINE
  5
99
330
1F
100
AcDbEntity
  8
0
  6
Continuous
 62
     7
370
    15
100
AcDbLine
 10
26.0281941145
 20
-20.9060984193
 30
0.0
 11
26.1174452643
 21
-20.9576275947
 31
0.0
  0
LINE
  5
9A
330
1F
100
AcDbEntity
  8
0
  6
Continuous
 62
     7
370
    15
100
AcDbLine
 10
36.1174452643
 20
-20.9576275947
 30
0.0
 11
36.2066964141
 21
-20.9060984193
 31
0.0
  0
LINE
  5
9B
330
1F
100
AcDbEntity
  8
0
  6
Continuous
 62
     7
370
    15
100
AcDbLine
 10
36.3648263178
 20
-21.3504531125
 30
0.0
 11
36.1174452643
 21
-21.2076275947
 31
0.0
  0
LINE
  5
9C
330
1F
100
AcDbEntity
  8
0
  6
Continuous
 62
     7
370
    15
100
AcDbLine
 10
25.8700642108
 20
-26.2648020768
 30
0.0
 11
26.1174452643
 21
-26.4076275947
 31
0.0
  0
LINE
  5
9D
330
1F
100
AcDbEntity
  8
0
  6
Continuous
 62
     7
370
    15
100
AcDbLine
 10
26.1174452643
 20
-21.2076275947
 30
0.0
 11
25.8700642108
 21
-21.3504531125
 31
0.0
  0
LINE
  5
9E
330
1F
100
AcDbEntity
  8
0
  6
Continuous
 62
     7
370
    15
100
AcDbLine
 10
28.1174452643
 20
-20.9576275947
 30
0.0
 11
28.1174452643
 21
-21.2076275947
 31
0.0
  0
LINE
  5
9F
330
1F
100
AcDbEntity
  8
0
  6
Continuous
 62
     7
370
    15
100
AcDbLine
 10
34.1174452643
 20
-21.2076275947
 30
0.0
 11
34.1174452643
 21
-20.9576275947
 31
0.0
  0
LINE
  5
A0
330
1F
100
AcDbEntity
  8
0
  6
Continuous
 62
     7
370
    15
100
AcDbLine
 10
703.5174452643
 20
-184.5076275947
 30
0.0
 11
650.5174452643
 21
-184.5076275947
 31
0.0
  0
LINE
  5
A1
330
1F
100
AcDbEntity
  8
0
  6
Continuous
 62
     7
370
    15
100
AcDbLine
 10
705.5174452643
 20
-178.5076275947
 30
0.0
 11
648.5174452643
 21
-178.5076275947
 31
0.0
  0
LINE
  5
A2
330
1F
100
AcDbEntity
  8
0
  6
Continuous
 62
     7
370
    15
100
AcDbLine
 10
124.5174452643
 20
-184.5076275947
 30
0.0
 11
71.5174452643
 21
-184.5076275947
 31
0.0
  0
LINE
  5
A3
330
1F
100
AcDbEntity
  8
0
  6
Continuous
 62
     7
370
    15
100
AcDbLine
 10
126.5174452643
 20
-178.5076275947
 30
0.0
 11
69.5174452643
 21
-178.5076275947
 31
0.0
  0
LINE
  5
A4
330
1F
100
AcDbEntity
  8
0
  6
Continuous
 62
     7
370
    15
100
AcDbLine
 10
722.0174452643
 20
-16.5076275947
 30
0.0
 11
722.0174452643
 21
-16.0076275947
 31
0.0
  0
LINE
  5
A5
330
1F
100
AcDbEntity
  8
0
  6
Continuous
 62
     7
370
    15
100
AcDbLine
 10
632.0174452643
 20
-16.5076275947
 30
0.0
 11
632.0174452643
 21
-16.0076275947
 31
0.0
  0
LINE
  5
A6
330
1F
100
AcDbEntity
  8
0
  6
Continuous
 62
     7
370
    15
100
AcDbLine
 10
632.0174452643
 20
-16.5076275947
 30
0.0
 11
722.0174452643
 21
-16.5076275947
 31
0.0
  0
LINE
  5
A7
330
1F
100
AcDbEntity
  8
0
  6
Continuous
 62
     7
370
    15
100
AcDbLine
 10
707.9770954846
 20
-110.5076275947
 30
0.0
 11
646.0577950439
 21
-110.5076275947
 31
0.0
  0
LINE
  5
A8
330
1F
100
AcDbEntity
  8
0
  6
Continuous
 62
     7
370
    15
100
AcDbLine
 10
143.0174452643
 20
-16.5076275947
 30
0.0
 11
143.0174452643
 21
-16.0076275947
 31
0.0
  0
LINE
  5
A9
330
1F
100
AcDbEntity
  8
0
  6
Continuous
 62
     7
370
    15
100
AcDbLine
 10
53.0174452643
 20
-16.5076275947
 30
0.0
 11
143.0174452643
 21
-16.5076275947
 31
0.0
  0
LINE
  5
AA
330
1F
100
AcDbEntity
  8
0
  6
Continuous
 62
     7
370
    15
100
AcDbLine
 10
53.0174452643
 20
-16.5076275947
 30
0.0
 11
53.0174452643
 21
-16.0076275947
 31
0.0
  0
LINE
  5
AB
330
1F
100
AcDbEntity
  8
0
  6
Continuous
 62
     7
370
    15
100
AcDbLine
 10
128.9770954846
 20
-110.5076275947
 30
0.0
 11
67.0577950439
 21
-110.5076275947
 31
0.0
  0
LINE
  5
AC
330
1F
100
AcDbEntity
  8
0
  6
Continuous
 62
     7
370
    15
100
AcDbLine
 10
22.3853047495
 20
-13.9848485229
 30
0.0
 11
22.4967231678
 21
-14.17286537
 31
0.0
  0
LWPOLYLINE
  5
AD
330
1F
100
AcDbEntity
  8
0
  6
Continuous
 62
     7
370
    15
100
AcDbPolyline
 90
        3
 70
   128
 43
0.0
 10
763.0028062381
 20
-14.5739500673
 10
763.043790861
 20
-14.5339731914
 10
763.2601310423
 20
-14.2840392786
  0
SPLINE
  5
AE
330
1F
100
AcDbEntity
  8
0
  6
Continuous
 62
     7
370
    15
100
AcDbSpline
210
0.0
220
0.0
230
1.0
 70
     8
 71
     3
 72
    10
 73
     6
 74
     0
 42
0.00000001
 43
0.00000001
 12
1.0
 22
0.0
 32
0.0
 13
1.0
 23
0.0
 33
0.0
 40
0.0
 40
0.0
 40
0.0
 40
0.0
 40
0.3127604165768705
 40
0.6593519189487985
 40
1.0
 40
1.0
 40
1.0
 40
1.0
 10
762.4174452642802
 20
463.2923724053322
 30
0.0
 10
762.6689263575249
 20
463.3966605053774
 30
0.0
 10
763.1990910862493
 20
463.6165174797379
 30
0.0
 10
763.9306524637378
 20
463.9504391641706
 30
0.0
 10
764.2540198486736
 20
464.1798379916945
 30
0.0
 10
764.4143052597732
 20
464.2935454559855
 30
0.0
  0
LINE
  5
AF
330
1F
100
AcDbEntity
  8
0
  6
Continuous
 62
     7
370
    15
100
AcDbLine
 10
764.7174452643
 20
-15.2005565269
 30
0.0
 11
764.7174452643
 21
463.9923724053
 31
0.0
  0
SPLINE
  5
B0
330
1F
100
AcDbEntity
  8
0
  6
Continuous
 62
     7
370
    15
100
AcDbSpline
210
0.0
220
0.0
230
1.0
 70
     8
 71
     3
 72
    12
 73
     8
 74
     0
 42
0.00000001
 43
0.00000001
 12
1.0
 22
0.0
 32
0.0
 13
1.0
 23
0.0
 33
0.0
 40
0.0
 40
0.0
 40
0.0
 40
0.0
 40
0.2096821001528643
 40
0.4420453733186023
 40
0.6744332966681242
 40
0.9068208701180576
 40
1.0
 40
1.0
 40
1.0
 40
1.0
 10
764.7174452642803
 20
-15.20055652685592
 30
0.0
 10
764.6931052941118
 20
-15.09627131892832
 30
0.0
 10
764.641792515425
 20
-14.87642044164172
 30
0.0
 10
764.2208619284961
 20
-14.5404523117586
 30
0.0
 10
763.5690724506005
 20
-14.19354704334208
 30
0.0
 10
762.9196314114981
 20
-13.91517038110879
 30
0.0
 10
762.5291914943917
 20
-13.75380991988751
 30
0.0
 10
762.4174452642802
 20
-13.70762759466782
 30
0.0
  0
LINE
  5
B1
330
1F
100
AcDbEntity
  8
0
  6
Continuous
 62
     7
370
    15
100
AcDbLine
 10
762.4174452643
 20
-13.7076275947
 30
0.0
 11
762.4174452643
 21
463.2923724053
 31
0.0
  0
SPLINE
  5
B2
330
1F
100
AcDbEntity
  8
0
  6
Continuous
 62
     7
370
    15
100
AcDbSpline
210
0.0
220
0.0
230
1.0
 70
     8
 71
     3
 72
    10
 73
     6
 74
     0
 42
0.00000001
 43
0.00000001
 12
1.0
 22
0.0
 32
0.0
 13
1.0
 23
0.0
 33
0.0
 40
0.0
 40
0.0
 40
0.0
 40
0.0
 40
0.2804432289754492
 40
0.7940585657606817
 40
0.9999999999999999
 40
0.9999999999999999
 40
0.9999999999999999
 40
0.9999999999999999
 10
763.0927524411745
 20
464.7680985971173
 30
0.0
 10
763.0295902755831
 20
464.6560300013817
 30
0.0
 10
762.8507503057144
 20
464.3387143410189
 30
0.0
 10
762.6249856624903
 20
463.7926642332639
 30
0.0
 10
762.4636270580719
 20
463.4036971123889
 30
0.0
 10
762.4174452642803
 20
463.2923724053322
 30
0.0
  0
SPLINE
  5
B3
330
1F
100
AcDbEntity
  8
0
  6
Continuous
 62
     7
370
    15
100
AcDbSpline
210
0.0
220
0.0
230
1.0
 70
     8
 71
     3
 72
     9
 73
     5
 74
     0
 42
0.00000001
 43
0.00000001
 12
1.0
 22
0.0
 32
0.0
 13
1.0
 23
0.0
 33
0.0
 40
0.0
 40
0.0
 40
0.0
 40
0.0
 40
0.48684962875049
 40
1.0
 40
1.0
 40
1.0
 40
1.0
 10
763.1056345880529
 20
464.2787880711016
 30
0.0
 10
762.9938978493481
 20
464.1375151042996
 30
0.0
 10
762.7643880949877
 20
463.8473372784182
 30
0.0
 10
762.5351029972874
 20
463.4805760604781
 30
0.0
 10
762.4174452642803
 20
463.2923724053322
 30
0.0
  0
LINE
  5
B4
330
1F
100
AcDbEntity
  8
0
  6
Continuous
 62
     7
370
    15
100
AcDbLine
 10
24.0174452643
 20
463.2923724053
 30
0.0
 11
24.0174452643
 21
464.7923724053
 31
0.0
  0
LINE
  5
B5
330
1F
100
AcDbEntity
  8
0
  6
Continuous
 62
     7
370
    15
100
AcDbLine
 10
762.4174452643
 20
463.2923724053
 30
0.0
 11
24.0174452643
 21
463.2923724053
 31
0.0
  0
SPLINE
  5
B6
330
1F
100
AcDbEntity
  8
0
  6
Continuous
 62
     7
370
    15
100
AcDbSpline
210
0.0
220
0.0
230
1.0
 70
     8
 71
     3
 72
    24
 73
    20
 74
     0
 42
0.00000001
 43
0.00000001
 12
1.0
 22
0.0
 32
0.0
 13
1.0
 23
0.0
 33
0.0
 40
0.0
 40
0.0
 40
0.0
 40
0.0
 40
0.0398787867046687
 40
0.1224463023784577
 40
0.2095846674247639
 40
0.2812442047239485
 40
0.3487848041470569
 40
0.4115966254304104
 40
0.4420883815996596
 40
0.4707700846083857
 40
0.5283955127164323
 40
0.586526932733446
 40
0.6451718962352778
 40
0.6746445618851981
 40
0.7463114956919495
 40
0.8138591946297518
 40
0.8766777444873689
 40
0.9071728048432707
 40
1.0
 40
1.0
 40
1.0
 40
1.0
 10
22.8174452642802
 20
-13.70762759466782
 30
0.0
 10
22.76943686480593
 20
-13.72746681085313
 30
0.0
 10
22.622028894692
 20
-13.78838237184998
 30
0.0
 10
22.37106007238188
 20
-13.8927157958475
 30
0.0
 10
22.08947393264471
 20
-14.01286336565777
 30
0.0
 10
21.83651073812698
 20
-14.12550378447097
 30
0.0
 10
21.62212131592889
 20
-14.22603273494016
 30
0.0
 10
21.4617510989944
 20
-14.3060741797032
 30
0.0
 10
21.34666206010116
 20
-14.36675661649667
 30
0.0
 10
21.24064726431307
 20
-14.42486080633709
 30
0.0
 10
21.11744461899201
 20
-14.49674070248019
 30
0.0
 10
20.98280538475761
 20
-14.58351770359489
 30
0.0
 10
20.88275144491503
 20
-14.65629643665722
 30
0.0
 10
20.78478525239525
 20
-14.7357735834257
 30
0.0
 10
20.69539937294251
 20
-14.81974684253351
 30
0.0
 10
20.61280428699785
 20
-14.92027974568166
 30
0.0
 10
20.56639552065709
 20
-15.00033697896319
 30
0.0
 10
20.52770308516505
 20
-15.09292018483754
 30
0.0
 10
20.52185057152578
 20
-15.15433119667087
 30
0.0
 10
20.51744526428023
 20
-15.20055652685592
 30
0.0
  0
SPLINE
  5
B7
330
1F
100
AcDbEntity
  8
0
  6
Continuous
 62
     7
370
    15
100
AcDbSpline
210
0.0
220
0.0
230
1.0
 70
     8
 71
     3
 72
    21
 73
    17
 74
     0
 42
0.00000001
 43
0.00000001
 12
1.0
 22
0.0
 32
0.0
 13
1.0
 23
0.0
 33
0.0
 40
0.0
 40
0.0
 40
0.0
 40
0.0
 40
0.0624749951473419
 40
0.1253838302398989
 40
0.1896568886969608
 40
0.2544026542268314
 40
0.3171573100984368
 40
0.380351703264439
 40
0.4442261813399005
 40
0.5090315920425272
 40
0.5715604434293569
 40
0.6345242656957559
 40
0.6988559709532141
 40
0.7636616869535716
 40
0.88108176491453
 40
0.9999999999999999
 40
0.9999999999999999
 40
0.9999999999999999
 40
0.9999999999999999
 10
22.8174452642802
 20
-13.70762759466782
 30
0.0
 10
22.76838713353257
 20
-13.7387130634804
 30
0.0
 10
22.66993020171471
 20
-13.80109986535771
 30
0.0
 10
22.52243691311395
 20
-13.89546138748543
 30
0.0
 10
22.3761228251349
 20
-13.99095437342446
 30
0.0
 10
22.23440946295108
 20
-14.08637692712356
 30
0.0
 10
22.09933501657935
 20
-14.18126001760223
 30
0.0
 10
21.97192128688352
 20
-14.27570439526382
 30
0.0
 10
21.85159472015719
 20
-14.37117075740268
 30
0.0
 10
21.74144275360423
 20
-14.46631251357145
 30
0.0
 10
21.64253428966234
 20
-14.56099826390633
 30
0.0
 10
21.55538897108011
 20
-14.65544096327687
 30
0.0
 10
21.47976575778765
 20
-14.75102622417801
 30
0.0
 10
21.40069616955476
 20
-14.87368615262385
 30
0.0
 10
21.33248492289552
 20
-15.0236741000549
 30
0.0
 10
21.32247962513378
 20
-15.14134707350889
 30
0.0
 10
21.31744526428026
 20
-15.20055652685592
 30
0.0
  0
LINE
  5
B8
330
1F
100
AcDbEntity
  8
0
  6
Continuous
 62
     7
370
    15
100
AcDbLine
 10
20.5174452643
 20
-15.2005565269
 30
0.0
 11
21.3174452643
 21
-15.2005565269
 31
0.0
  0
SPLINE
  5
B9
330
1F
100
AcDbEntity
  8
0
  6
Continuous
 62
     7
370
    15
100
AcDbSpline
210
0.0
220
0.0
230
1.0
 70
     8
 71
     3
 72
    10
 73
     6
 74
     0
 42
0.00000001
 43
0.00000001
 12
1.0
 22
0.0
 32
0.0
 13
1.0
 23
0.0
 33
0.0
 40
0.0
 40
0.0
 40
0.0
 40
0.0
 40
0.4303529957479624
 40
0.8610853432769258
 40
0.9999999999999999
 40
0.9999999999999999
 40
0.9999999999999999
 40
0.9999999999999999
 10
762.4174452642802
 20
463.2923724053322
 30
0.0
 10
762.6145093244018
 20
463.4189519721813
 30
0.0
 10
763.008811154606
 20
463.6722226844781
 30
0.0
 10
763.4309595077361
 20
463.9663564725431
 30
0.0
 10
763.5643099498118
 20
464.1339083462081
 30
0.0
 10
763.5968289146209
 20
464.1747677044418
 30
0.0
  0
LINE
  5
BA
330
1F
100
AcDbEntity
  8
0
  6
Continuous
 62
     7
370
    15
100
AcDbLine
 10
764.7174452643
 20
-15.2005565269
 30
0.0
 11
763.9174452643
 21
-15.2005565269
 31
0.0
  0
SPLINE
  5
BB
330
1F
100
AcDbEntity
  8
0
  6
Continuous
 62
     7
370
    15
100
AcDbSpline
210
0.0
220
0.0
230
1.0
 70
     8
 71
     3
 72
    11
 73
     7
 74
     0
 42
0.00000001
 43
0.00000001
 12
1.0
 22
0.0
 32
0.0
 13
1.0
 23
0.0
 33
0.0
 40
0.0
 40
0.0
 40
0.0
 40
0.0
 40
0.2543211584721312
 40
0.5088664984542471
 40
0.7634130007197313
 40
1.0
 40
1.0
 40
1.0
 40
1.0
 10
763.9174452642803
 20
-15.20055652685592
 30
0.0
 10
763.8940912022613
 20
-15.07397541907052
 30
0.0
 10
763.8473624918554
 20
-14.82070162354288
 30
0.0
 10
763.4884748756601
 20
-14.44075695405744
 30
0.0
 10
762.9892518963705
 20
-14.06953182238657
 30
0.0
 10
762.6033435797755
 20
-13.82528517771753
 30
0.0
 10
762.4174452642802
 20
-13.70762759466782
 30
0.0
  0
SPLINE
  5
BC
330
1F
100
AcDbEntity
  8
0
  6
Continuous
 62
     7
370
    15
100
AcDbSpline
210
0.0
220
0.0
230
1.0
 70
     8
 71
     3
 72
    24
 73
    20
 74
     0
 42
0.00000001
 43
0.00000001
 12
1.0
 22
0.0
 32
0.0
 13
1.0
 23
0.0
 33
0.0
 40
0.0
 40
0.0
 40
0.0
 40
0.0
 40
0.0827160684677302
 40
0.1669324903000136
 40
0.2095778767777137
 40
0.2440326876531138
 40
0.312064215957411
 40
0.3779210624395616
 40
0.4420735735670079
 40
0.4996709580421512
 40
0.5576037931817067
 40
0.6159318430733227
 40
0.6746046872095874
 40
0.7090630640262867
 40
0.7771016977186183
 40
0.8429655202338098
 40
0.9071249125738585
 40
0.9534569088471757
 40
1.0
 40
1.0
 40
1.0
 40
1.0
 10
21.32451633209198
 20
-16.00762759466778
 30
0.0
 10
21.36568902989744
 20
-16.00389385549927
 30
0.0
 10
21.44878124044802
 20
-15.99635865237525
 30
0.0
 10
21.55311954377625
 20
-15.94499436448082
 30
0.0
 10
21.63337688169065
 20
-15.88861221376236
 30
0.0
 10
21.70558004255085
 20
-15.82759450488824
 30
0.0
 10
21.78937509894796
 20
-15.74171651181255
 30
0.0
 10
21.88792295446718
 20
-15.61852425060439
 30
0.0
 10
21.98128497118235
 20
-15.48268576934408
 30
0.0
 10
22.07069778339221
 20
-15.33669121121262
 30
0.0
 10
22.15721617458499
 20
-15.18197613102978
 30
0.0
 10
22.24426100936994
 20
-15.01398626445816
 30
0.0
 10
22.31963465590503
 20
-14.85899792298451
 30
0.0
 10
22.39981151820314
 20
-14.68720400448276
 30
0.0
 10
22.48361671277965
 20
-14.50043043127591
 30
0.0
 10
22.58217896665671
 20
-14.27215171483931
 30
0.0
 10
22.6699429705498
 20
-14.06356299254341
 30
0.0
 10
22.74807331152906
 20
-13.87549902338869
 30
0.0
 10
22.7942862677043
 20
-13.76366946301344
 30
0.0
 10
22.8174452642802
 20
-13.70762759466782
 30
0.0
  0
LINE
  5
BD
330
1F
100
AcDbEntity
  8
0
  6
Continuous
 62
     7
370
    15
100
AcDbLine
 10
21.3245163321
 20
-16.0076275947
 30
0.0
 11
21.3245163321
 21
-15.2076275947
 31
0.0
  0
SPLINE
  5
BE
330
1F
100
AcDbEntity
  8
0
  6
Continuous
 62
     7
370
    15
100
AcDbSpline
210
0.0
220
0.0
230
1.0
 70
     8
 71
     3
 72
    21
 73
    17
 74
     0
 42
0.00000001
 43
0.00000001
 12
1.0
 22
0.0
 32
0.0
 13
1.0
 23
0.0
 33
0.0
 40
0.0
 40
0.0
 40
0.0
 40
0.0
 40
0.0624761000219228
 40
0.1253860476616883
 40
0.1896602427922622
 40
0.2544071533555388
 40
0.3171629190475982
 40
0.3803584298108705
 40
0.4442340375109727
 40
0.5090405943017874
 40
0.6344268587690108
 40
0.6987597017371725
 40
0.7635665638310963
 40
0.8221536084236207
 40
0.9403181259347299
 40
1.0
 40
1.0
 40
1.0
 40
1.0
 10
21.32451633209198
 20
-15.20762759466776
 30
0.0
 10
21.35560180155793
 20
-15.20623613845173
 30
0.0
 10
21.41798860474664
 20
-15.20344356344527
 30
0.0
 10
21.51235011691521
 20
-15.1806981278183
 30
0.0
 10
21.6078431416421
 20
-15.1439724439113
 30
0.0
 10
21.70326555023539
 20
-15.09238957290071
 30
0.0
 10
21.7981491681728
 20
-15.02735224723106
 30
0.0
 10
21.89259157009615
 20
-14.94963103680036
 30
0.0
 10
21.98806543184839
 20
-14.85862077377675
 30
0.0
 10
22.1144453609946
 20
-14.72271646699907
 30
0.0
 10
22.24130641532362
 20
-14.56537172344474
 30
0.0
 10
22.36790339640526
 20
-14.39211727011813
 30
0.0
 10
22.46132638595799
 20
-14.25746151603768
 30
0.0
 10
22.58147650615827
 20
-14.07760865586649
 30
0.0
 10
22.69928748069849
 20
-13.89410220183129
 30
0.0
 10
22.78775667989019
 20
-13.75448161429793
 30
0.0
 10
22.81744526428009
 20
-13.70762759466793
 30
0.0
  0
LINE
  5
BF
330
1F
100
AcDbEntity
  8
0
  6
Continuous
 62
     7
370
    15
100
AcDbLine
 10
22.8174452643
 20
-13.7076275947
 30
0.0
 11
762.4174452643
 21
-13.7076275947
 31
0.0
  0
LINE
  5
C0
330
1F
100
AcDbEntity
  8
0
  6
Continuous
 62
     7
370
    15
100
AcDbLine
 10
22.8174452643
 20
464.7923724053
 30
0.0
 11
22.8174452643
 21
-13.7076275947
 31
0.0
  0
LINE
  5
C1
330
1F
100
AcDbEntity
  8
0
  6
Continuous
 62
     7
370
    15
100
AcDbLine
 10
22.8174452643
 20
464.7923724053
 30
0.0
 11
23.7674452643
 21
464.7923724053
 31
0.0
  0
ARC
  5
C2
330
1F
100
AcDbEntity
  8
0
  6
Continuous
 62
     7
370
    15
100
AcDbCircle
 10
23.8924452643
 20
463.2923724053
 30
0.0
 40
0.1250000000000426
100
AcDbArc
 50
180.0
 51
0.0
  0
LINE
  5
C3
330
1F
100
AcDbEntity
  8
0
  6
Continuous
 62
     7
370
    15
100
AcDbLine
 10
23.7674452643
 20
463.2923724053
 30
0.0
 11
23.7674452643
 21
464.7923724053
 31
0.0
  0
LINE
  5
C4
330
1F
100
AcDbEntity
  8
0
  6
Continuous
 62
     7
370
    15
100
AcDbLine
 10
20.5174452643
 20
463.0423724053
 30
0.0
 11
20.5174452643
 21
-15.2005565269
 31
0.0
  0
SPLINE
  5
C5
330
1F
100
AcDbEntity
  8
0
  6
Continuous
 62
     7
370
    15
100
AcDbSpline
210
0.0
220
0.0
230
1.0
 70
     8
 71
     3
 72
    12
 73
     8
 74
     0
 42
0.00000001
 43
0.00000001
 12
1.0
 22
0.0
 32
0.0
 13
1.0
 23
0.0
 33
0.0
 40
0.0
 40
0.0
 40
0.0
 40
0.0
 40
0.2039309378941969
 40
0.4425616402550416
 40
0.6812426816310355
 40
0.9199234516442685
 40
1.0
 40
1.0
 40
1.0
 40
1.0
 10
20.51744526428012
 20
463.0423724053322
 30
0.0
 10
20.5405098879804
 20
463.1612077442225
 30
0.0
 10
20.59056368463352
 20
463.4190987883306
 30
0.0
 10
21.01302789969672
 20
463.8169804634427
 30
0.0
 10
21.68622382203311
 20
464.2345924752519
 30
0.0
 10
22.33920193500716
 20
464.5606927220355
 30
0.0
 10
22.72142514593678
 20
464.7458565226293
 30
0.0
 10
22.8174452642802
 20
464.7923724053322
 30
0.0
  0
SPLINE
  5
C6
330
1F
100
AcDbEntity
  8
0
  6
Continuous
 62
     7
370
    15
100
AcDbSpline
210
0.0
220
0.0
230
1.0
 70
     8
 71
     3
 72
    24
 73
    20
 74
     0
 42
0.00000001
 43
0.00000001
 12
1.0
 22
0.0
 32
0.0
 13
1.0
 23
0.0
 33
0.0
 40
0.0
 40
0.0
 40
0.0
 40
0.0
 40
0.0827160684677472
 40
0.1669324902999915
 40
0.2095778767776985
 40
0.2440326876531165
 40
0.312064215957383
 40
0.3779210624395338
 40
0.4420735735670121
 40
0.4996709580421659
 40
0.5576037931817371
 40
0.6159318430733407
 40
0.6746046872095761
 40
0.709063064026234
 40
0.7771016977185977
 40
0.8429655202338133
 40
0.9071249125738522
 40
0.953456908847171
 40
1.0
 40
1.0
 40
1.0
 40
1.0
 10
762.4174452642802
 20
-13.70762759466782
 30
0.0
 10
762.4586179620857
 20
-13.80726006965971
 30
0.0
 10
762.541710172636
 20
-14.00833221287523
 30
0.0
 10
762.6460484759646
 20
-14.25654677392629
 30
0.0
 10
762.7263058138791
 20
-14.44243272858747
 30
0.0
 10
762.7985089747392
 20
-14.60624205524219
 30
0.0
 10
762.8823040311362
 20
-14.79023942452384
 30
0.0
 10
762.9808518866554
 20
-14.99482843278965
 30
0.0
 10
763.0742139033708
 20
-15.17573257882809
 30
0.0
 10
763.1636267155806
 20
-15.33572056760224
 30
0.0
 10
763.2501451067737
 20
-15.47709526529961
 30
0.0
 10
763.337189941558
 20
-15.60455721252652
 30
0.0
 10
763.4125635880937
 20
-15.70111466938184
 30
0.0
 10
763.4927404503911
 20
-15.79144145497335
 30
0.0
 10
763.5765456449685
 20
-15.87117349116074
 30
0.0
 10
763.6751078988449
 20
-15.94146395638019
 30
0.0
 10
763.7628719027381
 20
-15.98266054783815
 30
0.0
 10
763.8410022437175
 20
-16.00407844337548
 30
0.0
 10
763.8872151998926
 20
-16.00644275296514
 30
0.0
 10
763.9103741964684
 20
-16.00762759466789
 30
0.0
  0
SPLINE
  5
C7
330
1F
100
AcDbEntity
  8
0
  6
Continuous
 62
     7
370
    15
100
AcDbSpline
210
0.0
220
0.0
230
1.0
 70
     8
 71
     3
 72
    21
 73
    17
 74
     0
 42
0.00000001
 43
0.00000001
 12
1.0
 22
0.0
 32
0.0
 13
1.0
 23
0.0
 33
0.0
 40
0.0
 40
0.0
 40
0.0
 40
0.0
 40
0.0624761000219612
 40
0.1253860476616794
 40
0.1896602427922748
 40
0.2544071533555473
 40
0.3171629190476659
 40
0.3803584298108972
 40
0.4442340375109951
 40
0.5090405943018101
 40
0.634426858769004
 40
0.6987597017371405
 40
0.763566563831075
 40
0.8221536084235819
 40
0.9403181259347582
 40
1.0
 40
1.0
 40
1.0
 40
1.0
 10
762.4174452642803
 20
-13.70762759466793
 30
0.0
 10
762.4485307337463
 20
-13.75668572592004
 30
0.0
 10
762.5109175369349
 20
-13.85514265875065
 30
0.0
 10
762.6052790491038
 20
-14.00263593965867
 30
0.0
 10
762.7007720738303
 20
-14.14895005760086
 30
0.0
 10
762.796194482424
 20
-14.29066330769013
 30
0.0
 10
762.8910781003614
 20
-14.42573816152737
 30
0.0
 10
762.9855205022844
 20
-14.55315036495053
 30
0.0
 10
763.0809943640369
 20
-14.67348272518476
 30
0.0
 10
763.2073742931833
 20
-14.81981560143641
 30
0.0
 10
763.334235347512
 20
-14.94519910117087
 30
0.0
 10
763.4608323285936
 20
-15.04522323545499
 30
0.0
 10
763.5542553181461
 20
-15.10578786449646
 30
0.0
 10
763.6744054383466
 20
-15.16624913702125
 30
0.0
 10
763.792216412887
 20
-15.20236306442724
 30
0.0
 10
763.8806856120783
 20
-15.20630481722918
 30
0.0
 10
763.9103741964684
 20
-15.20762759466776
 30
0.0
  0
LINE
  5
C8
330
1F
100
AcDbEntity
  8
0
  6
Continuous
 62
     7
370
    15
100
AcDbLine
 10
763.9103741965
 20
-16.0076275947
 30
0.0
 11
763.9103741965
 21
-15.2076275947
 31
0.0
  0
LINE
  5
C9
330
1F
100
AcDbEntity
  8
0
  6
Continuous
 62
     7
370
    15
100
AcDbLine
 10
763.9103741965
 20
-16.0076275947
 30
0.0
 11
21.3245163321
 21
-16.0076275947
 31
0.0
  0
LINE
  5
CA
330
1F
100
AcDbEntity
  8
0
  6
Continuous
 62
     7
370
    15
100
AcDbLine
 10
22.1174452643
 20
-14.7367571245
 30
0.0
 11
22.1174452643
 21
-14.1885861746
 31
0.0
  0
LINE
  5
CB
330
1F
100
AcDbEntity
  8
0
  6
Continuous
 62
     7
370
    15
100
AcDbLine
 10
21.3464031749
 20
-15.2076275947
 30
0.0
 11
21.3174452643
 21
-15.2076275947
 31
0.0
  0
LINE
  5
CC
330
1F
100
AcDbEntity
  8
0
  6
Continuous
 62
     7
370
    15
100
AcDbLine
 10
21.3174452643
 20
-15.2076275947
 30
0.0
 11
21.3174452643
 21
-15.1902169896
 31
0.0
  0
LINE
  5
CD
330
1F
100
AcDbEntity
  8
0
  6
Continuous
 62
     7
370
    15
100
AcDbLine
 10
23.7674452643
 20
463.9923724053
 30
0.0
 11
24.0174452643
 21
463.9923724053
 31
0.0
  0
ARC
  5
CE
330
1F
100
AcDbEntity
  8
0
  6
Continuous
 62
     7
370
    15
100
AcDbCircle
 10
863.9724987658
 20
565.0693050749
 30
0.0
 40
1.500000000000044
100
AcDbArc
 50
25.0
 51
115.0
  0
LINE
  5
CF
330
1F
100
AcDbEntity
  8
0
  6
Continuous
 62
     7
370
    15
100
AcDbLine
 10
863.3385713732
 20
566.4287667554
 30
0.0
 11
863.0004767638
 21
567.153812985
 31
0.0
  0
ARC
  5
D0
330
1F
100
AcDbEntity
  8
0
  6
Continuous
 62
     7
370
    15
100
AcDbCircle
 10
863.9724987658
 20
565.0693050749
 30
0.0
 40
2.299999999999979
100
AcDbArc
 50
25.0
 51
115.0
  0
LINE
  5
D1
330
1F
100
AcDbEntity
  8
0
  6
Continuous
 62
     7
370
    15
100
AcDbLine
 10
866.057006676
 20
566.0413270769
 30
0.0
 11
865.3319604463
 21
565.7032324675
 31
0.0
  0
LINE
  5
D2
330
1F
100
AcDbEntity
  8
0
  6
Continuous
 62
     7
370
    15
100
AcDbLine
 10
841.8844814425
 20
472.9356596397
 30
0.0
 11
841.1594352128
 21
473.2737542491
 31
0.0
  0
LINE
  5
D3
330
1F
100
AcDbEntity
  8
0
  6
Continuous
 62
     7
370
    15
100
AcDbLine
 10
841.1594352128
 20
473.2737542491
 30
0.0
 11
843.2725265215
 21
477.8052931843
 31
0.0
  0
LINE
  5
D4
330
1F
100
AcDbEntity
  8
0
  6
Continuous
 62
     7
370
    15
100
AcDbLine
 10
843.2725265215
 20
477.8052931843
 30
0.0
 11
843.9975727512
 21
477.4671985749
 31
0.0
  0
LINE
  5
D5
330
1F
100
AcDbEntity
  8
0
  6
Continuous
 62
     7
370
    15
100
AcDbLine
 10
843.9975727512
 20
477.4671985749
 30
0.0
 11
841.8844814425
 21
472.9356596397
 31
0.0
  0
LINE
  5
D6
330
1F
100
AcDbEntity
  8
0
  6
Continuous
 62
     7
370
    15
100
AcDbLine
 10
871.4242586001
 20
554.5312181815
 30
0.0
 11
866.057006676
 21
566.0413270769
 31
0.0
  0
LINE
  5
D7
330
1F
100
AcDbEntity
  8
0
  6
Continuous
 62
     7
370
    15
100
AcDbLine
 10
870.6992123704
 20
554.1931235721
 30
0.0
 11
871.4242586001
 21
554.5312181815
 31
0.0
  0
LINE
  5
D8
330
1F
100
AcDbEntity
  8
0
  6
Continuous
 62
     7
370
    15
100
AcDbLine
 10
870.6992123704
 20
554.1931235721
 30
0.0
 11
865.3319604463
 21
565.7032324675
 31
0.0
  0
LINE
  5
D9
330
1F
100
AcDbEntity
  8
0
  6
Continuous
 62
     7
370
    15
100
AcDbLine
 10
863.3385713732
 20
566.4287667554
 30
0.0
 11
844.8498925176
 21
557.8073542159
 31
0.0
  0
LINE
  5
DA
330
1F
100
AcDbEntity
  8
0
  6
Continuous
 62
     7
370
    15
100
AcDbLine
 10
844.5117979082
 20
558.5324004455
 30
0.0
 11
844.8498925176
 21
557.8073542159
 31
0.0
  0
LINE
  5
DB
330
1F
100
AcDbEntity
  8
0
  6
Continuous
 62
     7
370
    15
100
AcDbLine
 10
863.0004767638
 20
567.153812985
 30
0.0
 11
844.5117979082
 21
558.5324004455
 31
0.0
  0
LINE
  5
DC
330
1F
100
AcDbEntity
  8
0
  6
Continuous
 62
     7
370
    15
100
AcDbLine
 10
844.1243582297
 20
555.8139651427
 30
0.0
 11
843.399312
 21
555.4758705333
 31
0.0
  0
ARC
  5
DD
330
1F
100
AcDbEntity
  8
0
  6
Continuous
 62
     7
370
    15
100
AcDbCircle
 10
845.4838199102
 20
556.4478925353
 30
0.0
 40
2.300000000000075
100
AcDbArc
 50
115.0
 51
205.0
  0
ARC
  5
DE
330
1F
100
AcDbEntity
  8
0
  6
Continuous
 62
     7
370
    15
100
AcDbCircle
 10
845.4838199102
 20
556.4478925353
 30
0.0
 40
1.499999999999996
100
AcDbArc
 50
115.0
 51
205.0
  0
LINE
  5
DF
330
1F
100
AcDbEntity
  8
0
  6
Continuous
 62
     7
370
    15
100
AcDbLine
 10
873.5373499088
 20
549.9996792463
 30
0.0
 11
872.8123036791
 21
549.6615846369
 31
0.0
  0
LINE
  5
E0
330
1F
100
AcDbEntity
  8
0
  6
Continuous
 62
     7
370
    15
100
AcDbLine
 10
872.8123036791
 20
549.6615846369
 30
0.0
 11
870.6992123704
 21
554.1931235721
 31
0.0
  0
LINE
  5
E1
330
1F
100
AcDbEntity
  8
0
  6
Continuous
 62
     7
370
    15
100
AcDbLine
 10
871.4242586001
 20
554.5312181815
 30
0.0
 11
873.5373499088
 21
549.9996792463
 31
0.0
  0
LINE
  5
E2
330
1F
100
AcDbEntity
  8
0
  6
Continuous
 62
     7
370
    15
100
AcDbLine
 10
861.8745528081
 20
515.8045060249
 30
0.0
 11
861.1495065785
 21
516.1426006343
 31
0.0
  0
LINE
  5
E3
330
1F
100
AcDbEntity
  8
0
  6
Continuous
 62
     7
370
    15
100
AcDbLine
 10
861.8745528081
 20
515.8045060249
 30
0.0
 11
843.9975727512
 21
477.4671985749
 31
0.0
  0
LINE
  5
E4
330
1F
100
AcDbEntity
  8
0
  6
Continuous
 62
     7
370
    15
100
AcDbLine
 10
861.1495065785
 20
516.1426006343
 30
0.0
 11
843.2725265215
 21
477.8052931843
 31
0.0
  0
LINE
  5
E5
330
1F
100
AcDbEntity
  8
0
  6
Continuous
 62
     7
370
    15
100
AcDbLine
 10
861.1495065785
 20
517.4104554195
 30
0.0
 11
861.8745528081
 21
517.7485500289
 31
0.0
  0
LINE
  5
E6
330
1F
100
AcDbEntity
  8
0
  6
Continuous
 62
     7
370
    15
100
AcDbLine
 10
843.399312
 20
555.4758705333
 30
0.0
 11
861.1495065785
 21
517.4104554195
 31
0.0
  0
LINE
  5
E7
330
1F
100
AcDbEntity
  8
0
  6
Continuous
 62
     7
370
    15
100
AcDbLine
 10
844.1243582297
 20
555.8139651427
 30
0.0
 11
861.8745528081
 21
517.7485500289
 31
0.0
  0
ARC
  5
E8
330
1F
100
AcDbEntity
  8
0
  6
Continuous
 62
     7
370
    15
100
AcDbCircle
 10
859.7900448979
 20
516.7765280269
 30
0.0
 40
2.300000000000075
100
AcDbArc
 50
335.0
 51
25.0
  0
ARC
  5
E9
330
1F
100
AcDbEntity
  8
0
  6
Continuous
 62
     7
370
    15
100
AcDbCircle
 10
859.7900448979
 20
516.7765280269
 30
0.0
 40
1.500000000000044
100
AcDbArc
 50
335.0
 51
25.0
  0
LINE
  5
EA
330
1F
100
AcDbEntity
  8
0
  6
Continuous
 62
     7
370
    15
100
AcDbLine
 10
-12.0268053706
 20
742.6923724053
 30
0.0
 11
2.973193726
 21
742.6923724053
 31
0.0
  0
LINE
  5
EB
330
1F
100
AcDbEntity
  8
0
  6
Continuous
 62
     7
370
    15
100
AcDbLine
 10
28.7215866702
 20
711.3923724049
 30
0.0
 11
-26.9284133309
 21
711.3923724049
 31
0.0
  0
LINE
  5
EC
330
1F
100
AcDbEntity
  8
0
  6
Continuous
 62
     7
370
    15
100
AcDbLine
 10
-26.9284133309
 20
711.3923724049
 30
0.0
 11
-26.9284133309
 21
713.3923724053
 31
0.0
  0
LINE
  5
ED
330
1F
100
AcDbEntity
  8
0
  6
Continuous
 62
     7
370
    15
100
AcDbLine
 10
-26.9284133309
 20
713.6923724049
 30
0.0
 11
28.7215866702
 21
713.6923724049
 31
0.0
  0
LINE
  5
EE
330
1F
100
AcDbEntity
  8
0
  6
Continuous
 62
     7
370
    15
100
AcDbLine
 10
-39.9284133298
 20
715.5423724053
 30
0.0
 11
-39.9284133298
 21
727.0423724053
 31
0.0
  0
ARC
  5
EF
330
1F
100
AcDbEntity
  8
0
  6
Continuous
 62
     7
370
    15
100
AcDbCircle
 10
-37.7784133298
 20
727.0423724053
 30
0.0
 40
2.149999999999984
100
AcDbArc
 50
90.0
 51
180.0
  0
LINE
  5
F0
330
1F
100
AcDbEntity
  8
0
  6
Continuous
 62
     7
370
    15
100
AcDbLine
 10
-37.7784133298
 20
729.1923724053
 30
0.0
 11
-37.776806274
 21
729.1923724053
 31
0.0
  0
LINE
  5
F1
330
1F
100
AcDbEntity
  8
0
  6
Continuous
 62
     7
370
    15
100
AcDbLine
 10
-37.776806274
 20
729.1923724053
 30
0.0
 11
-37.776806274
 21
726.8923724053
 31
0.0
  0
LINE
  5
F2
330
1F
100
AcDbEntity
  8
0
  6
Continuous
 62
     7
370
    15
100
AcDbLine
 10
28.7215866702
 20
726.8923724053
 30
0.0
 11
-37.776806274
 21
726.8923724053
 31
0.0
  0
LINE
  5
F3
330
1F
100
AcDbEntity
  8
0
  6
Continuous
 62
     7
370
    15
100
AcDbLine
 10
28.7215866702
 20
726.8923724053
 30
0.0
 11
28.7215866702
 21
729.1923724053
 31
0.0
  0
ARC
  5
F4
330
1F
100
AcDbEntity
  8
0
  6
Continuous
 62
     7
370
    15
100
AcDbCircle
 10
28.7215866702
 20
727.0423724053
 30
0.0
 40
2.149999999999984
100
AcDbArc
 50
359.9999999959
 51
90.0
  0
LINE
  5
F5
330
1F
100
AcDbEntity
  8
0
  6
Continuous
 62
     7
370
    15
100
AcDbLine
 10
30.8715866702
 20
727.0423724052
 30
0.0
 11
30.8715866702
 21
715.5423724052
 31
0.0
  0
ARC
  5
F6
330
1F
100
AcDbEntity
  8
0
  6
Continuous
 62
     7
370
    15
100
AcDbCircle
 10
35.2215866702
 20
715.5423724049
 30
0.0
 40
4.349999999999964
100
AcDbArc
 50
179.999999996
 51
252.5584061437
  0
LINE
  5
F7
330
1F
100
AcDbEntity
  8
0
  6
Continuous
 62
     7
370
    15
100
AcDbLine
 10
33.9177461891
 20
711.3923724049
 30
0.0
 11
28.7215866702
 21
711.3923724049
 31
0.0
  0
LINE
  5
F8
330
1F
100
AcDbEntity
  8
0
  6
Continuous
 62
     7
370
    15
100
AcDbLine
 10
-26.9284133309
 20
713.6923724049
 30
0.0
 11
-26.9284133309
 21
713.3923724053
 31
0.0
  0
LINE
  5
F9
330
1F
100
AcDbEntity
  8
0
  6
Continuous
 62
     7
370
    15
100
AcDbLine
 10
-26.9284133309
 20
713.3923724053
 30
0.0
 11
-37.7784133298
 21
713.3923724053
 31
0.0
  0
ARC
  5
FA
330
1F
100
AcDbEntity
  8
0
  6
Continuous
 62
     7
370
    15
100
AcDbCircle
 10
-37.7784133298
 20
715.5423724053
 30
0.0
 40
2.150000000000091
100
AcDbArc
 50
180.0
 51
270.0
  0
LINE
  5
FB
330
1F
100
AcDbEntity
  8
0
  6
Continuous
 62
     7
370
    15
100
AcDbLine
 10
28.7215866702
 20
711.3923724049
 30
0.0
 11
28.7215866702
 21
713.6923724049
 31
0.0
  0
SPLINE
  5
FC
330
1F
100
AcDbEntity
  8
0
  6
Continuous
 62
     7
370
    15
100
AcDbSpline
210
0.0
220
0.0
230
1.0
 70
     8
 71
     3
 72
     9
 73
     5
 74
     0
 42
0.00000001
 43
0.00000001
 12
1.0
 22
0.0
 32
0.0
 13
1.0
 23
0.0
 33
0.0
 40
0.0
 40
0.0
 40
0.0
 40
0.0
 40
0.4957807219113117
 40
1.0
 40
1.0
 40
1.0
 40
1.0
 10
841.8119308188617
 20
589.6860053607564
 30
0.0
 10
842.054018818738
 20
590.2666931404627
 30
0.0
 10
842.5423153360831
 20
591.4379524372495
 30
0.0
 10
842.4235630547422
 20
592.3601287196263
 30
0.0
 10
842.3636858651731
 20
592.825107778997
 30
0.0
  0
SPLINE
  5
FD
330
1F
100
AcDbEntity
  8
0
  6
Continuous
 62
     7
370
    15
100
AcDbSpline
210
0.0
220
0.0
230
1.0
 70
     8
 71
     3
 72
    11
 73
     7
 74
     0
 42
0.00000001
 43
0.00000001
 12
1.0
 22
0.0
 32
0.0
 13
1.0
 23
0.0
 33
0.0
 40
0.0
 40
0.0
 40
0.0
 40
0.0
 40
0.2942724557229993
 40
0.5890262479635087
 40
0.8714554557704869
 40
0.9999999999999999
 40
0.9999999999999999
 40
0.9999999999999999
 40
0.9999999999999999
 10
841.8119308188617
 20
589.6860053607564
 30
0.0
 10
841.8046371311221
 20
589.6604615505272
 30
0.0
 10
841.7900378254806
 20
589.609332148487
 30
0.0
 10
841.8095004523854
 20
589.4801403048754
 30
0.0
 10
841.8488685972756
 20
589.3563875300578
 30
0.0
 10
841.8820947786583
 20
589.2819797670272
 30
0.0
 10
841.8924872777441
 20
589.2587064753911
 30
0.0
  0
LINE
  5
FE
330
1F
100
AcDbEntity
  8
0
  6
Continuous
 62
     7
370
    15
100
AcDbLine
 10
841.8924872777
 20
589.2587064754
 30
0.0
 11
836.890655333
 21
599.9851696961
 31
0.0
  0
LINE
  5
FF
330
1F
100
AcDbEntity
  8
0
  6
Continuous
 62
     7
370
    15
100
AcDbLine
 10
842.3636858652
 20
592.825107779
 30
0.0
 11
842.3608024798
 21
592.936553307
 31
0.0
  0
SPLINE
  5
100
330
1F
100
AcDbEntity
  8
0
  6
Continuous
 62
     7
370
    15
100
AcDbSpline
210
0.0
220
0.0
230
1.0
 70
     8
 71
     3
 72
     9
 73
     5
 74
     0
 42
0.00000001
 43
0.00000001
 12
1.0
 22
0.0
 32
0.0
 13
1.0
 23
0.0
 33
0.0
 40
0.0
 40
0.0
 40
0.0
 40
0.0
 40
0.4957807219113127
 40
1.0
 40
1.0
 40
1.0
 40
1.0
 10
846.3344189695
 20
584.3098431572715
 30
0.0
 10
846.0228888598275
 20
584.6492217936429
 30
0.0
 10
845.3945261665958
 20
585.3337555428843
 30
0.0
 10
844.1849548661716
 20
585.7134840010285
 30
0.0
 10
843.5750656982747
 20
585.9049504100637
 30
0.0
  0
LINE
  5
101
330
1F
100
AcDbEntity
  8
0
  6
Continuous
 62
     7
370
    15
100
AcDbLine
 10
846.3344189695
 20
584.3098431573
 30
0.0
 11
846.4179377925
 21
584.2359985514
 31
0.0
  0
LINE
  5
102
330
1F
100
AcDbEntity
  8
0
  6
Continuous
 62
     7
370
    15
100
AcDbLine
 10
848.3013484
 20
575.5148594461
 30
0.0
 11
843.2995164552
 21
586.2413226669
 31
0.0
  0
SPLINE
  5
103
330
1F
100
AcDbEntity
  8
0
  6
Continuous
 62
     7
370
    15
100
AcDbSpline
210
0.0
220
0.0
230
1.0
 70
     8
 71
     3
 72
    11
 73
     7
 74
     0
 42
0.00000001
 43
0.00000001
 12
1.0
 22
0.0
 32
0.0
 13
1.0
 23
0.0
 33
0.0
 40
0.0
 40
0.0
 40
0.0
 40
0.0
 40
0.2674052398524521
 40
0.534585444001652
 40
0.8080489308462446
 40
1.0
 40
1.0
 40
1.0
 40
1.0
 10
843.2995164552394
 20
586.2413226668936
 30
0.0
 10
843.3234910665824
 20
586.1940758922252
 30
0.0
 10
843.3714201133606
 20
586.0996221035571
 30
0.0
 10
843.4523684898991
 20
585.9907860257819
 30
0.0
 10
843.5223177885402
 20
585.9251579754666
 30
0.0
 10
843.5596632840295
 20
585.9108510285866
 30
0.0
 10
843.5750656982747
 20
585.9049504100637
 30
0.0
  0
LINE
  5
104
330
1F
100
AcDbEntity
  8
0
  6
Continuous
 62
     7
370
    15
100
AcDbLine
 10
852.7983141318
 20
594.344177056
 30
0.0
 11
841.8924872777
 21
589.2587064754
 31
0.0
  0
LINE
  5
105
330
1F
100
AcDbEntity
  8
0
  6
Continuous
 62
     7
370
    15
100
AcDbLine
 10
852.7983141318
 20
594.344177056
 30
0.0
 11
854.2053433093
 21
591.3267932475
 31
0.0
  0
LINE
  5
106
330
1F
100
AcDbEntity
  8
0
  6
Continuous
 62
     7
370
    15
100
AcDbLine
 10
843.2995164552
 20
586.2413226669
 30
0.0
 11
854.2053433093
 21
591.3267932475
 31
0.0
  0
LINE
  5
107
330
1F
100
AcDbEntity
  8
0
  6
Continuous
 62
     7
370
    15
100
AcDbLine
 10
852.6202612809
 20
594.7260126271
 30
0.0
 11
841.8119308189
 21
589.6860053608
 31
0.0
  0
LINE
  5
108
330
1F
100
AcDbEntity
  8
0
  6
Continuous
 62
     7
370
    15
100
AcDbLine
 10
852.7983141318
 20
594.344177056
 30
0.0
 11
852.6202612809
 21
594.7260126271
 31
0.0
  0
LINE
  5
109
330
1F
100
AcDbEntity
  8
0
  6
Continuous
 62
     7
370
    15
100
AcDbLine
 10
843.5750656983
 20
585.9049504101
 30
0.0
 11
854.3833961603
 21
590.9449576764
 31
0.0
  0
LINE
  5
10A
330
1F
100
AcDbEntity
  8
0
  6
Continuous
 62
     7
370
    15
100
AcDbLine
 10
854.3833961603
 20
590.9449576764
 30
0.0
 11
854.2053433093
 21
591.3267932475
 31
0.0
  0
LINE
  5
10B
330
1F
100
AcDbEntity
  8
0
  6
Continuous
 62
     7
370
    15
100
AcDbLine
 10
842.3636858652
 20
592.825107779
 30
0.0
 11
851.5164621684
 21
597.0931174626
 31
0.0
  0
LINE
  5
10C
330
1F
100
AcDbEntity
  8
0
  6
Continuous
 62
     7
370
    15
100
AcDbLine
 10
851.5164621684
 20
597.0931174626
 30
0.0
 11
852.6202612809
 21
594.7260126271
 31
0.0
  0
LINE
  5
10D
330
1F
100
AcDbEntity
  8
0
  6
Continuous
 62
     7
370
    15
100
AcDbLine
 10
855.4871952728
 20
588.5778528409
 30
0.0
 11
846.3344189695
 21
584.3098431573
 31
0.0
  0
LINE
  5
10E
330
1F
100
AcDbEntity
  8
0
  6
Continuous
 62
     7
370
    15
100
AcDbLine
 10
854.3833961603
 20
590.9449576764
 30
0.0
 11
855.4871952728
 21
588.5778528409
 31
0.0
  0
LINE
  5
10F
330
1F
100
AcDbEntity
  8
0
  6
Continuous
 62
     7
370
    15
100
AcDbLine
 10
851.4732610642
 20
597.1857625295
 30
0.0
 11
842.3608024798
 21
592.936553307
 31
0.0
  0
LINE
  5
110
330
1F
100
AcDbEntity
  8
0
  6
Continuous
 62
     7
370
    15
100
AcDbLine
 10
851.5164621684
 20
597.0931174626
 30
0.0
 11
851.4732610642
 21
597.1857625295
 31
0.0
  0
LINE
  5
111
330
1F
100
AcDbEntity
  8
0
  6
Continuous
 62
     7
370
    15
100
AcDbLine
 10
846.4179377925
 20
584.2359985514
 30
0.0
 11
855.5303963769
 21
588.4852077739
 31
0.0
  0
LINE
  5
112
330
1F
100
AcDbEntity
  8
0
  6
Continuous
 62
     7
370
    15
100
AcDbLine
 10
855.4871952728
 20
588.5778528409
 30
0.0
 11
855.5303963769
 21
588.4852077739
 31
0.0
  0
LINE
  5
113
330
1F
100
AcDbEntity
  8
0
  6
Continuous
 62
     7
370
    15
100
AcDbLine
 10
15.810790761
 20
711.1923724053
 30
0.0
 11
15.810790761
 21
711.3923724049
 31
0.0
  0
LINE
  5
114
330
1F
100
AcDbEntity
  8
0
  6
Continuous
 62
     7
370
    15
100
AcDbLine
 10
15.010790761
 20
711.1923724053
 30
0.0
 11
15.010790761
 21
711.3923724049
 31
0.0
  0
LINE
  5
115
330
1F
100
AcDbEntity
  8
0
  6
Continuous
 62
     7
370
    15
100
AcDbLine
 10
826.621461282
 20
463.1923724053
 30
0.0
 11
826.621461282
 21
463.9923724053
 31
0.0
  0
ARC
  5
116
330
1F
100
AcDbEntity
  8
0
  6
Continuous
 62
     7
370
    15
100
AcDbCircle
 10
826.621461282
 20
473.9923724053
 30
0.0
 40
10.0
100
AcDbArc
 50
270.0
 51
335.0
  0
LINE
  5
117
330
1F
100
AcDbEntity
  8
0
  6
Continuous
 62
     7
370
    15
100
AcDbLine
 10
835.6845391524
 20
469.7661897879
 30
0.0
 11
836.409585382
 21
469.4280951785
 31
0.0
  0
ARC
  5
118
330
1F
100
AcDbEntity
  8
0
  6
Continuous
 62
     7
370
    15
100
AcDbCircle
 10
826.621461282
 20
473.9923724053
 30
0.0
 40
10.80000000000001
100
AcDbArc
 50
270.0
 51
335.0
  0
LINE
  5
119
330
1F
100
AcDbEntity
  8
0
  6
Continuous
 62
     7
370
    15
100
AcDbLine
 10
857.0203838725
 20
513.6280951785
 30
0.0
 11
856.2953376429
 21
513.9661897879
 31
0.0
  0
LINE
  5
11A
330
1F
100
AcDbEntity
  8
0
  6
Continuous
 62
     7
370
    15
100
AcDbLine
 10
836.409585382
 20
469.4280951785
 30
0.0
 11
857.0203838725
 21
513.6280951785
 31
0.0
  0
LINE
  5
11B
330
1F
100
AcDbEntity
  8
0
  6
Continuous
 62
     7
370
    15
100
AcDbLine
 10
835.6845391524
 20
469.7661897879
 30
0.0
 11
856.2953376429
 21
513.9661897879
 31
0.0
  0
LINE
  5
11C
330
1F
100
AcDbEntity
  8
0
  6
Continuous
 62
     7
370
    15
100
AcDbLine
 10
767.9921638901
 20
463.1923724053
 30
0.0
 11
826.621461282
 21
463.1923724053
 31
0.0
  0
LINE
  5
11D
330
1F
100
AcDbEntity
  8
0
  6
Continuous
 62
     7
370
    15
100
AcDbLine
 10
767.9921638901
 20
463.9923724053
 30
0.0
 11
767.9921638901
 21
463.1923724053
 31
0.0
  0
LINE
  5
11E
330
1F
100
AcDbEntity
  8
0
  6
Continuous
 62
     7
370
    15
100
AcDbLine
 10
767.9921638901
 20
463.9923724053
 30
0.0
 11
826.621461282
 21
463.9923724053
 31
0.0
  0
LINE
  5
11F
330
1F
100
AcDbEntity
  8
0
  6
Continuous
 62
     7
370
    15
100
AcDbLine
 10
801.1135142464
 20
642.6493184494
 30
0.0
 11
800.3884680167
 21
642.31122384
 31
0.0
  0
LINE
  5
120
330
1F
100
AcDbEntity
  8
0
  6
Continuous
 62
     7
370
    15
100
AcDbLine
 10
857.0203838725
 20
522.7566496321
 30
0.0
 11
801.1135142464
 21
642.6493184494
 31
0.0
  0
LINE
  5
121
330
1F
100
AcDbEntity
  8
0
  6
Continuous
 62
     7
370
    15
100
AcDbLine
 10
856.2953376429
 20
522.4185550227
 30
0.0
 11
857.0203838725
 21
522.7566496321
 31
0.0
  0
LINE
  5
122
330
1F
100
AcDbEntity
  8
0
  6
Continuous
 62
     7
370
    15
100
AcDbLine
 10
856.2953376429
 20
522.4185550227
 30
0.0
 11
800.3884680167
 21
642.31122384
 31
0.0
  0
LINE
  5
123
330
1F
100
AcDbEntity
  8
0
  6
Continuous
 62
     7
370
    15
100
AcDbLine
 10
765.9921638901
 20
463.1923724053
 30
0.0
 11
765.9921638901
 21
463.9923724053
 31
0.0
  0
LINE
  5
124
330
1F
100
AcDbEntity
  8
0
  6
Continuous
 62
     7
370
    15
100
AcDbLine
 10
765.9921638901
 20
463.9923724053
 30
0.0
 11
767.9921638901
 21
463.9923724053
 31
0.0
  0
LINE
  5
125
330
1F
100
AcDbEntity
  8
0
  6
Continuous
 62
     7
370
    15
100
AcDbLine
 10
767.9921638901
 20
463.1923724053
 30
0.0
 11
765.9921638901
 21
463.1923724053
 31
0.0
  0
LINE
  5
126
330
1F
100
AcDbEntity
  8
0
  6
Continuous
 62
     7
370
    15
100
AcDbLine
 10
814.3611197821
 20
650.2060007616
 30
0.0
 11
814.0230251727
 21
650.9310469913
 31
0.0
  0
LINE
  5
127
330
1F
100
AcDbEntity
  8
0
  6
Continuous
 62
     7
370
    15
100
AcDbLine
 10
815.8356407468
 20
651.7762835148
 30
0.0
 11
816.1737353562
 21
651.0512372851
 31
0.0
  0
LINE
  5
128
330
1F
100
AcDbEntity
  8
0
  6
Continuous
 62
     7
370
    15
100
AcDbLine
 10
816.1737353562
 20
651.0512372851
 30
0.0
 11
814.3611197821
 21
650.2060007616
 31
0.0
  0
LINE
  5
129
330
1F
100
AcDbEntity
  8
0
  6
Continuous
 62
     7
370
    15
100
AcDbLine
 10
814.0230251727
 20
650.9310469913
 30
0.0
 11
815.8356407468
 21
651.7762835148
 31
0.0
  0
LINE
  5
12A
330
1F
100
AcDbEntity
  8
0
  6
Continuous
 62
     7
370
    15
100
AcDbLine
 10
801.3800315436
 20
645.03552224
 30
0.0
 11
801.718126153
 21
644.3104760104
 31
0.0
  0
ARC
  5
12B
330
1F
100
AcDbEntity
  8
0
  6
Continuous
 62
     7
370
    15
100
AcDbCircle
 10
802.2463989802
 20
643.1775912766
 30
0.0
 40
2.050000000000112
100
AcDbArc
 50
115.0
 51
205.0
  0
ARC
  5
12C
330
1F
100
AcDbEntity
  8
0
  6
Continuous
 62
     7
370
    15
100
AcDbCircle
 10
802.2463989802
 20
643.1775912766
 30
0.0
 40
1.250000000000183
100
AcDbArc
 50
115.0
 51
205.0
  0
LINE
  5
12D
330
1F
100
AcDbEntity
  8
0
  6
Continuous
 62
     7
370
    15
100
AcDbLine
 10
801.718126153
 20
644.3104760104
 30
0.0
 11
814.3611197821
 21
650.2060007616
 31
0.0
  0
LINE
  5
12E
330
1F
100
AcDbEntity
  8
0
  6
Continuous
 62
     7
370
    15
100
AcDbLine
 10
801.3800315436
 20
645.03552224
 30
0.0
 11
814.0230251727
 21
650.9310469913
 31
0.0
  0
ARC
  5
12F
330
1F
100
AcDbEntity
  8
0
  6
Continuous
 62
     7
370
    15
100
AcDbCircle
 10
847.2322597725
 20
518.1923724053
 30
0.0
 40
10.00000000000008
100
AcDbArc
 50
335.0
 51
25.0
  0
ARC
  5
130
330
1F
100
AcDbEntity
  8
0
  6
Continuous
 62
     7
370
    15
100
AcDbCircle
 10
847.2322597725
 20
518.1923724053
 30
0.0
 40
10.80000000000006
100
AcDbArc
 50
335.0
 51
25.0
  0
LINE
  5
131
330
1F
100
AcDbEntity
  8
0
  6
Continuous
 62
     7
370
    15
100
AcDbLine
 10
853.7329362003
 20
557.0834699731
 30
0.0
 11
851.8691058159
 21
561.0804671311
 31
0.0
  0
LINE
  5
132
330
1F
100
AcDbEntity
  8
0
  6
Continuous
 62
     7
370
    15
100
AcDbLine
 10
851.5310112065
 20
561.8055133607
 30
0.0
 11
845.7031892272
 21
574.3033179268
 31
0.0
  0
LINE
  5
133
330
1F
100
AcDbEntity
  8
0
  6
Continuous
 62
     7
370
    15
100
AcDbLine
 10
834.2924961602
 20
598.7736281768
 30
0.0
 11
826.2627491872
 21
615.9934761305
 31
0.0
  0
LINE
  5
134
330
1F
100
AcDbEntity
  8
0
  6
Continuous
 62
     7
370
    15
100
AcDbLine
 10
838.9387764203
 20
612.471663836
 30
0.0
 11
837.0163001045
 21
616.5944275997
 31
0.0
  0
SPLINE
  5
135
330
1F
100
AcDbEntity
  8
0
  6
Continuous
 62
     7
370
    15
100
AcDbSpline
210
0.0
220
0.0
230
1.0
 70
     8
 71
     3
 72
     9
 73
     5
 74
     0
 42
0.00000001
 43
0.00000001
 12
1.0
 22
0.0
 32
0.0
 13
1.0
 23
0.0
 33
0.0
 40
0.0
 40
0.0
 40
0.0
 40
0.0
 40
0.5209744652335387
 40
1.0
 40
1.0
 40
1.0
 40
1.0
 10
838.8226337924347
 20
611.2333161284147
 30
0.0
 10
838.7473708106129
 20
611.4611895206998
 30
0.0
 10
838.6029050318764
 20
611.8985879106249
 30
0.0
 10
838.8299946801113
 20
612.2860564917261
 30
0.0
 10
838.938776420297
 20
612.4716638359931
 30
0.0
  0
SPLINE
  5
136
330
1F
100
AcDbEntity
  8
0
  6
Continuous
 62
     7
370
    15
100
AcDbSpline
210
0.0
220
0.0
230
1.0
 70
     8
 71
     3
 72
     9
 73
     5
 74
     0
 42
0.00000001
 43
0.00000001
 12
1.0
 22
0.0
 32
0.0
 13
1.0
 23
0.0
 33
0.0
 40
0.0
 40
0.0
 40
0.0
 40
0.0
 40
0.4790255347664676
 40
1.0
 40
1.0
 40
1.0
 40
1.0
 10
858.9681092299871
 20
569.5186210124239
 30
0.0
 10
858.7517418196271
 20
569.5637318823934
 30
0.0
 10
858.3000594046896
 20
569.6579040437823
 30
0.0
 10
858.0490920829575
 20
570.0685146744108
 30
0.0
 10
857.9183445167268
 20
570.2824323281217
 30
0.0
  0
LINE
  5
137
330
1F
100
AcDbEntity
  8
0
  6
Continuous
 62
     7
370
    15
100
AcDbLine
 10
861.1055410237
 20
564.9348837386
 30
0.0
 11
860.9321836863
 21
565.3066497485
 31
0.0
  0
LINE
  5
138
330
1F
100
AcDbEntity
  8
0
  6
Continuous
 62
     7
370
    15
100
AcDbLine
 10
860.5940890769
 20
566.0316959782
 30
0.0
 11
858.96810923
 21
569.5186210124
 31
0.0
  0
LINE
  5
139
330
1F
100
AcDbEntity
  8
0
  6
Continuous
 62
     7
370
    15
100
AcDbLine
 10
839.7045766781
 20
610.8293998834
 30
0.0
 11
847.0323529078
 21
595.114933047
 31
0.0
  0
LINE
  5
13A
330
1F
100
AcDbEntity
  8
0
  6
Continuous
 62
     7
370
    15
100
AcDbLine
 10
851.0894882205
 20
586.4143782914
 30
0.0
 11
858.1836254194
 21
571.2009519732
 31
0.0
  0
ARC
  5
13B
330
1F
100
AcDbEntity
  8
0
  6
Continuous
 62
     7
370
    15
100
AcDbCircle
 10
857.4264399025
 20
570.9220692168
 30
0.0
 40
0.8069110848529946
100
AcDbArc
 50
307.5616265596
 51
20.2195072595
  0
ARC
  5
13C
330
1F
100
AcDbEntity
  8
0
  6
Continuous
 62
     7
370
    15
100
AcDbCircle
 10
838.987420187
 20
610.428313584
 30
0.0
 40
0.8216955958892284
100
AcDbArc
 50
29.2171089364
 51
101.5687918949
  0
SPLINE
  5
13D
330
1F
100
AcDbEntity
  8
0
  6
Continuous
 62
     7
370
    15
100
AcDbSpline
210
0.0
220
0.0
230
1.0
 70
     8
 71
     3
 72
     9
 73
     5
 74
     0
 42
0.00000001
 43
0.00000001
 12
1.0
 22
0.0
 32
0.0
 13
1.0
 23
0.0
 33
0.0
 40
0.0
 40
0.0
 40
0.0
 40
0.0
 40
0.5315589426748079
 40
1.0
 40
1.0
 40
1.0
 40
1.0
 10
858.1836254194409
 20
571.2009519731679
 30
0.0
 10
858.2878046996935
 20
571.0264691618746
 30
0.0
 10
858.4837928994754
 20
570.6982218175344
 30
0.0
 10
858.812409891492
 20
570.6334222318669
 30
0.0
 10
858.9663475826874
 20
570.6030674454425
 30
0.0
  0
SPLINE
  5
13E
330
1F
100
AcDbEntity
  8
0
  6
Continuous
 62
     7
370
    15
100
AcDbSpline
210
0.0
220
0.0
230
1.0
 70
     8
 71
     3
 72
    12
 73
     8
 74
     0
 42
0.00000001
 43
0.00000001
 12
1.0
 22
0.0
 32
0.0
 13
1.0
 23
0.0
 33
0.0
 40
0.0
 40
0.0
 40
0.0
 40
0.0
 40
0.0304717459459055
 40
0.0888135668585991
 40
0.3925556175487387
 40
0.6962774394174188
 40
1.0
 40
1.0
 40
1.0
 40
1.0
 10
858.9663475826874
 20
570.6030674454425
 30
0.0
 10
858.9710245860795
 20
570.5936164342147
 30
0.0
 10
858.9846562747324
 20
570.566070325795
 30
0.0
 10
859.0391831894536
 20
570.4399740185289
 30
0.0
 10
859.0959367616211
 20
570.2025507571325
 30
0.0
 10
859.0873474497909
 20
569.857431940662
 30
0.0
 10
859.0077856322762
 20
569.6523064221745
 30
0.0
 10
858.9680046751413
 20
569.5497435382042
 30
0.0
  0
SPLINE
  5
13F
330
1F
100
AcDbEntity
  8
0
  6
Continuous
 62
     7
370
    15
100
AcDbSpline
210
0.0
220
0.0
230
1.0
 70
     8
 71
     3
 72
    10
 73
     6
 74
     0
 42
0.00000001
 43
0.00000001
 12
1.0
 22
0.0
 32
0.0
 13
1.0
 23
0.0
 33
0.0
 40
0.0
 40
0.0
 40
0.0
 40
0.0
 40
0.2117958997116917
 40
0.4880069094716321
 40
1.0
 40
1.0
 40
1.0
 40
1.0
 10
858.9680046751413
 20
569.5497435382042
 30
0.0
 10
858.9668980512001
 20
569.5469853486371
 30
0.0
 10
858.9643482372982
 20
569.5406301001728
 30
0.0
 10
858.964016695849
 20
569.5293081984242
 30
0.0
 10
858.966497667359
 20
569.5228294243693
 30
0.0
 10
858.9681092299867
 20
569.5186210124235
 30
0.0
  0
SPLINE
  5
140
330
1F
100
AcDbEntity
  8
0
  6
Continuous
 62
     7
370
    15
100
AcDbSpline
210
0.0
220
0.0
230
1.0
 70
     8
 71
     3
 72
     9
 73
     5
 74
     0
 42
0.00000001
 43
0.00000001
 12
1.0
 22
0.0
 32
0.0
 13
1.0
 23
0.0
 33
0.0
 40
0.0
 40
0.0
 40
0.0
 40
0.0
 40
0.4684410573251819
 40
1.0
 40
1.0
 40
1.0
 40
1.0
 10
839.7683182307244
 20
611.7733742508726
 30
0.0
 10
839.6896085089231
 20
611.6424021363155
 30
0.0
 10
839.5215836943377
 20
611.3628106861017
 30
0.0
 10
839.6410652099881
 20
611.0145310424866
 30
0.0
 10
839.7045766781165
 20
610.8293998833714
 30
0.0
  0
SPLINE
  5
141
330
1F
100
AcDbEntity
  8
0
  6
Continuous
 62
     7
370
    15
100
AcDbSpline
210
0.0
220
0.0
230
1.0
 70
     8
 71
     3
 72
    11
 73
     7
 74
     0
 42
0.00000001
 43
0.00000001
 12
1.0
 22
0.0
 32
0.0
 13
1.0
 23
0.0
 33
0.0
 40
0.0
 40
0.0
 40
0.0
 40
0.0
 40
0.365828110989445
 40
0.7252591430831213
 40
0.9820690181776893
 40
0.9999999999999999
 40
0.9999999999999999
 40
0.9999999999999999
 40
0.9999999999999999
 10
842.2733088680056
 20
612.2954529394505
 30
0.0
 10
841.8923162708699
 20
612.3054587095744
 30
0.0
 10
841.1369933303431
 20
612.3252952832219
 30
0.0
 10
840.2761267489514
 20
612.1364164205277
 30
0.0
 10
839.8913406896098
 20
611.9050797171934
 30
0.0
 10
839.7758553873005
 20
611.7814433850014
 30
0.0
 10
839.7683182307244
 20
611.7733742508726
 30
0.0
  0
SPLINE
  5
142
330
1F
100
AcDbEntity
  8
0
  6
Continuous
 62
     7
370
    15
100
AcDbSpline
210
0.0
220
0.0
230
1.0
 70
     8
 71
     3
 72
    11
 73
     7
 74
     0
 42
0.00000001
 43
0.00000001
 12
1.0
 22
0.0
 32
0.0
 13
1.0
 23
0.0
 33
0.0
 40
0.0
 40
0.0
 40
0.0
 40
0.0
 40
0.23579485377587
 40
0.2749019968044883
 40
0.6342531696138498
 40
1.0
 40
1.0
 40
1.0
 40
1.0
 10
858.9663475826874
 20
570.6030674454425
 30
0.0
 10
859.1200019771156
 20
570.6232994268258
 30
0.0
 10
859.2991403220358
 20
570.6468869309316
 30
0.0
 10
859.7364496975417
 20
570.8523108888412
 30
0.0
 10
860.2888445629982
 20
571.2549939003525
 30
0.0
 10
860.7616076350375
 20
571.8404600770679
 30
0.0
 10
861.0000741517842
 20
572.1357751896296
 30
0.0
  0
SPLINE
  5
143
330
1F
100
AcDbEntity
  8
0
  6
Continuous
 62
     7
370
    15
100
AcDbSpline
210
0.0
220
0.0
230
1.0
 70
     8
 71
     3
 72
    12
 73
     8
 74
     0
 42
0.00000001
 43
0.00000001
 12
1.0
 22
0.0
 32
0.0
 13
1.0
 23
0.0
 33
0.0
 40
0.0
 40
0.0
 40
0.0
 40
0.0
 40
0.0304717459516003
 40
0.0888135668586311
 40
0.3925556175487505
 40
0.6962774394174306
 40
1.0
 40
1.0
 40
1.0
 40
1.0
 10
839.7683182307244
 20
611.7733742508726
 30
0.0
 10
839.7640345189425
 20
611.7831395553459
 30
0.0
 10
839.7515491259707
 20
611.8116017092084
 30
0.0
 10
839.6894132613186
 20
611.9356895396982
 30
0.0
 10
839.5433685511229
 20
612.1331685982734
 30
0.0
 10
839.273444990667
 20
612.3484828865558
 30
0.0
 10
839.0659020822368
 20
612.4178137032301
 30
0.0
 10
838.962130501825
 20
612.452479153724
 30
0.0
  0
SPLINE
  5
144
330
1F
100
AcDbEntity
  8
0
  6
Continuous
 62
     7
370
    15
100
AcDbSpline
210
0.0
220
0.0
230
1.0
 70
     8
 71
     3
 72
    11
 73
     7
 74
     0
 42
0.00000001
 43
0.00000001
 12
1.0
 22
0.0
 32
0.0
 13
1.0
 23
0.0
 33
0.0
 40
0.0
 40
0.0
 40
0.0
 40
0.0
 40
0.3704320937877605
 40
0.7442498469293689
 40
0.9442480537692358
 40
1.0
 40
1.0
 40
1.0
 40
1.0
 10
838.9387764202969
 20
612.4716638359931
 30
0.0
 10
838.9402346955686
 20
612.4689438759618
 30
0.0
 10
838.9431645743939
 20
612.4634790961254
 30
0.0
 10
838.9503590986686
 20
612.4569330159742
 30
0.0
 10
838.9578477381905
 20
612.4535919678535
 30
0.0
 10
838.961363982407
 20
612.452678322698
 30
0.0
 10
838.962130501825
 20
612.452479153724
 30
0.0
  0
LINE
  5
145
330
1F
100
AcDbEntity
  8
0
  6
Continuous
 62
     7
370
    15
100
AcDbLine
 10
873.4735028826
 20
584.3405395688
 30
0.0
 11
861.84490855
 21
571.2537316133
 31
0.0
  0
SPLINE
  5
146
330
1F
100
AcDbEntity
  8
0
  6
Continuous
 62
     7
370
    15
100
AcDbSpline
210
0.0
220
0.0
230
1.0
 70
     8
 71
     3
 72
    10
 73
     6
 74
     0
 42
0.00000001
 43
0.00000001
 12
1.0
 22
0.0
 32
0.0
 13
1.0
 23
0.0
 33
0.0
 40
0.0
 40
0.0
 40
0.0
 40
0.0
 40
0.355443945043724
 40
0.7142330220663505
 40
1.0
 40
1.0
 40
1.0
 40
1.0
 10
861.8449085500314
 20
571.2537316133277
 30
0.0
 10
861.501082790082
 20
570.9133067471126
 30
0.0
 10
860.8101954785463
 20
570.2292532293256
 30
0.0
 10
859.7796172630714
 20
569.6224694185325
 30
0.0
 10
859.217307410112
 20
569.5720827196544
 30
0.0
 10
858.9680046751413
 20
569.5497435382042
 30
0.0
  0
ARC
  5
147
330
1F
100
AcDbEntity
  8
0
  6
Continuous
 62
     7
370
    15
100
AcDbCircle
 10
858.4791922033
 20
568.875617895
 30
0.0
 40
4.121100749106224
100
AcDbArc
 50
35.2438755042
 51
52.2873930045
  0
LINE
  5
148
330
1F
100
AcDbEntity
  8
0
  6
Continuous
 62
     7
370
    15
100
AcDbLine
 10
840.3832216492
 20
616.6350628221
 30
0.0
 11
856.8358697666
 21
616.8307342133
 31
0.0
  0
LINE
  5
149
330
1F
100
AcDbEntity
  8
0
  6
Continuous
 62
     7
370
    15
100
AcDbLine
 10
856.8358697666
 20
616.8307342133
 30
0.0
 11
858.3144729467
 21
616.8491841745
 31
0.0
  0
LINE
  5
14A
330
1F
100
AcDbEntity
  8
0
  6
Continuous
 62
     7
370
    15
100
AcDbLine
 10
859.6804671011
 20
613.9198002571
 30
0.0
 11
858.3144729467
 21
616.8491841745
 31
0.0
  0
LINE
  5
14B
330
1F
100
AcDbEntity
  8
0
  6
Continuous
 62
     7
370
    15
100
AcDbLine
 10
842.1470823533
 20
613.4958562111
 30
0.0
 11
859.6804671011
 21
613.9198002571
 31
0.0
  0
SPLINE
  5
14C
330
1F
100
AcDbEntity
  8
0
  6
Continuous
 62
     7
370
    15
100
AcDbSpline
210
0.0
220
0.0
230
1.0
 70
     8
 71
     3
 72
    10
 73
     6
 74
     0
 42
0.00000001
 43
0.00000001
 12
1.0
 22
0.0
 32
0.0
 13
1.0
 23
0.0
 33
0.0
 40
0.0
 40
0.0
 40
0.0
 40
0.0
 40
0.2857669779336348
 40
0.6445560549562777
 40
1.0
 40
1.0
 40
1.0
 40
1.0
 10
838.9621305018251
 20
612.452479153724
 30
0.0
 10
839.1437804584548
 20
612.6199001865181
 30
0.0
 10
839.5534974253167
 20
612.9975233856528
 30
0.0
 10
840.6921423685975
 20
613.3725573507895
 30
0.0
 10
841.6636190051734
 20
613.4548851192066
 30
0.0
 10
842.1470823533443
 20
613.4958562111173
 30
0.0
  0
ARC
  5
14D
330
1F
100
AcDbEntity
  8
0
  6
Continuous
 62
     7
370
    15
100
AcDbCircle
 10
838.0083125329
 20
612.4538121808
 30
0.0
 40
4.267935260480161
100
AcDbArc
 50
357.8735855065
 51
14.1319895359
  0
LINE
  5
14E
330
1F
100
AcDbEntity
  8
0
  6
Continuous
 62
     7
370
    15
100
AcDbLine
 10
861.0000741518
 20
572.1357751896
 30
0.0
 11
872.6909498279
 21
585.0890203728
 31
0.0
  0
ARC
  5
14F
330
1F
100
AcDbEntity
  8
0
  6
Continuous
 62
     7
370
    15
100
AcDbCircle
 10
869.3195478614
 20
580.7808172914
 30
0.0
 40
5.470554360406944
100
AcDbArc
 50
40.5948487195
 51
51.954897608
  0
SPLINE
  5
150
330
1F
100
AcDbEntity
  8
0
  6
Continuous
 62
     7
370
    15
100
AcDbSpline
210
0.0
220
0.0
230
1.0
 70
     8
 71
     3
 72
     9
 73
     5
 74
     0
 42
0.00000001
 43
0.00000001
 12
1.0
 22
0.0
 32
0.0
 13
1.0
 23
0.0
 33
0.0
 40
0.0
 40
0.0
 40
0.0
 40
0.0
 40
0.4998251041136224
 40
1.0
 40
1.0
 40
1.0
 40
1.0
 10
859.7446565435586
 20
612.8524359160056
 30
0.0
 10
856.8263988799748
 20
612.791778530837
 30
0.0
 10
850.9878412733917
 20
612.6704213107427
 30
0.0
 10
845.1788303178811
 20
612.4204715400057
 30
0.0
 10
842.2733088680056
 20
612.2954529394505
 30
0.0
  0
LINE
  5
151
330
1F
100
AcDbEntity
  8
0
  6
Continuous
 62
     7
370
    15
100
AcDbLine
 10
872.6909498279
 20
585.0890203728
 30
0.0
 11
859.7446565436
 21
612.852435916
 31
0.0
  0
ARC
  5
152
330
1F
100
AcDbEntity
  8
0
  6
Continuous
 62
     7
370
    15
100
AcDbCircle
 10
853.8954251594
 20
613.0362855645
 30
0.0
 40
5.852119998694961
100
AcDbArc
 50
358.1997049893
 51
8.683343084
  0
ARC
  5
153
330
1F
100
AcDbEntity
  8
0
  6
Continuous
 62
     7
370
    15
100
AcDbCircle
 10
873.3691178984
 20
584.1661776135
 30
0.0
 40
1.145229536031442
100
AcDbArc
 50
73.561643902
 51
126.3109942172
  0
ARC
  5
154
330
1F
100
AcDbEntity
  8
0
  6
Continuous
 62
     7
370
    15
100
AcDbCircle
 10
872.9233711555
 20
584.9594791226
 30
0.0
 40
0.8280888166772549
100
AcDbArc
 50
311.6316380806
 51
21.6205892018
  0
LINE
  5
155
330
1F
100
AcDbEntity
  8
0
  6
Continuous
 62
     7
370
    15
100
AcDbLine
 10
860.5365383065
 20
613.4791456666
 30
0.0
 11
873.6931990718
 21
585.2645956047
 31
0.0
  0
ARC
  5
156
330
1F
100
AcDbEntity
  8
0
  6
Continuous
 62
     7
370
    15
100
AcDbCircle
 10
859.4352045569
 20
614.057092941
 30
0.0
 40
1.243768097365793
100
AcDbArc
 50
284.4066318803
 51
332.3108440224
  0
LINE
  5
157
330
1F
100
AcDbEntity
  8
0
  6
Continuous
 62
     7
370
    15
100
AcDbLine
 10
873.6931990718
 20
585.2645956047
 30
0.0
 11
875.1548735222
 21
582.1300246301
 31
0.0
  0
ARC
  5
158
330
1F
100
AcDbEntity
  8
0
  6
Continuous
 62
     7
370
    15
100
AcDbCircle
 10
859.7915992885
 20
613.0838164033
 30
0.0
 40
0.8433382280968623
100
AcDbArc
 50
27.9542997325
 51
97.572263413
  0
SPLINE
  5
159
330
1F
100
AcDbEntity
  8
0
  6
Continuous
 62
     7
370
    15
100
AcDbSpline
210
0.0
220
0.0
230
1.0
 70
     8
 71
     3
 72
    11
 73
     7
 74
     0
 42
0.00000001
 43
0.00000001
 12
1.0
 22
0.0
 32
0.0
 13
1.0
 23
0.0
 33
0.0
 40
0.0
 40
0.0
 40
0.0
 40
0.0
 40
0.2933118760927437
 40
0.5865991201420102
 40
0.8805021461502989
 40
1.0
 40
1.0
 40
1.0
 40
1.0
 10
858.3144729466759
 20
616.8491841745433
 30
0.0
 10
858.4271707393463
 20
616.8395203467163
 30
0.0
 10
858.6525568604369
 20
616.820193502621
 30
0.0
 10
858.9532980425805
 20
616.6510219355292
 30
0.0
 10
859.1417318414672
 20
616.4504520406238
 30
0.0
 10
859.2143783730181
 20
616.3100720758056
 30
0.0
 10
859.2353776137865
 20
616.2694937767825
 30
0.0
  0
LINE
  5
15A
330
1F
100
AcDbEntity
  8
0
  6
Continuous
 62
     7
370
    15
100
AcDbLine
 10
859.2353776138
 20
616.2694937768
 30
0.0
 11
860.5365383065
 21
613.4791456666
 31
0.0
  0
LINE
  5
15B
330
1F
100
AcDbEntity
  8
0
  6
Continuous
 62
     7
370
    15
100
AcDbLine
 10
820.657916914
 20
608.082491266
 30
0.0
 11
817.7965938735
 21
606.8723387336
 31
0.0
  0
LINE
  5
15C
330
1F
100
AcDbEntity
  8
0
  6
Continuous
 62
     7
370
    15
100
AcDbLine
 10
823.1592524293
 20
607.2030882641
 30
0.0
 11
824.4033007352
 21
604.5352180626
 31
0.0
  0
LINE
  5
15D
330
1F
100
AcDbEntity
  8
0
  6
Continuous
 62
     7
370
    15
100
AcDbLine
 10
843.7601708539
 20
563.0242761338
 30
0.0
 11
845.0042191598
 21
560.3564059323
 31
0.0
  0
ARC
  5
15E
330
1F
100
AcDbEntity
  8
0
  6
Continuous
 62
     7
370
    15
100
AcDbCircle
 10
821.4463244518
 20
606.327956972
 30
0.0
 40
1.92353243651858
100
AcDbArc
 50
27.0623931934
 51
114.1969723043
  0
LINE
  5
15F
330
1F
100
AcDbEntity
  8
0
  6
Continuous
 62
     7
370
    15
100
AcDbLine
 10
829.4264153943
 20
605.5941218294
 30
0.0
 11
832.2733922655
 21
599.4887602266
 31
0.0
  0
LINE
  5
160
330
1F
100
AcDbEntity
  8
0
  6
Continuous
 62
     7
370
    15
100
AcDbLine
 10
844.9531571939
 20
572.2969165872
 30
0.0
 11
847.8001340651
 21
566.1915549844
 31
0.0
  0
LWPOLYLINE
  5
161
330
1F
100
AcDbEntity
  8
0
  6
Continuous
 62
     7
370
    15
100
AcDbPolyline
 90
        3
 70
   128
 43
0.0
 10
817.0140942014
 20
608.5504146958
 10
819.3641519542
 20
609.5466572321
 10
819.8743320033
 20
609.7628945296
  0
SPLINE
  5
162
330
1F
100
AcDbEntity
  8
0
  6
Continuous
 62
     7
370
    15
100
AcDbSpline
210
0.0
220
0.0
230
1.0
 70
     8
 71
     3
 72
    11
 73
     7
 74
     0
 42
0.00000001
 43
0.00000001
 12
1.0
 22
0.0
 32
0.0
 13
1.0
 23
0.0
 33
0.0
 40
0.0
 40
0.0
 40
0.0
 40
0.0
 40
0.2835227523786761
 40
0.5667788888047296
 40
0.8499302218874368
 40
1.0
 40
1.0
 40
1.0
 40
1.0
 10
819.8743320033491
 20
609.7628945295934
 30
0.0
 10
819.9755585483608
 20
609.561882281131
 30
0.0
 10
820.1779164480985
 20
609.1600468098547
 30
0.0
 10
820.4325976447824
 20
608.6210826256253
 30
0.0
 10
820.5898172888313
 20
608.2639971890027
 30
0.0
 10
820.640396160915
 20
608.1291893270928
 30
0.0
 10
820.6579169139776
 20
608.082491265983
 30
0.0
  0
LINE
  5
163
330
1F
100
AcDbEntity
  8
0
  6
Continuous
 62
     7
370
    15
100
AcDbLine
 10
846.571388981
 20
556.9955994051
 30
0.0
 11
844.8536383763
 21
556.1945991433
 31
0.0
  0
SPLINE
  5
164
330
1F
100
AcDbEntity
  8
0
  6
Continuous
 62
     7
370
    15
100
AcDbSpline
210
0.0
220
0.0
230
1.0
 70
    24
 71
     3
 72
     9
 73
     5
 74
     0
 42
0.00000001
 43
0.00000001
 12
1.0
 22
0.0
 32
0.0
 13
1.0
 23
0.0
 33
0.0
 40
0.0
 40
0.0
 40
0.0
 40
0.0
 40
0.4688517989557833
 40
1.0
 40
1.0
 40
1.0
 40
1.0
 10
846.571388980996
 20
556.9955994050625
 30
0.0
 10
846.4705005380114
 20
557.2119553692422
 30
0.0
 10
846.2553185909459
 20
557.6734145438928
 30
0.0
 10
846.0578722078637
 20
558.096839678842
 30
0.0
 10
845.9529989166871
 20
558.3217411775472
 30
0.0
  0
SPLINE
  5
165
330
1F
100
AcDbEntity
  8
0
  6
Continuous
 62
     7
370
    15
100
AcDbSpline
210
0.0
220
0.0
230
1.0
 70
    24
 71
     3
 72
     9
 73
     5
 74
     0
 42
0.00000001
 43
0.00000001
 12
1.0
 22
0.0
 32
0.0
 13
1.0
 23
0.0
 33
0.0
 40
0.0
 40
0.0
 40
0.0
 40
0.0
 40
0.4172378584883026
 40
1.0
 40
1.0
 40
1.0
 40
1.0
 10
845.6149043072945
 20
559.0467874071765
 30
0.0
 10
845.502892688408
 20
559.2869970990562
 30
0.0
 10
845.2344328240697
 20
559.8627111360083
 30
0.0
 10
845.0889822486092
 20
560.1746309016755
 30
0.0
 10
845.0042191597697
 20
560.3564059322956
 30
0.0
  0
LINE
  5
166
330
1F
100
AcDbEntity
  8
0
  6
Continuous
 62
     7
370
    15
100
AcDbLine
 10
821.5920826081
 20
610.5638947914
 30
0.0
 11
819.8743320033
 21
609.7628945296
 31
0.0
  0
SPLINE
  5
167
330
1F
100
AcDbEntity
  8
0
  6
Continuous
 62
     7
370
    15
100
AcDbSpline
210
0.0
220
0.0
230
1.0
 70
    24
 71
     3
 72
    11
 73
     7
 74
     0
 42
0.00000001
 43
0.00000001
 12
1.0
 22
0.0
 32
0.0
 13
1.0
 23
0.0
 33
0.0
 40
0.0
 40
0.0
 40
0.0
 40
0.0
 40
0.1499515950756903
 40
0.4331749432232058
 40
0.7165923323728142
 40
1.0
 40
1.0
 40
1.0
 40
1.0
 10
823.1592524292786
 20
607.2030882641337
 30
0.0
 10
823.1170939138691
 20
607.293497492188
 30
0.0
 10
822.995307863446
 20
607.5546685201416
 30
0.0
 10
822.6653713545443
 20
608.2622196468101
 30
0.0
 10
822.1620433004834
 20
609.3416101420304
 30
0.0
 10
821.7820673332279
 20
610.1564712334371
 30
0.0
 10
821.5920826080525
 20
610.5638947913669
 30
0.0
  0
LINE
  5
168
330
1F
100
AcDbEntity
  8
0
  6
Continuous
 62
     7
370
    15
100
AcDbLine
 10
809.3119202559
 20
625.1915325317
 30
0.0
 11
809.2645202958
 21
625.1694295673
 31
0.0
  0
SPLINE
  5
169
330
1F
100
AcDbEntity
  8
0
  6
Continuous
 62
     7
370
    15
100
AcDbSpline
210
0.0
220
0.0
230
1.0
 70
     8
 71
     3
 72
    13
 73
     9
 74
     0
 42
0.00000001
 43
0.00000001
 12
1.0
 22
0.0
 32
0.0
 13
1.0
 23
0.0
 33
0.0
 40
0.0
 40
0.0
 40
0.0
 40
0.0
 40
0.2359779310481712
 40
0.470066440534627
 40
0.6281567545471047
 40
0.7867756990089729
 40
0.8916100492377121
 40
1.0
 40
1.0
 40
1.0
 40
1.0
 10
814.267987150132
 20
621.7857398660806
 30
0.0
 10
814.0383325584546
 20
622.2673779731838
 30
0.0
 10
813.5808621671232
 20
623.2267978207358
 30
0.0
 10
812.7659337432725
 20
624.4077308758307
 30
0.0
 10
811.7726317650813
 20
625.1972905100787
 30
0.0
 10
810.8416936760798
 20
625.4722317798842
 30
0.0
 10
809.9838899017961
 20
625.4886999074632
 30
0.0
 10
809.5383864539473
 20
625.2916834331121
 30
0.0
 10
809.3119202558998
 20
625.191532531667
 30
0.0
  0
LINE
  5
16A
330
1F
100
AcDbEntity
  8
0
  6
Continuous
 62
     7
370
    15
100
AcDbLine
 10
819.8743320033
 20
609.7628945296
 30
0.0
 11
814.2679871501
 21
621.7857398661
 31
0.0
  0
LINE
  5
16B
330
1F
100
AcDbEntity
  8
0
  6
Continuous
 62
     7
370
    15
100
AcDbLine
 10
808.4678371866
 20
627.0016619941
 30
0.0
 11
808.8835119081
 21
627.169605483
 31
0.0
  0
SPLINE
  5
16C
330
1F
100
AcDbEntity
  8
0
  6
Continuous
 62
     7
370
    15
100
AcDbSpline
210
0.0
220
0.0
230
1.0
 70
     8
 71
     3
 72
    14
 73
    10
 74
     0
 42
0.00000001
 43
0.00000001
 12
1.0
 22
0.0
 32
0.0
 13
1.0
 23
0.0
 33
0.0
 40
0.0
 40
0.0
 40
0.0
 40
0.0
 40
0.0000064140457922
 40
0.0730558909548049
 40
0.2154935957733506
 40
0.4037789030075338
 40
0.5887468703998133
 40
0.8882363243876874
 40
1.0
 40
1.0
 40
1.0
 40
1.0
 10
808.883511908115
 20
627.1696054829812
 30
0.0
 10
808.8835304480846
 20
627.1696129734829
 30
0.0
 10
809.0947004407628
 20
627.2549296836731
 30
0.0
 10
809.7457153763617
 20
627.4410718063197
 30
0.0
 10
811.0236462788174
 20
627.446937106207
 30
0.0
 10
812.5952582521943
 20
626.9728987108978
 30
0.0
 10
814.2869293452508
 20
625.6660668310359
 30
0.0
 10
815.2797468576099
 20
624.0544813962593
 30
0.0
 10
815.834874270457
 20
622.9003823614687
 30
0.0
 10
815.9857377548352
 20
622.5867401278541
 30
0.0
  0
LINE
  5
16D
330
1F
100
AcDbEntity
  8
0
  6
Continuous
 62
     7
370
    15
100
AcDbLine
 10
815.9857377548
 20
622.5867401279
 30
0.0
 11
814.2679871501
 21
621.7857398661
 31
0.0
  0
SPLINE
  5
16E
330
1F
100
AcDbEntity
  8
0
  6
Continuous
 62
     7
370
    15
100
AcDbSpline
210
0.0
220
0.0
230
1.0
 70
     8
 71
     3
 72
    15
 73
    11
 74
     0
 42
0.00000001
 43
0.00000001
 12
1.0
 22
0.0
 32
0.0
 13
1.0
 23
0.0
 33
0.0
 40
0.0
 40
0.0
 40
0.0
 40
0.0
 40
0.0125258353877836
 40
0.2274813526119546
 40
0.4424404199769124
 40
0.4999991763207126
 40
0.7148755009569829
 40
0.9297495265588442
 40
0.9874741646146592
 40
1.0
 40
1.0
 40
1.0
 40
1.0
 10
809.3119202558998
 20
625.191532531667
 30
0.0
 10
809.3067176290339
 20
625.2034899695959
 30
0.0
 10
809.212232865348
 20
625.4206486715617
 30
0.0
 10
809.025742012554
 20
625.843662739352
 30
0.0
 10
808.8410101031615
 20
626.2513805511683
 30
0.0
 10
808.6834135680059
 20
626.5913419579218
 30
0.0
 10
808.5535912158813
 20
626.8622037534051
 30
0.0
 10
808.4851383197084
 20
626.9869660150163
 30
0.0
 10
808.4701452085988
 20
627.0020156639829
 30
0.0
 10
808.4681906095956
 20
627.0017171965783
 30
0.0
 10
808.4678420996974
 20
627.0016639790925
 30
0.0
  0
LINE
  5
16F
330
1F
100
AcDbEntity
  8
0
  6
Continuous
 62
     7
370
    15
100
AcDbLine
 10
856.7992571556
 20
530.5771370013
 30
0.0
 11
844.8536383763
 21
556.1945991433
 31
0.0
  0
LINE
  5
170
330
1F
100
AcDbEntity
  8
0
  6
Continuous
 62
     7
370
    15
100
AcDbLine
 10
857.6606771162
 20
528.2996328477
 30
0.0
 11
856.7992571556
 21
530.5771370013
 31
0.0
  0
SPLINE
  5
171
330
1F
100
AcDbEntity
  8
0
  6
Continuous
 62
     7
370
    15
100
AcDbSpline
210
0.0
220
0.0
230
1.0
 70
     8
 71
     3
 72
     9
 73
     5
 74
     0
 42
0.00000001
 43
0.00000001
 12
1.0
 22
0.0
 32
0.0
 13
1.0
 23
0.0
 33
0.0
 40
0.0
 40
0.0
 40
0.0
 40
0.0
 40
0.0000220488581464
 40
1.0
 40
1.0
 40
1.0
 40
1.0
 10
858.5170077603238
 20
531.3781372630257
 30
0.0
 10
858.5170162126849
 20
531.3781191368674
 30
0.0
 10
858.9003630988219
 20
530.5560285687235
 30
0.0
 10
859.1913011594058
 20
529.6949343257766
 30
0.0
 10
859.4822328051376
 20
528.8338590689743
 30
0.0
  0
SPLINE
  5
172
330
1F
100
AcDbEntity
  8
0
  6
Continuous
 62
     7
370
    15
100
AcDbSpline
210
0.0
220
0.0
230
1.0
 70
     8
 71
     3
 72
    11
 73
     7
 74
     0
 42
0.00000001
 43
0.00000001
 12
1.0
 22
0.0
 32
0.0
 13
1.0
 23
0.0
 33
0.0
 40
0.0
 40
0.0
 40
0.0
 40
0.0
 40
0.249976881450123
 40
0.4998058427201231
 40
0.7495361389842414
 40
1.0
 40
1.0
 40
1.0
 40
1.0
 10
859.4822328051376
 20
528.8338590689743
 30
0.0
 10
859.4568832361715
 20
528.8198281475616
 30
0.0
 10
859.4061990984776
 20
528.7917746073294
 30
0.0
 10
858.9913777729925
 20
528.6645103315336
 30
0.0
 10
858.3913465259772
 20
528.4941119421774
 30
0.0
 10
857.9044715965294
 20
528.3645225627249
 30
0.0
 10
857.6606771161534
 20
528.2996328476975
 30
0.0
  0
LINE
  5
173
330
1F
100
AcDbEntity
  8
0
  6
Continuous
 62
     7
370
    15
100
AcDbLine
 10
858.5170077603
 20
531.378137263
 30
0.0
 11
856.7992571556
 21
530.5771370013
 31
0.0
  0
SPLINE
  5
174
330
1F
100
AcDbEntity
  8
0
  6
Continuous
 62
     7
370
    15
100
AcDbSpline
210
0.0
220
0.0
230
1.0
 70
     8
 71
     3
 72
    11
 73
     7
 74
     0
 42
0.00000001
 43
0.00000001
 12
1.0
 22
0.0
 32
0.0
 13
1.0
 23
0.0
 33
0.0
 40
0.0
 40
0.0
 40
0.0
 40
0.0
 40
0.2440033155519359
 40
0.4919416665609726
 40
0.7439093003483784
 40
1.0
 40
1.0
 40
1.0
 40
1.0
 10
858.2955362724936
 20
526.9904790425959
 30
0.0
 10
858.2585938382525
 20
527.0734977906046
 30
0.0
 10
858.1841132000438
 20
527.2408741279256
 30
0.0
 10
858.0312171628309
 20
527.5616676587134
 30
0.0
 10
857.8553721316075
 20
527.919403177936
 30
0.0
 10
857.7259256220956
 20
528.1722057648368
 30
0.0
 10
857.6606771161534
 20
528.2996328476976
 30
0.0
  0
SPLINE
  5
175
330
1F
100
AcDbEntity
  8
0
  6
Continuous
 62
     7
370
    15
100
AcDbSpline
210
0.0
220
0.0
230
1.0
 70
     8
 71
     3
 72
    11
 73
     7
 74
     0
 42
0.00000001
 43
0.00000001
 12
1.0
 22
0.0
 32
0.0
 13
1.0
 23
0.0
 33
0.0
 40
0.0
 40
0.0
 40
0.0
 40
0.0
 40
0.2501480011265462
 40
0.5002880311524717
 40
0.7504202668475323
 40
1.0
 40
1.0
 40
1.0
 40
1.0
 10
859.4822328051376
 20
528.8338590689743
 30
0.0
 10
859.5038860482558
 20
528.6600289555316
 30
0.0
 10
859.5471918444997
 20
528.3123742678364
 30
0.0
 10
859.3150531320329
 20
527.7795933095028
 30
0.0
 10
858.8980730572932
 20
527.3044742506364
 30
0.0
 10
858.4962337706288
 20
527.0950669354348
 30
0.0
 10
858.2955362724936
 20
526.9904790425959
 30
0.0
  0
LINE
  5
176
330
1F
100
AcDbEntity
  8
0
  6
Continuous
 62
     7
370
    15
100
AcDbLine
 10
815.9857377548
 20
622.5867401279
 30
0.0
 11
821.5920826081
 21
610.5638947914
 31
0.0
  0
LINE
  5
177
330
1F
100
AcDbEntity
  8
0
  6
Continuous
 62
     7
370
    15
100
AcDbLine
 10
846.571388981
 20
556.9955994051
 30
0.0
 11
858.5170077603
 21
531.378137263
 31
0.0
  0
SPLINE
  5
178
330
1F
100
AcDbEntity
  8
0
  6
Continuous
 62
     7
370
    15
100
AcDbSpline
210
0.0
220
0.0
230
1.0
 70
     8
 71
     3
 72
    10
 73
     6
 74
     0
 42
0.00000001
 43
0.00000001
 12
1.0
 22
0.0
 32
0.0
 13
1.0
 23
0.0
 33
0.0
 40
0.0
 40
0.0
 40
0.0
 40
0.0
 40
0.2987989903043703
 40
0.6066338780541526
 40
1.0
 40
1.0
 40
1.0
 40
1.0
 10
859.4822328051376
 20
528.8338590689743
 30
0.0
 10
859.5860946411428
 20
528.3457839587705
 30
0.0
 10
859.7969591701477
 20
527.3548739942388
 30
0.0
 10
859.6179312603573
 20
525.6482708848966
 30
0.0
 10
859.1143057995059
 20
524.7677599630499
 30
0.0
 10
858.8317774064931
 20
524.273802935224
 30
0.0
  0
SPLINE
  5
179
330
1F
100
AcDbEntity
  8
0
  6
Continuous
 62
     7
370
    15
100
AcDbSpline
210
0.0
220
0.0
230
1.0
 70
     8
 71
     3
 72
    17
 73
    13
 74
     0
 42
0.00000001
 43
0.00000001
 12
1.0
 22
0.0
 32
0.0
 13
1.0
 23
0.0
 33
0.0
 40
0.0
 40
0.0
 40
0.0
 40
0.0
 40
0.2840452930488204
 40
0.5591053053795111
 40
0.7080754876178954
 40
0.8003622207111343
 40
0.8610609971541617
 40
0.9022878369856905
 40
0.9308254052257959
 40
0.9508150645493523
 40
0.9860803515010756
 40
1.0
 40
1.0
 40
1.0
 40
1.0
 10
858.2572119724188
 20
523.6130012183602
 30
0.0
 10
858.1978323304145
 20
523.5409162488853
 30
0.0
 10
858.0809514185014
 20
523.3990265930529
 30
0.0
 10
857.8855002420987
 20
523.2576722362783
 30
0.0
 10
857.740995789785
 20
523.1567589980539
 30
0.0
 10
857.6529836319856
 20
523.1009843693155
 30
0.0
 10
857.5953246033976
 20
523.0661994710965
 30
0.0
 10
857.556071023625
 20
523.0433856433722
 30
0.0
 10
857.5288313350125
 20
523.027950862982
 30
0.0
 10
857.5032459227997
 20
523.0137176209226
 30
0.0
 10
857.4819885419382
 20
523.0021238361238
 30
0.0
 10
857.4667703644159
 20
522.9940051826318
 30
0.0
 10
857.4624635237143
 20
522.9917075522322
 30
0.0
  0
SPLINE
  5
17A
330
1F
100
AcDbEntity
  8
0
  6
Continuous
 62
     7
370
    15
100
AcDbSpline
210
0.0
220
0.0
230
1.0
 70
     8
 71
     3
 72
    10
 73
     6
 74
     0
 42
0.00000001
 43
0.00000001
 12
1.0
 22
0.0
 32
0.0
 13
1.0
 23
0.0
 33
0.0
 40
0.0
 40
0.0
 40
0.0
 40
0.0
 40
0.4527378322497747
 40
0.9055954617508157
 40
1.0
 40
1.0
 40
1.0
 40
1.0
 10
859.6043145473179
 20
526.0369371691118
 30
0.0
 10
859.6119375941664
 20
526.0894365931548
 30
0.0
 10
859.627185704969
 20
526.1944493329155
 30
0.0
 10
859.7505467223117
 20
526.6771181919107
 30
0.0
 10
859.7085261901027
 20
527.1535639723703
 30
0.0
 10
859.7012775089881
 20
527.2357524490377
 30
0.0
  0
SPLINE
  5
17B
330
1F
100
AcDbEntity
  8
0
  6
Continuous
 62
     7
370
    15
100
AcDbSpline
210
0.0
220
0.0
230
1.0
 70
     8
 71
     3
 72
    12
 73
     8
 74
     0
 42
0.00000001
 43
0.00000001
 12
1.0
 22
0.0
 32
0.0
 13
1.0
 23
0.0
 33
0.0
 40
0.0
 40
0.0
 40
0.0
 40
0.0
 40
0.4616906276094858
 40
0.7307729957176453
 40
0.9175829348231724
 40
0.9719359401458605
 40
1.0
 40
1.0
 40
1.0
 40
1.0
 10
859.4611820607473
 20
528.909244867767
 30
0.0
 10
859.4311682678546
 20
529.0178047077926
 30
0.0
 10
859.3836618468155
 20
529.1896353553431
 30
0.0
 10
859.312038467544
 20
529.4137343452893
 30
0.0
 10
859.270547239762
 20
529.5381030921777
 30
0.0
 10
859.2480600199789
 20
529.6037746951721
 30
0.0
 10
859.2411158228285
 20
529.6238626035807
 30
0.0
 10
859.2387512352999
 20
529.630702792111
 30
0.0
  0
LINE
  5
17C
330
1F
100
AcDbEntity
  8
0
  6
Continuous
 62
     7
370
    15
100
AcDbLine
 10
814.6158979147
 20
624.8478844759
 30
0.0
 11
814.1702851913
 21
625.5827734937
 31
0.0
  0
LINE
  5
17D
330
1F
100
AcDbEntity
  8
0
  6
Continuous
 62
     7
370
    15
100
AcDbLine
 10
858.5631895074
 20
531.2785918024
 30
0.0
 11
858.52115555
 21
531.369238291
 31
0.0
  0
SPLINE
  5
17E
330
1F
100
AcDbEntity
  8
0
  6
Continuous
 62
     7
370
    15
100
AcDbSpline
210
0.0
220
0.0
230
1.0
 70
     8
 71
     3
 72
    13
 73
     9
 74
     0
 42
0.00000001
 43
0.00000001
 12
1.0
 22
0.0
 32
0.0
 13
1.0
 23
0.0
 33
0.0
 40
0.0
 40
0.0
 40
0.0
 40
0.0
 40
0.1254648118065552
 40
0.2502435788816381
 40
0.3760698054095821
 40
0.5019139201694219
 40
0.75083105148617
 40
1.0
 40
1.0
 40
1.0
 40
1.0
 10
814.1702851908692
 20
625.582773494136
 30
0.0
 10
814.0826082185791
 20
625.6800457725009
 30
0.0
 10
813.9077336938783
 20
625.8740584419783
 30
0.0
 10
813.6340516616972
 20
626.1334585792273
 30
0.0
 10
813.3670510346718
 20
626.3569307476215
 30
0.0
 10
813.0421920189619
 20
626.5954045016538
 30
0.0
 10
812.7095056792201
 20
626.792965337088
 30
0.0
 10
812.6565909892854
 20
626.8199295373021
 30
0.0
 10
812.630120268288
 20
626.8334184535494
 30
0.0
  0
SPLINE
  5
17F
330
1F
100
AcDbEntity
  8
0
  6
Continuous
 62
     7
370
    15
100
AcDbSpline
210
0.0
220
0.0
230
1.0
 70
     8
 71
     3
 72
     9
 73
     5
 74
     0
 42
0.00000001
 43
0.00000001
 12
1.0
 22
0.0
 32
0.0
 13
1.0
 23
0.0
 33
0.0
 40
0.0
 40
0.0
 40
0.0
 40
0.0
 40
0.5000138394956857
 40
1.0
 40
1.0
 40
1.0
 40
1.0
 10
859.030996347497
 20
530.1909565213634
 30
0.0
 10
858.9630269350592
 20
530.3596735166632
 30
0.0
 10
858.8270918727288
 20
530.6970981676886
 30
0.0
 10
858.6511553392661
 20
531.0847641675692
 30
0.0
 10
858.5631895074075
 20
531.2785918024076
 30
0.0
  0
SPLINE
  5
180
330
1F
100
AcDbEntity
  8
0
  6
Continuous
 62
     7
370
    15
100
AcDbSpline
210
0.0
220
0.0
230
1.0
 70
     8
 71
     3
 72
     9
 73
     5
 74
     0
 42
0.00000001
 43
0.00000001
 12
1.0
 22
0.0
 32
0.0
 13
1.0
 23
0.0
 33
0.0
 40
0.0
 40
0.0
 40
0.0
 40
0.0
 40
0.7838918077606074
 40
1.0
 40
1.0
 40
1.0
 40
1.0
 10
859.7204500451536
 20
527.0280735528711
 30
0.0
 10
859.7266644311238
 20
527.0456513873431
 30
0.0
 10
859.7345920378531
 20
527.0680751890694
 30
0.0
 10
859.7114045228826
 20
527.3585887148708
 30
0.0
 10
859.7063935109398
 20
527.421371067753
 30
0.0
  0
SPLINE
  5
181
330
1F
100
AcDbEntity
  8
0
  6
Continuous
 62
     7
370
    15
100
AcDbSpline
210
0.0
220
0.0
230
1.0
 70
     8
 71
     3
 72
     9
 73
     5
 74
     0
 42
0.00000001
 43
0.00000001
 12
1.0
 22
0.0
 32
0.0
 13
1.0
 23
0.0
 33
0.0
 40
0.0
 40
0.0
 40
0.0
 40
0.0
 40
0.1164892876041798
 40
1.0
 40
1.0
 40
1.0
 40
1.0
 10
859.4932754575595
 20
528.7607015267533
 30
0.0
 10
859.4848867410403
 20
528.8043637007366
 30
0.0
 10
859.4128739689498
 20
529.179180775177
 30
0.0
 10
859.2101261858129
 20
529.7163562419942
 30
0.0
 10
859.030996347497
 20
530.1909565213634
 30
0.0
  0
LINE
  5
182
330
1F
100
AcDbEntity
  8
0
  6
Continuous
 62
     7
370
    15
100
AcDbLine
 10
859.2387512355
 20
529.6307027915
 30
0.0
 11
859.0696470809
 21
530.0757990581
 31
0.0
  0
LINE
  5
183
330
1F
100
AcDbEntity
  8
0
  6
Continuous
 62
     7
370
    15
100
AcDbLine
 10
824.4291211852
 20
604.4798459289
 30
0.0
 11
843.7343504039
 21
563.0796482675
 31
0.0
  0
LINE
  5
184
330
1F
100
AcDbEntity
  8
0
  6
Continuous
 62
     7
370
    15
100
AcDbLine
 10
832.2733924119
 20
599.4887599127
 30
0.0
 11
844.9531571939
 21
572.2969165872
 31
0.0
  0
LINE
  5
185
330
1F
100
AcDbEntity
  8
0
  6
Continuous
 62
     7
370
    15
100
AcDbLine
 10
-42.026806274
 20
715.4423724053
 30
0.0
 11
-40.026806274
 21
715.4423724053
 31
0.0
  0
LINE
  5
186
330
1F
100
AcDbEntity
  8
0
  6
Continuous
 62
     7
370
    15
100
AcDbLine
 10
-42.026806274
 20
715.4423724053
 30
0.0
 11
-42.026806274
 21
726.9423724053
 31
0.0
  0
LINE
  5
187
330
1F
100
AcDbEntity
  8
0
  6
Continuous
 62
     7
370
    15
100
AcDbLine
 10
-40.026806274
 20
726.9423724053
 30
0.0
 11
-42.026806274
 21
726.9423724053
 31
0.0
  0
LINE
  5
188
330
1F
100
AcDbEntity
  8
0
  6
Continuous
 62
     7
370
    15
100
AcDbLine
 10
-40.026806274
 20
715.4423724053
 30
0.0
 11
-40.026806274
 21
726.9423724053
 31
0.0
  0
ARC
  5
189
330
1F
100
AcDbEntity
  8
0
  6
Continuous
 62
     7
370
    15
100
AcDbCircle
 10
-37.776806274
 20
715.4423724053
 30
0.0
 40
4.249999999999979
100
AcDbArc
 50
180.0
 51
270.0
  0
LINE
  5
18A
330
1F
100
AcDbEntity
  8
0
  6
Continuous
 62
     7
370
    15
100
AcDbLine
 10
-37.776806274
 20
713.1923724053
 30
0.0
 11
-37.776806274
 21
711.1923724053
 31
0.0
  0
ARC
  5
18B
330
1F
100
AcDbEntity
  8
0
  6
Continuous
 62
     7
370
    15
100
AcDbCircle
 10
-37.776806274
 20
715.4423724053
 30
0.0
 40
2.250000000000085
100
AcDbArc
 50
180.0
 51
270.0
  0
LINE
  5
18C
330
1F
100
AcDbEntity
  8
0
  6
Continuous
 62
     7
370
    15
100
AcDbLine
 10
32.973193726
 20
726.9423724053
 30
0.0
 11
30.973193726
 21
726.9423724053
 31
0.0
  0
LINE
  5
18D
330
1F
100
AcDbEntity
  8
0
  6
Continuous
 62
     7
370
    15
100
AcDbLine
 10
32.973193726
 20
726.9423724053
 30
0.0
 11
32.973193726
 21
715.4423724053
 31
0.0
  0
LINE
  5
18E
330
1F
100
AcDbEntity
  8
0
  6
Continuous
 62
     7
370
    15
100
AcDbLine
 10
30.973193726
 20
715.4423724053
 30
0.0
 11
32.973193726
 21
715.4423724053
 31
0.0
  0
LINE
  5
18F
330
1F
100
AcDbEntity
  8
0
  6
Continuous
 62
     7
370
    15
100
AcDbLine
 10
30.973193726
 20
726.9423724053
 30
0.0
 11
30.973193726
 21
715.4423724053
 31
0.0
  0
LINE
  5
190
330
1F
100
AcDbEntity
  8
0
  6
Continuous
 62
     7
370
    15
100
AcDbLine
 10
-29.026806274
 20
713.1923724053
 30
0.0
 11
-37.776806274
 21
713.1923724053
 31
0.0
  0
LINE
  5
191
330
1F
100
AcDbEntity
  8
0
  6
Continuous
 62
     7
370
    15
100
AcDbLine
 10
-29.026806274
 20
711.1923724053
 30
0.0
 11
-29.026806274
 21
713.1923724053
 31
0.0
  0
LINE
  5
192
330
1F
100
AcDbEntity
  8
0
  6
Continuous
 62
     7
370
    15
100
AcDbLine
 10
-29.026806274
 20
711.1923724053
 30
0.0
 11
-37.776806274
 21
711.1923724053
 31
0.0
  0
LINE
  5
193
330
1F
100
AcDbEntity
  8
0
  6
Continuous
 62
     7
370
    15
100
AcDbLine
 10
-29.026806274
 20
713.1923724053
 30
0.0
 11
-27.026806274
 21
713.1923724053
 31
0.0
  0
LINE
  5
194
330
1F
100
AcDbEntity
  8
0
  6
Continuous
 62
     7
370
    15
100
AcDbLine
 10
-27.026806274
 20
713.1923724053
 30
0.0
 11
-27.026806274
 21
711.1923724053
 31
0.0
  0
LINE
  5
195
330
1F
100
AcDbEntity
  8
0
  6
Continuous
 62
     7
370
    15
100
AcDbLine
 10
-27.026806274
 20
711.1923724053
 30
0.0
 11
-29.026806274
 21
711.1923724053
 31
0.0
  0
ARC
  5
196
330
1F
100
AcDbEntity
  8
0
  6
Continuous
 62
     7
370
    15
100
AcDbCircle
 10
28.723193726
 20
726.9423724053
 30
0.0
 40
4.25
100
AcDbArc
 50
0.0
 51
90.0
  0
ARC
  5
197
330
1F
100
AcDbEntity
  8
0
  6
Continuous
 62
     7
370
    15
100
AcDbCircle
 10
28.723193726
 20
726.9423724053
 30
0.0
 40
2.25
100
AcDbArc
 50
0.0
 51
90.0
  0
LINE
  5
198
330
1F
100
AcDbEntity
  8
0
  6
Continuous
 62
     7
370
    15
100
AcDbLine
 10
28.723193726
 20
729.1923724053
 30
0.0
 11
28.723193726
 21
731.1923724053
 31
0.0
  0
LINE
  5
199
330
1F
100
AcDbEntity
  8
0
  6
Continuous
 62
     7
370
    15
100
AcDbLine
 10
-37.776806274
 20
731.1923724053
 30
0.0
 11
-37.776806274
 21
729.1923724053
 31
0.0
  0
LINE
  5
19A
330
1F
100
AcDbEntity
  8
0
  6
Continuous
 62
     7
370
    15
100
AcDbLine
 10
-37.776806274
 20
729.1923724053
 30
0.0
 11
28.723193726
 21
729.1923724053
 31
0.0
  0
LINE
  5
19B
330
1F
100
AcDbEntity
  8
0
  6
Continuous
 62
     7
370
    15
100
AcDbLine
 10
-37.776806274
 20
731.1923724053
 30
0.0
 11
28.723193726
 21
731.1923724053
 31
0.0
  0
LINE
  5
19C
330
1F
100
AcDbEntity
  8
0
  6
Continuous
 62
     7
370
    15
100
AcDbLine
 10
35.223193726
 20
713.1923724053
 30
0.0
 11
35.223193726
 21
711.1923724053
 31
0.0
  0
LINE
  5
19D
330
1F
100
AcDbEntity
  8
0
  6
Continuous
 62
     7
370
    15
100
AcDbLine
 10
69.7263379548
 20
711.1923724053
 30
0.0
 11
69.7263379548
 21
713.1923724053
 31
0.0
  0
LINE
  5
19E
330
1F
100
AcDbEntity
  8
0
  6
Continuous
 62
     7
370
    15
100
AcDbLine
 10
35.223193726
 20
711.1923724053
 30
0.0
 11
69.7263379548
 21
711.1923724053
 31
0.0
  0
LINE
  5
19F
330
1F
100
AcDbEntity
  8
0
  6
Continuous
 62
     7
370
    15
100
AcDbLine
 10
35.223193726
 20
713.1923724053
 30
0.0
 11
69.7263379548
 21
713.1923724053
 31
0.0
  0
ARC
  5
1A0
330
1F
100
AcDbEntity
  8
0
  6
Continuous
 62
     7
370
    15
100
AcDbCircle
 10
35.223193726
 20
715.4423724053
 30
0.0
 40
4.250000000000114
100
AcDbArc
 50
180.0
 51
270.0
  0
ARC
  5
1A1
330
1F
100
AcDbEntity
  8
0
  6
Continuous
 62
     7
370
    15
100
AcDbCircle
 10
35.223193726
 20
715.4423724053
 30
0.0
 40
2.250000000000114
100
AcDbArc
 50
180.0
 51
270.0
  0
ARC
  5
1A2
330
1F
100
AcDbEntity
  8
0
  6
Continuous
 62
     7
370
    15
100
AcDbCircle
 10
-37.776806274
 20
726.9423724053
 30
0.0
 40
2.250000000000085
100
AcDbArc
 50
90.0
 51
180.0
  0
ARC
  5
1A3
330
1F
100
AcDbEntity
  8
0
  6
Continuous
 62
     7
370
    15
100
AcDbCircle
 10
-37.776806274
 20
726.9423724053
 30
0.0
 40
4.25
100
AcDbArc
 50
90.0
 51
180.0
  0
LINE
  5
1A4
330
1F
100
AcDbEntity
  8
0
  6
Continuous
 62
     7
370
    15
100
AcDbLine
 10
818.218037621
 20
652.9846857788
 30
0.0
 11
819.0632741445
 21
651.1720702048
 31
0.0
  0
LINE
  5
1A5
330
1F
100
AcDbEntity
  8
0
  6
Continuous
 62
     7
370
    15
100
AcDbLine
 10
819.0632741445
 20
651.1720702048
 30
0.0
 11
817.2506585704
 21
650.3268336813
 31
0.0
  0
LINE
  5
1A6
330
1F
100
AcDbEntity
  8
0
  6
Continuous
 62
     7
370
    15
100
AcDbLine
 10
817.2506585704
 20
650.3268336813
 30
0.0
 11
816.4054220469
 21
652.1394492554
 31
0.0
  0
LINE
  5
1A7
330
1F
100
AcDbEntity
  8
0
  6
Continuous
 62
     7
370
    15
100
AcDbLine
 10
816.4054220469
 20
652.1394492554
 30
0.0
 11
818.218037621
 21
652.9846857788
 31
0.0
  0
LINE
  5
1A8
330
1F
100
AcDbEntity
  8
0
  6
Continuous
 62
     7
370
    15
100
AcDbLine
 10
836.6096626707
 20
659.3540855475
 30
0.0
 11
835.7644261472
 21
661.1667011216
 31
0.0
  0
LINE
  5
1A9
330
1F
100
AcDbEntity
  8
0
  6
Continuous
 62
     7
370
    15
100
AcDbLine
 10
840.6013214002
 20
666.0035963745
 30
0.0
 11
842.4139369742
 21
665.158359851
 31
0.0
  0
ARC
  5
1AA
330
1F
100
AcDbEntity
  8
0
  6
Continuous
 62
     7
370
    15
100
AcDbCircle
 10
831.5382435298
 20
670.2297789919
 30
0.0
 40
12.0
100
AcDbArc
 50
295.0
 51
335.0
  0
ARC
  5
1AB
330
1F
100
AcDbEntity
  8
0
  6
Continuous
 62
     7
370
    15
100
AcDbCircle
 10
831.5382435298
 20
670.2297789919
 30
0.0
 40
10.00000000000008
100
AcDbArc
 50
295.0
 51
335.0
  0
LINE
  5
1AC
330
1F
100
AcDbEntity
  8
0
  6
Continuous
 62
     7
370
    15
100
AcDbLine
 10
790.4263379548
 20
713.1923724053
 30
0.0
 11
845.9763379548
 21
713.1923724053
 31
0.0
  0
LINE
  5
1AD
330
1F
100
AcDbEntity
  8
0
  6
Continuous
 62
     7
370
    15
100
AcDbLine
 10
845.9763379548
 20
711.1923724053
 30
0.0
 11
845.9763379548
 21
713.1923724053
 31
0.0
  0
LINE
  5
1AE
330
1F
100
AcDbEntity
  8
0
  6
Continuous
 62
     7
370
    15
100
AcDbLine
 10
790.4263379548
 20
713.1923724053
 30
0.0
 11
790.4263379548
 21
711.1923724053
 31
0.0
  0
LINE
  5
1AF
330
1F
100
AcDbEntity
  8
0
  6
Continuous
 62
     7
370
    15
100
AcDbLine
 10
790.4263379548
 20
711.1923724053
 30
0.0
 11
845.9763379548
 21
711.1923724053
 31
0.0
  0
LINE
  5
1B0
330
1F
100
AcDbEntity
  8
0
  6
Continuous
 62
     7
370
    15
100
AcDbLine
 10
836.6096626707
 20
659.3540855475
 30
0.0
 11
819.0632741445
 21
651.1720702048
 31
0.0
  0
LINE
  5
1B1
330
1F
100
AcDbEntity
  8
0
  6
Continuous
 62
     7
370
    15
100
AcDbLine
 10
835.7644261472
 20
661.1667011216
 30
0.0
 11
818.218037621
 21
652.9846857788
 31
0.0
  0
LINE
  5
1B2
330
1F
100
AcDbEntity
  8
0
  6
Continuous
 62
     7
370
    15
100
AcDbLine
 10
856.8520313992
 20
696.1209532644
 30
0.0
 11
855.0394158252
 21
696.9661897879
 31
0.0
  0
LINE
  5
1B3
330
1F
100
AcDbEntity
  8
0
  6
Continuous
 62
     7
370
    15
100
AcDbLine
 10
856.8520313992
 20
696.1209532644
 30
0.0
 11
842.4139369742
 21
665.158359851
 31
0.0
  0
LINE
  5
1B4
330
1F
100
AcDbEntity
  8
0
  6
Continuous
 62
     7
370
    15
100
AcDbLine
 10
855.0394158252
 20
696.9661897879
 30
0.0
 11
840.6013214002
 21
666.0035963745
 31
0.0
  0
ARC
  5
1B5
330
1F
100
AcDbEntity
  8
0
  6
Continuous
 62
     7
370
    15
100
AcDbCircle
 10
845.9763379548
 20
701.1923724053
 30
0.0
 40
12.00000000000011
100
AcDbArc
 50
335.0
 51
90.0
  0
ARC
  5
1B6
330
1F
100
AcDbEntity
  8
0
  6
Continuous
 62
     7
370
    15
100
AcDbCircle
 10
845.9763379548
 20
701.1923724053
 30
0.0
 40
10.00000000000008
100
AcDbArc
 50
335.0
 51
90.0
  0
LINE
  5
1B7
330
1F
100
AcDbEntity
  8
0
  6
Continuous
 62
     7
370
    15
100
AcDbLine
 10
69.7263379548
 20
713.1923724053
 30
0.0
 11
790.4263379548
 21
713.1923724053
 31
0.0
  0
LINE
  5
1B8
330
1F
100
AcDbEntity
  8
0
  6
Continuous
 62
     7
370
    15
100
AcDbLine
 10
69.7263379548
 20
711.1923724053
 30
0.0
 11
790.4263379548
 21
711.1923724053
 31
0.0
  0
LINE
  5
1B9
330
1F
100
AcDbEntity
  8
0
  6
Continuous
 62
     7
370
    15
100
AcDbLine
 10
26.2308043298
 20
731.1923724053
 30
0.0
 11
23.2958422803
 21
764.7391421378
 31
0.0
  0
LINE
  5
1BA
330
1F
100
AcDbEntity
  8
0
  6
Continuous
 62
     7
370
    15
100
AcDbLine
 10
-31.6159562272
 20
778.8380956638
 30
0.0
 11
-35.7844168778
 21
731.1923724053
 31
0.0
  0
LINE
  5
1BB
330
1F
100
AcDbEntity
  8
0
  6
Continuous
 62
     7
370
    15
100
AcDbLine
 10
23.2958422803
 20
764.7391421378
 30
0.0
 11
-31.6159562272
 21
778.8380956638
 31
0.0
  0
LINE
  5
1BC
330
1F
100
AcDbEntity
  8
0
  6
Continuous
 62
     7
370
    15
100
AcDbLine
 10
-37.776806274
 20
731.1923724053
 30
0.0
 11
-33.6083456234
 21
778.8380956638
 31
0.0
  0
ARC
  5
1BD
330
1F
100
AcDbEntity
  8
0
  6
Continuous
 62
     7
370
    15
100
AcDbCircle
 10
-32.6121509253
 20
773.072393004
 30
0.0
 40
5.851130748652669
100
AcDbArc
 50
80.1972507075
 51
99.8027492925
  0
ARC
  5
1BE
330
1F
100
AcDbEntity
  8
0
  6
Continuous
 62
     7
370
    15
100
AcDbCircle
 10
24.2920369784
 20
758.973439478
 30
0.0
 40
5.851130748642531
100
AcDbArc
 50
80.1972507075
 51
99.8027492925
  0
LINE
  5
1BF
330
1F
100
AcDbEntity
  8
0
  6
Continuous
 62
     7
370
    15
100
AcDbLine
 10
25.2882316765
 20
764.7391421378
 30
0.0
 11
28.223193726
 21
731.1923724053
 31
0.0
  0
ARC
  5
1C0
330
1F
100
AcDbEntity
  8
0
  6
Continuous
 62
     7
370
    15
100
AcDbCircle
 10
-11.7190122697
 20
774.1758765086
 30
0.0
 40
20.43586715308286
100
AcDbArc
 50
161.6752935119
 51
166.812465909
  0
LINE
  5
1C1
330
1F
100
AcDbEntity
  8
0
  6
Continuous
 62
     7
370
    15
100
AcDbLine
 10
-31.1185764529
 20
780.6009505006
 30
0.0
 11
23.7932220546
 21
766.5019969745
 31
0.0
  0
ARC
  5
1C2
330
1F
100
AcDbEntity
  8
0
  6
Continuous
 62
     7
370
    15
100
AcDbCircle
 10
43.1927862376
 20
760.0769229826
 30
0.0
 40
20.4358671529375
100
AcDbArc
 50
161.6752935119
 51
166.812465909
  0
ARC
  5
1C3
330
1F
100
AcDbEntity
  8
0
  6
Continuous
 62
     7
370
    15
100
AcDbCircle
 10
23.2958422803
 20
764.5648306523
 30
0.0
 40
2.00000000000002
100
AcDbArc
 50
5.0
 51
75.6
  0
ARC
  5
1C4
330
1F
100
AcDbEntity
  8
0
  6
Continuous
 62
     7
370
    15
100
AcDbCircle
 10
-31.6159562272
 20
778.6637841783
 30
0.0
 40
2.00000000000004
100
AcDbArc
 50
75.6
 51
175.0
  0
SPLINE
  5
1C5
330
1F
100
AcDbEntity
  8
0
  6
Continuous
 62
     7
370
    15
100
AcDbSpline
210
0.0
220
0.0
230
1.0
 70
     8
 71
     3
 72
    13
 73
     9
 74
     0
 42
0.00000001
 43
0.00000001
 12
1.0
 22
0.0
 32
0.0
 13
1.0
 23
0.0
 33
0.0
 40
0.0
 40
0.0
 40
0.0
 40
0.0
 40
0.1695411050599735
 40
0.3386458383076956
 40
0.5184804584270417
 40
0.7277236211484615
 40
0.9924537768849487
 40
1.0
 40
1.0
 40
1.0
 40
1.0
 10
34.66104080751331
 20
-27.85762759466937
 30
0.0
 10
34.66149079874947
 20
-27.83301644738268
 30
0.0
 10
34.66238962301604
 20
-27.78385749798429
 30
0.0
 10
34.66918876514424
 20
-27.71772170460352
 30
0.0
 10
34.67937445675518
 20
-27.66205010149969
 30
0.0
 10
34.69387197153384
 20
-27.6193313222266
 30
0.0
 10
34.70548692996256
 20
-27.60774566261615
 30
0.0
 10
34.71193015515184
 20
-27.60763077871187
 30
0.0
 10
34.71210873110842
 20
-27.60762759466928
 30
0.0
  0
LINE
  5
1C6
330
1F
100
AcDbEntity
  8
0
  6
Continuous
 62
     7
370
    15
100
AcDbLine
 10
28.2942037971
 20
-27.6076275947
 30
0.0
 11
34.7121087311
 21
-27.6076275947
 31
0.0
  0
SPLINE
  5
1C7
330
1F
100
AcDbEntity
  8
0
  6
Continuous
 62
     7
370
    15
100
AcDbSpline
210
0.0
220
0.0
230
1.0
 70
     8
 71
     3
 72
    13
 73
     9
 74
     0
 42
0.00000001
 43
0.00000001
 12
1.0
 22
0.0
 32
0.0
 13
1.0
 23
0.0
 33
0.0
 40
0.0
 40
0.0
 40
0.0
 40
0.0
 40
0.0075462231147179
 40
0.2722763788517092
 40
0.4815195415731395
 40
0.6613541616925279
 40
0.8304588949399858
 40
0.9999999999999999
 40
0.9999999999999999
 40
0.9999999999999999
 40
0.9999999999999999
 10
34.7121087311083
 20
-28.80762759466937
 30
0.0
 10
34.71193015515161
 20
-28.80762441062679
 30
0.0
 10
34.70548692996545
 20
-28.80750952672251
 30
0.0
 10
34.69387197153306
 20
-28.79592386711183
 30
0.0
 10
34.67937445675506
 20
-28.75320508783863
 30
0.0
 10
34.6691887651438
 20
-28.69753348473481
 30
0.0
 10
34.66238962301604
 20
-28.63139769135426
 30
0.0
 10
34.6614907987497
 20
-28.58223874195587
 30
0.0
 10
34.66104080751364
 20
-28.55762759466929
 30
0.0
  0
LINE
  5
1C8
330
1F
100
AcDbEntity
  8
0
  6
Continuous
 62
     7
370
    15
100
AcDbLine
 10
34.7121087311
 20
-28.8076275947
 30
0.0
 11
28.1174452643
 21
-28.8076275947
 31
0.0
  0
LINE
  5
1C9
330
1F
100
AcDbEntity
  8
0
  6
Continuous
 62
     7
370
    15
100
AcDbLine
 10
34.6610408075
 20
-27.8576275947
 30
0.0
 11
34.6610408075
 21
-28.5576275947
 31
0.0
  0
SPLINE
  5
1CA
330
1F
100
AcDbEntity
  8
0
  6
Continuous
 62
     7
370
    15
100
AcDbSpline
210
0.0
220
0.0
230
1.0
 70
     8
 71
     3
 72
    12
 73
     8
 74
     0
 42
0.00000001
 43
0.00000001
 12
1.0
 22
0.0
 32
0.0
 13
1.0
 23
0.0
 33
0.0
 40
0.0
 40
0.0
 40
0.0
 40
0.0
 40
0.2289440738516335
 40
0.4594214300241707
 40
0.6825355698157445
 40
0.8947175231628391
 40
1.0
 40
1.0
 40
1.0
 40
1.0
 10
39.11236721119005
 20
-28.8076275946697
 30
0.0
 10
39.24645922780956
 20
-28.79029311009207
 30
0.0
 10
39.51554130097157
 20
-28.75550804857285
 30
0.0
 10
39.86814835641383
 20
-28.48163820276051
 30
0.0
 10
40.12115792508087
 20
-28.08460166827775
 30
0.0
 10
40.2345007699465
 20
-27.68372567892497
 30
0.0
 10
40.24414042452706
 20
-27.43884028583776
 30
0.0
 10
40.24733727624819
 20
-27.35762759466953
 30
0.0
  0
SPLINE
  5
1CB
330
1F
100
AcDbEntity
  8
0
  6
Continuous
 62
     7
370
    15
100
AcDbSpline
210
0.0
220
0.0
230
1.0
 70
     8
 71
     3
 72
    12
 73
     8
 74
     0
 42
0.00000001
 43
0.00000001
 12
1.0
 22
0.0
 32
0.0
 13
1.0
 23
0.0
 33
0.0
 40
0.0
 40
0.0
 40
0.0
 40
0.0
 40
0.2028202020467449
 40
0.40494724494268
 40
0.6098312030740957
 40
0.8226939241827891
 40
1.0
 40
1.0
 40
1.0
 40
1.0
 10
35.97246386245912
 20
-27.35762759466931
 30
0.0
 10
35.96183691222243
 20
-27.51476843520473
 30
0.0
 10
35.94061933045756
 20
-27.82851307109713
 30
0.0
 10
35.77603607644442
 20
-28.24890932156676
 30
0.0
 10
35.53226400660692
 20
-28.57598785700621
 30
0.0
 10
35.24036076972082
 20
-28.77419712327234
 30
0.0
 10
35.03540777355219
 20
-28.79718232919448
 30
0.0
 10
34.94227010656314
 20
-28.80762759466926
 30
0.0
  0
LINE
  5
1CC
330
1F
100
AcDbEntity
  8
0
  6
Continuous
 62
     7
370
    15
100
AcDbLine
 10
35.9724638625
 20
-27.3576275947
 30
0.0
 11
40.2473372762
 21
-27.3576275947
 31
0.0
  0
LINE
  5
1CD
330
1F
100
AcDbEntity
  8
0
  6
Continuous
 62
     7
370
    15
100
AcDbLine
 10
39.1123672112
 20
-28.8076275947
 30
0.0
 11
34.9422701066
 21
-28.8076275947
 31
0.0
  0
LINE
  5
1CE
330
1F
100
AcDbEntity
  8
0
  6
Continuous
 62
     7
370
    15
100
AcDbLine
 10
40.2473372762
 20
-27.3576275947
 30
0.0
 11
40.2473372762
 21
-22.2576275947
 31
0.0
  0
LINE
  5
1CF
330
1F
100
AcDbEntity
  8
0
  6
Continuous
 62
     7
370
    15
100
AcDbLine
 10
35.9724638625
 20
-22.2576275947
 30
0.0
 11
35.9724638625
 21
-27.3576275947
 31
0.0
  0
LINE
  5
1D0
330
1F
100
AcDbEntity
  8
0
  6
Continuous
 62
     7
370
    15
100
AcDbLine
 10
40.2473372762
 20
-22.2576275947
 30
0.0
 11
35.9724638625
 21
-22.2576275947
 31
0.0
  0
LWPOLYLINE
  5
1D1
330
1F
100
AcDbEntity
  8
0
  6
Continuous
 62
     7
370
    15
100
AcDbPolyline
 90
        9
 70
   128
 43
0.0
 10
35.9724638625
 20
-22.2576275947
 10
35.9701773963
 20
-22.2088550142
 10
35.9634058653
 20
-22.1619567366
 10
35.9524094956
 20
-22.1187350364
 10
35.9376108717
 20
-22.0808508994
 10
35.9195786962
 20
-22.0497601916
 10
35.8990059356
 20
-22.0266577115
 10
35.8766831895
 20
-22.0124312746
 10
35.8534683086
 20
-22.0076275947
  0
LINE
  5
1D2
330
1F
100
AcDbEntity
  8
0
  6
Continuous
 62
     7
370
    15
100
AcDbLine
 10
35.8534683086
 20
-22.0076275947
 30
0.0
 11
40.0235654132
 21
-22.0076275947
 31
0.0
  0
ARC
  5
1D3
330
1F
100
AcDbEntity
  8
0
  6
Continuous
 62
     7
370
    15
100
AcDbCircle
 10
40.0096827995
 20
-22.2452014414
 30
0.0
 40
0.2379791158747567
100
AcDbArc
 50
357.0069219841
 51
86.6557275501
  0
SPLINE
  5
1D4
330
1F
100
AcDbEntity
  8
0
  6
Continuous
 62
     7
370
    15
100
AcDbSpline
210
0.0
220
0.0
230
1.0
 70
     8
 71
     3
 72
    12
 73
     8
 74
     0
 42
0.00000001
 43
0.00000001
 12
1.0
 22
0.0
 32
0.0
 13
1.0
 23
0.0
 33
0.0
 40
0.0
 40
0.0
 40
0.0
 40
0.0
 40
0.1789601577903752
 40
0.392900916938162
 40
0.597697617281305
 40
0.7987833678438433
 40
1.0
 40
1.0
 40
1.0
 40
1.0
 10
34.76851606053699
 20
-28.55762759466929
 30
0.0
 10
34.8515296900489
 20
-28.54901562481538
 30
0.0
 10
35.0337832796539
 20
-28.5301083390036
 30
0.0
 10
35.29197408667717
 20
-28.36657231385153
 30
0.0
 10
35.506933464856
 20
-28.0960000020859
 30
0.0
 10
35.65172114815918
 20
-27.74786988252598
 30
0.0
 10
35.67038120085697
 20
-27.48773656713255
 30
0.0
 10
35.67971426255634
 20
-27.3576275946692
 30
0.0
  0
LINE
  5
1D5
330
1F
100
AcDbEntity
  8
0
  6
Continuous
 62
     7
370
    15
100
AcDbLine
 10
35.6797142626
 20
-27.3576275947
 30
0.0
 11
35.9724638625
 21
-27.3576275947
 31
0.0
  0
ARC
  5
1D6
330
1F
100
AcDbEntity
  8
0
  6
Continuous
 62
     7
370
    15
100
AcDbCircle
 10
34.9887575586
 20
-28.5899371262
 30
0.0
 40
0.2225987944096782
100
AcDbArc
 50
171.6542123666
 51
257.94563917
  0
LINE
  5
1D7
330
1F
100
AcDbEntity
  8
0
  6
Continuous
 62
     7
370
    15
100
AcDbLine
 10
35.6797142626
 20
-27.3576275947
 30
0.0
 11
35.6797142626
 21
-22.2576275947
 31
0.0
  0
LINE
  5
1D8
330
1F
100
AcDbEntity
  8
0
  6
Continuous
 62
     7
370
    15
100
AcDbLine
 10
35.6797142626
 20
-22.2576275947
 30
0.0
 11
35.9724638625
 21
-22.2576275947
 31
0.0
  0
ARC
  5
1D9
330
1F
100
AcDbEntity
  8
0
  6
Continuous
 62
     7
370
    15
100
AcDbCircle
 10
35.8999557606
 20
-22.2253180632
 30
0.0
 40
0.2225987944093063
100
AcDbArc
 50
102.0543608298
 51
188.3457876334
  0
LINE
  5
1DA
330
1F
100
AcDbEntity
  8
0
  6
Continuous
 62
     7
370
    15
100
AcDbLine
 10
35.1498409679
 20
-22.2576275947
 30
0.0
 11
35.1498409679
 21
-27.3576275947
 31
0.0
  0
LINE
  5
1DB
330
1F
100
AcDbEntity
  8
0
  6
Continuous
 62
     7
370
    15
100
AcDbLine
 10
35.6797142626
 20
-22.2576275947
 30
0.0
 11
35.1498409679
 21
-22.2576275947
 31
0.0
  0
LINE
  5
1DC
330
1F
100
AcDbEntity
  8
0
  6
Continuous
 62
     7
370
    15
100
AcDbLine
 10
34.6610408075
 20
-28.5576275947
 30
0.0
 11
34.7685160605
 21
-28.5576275947
 31
0.0
  0
LINE
  5
1DD
330
1F
100
AcDbEntity
  8
0
  6
Continuous
 62
     7
370
    15
100
AcDbLine
 10
34.7685160605
 20
-27.8576275947
 30
0.0
 11
34.6610408075
 21
-27.8576275947
 31
0.0
  0
SPLINE
  5
1DE
330
1F
100
AcDbEntity
  8
0
  6
Continuous
 62
     7
370
    15
100
AcDbSpline
210
0.0
220
0.0
230
1.0
 70
     8
 71
     3
 72
    12
 73
     8
 74
     0
 42
0.00000001
 43
0.00000001
 12
1.0
 22
0.0
 32
0.0
 13
1.0
 23
0.0
 33
0.0
 40
0.0
 40
0.0
 40
0.0
 40
0.0
 40
0.1818603118647202
 40
0.3964966430179054
 40
0.6005836871108364
 40
0.8002123703305568
 40
1.0
 40
1.0
 40
1.0
 40
1.0
 10
34.76851606053699
 20
-27.85762759466925
 30
0.0
 10
34.80373802110815
 20
-27.85390984307545
 30
0.0
 10
34.88052986746426
 20
-27.84580430310668
 30
0.0
 10
34.98866481049367
 20
-27.77664960409987
 30
0.0
 10
35.07805352289073
 20
-27.66381019714614
 30
0.0
 10
35.1381960852778
 20
-27.51938909640073
 30
0.0
 10
35.1459583107121
 20
-27.41156239834353
 30
0.0
 10
35.14984096790563
 20
-27.35762759466931
 30
0.0
  0
ARC
  5
1DF
330
1F
100
AcDbEntity
  8
0
  6
Continuous
 62
     7
370
    15
100
AcDbCircle
 10
35.3700824659
 20
-22.2253180632
 30
0.0
 40
0.2225987944093326
100
AcDbArc
 50
102.0543608299
 51
188.3457876335
  0
LINE
  5
1E0
330
1F
100
AcDbEntity
  8
0
  6
Continuous
 62
     7
370
    15
100
AcDbLine
 10
35.3235950139
 20
-22.0076275947
 30
0.0
 11
35.8534683086
 21
-22.0076275947
 31
0.0
  0
ARC
  5
1E1
330
1F
100
AcDbEntity
  8
0
  6
Continuous
 62
     7
370
    15
100
AcDbCircle
 10
34.9887575586
 20
-27.8253180632
 30
0.0
 40
0.2225987944100534
100
AcDbArc
 50
102.0543608302
 51
188.3457876333
  0
LINE
  5
1E2
330
1F
100
AcDbEntity
  8
0
  6
Continuous
 62
     7
370
    15
100
AcDbLine
 10
34.7121087311
 20
-27.6076275947
 30
0.0
 11
34.9422701066
 21
-27.6076275947
 31
0.0
  0
LINE
  5
1E3
330
1F
100
AcDbEntity
  8
0
  6
Continuous
 62
     7
370
    15
100
AcDbLine
 10
34.9422701066
 20
-28.8076275947
 30
0.0
 11
34.7121087311
 21
-28.8076275947
 31
0.0
  0
LINE
  5
1E4
330
1F
100
AcDbEntity
  8
0
  6
Continuous
 62
     7
370
    15
100
AcDbLine
 10
40.2473372762
 20
-27.3576275947
 30
0.0
 11
40.2735654132
 21
-27.3576275947
 31
0.0
  0
LINE
  5
1E5
330
1F
100
AcDbEntity
  8
0
  6
Continuous
 62
     7
370
    15
100
AcDbLine
 10
39.5674452643
 20
-28.8076275947
 30
0.0
 11
39.1123672112
 21
-28.8076275947
 31
0.0
  0
LINE
  5
1E6
330
1F
100
AcDbEntity
  8
0
  6
Continuous
 62
     7
370
    15
100
AcDbLine
 10
22.0375710693
 20
-22.2576275947
 30
0.0
 11
22.0375710693
 21
-27.3576275947
 31
0.0
  0
LINE
  5
1E7
330
1F
100
AcDbEntity
  8
0
  6
Continuous
 62
     7
370
    15
100
AcDbLine
 10
22.567444364
 20
-22.2576275947
 30
0.0
 11
22.0375710693
 21
-22.2576275947
 31
0.0
  0
SPLINE
  5
1E8
330
1F
100
AcDbEntity
  8
0
  6
Continuous
 62
     7
370
    15
100
AcDbSpline
210
0.0
220
0.0
230
1.0
 70
     8
 71
     3
 72
    11
 73
     7
 74
     0
 42
0.00000001
 43
0.00000001
 12
1.0
 22
0.0
 32
0.0
 13
1.0
 23
0.0
 33
0.0
 40
0.0
 40
0.0
 40
0.0
 40
0.0
 40
0.0796332959750475
 40
0.4594981978902903
 40
0.8207504115405483
 40
1.0
 40
1.0
 40
1.0
 40
1.0
 10
22.44979926840918
 20
-28.5091369646957
 30
0.0
 10
22.42573610384913
 20
-28.49217423427464
 30
0.0
 10
22.28688738968454
 20
-28.39429628053303
 30
0.0
 10
22.11764209430345
 20
-28.07595520349149
 30
0.0
 10
21.99996887401057
 20
-27.68465653258179
 30
0.0
 10
21.99064528534611
 20
-27.4390721091271
 30
0.0
 10
21.98755325230461
 20
-27.35762759466942
 30
0.0
  0
LINE
  5
1E9
330
1F
100
AcDbEntity
  8
0
  6
Continuous
 62
     7
370
    15
100
AcDbLine
 10
22.9675834601
 20
-22.2576275947
 30
0.0
 11
22.567444364
 21
-22.2576275947
 31
0.0
  0
ARC
  5
1EA
330
1F
100
AcDbEntity
  8
0
  6
Continuous
 62
     7
370
    15
100
AcDbCircle
 10
22.787685862
 20
-22.2253180632
 30
0.0
 40
0.2225987944103128
100
AcDbArc
 50
102.05436083
 51
188.3457876332
  0
ARC
  5
1EB
330
1F
100
AcDbEntity
  8
0
  6
Continuous
 62
     7
370
    15
100
AcDbCircle
 10
22.7287750973
 20
-22.2463777856
 30
0.0
 40
0.239073194568705
100
AcDbArc
 50
357.3028984187
 51
87.0213133886
  0
LINE
  5
1EC
330
1F
100
AcDbEntity
  8
0
  6
Continuous
 62
     7
370
    15
100
AcDbLine
 10
22.2113251153
 20
-22.0076275947
 30
0.0
 11
22.74119841
 21
-22.0076275947
 31
0.0
  0
ARC
  5
1ED
330
1F
100
AcDbEntity
  8
0
  6
Continuous
 62
     7
370
    15
100
AcDbCircle
 10
22.2578125673
 20
-22.2253180632
 30
0.0
 40
0.2225987944092932
100
AcDbArc
 50
102.0543608299
 51
188.3457876335
  0
LINE
  5
1EE
330
1F
100
AcDbEntity
  8
0
  6
Continuous
 62
     7
370
    15
100
AcDbLine
 10
22.74119841
 20
-22.0076275947
 30
0.0
 11
25.4772600068
 21
-22.0076275947
 31
0.0
  0
SPLINE
  5
1EF
330
1F
100
AcDbEntity
  8
0
  6
Continuous
 62
     7
370
    15
100
AcDbSpline
210
0.0
220
0.0
230
1.0
 70
     8
 71
     3
 72
    13
 73
     9
 74
     0
 42
0.00000001
 43
0.00000001
 12
1.0
 22
0.0
 32
0.0
 13
1.0
 23
0.0
 33
0.0
 40
0.0
 40
0.0
 40
0.0
 40
0.0
 40
0.0075462231144489
 40
0.272276378851451
 40
0.4815195415735053
 40
0.6613541616924713
 40
0.830458894939902
 40
1.0
 40
1.0
 40
1.0
 40
1.0
 10
28.30578437602493
 20
-27.6076275946695
 30
0.0
 10
28.30606963144899
 20
-27.60762441062703
 30
0.0
 10
28.31636197408904
 20
-27.60750952672652
 30
0.0
 10
28.3348265732748
 20
-27.59592386711074
 30
0.0
 10
28.35770281835326
 20
-27.55320508783965
 30
0.0
 10
28.37369548268387
 20
-27.49753348473483
 30
0.0
 10
28.38433340837476
 20
-27.4313976913545
 30
0.0
 10
28.38573720626136
 20
-27.38223874195633
 30
0.0
 10
28.38644000965651
 20
-27.35762759466964
 30
0.0
  0
LINE
  5
1F0
330
1F
100
AcDbEntity
  8
0
  6
Continuous
 62
     7
370
    15
100
AcDbLine
 10
34.728304664
 20
-27.6076275947
 30
0.0
 11
28.305784376
 21
-27.6076275947
 31
0.0
  0
SPLINE
  5
1F1
330
1F
100
AcDbEntity
  8
0
  6
Continuous
 62
     7
370
    15
100
AcDbSpline
210
0.0
220
0.0
230
1.0
 70
     8
 71
     3
 72
    13
 73
     9
 74
     0
 42
0.00000001
 43
0.00000001
 12
1.0
 22
0.0
 32
0.0
 13
1.0
 23
0.0
 33
0.0
 40
0.0
 40
0.0
 40
0.0
 40
0.0
 40
0.1695411050600532
 40
0.338645838307783
 40
0.5184804584265551
 40
0.7277236211486968
 40
0.9924537768853559
 40
1.0
 40
1.0
 40
1.0
 40
1.0
 10
28.38644000965673
 20
-26.6576275946695
 30
0.0
 10
28.38573720626158
 20
-26.63301644738281
 30
0.0
 10
28.38433340837521
 20
-26.5838574979842
 30
0.0
 10
28.37369548268287
 20
-26.5177217046042
 30
0.0
 10
28.35770281835348
 20
-26.4620501014996
 30
0.0
 10
28.33482657327302
 20
-26.41933132222718
 30
0.0
 10
28.31636197409315
 20
-26.40774566261683
 30
0.0
 10
28.30606963144899
 20
-26.407630778712
 30
0.0
 10
28.30578437602482
 20
-26.40762759466952
 30
0.0
  0
LINE
  5
1F2
330
1F
100
AcDbEntity
  8
0
  6
Continuous
 62
     7
370
    15
100
AcDbLine
 10
28.305784376
 20
-26.4076275947
 30
0.0
 11
35.0735950139
 21
-26.4076275947
 31
0.0
  0
LINE
  5
1F3
330
1F
100
AcDbEntity
  8
0
  6
Continuous
 62
     7
370
    15
100
AcDbLine
 10
28.3864400097
 20
-27.3576275947
 30
0.0
 11
28.3864400097
 21
-26.6576275947
 31
0.0
  0
SPLINE
  5
1F4
330
1F
100
AcDbEntity
  8
0
  6
Continuous
 62
     7
370
    15
100
AcDbSpline
210
0.0
220
0.0
230
1.0
 70
     8
 71
     3
 72
    12
 73
     8
 74
     0
 42
0.00000001
 43
0.00000001
 12
1.0
 22
0.0
 32
0.0
 13
1.0
 23
0.0
 33
0.0
 40
0.0
 40
0.0
 40
0.0
 40
0.0
 40
0.2028202020467352
 40
0.4049472449427161
 40
0.6098312030741089
 40
0.8226939241826788
 40
1.0
 40
1.0
 40
1.0
 40
1.0
 10
27.18410919681869
 20
-27.85762759466914
 30
0.0
 10
27.19356086174152
 20
-27.70048675413372
 30
0.0
 10
27.21243188953859
 20
-27.3867421182411
 30
0.0
 10
27.35877799814468
 20
-26.96634586777202
 30
0.0
 10
27.57541463215818
 20
-26.63926733233202
 30
0.0
 10
27.83464269255342
 20
-26.44105806606634
 30
0.0
 10
28.01642500543744
 20
-26.41807286014441
 30
0.0
 10
28.09903311968032
 20
-26.40762759466952
 30
0.0
  0
LINE
  5
1F5
330
1F
100
AcDbEntity
  8
0
  6
Continuous
 62
     7
370
    15
100
AcDbLine
 10
27.1841091968
 20
-27.8576275947
 30
0.0
 11
22.4883006253
 21
-27.8576275947
 31
0.0
  0
SPLINE
  5
1F6
330
1F
100
AcDbEntity
  8
0
  6
Continuous
 62
     7
370
    15
100
AcDbSpline
210
0.0
220
0.0
230
1.0
 70
     8
 71
     3
 72
    12
 73
     8
 74
     0
 42
0.00000001
 43
0.00000001
 12
1.0
 22
0.0
 32
0.0
 13
1.0
 23
0.0
 33
0.0
 40
0.0
 40
0.0
 40
0.0
 40
0.0
 40
0.2289440738515639
 40
0.4594214300241449
 40
0.682535569815746
 40
0.8947175231628691
 40
0.9999999999999999
 40
0.9999999999999999
 40
0.9999999999999999
 40
0.9999999999999999
 10
23.51831789549996
 20
-26.40762759466952
 30
0.0
 10
23.39650698113582
 20
-26.42496207924705
 30
0.0
 10
23.1520693613787
 20
-26.45974714076626
 30
0.0
 10
22.83212959998604
 20
-26.7336169865785
 30
0.0
 10
22.6026831094922
 20
-27.13065352106137
 30
0.0
 10
22.4999369001202
 20
-27.53152951041404
 30
0.0
 10
22.49119856686499
 20
-27.77641490350113
 30
0.0
 10
22.48830062529716
 20
-27.85762759466937
 30
0.0
  0
LINE
  5
1F7
330
1F
100
AcDbEntity
  8
0
  6
Continuous
 62
     7
370
    15
100
AcDbLine
 10
23.5183178955
 20
-26.4076275947
 30
0.0
 11
28.0990331197
 21
-26.4076275947
 31
0.0
  0
LINE
  5
1F8
330
1F
100
AcDbEntity
  8
0
  6
Continuous
 62
     7
370
    15
100
AcDbLine
 10
27.1841091968
 20
-32.9576275947
 30
0.0
 11
27.1841091968
 21
-27.8576275947
 31
0.0
  0
LINE
  5
1F9
330
1F
100
AcDbEntity
  8
0
  6
Continuous
 62
     7
370
    15
100
AcDbLine
 10
22.4883006253
 20
-32.9576275947
 30
0.0
 11
27.1841091968
 21
-32.9576275947
 31
0.0
  0
LINE
  5
1FA
330
1F
100
AcDbEntity
  8
0
  6
Continuous
 62
     7
370
    15
100
AcDbLine
 10
22.4883006253
 20
-27.8576275947
 30
0.0
 11
22.4883006253
 21
-32.9576275947
 31
0.0
  0
LINE
  5
1FB
330
1F
100
AcDbEntity
  8
0
  6
Continuous
 62
     7
370
    15
100
AcDbLine
 10
27.2805144926
 20
-33.2076275947
 30
0.0
 11
22.6997992684
 21
-33.2076275947
 31
0.0
  0
ARC
  5
1FC
330
1F
100
AcDbEntity
  8
0
  6
Continuous
 62
     7
370
    15
100
AcDbCircle
 10
22.7208021502
 20
-32.9753959186
 30
0.0
 40
0.2331794853689739
100
AcDbArc
 50
175.6298138039
 51
264.8322658056
  0
LWPOLYLINE
  5
1FD
330
1F
100
AcDbEntity
  8
0
  6
Continuous
 62
     7
370
    15
100
AcDbPolyline
 90
        9
 70
   128
 43
0.0
 10
27.2805144926
 20
-33.2076275947
 10
27.2617067524
 20
-33.2028239148
 10
27.2436217831
 20
-33.1885974778
 10
27.22695458
 20
-33.1654949977
 10
27.2123456542
 20
-33.13440429
 10
27.2003564187
 20
-33.0965201529
 10
27.191447613
 20
-33.0532984528
 10
27.1859615975
 20
-33.0064001752
 10
27.1841091968
 20
-32.9576275947
  0
SPLINE
  5
1FE
330
1F
100
AcDbEntity
  8
0
  6
Continuous
 62
     7
370
    15
100
AcDbSpline
210
0.0
220
0.0
230
1.0
 70
     8
 71
     3
 72
    12
 73
     8
 74
     0
 42
0.00000001
 43
0.00000001
 12
1.0
 22
0.0
 32
0.0
 13
1.0
 23
0.0
 33
0.0
 40
0.0
 40
0.0
 40
0.0
 40
0.0
 40
0.1789601577905369
 40
0.3929009169382449
 40
0.5976976172813706
 40
0.7987833678438543
 40
1.0
 40
1.0
 40
1.0
 40
1.0
 10
28.28989625402134
 20
-26.6576275946695
 30
0.0
 10
28.21532608706157
 20
-26.66623956452352
 30
0.0
 10
28.05160983124
 20
-26.68514685033518
 30
0.0
 10
27.81968006620794
 20
-26.84868287548681
 30
0.0
 10
27.62658458520584
 20
-27.11925518725267
 30
0.0
 10
27.49652351233045
 20
-27.46738530681236
 30
0.0
 10
27.47976140647701
 20
-27.72751862220591
 30
0.0
 10
27.47137762693075
 20
-27.85762759466914
 30
0.0
  0
LINE
  5
1FF
330
1F
100
AcDbEntity
  8
0
  6
Continuous
 62
     7
370
    15
100
AcDbLine
 10
27.4713776269
 20
-27.8576275947
 30
0.0
 11
27.1841091968
 21
-27.8576275947
 31
0.0
  0
ARC
  5
200
330
1F
100
AcDbEntity
  8
0
  6
Continuous
 62
     7
370
    15
100
AcDbCircle
 10
28.0648839582
 20
-26.6315563307
 30
0.0
 40
0.2265176462354664
100
AcDbArc
 50
353.3908406059
 51
81.3291912471
  0
LINE
  5
201
330
1F
100
AcDbEntity
  8
0
  6
Continuous
 62
     7
370
    15
100
AcDbLine
 10
27.4713776269
 20
-32.9576275947
 30
0.0
 11
27.1841091968
 21
-32.9576275947
 31
0.0
  0
ARC
  5
202
330
1F
100
AcDbEntity
  8
0
  6
Continuous
 62
     7
370
    15
100
AcDbCircle
 10
27.2463653312
 20
-32.9836988586
 30
0.0
 40
0.2265176462359095
100
AcDbArc
 50
278.6708087531
 51
6.609159394
  0
LINE
  5
203
330
1F
100
AcDbEntity
  8
0
  6
Continuous
 62
     7
370
    15
100
AcDbLine
 10
27.4713776269
 20
-27.8576275947
 30
0.0
 11
27.4713776269
 21
-32.9576275947
 31
0.0
  0
LINE
  5
204
330
1F
100
AcDbEntity
  8
0
  6
Continuous
 62
     7
370
    15
100
AcDbLine
 10
27.947356575
 20
-32.9576275947
 30
0.0
 11
27.947356575
 21
-27.8576275947
 31
0.0
  0
LINE
  5
205
330
1F
100
AcDbEntity
  8
0
  6
Continuous
 62
     7
370
    15
100
AcDbLine
 10
27.4713776269
 20
-32.9576275947
 30
0.0
 11
27.947356575
 21
-32.9576275947
 31
0.0
  0
LINE
  5
206
330
1F
100
AcDbEntity
  8
0
  6
Continuous
 62
     7
370
    15
100
AcDbLine
 10
28.3864400097
 20
-26.6576275947
 30
0.0
 11
28.289896254
 21
-26.6576275947
 31
0.0
  0
LINE
  5
207
330
1F
100
AcDbEntity
  8
0
  6
Continuous
 62
     7
370
    15
100
AcDbLine
 10
28.289896254
 20
-27.3576275947
 30
0.0
 11
28.3864400097
 21
-27.3576275947
 31
0.0
  0
SPLINE
  5
208
330
1F
100
AcDbEntity
  8
0
  6
Continuous
 62
     7
370
    15
100
AcDbSpline
210
0.0
220
0.0
230
1.0
 70
     8
 71
     3
 72
    12
 73
     8
 74
     0
 42
0.00000001
 43
0.00000001
 12
1.0
 22
0.0
 32
0.0
 13
1.0
 23
0.0
 33
0.0
 40
0.0
 40
0.0
 40
0.0
 40
0.0
 40
0.1818603118645476
 40
0.3964966430181004
 40
0.6005836871110972
 40
0.8002123703308182
 40
1.0
 40
1.0
 40
1.0
 40
1.0
 10
28.28989625402123
 20
-27.35762759466953
 30
0.0
 10
28.25825678113137
 20
-27.36134534626333
 30
0.0
 10
28.18927556879791
 20
-27.36945088623222
 30
0.0
 10
28.09213922138964
 20
-27.43860558523881
 30
0.0
 10
28.01184239246091
 20
-27.55144499219253
 30
0.0
 10
27.95781703608269
 20
-27.69586609293773
 30
0.0
 10
27.95084432027661
 20
-27.80369279099515
 30
0.0
 10
27.94735657498837
 20
-27.85762759466937
 30
0.0
  0
ARC
  5
209
330
1F
100
AcDbEntity
  8
0
  6
Continuous
 62
     7
370
    15
100
AcDbCircle
 10
27.7223442792
 20
-32.9836988586
 30
0.0
 40
0.2265176462362781
100
AcDbArc
 50
278.6708087532
 51
6.6091593939
  0
LINE
  5
20A
330
1F
100
AcDbEntity
  8
0
  6
Continuous
 62
     7
370
    15
100
AcDbLine
 10
27.7564934406
 20
-33.2076275947
 30
0.0
 11
27.2805144926
 21
-33.2076275947
 31
0.0
  0
ARC
  5
20B
330
1F
100
AcDbEntity
  8
0
  6
Continuous
 62
     7
370
    15
100
AcDbCircle
 10
28.0648839582
 20
-27.3836988586
 30
0.0
 40
0.226517646235626
100
AcDbArc
 50
278.670808753
 51
6.609159394
  0
LINE
  5
20C
330
1F
100
AcDbEntity
  8
0
  6
Continuous
 62
     7
370
    15
100
AcDbLine
 10
28.0990331197
 20
-26.4076275947
 30
0.0
 11
28.305784376
 21
-26.4076275947
 31
0.0
  0
LINE
  5
20D
330
1F
100
AcDbEntity
  8
0
  6
Continuous
 62
     7
370
    15
100
AcDbLine
 10
28.305784376
 20
-27.6076275947
 30
0.0
 11
28.0990331197
 21
-27.6076275947
 31
0.0
  0
LINE
  5
20E
330
1F
100
AcDbEntity
  8
0
  6
Continuous
 62
     7
370
    15
100
AcDbLine
 10
22.4883006253
 20
-27.8576275947
 30
0.0
 11
22.4497992684
 21
-27.8576275947
 31
0.0
  0
LINE
  5
20F
330
1F
100
AcDbEntity
  8
0
  6
Continuous
 62
     7
370
    15
100
AcDbLine
 10
22.6674452643
 20
-26.4076275947
 30
0.0
 11
23.5183178955
 21
-26.4076275947
 31
0.0
  0
LINE
  5
210
330
1F
100
AcDbEntity
  8
0
  6
Continuous
 62
     7
370
    15
100
AcDbLine
 10
39.2499754464
 20
-32.9576275947
 30
0.0
 11
39.7259543945
 21
-32.9576275947
 31
0.0
  0
LINE
  5
211
330
1F
100
AcDbEntity
  8
0
  6
Continuous
 62
     7
370
    15
100
AcDbLine
 10
38.8444726621
 20
-32.9576275947
 30
0.0
 11
39.2499754464
 21
-32.9576275947
 31
0.0
  0
ARC
  5
212
330
1F
100
AcDbEntity
  8
0
  6
Continuous
 62
     7
370
    15
100
AcDbCircle
 10
39.0249631506
 20
-32.9836988586
 30
0.0
 40
0.2265176462351962
100
AcDbArc
 50
278.6708087529
 51
6.6091593942
  0
ARC
  5
213
330
1F
100
AcDbEntity
  8
0
  6
Continuous
 62
     7
370
    15
100
AcDbCircle
 10
39.0782488284
 20
-32.9740574153
 30
0.0
 40
0.2343528001292611
100
AcDbArc
 50
175.9798550465
 51
265.316190911
  0
LINE
  5
214
330
1F
100
AcDbEntity
  8
0
  6
Continuous
 62
     7
370
    15
100
AcDbLine
 10
39.0591123121
 20
-33.2076275947
 30
0.0
 11
36.8472333007
 21
-33.2076275947
 31
0.0
  0
LINE
  5
215
330
1F
100
AcDbEntity
  8
0
  6
Continuous
 62
     7
370
    15
100
AcDbLine
 10
39.5350912601
 20
-33.2076275947
 30
0.0
 11
39.0591123121
 21
-33.2076275947
 31
0.0
  0
ARC
  5
216
330
1F
100
AcDbEntity
  8
0
  6
Continuous
 62
     7
370
    15
100
AcDbCircle
 10
39.5009420987
 20
-32.9836988586
 30
0.0
 40
0.226517646236754
100
AcDbArc
 50
278.6708087531
 51
6.6091593938
  0
LINE
  5
217
330
1F
100
AcDbEntity
  8
0
  6
Continuous
 62
     7
370
    15
100
AcDbLine
 10
28.8666740297
 20
-29.2542095821
 30
0.0
 11
31.7315680479
 21
-28.8076275947
 31
0.0
  0
SPLINE
  5
218
330
1F
100
AcDbEntity
  8
0
  6
Continuous
 62
     7
370
    15
100
AcDbSpline
210
0.0
220
0.0
230
1.0
 70
     8
 71
     3
 72
     9
 73
     5
 74
     0
 42
0.00000001
 43
0.00000001
 12
1.0
 22
0.0
 32
0.0
 13
1.0
 23
0.0
 33
0.0
 40
0.0
 40
0.0
 40
0.0
 40
0.0
 40
0.070200576703435
 40
1.0
 40
1.0
 40
1.0
 40
1.0
 10
31.73156804790267
 20
-28.80762759466948
 30
0.0
 10
31.79948298753432
 20
-28.80807371093697
 30
0.0
 10
32.76692432236216
 20
-28.81442859131766
 30
0.0
 10
33.7149698661936
 20
-29.04231807321311
 30
0.0
 10
34.59646206610712
 20
-29.25420958205482
 30
0.0
  0
LINE
  5
219
330
1F
100
AcDbEntity
  8
0
  6
Continuous
 62
     7
370
    15
100
AcDbLine
 10
34.5964620661
 20
-29.2542095821
 30
0.0
 11
34.5964620661
 21
-33.5610456073
 31
0.0
  0
SPLINE
  5
21A
330
1F
100
AcDbEntity
  8
0
  6
Continuous
 62
     7
370
    15
100
AcDbSpline
210
0.0
220
0.0
230
1.0
 70
     8
 71
     3
 72
     9
 73
     5
 74
     0
 42
0.00000001
 43
0.00000001
 12
1.0
 22
0.0
 32
0.0
 13
1.0
 23
0.0
 33
0.0
 40
0.0
 40
0.0
 40
0.0
 40
0.0
 40
0.070200576703362
 40
1.0
 40
1.0
 40
1.0
 40
1.0
 10
31.73156804790289
 20
-34.00762759466947
 30
0.0
 10
31.79948298753443
 20
-34.00718147840187
 30
0.0
 10
32.76692432236228
 20
-34.00082659802139
 30
0.0
 10
33.71496986619371
 20
-33.77293711612595
 30
0.0
 10
34.596462066107
 20
-33.56104560728434
 30
0.0
  0
LINE
  5
21B
330
1F
100
AcDbEntity
  8
0
  6
Continuous
 62
     7
370
    15
100
AcDbLine
 10
28.8666740297
 20
-33.5610456073
 30
0.0
 11
31.7315680479
 21
-34.0076275947
 31
0.0
  0
LINE
  5
21C
330
1F
100
AcDbEntity
  8
0
  6
Continuous
 62
     7
370
    15
100
AcDbLine
 10
28.8666740297
 20
-29.2542095821
 30
0.0
 11
28.8666740297
 21
-33.5610456073
 31
0.0
  0
SPLINE
  5
21D
330
1F
100
AcDbEntity
  8
0
  6
Continuous
 62
     7
370
    15
100
AcDbSpline
210
0.0
220
0.0
230
1.0
 70
     8
 71
     3
 72
     9
 73
     5
 74
     0
 42
0.00000001
 43
0.00000001
 12
1.0
 22
0.0
 32
0.0
 13
1.0
 23
0.0
 33
0.0
 40
0.0
 40
0.0
 40
0.0
 40
0.0
 40
0.5174000252722202
 40
1.0
 40
1.0
 40
1.0
 40
1.0
 10
28.86667402969822
 20
-29.25420958205482
 30
0.0
 10
28.72113182216529
 20
-29.18245830637534
 30
0.0
 10
28.43983649857829
 20
-29.04378170766098
 30
0.0
 10
28.14755060533847
 20
-29.00185909505182
 30
0.0
 10
28.00649344064754
 20
-28.98162724326625
 30
0.0
  0
SPLINE
  5
21E
330
1F
100
AcDbEntity
  8
0
  6
Continuous
 62
     7
370
    15
100
AcDbSpline
210
0.0
220
0.0
230
1.0
 70
     8
 71
     3
 72
     9
 73
     5
 74
     0
 42
0.00000001
 43
0.00000001
 12
1.0
 22
0.0
 32
0.0
 13
1.0
 23
0.0
 33
0.0
 40
0.0
 40
0.0
 40
0.0
 40
0.0
 40
0.2575513451038181
 40
1.0
 40
1.0
 40
1.0
 40
1.0
 10
28.86667402969822
 20
-33.56104560728446
 30
0.0
 10
28.72063927717172
 20
-33.62846083005944
 30
0.0
 10
28.15362708600033
 20
-33.8902153270032
 30
0.0
 10
27.56453572062046
 20
-33.95759881479577
 30
0.0
 10
27.12716562878292
 20
-34.00762759466969
 30
0.0
  0
LINE
  5
21F
330
1F
100
AcDbEntity
  8
0
  6
Continuous
 62
     7
370
    15
100
AcDbLine
 10
31.7315680479
 20
-34.0076275947
 30
0.0
 11
27.1271656288
 21
-34.0076275947
 31
0.0
  0
LINE
  5
220
330
1F
100
AcDbEntity
  8
0
  6
Continuous
 62
     7
370
    15
100
AcDbLine
 10
34.5964620661
 20
-29.2542095821
 30
0.0
 11
35.7218476834
 21
-28.8076275947
 31
0.0
  0
LINE
  5
221
330
1F
100
AcDbEntity
  8
0
  6
Continuous
 62
     7
370
    15
100
AcDbLine
 10
34.5964620661
 20
-33.5610456073
 30
0.0
 11
35.7218476834
 21
-34.0076275947
 31
0.0
  0
LINE
  5
222
330
1F
100
AcDbEntity
  8
0
  6
Continuous
 62
     7
370
    15
100
AcDbLine
 10
35.7218476834
 20
-34.0076275947
 30
0.0
 11
31.7315680479
 21
-34.0076275947
 31
0.0
  0
SPLINE
  5
223
330
1F
100
AcDbEntity
  8
0
  6
Continuous
 62
     7
370
    15
100
AcDbSpline
210
0.0
220
0.0
230
1.0
 70
     8
 71
     3
 72
     9
 73
     5
 74
     0
 42
0.00000001
 43
0.00000001
 12
1.0
 22
0.0
 32
0.0
 13
1.0
 23
0.0
 33
0.0
 40
0.0
 40
0.0
 40
0.0
 40
0.0
 40
0.2686336050555451
 40
1.0
 40
1.0
 40
1.0
 40
1.0
 10
27.12716562878292
 20
-34.00762759466969
 30
0.0
 10
26.96899564049482
 20
-34.00099864208516
 30
0.0
 10
26.38020114378459
 20
-33.97632208464885
 30
0.0
 10
25.8069291207077
 20
-33.73646732104874
 30
0.0
 10
25.38765722786729
 20
-33.56104560728446
 30
0.0
  0
LINE
  5
224
330
1F
100
AcDbEntity
  8
0
  6
Continuous
 62
     7
370
    15
100
AcDbLine
 10
25.3876572279
 20
-33.2076275947
 30
0.0
 11
25.3876572279
 21
-33.5610456073
 31
0.0
  0
LINE
  5
225
330
1F
100
AcDbEntity
  8
0
  6
Continuous
 62
     7
370
    15
100
AcDbLine
 10
36.8472333007
 20
-29.2542095821
 30
0.0
 11
36.8472333007
 21
-33.5610456073
 31
0.0
  0
SPLINE
  5
226
330
1F
100
AcDbEntity
  8
0
  6
Continuous
 62
     7
370
    15
100
AcDbSpline
210
0.0
220
0.0
230
1.0
 70
     8
 71
     3
 72
     9
 73
     5
 74
     0
 42
0.00000001
 43
0.00000001
 12
1.0
 22
0.0
 32
0.0
 13
1.0
 23
0.0
 33
0.0
 40
0.0
 40
0.0
 40
0.0
 40
0.0
 40
0.0702005767034228
 40
1.0
 40
1.0
 40
1.0
 40
1.0
 10
35.72184768339637
 20
-34.00762759466947
 30
0.0
 10
35.74852598136302
 20
-34.00718147840187
 30
0.0
 10
36.12855559393002
 20
-34.00082659802139
 30
0.0
 10
36.50096616576426
 20
-33.77293711612617
 30
0.0
 10
36.84723330068529
 20
-33.56104560728446
 30
0.0
  0
LINE
  5
227
330
1F
100
AcDbEntity
  8
0
  6
Continuous
 62
     7
370
    15
100
AcDbLine
 10
25.6864080924
 20
-33.6879752511
 30
0.0
 11
25.3876572279
 21
-33.5610456073
 31
0.0
  0
LINE
  5
228
330
1F
100
AcDbEntity
  8
0
  6
Continuous
 62
     7
370
    15
100
AcDbLine
 10
27.1271656288
 20
-34.0076275947
 30
0.0
 11
26.1174452643
 21
-34.0076275947
 31
0.0
  0
LINE
  5
229
330
1F
100
AcDbEntity
  8
0
  6
Continuous
 62
     7
370
    15
100
AcDbLine
 10
36.1174452643
 20
-34.0076275947
 30
0.0
 11
35.7218476834
 21
-34.0076275947
 31
0.0
  0
LINE
  5
22A
330
1F
100
AcDbEntity
  8
0
  6
Continuous
 62
     7
370
    15
100
AcDbLine
 10
30.0409258522
 20
-16.2042095821
 30
0.0
 11
31.2405763693
 21
-16.0076275947
 31
0.0
  0
LINE
  5
22B
330
1F
100
AcDbEntity
  8
0
  6
Continuous
 62
     7
370
    15
100
AcDbLine
 10
34.3710284269
 20
-16.0076275947
 30
0.0
 11
35.4914996226
 21
-16.2042095821
 31
0.0
  0
LINE
  5
22C
330
1F
100
AcDbEntity
  8
0
  6
Continuous
 62
     7
370
    15
100
AcDbLine
 10
35.4914996226
 20
-16.2042095821
 30
0.0
 11
35.4914996226
 21
-20.5110456073
 31
0.0
  0
SPLINE
  5
22D
330
1F
100
AcDbEntity
  8
0
  6
Continuous
 62
     7
370
    15
100
AcDbSpline
210
0.0
220
0.0
230
1.0
 70
     8
 71
     3
 72
     9
 73
     5
 74
     0
 42
0.00000001
 43
0.00000001
 12
1.0
 22
0.0
 32
0.0
 13
1.0
 23
0.0
 33
0.0
 40
0.0
 40
0.0
 40
0.0
 40
0.0
 40
0.0702005767034192
 40
1.0
 40
1.0
 40
1.0
 40
1.0
 10
32.76621273739288
 20
-20.95762759466946
 30
0.0
 10
32.83081816192512
 20
-20.95718147840186
 30
0.0
 10
33.75111579430923
 20
-20.95082659802172
 30
0.0
 10
34.65296279833097
 20
-20.72293711612616
 30
0.0
 10
35.49149962257226
 20
-20.51104560728434
 30
0.0
  0
LINE
  5
22E
330
1F
100
AcDbEntity
  8
0
  6
Continuous
 62
     7
370
    15
100
AcDbLine
 10
30.0409258522
 20
-20.5110456073
 30
0.0
 11
32.7662127374
 21
-20.9576275947
 31
0.0
  0
LINE
  5
22F
330
1F
100
AcDbEntity
  8
0
  6
Continuous
 62
     7
370
    15
100
AcDbLine
 10
30.0409258522
 20
-16.2042095821
 30
0.0
 11
30.0409258522
 21
-20.5110456073
 31
0.0
  0
LINE
  5
230
330
1F
100
AcDbEntity
  8
0
  6
Continuous
 62
     7
370
    15
100
AcDbLine
 10
29.1417541093
 20
-16.0076275947
 30
0.0
 11
30.0409258522
 21
-16.2042095821
 31
0.0
  0
SPLINE
  5
231
330
1F
100
AcDbEntity
  8
0
  6
Continuous
 62
     7
370
    15
100
AcDbSpline
210
0.0
220
0.0
230
1.0
 70
     8
 71
     3
 72
     9
 73
     5
 74
     0
 42
0.00000001
 43
0.00000001
 12
1.0
 22
0.0
 32
0.0
 13
1.0
 23
0.0
 33
0.0
 40
0.0
 40
0.0
 40
0.0
 40
0.0
 40
0.0702005767033865
 40
1.0
 40
1.0
 40
1.0
 40
1.0
 10
27.85389867306565
 20
-20.95762759466946
 30
0.0
 10
27.90574415771563
 20
-20.95718147840186
 30
0.0
 10
28.64427775792944
 20
-20.95082659802227
 30
0.0
 10
29.36800483413393
 20
-20.7229371161265
 30
0.0
 10
30.04092585221319
 20
-20.51104560728423
 30
0.0
  0
LINE
  5
232
330
1F
100
AcDbEntity
  8
0
  6
Continuous
 62
     7
370
    15
100
AcDbLine
 10
32.7662127374
 20
-20.9576275947
 30
0.0
 11
27.8538986731
 21
-20.9576275947
 31
0.0
  0
LINE
  5
233
330
1F
100
AcDbEntity
  8
0
  6
Continuous
 62
     7
370
    15
100
AcDbLine
 10
25.6668714939
 20
-16.2042095821
 30
0.0
 11
26.6295841906
 21
-16.0076275947
 31
0.0
  0
LINE
  5
234
330
1F
100
AcDbEntity
  8
0
  6
Continuous
 62
     7
370
    15
100
AcDbLine
 10
25.6668714939
 20
-20.5110456073
 30
0.0
 11
27.8538986731
 21
-20.9576275947
 31
0.0
  0
LINE
  5
235
330
1F
100
AcDbEntity
  8
0
  6
Continuous
 62
     7
370
    15
100
AcDbLine
 10
25.6668714939
 20
-16.2042095821
 30
0.0
 11
25.6668714939
 21
-20.5110456073
 31
0.0
  0
SPLINE
  5
236
330
1F
100
AcDbEntity
  8
0
  6
Continuous
 62
     7
370
    15
100
AcDbSpline
210
0.0
220
0.0
230
1.0
 70
     8
 71
     3
 72
     9
 73
     5
 74
     0
 42
0.00000001
 43
0.00000001
 12
1.0
 22
0.0
 32
0.0
 13
1.0
 23
0.0
 33
0.0
 40
0.0
 40
0.0
 40
0.0
 40
0.0
 40
0.2575513451037897
 40
1.0
 40
1.0
 40
1.0
 40
1.0
 10
35.49149962257226
 20
-20.51104560728434
 30
0.0
 10
35.53668746008076
 20
-20.5784608300591
 30
0.0
 10
35.71213922287531
 20
-20.84021532700298
 30
0.0
 10
35.89442299051249
 20
-20.90759881479553
 30
0.0
 10
36.02975932860397
 20
-20.95762759466946
 30
0.0
  0
LINE
  5
237
330
1F
100
AcDbEntity
  8
0
  6
Continuous
 62
     7
370
    15
100
AcDbLine
 10
36.0297593286
 20
-20.9576275947
 30
0.0
 11
32.7662127374
 21
-20.9576275947
 31
0.0
  0
SPLINE
  5
238
330
1F
100
AcDbEntity
  8
0
  6
Continuous
 62
     7
370
    15
100
AcDbSpline
210
0.0
220
0.0
230
1.0
 70
     8
 71
     3
 72
     9
 73
     5
 74
     0
 42
0.00000001
 43
0.00000001
 12
1.0
 22
0.0
 32
0.0
 13
1.0
 23
0.0
 33
0.0
 40
0.0
 40
0.0
 40
0.0
 40
0.0
 40
0.9250528693232799
 40
0.9999999999999999
 40
0.9999999999999999
 40
0.9999999999999999
 40
0.9999999999999999
 10
35.49149962257236
 20
-16.20420958205471
 30
0.0
 10
35.536295949959
 20
-16.12565586928971
 30
0.0
 10
35.58472164417847
 20
-16.04073779015081
 30
0.0
 10
35.63504949133878
 20
-16.00993609345513
 30
0.0
 10
35.63882141907659
 20
-16.00762759466778
 30
0.0
  0
SPLINE
  5
239
330
1F
100
AcDbEntity
  8
0
  6
Continuous
 62
     7
370
    15
100
AcDbSpline
210
0.0
220
0.0
230
1.0
 70
     8
 71
     3
 72
     9
 73
     5
 74
     0
 42
0.00000001
 43
0.00000001
 12
1.0
 22
0.0
 32
0.0
 13
1.0
 23
0.0
 33
0.0
 40
0.0
 40
0.0
 40
0.0
 40
0.0
 40
0.2575513451038144
 40
0.9999999999999999
 40
0.9999999999999999
 40
0.9999999999999999
 40
0.9999999999999999
 10
25.66687149391766
 20
-20.51104560728445
 30
0.0
 10
25.71205933142629
 20
-20.57846083005921
 30
0.0
 10
25.88751109422049
 20
-20.84021532700309
 30
0.0
 10
26.06979486185768
 20
-20.90759881479576
 30
0.0
 10
26.20513119994927
 20
-20.95762759466968
 30
0.0
  0
LINE
  5
23A
330
1F
100
AcDbEntity
  8
0
  6
Continuous
 62
     7
370
    15
100
AcDbLine
 10
27.8538986731
 20
-20.9576275947
 30
0.0
 11
26.1254680517
 21
-20.9576275947
 31
0.0
  0
SPLINE
  5
23B
330
1F
100
AcDbEntity
  8
0
  6
Continuous
 62
     7
370
    15
100
AcDbSpline
210
0.0
220
0.0
230
1.0
 70
     8
 71
     3
 72
     9
 73
     5
 74
     0
 42
0.00000001
 43
0.00000001
 12
1.0
 22
0.0
 32
0.0
 13
1.0
 23
0.0
 33
0.0
 40
0.0
 40
0.0
 40
0.0
 40
0.0
 40
0.9250528693211274
 40
1.0
 40
1.0
 40
1.0
 40
1.0
 10
25.66687149391755
 20
-16.20420958205493
 30
0.0
 10
25.71166782130352
 20
-16.12565586929027
 30
0.0
 10
25.76009351552233
 20
-16.04073779015136
 30
0.0
 10
25.81042136268441
 20
-16.00993609345525
 30
0.0
 10
25.81419329042234
 20
-16.00762759466778
 30
0.0
  0
LINE
  5
23C
330
1F
100
AcDbEntity
  8
0
  6
Continuous
 62
     7
370
    15
100
AcDbLine
 10
36.3807072113
 20
-16.0076275947
 30
0.0
 11
36.5680190346
 21
-16.2042095821
 31
0.0
  0
LINE
  5
23D
330
1F
100
AcDbEntity
  8
0
  6
Continuous
 62
     7
370
    15
100
AcDbLine
 10
36.5680190346
 20
-16.2042095821
 30
0.0
 11
36.5680190346
 21
-20.5110456073
 31
0.0
  0
SPLINE
  5
23E
330
1F
100
AcDbEntity
  8
0
  6
Continuous
 62
     7
370
    15
100
AcDbSpline
210
0.0
220
0.0
230
1.0
 70
     8
 71
     3
 72
     9
 73
     5
 74
     0
 42
0.00000001
 43
0.00000001
 12
1.0
 22
0.0
 32
0.0
 13
1.0
 23
0.0
 33
0.0
 40
0.0
 40
0.0
 40
0.0
 40
0.0
 40
0.268633605055569
 40
1.0
 40
1.0
 40
1.0
 40
1.0
 10
36.02975932860397
 20
-20.95762759466946
 30
0.0
 10
36.07870219737885
 20
-20.95099864208494
 30
0.0
 10
36.26089410432509
 20
-20.92632208464862
 30
0.0
 10
36.43828285993867
 20
-20.68646732104873
 30
0.0
 10
36.56801903463558
 20
-20.51104560728434
 30
0.0
  0
LINE
  5
23F
330
1F
100
AcDbEntity
  8
0
  6
Continuous
 62
     7
370
    15
100
AcDbLine
 10
36.5680190346
 20
-20.5110456073
 30
0.0
 11
34.3809918555
 21
-20.9576275947
 31
0.0
  0
LINE
  5
240
330
1F
100
AcDbEntity
  8
0
  6
Continuous
 62
     7
370
    15
100
AcDbLine
 10
27.2290677033
 20
-21.6542095821
 30
0.0
 11
30.0491603321
 21
-21.2076275947
 31
0.0
  0
SPLINE
  5
241
330
1F
100
AcDbEntity
  8
0
  6
Continuous
 62
     7
370
    15
100
AcDbSpline
210
0.0
220
0.0
230
1.0
 70
     8
 71
     3
 72
     9
 73
     5
 74
     0
 42
0.00000001
 43
0.00000001
 12
1.0
 22
0.0
 32
0.0
 13
1.0
 23
0.0
 33
0.0
 40
0.0
 40
0.0
 40
0.0
 40
0.0
 40
0.0702005767034112
 40
1.0
 40
1.0
 40
1.0
 40
1.0
 10
30.04916033206295
 20
-21.20762759466954
 30
0.0
 10
30.11601321367663
 20
-21.20807371093714
 30
0.0
 10
31.06832564119621
 20
-21.21442859131772
 30
0.0
 10
32.00154559029633
 20
-21.44231807321306
 30
0.0
 10
32.86925296077836
 20
-21.65420958205477
 30
0.0
  0
LINE
  5
242
330
1F
100
AcDbEntity
  8
0
  6
Continuous
 62
     7
370
    15
100
AcDbLine
 10
32.8692529608
 20
-21.6542095821
 30
0.0
 11
32.8692529608
 21
-25.9610456073
 31
0.0
  0
SPLINE
  5
243
330
1F
100
AcDbEntity
  8
0
  6
Continuous
 62
     7
370
    15
100
AcDbSpline
210
0.0
220
0.0
230
1.0
 70
     8
 71
     3
 72
     9
 73
     5
 74
     0
 42
0.00000001
 43
0.00000001
 12
1.0
 22
0.0
 32
0.0
 13
1.0
 23
0.0
 33
0.0
 40
0.0
 40
0.0
 40
0.0
 40
0.0
 40
0.0702005767033833
 40
1.0
 40
1.0
 40
1.0
 40
1.0
 10
30.04916033206306
 20
-26.40762759466952
 30
0.0
 10
30.11601321367674
 20
-26.40718147840193
 30
0.0
 10
31.06832564119599
 20
-26.40082659802179
 30
0.0
 10
32.001545590296
 20
-26.17293711612623
 30
0.0
 10
32.86925296077814
 20
-25.9610456072844
 30
0.0
  0
LINE
  5
244
330
1F
100
AcDbEntity
  8
0
  6
Continuous
 62
     7
370
    15
100
AcDbLine
 10
27.2290677033
 20
-25.9610456073
 30
0.0
 11
30.0491603321
 21
-26.4076275947
 31
0.0
  0
LINE
  5
245
330
1F
100
AcDbEntity
  8
0
  6
Continuous
 62
     7
370
    15
100
AcDbLine
 10
27.2290677033
 20
-21.6542095821
 30
0.0
 11
27.2290677033
 21
-25.9610456073
 31
0.0
  0
LINE
  5
246
330
1F
100
AcDbEntity
  8
0
  6
Continuous
 62
     7
370
    15
100
AcDbLine
 10
32.8692529608
 20
-21.6542095821
 30
0.0
 11
34.8134417412
 21
-21.2076275947
 31
0.0
  0
LINE
  5
247
330
1F
100
AcDbEntity
  8
0
  6
Continuous
 62
     7
370
    15
100
AcDbLine
 10
30.0491603321
 20
-21.2076275947
 30
0.0
 11
34.8134417412
 21
-21.2076275947
 31
0.0
  0
LINE
  5
248
330
1F
100
AcDbEntity
  8
0
  6
Continuous
 62
     7
370
    15
100
AcDbLine
 10
32.8692529608
 20
-25.9610456073
 30
0.0
 11
34.8134417412
 21
-26.4076275947
 31
0.0
  0
SPLINE
  5
249
330
1F
100
AcDbEntity
  8
0
  6
Continuous
 62
     7
370
    15
100
AcDbSpline
210
0.0
220
0.0
230
1.0
 70
     8
 71
     3
 72
     9
 73
     5
 74
     0
 42
0.00000001
 43
0.00000001
 12
1.0
 22
0.0
 32
0.0
 13
1.0
 23
0.0
 33
0.0
 40
0.0
 40
0.0
 40
0.0
 40
0.0
 40
0.2575513451038151
 40
1.0
 40
1.0
 40
1.0
 40
1.0
 10
27.22906770334743
 20
-25.96104560728452
 30
0.0
 10
27.15553405346738
 20
-26.02846083005939
 30
0.0
 10
26.87002341150058
 20
-26.29021532700315
 30
0.0
 10
26.5733951263849
 20
-26.35759881479582
 30
0.0
 10
26.35316385509656
 20
-26.40762759466975
 30
0.0
  0
SPLINE
  5
24A
330
1F
100
AcDbEntity
  8
0
  6
Continuous
 62
     7
370
    15
100
AcDbSpline
210
0.0
220
0.0
230
1.0
 70
     8
 71
     3
 72
     9
 73
     5
 74
     0
 42
0.00000001
 43
0.00000001
 12
1.0
 22
0.0
 32
0.0
 13
1.0
 23
0.0
 33
0.0
 40
0.0
 40
0.0
 40
0.0
 40
0.0
 40
0.2575513451038181
 40
1.0
 40
1.0
 40
1.0
 40
1.0
 10
27.22906770334754
 20
-21.65420958205488
 30
0.0
 10
27.15553405346749
 20
-21.58679435928013
 30
0.0
 10
26.87002341150058
 20
-21.32503986233614
 30
0.0
 10
26.5733951263849
 20
-21.25765637454336
 30
0.0
 10
26.35316385509656
 20
-21.20762759466977
 30
0.0
  0
LINE
  5
24B
330
1F
100
AcDbEntity
  8
0
  6
Continuous
 62
     7
370
    15
100
AcDbLine
 10
26.3531638551
 20
-21.2076275947
 30
0.0
 11
30.0491603321
 21
-21.2076275947
 31
0.0
  0
SPLINE
  5
24C
330
1F
100
AcDbEntity
  8
0
  6
Continuous
 62
     7
370
    15
100
AcDbSpline
210
0.0
220
0.0
230
1.0
 70
     8
 71
     3
 72
     9
 73
     5
 74
     0
 42
0.00000001
 43
0.00000001
 12
1.0
 22
0.0
 32
0.0
 13
1.0
 23
0.0
 33
0.0
 40
0.0
 40
0.0
 40
0.0
 40
0.0
 40
0.0702005767034755
 40
1.0
 40
1.0
 40
1.0
 40
1.0
 10
34.81344174124279
 20
-21.20762759466954
 30
0.0
 10
34.85953051898427
 20
-21.20807371093703
 30
0.0
 10
35.51606042095601
 20
-21.2144285913175
 30
0.0
 10
36.1594278537386
 20
-21.44231807321295
 30
0.0
 10
36.75763052170744
 20
-21.65420958205477
 30
0.0
  0
LINE
  5
24D
330
1F
100
AcDbEntity
  8
0
  6
Continuous
 62
     7
370
    15
100
AcDbLine
 10
36.7576305217
 20
-21.6542095821
 30
0.0
 11
36.7576305217
 21
-22.0076275947
 31
0.0
  0
SPLINE
  5
24E
330
1F
100
AcDbEntity
  8
0
  6
Continuous
 62
     7
370
    15
100
AcDbSpline
210
0.0
220
0.0
230
1.0
 70
     8
 71
     3
 72
     9
 73
     5
 74
     0
 42
0.00000001
 43
0.00000001
 12
1.0
 22
0.0
 32
0.0
 13
1.0
 23
0.0
 33
0.0
 40
0.0
 40
0.0
 40
0.0
 40
0.0
 40
0.5278771639354763
 40
1.0
 40
1.0
 40
1.0
 40
1.0
 10
34.8134417412429
 20
-26.40762759466952
 30
0.0
 10
34.85967148534541
 20
-26.40955405198164
 30
0.0
 10
34.94724819307382
 20
-26.4132034943968
 30
0.0
 10
35.03307446909043
 20
-26.38739180863936
 30
0.0
 10
35.07359501393215
 20
-26.37520552235595
 30
0.0
  0
LINE
  5
24F
330
1F
100
AcDbEntity
  8
0
  6
Continuous
 62
     7
370
    15
100
AcDbLine
 10
25.8811833899
 20
-26.2215487461
 30
0.0
 11
25.4772600068
 21
-25.9610456073
 31
0.0
  0
LINE
  5
250
330
1F
100
AcDbEntity
  8
0
  6
Continuous
 62
     7
370
    15
100
AcDbLine
 10
25.4772600068
 20
-21.6542095821
 30
0.0
 11
25.4772600068
 21
-25.9610456073
 31
0.0
  0
SPLINE
  5
251
330
1F
100
AcDbEntity
  8
0
  6
Continuous
 62
     7
370
    15
100
AcDbSpline
210
0.0
220
0.0
230
1.0
 70
     8
 71
     3
 72
     9
 73
     5
 74
     0
 42
0.00000001
 43
0.00000001
 12
1.0
 22
0.0
 32
0.0
 13
1.0
 23
0.0
 33
0.0
 40
0.0
 40
0.0
 40
0.0
 40
0.0
 40
0.2686336050555536
 40
1.0
 40
1.0
 40
1.0
 40
1.0
 10
26.35316385509656
 20
-21.20762759466977
 30
0.0
 10
26.27351968588965
 20
-21.21425654725428
 30
0.0
 10
25.9770408846226
 20
-21.23893310469061
 30
0.0
 10
25.68837819644976
 20
-21.4787878682905
 30
0.0
 10
25.4772600068458
 20
-21.65420958205477
 30
0.0
  0
SPLINE
  5
252
330
1F
100
AcDbEntity
  8
0
  6
Continuous
 62
     7
370
    15
100
AcDbSpline
210
0.0
220
0.0
230
1.0
 70
     8
 71
     3
 72
     9
 73
     5
 74
     0
 42
0.00000001
 43
0.00000001
 12
1.0
 22
0.0
 32
0.0
 13
1.0
 23
0.0
 33
0.0
 40
0.0
 40
0.0
 40
0.0
 40
0.0
 40
0.5569342110492684
 40
1.0
 40
1.0
 40
1.0
 40
1.0
 10
36.75763052170744
 20
-21.65420958205477
 30
0.0
 10
36.6843826191956
 20
-21.58179860581044
 30
0.0
 10
36.5528627716829
 20
-21.45178149641447
 30
0.0
 10
36.41620162760329
 20
-21.41165025479786
 30
0.0
 10
36.35565174998268
 20
-21.39386947456945
 30
0.0
  0
LINE
  5
253
330
1F
100
AcDbEntity
  8
0
  6
Continuous
 62
     7
370
    15
100
AcDbLine
 10
34.8134417412
 20
-21.2076275947
 30
0.0
 11
36.1174452643
 21
-21.2076275947
 31
0.0
  0
LINE
  5
254
330
1F
100
AcDbEntity
  8
0
  6
Continuous
 62
     7
370
    15
100
AcDbLine
 10
26.3531638551
 20
-21.2076275947
 30
0.0
 11
26.1174452643
 21
-21.2076275947
 31
0.0
  0
LINE
  5
255
330
1F
100
AcDbEntity
  8
0
  6
Continuous
 62
     7
370
    15
100
AcDbLine
 10
816.4153531968
 20
652.1181518357
 30
0.0
 11
800.3556900491
 21
644.6294079225
 31
0.0
  0
SPLINE
  5
256
330
1F
100
AcDbEntity
  8
0
  6
Continuous
 62
     7
370
    15
100
AcDbSpline
210
0.0
220
0.0
230
1.0
 70
     8
 71
     3
 72
    14
 73
    10
 74
     0
 42
0.00000001
 43
0.00000001
 12
1.0
 22
0.0
 32
0.0
 13
1.0
 23
0.0
 33
0.0
 40
0.0
 40
0.0
 40
0.0
 40
0.0
 40
0.1424979789612902
 40
0.2891107491291712
 40
0.4316087267218846
 40
0.5782214232939503
 40
0.7209671108987268
 40
0.8678498166738055
 40
1.0
 40
1.0
 40
1.0
 40
1.0
 10
800.3556900490646
 20
644.6294079224822
 30
0.0
 10
800.2110729208866
 20
644.5742784518038
 30
0.0
 10
799.9176626804805
 20
644.462427584282
 30
0.0
 10
799.4174485003336
 20
644.4286105052867
 30
0.0
 10
798.8707642920983
 20
644.4841681019542
 30
0.0
 10
798.2888085750195
 20
644.624982611019
 30
0.0
 10
797.6701766464327
 20
644.8335123319704
 30
0.0
 10
797.0510032032192
 20
645.0799427676011
 30
0.0
 10
796.6351270119602
 20
645.2566960135659
 30
0.0
 10
796.4381677391916
 20
645.3404064820091
 30
0.0
  0
LINE
  5
257
330
1F
100
AcDbEntity
  8
0
  6
Continuous
 62
     7
370
    15
100
AcDbLine
 10
796.4381677392
 20
645.340406482
 30
0.0
 11
834.7769540187
 21
663.2180761285
 31
0.0
  0
SPLINE
  5
258
330
1F
100
AcDbEntity
  8
0
  6
Continuous
 62
     7
370
    15
100
AcDbSpline
210
0.0
220
0.0
230
1.0
 70
     8
 71
     3
 72
    11
 73
     7
 74
     0
 42
0.00000001
 43
0.00000001
 12
1.0
 22
0.0
 32
0.0
 13
1.0
 23
0.0
 33
0.0
 40
0.0
 40
0.0
 40
0.0
 40
0.0
 40
0.2888077077194141
 40
0.57761533621972
 40
0.8669345414323495
 40
0.9999999999999999
 40
0.9999999999999999
 40
0.9999999999999999
 40
0.9999999999999999
 10
796.438167739192
 20
645.3404064820094
 30
0.0
 10
796.8858657639697
 20
645.2041977271532
 30
0.0
 10
797.7812616907229
 20
644.9317802548022
 30
0.0
 10
798.9284232797835
 20
644.4317709276877
 30
0.0
 10
799.6033108285152
 20
643.895520197259
 30
0.0
 10
799.8246649129647
 20
643.4964720612069
 30
0.0
 10
799.8943989380818
 20
643.3707583983595
 30
0.0
  0
LINE
  5
259
330
1F
100
AcDbEntity
  8
0
  6
Continuous
 62
     7
370
    15
100
AcDbLine
 10
799.8943989381
 20
643.3707583984
 30
0.0
 11
800.3884680167
 21
642.31122384
 31
0.0
  0
LINE
  5
25A
330
1F
100
AcDbEntity
  8
0
  6
Continuous
 62
     7
370
    15
100
AcDbLine
 10
856.2953376429
 20
522.4185550227
 30
0.0
 11
854.2108297327
 21
521.4465330207
 31
0.0
  0
LINE
  5
25B
330
1F
100
AcDbEntity
  8
0
  6
Continuous
 62
     7
370
    15
100
AcDbLine
 10
854.2108297327
 20
521.4465330207
 30
0.0
 11
796.4381677392
 21
645.340406482
 31
0.0
  0
LINE
  5
25C
330
1F
100
AcDbEntity
  8
0
  6
Continuous
 62
     7
370
    15
100
AcDbLine
 10
854.2108297327
 20
514.9382117899
 30
0.0
 11
856.2953376429
 21
513.9661897879
 31
0.0
  0
ARC
  5
25D
330
1F
100
AcDbEntity
  8
0
  6
Continuous
 62
     7
370
    15
100
AcDbCircle
 10
847.2322597725
 20
518.1923724053
 30
0.0
 40
7.69999999999975
100
AcDbArc
 50
335.0
 51
25.0
  0
SPLINE
  5
25E
330
1F
100
AcDbEntity
  8
0
  6
Continuous
 62
     7
370
    15
100
AcDbSpline
210
0.0
220
0.0
230
1.0
 70
     8
 71
     3
 72
    12
 73
     8
 74
     0
 42
0.00000001
 43
0.00000001
 12
1.0
 22
0.0
 32
0.0
 13
1.0
 23
0.0
 33
0.0
 40
0.0
 40
0.0
 40
0.0
 40
0.0
 40
0.2096821001528738
 40
0.4420453733185987
 40
0.6744332966681253
 40
0.9068208701180408
 40
1.0
 40
1.0
 40
1.0
 40
1.0
 10
-41.97088445520158
 20
710.385301337521
 30
0.0
 10
-41.9465444850331
 20
710.2810161295934
 30
0.0
 10
-41.89523170634624
 20
710.0611652523065
 30
0.0
 10
-41.47430111941741
 20
709.7251971224237
 30
0.0
 10
-40.82251164152184
 20
709.378291854007
 30
0.0
 10
-40.17307060241959
 20
709.0999151917742
 30
0.0
 10
-39.78263068531307
 20
708.9385547305525
 30
0.0
 10
-39.67088445520162
 20
708.8923724053327
 30
0.0
  0
LINE
  5
25F
330
1F
100
AcDbEntity
  8
0
  6
Continuous
 62
     7
370
    15
100
AcDbLine
 10
-41.9708844552
 20
710.3853013375
 30
0.0
 11
-41.1708844552
 21
710.3853013375
 31
0.0
  0
SPLINE
  5
260
330
1F
100
AcDbEntity
  8
0
  6
Continuous
 62
     7
370
    15
100
AcDbSpline
210
0.0
220
0.0
230
1.0
 70
     8
 71
     3
 72
    11
 73
     7
 74
     0
 42
0.00000001
 43
0.00000001
 12
1.0
 22
0.0
 32
0.0
 13
1.0
 23
0.0
 33
0.0
 40
0.0
 40
0.0
 40
0.0
 40
0.0
 40
0.2543211584721155
 40
0.5088664984542254
 40
0.763413000719684
 40
1.0
 40
1.0
 40
1.0
 40
1.0
 10
-41.17088445520167
 20
710.385301337521
 30
0.0
 10
-41.14753039318253
 20
710.2587202297354
 30
0.0
 10
-41.10080168277675
 20
710.0054464342078
 30
0.0
 10
-40.74191406658167
 20
709.6255017647223
 30
0.0
 10
-40.24269108729217
 20
709.2542766330514
 30
0.0
 10
-39.85678277069682
 20
709.0100299883824
 30
0.0
 10
-39.67088445520162
 20
708.8923724053327
 30
0.0
  0
LINE
  5
261
330
1F
100
AcDbEntity
  8
0
  6
Continuous
 62
     7
370
    15
100
AcDbLine
 10
835.6845391524
 20
469.7661897879
 30
0.0
 11
833.6000312422
 21
470.7382117899
 31
0.0
  0
LINE
  5
262
330
1F
100
AcDbEntity
  8
0
  6
Continuous
 62
     7
370
    15
100
AcDbLine
 10
833.6000312422
 20
470.7382117899
 30
0.0
 11
854.2108297327
 21
514.9382117899
 31
0.0
  0
CIRCLE
  5
263
330
1F
100
AcDbEntity
  8
0
  6
Continuous
 62
     7
370
    15
100
AcDbCircle
 10
425.5763379548
 20
691.1923724053
 30
0.0
 40
6.34766310537168
  0
CIRCLE
  5
264
330
1F
100
AcDbEntity
  8
0
  6
Continuous
 62
     7
370
    15
100
AcDbCircle
 10
425.5763379548
 20
691.1923724053
 30
0.0
 40
4.699999999999932
  0
SPLINE
  5
265
330
1F
100
AcDbEntity
  8
0
  6
Continuous
 62
     7
370
    15
100
AcDbSpline
210
0.0
220
0.0
230
1.0
 70
     8
 71
     3
 72
    12
 73
     8
 74
     0
 42
0.00000001
 43
0.00000001
 12
1.0
 22
0.0
 32
0.0
 13
1.0
 23
0.0
 33
0.0
 40
0.0
 40
0.0
 40
0.0
 40
0.0
 40
0.209682100152886
 40
0.4420453733185801
 40
0.6744332966681194
 40
0.9068208701180673
 40
1.0
 40
1.0
 40
1.0
 40
1.0
 10
-39.67088445520162
 20
708.8923724053327
 30
0.0
 10
-39.77516966312922
 20
709.144703363308
 30
0.0
 10
-39.99502054041582
 20
709.6766597507954
 30
0.0
 10
-40.33098867029883
 20
710.3980411806101
 30
0.0
 10
-40.67789393871535
 20
710.9414001145964
 30
0.0
 10
-40.95627060094853
 20
711.1700219547399
 30
0.0
 10
-41.11763106217003
 20
711.1873989933641
 30
0.0
 10
-41.16381338738972
 20
711.1923724053329
 30
0.0
  0
LINE
  5
266
330
1F
100
AcDbEntity
  8
0
  6
Continuous
 62
     7
370
    15
100
AcDbLine
 10
-41.1638133874
 20
711.1923724053
 30
0.0
 11
-37.776806274
 21
711.1923724053
 31
0.0
  0
LINE
  5
267
330
1F
100
AcDbEntity
  8
0
  6
Continuous
 62
     7
370
    15
100
AcDbLine
 10
-27.026806274
 20
711.1923724053
 30
0.0
 11
35.223193726
 21
711.1923724053
 31
0.0
  0
LINE
  5
268
330
1F
100
AcDbEntity
  8
0
  6
Continuous
 62
     7
370
    15
100
AcDbLine
 10
845.9763379548
 20
711.1923724053
 30
0.0
 11
845.9763379548
 21
708.8923724053
 31
0.0
  0
LINE
  5
269
330
1F
100
AcDbEntity
  8
0
  6
Continuous
 62
     7
370
    15
100
AcDbLine
 10
845.9763379548
 20
708.8923724053
 30
0.0
 11
-39.6708844552
 21
708.8923724053
 31
0.0
  0
SPLINE
  5
26A
330
1F
100
AcDbEntity
  8
0
  6
Continuous
 62
     7
370
    15
100
AcDbSpline
210
0.0
220
0.0
230
1.0
 70
     8
 71
     3
 72
    12
 73
     8
 74
     0
 42
0.00000001
 43
0.00000001
 12
1.0
 22
0.0
 32
0.0
 13
1.0
 23
0.0
 33
0.0
 40
0.0
 40
0.0
 40
0.0
 40
0.0
 40
0.2096821001528698
 40
0.4420453733185927
 40
0.6744332966681262
 40
0.9068208701180613
 40
1.0
 40
1.0
 40
1.0
 40
1.0
 10
-39.67088445520162
 20
466.2923724053323
 30
0.0
 10
-39.92321541317689
 20
466.1880871974048
 30
0.0
 10
-40.45517180066416
 20
465.9682363201181
 30
0.0
 10
-41.17655323047886
 20
465.632268190235
 30
0.0
 10
-41.71991216446524
 20
465.2853629218184
 30
0.0
 10
-41.94853400460863
 20
465.0069862595855
 30
0.0
 10
-41.96591104323289
 20
464.8456257983639
 30
0.0
 10
-41.97088445520158
 20
464.7994434731442
 30
0.0
  0
SPLINE
  5
26B
330
1F
100
AcDbEntity
  8
0
  6
Continuous
 62
     7
370
    15
100
AcDbSpline
210
0.0
220
0.0
230
1.0
 70
     8
 71
     3
 72
    11
 73
     7
 74
     0
 42
0.00000001
 43
0.00000001
 12
1.0
 22
0.0
 32
0.0
 13
1.0
 23
0.0
 33
0.0
 40
0.0
 40
0.0
 40
0.0
 40
0.0
 40
0.2543211584721242
 40
0.508866498454242
 40
0.7634130007197216
 40
1.0
 40
1.0
 40
1.0
 40
1.0
 10
-39.67088445520162
 20
466.2923724053323
 30
0.0
 10
-39.87085964534099
 20
466.1657912975469
 30
0.0
 10
-40.270986301712
 20
465.9125175020192
 30
0.0
 10
-40.7726100558079
 20
465.5325728325338
 30
0.0
 10
-41.10867530266638
 20
465.1613477008629
 30
0.0
 10
-41.15065982677702
 20
464.9171010561938
 30
0.0
 10
-41.17088445520156
 20
464.7994434731442
 30
0.0
  0
LINE
  5
26C
330
1F
100
AcDbEntity
  8
0
  6
Continuous
 62
     7
370
    15
100
AcDbLine
 10
-41.9708844552
 20
464.7994434731
 30
0.0
 11
-41.1708844552
 21
464.7994434731
 31
0.0
  0
CIRCLE
  5
26D
330
1F
100
AcDbEntity
  8
0
  6
Continuous
 62
     7
370
    15
100
AcDbCircle
 10
35.5763379548
 20
691.1923724053
 30
0.0
 40
6.34766310537168
  0
CIRCLE
  5
26E
330
1F
100
AcDbEntity
  8
0
  6
Continuous
 62
     7
370
    15
100
AcDbCircle
 10
805.5763379548
 20
691.1923724053
 30
0.0
 40
6.34766310537168
  0
LINE
  5
26F
330
1F
100
AcDbEntity
  8
0
  6
Continuous
 62
     7
370
    15
100
AcDbLine
 10
-39.6708844552
 20
466.2923724053
 30
0.0
 11
826.621461282
 21
466.2923724053
 31
0.0
  0
LINE
  5
270
330
1F
100
AcDbEntity
  8
0
  6
Continuous
 62
     7
370
    15
100
AcDbLine
 10
-39.6708844552
 20
708.8923724053
 30
0.0
 11
-39.6708844552
 21
466.2923724053
 31
0.0
  0
ARC
  5
271
330
1F
100
AcDbEntity
  8
0
  6
Continuous
 62
     7
370
    15
100
AcDbCircle
 10
845.9763379548
 20
701.1923724053
 30
0.0
 40
7.69999999999975
100
AcDbArc
 50
335.0
 51
90.0
  0
LINE
  5
272
330
1F
100
AcDbEntity
  8
0
  6
Continuous
 62
     7
370
    15
100
AcDbLine
 10
838.5013633634
 20
666.9424854733
 30
0.0
 11
852.954907915
 21
697.9382117899
 31
0.0
  0
ARC
  5
273
330
1F
100
AcDbEntity
  8
0
  6
Continuous
 62
     7
370
    15
100
AcDbCircle
 10
831.5227934033
 20
670.1966460887
 30
0.0
 40
7.700000000000107
100
AcDbArc
 50
295.0
 51
335.0
  0
ARC
  5
274
330
1F
100
AcDbEntity
  8
0
  6
Continuous
 62
     7
370
    15
100
AcDbCircle
 10
826.621461282
 20
473.9923724053
 30
0.0
 40
7.699999999999875
100
AcDbArc
 50
270.0
 51
335.0
  0
CIRCLE
  5
275
330
1F
100
AcDbEntity
  8
0
  6
Continuous
 62
     7
370
    15
100
AcDbCircle
 10
805.5763379548
 20
691.1923724053
 30
0.0
 40
4.699999999999932
  0
LINE
  5
276
330
1F
100
AcDbEntity
  8
0
  6
Continuous
 62
     7
370
    15
100
AcDbLine
 10
826.621461282
 20
466.2923724053
 30
0.0
 11
826.621461282
 21
463.9923724053
 31
0.0
  0
LINE
  5
277
330
1F
100
AcDbEntity
  8
0
  6
Continuous
 62
     7
370
    15
100
AcDbLine
 10
852.954907915
 20
697.9382117899
 30
0.0
 11
855.0394158252
 21
696.9661897879
 31
0.0
  0
LINE
  5
278
330
1F
100
AcDbEntity
  8
0
  6
Continuous
 62
     7
370
    15
100
AcDbLine
 10
840.5858712736
 20
665.9704634713
 30
0.0
 11
838.5013633634
 21
666.9424854733
 31
0.0
  0
LINE
  5
279
330
1F
100
AcDbEntity
  8
0
  6
Continuous
 62
     7
370
    15
100
AcDbLine
 10
765.9921638901
 20
463.9923724053
 30
0.0
 11
764.7174452643
 21
463.9923724053
 31
0.0
  0
LINE
  5
27A
330
1F
100
AcDbEntity
  8
0
  6
Continuous
 62
     7
370
    15
100
AcDbLine
 10
763.4154766587
 20
463.9923724053
 30
0.0
 11
762.8884388232
 21
463.9923724053
 31
0.0
  0
LINE
  5
27B
330
1F
100
AcDbEntity
  8
0
  6
Continuous
 62
     7
370
    15
100
AcDbLine
 10
21.3294552217
 20
463.9923724053
 30
0.0
 11
-41.1638133874
 21
463.9923724053
 31
0.0
  0
SPLINE
  5
27C
330
1F
100
AcDbEntity
  8
0
  6
Continuous
 62
     7
370
    15
100
AcDbSpline
210
0.0
220
0.0
230
1.0
 70
     8
 71
     3
 72
    12
 73
     8
 74
     0
 42
0.00000001
 43
0.00000001
 12
1.0
 22
0.0
 32
0.0
 13
1.0
 23
0.0
 33
0.0
 40
0.0
 40
0.0
 40
0.0
 40
0.0
 40
0.2096821001528686
 40
0.4420453733186091
 40
0.674433296668134
 40
0.9068208701180641
 40
1.0
 40
1.0
 40
1.0
 40
1.0
 10
-41.16381338738972
 20
463.9923724053323
 30
0.0
 10
-41.05952817946212
 20
464.0167123755009
 30
0.0
 10
-40.83967730217542
 20
464.0680251541878
 30
0.0
 10
-40.50370917229284
 20
464.4889557411164
 30
0.0
 10
-40.15680390387566
 20
465.140745219012
 30
0.0
 10
-39.87842724164303
 20
465.7901862581145
 30
0.0
 10
-39.71706678042119
 20
466.1806261752209
 30
0.0
 10
-39.67088445520162
 20
466.2923724053323
 30
0.0
  0
CIRCLE
  5
27D
330
1F
100
AcDbEntity
  8
0
  6
Continuous
 62
     7
370
    15
100
AcDbCircle
 10
35.5763379548
 20
691.1923724053
 30
0.0
 40
4.699999999999932
  0
SPLINE
  5
27E
330
1F
100
AcDbEntity
  8
0
  6
Continuous
 62
     7
370
    15
100
AcDbSpline
210
0.0
220
0.0
230
1.0
 70
     8
 71
     3
 72
    11
 73
     7
 74
     0
 42
0.00000001
 43
0.00000001
 12
1.0
 22
0.0
 32
0.0
 13
1.0
 23
0.0
 33
0.0
 40
0.0
 40
0.0
 40
0.0
 40
0.0
 40
0.2543211584720588
 40
0.5088664984541689
 40
0.7634130007196562
 40
1.0
 40
1.0
 40
1.0
 40
1.0
 10
-39.67088445520162
 20
708.8923724053327
 30
0.0
 10
-39.79746556298714
 20
709.092347595472
 30
0.0
 10
-40.05073935851478
 20
709.4924742518432
 30
0.0
 10
-40.43068402799976
 20
709.9940980059387
 30
0.0
 10
-40.80190915967108
 20
710.3301632527977
 30
0.0
 10
-41.04615580434001
 20
710.3721477769083
 30
0.0
 10
-41.16381338738972
 20
710.3923724053327
 30
0.0
  0
LINE
  5
27F
330
1F
100
AcDbEntity
  8
0
  6
Continuous
 62
     7
370
    15
100
AcDbLine
 10
-41.1638133874
 20
711.1923724053
 30
0.0
 11
-41.1638133874
 21
710.3923724053
 31
0.0
  0
LINE
  5
280
330
1F
100
AcDbEntity
  8
0
  6
Continuous
 62
     7
370
    15
100
AcDbLine
 10
-41.9708844552
 20
710.3853013375
 30
0.0
 11
-41.9708844552
 21
464.7994434731
 31
0.0
  0
LINE
  5
281
330
1F
100
AcDbEntity
  8
0
  6
Continuous
 62
     7
370
    15
100
AcDbLine
 10
-41.1638133874
 20
463.9923724053
 30
0.0
 11
-41.1638133874
 21
464.7923724053
 31
0.0
  0
SPLINE
  5
282
330
1F
100
AcDbEntity
  8
0
  6
Continuous
 62
     7
370
    15
100
AcDbSpline
210
0.0
220
0.0
230
1.0
 70
     8
 71
     3
 72
    11
 73
     7
 74
     0
 42
0.00000001
 43
0.00000001
 12
1.0
 22
0.0
 32
0.0
 13
1.0
 23
0.0
 33
0.0
 40
0.0
 40
0.0
 40
0.0
 40
0.0
 40
0.2543211584721197
 40
0.5088664984542413
 40
0.7634130007197366
 40
0.9999999999999999
 40
0.9999999999999999
 40
0.9999999999999999
 40
0.9999999999999999
 10
-41.16381338738972
 20
464.7923724053323
 30
0.0
 10
-41.03723227960432
 20
464.8157264673514
 30
0.0
 10
-40.78395848407646
 20
464.8624551777573
 30
0.0
 10
-40.40401381459158
 20
465.2213427939524
 30
0.0
 10
-40.03278868291993
 20
465.7205657732421
 30
0.0
 10
-39.78854203825111
 20
466.1064740898373
 30
0.0
 10
-39.67088445520173
 20
466.2923724053323
 30
0.0
  0
CIRCLE
  5
283
330
1F
100
AcDbEntity
  8
0
  6
Continuous
 62
     7
370
    15
100
AcDbCircle
 10
425.5763379548
 20
691.1923724053
 30
0.0
 40
2.699999999999932
  0
CIRCLE
  5
284
330
1F
100
AcDbEntity
  8
0
  6
Continuous
 62
     7
370
    15
100
AcDbCircle
 10
805.5763379548
 20
691.1923724053
 30
0.0
 40
2.699999999999932
  0
CIRCLE
  5
285
330
1F
100
AcDbEntity
  8
0
  6
Continuous
 62
     7
370
    15
100
AcDbCircle
 10
35.5763379548
 20
691.1923724053
 30
0.0
 40
2.699999999999932
  0
LINE
  5
286
330
1F
100
AcDbEntity
  8
0
  6
Continuous
 62
     8
370
    15
100
AcDbLine
 10
705.5174452643
 20
-182.5076275947
 30
0.0
 11
648.5174452643
 21
-182.5076275947
 31
0.0
  0
LINE
  5
287
330
1F
100
AcDbEntity
  8
0
  6
Continuous
 62
     8
370
    15
100
AcDbLine
 10
126.5174452643
 20
-182.5076275947
 30
0.0
 11
69.5174452643
 21
-182.5076275947
 31
0.0
  0
LINE
  5
288
330
1F
100
AcDbEntity
  8
0
  6
Continuous
 62
     8
370
    15
100
AcDbLine
 10
708.9174452643
 20
-18.0076275947
 30
0.0
 11
645.1174452643
 21
-18.0076275947
 31
0.0
  0
LINE
  5
289
330
1F
100
AcDbEntity
  8
0
  6
Continuous
 62
     8
370
    15
100
AcDbLine
 10
708.8535320373
 20
-105.2475248735
 30
0.0
 11
645.1813584913
 21
-105.2475248735
 31
0.0
  0
LINE
  5
28A
330
1F
100
AcDbEntity
  8
0
  6
Continuous
 62
     8
370
    15
100
AcDbLine
 10
708.9174452643
 20
-104.475061649
 30
0.0
 11
645.1174452643
 21
-104.475061649
 31
0.0
  0
LINE
  5
28B
330
1F
100
AcDbEntity
  8
0
  6
Continuous
 62
     8
370
    15
100
AcDbLine
 10
129.9174452643
 20
-18.0076275947
 30
0.0
 11
66.1174452643
 21
-18.0076275947
 31
0.0
  0
LINE
  5
28C
330
1F
100
AcDbEntity
  8
0
  6
Continuous
 62
     8
370
    15
100
AcDbLine
 10
129.8535320373
 20
-105.2475248735
 30
0.0
 11
66.1813584913
 21
-105.2475248735
 31
0.0
  0
LINE
  5
28D
330
1F
100
AcDbEntity
  8
0
  6
Continuous
 62
     8
370
    15
100
AcDbLine
 10
129.9174452643
 20
-104.475061649
 30
0.0
 11
66.1174452643
 21
-104.475061649
 31
0.0
  0
LINE
  5
28E
330
1F
100
AcDbEntity
  8
0
  6
Continuous
 62
     8
370
    15
100
AcDbLine
 10
4.973193726
 20
740.6923724053
 30
0.0
 11
-14.026806274
 21
740.6923724053
 31
0.0
  0
SPLINE
  5
28F
330
1F
100
AcDbEntity
  8
0
  6
Continuous
 62
     8
370
    15
100
AcDbSpline
210
0.0
220
0.0
230
1.0
 70
     8
 71
     3
 72
     9
 73
     5
 74
     0
 42
0.00000001
 43
0.00000001
 12
1.0
 22
0.0
 32
0.0
 13
1.0
 23
0.0
 33
0.0
 40
0.0
 40
0.0
 40
0.0
 40
0.0
 40
0.7301218874984721
 40
1.0
 40
1.0
 40
1.0
 40
1.0
 10
833.6245863117139
 20
585.0622753370523
 30
0.0
 10
833.5932787437481
 20
585.1123510059668
 30
0.0
 10
833.5503988239676
 20
585.1809363610587
 30
0.0
 10
833.4293411544747
 20
585.1988397144578
 30
0.0
 10
833.3966703391281
 20
585.2036714376804
 30
0.0
  0
SPLINE
  5
290
330
1F
100
AcDbEntity
  8
0
  6
Continuous
 62
     8
370
    15
100
AcDbSpline
210
0.0
220
0.0
230
1.0
 70
     8
 71
     3
 72
     9
 73
     5
 74
     0
 42
0.00000001
 43
0.00000001
 12
1.0
 22
0.0
 32
0.0
 13
1.0
 23
0.0
 33
0.0
 40
0.0
 40
0.0
 40
0.0
 40
0.0
 40
0.2168872359630096
 40
1.0
 40
1.0
 40
1.0
 40
1.0
 10
834.8248384624766
 20
582.1861582841419
 30
0.0
 10
834.8324226467971
 20
582.2180036504997
 30
0.0
 10
834.8673909762466
 20
582.3648327906121
 30
0.0
 10
834.8129740170393
 20
582.499610708459
 30
0.0
 10
834.770359401704
 20
582.605157016235
 30
0.0
  0
SPLINE
  5
291
330
1F
100
AcDbEntity
  8
0
  6
Continuous
 62
     8
370
    15
100
AcDbSpline
210
0.0
220
0.0
230
1.0
 70
     8
 71
     3
 72
     9
 73
     5
 74
     0
 42
0.00000001
 43
0.00000001
 12
1.0
 22
0.0
 32
0.0
 13
1.0
 23
0.0
 33
0.0
 40
0.0
 40
0.0
 40
0.0
 40
0.0
 40
0.7833167635310431
 40
1.0
 40
1.0
 40
1.0
 40
1.0
 10
833.6245863117139
 20
585.0622753370523
 30
0.0
 10
833.571119467508
 20
585.16277434937
 30
0.0
 10
833.5028624778772
 20
585.2910736747472
 30
0.0
 10
833.3678783614147
 20
585.3586918273963
 30
0.0
 10
833.3386295661877
 20
585.3733435475564
 30
0.0
  0
LINE
  5
292
330
1F
100
AcDbEntity
  8
0
  6
Continuous
 62
     8
370
    15
100
AcDbLine
 10
857.9183445167
 20
570.2824323281
 30
0.0
 11
850.5197746954
 21
586.1487165117
 31
0.0
  0
LINE
  5
293
330
1F
100
AcDbEntity
  8
0
  6
Continuous
 62
     8
370
    15
100
AcDbLine
 10
846.4626393827
 20
594.8492712673
 30
0.0
 11
838.8226337924
 21
611.2333161284
 31
0.0
  0
LINE
  5
294
330
1F
100
AcDbEntity
  8
0
  6
Continuous
 62
     8
370
    15
100
AcDbLine
 10
842.273308868
 20
612.2954529395
 30
0.0
 11
849.7038245133
 21
596.3606607152
 31
0.0
  0
LINE
  5
295
330
1F
100
AcDbEntity
  8
0
  6
Continuous
 62
     8
370
    15
100
AcDbLine
 10
853.760959826
 20
587.6601059596
 30
0.0
 11
861.0000741518
 21
572.1357751896
 31
0.0
  0
LINE
  5
296
330
1F
100
AcDbEntity
  8
0
  6
Continuous
 62
     8
370
    15
100
AcDbLine
 10
875.0058771191
 20
581.0543524137
 30
0.0
 11
873.4735028826
 21
584.3405395688
 31
0.0
  0
LINE
  5
297
330
1F
100
AcDbEntity
  8
0
  6
Continuous
 62
     8
370
    15
100
AcDbLine
 10
843.9403702413
 20
558.153108979
 30
0.0
 11
842.8606779554
 21
560.4685165583
 31
0.0
  0
LINE
  5
298
330
1F
100
AcDbEntity
  8
0
  6
Continuous
 62
     8
370
    15
100
AcDbLine
 10
821.8672924243
 20
605.4889771146
 30
0.0
 11
820.657916914
 21
608.082491266
 31
0.0
  0
LINE
  5
299
330
1F
100
AcDbEntity
  8
0
  6
Continuous
 62
     8
370
    15
100
AcDbLine
 10
841.3037998452
 20
556.4609728454
 30
0.0
 11
843.5527393425
 21
557.6105662549
 31
0.0
  0
ARC
  5
29A
330
1F
100
AcDbEntity
  8
0
  6
Continuous
 62
     8
370
    15
100
AcDbCircle
 10
843.347988713
 20
559.6081140947
 30
0.0
 40
1.817426743210232
100
AcDbArc
 50
331.1902079224
 51
24.3136513735
  0
LINE
  5
29B
330
1F
100
AcDbEntity
  8
0
  6
Continuous
 62
     8
370
    15
100
AcDbLine
 10
826.5438632859
 20
604.4294951802
 30
0.0
 11
829.1903152792
 21
598.7541605657
 31
0.0
  0
LINE
  5
29C
330
1F
100
AcDbEntity
  8
0
  6
Continuous
 62
     8
370
    15
100
AcDbLine
 10
842.4086575192
 20
570.4073341543
 30
0.0
 11
845.0551095126
 21
564.7319995397
 31
0.0
  0
SPLINE
  5
29D
330
1F
100
AcDbEntity
  8
0
  6
Continuous
 62
     8
370
    15
100
AcDbSpline
210
0.0
220
0.0
230
1.0
 70
     8
 71
     3
 72
    10
 73
     6
 74
     0
 42
0.00000001
 43
0.00000001
 12
1.0
 22
0.0
 32
0.0
 13
1.0
 23
0.0
 33
0.0
 40
0.0
 40
0.0
 40
0.0
 40
0.0
 40
0.2798530424547738
 40
0.7505377989754236
 40
1.0
 40
1.0
 40
1.0
 40
1.0
 10
844.3241596410171
 20
557.375044832678
 30
0.0
 10
844.3670322615521
 20
557.2859210366696
 30
0.0
 10
844.4820123309863
 20
557.0468999522259
 30
0.0
 10
844.6731855581045
 20
556.6165859973371
 30
0.0
 10
844.8072112599556
 20
556.303168424513
 30
0.0
 10
844.8536383762925
 20
556.1945991432889
 30
0.0
  0
LWPOLYLINE
  5
29E
330
1F
100
AcDbEntity
  8
0
  6
Continuous
 62
     8
370
    15
100
AcDbPolyline
 90
        3
 70
   128
 43
0.0
 10
844.8536383763
 20
556.1945991433
 10
844.3600535818
 20
555.9427732072
 10
844.1224068517
 20
555.8215460174
  0
LINE
  5
29F
330
1F
100
AcDbEntity
  8
0
  6
Continuous
 62
     8
370
    15
100
AcDbLine
 10
843.4080462498
 20
555.4571398743
 30
0.0
 11
842.0862995173
 21
554.7828968833
 31
0.0
  0
LINE
  5
2A0
330
1F
100
AcDbEntity
  8
0
  6
Continuous
 62
     8
370
    15
100
AcDbLine
 10
857.6606771162
 20
528.2996328477
 30
0.0
 11
857.0806293228
 21
528.0291521196
 31
0.0
  0
LINE
  5
2A1
330
1F
100
AcDbEntity
  8
0
  6
Continuous
 62
     8
370
    15
100
AcDbLine
 10
856.3555830932
 20
527.6910575102
 30
0.0
 11
855.0116584672
 21
527.0643751651
 31
0.0
  0
LINE
  5
2A2
330
1F
100
AcDbEntity
  8
0
  6
Continuous
 62
     8
370
    15
100
AcDbLine
 10
858.2955362725
 20
526.9904790426
 30
0.0
 11
857.7070133678
 21
526.6858672001
 31
0.0
  0
LINE
  5
2A3
330
1F
100
AcDbEntity
  8
0
  6
Continuous
 62
     8
370
    15
100
AcDbLine
 10
856.9959335647
 20
526.3178214924
 30
0.0
 11
855.6778967012
 21
525.6356226616
 31
0.0
  0
SPLINE
  5
2A4
330
1F
100
AcDbEntity
  8
0
  6
Continuous
 62
     8
370
    15
100
AcDbSpline
210
0.0
220
0.0
230
1.0
 70
     8
 71
     3
 72
    12
 73
     8
 74
     0
 42
0.00000001
 43
0.00000001
 12
1.0
 22
0.0
 32
0.0
 13
1.0
 23
0.0
 33
0.0
 40
0.0
 40
0.0
 40
0.0
 40
0.0
 40
0.0070610318628482
 40
0.0152408177641462
 40
0.1019750875425575
 40
0.8610092138094186
 40
0.9999999999999999
 40
0.9999999999999999
 40
0.9999999999999999
 40
0.9999999999999999
 10
857.4624635237143
 20
522.9917075522324
 30
0.0
 10
857.4643333623276
 20
522.9927061032499
 30
0.0
 10
857.4683692978833
 20
522.9948614162954
 30
0.0
 10
857.4953398946676
 20
523.0095174330254
 30
0.0
 10
857.7177403465954
 20
523.1452683202936
 30
0.0
 10
857.9945338786853
 20
523.3512219405897
 30
0.0
 10
858.1389269542894
 20
523.7560772140931
 30
0.0
 10
858.1612752286194
 20
523.818738229369
 30
0.0
  0
SPLINE
  5
2A5
330
1F
100
AcDbEntity
  8
0
  6
Continuous
 62
     8
370
    15
100
AcDbSpline
210
0.0
220
0.0
230
1.0
 70
     8
 71
     3
 72
     9
 73
     5
 74
     0
 42
0.00000001
 43
0.00000001
 12
1.0
 22
0.0
 32
0.0
 13
1.0
 23
0.0
 33
0.0
 40
0.0
 40
0.0
 40
0.0
 40
0.0
 40
0.4307734721098573
 40
0.9999999999999999
 40
0.9999999999999999
 40
0.9999999999999999
 40
0.9999999999999999
 10
858.5147492521986
 20
524.9536720061047
 30
0.0
 10
858.5411969384304
 20
525.2129160986952
 30
0.0
 10
858.6025927483958
 20
525.8147268167988
 30
0.0
 10
858.4069189750783
 20
526.5639827112794
 30
0.0
 10
858.2955362724936
 20
526.9904790425959
 30
0.0
  0
LINE
  5
2A6
330
1F
100
AcDbEntity
  8
0
  6
Continuous
 62
     8
370
    15
100
AcDbLine
 10
842.8606779554
 20
560.4685165583
 30
0.0
 11
821.8672924243
 21
605.4889771146
 31
0.0
  0
LINE
  5
2A7
330
1F
100
AcDbEntity
  8
0
  6
Continuous
 62
     8
370
    15
100
AcDbLine
 10
829.1903152792
 20
598.7541605657
 30
0.0
 11
842.4086575192
 21
570.4073341543
 31
0.0
  0
LINE
  5
2A8
330
1F
100
AcDbEntity
  8
0
  6
Continuous
 62
     8
370
    15
100
AcDbLine
 10
844.7347390818
 20
571.6441336599
 30
0.0
 11
831.6329350753
 21
599.741043023
 31
0.0
  0
LINE
  5
2A9
330
1F
100
AcDbEntity
  8
0
  6
Continuous
 62
     8
370
    15
100
AcDbLine
 10
34.6610408075
 20
-27.8576275947
 30
0.0
 11
28.0064934406
 21
-27.8576275947
 31
0.0
  0
LINE
  5
2AA
330
1F
100
AcDbEntity
  8
0
  6
Continuous
 62
     8
370
    15
100
AcDbLine
 10
22.4497992684
 20
-27.8576275947
 30
0.0
 11
22.4174452643
 21
-27.8576275947
 31
0.0
  0
LINE
  5
2AB
330
1F
100
AcDbEntity
  8
0
  6
Continuous
 62
     8
370
    15
100
AcDbLine
 10
22.4174452643
 20
-28.5576275947
 30
0.0
 11
22.4497992684
 21
-28.5576275947
 31
0.0
  0
LINE
  5
2AC
330
1F
100
AcDbEntity
  8
0
  6
Continuous
 62
     8
370
    15
100
AcDbLine
 10
28.0064934406
 20
-28.5576275947
 30
0.0
 11
34.6610408075
 21
-28.5576275947
 31
0.0
  0
LINE
  5
2AD
330
1F
100
AcDbEntity
  8
0
  6
Continuous
 62
     8
370
    15
100
AcDbLine
 10
35.1498409679
 20
-27.3576275947
 30
0.0
 11
35.0736076366
 21
-27.3576275947
 31
0.0
  0
LINE
  5
2AE
330
1F
100
AcDbEntity
  8
0
  6
Continuous
 62
     8
370
    15
100
AcDbLine
 10
35.1498409679
 20
-22.2576275947
 30
0.0
 11
35.0735950139
 21
-22.2576275947
 31
0.0
  0
LINE
  5
2AF
330
1F
100
AcDbEntity
  8
0
  6
Continuous
 62
     8
370
    15
100
AcDbLine
 10
40.2473372762
 20
-22.2576275947
 30
0.0
 11
40.2735654132
 21
-22.2576275947
 31
0.0
  0
SPLINE
  5
2B0
330
1F
100
AcDbEntity
  8
0
  6
Continuous
 62
     8
370
    15
100
AcDbSpline
210
0.0
220
0.0
230
1.0
 70
     8
 71
     3
 72
    11
 73
     7
 74
     0
 42
0.00000001
 43
0.00000001
 12
1.0
 22
0.0
 32
0.0
 13
1.0
 23
0.0
 33
0.0
 40
0.0
 40
0.0
 40
0.0
 40
0.0
 40
0.1689135268329212
 40
0.5098334162278441
 40
0.8698760745626629
 40
1.0
 40
1.0
 40
1.0
 40
1.0
 10
22.03757106931703
 20
-27.35762759466942
 30
0.0
 10
22.04008413079461
 20
-27.42499928645892
 30
0.0
 10
22.04766932981483
 20
-27.62834794909164
 30
0.0
 10
22.14170119789905
 20
-27.95439501330033
 30
0.0
 10
22.29060694447183
 20
-28.23029126262655
 30
0.0
 10
22.41640406119139
 20
-28.31863694568637
 30
0.0
 10
22.44979926840918
 20
-28.34208996646692
 30
0.0
  0
LINE
  5
2B1
330
1F
100
AcDbEntity
  8
0
  6
Continuous
 62
     8
370
    15
100
AcDbLine
 10
22.567444364
 20
-26.4284992029
 30
0.0
 11
22.567444364
 21
-22.2576275947
 31
0.0
  0
LINE
  5
2B2
330
1F
100
AcDbEntity
  8
0
  6
Continuous
 62
     8
370
    15
100
AcDbLine
 10
21.9613251153
 20
-27.3576275947
 30
0.0
 11
22.0375710693
 21
-27.3576275947
 31
0.0
  0
LINE
  5
2B3
330
1F
100
AcDbEntity
  8
0
  6
Continuous
 62
     8
370
    15
100
AcDbLine
 10
22.9675834601
 20
-22.2576275947
 30
0.0
 11
22.9675834601
 21
-26.4076275947
 31
0.0
  0
LINE
  5
2B4
330
1F
100
AcDbEntity
  8
0
  6
Continuous
 62
     8
370
    15
100
AcDbLine
 10
25.4772600068
 20
-22.2576275947
 30
0.0
 11
22.9675834601
 21
-22.2576275947
 31
0.0
  0
LINE
  5
2B5
330
1F
100
AcDbEntity
  8
0
  6
Continuous
 62
     8
370
    15
100
AcDbLine
 10
21.9613251153
 20
-22.2576275947
 30
0.0
 11
22.0375710693
 21
-22.2576275947
 31
0.0
  0
LINE
  5
2B6
330
1F
100
AcDbEntity
  8
0
  6
Continuous
 62
     8
370
    15
100
AcDbLine
 10
28.3864400097
 20
-27.3576275947
 30
0.0
 11
35.0896862736
 21
-27.3576275947
 31
0.0
  0
LINE
  5
2B7
330
1F
100
AcDbEntity
  8
0
  6
Continuous
 62
     8
370
    15
100
AcDbLine
 10
35.0735950139
 20
-26.6576275947
 30
0.0
 11
28.3864400097
 21
-26.6576275947
 31
0.0
  0
LINE
  5
2B8
330
1F
100
AcDbEntity
  8
0
  6
Continuous
 62
     8
370
    15
100
AcDbLine
 10
27.947356575
 20
-27.8576275947
 30
0.0
 11
28.00647898
 21
-27.8576275947
 31
0.0
  0
LINE
  5
2B9
330
1F
100
AcDbEntity
  8
0
  6
Continuous
 62
     8
370
    15
100
AcDbLine
 10
27.947356575
 20
-32.9576275947
 30
0.0
 11
28.0064934406
 21
-32.9576275947
 31
0.0
  0
LINE
  5
2BA
330
1F
100
AcDbEntity
  8
0
  6
Continuous
 62
     8
370
    15
100
AcDbLine
 10
22.4883006253
 20
-32.9576275947
 30
0.0
 11
22.4497992684
 21
-32.9576275947
 31
0.0
  0
LINE
  5
2BB
330
1F
100
AcDbEntity
  8
0
  6
Continuous
 62
     8
370
    15
100
AcDbLine
 10
22.7998842566
 20
-26.6576275947
 30
0.0
 11
22.4174452643
 21
-26.6576275947
 31
0.0
  0
LINE
  5
2BC
330
1F
100
AcDbEntity
  8
0
  6
Continuous
 62
     8
370
    15
100
AcDbLine
 10
39.7259543945
 20
-32.9576275947
 30
0.0
 11
39.7259543945
 21
-28.7509533706
 31
0.0
  0
LINE
  5
2BD
330
1F
100
AcDbEntity
  8
0
  6
Continuous
 62
     8
370
    15
100
AcDbLine
 10
39.2499754464
 20
-28.8076275947
 30
0.0
 11
39.2499754464
 21
-32.9576275947
 31
0.0
  0
LINE
  5
2BE
330
1F
100
AcDbEntity
  8
0
  6
Continuous
 62
     8
370
    15
100
AcDbLine
 10
38.8444726621
 20
-32.9576275947
 30
0.0
 11
38.8444726621
 21
-28.8076275947
 31
0.0
  0
LINE
  5
2BF
330
1F
100
AcDbEntity
  8
0
  6
Continuous
 62
     8
370
    15
100
AcDbLine
 10
36.8472333007
 20
-32.9576275947
 30
0.0
 11
38.8444726621
 21
-32.9576275947
 31
0.0
  0
LINE
  5
2C0
330
1F
100
AcDbEntity
  8
0
  6
Continuous
 62
     8
370
    15
100
AcDbLine
 10
39.7850912601
 20
-32.9576275947
 30
0.0
 11
39.7259543945
 21
-32.9576275947
 31
0.0
  0
LINE
  5
2C1
330
1F
100
AcDbEntity
  8
0
  6
Continuous
 62
     8
370
    15
100
AcDbLine
 10
834.7769540187
 20
663.2180761285
 30
0.0
 11
835.7390448708
 21
661.154865638
 31
0.0
  0
ENDSEC
  0
SECTION
  2
OBJECTS
  0
DICTIONARY
  5
C
330
0
100
AcDbDictionary
281
     1
  3
ACAD_GROUP
350
D
  3
ACAD_LAYOUT
350
1A
  3
ACAD_MLINESTYLE
350
17
  3
ACAD_PLOTSETTINGS
350
19
  3
ACAD_PLOTSTYLENAME
350
E
  0
DICTIONARY
  5
D
102
{ACAD_REACTORS
330
C
102
}
330
C
100
AcDbDictionary
281
     1
  0
DICTIONARY
  5
1A
102
{ACAD_REACTORS
330
C
102
}
330
C
100
AcDbDictionary
281
     1
  3
Layout1
350
1E
  3
Layout2
350
26
  3
Model
350
22
  0
DICTIONARY
  5
17
102
{ACAD_REACTORS
330
C
102
}
330
C
100
AcDbDictionary
281
     1
  3
Standard
350
18
  0
DICTIONARY
  5
19
102
{ACAD_REACTORS
330
C
102
}
330
C
100
AcDbDictionary
281
     1
  0
ACDBDICTIONARYWDFLT
  5
E
102
{ACAD_REACTORS
330
C
102
}
330
C
100
AcDbDictionary
281
     1
  3
Normal
350
F
100
AcDbDictionaryWithDefault
340
F
  0
LAYOUT
  5
1E
102
{ACAD_REACTORS
330
1A
102
}
330
1A
100
AcDbPlotSettings
  1

  2
none_device
  4

  6

 40
0.0
 41
0.0
 42
0.0
 43
0.0
 44
0.0
 45
0.0
 46
0.0
 47
0.0
 48
0.0
 49
0.0
140
0.0
141
0.0
142
1.0
143
1.0
 70
   688
 72
     0
 73
     0
 74
     5
  7

 75
    16
147
1.0
148
0.0
149
0.0
100
AcDbLayout
  1
Layout1
 70
     1
 71
     1
 10
0.0
 20
0.0
 11
420.0
 21
297.0
 12
0.0
 22
0.0
 32
0.0
 14
1.0000000000E+20
 24
1.0000000000E+20
 34
1.0000000000E+20
 15
-1.0000000000E+20
 25
-1.0000000000E+20
 35
-1.0000000000E+20
146
0.0
 13
0.0
 23
0.0
 33
0.0
 16
1.0
 26
0.0
 36
0.0
 17
0.0
 27
1.0
 37
0.0
 76
     0
330
1B
  0
LAYOUT
  5
26
102
{ACAD_REACTORS
330
1A
102
}
330
1A
100
AcDbPlotSettings
  1

  2
none_device
  4

  6

 40
0.0
 41
0.0
 42
0.0
 43
0.0
 44
0.0
 45
0.0
 46
0.0
 47
0.0
 48
0.0
 49
0.0
140
0.0
141
0.0
142
1.0
143
1.0
 70
   688
 72
     0
 73
     0
 74
     5
  7

 75
    16
147
1.0
148
0.0
149
0.0
100
AcDbLayout
  1
Layout2
 70
     1
 71
     2
 10
0.0
 20
0.0
 11
0.0
 21
0.0
 12
0.0
 22
0.0
 32
0.0
 14
0.0
 24
0.0
 34
0.0
 15
0.0
 25
0.0
 35
0.0
146
0.0
 13
0.0
 23
0.0
 33
0.0
 16
1.0
 26
0.0
 36
0.0
 17
0.0
 27
1.0
 37
0.0
 76
     0
330
23
  0
LAYOUT
  5
22
102
{ACAD_REACTORS
330
1A
102
}
330
1A
100
AcDbPlotSettings
  1

  2
none_device
  4

  6

 40
0.0
 41
0.0
 42
0.0
 43
0.0
 44
0.0
 45
0.0
 46
0.0
 47
0.0
 48
0.0
 49
0.0
140
0.0
141
0.0
142
1.0
143
1.0
 70
  1712
 72
     0
 73
     0
 74
     0
  7

 75
     0
147
1.0
148
0.0
149
0.0
100
AcDbLayout
  1
Model
 70
     1
 71
     0
 10
0.0
 20
0.0
 11
841.0
 21
594.0
 12
0.0
 22
0.0
 32
0.0
 14
0.0
 24
0.0
 34
0.0
 15
841.0
 25
594.0
 35
0.0
146
0.0
 13
0.0
 23
0.0
 33
0.0
 16
1.0
 26
0.0
 36
0.0
 17
0.0
 27
1.0
 37
0.0
 76
     0
330
1F
331
29
  0
MLINESTYLE
  5
18
102
{ACAD_REACTORS
330
17
102
}
330
17
100
AcDbMlineStyle
  2
Standard
 70
     0
  3

 62
   256
 51
90.0
 52
90.0
 71
     2
 49
0.5
 62
   256
  6
BYLAYER
 49
-0.5
 62
   256
  6
BYLAYER
  0
ACDBPLACEHOLDER
  5
F
102
{ACAD_REACTORS
330
E
102
}
330
E
  0
ENDSEC
  0
EOF
