  0
SECTION
  2
HEADER
  9
$ACADVER
  1
AC1015
  9
$ACADMAINTVER
 70
     6
  9
$DWGCODEPAGE
  3
ANSI_1252
  9
$INSBASE
 10
0.0
 20
0.0
 30
0.0
  9
$EXTMIN
 10
0.0
 20
0.0
 30
0.0
  9
$EXTMAX
 10
420.0
 20
297.0
 30
0.0
  9
$LIMMIN
 10
0.0
 20
0.0
  9
$LIMMAX
 10
420.0
 20
297.0
  9
$ORTHOMODE
 70
     0
  9
$REGENMODE
 70
     1
  9
$FILLMODE
 70
     1
  9
$QTEXTMODE
 70
     0
  9
$MIRRTEXT
 70
     1
  9
$LTSCALE
 40
1.0
  9
$ATTMODE
 70
     1
  9
$TEXTSIZE
 40
3.5
  9
$TRACEWID
 40
1.0
  9
$TEXTSTYLE
  7
Standard
  9
$CLAYER
  8
0
  9
$CELTYPE
  6
ByLayer
  9
$CECOLOR
 62
   256
  9
$CELTSCALE
 40
1.0
  9
$DISPSILH
 70
     0
  9
$DIMSCALE
 40
1.0
  9
$DIMASZ
 40
3.302
  9
$DIMEXO
 40
1.0
  9
$DIMDLI
 40
3.75
  9
$DIMRND
 40
0.0
  9
$DIMDLE
 40
0.0
  9
$DIMEXE
 40
1.0
  9
$DIMTP
 40
0.0
  9
$DIMTM
 40
0.0
  9
$DIMTXT
 40
3.5
  9
$DIMCEN
 40
2.5
  9
$DIMTSZ
 40
0.0
  9
$DIMTOL
 70
     0
  9
$DIMLIM
 70
     0
  9
$DIMTIH
 70
     1
  9
$DIMTOH
 70
     1
  9
$DIMSE1
 70
     0
  9
$DIMSE2
 70
     0
  9
$DIMTAD
 70
     1
  9
$DIMZIN
 70
     0
  9
$DIMBLK
  1

  9
$DIMASO
 70
     1
  9
$DIMSHO
 70
     1
  9
$DIMPOST
  1

  9
$DIMAPOST
  1

  9
$DIMALT
 70
     0
  9
$DIMALTD
 70
     3
  9
$DIMALTF
 40
0.0393700787
  9
$DIMLFAC
 40
10.0
  9
$DIMTOFL
 70
     1
  9
$DIMTVP
 40
0.0
  9
$DIMTIX
 70
     0
  9
$DIMSOXD
 70
     0
  9
$DIMSAH
 70
     0
  9
$DIMBLK1
  1

  9
$DIMBLK2
  1

  9
$DIMSTYLE
  2
ISO-25
  9
$DIMCLRD
 70
     0
  9
$DIMCLRE
 70
     0
  9
$DIMCLRT
 70
     0
  9
$DIMTFAC
 40
1.0
  9
$DIMGAP
 40
1.524
  9
$DIMJUST
 70
     0
  9
$DIMSD1
 70
     0
  9
$DIMSD2
 70
     0
  9
$DIMTOLJ
 70
     0
  9
$DIMTZIN
 70
     0
  9
$DIMALTZ
 70
     0
  9
$DIMALTTZ
 70
     0
  9
$DIMUPT
 70
     0
  9
$DIMDEC
 70
     3
  9
$DIMTDEC
 70
     3
  9
$DIMALTU
 70
     2
  9
$DIMALTTD
 70
     3
  9
$DIMTXSTY
  7
Standard
  9
$DIMAUNIT
 70
     0
  9
$DIMADEC
 70
     2
  9
$DIMALTRND
 40
0.0
  9
$DIMAZIN
 70
     0
  9
$DIMDSEP
 70
    44
  9
$DIMATFIT
 70
     3
  9
$DIMFRAC
 70
     0
  9
$DIMLDRBLK
  1

  9
$DIMLUNIT
 70
     2
  9
$DIMLWD
 70
    -2
  9
$DIMLWE
 70
    -2
  9
$DIMTMOVE
 70
     0
  9
$LUNITS
 70
     2
  9
$LUPREC
 70
     8
  9
$SKETCHINC
 40
1.0
  9
$FILLETRAD
 40
10.0
  9
$AUNITS
 70
     0
  9
$AUPREC
 70
     8
  9
$MENU
  1
.
  9
$ELEVATION
 40
0.0
  9
$PELEVATION
 40
0.0
  9
$THICKNESS
 40
0.0
  9
$LIMCHECK
 70
     0
  9
$CHAMFERA
 40
10.0
  9
$CHAMFERB
 40
10.0
  9
$CHAMFERC
 40
20.0
  9
$CHAMFERD
 40
0.0
  9
$SKPOLY
 70
     0
  9
$TDCREATE
 40
2455379.49918191
  9
$TDUCREATE
 40
2455379.457515243
  9
$TDUPDATE
 40
2455379.499181921
  9
$TDUUPDATE
 40
2455379.457515255
  9
$TDINDWG
 40
0.0000000116
  9
$TDUSRTIMER
 40
0.0000000116
  9
$USRTIMER
 70
     1
  9
$ANGBASE
 50
0.0
  9
$ANGDIR
 70
     0
  9
$PDMODE
 70
     0
  9
$PDSIZE
 40
-1.0
  9
$PLINEWID
 40
0.0
  9
$SPLFRAME
 70
     0
  9
$SPLINETYPE
 70
     6
  9
$SPLINESEGS
 70
     8
  9
$HANDSEED
  5
2AE
  9
$SURFTAB1
 70
     6
  9
$SURFTAB2
 70
     6
  9
$SURFTYPE
 70
     6
  9
$SURFU
 70
     6
  9
$SURFV
 70
     6
  9
$UCSBASE
  2

  9
$UCSNAME
  2

  9
$UCSORG
 10
0.0
 20
0.0
 30
0.0
  9
$UCSXDIR
 10
1.0
 20
0.0
 30
0.0
  9
$UCSYDIR
 10
0.0
 20
1.0
 30
0.0
  9
$UCSORTHOREF
  2

  9
$UCSORTHOVIEW
 70
     0
  9
$UCSORGTOP
 10
0.0
 20
0.0
 30
0.0
  9
$UCSORGBOTTOM
 10
0.0
 20
0.0
 30
0.0
  9
$UCSORGLEFT
 10
0.0
 20
0.0
 30
0.0
  9
$UCSORGRIGHT
 10
0.0
 20
0.0
 30
0.0
  9
$UCSORGFRONT
 10
0.0
 20
0.0
 30
0.0
  9
$UCSORGBACK
 10
0.0
 20
0.0
 30
0.0
  9
$PUCSBASE
  2

  9
$PUCSNAME
  2

  9
$PUCSORG
 10
0.0
 20
0.0
 30
0.0
  9
$PUCSXDIR
 10
1.0
 20
0.0
 30
0.0
  9
$PUCSYDIR
 10
0.0
 20
1.0
 30
0.0
  9
$PUCSORTHOREF
  2

  9
$PUCSORTHOVIEW
 70
     0
  9
$PUCSORGTOP
 10
0.0
 20
0.0
 30
0.0
  9
$PUCSORGBOTTOM
 10
0.0
 20
0.0
 30
0.0
  9
$PUCSORGLEFT
 10
0.0
 20
0.0
 30
0.0
  9
$PUCSORGRIGHT
 10
0.0
 20
0.0
 30
0.0
  9
$PUCSORGFRONT
 10
0.0
 20
0.0
 30
0.0
  9
$PUCSORGBACK
 10
0.0
 20
0.0
 30
0.0
  9
$USERI1
 70
     0
  9
$USERI2
 70
     0
  9
$USERI3
 70
     0
  9
$USERI4
 70
     0
  9
$USERI5
 70
     0
  9
$USERR1
 40
0.0
  9
$USERR2
 40
0.0
  9
$USERR3
 40
0.0
  9
$USERR4
 40
0.0
  9
$USERR5
 40
0.0
  9
$WORLDVIEW
 70
     1
  9
$SHADEDGE
 70
     3
  9
$SHADEDIF
 70
    70
  9
$TILEMODE
 70
     1
  9
$MAXACTVP
 70
    64
  9
$PINSBASE
 10
0.0
 20
0.0
 30
0.0
  9
$PLIMCHECK
 70
     0
  9
$PEXTMIN
 10
1.0000000000E+20
 20
1.0000000000E+20
 30
1.0000000000E+20
  9
$PEXTMAX
 10
-1.0000000000E+20
 20
-1.0000000000E+20
 30
-1.0000000000E+20
  9
$PLIMMIN
 10
0.0
 20
0.0
  9
$PLIMMAX
 10
420.0
 20
297.0
  9
$UNITMODE
 70
     0
  9
$VISRETAIN
 70
     1
  9
$PLINEGEN
 70
     0
  9
$PSLTSCALE
 70
     1
  9
$TREEDEPTH
 70
  3020
  9
$CMLSTYLE
  2
Standard
  9
$CMLJUST
 70
     0
  9
$CMLSCALE
 40
20.0
  9
$PROXYGRAPHICS
 70
     1
  9
$MEASUREMENT
 70
     1
  9
$CELWEIGHT
370
    -1
  9
$ENDCAPS
280
     0
  9
$JOINSTYLE
280
     0
  9
$LWDISPLAY
290
     1
  9
$INSUNITS
 70
     4
  9
$HYPERLINKBASE
  1

  9
$STYLESHEET
  1

  9
$XEDIT
290
     1
  9
$CEPSNTYPE
380
     0
  9
$PSTYLEMODE
290
     1
  9
$FINGERPRINTGUID
  2
{E7F6F776-70CC-47F7-A4EA-099A076C84C9}
  9
$VERSIONGUID
  2
{FAEB1C32-E019-11D5-929B-00C0DF256EC4}
  9
$EXTNAMES
290
     1
  9
$PSVPSCALE
 40
0.0
  9
$OLESTARTUP
290
     0
  0
ENDSEC
  0
SECTION
  2
CLASSES
  0
CLASS
  1
ACDBDICTIONARYWDFLT
  2
AcDbDictionaryWithDefault
  3
ObjectDBX Classes
 90
        0
280
     0
281
     0
  0
CLASS
  1
VISUALSTYLE
  2
AcDbVisualStyle
  3
ObjectDBX Classes
 90
     4095
280
     0
281
     0
  0
CLASS
  1
MATERIAL
  2
AcDbMaterial
  3
ObjectDBX Classes
 90
     1153
280
     0
281
     0
  0
CLASS
  1
DICTIONARYVAR
  2
AcDbDictionaryVar
  3
ObjectDBX Classes
 90
        0
280
     0
281
     0
  0
CLASS
  1
ACDBPLACEHOLDER
  2
AcDbPlaceHolder
  3
ObjectDBX Classes
 90
        0
280
     0
281
     0
  0
CLASS
  1
LAYOUT
  2
AcDbLayout
  3
ObjectDBX Classes
 90
        0
280
     0
281
     0
  0
ENDSEC
  0
SECTION
  2
TABLES
  0
TABLE
  2
VPORT
  5
8
330
0
100
AcDbSymbolTable
 70
     1
  0
VPORT
  5
29
330
8
100
AcDbSymbolTableRecord
100
AcDbViewportTableRecord
  2
*Active
 70
     0
 10
0.0
 20
0.0
 11
1.0
 21
1.0
 12
210.0
 22
148.5
 13
0.0
 23
0.0
 14
10.0
 24
10.0
 15
10.0
 25
10.0
 16
0.0
 26
0.0
 36
1.0
 17
0.0
 27
0.0
 37
0.0
 40
297.0
 41
1.4141414141
 42
50.0
 43
0.0
 44
0.0
 50
0.0
 51
0.0
 71
     0
 72
  2000
 73
     1
 74
     3
 75
     0
 76
     0
 77
     0
 78
     0
281
     0
 65
     1
110
0.0
120
0.0
130
0.0
111
1.0
121
0.0
131
0.0
112
0.0
122
1.0
132
0.0
 79
     0
146
0.0
  0
ENDTAB
  0
TABLE
  2
LTYPE
  5
5
330
0
100
AcDbSymbolTable
 70
     6
  0
LTYPE
  5
14
330
5
100
AcDbSymbolTableRecord
100
AcDbLinetypeTableRecord
  2
ByBlock
 70
     0
  3

 72
    65
 73
     0
 40
0.0
  0
LTYPE
  5
15
330
5
100
AcDbSymbolTableRecord
100
AcDbLinetypeTableRecord
  2
ByLayer
 70
     0
  3

 72
    65
 73
     0
 40
0.0
  0
LTYPE
  5
16
330
5
100
AcDbSymbolTableRecord
100
AcDbLinetypeTableRecord
  2
Continuous
 70
     0
  3
Solid line
 72
    65
 73
     0
 40
0.0
  0
LTYPE
  5
3F
330
5
100
AcDbSymbolTableRecord
100
AcDbLinetypeTableRecord
  2
HIDDEN
 70
     0
  3
Hidden __ __ __ __ __ __ __ __ __ __ __ __ __ __
 72
    65
 73
     2
 40
1.905
 49
1.27
 74
     0
 49
-0.635
 74
     0
  0
LTYPE
  5
40
330
5
100
AcDbSymbolTableRecord
100
AcDbLinetypeTableRecord
  2
PHANTOM
 70
     0
  3
Phantom ______  __  __  ______  __  __  ______
 72
    65
 73
     6
 40
12.7
 49
6.35
 74
     0
 49
-1.27
 74
     0
 49
1.27
 74
     0
 49
-1.27
 74
     0
 49
1.27
 74
     0
 49
-1.27
 74
     0
  0
LTYPE
  5
41
330
5
100
AcDbSymbolTableRecord
100
AcDbLinetypeTableRecord
  2
CENTER
 70
     0
  3
Center ____ _ ____ _ ____ _ ____ _ ____ _ ____
 72
    65
 73
     4
 40
10.16
 49
6.35
 74
     0
 49
-1.27
 74
     0
 49
1.27
 74
     0
 49
-1.27
 74
     0
  0
LTYPE
  5
42
330
5
100
AcDbSymbolTableRecord
100
AcDbLinetypeTableRecord
  2
CENTERX2
 70
     0
  3
Center (2x) ________  __  ________  __  _____
 72
    65
 73
     4
 40
20.32
 49
12.7
 74
     0
 49
-2.54
 74
     0
 49
2.54
 74
     0
 49
-2.54
 74
     0
  0
LTYPE
  5
43
330
5
100
AcDbSymbolTableRecord
100
AcDbLinetypeTableRecord
  2
DOT2
 70
     0
  3
Dot (.5x) ........................................
 72
    65
 73
     2
 40
0.635
 49
0.0
 74
     0
 49
-0.635
 74
     0
  0
ENDTAB
  0
TABLE
  2
LAYER
  5
2
330
0
100
AcDbSymbolTable
 70
     4
  0
LAYER
  5
10
330
2
100
AcDbSymbolTableRecord
100
AcDbLayerTableRecord
  2
0
 70
     0
 62
     7
  6
Continuous
370
    -3
390
F
  0
LAYER
  5
44
330
2
100
AcDbSymbolTableRecord
100
AcDbLayerTableRecord
  2
FORMAT
 70
     0
 62
     7
  6
Continuous
370
    -3
390
F
  0
LAYER
  5
45
330
2
100
AcDbSymbolTableRecord
100
AcDbLayerTableRecord
  2
SLD-0
 70
     0
 62
     1
  6
Continuous
370
    -3
390
F
  0
LAYER
  5
46
330
2
100
AcDbSymbolTableRecord
100
AcDbLayerTableRecord
  2
WATERMARK
 70
     0
 62
    20
  6
Continuous
370
    -3
390
F
  0
ENDTAB
  0
TABLE
  2
STYLE
  5
3
330
0
100
AcDbSymbolTable
 70
     1
  0
STYLE
  5
11
330
3
100
AcDbSymbolTableRecord
100
AcDbTextStyleTableRecord
  2
Standard
 70
     0
 40
0.0
 41
1.0
 50
0.0
 71
     0
 42
2.5
  3
txt
  4

  0
ENDTAB
  0
TABLE
  2
VIEW
  5
6
330
0
100
AcDbSymbolTable
 70
     0
  0
ENDTAB
  0
TABLE
  2
UCS
  5
7
330
0
100
AcDbSymbolTable
 70
     0
  0
ENDTAB
  0
TABLE
  2
APPID
  5
9
330
0
100
AcDbSymbolTable
 70
     1
  0
APPID
  5
12
330
9
100
AcDbSymbolTableRecord
100
AcDbRegAppTableRecord
  2
ACAD
 70
     0
  0
ENDTAB
  0
TABLE
  2
DIMSTYLE
  5
A
330
0
100
AcDbSymbolTable
 70
     1
100
AcDbDimStyleTable
  0
DIMSTYLE
105
27
330
A
100
AcDbSymbolTableRecord
100
AcDbDimStyleTableRecord
  2
ISO-25
 70
     0
 41
2.5
 42
0.625
 43
3.75
 44
1.25
 73
     0
 74
     0
 77
     1
 78
     8
140
2.5
141
2.5
143
0.0393700787
147
0.625
171
     3
172
     1
271
     2
272
     2
274
     3
278
    44
283
     0
284
     8
340
11
  0
ENDTAB
  0
TABLE
  2
BLOCK_RECORD
  5
1
330
0
100
AcDbSymbolTable
 70
     1
  0
BLOCK_RECORD
  5
1F
330
1
100
AcDbSymbolTableRecord
100
AcDbBlockTableRecord
  2
*Model_Space
340
22
  0
BLOCK_RECORD
  5
1B
330
1
100
AcDbSymbolTableRecord
100
AcDbBlockTableRecord
  2
*Paper_Space
340
1E
  0
BLOCK_RECORD
  5
23
330
1
100
AcDbSymbolTableRecord
100
AcDbBlockTableRecord
  2
*Paper_Space0
340
26
  0
ENDTAB
  0
ENDSEC
  0
SECTION
  2
BLOCKS
  0
BLOCK
  5
20
330
1F
100
AcDbEntity
  8
0
100
AcDbBlockBegin
  2
*Model_Space
 70
     0
 10
0.0
 20
0.0
 30
0.0
  3
*Model_Space
  1

  0
ENDBLK
  5
21
330
1F
100
AcDbEntity
  8
0
100
AcDbBlockEnd
  0
BLOCK
  5
1C
330
1B
100
AcDbEntity
 67
     1
  8
0
100
AcDbBlockBegin
  2
*Paper_Space
 70
     0
 10
0.0
 20
0.0
 30
0.0
  3
*Paper_Space
  1

  0
ENDBLK
  5
1D
330
1B
100
AcDbEntity
 67
     1
  8
0
100
AcDbBlockEnd
  0
BLOCK
  5
24
330
23
100
AcDbEntity
  8
0
100
AcDbBlockBegin
  2
*Paper_Space0
 70
     0
 10
0.0
 20
0.0
 30
0.0
  3
*Paper_Space0
  1

  0
ENDBLK
  5
25
330
23
100
AcDbEntity
  8
0
100
AcDbBlockEnd
  0
ENDSEC
  0
SECTION
  2
ENTITIES
  0
LINE
  5
47
330
1F
100
AcDbEntity
  8
0
  6
Continuous
 62
     7
370
    15
100
AcDbLine
 10
121.5610440835
 20
165.2409762251
 30
0.0
 11
121.8610440835
 21
165.2409762251
 31
0.0
  0
LINE
  5
48
330
1F
100
AcDbEntity
  8
0
  6
Continuous
 62
     7
370
    15
100
AcDbLine
 10
121.8610440835
 20
166.2409762251
 30
0.0
 11
121.5610440835
 21
166.2409762251
 31
0.0
  0
LINE
  5
49
330
1F
100
AcDbEntity
  8
0
  6
Continuous
 62
     7
370
    15
100
AcDbLine
 10
220.3610440835
 20
165.2409762251
 30
0.0
 11
220.6110440835
 21
165.2409762251
 31
0.0
  0
LINE
  5
4A
330
1F
100
AcDbEntity
  8
0
  6
Continuous
 62
     7
370
    15
100
AcDbLine
 10
220.6110440835
 20
166.2409762251
 30
0.0
 11
220.3610440835
 21
166.2409762251
 31
0.0
  0
LINE
  5
4B
330
1F
100
AcDbEntity
  8
0
  6
Continuous
 62
     7
370
    15
100
AcDbLine
 10
220.6110440835
 20
165.3909762251
 30
0.0
 11
220.7110440835
 21
165.3909762251
 31
0.0
  0
LINE
  5
4C
330
1F
100
AcDbEntity
  8
0
  6
Continuous
 62
     7
370
    15
100
AcDbLine
 10
220.7110440835
 20
166.0909762251
 30
0.0
 11
220.6110440835
 21
166.0909762251
 31
0.0
  0
LINE
  5
4D
330
1F
100
AcDbEntity
  8
0
  6
Continuous
 62
     7
370
    15
100
AcDbLine
 10
121.5610440835
 20
166.0909762251
 30
0.0
 11
121.5110440835
 21
166.0909762251
 31
0.0
  0
LINE
  5
4E
330
1F
100
AcDbEntity
  8
0
  6
Continuous
 62
     7
370
    15
100
AcDbLine
 10
121.5110440835
 20
165.3909762251
 30
0.0
 11
121.5610440835
 21
165.3909762251
 31
0.0
  0
ARC
  5
4F
330
1F
100
AcDbEntity
  8
0
  6
Continuous
 62
     7
370
    15
100
AcDbCircle
 10
170.5210440835
 20
167.6459762251
 30
0.0
 40
0.0499999999999962
100
AcDbArc
 50
224.4270040008
 51
244.1580672368
  0
ARC
  5
50
330
1F
100
AcDbEntity
  8
0
  6
Continuous
 62
     7
370
    15
100
AcDbCircle
 10
171.7010440835
 20
167.6459762251
 30
0.0
 40
0.0499999999999962
100
AcDbArc
 50
295.8419327632
 51
315.5729959992
  0
LINE
  5
51
330
1F
100
AcDbEntity
  8
0
  6
Continuous
 62
     7
370
    15
100
AcDbLine
 10
238.3110440835
 20
174.4117891602
 30
0.0
 11
238.4310440835
 21
174.4117891602
 31
0.0
  0
LINE
  5
52
330
1F
100
AcDbEntity
  8
0
  6
Continuous
 62
     7
370
    15
100
AcDbLine
 10
238.3110440835
 20
172.039870339
 30
0.0
 11
238.4310440835
 21
172.039870339
 31
0.0
  0
LINE
  5
53
330
1F
100
AcDbEntity
  8
0
  6
Continuous
 62
     7
370
    15
100
AcDbLine
 10
103.9110440835
 20
180.3615285442
 30
0.0
 11
103.7910440835
 21
180.3615285442
 31
0.0
  0
LINE
  5
54
330
1F
100
AcDbEntity
  8
0
  6
Continuous
 62
     7
370
    15
100
AcDbLine
 10
103.7910440835
 20
176.8239290325
 30
0.0
 11
103.9110440835
 21
176.8239290325
 31
0.0
  0
LINE
  5
55
330
1F
100
AcDbEntity
  8
0
  6
Continuous
 62
     7
370
    15
100
AcDbLine
 10
103.7910440835
 20
174.4117891602
 30
0.0
 11
103.9110440835
 21
174.4117891602
 31
0.0
  0
LINE
  5
56
330
1F
100
AcDbEntity
  8
0
  6
Continuous
 62
     7
370
    15
100
AcDbLine
 10
103.7910440835
 20
172.039870339
 30
0.0
 11
103.9110440835
 21
172.039870339
 31
0.0
  0
LINE
  5
57
330
1F
100
AcDbEntity
  8
0
  6
Continuous
 62
     7
370
    15
100
AcDbLine
 10
238.4310440835
 20
180.3615285442
 30
0.0
 11
238.3110440835
 21
180.3615285442
 31
0.0
  0
LINE
  5
58
330
1F
100
AcDbEntity
  8
0
  6
Continuous
 62
     7
370
    15
100
AcDbLine
 10
238.3110440835
 20
176.8239290325
 30
0.0
 11
238.4310440835
 21
176.8239290325
 31
0.0
  0
LINE
  5
59
330
1F
100
AcDbEntity
  8
0
  6
Continuous
 62
     7
370
    15
100
AcDbLine
 10
238.3110440835
 20
180.3615285442
 30
0.0
 11
103.9110440835
 21
180.3615285442
 31
0.0
  0
LINE
  5
5A
330
1F
100
AcDbEntity
  8
0
  6
Continuous
 62
     7
370
    15
100
AcDbLine
 10
103.9110440835
 20
176.8239290325
 30
0.0
 11
119.6610440835
 21
176.8239290325
 31
0.0
  0
LINE
  5
5B
330
1F
100
AcDbEntity
  8
0
  6
Continuous
 62
     7
370
    15
100
AcDbLine
 10
123.2610440835
 20
176.8239290325
 30
0.0
 11
170.9610440835
 21
176.8239290325
 31
0.0
  0
LINE
  5
5C
330
1F
100
AcDbEntity
  8
0
  6
Continuous
 62
     7
370
    15
100
AcDbLine
 10
174.5610440835
 20
176.8239290325
 30
0.0
 11
222.2610440835
 21
176.8239290325
 31
0.0
  0
LINE
  5
5D
330
1F
100
AcDbEntity
  8
0
  6
Continuous
 62
     7
370
    15
100
AcDbLine
 10
225.8610440835
 20
176.8239290325
 30
0.0
 11
238.3110440835
 21
176.8239290325
 31
0.0
  0
LINE
  5
5E
330
1F
100
AcDbEntity
  8
0
  6
Continuous
 62
     7
370
    15
100
AcDbLine
 10
103.9110440835
 20
174.4117891602
 30
0.0
 11
119.6610440835
 21
174.4117891602
 31
0.0
  0
LINE
  5
5F
330
1F
100
AcDbEntity
  8
0
  6
Continuous
 62
     7
370
    15
100
AcDbLine
 10
123.2610440835
 20
174.4117891602
 30
0.0
 11
170.9610440835
 21
174.4117891602
 31
0.0
  0
LINE
  5
60
330
1F
100
AcDbEntity
  8
0
  6
Continuous
 62
     7
370
    15
100
AcDbLine
 10
174.5610440835
 20
174.4117891602
 30
0.0
 11
222.2610440835
 21
174.4117891602
 31
0.0
  0
LINE
  5
61
330
1F
100
AcDbEntity
  8
0
  6
Continuous
 62
     7
370
    15
100
AcDbLine
 10
225.8610440835
 20
174.4117891602
 30
0.0
 11
238.3110440835
 21
174.4117891602
 31
0.0
  0
LINE
  5
62
330
1F
100
AcDbEntity
  8
0
  6
Continuous
 62
     7
370
    15
100
AcDbLine
 10
103.9110440835
 20
172.039870339
 30
0.0
 11
119.6610440835
 21
172.039870339
 31
0.0
  0
LINE
  5
63
330
1F
100
AcDbEntity
  8
0
  6
Continuous
 62
     7
370
    15
100
AcDbLine
 10
123.2610440835
 20
172.039870339
 30
0.0
 11
170.9610440835
 21
172.039870339
 31
0.0
  0
LINE
  5
64
330
1F
100
AcDbEntity
  8
0
  6
Continuous
 62
     7
370
    15
100
AcDbLine
 10
174.5610440835
 20
172.039870339
 30
0.0
 11
222.2610440835
 21
172.039870339
 31
0.0
  0
LINE
  5
65
330
1F
100
AcDbEntity
  8
0
  6
Continuous
 62
     7
370
    15
100
AcDbLine
 10
225.8610440835
 20
172.039870339
 30
0.0
 11
238.3110440835
 21
172.039870339
 31
0.0
  0
LINE
  5
66
330
1F
100
AcDbEntity
  8
0
  6
Continuous
 62
     7
370
    15
100
AcDbLine
 10
222.5610440835
 20
174.9542037062
 30
0.0
 11
222.2610440835
 21
174.9542037062
 31
0.0
  0
LINE
  5
67
330
1F
100
AcDbEntity
  8
0
  6
Continuous
 62
     7
370
    15
100
AcDbLine
 10
222.5610440835
 20
179.6083895926
 30
0.0
 11
222.2610440835
 21
179.6083895926
 31
0.0
  0
LINE
  5
68
330
1F
100
AcDbEntity
  8
0
  6
Continuous
 62
     7
370
    15
100
AcDbLine
 10
119.9610440835
 20
174.9542037062
 30
0.0
 11
119.6610440835
 21
174.9542037062
 31
0.0
  0
LINE
  5
69
330
1F
100
AcDbEntity
  8
0
  6
Continuous
 62
     7
370
    15
100
AcDbLine
 10
119.9610440835
 20
179.6083895926
 30
0.0
 11
119.6610440835
 21
179.6083895926
 31
0.0
  0
LINE
  5
6A
330
1F
100
AcDbEntity
  8
0
  6
Continuous
 62
     7
370
    15
100
AcDbLine
 10
171.2610440835
 20
174.9542037061
 30
0.0
 11
170.9610440835
 21
174.9542037061
 31
0.0
  0
LINE
  5
6B
330
1F
100
AcDbEntity
  8
0
  6
Continuous
 62
     7
370
    15
100
AcDbLine
 10
171.2610440835
 20
179.6083895926
 30
0.0
 11
170.9610440835
 21
179.6083895926
 31
0.0
  0
LINE
  5
6C
330
1F
100
AcDbEntity
  8
0
  6
Continuous
 62
     7
370
    15
100
AcDbLine
 10
171.2610440835
 20
174.9542037061
 30
0.0
 11
170.9610440835
 21
174.9542037061
 31
0.0
  0
LINE
  5
6D
330
1F
100
AcDbEntity
  8
0
  6
Continuous
 62
     7
370
    15
100
AcDbLine
 10
171.2610440835
 20
179.6083895926
 30
0.0
 11
170.9610440835
 21
179.6083895926
 31
0.0
  0
LINE
  5
6E
330
1F
100
AcDbEntity
  8
0
  6
Continuous
 62
     7
370
    15
100
AcDbLine
 10
119.9610440835
 20
174.9542037062
 30
0.0
 11
119.6610440835
 21
174.9542037062
 31
0.0
  0
LINE
  5
6F
330
1F
100
AcDbEntity
  8
0
  6
Continuous
 62
     7
370
    15
100
AcDbLine
 10
119.9610440835
 20
179.6083895926
 30
0.0
 11
119.6610440835
 21
179.6083895926
 31
0.0
  0
LINE
  5
70
330
1F
100
AcDbEntity
  8
0
  6
Continuous
 62
     7
370
    15
100
AcDbLine
 10
222.5610440835
 20
174.9542037062
 30
0.0
 11
222.2610440835
 21
174.9542037062
 31
0.0
  0
LINE
  5
71
330
1F
100
AcDbEntity
  8
0
  6
Continuous
 62
     7
370
    15
100
AcDbLine
 10
222.5610440835
 20
179.6083895926
 30
0.0
 11
222.2610440835
 21
179.6083895926
 31
0.0
  0
LINE
  5
72
330
1F
100
AcDbEntity
  8
0
  6
Continuous
 62
     7
370
    15
100
AcDbLine
 10
118.3160440835
 20
164.9259762251
 30
0.0
 11
118.2910440835
 21
164.9509762251
 31
0.0
  0
LINE
  5
73
330
1F
100
AcDbEntity
  8
0
  6
Continuous
 62
     7
370
    15
100
AcDbLine
 10
121.3110440835
 20
167.7509762251
 30
0.0
 11
121.3110440835
 21
167.6909762251
 31
0.0
  0
LINE
  5
74
330
1F
100
AcDbEntity
  8
0
  6
Continuous
 62
     7
370
    15
100
AcDbLine
 10
121.2010440835
 20
167.8609762251
 30
0.0
 11
121.2510440835
 21
167.8109762251
 31
0.0
  0
LINE
  5
75
330
1F
100
AcDbEntity
  8
0
  6
Continuous
 62
     7
370
    15
100
AcDbLine
 10
121.2810440835
 20
167.7809762251
 30
0.0
 11
121.3110440835
 21
167.7509762251
 31
0.0
  0
LINE
  5
76
330
1F
100
AcDbEntity
  8
0
  6
Continuous
 62
     7
370
    15
100
AcDbLine
 10
118.2910440835
 20
167.7509762251
 30
0.0
 11
118.4010440835
 21
167.8609762251
 31
0.0
  0
LINE
  5
77
330
1F
100
AcDbEntity
  8
0
  6
Continuous
 62
     7
370
    15
100
AcDbLine
 10
118.2910440835
 20
164.9509762251
 30
0.0
 11
118.2910440835
 21
167.7509762251
 31
0.0
  0
LINE
  5
78
330
1F
100
AcDbEntity
  8
0
  6
Continuous
 62
     7
370
    15
100
AcDbLine
 10
118.4010440835
 20
167.8609762251
 30
0.0
 11
121.2010440835
 21
167.8609762251
 31
0.0
  0
LINE
  5
79
330
1F
100
AcDbEntity
  8
0
  6
Continuous
 62
     7
370
    15
100
AcDbLine
 10
223.9110440835
 20
167.7509762251
 30
0.0
 11
223.9110440835
 21
167.6909762251
 31
0.0
  0
LINE
  5
7A
330
1F
100
AcDbEntity
  8
0
  6
Continuous
 62
     7
370
    15
100
AcDbLine
 10
223.8010440835
 20
167.8609762251
 30
0.0
 11
223.8510440835
 21
167.8109762251
 31
0.0
  0
LINE
  5
7B
330
1F
100
AcDbEntity
  8
0
  6
Continuous
 62
     7
370
    15
100
AcDbLine
 10
223.8810440835
 20
167.7809762251
 30
0.0
 11
223.9110440835
 21
167.7509762251
 31
0.0
  0
LINE
  5
7C
330
1F
100
AcDbEntity
  8
0
  6
Continuous
 62
     7
370
    15
100
AcDbLine
 10
221.0010440835
 20
167.8609762251
 30
0.0
 11
223.8010440835
 21
167.8609762251
 31
0.0
  0
LINE
  5
7D
330
1F
100
AcDbEntity
  8
0
  6
Continuous
 62
     7
370
    15
100
AcDbLine
 10
220.8910440835
 20
167.7509762251
 30
0.0
 11
221.0010440835
 21
167.8609762251
 31
0.0
  0
LINE
  5
7E
330
1F
100
AcDbEntity
  8
0
  6
Continuous
 62
     7
370
    15
100
AcDbLine
 10
220.8910440835
 20
167.2699013357
 30
0.0
 11
220.8910440835
 21
167.7509762251
 31
0.0
  0
LINE
  5
7F
330
1F
100
AcDbEntity
  8
0
  6
Continuous
 62
     7
370
    15
100
AcDbLine
 10
121.5610440835
 20
166.2409762251
 30
0.0
 11
121.5610440835
 21
165.2409762251
 31
0.0
  0
LINE
  5
80
330
1F
100
AcDbEntity
  8
0
  6
Continuous
 62
     7
370
    15
100
AcDbLine
 10
220.6110440835
 20
166.2409762251
 30
0.0
 11
220.6110440835
 21
165.2409762251
 31
0.0
  0
LINE
  5
81
330
1F
100
AcDbEntity
  8
0
  6
Continuous
 62
     7
370
    15
100
AcDbLine
 10
220.7110440835
 20
166.5409762251
 30
0.0
 11
220.7110440835
 21
166.1409762251
 31
0.0
  0
ARC
  5
82
330
1F
100
AcDbEntity
  8
0
  6
Continuous
 62
     7
370
    15
100
AcDbCircle
 10
221.1360440835
 20
165.0659762251
 30
0.0
 40
0.4250000000000023
100
AcDbArc
 50
180.0
 51
238.0342812492
  0
LINE
  5
83
330
1F
100
AcDbEntity
  8
0
  6
Continuous
 62
     7
370
    15
100
AcDbLine
 10
220.7110440835
 20
166.1409762251
 30
0.0
 11
220.7110440835
 21
165.0659762251
 31
0.0
  0
LINE
  5
84
330
1F
100
AcDbEntity
  8
0
  6
Continuous
 62
     7
370
    15
100
AcDbLine
 10
121.5110440835
 20
165.0659762251
 30
0.0
 11
121.5110440835
 21
166.1409762251
 31
0.0
  0
LINE
  5
85
330
1F
100
AcDbEntity
  8
0
  6
Continuous
 62
     7
370
    15
100
AcDbLine
 10
121.5110440835
 20
166.1409762251
 30
0.0
 11
121.5110440835
 21
166.5409762251
 31
0.0
  0
ARC
  5
86
330
1F
100
AcDbEntity
  8
0
  6
Continuous
 62
     7
370
    15
100
AcDbCircle
 10
121.0860440835
 20
165.0659762251
 30
0.0
 40
0.4249999999999829
100
AcDbArc
 50
301.9657187508
 51
0.0
  0
LINE
  5
87
330
1F
100
AcDbEntity
  8
0
  6
Continuous
 62
     7
370
    15
100
AcDbLine
 10
172.4110440835
 20
167.6009762251
 30
0.0
 11
172.6110440835
 21
167.6009762251
 31
0.0
  0
LINE
  5
88
330
1F
100
AcDbEntity
  8
0
  6
Continuous
 62
     7
370
    15
100
AcDbLine
 10
172.6110440835
 20
167.6009762251
 30
0.0
 11
172.6110440835
 21
167.4809762251
 31
0.0
  0
LINE
  5
89
330
1F
100
AcDbEntity
  8
0
  6
Continuous
 62
     7
370
    15
100
AcDbLine
 10
172.4110440835
 20
167.4809762251
 30
0.0
 11
172.6110440835
 21
167.4809762251
 31
0.0
  0
LINE
  5
8A
330
1F
100
AcDbEntity
  8
0
  6
Continuous
 62
     7
370
    15
100
AcDbLine
 10
169.6110440835
 20
167.6009762251
 30
0.0
 11
169.6110440835
 21
167.4809762251
 31
0.0
  0
LINE
  5
8B
330
1F
100
AcDbEntity
  8
0
  6
Continuous
 62
     7
370
    15
100
AcDbLine
 10
169.6110440835
 20
167.6009762251
 30
0.0
 11
169.8110440835
 21
167.6009762251
 31
0.0
  0
LINE
  5
8C
330
1F
100
AcDbEntity
  8
0
  6
Continuous
 62
     7
370
    15
100
AcDbLine
 10
169.6110440835
 20
167.4809762251
 30
0.0
 11
169.8110440835
 21
167.4809762251
 31
0.0
  0
LINE
  5
8D
330
1F
100
AcDbEntity
  8
0
  6
Continuous
 62
     7
370
    15
100
AcDbLine
 10
169.8110440835
 20
167.6009762251
 30
0.0
 11
172.4110440835
 21
167.6009762251
 31
0.0
  0
LINE
  5
8E
330
1F
100
AcDbEntity
  8
0
  6
Continuous
 62
     7
370
    15
100
AcDbLine
 10
169.8110440835
 20
167.4809762251
 30
0.0
 11
172.4110440835
 21
167.4809762251
 31
0.0
  0
LINE
  5
8F
330
1F
100
AcDbEntity
  8
0
  6
Continuous
 62
     7
370
    15
100
AcDbLine
 10
171.6110440835
 20
167.6109762251
 30
0.0
 11
171.6110440835
 21
167.6009762251
 31
0.0
  0
LINE
  5
90
330
1F
100
AcDbEntity
  8
0
  6
Continuous
 62
     7
370
    15
100
AcDbLine
 10
171.6110440835
 20
167.4809762251
 30
0.0
 11
171.6110440835
 21
167.4709762251
 31
0.0
  0
LINE
  5
91
330
1F
100
AcDbEntity
  8
0
  6
Continuous
 62
     7
370
    15
100
AcDbLine
 10
172.3110440835
 20
167.4709762251
 30
0.0
 11
172.3110440835
 21
167.4809762251
 31
0.0
  0
LINE
  5
92
330
1F
100
AcDbEntity
  8
0
  6
Continuous
 62
     7
370
    15
100
AcDbLine
 10
172.3110440835
 20
167.6009762251
 30
0.0
 11
172.3110440835
 21
167.6109762251
 31
0.0
  0
LINE
  5
93
330
1F
100
AcDbEntity
  8
0
  6
Continuous
 62
     7
370
    15
100
AcDbLine
 10
172.4110440835
 20
167.8409762251
 30
0.0
 11
169.8110440835
 21
167.8409762251
 31
0.0
  0
LINE
  5
94
330
1F
100
AcDbEntity
  8
0
  6
Continuous
 62
     7
370
    15
100
AcDbLine
 10
172.3110440835
 20
167.6109762251
 30
0.0
 11
171.6110440835
 21
167.6109762251
 31
0.0
  0
LINE
  5
95
330
1F
100
AcDbEntity
  8
0
  6
Continuous
 62
     7
370
    15
100
AcDbLine
 10
169.6110440835
 20
167.6409762251
 30
0.0
 11
169.6110440835
 21
167.6009762251
 31
0.0
  0
LINE
  5
96
330
1F
100
AcDbEntity
  8
0
  6
Continuous
 62
     7
370
    15
100
AcDbLine
 10
169.6110440835
 20
167.4809762251
 30
0.0
 11
169.6110440835
 21
167.3409762251
 31
0.0
  0
ARC
  5
97
330
1F
100
AcDbEntity
  8
0
  6
Continuous
 62
     7
370
    15
100
AcDbCircle
 10
172.4110440835
 20
167.6409762251
 30
0.0
 40
0.2000000000000171
100
AcDbArc
 50
0.0
 51
90.0
  0
LINE
  5
98
330
1F
100
AcDbEntity
  8
0
  6
Continuous
 62
     7
370
    15
100
AcDbLine
 10
170.6110440835
 20
167.6109762251
 30
0.0
 11
169.9110440835
 21
167.6109762251
 31
0.0
  0
LINE
  5
99
330
1F
100
AcDbEntity
  8
0
  6
Continuous
 62
     7
370
    15
100
AcDbLine
 10
171.6110440835
 20
167.4709762251
 30
0.0
 11
172.3110440835
 21
167.4709762251
 31
0.0
  0
ARC
  5
9A
330
1F
100
AcDbEntity
  8
0
  6
Continuous
 62
     7
370
    15
100
AcDbCircle
 10
169.8110440835
 20
167.6409762251
 30
0.0
 40
0.1999999999999886
100
AcDbArc
 50
90.0
 51
180.0
  0
LINE
  5
9B
330
1F
100
AcDbEntity
  8
0
  6
Continuous
 62
     7
370
    15
100
AcDbLine
 10
169.9110440835
 20
167.6109762251
 30
0.0
 11
169.9110440835
 21
167.6009762251
 31
0.0
  0
LINE
  5
9C
330
1F
100
AcDbEntity
  8
0
  6
Continuous
 62
     7
370
    15
100
AcDbLine
 10
169.9110440835
 20
167.4809762251
 30
0.0
 11
169.9110440835
 21
167.4709762251
 31
0.0
  0
LINE
  5
9D
330
1F
100
AcDbEntity
  8
0
  6
Continuous
 62
     7
370
    15
100
AcDbLine
 10
169.9110440835
 20
167.4709762251
 30
0.0
 11
170.6110440835
 21
167.4709762251
 31
0.0
  0
LINE
  5
9E
330
1F
100
AcDbEntity
  8
0
  6
Continuous
 62
     7
370
    15
100
AcDbLine
 10
170.6110440835
 20
167.4709762251
 30
0.0
 11
170.6110440835
 21
167.4809762251
 31
0.0
  0
LINE
  5
9F
330
1F
100
AcDbEntity
  8
0
  6
Continuous
 62
     7
370
    15
100
AcDbLine
 10
170.6110440835
 20
167.6009762251
 30
0.0
 11
170.6110440835
 21
167.6109762251
 31
0.0
  0
LINE
  5
A0
330
1F
100
AcDbEntity
  8
0
  6
Continuous
 62
     7
370
    15
100
AcDbLine
 10
172.6110440835
 20
167.3409762251
 30
0.0
 11
172.6110440835
 21
167.4809762251
 31
0.0
  0
LINE
  5
A1
330
1F
100
AcDbEntity
  8
0
  6
Continuous
 62
     7
370
    15
100
AcDbLine
 10
172.6110440835
 20
167.6009762251
 30
0.0
 11
172.6110440835
 21
167.6409762251
 31
0.0
  0
LINE
  5
A2
330
1F
100
AcDbEntity
  8
0
  6
Continuous
 62
     7
370
    15
100
AcDbLine
 10
172.6110440835
 20
167.6409762251
 30
0.0
 11
172.6110440835
 21
167.6909762251
 31
0.0
  0
ARC
  5
A3
330
1F
100
AcDbEntity
  8
0
  6
Continuous
 62
     7
370
    15
100
AcDbCircle
 10
169.7610440835
 20
167.6909762251
 30
0.0
 40
0.1500000000000057
100
AcDbArc
 50
90.0
 51
180.0
  0
ARC
  5
A4
330
1F
100
AcDbEntity
  8
0
  6
Continuous
 62
     7
370
    15
100
AcDbCircle
 10
172.4610440835
 20
167.6909762251
 30
0.0
 40
0.1499999999999773
100
AcDbArc
 50
0.0
 51
90.0
  0
SPLINE
  5
A5
330
1F
100
AcDbEntity
  8
0
  6
Continuous
 62
     7
370
    15
100
AcDbSpline
210
0.0
220
0.0
230
1.0
 70
     8
 71
     3
 72
    11
 73
     7
 74
     0
 42
0.00000001
 43
0.00000001
 40
0.0
 40
0.0
 40
0.0
 40
0.0
 40
0.2500000000000027
 40
0.5000000000000056
 40
0.7499999999999973
 40
1.0
 40
1.0
 40
1.0
 40
1.0
 10
224.6310440835196
 20
127.4709762250738
 30
0.0
 10
224.6664240853473
 20
127.4590654807247
 30
0.0
 10
224.7371840890027
 20
127.4352439920267
 30
0.0
 10
224.8264312220188
 20
127.3995117589797
 30
0.0
 10
224.8888685095619
 20
127.3637795259326
 30
0.0
 10
224.896985558867
 20
127.3399580372346
 30
0.0
 10
224.9010440835196
 20
127.3280472928856
 30
0.0
  0
LINE
  5
A6
330
1F
100
AcDbEntity
  8
0
  6
Continuous
 62
     7
370
    15
100
AcDbLine
 10
224.7810440835
 20
127.3280472929
 30
0.0
 11
224.9010440835
 21
127.3280472929
 31
0.0
  0
SPLINE
  5
A7
330
1F
100
AcDbEntity
  8
0
  6
Continuous
 62
     7
370
    15
100
AcDbSpline
210
0.0
220
0.0
230
1.0
 70
     8
 71
     3
 72
    11
 73
     7
 74
     0
 42
0.00000001
 43
0.00000001
 40
0.0
 40
0.0
 40
0.0
 40
0.0
 40
0.2500000000000138
 40
0.5000000000000143
 40
0.7500000000000201
 40
1.0
 40
1.0
 40
1.0
 40
1.0
 10
224.6310440835196
 20
127.4709762250738
 30
0.0
 10
224.6506996400906
 20
127.4590654807247
 30
0.0
 10
224.6900107532324
 20
127.4352439920267
 30
0.0
 10
224.739592493797
 20
127.3995117589797
 30
0.0
 10
224.7742798757653
 20
127.3637795259326
 30
0.0
 10
224.7787893476015
 20
127.3399580372346
 30
0.0
 10
224.7810440835196
 20
127.3280472928856
 30
0.0
  0
SPLINE
  5
A8
330
1F
100
AcDbEntity
  8
0
  6
Continuous
 62
     7
370
    15
100
AcDbSpline
210
0.0
220
0.0
230
1.0
 70
     8
 71
     3
 72
    11
 73
     7
 74
     0
 42
0.00000001
 43
0.00000001
 40
0.0
 40
0.0
 40
0.0
 40
0.0
 40
0.2500000000000022
 40
0.4999999999999934
 40
0.7499999999999978
 40
1.0
 40
1.0
 40
1.0
 40
1.0
 10
224.9010440835196
 20
149.3139051572619
 30
0.0
 10
224.896985558867
 20
149.3019944129129
 30
0.0
 10
224.8888685095619
 20
149.2781729242149
 30
0.0
 10
224.8264312220188
 20
149.2424406911678
 30
0.0
 10
224.7371840890027
 20
149.2067084581208
 30
0.0
 10
224.6664240853473
 20
149.1828869694228
 30
0.0
 10
224.6310440835196
 20
149.1709762250738
 30
0.0
  0
LINE
  5
A9
330
1F
100
AcDbEntity
  8
0
  6
Continuous
 62
     7
370
    15
100
AcDbLine
 10
224.9010440835
 20
149.3139051573
 30
0.0
 11
224.9010440835
 21
127.3280472929
 31
0.0
  0
SPLINE
  5
AA
330
1F
100
AcDbEntity
  8
0
  6
Continuous
 62
     7
370
    15
100
AcDbSpline
210
0.0
220
0.0
230
1.0
 70
     8
 71
     3
 72
    12
 73
     8
 74
     0
 42
0.00000001
 43
0.00000001
 40
0.0
 40
0.0
 40
0.0
 40
0.0
 40
0.2265882697708445
 40
0.4532309227181187
 40
0.6798738123181681
 40
0.9065164921049569
 40
1.0
 40
1.0
 40
1.0
 40
1.0
 10
224.7739730157078
 20
127.2009762250737
 30
0.0
 10
224.7631740398689
 20
127.2043039741866
 30
0.0
 10
224.7415734963422
 20
127.2109602711014
 30
0.0
 10
224.7091660065107
 20
127.262664703473
 30
0.0
 10
224.6767771892981
 20
127.338017665895
 30
0.0
 10
224.6506670780876
 20
127.412756336918
 30
0.0
 10
224.6354792463972
 20
127.4578174441451
 30
0.0
 10
224.6310440835196
 20
127.4709762250738
 30
0.0
  0
SPLINE
  5
AB
330
1F
100
AcDbEntity
  8
0
  6
Continuous
 62
     7
370
    15
100
AcDbSpline
210
0.0
220
0.0
230
1.0
 70
     8
 71
     3
 72
    11
 73
     7
 74
     0
 42
0.00000001
 43
0.00000001
 40
0.0
 40
0.0
 40
0.0
 40
0.0
 40
0.2253998818851522
 40
0.4768391327567906
 40
0.7283395091446228
 40
1.0
 40
1.0
 40
1.0
 40
1.0
 10
224.7739730157078
 20
127.3209762250737
 30
0.0
 10
224.7632471841218
 20
127.3228117885726
 30
0.0
 10
224.7405564169892
 20
127.3266949694315
 30
0.0
 10
224.7058422878573
 20
127.3584650760556
 30
0.0
 10
224.6689510640956
 20
127.408432037733
 30
0.0
 10
224.6440002388181
 20
127.4495993654058
 30
0.0
 10
224.6310440835196
 20
127.4709762250738
 30
0.0
  0
LINE
  5
AC
330
1F
100
AcDbEntity
  8
0
  6
Continuous
 62
     7
370
    15
100
AcDbLine
 10
224.7739730157
 20
127.2009762251
 30
0.0
 11
224.7739730157
 21
127.3209762251
 31
0.0
  0
SPLINE
  5
AD
330
1F
100
AcDbEntity
  8
0
  6
Continuous
 62
     7
370
    15
100
AcDbSpline
210
0.0
220
0.0
230
1.0
 70
     8
 71
     3
 72
    12
 73
     8
 74
     0
 42
0.00000001
 43
0.00000001
 40
0.0
 40
0.0
 40
0.0
 40
0.0
 40
0.2265888793741667
 40
0.4532315344275525
 40
0.679874425678456
 40
0.906517107122568
 40
1.0
 40
1.0
 40
1.0
 40
1.0
 10
224.6310440835196
 20
149.1709762250738
 30
0.0
 10
224.6418430886847
 20
149.2030129157126
 30
0.0
 10
224.6634436619114
 20
149.267093900165
 30
0.0
 10
224.6958511804799
 20
149.3512549311722
 30
0.0
 10
224.728239997709
 20
149.4124171930389
 30
0.0
 10
224.7543500797382
 20
149.4383804166021
 30
0.0
 10
224.769537882081
 20
149.4403895260467
 30
0.0
 10
224.7739730157077
 20
149.4409762250737
 30
0.0
  0
LINE
  5
AE
330
1F
100
AcDbEntity
  8
0
  6
Continuous
 62
     7
370
    15
100
AcDbLine
 10
224.7739730157
 20
149.4409762251
 30
0.0
 11
224.7739730157
 21
149.3209762251
 31
0.0
  0
SPLINE
  5
AF
330
1F
100
AcDbEntity
  8
0
  6
Continuous
 62
     7
370
    15
100
AcDbSpline
210
0.0
220
0.0
230
1.0
 70
     8
 71
     3
 72
    11
 73
     7
 74
     0
 42
0.00000001
 43
0.00000001
 40
0.0
 40
0.0
 40
0.0
 40
0.0
 40
0.2231189866219149
 40
0.4745564360178433
 40
0.7260599854236359
 40
1.0
 40
1.0
 40
1.0
 40
1.0
 10
224.6310440835196
 20
149.1709762250738
 30
0.0
 10
224.641660208657
 20
149.188497797671
 30
0.0
 10
224.6642398670974
 20
149.2257647966436
 30
0.0
 10
224.6988462060382
 20
149.2750699231455
 30
0.0
 10
224.7358442223613
 20
149.3130753896701
 30
0.0
 10
224.760906695001
 20
149.3182686951423
 30
0.0
 10
224.7739730157077
 20
149.3209762250737
 30
0.0
  0
SPLINE
  5
B0
330
1F
100
AcDbEntity
  8
0
  6
Continuous
 62
     7
370
    15
100
AcDbSpline
210
0.0
220
0.0
230
1.0
 70
     8
 71
     3
 72
    11
 73
     7
 74
     0
 42
0.00000001
 43
0.00000001
 40
0.0
 40
0.0
 40
0.0
 40
0.0
 40
0.2500000000000142
 40
0.5000000000000174
 40
0.7499999999999916
 40
1.0
 40
1.0
 40
1.0
 40
1.0
 10
117.5281151513315
 20
149.4409762250737
 30
0.0
 10
117.5400258956805
 20
149.4369177004212
 30
0.0
 10
117.5638473843785
 20
149.428800651116
 30
0.0
 10
117.5995796174256
 20
149.366363363573
 30
0.0
 10
117.6353118504726
 20
149.2771162305568
 30
0.0
 10
117.6591333391706
 20
149.2063562269014
 30
0.0
 10
117.6710440835196
 20
149.1709762250738
 30
0.0
  0
LINE
  5
B1
330
1F
100
AcDbEntity
  8
0
  6
Continuous
 62
     7
370
    15
100
AcDbLine
 10
224.7739730157
 20
149.4409762251
 30
0.0
 11
117.5281151513
 21
149.4409762251
 31
0.0
  0
SPLINE
  5
B2
330
1F
100
AcDbEntity
  8
0
  6
Continuous
 62
     7
370
    15
100
AcDbSpline
210
0.0
220
0.0
230
1.0
 70
     8
 71
     3
 72
    11
 73
     7
 74
     0
 42
0.00000001
 43
0.00000001
 40
0.0
 40
0.0
 40
0.0
 40
0.0
 40
0.2499999999999786
 40
0.4999999999999831
 40
0.7499999999999876
 40
1.0
 40
1.0
 40
1.0
 40
1.0
 10
224.7810440835196
 20
149.3139051572619
 30
0.0
 10
224.7787893476015
 20
149.3019944129129
 30
0.0
 10
224.7742798757653
 20
149.2781729242149
 30
0.0
 10
224.739592493797
 20
149.2424406911678
 30
0.0
 10
224.6900107532324
 20
149.2067084581208
 30
0.0
 10
224.6506996400906
 20
149.1828869694228
 30
0.0
 10
224.6310440835196
 20
149.1709762250738
 30
0.0
  0
LINE
  5
B3
330
1F
100
AcDbEntity
  8
0
  6
Continuous
 62
     7
370
    15
100
AcDbLine
 10
224.9010440835
 20
149.3139051573
 30
0.0
 11
224.7810440835
 21
149.3139051573
 31
0.0
  0
LINE
  5
B4
330
1F
100
AcDbEntity
  8
0
  6
Continuous
 62
     7
370
    15
100
AcDbLine
 10
117.5281151513
 20
127.2009762251
 30
0.0
 11
224.7739730157
 21
127.2009762251
 31
0.0
  0
SPLINE
  5
B5
330
1F
100
AcDbEntity
  8
0
  6
Continuous
 62
     7
370
    15
100
AcDbSpline
210
0.0
220
0.0
230
1.0
 70
     8
 71
     3
 72
    11
 73
     7
 74
     0
 42
0.00000001
 43
0.00000001
 40
0.0
 40
0.0
 40
0.0
 40
0.0
 40
0.25000000000001
 40
0.5000000000000018
 40
0.7499999999999771
 40
1.0
 40
1.0
 40
1.0
 40
1.0
 10
117.6710440835196
 20
127.4709762250738
 30
0.0
 10
117.6591333391706
 20
127.4355962232461
 30
0.0
 10
117.6353118504725
 20
127.3648362195907
 30
0.0
 10
117.5995796174255
 20
127.2755890865745
 30
0.0
 10
117.5638473843785
 20
127.2131517990315
 30
0.0
 10
117.5400258956805
 20
127.2050347497263
 30
0.0
 10
117.5281151513315
 20
127.2009762250738
 30
0.0
  0
SPLINE
  5
B6
330
1F
100
AcDbEntity
  8
0
  6
Continuous
 62
     7
370
    15
100
AcDbSpline
210
0.0
220
0.0
230
1.0
 70
     8
 71
     3
 72
    11
 73
     7
 74
     0
 42
0.00000001
 43
0.00000001
 40
0.0
 40
0.0
 40
0.0
 40
0.0
 40
0.2499999999999801
 40
0.4999999999999942
 40
0.7499999999999877
 40
1.0
 40
1.0
 40
1.0
 40
1.0
 10
117.5281151513315
 20
149.3209762250737
 30
0.0
 10
117.5400258956805
 20
149.3187214891556
 30
0.0
 10
117.5638473843785
 20
149.3142120173194
 30
0.0
 10
117.5995796174255
 20
149.2795246353511
 30
0.0
 10
117.6353118504726
 20
149.2299428947865
 30
0.0
 10
117.6591333391706
 20
149.1906317816447
 30
0.0
 10
117.6710440835196
 20
149.1709762250738
 30
0.0
  0
LINE
  5
B7
330
1F
100
AcDbEntity
  8
0
  6
Continuous
 62
     7
370
    15
100
AcDbLine
 10
117.5281151513
 20
149.3209762251
 30
0.0
 11
117.5281151513
 21
149.4409762251
 31
0.0
  0
LINE
  5
B8
330
1F
100
AcDbEntity
  8
0
  6
Continuous
 62
     7
370
    15
100
AcDbLine
 10
117.5281151513
 20
127.3209762251
 30
0.0
 11
117.5281151513
 21
127.2009762251
 31
0.0
  0
SPLINE
  5
B9
330
1F
100
AcDbEntity
  8
0
  6
Continuous
 62
     7
370
    15
100
AcDbSpline
210
0.0
220
0.0
230
1.0
 70
     8
 71
     3
 72
    11
 73
     7
 74
     0
 42
0.00000001
 43
0.00000001
 40
0.0
 40
0.0
 40
0.0
 40
0.0
 40
0.2500000000000299
 40
0.4999999999999688
 40
0.7499999999999244
 40
1.0
 40
1.0
 40
1.0
 40
1.0
 10
117.6710440835196
 20
127.4709762250738
 30
0.0
 10
117.6591333391706
 20
127.4513206685028
 30
0.0
 10
117.6353118504725
 20
127.4120095553609
 30
0.0
 10
117.5995796174255
 20
127.3624278147964
 30
0.0
 10
117.5638473843786
 20
127.3277404328281
 30
0.0
 10
117.5400258956805
 20
127.3232309609919
 30
0.0
 10
117.5281151513315
 20
127.3209762250737
 30
0.0
  0
SPLINE
  5
BA
330
1F
100
AcDbEntity
  8
0
  6
Continuous
 62
     7
370
    15
100
AcDbSpline
210
0.0
220
0.0
230
1.0
 70
     8
 71
     3
 72
    12
 73
     8
 74
     0
 42
0.00000001
 43
0.00000001
 40
0.0
 40
0.0
 40
0.0
 40
0.0
 40
0.2265882697708677
 40
0.4532309227181813
 40
0.6798738123182425
 40
0.9065164921050066
 40
1.0
 40
1.0
 40
1.0
 40
1.0
 10
117.4010440835196
 20
127.3280472928856
 30
0.0
 10
117.4043718326325
 20
127.3388462687244
 30
0.0
 10
117.4110281295473
 20
127.3604468122511
 30
0.0
 10
117.4627325619188
 20
127.3928543020826
 30
0.0
 10
117.5380855243409
 20
127.4252431192952
 30
0.0
 10
117.6128241953639
 20
127.4513532305057
 30
0.0
 10
117.657885302591
 20
127.4665410621962
 30
0.0
 10
117.6710440835196
 20
127.4709762250738
 30
0.0
  0
LINE
  5
BB
330
1F
100
AcDbEntity
  8
0
  6
Continuous
 62
     7
370
    15
100
AcDbLine
 10
117.4010440835
 20
127.3280472929
 30
0.0
 11
117.4010440835
 21
149.3139051573
 31
0.0
  0
SPLINE
  5
BC
330
1F
100
AcDbEntity
  8
0
  6
Continuous
 62
     7
370
    15
100
AcDbSpline
210
0.0
220
0.0
230
1.0
 70
     8
 71
     3
 72
    12
 73
     8
 74
     0
 42
0.00000001
 43
0.00000001
 40
0.0
 40
0.0
 40
0.0
 40
0.0
 40
0.2265888793741812
 40
0.4532315344275912
 40
0.6798744256785102
 40
0.9065171071226109
 40
1.0
 40
1.0
 40
1.0
 40
1.0
 10
117.6710440835196
 20
149.1709762250738
 30
0.0
 10
117.6390073928807
 20
149.1817752302389
 30
0.0
 10
117.5749264084284
 20
149.2033758034655
 30
0.0
 10
117.4907653774212
 20
149.2357833220341
 30
0.0
 10
117.4296031155544
 20
149.2681721392632
 30
0.0
 10
117.4036398919913
 20
149.2942822212923
 30
0.0
 10
117.4016307825466
 20
149.3094700236352
 30
0.0
 10
117.4010440835196
 20
149.3139051572619
 30
0.0
  0
SPLINE
  5
BD
330
1F
100
AcDbEntity
  8
0
  6
Continuous
 62
     7
370
    15
100
AcDbSpline
210
0.0
220
0.0
230
1.0
 70
     8
 71
     3
 72
    11
 73
     7
 74
     0
 42
0.00000001
 43
0.00000001
 40
0.0
 40
0.0
 40
0.0
 40
0.0
 40
0.2253998818851647
 40
0.476839132756956
 40
0.7283395091447916
 40
1.0
 40
1.0
 40
1.0
 40
1.0
 10
117.5210440835196
 20
127.3280472928856
 30
0.0
 10
117.5228796470185
 20
127.3387731244716
 30
0.0
 10
117.5267628278774
 20
127.3614638916042
 30
0.0
 10
117.5585329345015
 20
127.396178020736
 30
0.0
 10
117.6084998961789
 20
127.4330692444978
 30
0.0
 10
117.6496672238517
 20
127.4580200697752
 30
0.0
 10
117.6710440835196
 20
127.4709762250738
 30
0.0
  0
LINE
  5
BE
330
1F
100
AcDbEntity
  8
0
  6
Continuous
 62
     7
370
    15
100
AcDbLine
 10
117.5210440835
 20
127.3280472929
 30
0.0
 11
117.4010440835
 21
127.3280472929
 31
0.0
  0
LINE
  5
BF
330
1F
100
AcDbEntity
  8
0
  6
Continuous
 62
     7
370
    15
100
AcDbLine
 10
117.4010440835
 20
149.3139051573
 30
0.0
 11
117.5210440835
 21
149.3139051573
 31
0.0
  0
SPLINE
  5
C0
330
1F
100
AcDbEntity
  8
0
  6
Continuous
 62
     7
370
    15
100
AcDbSpline
210
0.0
220
0.0
230
1.0
 70
     8
 71
     3
 72
    11
 73
     7
 74
     0
 42
0.00000001
 43
0.00000001
 40
0.0
 40
0.0
 40
0.0
 40
0.0
 40
0.2231189866218415
 40
0.4745564360177542
 40
0.7260599854236349
 40
1.0
 40
1.0
 40
1.0
 40
1.0
 10
117.6710440835196
 20
149.1709762250738
 30
0.0
 10
117.6535225109223
 20
149.1815923502111
 30
0.0
 10
117.6162555119498
 20
149.2041720086515
 30
0.0
 10
117.5669503854478
 20
149.2387783475924
 30
0.0
 10
117.5289449189233
 20
149.2757763639155
 30
0.0
 10
117.523751613451
 20
149.3008388365552
 30
0.0
 10
117.5210440835196
 20
149.3139051572619
 30
0.0
  0
LINE
  5
C1
330
1F
100
AcDbEntity
  8
0
  6
Continuous
 62
     7
370
    15
100
AcDbLine
 10
117.5310440835
 20
127.3604544174
 30
0.0
 11
117.5310440835
 21
127.3209762251
 31
0.0
  0
LINE
  5
C2
330
1F
100
AcDbEntity
  8
0
  6
Continuous
 62
     7
370
    15
100
AcDbLine
 10
224.7710440835
 20
127.3209762251
 30
0.0
 11
224.7710440835
 21
127.3577143353
 31
0.0
  0
LINE
  5
C3
330
1F
100
AcDbEntity
  8
0
  6
Continuous
 62
     7
370
    15
100
AcDbLine
 10
117.5310440835
 20
149.3209762251
 30
0.0
 11
117.5310440835
 21
149.2873143036
 31
0.0
  0
LINE
  5
C4
330
1F
100
AcDbEntity
  8
0
  6
Continuous
 62
     7
370
    15
100
AcDbLine
 10
224.7710440835
 20
149.2836485721
 30
0.0
 11
224.7710440835
 21
149.3209762251
 31
0.0
  0
LINE
  5
C5
330
1F
100
AcDbEntity
  8
0
  6
Continuous
 62
     7
370
    15
100
AcDbLine
 10
121.3110440835
 20
151.6409762251
 30
0.0
 11
121.7346973759
 21
151.6409762251
 31
0.0
  0
LINE
  5
C6
330
1F
100
AcDbEntity
  8
0
  6
Continuous
 62
     7
370
    15
100
AcDbLine
 10
123.8096973759
 20
151.6409762251
 30
0.0
 11
121.7346973759
 21
151.6409762251
 31
0.0
  0
ARC
  5
C7
330
1F
100
AcDbEntity
  8
0
  6
Continuous
 62
     7
370
    15
100
AcDbCircle
 10
123.8096973759
 20
151.1409762251
 30
0.0
 40
0.5
100
AcDbArc
 50
0.0
 51
90.0
  0
LINE
  5
C8
330
1F
100
AcDbEntity
  8
0
  6
Continuous
 62
     7
370
    15
100
AcDbLine
 10
124.3096973759
 20
149.6409762251
 30
0.0
 11
124.3096973759
 21
151.1409762251
 31
0.0
  0
LINE
  5
C9
330
1F
100
AcDbEntity
  8
0
  6
Continuous
 62
     7
370
    15
100
AcDbLine
 10
121.7346973759
 20
149.6409762251
 30
0.0
 11
124.3096973759
 21
149.6409762251
 31
0.0
  0
ARC
  5
CA
330
1F
100
AcDbEntity
  8
0
  6
Continuous
 62
     7
370
    15
100
AcDbCircle
 10
220.4873907911
 20
167.1159762251
 30
0.0
 40
0.4249999999999782
100
AcDbArc
 50
4.5624127165
 51
90.0
  0
ARC
  5
CB
330
1F
100
AcDbEntity
  8
0
  6
Continuous
 62
     7
370
    15
100
AcDbCircle
 10
220.4873907911
 20
167.1159762251
 30
0.0
 40
0.2249999999999943
100
AcDbArc
 50
0.0
 51
90.0
  0
LINE
  5
CC
330
1F
100
AcDbEntity
  8
0
  6
Continuous
 62
     7
370
    15
100
AcDbLine
 10
220.7123907911
 20
165.0659762251
 30
0.0
 11
220.7123907911
 21
167.1159762251
 31
0.0
  0
LINE
  5
CD
330
1F
100
AcDbEntity
  8
0
  6
Continuous
 62
     7
370
    15
100
AcDbLine
 10
218.4123907911
 20
167.3409762251
 30
0.0
 11
220.4873907911
 21
167.3409762251
 31
0.0
  0
LINE
  5
CE
330
1F
100
AcDbEntity
  8
0
  6
Continuous
 62
     7
370
    15
100
AcDbLine
 10
218.4123907911
 20
167.5409762251
 30
0.0
 11
220.4873907911
 21
167.5409762251
 31
0.0
  0
ARC
  5
CF
330
1F
100
AcDbEntity
  8
0
  6
Continuous
 62
     7
370
    15
100
AcDbCircle
 10
221.1373907911
 20
165.0659762251
 30
0.0
 40
0.4249999999999866
100
AcDbArc
 50
180.0
 51
237.8200255874
  0
LINE
  5
D0
330
1F
100
AcDbEntity
  8
0
  6
Continuous
 62
     7
370
    15
100
AcDbLine
 10
217.9123907911
 20
167.5409762251
 30
0.0
 11
217.9123907911
 21
167.3409762251
 31
0.0
  0
LINE
  5
D1
330
1F
100
AcDbEntity
  8
0
  6
Continuous
 62
     7
370
    15
100
AcDbLine
 10
217.9123907911
 20
167.5409762251
 30
0.0
 11
218.4123907911
 21
167.5409762251
 31
0.0
  0
LINE
  5
D2
330
1F
100
AcDbEntity
  8
0
  6
Continuous
 62
     7
370
    15
100
AcDbLine
 10
124.3096973759
 20
149.4409762251
 30
0.0
 11
124.3096973759
 21
149.6409762251
 31
0.0
  0
LINE
  5
D3
330
1F
100
AcDbEntity
  8
0
  6
Continuous
 62
     7
370
    15
100
AcDbLine
 10
124.3096973759
 20
149.6409762251
 30
0.0
 11
121.7096973759
 21
149.6409762251
 31
0.0
  0
LINE
  5
D4
330
1F
100
AcDbEntity
  8
0
  6
Continuous
 62
     7
370
    15
100
AcDbLine
 10
121.7096973759
 20
149.6409762251
 30
0.0
 11
121.3110440835
 21
149.6409762251
 31
0.0
  0
ARC
  5
D5
330
1F
100
AcDbEntity
  8
0
  6
Continuous
 62
     7
370
    15
100
AcDbCircle
 10
121.7096973759
 20
167.1409762251
 30
0.0
 40
0.3999999999999989
100
AcDbArc
 50
90.0
 51
175.2970949074
  0
LINE
  5
D6
330
1F
100
AcDbEntity
  8
0
  6
Continuous
 62
     7
370
    15
100
AcDbLine
 10
121.7346973759
 20
167.5409762251
 30
0.0
 11
121.7096973759
 21
167.5409762251
 31
0.0
  0
LINE
  5
D7
330
1F
100
AcDbEntity
  8
0
  6
Continuous
 62
     7
370
    15
100
AcDbLine
 10
220.4873907911
 20
167.5409762251
 30
0.0
 11
220.5123907911
 21
167.5409762251
 31
0.0
  0
ARC
  5
D8
330
1F
100
AcDbEntity
  8
0
  6
Continuous
 62
     7
370
    15
100
AcDbCircle
 10
220.5123907911
 20
167.1409762251
 30
0.0
 40
0.3999999999999773
100
AcDbArc
 50
4.7029050926
 51
90.0
  0
LINE
  5
D9
330
1F
100
AcDbEntity
  8
0
  6
Continuous
 62
     7
370
    15
100
AcDbLine
 10
217.9123907911
 20
149.6409762251
 30
0.0
 11
217.9123907911
 21
149.4409762251
 31
0.0
  0
LINE
  5
DA
330
1F
100
AcDbEntity
  8
0
  6
Continuous
 62
     7
370
    15
100
AcDbLine
 10
217.9123907911
 20
149.6409762251
 30
0.0
 11
220.5123907911
 21
149.6409762251
 31
0.0
  0
LINE
  5
DB
330
1F
100
AcDbEntity
  8
0
  6
Continuous
 62
     7
370
    15
100
AcDbLine
 10
220.5123907911
 20
149.6409762251
 30
0.0
 11
220.9110440835
 21
149.6409762251
 31
0.0
  0
LINE
  5
DC
330
1F
100
AcDbEntity
  8
0
  6
Continuous
 62
     7
370
    15
100
AcDbLine
 10
121.5096973759
 20
166.7409762251
 30
0.0
 11
121.8610440835
 21
166.7409762251
 31
0.0
  0
LINE
  5
DD
330
1F
100
AcDbEntity
  8
0
  6
Continuous
 62
     7
370
    15
100
AcDbLine
 10
121.5096973759
 20
166.5409762251
 30
0.0
 11
121.8610440835
 21
166.5409762251
 31
0.0
  0
LINE
  5
DE
330
1F
100
AcDbEntity
  8
0
  6
Continuous
 62
     7
370
    15
100
AcDbLine
 10
121.5096973759
 20
166.7409762251
 30
0.0
 11
121.5096973759
 21
166.5409762251
 31
0.0
  0
LINE
  5
DF
330
1F
100
AcDbEntity
  8
0
  6
Continuous
 62
     7
370
    15
100
AcDbLine
 10
220.7123907911
 20
166.5409762251
 30
0.0
 11
220.7123907911
 21
166.7409762251
 31
0.0
  0
LINE
  5
E0
330
1F
100
AcDbEntity
  8
0
  6
Continuous
 62
     7
370
    15
100
AcDbLine
 10
220.7123907911
 20
166.7409762251
 30
0.0
 11
220.3610440835
 21
166.7409762251
 31
0.0
  0
LINE
  5
E1
330
1F
100
AcDbEntity
  8
0
  6
Continuous
 62
     7
370
    15
100
AcDbLine
 10
220.7123907911
 20
166.5409762251
 30
0.0
 11
220.3610440835
 21
166.5409762251
 31
0.0
  0
ARC
  5
E2
330
1F
100
AcDbEntity
  8
0
  6
Continuous
 62
     7
370
    15
100
AcDbCircle
 10
121.7346973759
 20
167.1159762251
 30
0.0
 40
0.4250000000000114
100
AcDbArc
 50
90.0
 51
175.4375872835
  0
ARC
  5
E3
330
1F
100
AcDbEntity
  8
0
  6
Continuous
 62
     7
370
    15
100
AcDbCircle
 10
121.7346973759
 20
167.1159762251
 30
0.0
 40
0.2249999999999943
100
AcDbArc
 50
90.0
 51
180.0
  0
ARC
  5
E4
330
1F
100
AcDbEntity
  8
0
  6
Continuous
 62
     7
370
    15
100
AcDbCircle
 10
121.0846973759
 20
165.0659762251
 30
0.0
 40
0.4250000000000107
100
AcDbArc
 50
302.1799744126
 51
0.0
  0
LINE
  5
E5
330
1F
100
AcDbEntity
  8
0
  6
Continuous
 62
     7
370
    15
100
AcDbLine
 10
121.7346973759
 20
167.3409762251
 30
0.0
 11
123.8096973759
 21
167.3409762251
 31
0.0
  0
LINE
  5
E6
330
1F
100
AcDbEntity
  8
0
  6
Continuous
 62
     7
370
    15
100
AcDbLine
 10
121.7346973759
 20
167.5409762251
 30
0.0
 11
123.8096973759
 21
167.5409762251
 31
0.0
  0
LINE
  5
E7
330
1F
100
AcDbEntity
  8
0
  6
Continuous
 62
     7
370
    15
100
AcDbLine
 10
121.5096973759
 20
165.0659762251
 30
0.0
 11
121.5096973759
 21
167.1159762251
 31
0.0
  0
LINE
  5
E8
330
1F
100
AcDbEntity
  8
0
  6
Continuous
 62
     7
370
    15
100
AcDbLine
 10
124.3096973759
 20
167.5409762251
 30
0.0
 11
124.3096973759
 21
167.3409762251
 31
0.0
  0
LINE
  5
E9
330
1F
100
AcDbEntity
  8
0
  6
Continuous
 62
     7
370
    15
100
AcDbLine
 10
123.8096973759
 20
167.5409762251
 30
0.0
 11
124.3096973759
 21
167.5409762251
 31
0.0
  0
LINE
  5
EA
330
1F
100
AcDbEntity
  8
0
  6
Continuous
 62
     7
370
    15
100
AcDbLine
 10
217.9123907911
 20
149.6409762251
 30
0.0
 11
220.4873907911
 21
149.6409762251
 31
0.0
  0
LINE
  5
EB
330
1F
100
AcDbEntity
  8
0
  6
Continuous
 62
     7
370
    15
100
AcDbLine
 10
217.9123907911
 20
151.1409762251
 30
0.0
 11
217.9123907911
 21
149.6409762251
 31
0.0
  0
ARC
  5
EC
330
1F
100
AcDbEntity
  8
0
  6
Continuous
 62
     7
370
    15
100
AcDbCircle
 10
218.4123907911
 20
151.1409762251
 30
0.0
 40
0.5
100
AcDbArc
 50
90.0
 51
180.0
  0
LINE
  5
ED
330
1F
100
AcDbEntity
  8
0
  6
Continuous
 62
     7
370
    15
100
AcDbLine
 10
220.4873907911
 20
151.6409762251
 30
0.0
 11
218.4123907911
 21
151.6409762251
 31
0.0
  0
LINE
  5
EE
330
1F
100
AcDbEntity
  8
0
  6
Continuous
 62
     7
370
    15
100
AcDbLine
 10
220.4873907911
 20
151.6409762251
 30
0.0
 11
220.9110440835
 21
151.6409762251
 31
0.0
  0
LINE
  5
EF
330
1F
100
AcDbEntity
  8
0
  6
Continuous
 62
     7
370
    15
100
AcDbLine
 10
220.3610440835
 20
167.3409762251
 30
0.0
 11
121.8610440835
 21
167.3409762251
 31
0.0
  0
LINE
  5
F0
330
1F
100
AcDbEntity
  8
0
  6
Continuous
 62
     7
370
    15
100
AcDbLine
 10
217.9123907911
 20
149.6409762251
 30
0.0
 11
124.3096973759
 21
149.6409762251
 31
0.0
  0
LINE
  5
F1
330
1F
100
AcDbEntity
  8
0
  6
Continuous
 62
     7
370
    15
100
AcDbLine
 10
121.8610440835
 20
167.3409762251
 30
0.0
 11
121.8610440835
 21
151.6409762251
 31
0.0
  0
LINE
  5
F2
330
1F
100
AcDbEntity
  8
0
  6
Continuous
 62
     7
370
    15
100
AcDbLine
 10
220.3610440835
 20
167.3409762251
 30
0.0
 11
220.3610440835
 21
151.6409762251
 31
0.0
  0
LINE
  5
F3
330
1F
100
AcDbEntity
  8
0
  6
Continuous
 62
     7
370
    15
100
AcDbLine
 10
121.3110440835
 20
149.8409762251
 30
0.0
 11
121.3110440835
 21
149.4409762251
 31
0.0
  0
LINE
  5
F4
330
1F
100
AcDbEntity
  8
0
  6
Continuous
 62
     7
370
    15
100
AcDbLine
 10
118.3110440835
 20
149.8409762251
 30
0.0
 11
118.3110440835
 21
149.4409762251
 31
0.0
  0
LINE
  5
F5
330
1F
100
AcDbEntity
  8
0
  6
Continuous
 62
     7
370
    15
100
AcDbLine
 10
121.1610440835
 20
167.8409762251
 30
0.0
 11
118.4610440835
 21
167.8409762251
 31
0.0
  0
LINE
  5
F6
330
1F
100
AcDbEntity
  8
0
  6
Continuous
 62
     7
370
    15
100
AcDbLine
 10
118.3110440835
 20
167.6909762251
 30
0.0
 11
118.3110440835
 21
149.8409762251
 31
0.0
  0
ARC
  5
F7
330
1F
100
AcDbEntity
  8
0
  6
Continuous
 62
     7
370
    15
100
AcDbCircle
 10
118.4610440835
 20
167.6909762251
 30
0.0
 40
0.1500000000000057
100
AcDbArc
 50
90.0
 51
180.0
  0
LINE
  5
F8
330
1F
100
AcDbEntity
  8
0
  6
Continuous
 62
     7
370
    15
100
AcDbLine
 10
121.3110440835
 20
167.6909762251
 30
0.0
 11
121.3110440835
 21
149.8409762251
 31
0.0
  0
ARC
  5
F9
330
1F
100
AcDbEntity
  8
0
  6
Continuous
 62
     7
370
    15
100
AcDbCircle
 10
121.1610440835
 20
167.6909762251
 30
0.0
 40
0.1500000000000057
100
AcDbArc
 50
0.0
 51
90.0
  0
LINE
  5
FA
330
1F
100
AcDbEntity
  8
0
  6
Continuous
 62
     7
370
    15
100
AcDbLine
 10
220.9110440835
 20
149.8409762251
 30
0.0
 11
220.9110440835
 21
149.4409762251
 31
0.0
  0
LINE
  5
FB
330
1F
100
AcDbEntity
  8
0
  6
Continuous
 62
     7
370
    15
100
AcDbLine
 10
223.7610440835
 20
167.8409762251
 30
0.0
 11
221.0610440835
 21
167.8409762251
 31
0.0
  0
LINE
  5
FC
330
1F
100
AcDbEntity
  8
0
  6
Continuous
 62
     7
370
    15
100
AcDbLine
 10
223.9110440835
 20
167.6909762251
 30
0.0
 11
223.9110440835
 21
149.8409762251
 31
0.0
  0
ARC
  5
FD
330
1F
100
AcDbEntity
  8
0
  6
Continuous
 62
     7
370
    15
100
AcDbCircle
 10
223.7610440835
 20
167.6909762251
 30
0.0
 40
0.1499999999999773
100
AcDbArc
 50
0.0
 51
90.0
  0
LINE
  5
FE
330
1F
100
AcDbEntity
  8
0
  6
Continuous
 62
     7
370
    15
100
AcDbLine
 10
223.9110440835
 20
149.8409762251
 30
0.0
 11
223.9110440835
 21
149.4409762251
 31
0.0
  0
LINE
  5
FF
330
1F
100
AcDbEntity
  8
0
  6
Continuous
 62
     7
370
    15
100
AcDbLine
 10
220.9110440835
 20
167.6909762251
 30
0.0
 11
220.9110440835
 21
149.8409762251
 31
0.0
  0
ARC
  5
100
330
1F
100
AcDbEntity
  8
0
  6
Continuous
 62
     7
370
    15
100
AcDbCircle
 10
221.0610440835
 20
167.6909762251
 30
0.0
 40
0.1500000000000057
100
AcDbArc
 50
90.0
 51
180.0
  0
LINE
  5
101
330
1F
100
AcDbEntity
  8
0
  6
Continuous
 62
     7
370
    15
100
AcDbLine
 10
238.3110440835
 20
175.1367242209
 30
0.0
 11
238.3110440835
 21
175.0175242383
 31
0.0
  0
LINE
  5
102
330
1F
100
AcDbEntity
  8
0
  6
Continuous
 62
     7
370
    15
100
AcDbLine
 10
238.4310440835
 20
175.1367242209
 30
0.0
 11
238.4310440835
 21
175.0175242383
 31
0.0
  0
LINE
  5
103
330
1F
100
AcDbEntity
  8
0
  6
Continuous
 62
     7
370
    15
100
AcDbLine
 10
238.3110440835
 20
176.8239290325
 30
0.0
 11
238.3110440835
 21
175.1367242209
 31
0.0
  0
LINE
  5
104
330
1F
100
AcDbEntity
  8
0
  6
Continuous
 62
     7
370
    15
100
AcDbLine
 10
238.4310440835
 20
176.8239290325
 30
0.0
 11
238.4310440835
 21
175.1367242209
 31
0.0
  0
LINE
  5
105
330
1F
100
AcDbEntity
  8
0
  6
Continuous
 62
     7
370
    15
100
AcDbLine
 10
238.3110440835
 20
175.0175242383
 30
0.0
 11
238.3110440835
 21
174.4141386625
 31
0.0
  0
LINE
  5
106
330
1F
100
AcDbEntity
  8
0
  6
Continuous
 62
     7
370
    15
100
AcDbLine
 10
238.4310440835
 20
175.0175242383
 30
0.0
 11
238.4310440835
 21
174.4141386625
 31
0.0
  0
LINE
  5
107
330
1F
100
AcDbEntity
  8
0
  6
Continuous
 62
     7
370
    15
100
AcDbLine
 10
238.3110440835
 20
174.4141386625
 30
0.0
 11
238.3110440835
 21
174.4117891602
 31
0.0
  0
LINE
  5
108
330
1F
100
AcDbEntity
  8
0
  6
Continuous
 62
     7
370
    15
100
AcDbLine
 10
238.4310440835
 20
174.4141386625
 30
0.0
 11
238.4310440835
 21
174.4117891602
 31
0.0
  0
LINE
  5
109
330
1F
100
AcDbEntity
  8
0
  6
Continuous
 62
     7
370
    15
100
AcDbLine
 10
238.4310440835
 20
172.7644580807
 30
0.0
 11
238.4310440835
 21
172.6452674324
 31
0.0
  0
LINE
  5
10A
330
1F
100
AcDbEntity
  8
0
  6
Continuous
 62
     7
370
    15
100
AcDbLine
 10
238.3110440835
 20
172.7644580807
 30
0.0
 11
238.3110440835
 21
172.6452674324
 31
0.0
  0
LINE
  5
10B
330
1F
100
AcDbEntity
  8
0
  6
Continuous
 62
     7
370
    15
100
AcDbLine
 10
238.4310440835
 20
174.4117891602
 30
0.0
 11
238.4310440835
 21
172.7644580807
 31
0.0
  0
LINE
  5
10C
330
1F
100
AcDbEntity
  8
0
  6
Continuous
 62
     7
370
    15
100
AcDbLine
 10
238.3110440835
 20
174.4117891602
 30
0.0
 11
238.3110440835
 21
172.7644580807
 31
0.0
  0
LINE
  5
10D
330
1F
100
AcDbEntity
  8
0
  6
Continuous
 62
     7
370
    15
100
AcDbLine
 10
238.4310440835
 20
172.6452674324
 30
0.0
 11
238.4310440835
 21
172.042217199
 31
0.0
  0
LINE
  5
10E
330
1F
100
AcDbEntity
  8
0
  6
Continuous
 62
     7
370
    15
100
AcDbLine
 10
238.3110440835
 20
172.6452674324
 30
0.0
 11
238.3110440835
 21
172.042217199
 31
0.0
  0
LINE
  5
10F
330
1F
100
AcDbEntity
  8
0
  6
Continuous
 62
     7
370
    15
100
AcDbLine
 10
238.4310440835
 20
172.042217199
 30
0.0
 11
238.4310440835
 21
172.039870339
 31
0.0
  0
LINE
  5
110
330
1F
100
AcDbEntity
  8
0
  6
Continuous
 62
     7
370
    15
100
AcDbLine
 10
238.3110440835
 20
172.042217199
 30
0.0
 11
238.3110440835
 21
172.039870339
 31
0.0
  0
LINE
  5
111
330
1F
100
AcDbEntity
  8
0
  6
Continuous
 62
     7
370
    15
100
AcDbLine
 10
103.7910440835
 20
177.4296641106
 30
0.0
 11
103.7910440835
 21
177.5488640932
 31
0.0
  0
LINE
  5
112
330
1F
100
AcDbEntity
  8
0
  6
Continuous
 62
     7
370
    15
100
AcDbLine
 10
103.9110440835
 20
177.4296641106
 30
0.0
 11
103.9110440835
 21
177.5488640932
 31
0.0
  0
LINE
  5
113
330
1F
100
AcDbEntity
  8
0
  6
Continuous
 62
     7
370
    15
100
AcDbLine
 10
103.7910440835
 20
177.5488640932
 30
0.0
 11
103.7910440835
 21
180.283078029
 31
0.0
  0
LINE
  5
114
330
1F
100
AcDbEntity
  8
0
  6
Continuous
 62
     7
370
    15
100
AcDbLine
 10
103.9110440835
 20
177.5488640932
 30
0.0
 11
103.9110440835
 21
180.283078029
 31
0.0
  0
LINE
  5
115
330
1F
100
AcDbEntity
  8
0
  6
Continuous
 62
     7
370
    15
100
AcDbLine
 10
103.7910440835
 20
176.8262785348
 30
0.0
 11
103.7910440835
 21
177.4296641106
 31
0.0
  0
LINE
  5
116
330
1F
100
AcDbEntity
  8
0
  6
Continuous
 62
     7
370
    15
100
AcDbLine
 10
103.9110440835
 20
176.8262785348
 30
0.0
 11
103.9110440835
 21
177.4296641106
 31
0.0
  0
LINE
  5
117
330
1F
100
AcDbEntity
  8
0
  6
Continuous
 62
     7
370
    15
100
AcDbLine
 10
103.7910440835
 20
180.283078029
 30
0.0
 11
103.7910440835
 21
180.3615285442
 31
0.0
  0
LINE
  5
118
330
1F
100
AcDbEntity
  8
0
  6
Continuous
 62
     7
370
    15
100
AcDbLine
 10
103.9110440835
 20
180.283078029
 30
0.0
 11
103.9110440835
 21
180.3615285442
 31
0.0
  0
LINE
  5
119
330
1F
100
AcDbEntity
  8
0
  6
Continuous
 62
     7
370
    15
100
AcDbLine
 10
103.7910440835
 20
176.8239290325
 30
0.0
 11
103.7910440835
 21
176.8262785348
 31
0.0
  0
LINE
  5
11A
330
1F
100
AcDbEntity
  8
0
  6
Continuous
 62
     7
370
    15
100
AcDbLine
 10
103.9110440835
 20
176.8239290325
 30
0.0
 11
103.9110440835
 21
176.8262785348
 31
0.0
  0
LINE
  5
11B
330
1F
100
AcDbEntity
  8
0
  6
Continuous
 62
     7
370
    15
100
AcDbLine
 10
103.7910440835
 20
175.0175242383
 30
0.0
 11
103.7910440835
 21
175.1367242209
 31
0.0
  0
LINE
  5
11C
330
1F
100
AcDbEntity
  8
0
  6
Continuous
 62
     7
370
    15
100
AcDbLine
 10
103.9110440835
 20
175.0175242383
 30
0.0
 11
103.9110440835
 21
175.1367242209
 31
0.0
  0
LINE
  5
11D
330
1F
100
AcDbEntity
  8
0
  6
Continuous
 62
     7
370
    15
100
AcDbLine
 10
103.9110440835
 20
175.1367242209
 30
0.0
 11
103.9110440835
 21
176.8239290325
 31
0.0
  0
LINE
  5
11E
330
1F
100
AcDbEntity
  8
0
  6
Continuous
 62
     7
370
    15
100
AcDbLine
 10
103.7910440835
 20
175.1367242209
 30
0.0
 11
103.7910440835
 21
176.8239290325
 31
0.0
  0
LINE
  5
11F
330
1F
100
AcDbEntity
  8
0
  6
Continuous
 62
     7
370
    15
100
AcDbLine
 10
103.9110440835
 20
174.4141386625
 30
0.0
 11
103.9110440835
 21
175.0175242383
 31
0.0
  0
LINE
  5
120
330
1F
100
AcDbEntity
  8
0
  6
Continuous
 62
     7
370
    15
100
AcDbLine
 10
103.7910440835
 20
174.4141386625
 30
0.0
 11
103.7910440835
 21
175.0175242383
 31
0.0
  0
LINE
  5
121
330
1F
100
AcDbEntity
  8
0
  6
Continuous
 62
     7
370
    15
100
AcDbLine
 10
103.9110440835
 20
174.4117891602
 30
0.0
 11
103.9110440835
 21
174.4141386625
 31
0.0
  0
LINE
  5
122
330
1F
100
AcDbEntity
  8
0
  6
Continuous
 62
     7
370
    15
100
AcDbLine
 10
103.7910440835
 20
174.4117891602
 30
0.0
 11
103.7910440835
 21
174.4141386625
 31
0.0
  0
LINE
  5
123
330
1F
100
AcDbEntity
  8
0
  6
Continuous
 62
     7
370
    15
100
AcDbLine
 10
103.9110440835
 20
172.6452674324
 30
0.0
 11
103.9110440835
 21
172.7644580807
 31
0.0
  0
LINE
  5
124
330
1F
100
AcDbEntity
  8
0
  6
Continuous
 62
     7
370
    15
100
AcDbLine
 10
103.7910440835
 20
172.6452674324
 30
0.0
 11
103.7910440835
 21
172.7644580807
 31
0.0
  0
LINE
  5
125
330
1F
100
AcDbEntity
  8
0
  6
Continuous
 62
     7
370
    15
100
AcDbLine
 10
103.9110440835
 20
172.7644580807
 30
0.0
 11
103.9110440835
 21
174.4117891602
 31
0.0
  0
LINE
  5
126
330
1F
100
AcDbEntity
  8
0
  6
Continuous
 62
     7
370
    15
100
AcDbLine
 10
103.7910440835
 20
172.7644580807
 30
0.0
 11
103.7910440835
 21
174.4117891602
 31
0.0
  0
LINE
  5
127
330
1F
100
AcDbEntity
  8
0
  6
Continuous
 62
     7
370
    15
100
AcDbLine
 10
103.9110440835
 20
172.042217199
 30
0.0
 11
103.9110440835
 21
172.6452674324
 31
0.0
  0
LINE
  5
128
330
1F
100
AcDbEntity
  8
0
  6
Continuous
 62
     7
370
    15
100
AcDbLine
 10
103.7910440835
 20
172.042217199
 30
0.0
 11
103.7910440835
 21
172.6452674324
 31
0.0
  0
LINE
  5
129
330
1F
100
AcDbEntity
  8
0
  6
Continuous
 62
     7
370
    15
100
AcDbLine
 10
103.9110440835
 20
172.039870339
 30
0.0
 11
103.9110440835
 21
172.042217199
 31
0.0
  0
LINE
  5
12A
330
1F
100
AcDbEntity
  8
0
  6
Continuous
 62
     7
370
    15
100
AcDbLine
 10
103.7910440835
 20
172.039870339
 30
0.0
 11
103.7910440835
 21
172.042217199
 31
0.0
  0
LINE
  5
12B
330
1F
100
AcDbEntity
  8
0
  6
Continuous
 62
     7
370
    15
100
AcDbLine
 10
238.4310440835
 20
177.5488640932
 30
0.0
 11
238.4310440835
 21
177.4296641106
 31
0.0
  0
LINE
  5
12C
330
1F
100
AcDbEntity
  8
0
  6
Continuous
 62
     7
370
    15
100
AcDbLine
 10
238.3110440835
 20
177.5488640932
 30
0.0
 11
238.3110440835
 21
177.4296641106
 31
0.0
  0
LINE
  5
12D
330
1F
100
AcDbEntity
  8
0
  6
Continuous
 62
     7
370
    15
100
AcDbLine
 10
238.3110440835
 20
180.283078029
 30
0.0
 11
238.3110440835
 21
177.5488640932
 31
0.0
  0
LINE
  5
12E
330
1F
100
AcDbEntity
  8
0
  6
Continuous
 62
     7
370
    15
100
AcDbLine
 10
238.4310440835
 20
180.283078029
 30
0.0
 11
238.4310440835
 21
177.5488640932
 31
0.0
  0
LINE
  5
12F
330
1F
100
AcDbEntity
  8
0
  6
Continuous
 62
     7
370
    15
100
AcDbLine
 10
238.3110440835
 20
177.4296641106
 30
0.0
 11
238.3110440835
 21
176.8262785348
 31
0.0
  0
LINE
  5
130
330
1F
100
AcDbEntity
  8
0
  6
Continuous
 62
     7
370
    15
100
AcDbLine
 10
238.4310440835
 20
177.4296641106
 30
0.0
 11
238.4310440835
 21
176.8262785348
 31
0.0
  0
LINE
  5
131
330
1F
100
AcDbEntity
  8
0
  6
Continuous
 62
     7
370
    15
100
AcDbLine
 10
238.3110440835
 20
180.3615285442
 30
0.0
 11
238.3110440835
 21
180.283078029
 31
0.0
  0
LINE
  5
132
330
1F
100
AcDbEntity
  8
0
  6
Continuous
 62
     7
370
    15
100
AcDbLine
 10
238.4310440835
 20
180.3615285442
 30
0.0
 11
238.4310440835
 21
180.283078029
 31
0.0
  0
LINE
  5
133
330
1F
100
AcDbEntity
  8
0
  6
Continuous
 62
     7
370
    15
100
AcDbLine
 10
238.3110440835
 20
176.8262785348
 30
0.0
 11
238.3110440835
 21
176.8239290325
 31
0.0
  0
LINE
  5
134
330
1F
100
AcDbEntity
  8
0
  6
Continuous
 62
     7
370
    15
100
AcDbLine
 10
238.4310440835
 20
176.8262785348
 30
0.0
 11
238.4310440835
 21
176.8239290325
 31
0.0
  0
LINE
  5
135
330
1F
100
AcDbEntity
  8
0
  6
Continuous
 62
     7
370
    15
100
AcDbLine
 10
222.5610440835
 20
174.5713044729
 30
0.0
 11
222.5610440835
 21
170.5509762251
 31
0.0
  0
LINE
  5
136
330
1F
100
AcDbEntity
  8
0
  6
Continuous
 62
     7
370
    15
100
AcDbLine
 10
222.2610440835
 20
174.5713044729
 30
0.0
 11
222.2610440835
 21
170.5509762251
 31
0.0
  0
LINE
  5
137
330
1F
100
AcDbEntity
  8
0
  6
Continuous
 62
     7
370
    15
100
AcDbLine
 10
222.5610440835
 20
174.9542037062
 30
0.0
 11
222.5610440835
 21
174.5713044729
 31
0.0
  0
LINE
  5
138
330
1F
100
AcDbEntity
  8
0
  6
Continuous
 62
     7
370
    15
100
AcDbLine
 10
222.2610440835
 20
174.9542037062
 30
0.0
 11
222.2610440835
 21
174.5713044729
 31
0.0
  0
LINE
  5
139
330
1F
100
AcDbEntity
  8
0
  6
Continuous
 62
     7
370
    15
100
AcDbLine
 10
222.5610440835
 20
179.2254903593
 30
0.0
 11
222.5610440835
 21
174.9542037062
 31
0.0
  0
LINE
  5
13A
330
1F
100
AcDbEntity
  8
0
  6
Continuous
 62
     7
370
    15
100
AcDbLine
 10
222.2610440835
 20
179.2254903593
 30
0.0
 11
222.2610440835
 21
174.9542037062
 31
0.0
  0
LINE
  5
13B
330
1F
100
AcDbEntity
  8
0
  6
Continuous
 62
     7
370
    15
100
AcDbLine
 10
222.5610440835
 20
179.6083895926
 30
0.0
 11
222.5610440835
 21
179.2254903593
 31
0.0
  0
LINE
  5
13C
330
1F
100
AcDbEntity
  8
0
  6
Continuous
 62
     7
370
    15
100
AcDbLine
 10
222.2610440835
 20
179.6083895926
 30
0.0
 11
222.2610440835
 21
179.2254903593
 31
0.0
  0
LINE
  5
13D
330
1F
100
AcDbEntity
  8
0
  6
Continuous
 62
     7
370
    15
100
AcDbLine
 10
119.9610440835
 20
174.5713044729
 30
0.0
 11
119.9610440835
 21
170.5509762251
 31
0.0
  0
LINE
  5
13E
330
1F
100
AcDbEntity
  8
0
  6
Continuous
 62
     7
370
    15
100
AcDbLine
 10
119.6610440835
 20
174.5713044729
 30
0.0
 11
119.6610440835
 21
170.5509762251
 31
0.0
  0
LINE
  5
13F
330
1F
100
AcDbEntity
  8
0
  6
Continuous
 62
     7
370
    15
100
AcDbLine
 10
119.9610440835
 20
174.9542037062
 30
0.0
 11
119.9610440835
 21
174.5713044729
 31
0.0
  0
LINE
  5
140
330
1F
100
AcDbEntity
  8
0
  6
Continuous
 62
     7
370
    15
100
AcDbLine
 10
119.6610440835
 20
174.9542037062
 30
0.0
 11
119.6610440835
 21
174.5713044729
 31
0.0
  0
LINE
  5
141
330
1F
100
AcDbEntity
  8
0
  6
Continuous
 62
     7
370
    15
100
AcDbLine
 10
119.9610440835
 20
179.2254903593
 30
0.0
 11
119.9610440835
 21
174.9542037062
 31
0.0
  0
LINE
  5
142
330
1F
100
AcDbEntity
  8
0
  6
Continuous
 62
     7
370
    15
100
AcDbLine
 10
119.6610440835
 20
179.2254903593
 30
0.0
 11
119.6610440835
 21
174.9542037062
 31
0.0
  0
LINE
  5
143
330
1F
100
AcDbEntity
  8
0
  6
Continuous
 62
     7
370
    15
100
AcDbLine
 10
119.9610440835
 20
179.6083895926
 30
0.0
 11
119.9610440835
 21
179.2254903593
 31
0.0
  0
LINE
  5
144
330
1F
100
AcDbEntity
  8
0
  6
Continuous
 62
     7
370
    15
100
AcDbLine
 10
119.6610440835
 20
179.6083895926
 30
0.0
 11
119.6610440835
 21
179.2254903593
 31
0.0
  0
LINE
  5
145
330
1F
100
AcDbEntity
  8
0
  6
Continuous
 62
     7
370
    15
100
AcDbLine
 10
171.2610440835
 20
174.5713044729
 30
0.0
 11
171.2610440835
 21
170.5509762251
 31
0.0
  0
LINE
  5
146
330
1F
100
AcDbEntity
  8
0
  6
Continuous
 62
     7
370
    15
100
AcDbLine
 10
170.9610440835
 20
174.5713044729
 30
0.0
 11
170.9610440835
 21
170.5509762251
 31
0.0
  0
LINE
  5
147
330
1F
100
AcDbEntity
  8
0
  6
Continuous
 62
     7
370
    15
100
AcDbLine
 10
171.2610440835
 20
174.9542037061
 30
0.0
 11
171.2610440835
 21
174.5713044729
 31
0.0
  0
LINE
  5
148
330
1F
100
AcDbEntity
  8
0
  6
Continuous
 62
     7
370
    15
100
AcDbLine
 10
170.9610440835
 20
174.9542037061
 30
0.0
 11
170.9610440835
 21
174.5713044729
 31
0.0
  0
LINE
  5
149
330
1F
100
AcDbEntity
  8
0
  6
Continuous
 62
     7
370
    15
100
AcDbLine
 10
171.2610440835
 20
179.2254903593
 30
0.0
 11
171.2610440835
 21
174.9542037061
 31
0.0
  0
LINE
  5
14A
330
1F
100
AcDbEntity
  8
0
  6
Continuous
 62
     7
370
    15
100
AcDbLine
 10
170.9610440835
 20
179.2254903593
 30
0.0
 11
170.9610440835
 21
174.9542037061
 31
0.0
  0
LINE
  5
14B
330
1F
100
AcDbEntity
  8
0
  6
Continuous
 62
     7
370
    15
100
AcDbLine
 10
171.2610440835
 20
179.6083895926
 30
0.0
 11
171.2610440835
 21
179.2254903593
 31
0.0
  0
LINE
  5
14C
330
1F
100
AcDbEntity
  8
0
  6
Continuous
 62
     7
370
    15
100
AcDbLine
 10
170.9610440835
 20
179.6083895926
 30
0.0
 11
170.9610440835
 21
179.2254903593
 31
0.0
  0
ARC
  5
14D
330
1F
100
AcDbEntity
  8
0
  6
Continuous
 62
     7
370
    15
100
AcDbCircle
 10
171.4608792632
 20
176.8547867356
 30
0.0
 40
0.5102289471106669
100
AcDbArc
 50
89.9814916251
 51
113.0576959534
  0
ARC
  5
14E
330
1F
100
AcDbEntity
  8
0
  6
Continuous
 62
     7
370
    15
100
AcDbCircle
 10
171.458722182
 20
176.8743854003
 30
0.0
 40
0.1976923984593351
100
AcDbArc
 50
89.3270443605
 51
179.3108520603
  0
ARC
  5
14F
330
1F
100
AcDbEntity
  8
0
  6
Continuous
 62
     7
370
    15
100
AcDbCircle
 10
171.458722182
 20
176.4002967336
 30
0.0
 40
0.1976923984593344
100
AcDbArc
 50
89.3270443605
 51
179.3108520604
  0
LINE
  5
150
330
1F
100
AcDbEntity
  8
0
  6
Continuous
 62
     7
370
    15
100
AcDbLine
 10
171.4610440835
 20
177.3650156561
 30
0.0
 11
174.3610440835
 21
177.3650156561
 31
0.0
  0
LINE
  5
151
330
1F
100
AcDbEntity
  8
0
  6
Continuous
 62
     7
370
    15
100
AcDbLine
 10
171.4610440835
 20
177.0720641629
 30
0.0
 11
174.3610440835
 21
177.0720641629
 31
0.0
  0
ARC
  5
152
330
1F
100
AcDbEntity
  8
0
  6
Continuous
 62
     7
370
    15
100
AcDbCircle
 10
174.408722182
 20
177.1006673208
 30
0.0
 40
0.2686135577966173
100
AcDbArc
 50
55.4540446258
 51
100.224000484
  0
LINE
  5
153
330
1F
100
AcDbEntity
  8
0
  6
Continuous
 62
     7
370
    15
100
AcDbLine
 10
174.5610440835
 20
177.3219166864
 30
0.0
 11
174.5610440835
 21
177.0289651932
 31
0.0
  0
ARC
  5
154
330
1F
100
AcDbEntity
  8
0
  6
Continuous
 62
     7
370
    15
100
AcDbCircle
 10
174.408722182
 20
176.8077158277
 30
0.0
 40
0.2686135577964374
100
AcDbArc
 50
55.4540446258
 51
100.224000484
  0
LINE
  5
155
330
1F
100
AcDbEntity
  8
0
  6
Continuous
 62
     7
370
    15
100
AcDbLine
 10
174.5610440835
 20
177.0289651932
 30
0.0
 11
174.5610440835
 21
176.6410744659
 31
0.0
  0
ARC
  5
156
330
1F
100
AcDbEntity
  8
0
  6
Continuous
 62
     7
370
    15
100
AcDbCircle
 10
174.408722182
 20
176.8623238315
 30
0.0
 40
0.2686135577970049
100
AcDbArc
 50
259.775999516
 51
304.5459553741
  0
LINE
  5
157
330
1F
100
AcDbEntity
  8
0
  6
Continuous
 62
     7
370
    15
100
AcDbLine
 10
174.3610440835
 20
176.5979754962
 30
0.0
 11
171.4610440835
 21
176.5979754962
 31
0.0
  0
LWPOLYLINE
  5
158
330
1F
100
AcDbEntity
  8
0
  6
Continuous
 62
     7
370
    15
100
AcDbPolyline
 90
       17
 70
   128
 43
0.0
 10
173.0610440835
 20
176.9104430266
 10
172.9653732254
 20
176.9145439187
 10
172.8842673882
 20
176.9262222715
 10
172.8300742004
 20
176.9437001616
 10
172.8110440835
 20
176.9643167387
 10
172.8300742004
 20
176.9849333158
 10
172.8842673882
 20
177.0024112059
 10
172.9653732254
 20
177.0140895587
 10
173.0610440835
 20
177.0181904508
 10
173.1567149416
 20
177.0140895587
 10
173.2378207788
 20
177.0024112059
 10
173.2920139666
 20
176.9849333158
 10
173.3110440835
 20
176.9643167387
 10
173.2920139666
 20
176.9437001616
 10
173.2378207788
 20
176.9262222715
 10
173.1567149416
 20
176.9145439187
 10
173.0610440835
 20
176.9104430266
  0
LWPOLYLINE
  5
159
330
1F
100
AcDbEntity
  8
0
  6
Continuous
 62
     7
370
    15
100
AcDbPolyline
 90
       17
 70
   128
 43
0.0
 10
173.0610440835
 20
176.7595966326
 10
173.1567149416
 20
176.7554957404
 10
173.2378207788
 20
176.7438173876
 10
173.2920139666
 20
176.7263394975
 10
173.3110440835
 20
176.7057229205
 10
173.2920139666
 20
176.6851063434
 10
173.2378207788
 20
176.6676284533
 10
173.1567149416
 20
176.6559501005
 10
173.0610440835
 20
176.6518492083
 10
172.9653732254
 20
176.6559501005
 10
172.8842673882
 20
176.6676284533
 10
172.8300742004
 20
176.6851063434
 10
172.8110440835
 20
176.7057229205
 10
172.8300742004
 20
176.7263394975
 10
172.8842673882
 20
176.7438173876
 10
172.9653732254
 20
176.7554957404
 10
173.0610440835
 20
176.7595966326
  0
LWPOLYLINE
  5
15A
330
1F
100
AcDbEntity
  8
0
  6
Continuous
 62
     7
370
    15
100
AcDbPolyline
 90
       17
 70
   128
 43
0.0
 10
174.0610440835
 20
177.0181904508
 10
174.1567149416
 20
177.0140895587
 10
174.2378207788
 20
177.0024112059
 10
174.2920139666
 20
176.9849333158
 10
174.3110440835
 20
176.9643167387
 10
174.2920139666
 20
176.9437001616
 10
174.2378207788
 20
176.9262222715
 10
174.1567149416
 20
176.9145439187
 10
174.0610440835
 20
176.9104430266
 10
173.9653732254
 20
176.9145439187
 10
173.8842673882
 20
176.9262222715
 10
173.8300742004
 20
176.9437001616
 10
173.8110440835
 20
176.9643167387
 10
173.8300742004
 20
176.9849333158
 10
173.8842673882
 20
177.0024112059
 10
173.9653732254
 20
177.0140895587
 10
174.0610440835
 20
177.0181904508
  0
LWPOLYLINE
  5
15B
330
1F
100
AcDbEntity
  8
0
  6
Continuous
 62
     7
370
    15
100
AcDbPolyline
 90
       17
 70
   128
 43
0.0
 10
174.0610440835
 20
176.6518492083
 10
173.9653732254
 20
176.6559501005
 10
173.8842673882
 20
176.6676284533
 10
173.8300742004
 20
176.6851063434
 10
173.8110440835
 20
176.7057229205
 10
173.8300742004
 20
176.7263394975
 10
173.8842673882
 20
176.7438173876
 10
173.9653732254
 20
176.7554957404
 10
174.0610440835
 20
176.7595966326
 10
174.1567149416
 20
176.7554957404
 10
174.2378207788
 20
176.7438173876
 10
174.2920139666
 20
176.7263394975
 10
174.3110440835
 20
176.7057229205
 10
174.2920139666
 20
176.6851063434
 10
174.2378207788
 20
176.6676284533
 10
174.1567149416
 20
176.6559501005
 10
174.0610440835
 20
176.6518492083
  0
ARC
  5
15C
330
1F
100
AcDbEntity
  8
0
  6
Continuous
 62
     7
370
    15
100
AcDbCircle
 10
171.4608792632
 20
174.4426468633
 30
0.0
 40
0.5102289471108834
100
AcDbArc
 50
89.9814916251
 51
113.0576959534
  0
ARC
  5
15D
330
1F
100
AcDbEntity
  8
0
  6
Continuous
 62
     7
370
    15
100
AcDbCircle
 10
171.458722182
 20
174.462245528
 30
0.0
 40
0.1976923984592961
100
AcDbArc
 50
89.3270443605
 51
179.3108520604
  0
ARC
  5
15E
330
1F
100
AcDbEntity
  8
0
  6
Continuous
 62
     7
370
    15
100
AcDbCircle
 10
171.458722182
 20
173.9881568613
 30
0.0
 40
0.1976923984592961
100
AcDbArc
 50
89.3270443605
 51
179.3108520604
  0
LINE
  5
15F
330
1F
100
AcDbEntity
  8
0
  6
Continuous
 62
     7
370
    15
100
AcDbLine
 10
171.4610440835
 20
174.9528757838
 30
0.0
 11
174.3610440835
 21
174.9528757838
 31
0.0
  0
LINE
  5
160
330
1F
100
AcDbEntity
  8
0
  6
Continuous
 62
     7
370
    15
100
AcDbLine
 10
171.4610440835
 20
174.6599242906
 30
0.0
 11
174.3610440835
 21
174.6599242906
 31
0.0
  0
ARC
  5
161
330
1F
100
AcDbEntity
  8
0
  6
Continuous
 62
     7
370
    15
100
AcDbCircle
 10
174.408722182
 20
174.6885274485
 30
0.0
 40
0.2686135577964374
100
AcDbArc
 50
55.4540446258
 51
100.224000484
  0
LINE
  5
162
330
1F
100
AcDbEntity
  8
0
  6
Continuous
 62
     7
370
    15
100
AcDbLine
 10
174.5610440835
 20
174.9097768141
 30
0.0
 11
174.5610440835
 21
174.6168253209
 31
0.0
  0
ARC
  5
163
330
1F
100
AcDbEntity
  8
0
  6
Continuous
 62
     7
370
    15
100
AcDbCircle
 10
174.408722182
 20
174.3955759554
 30
0.0
 40
0.2686135577968141
100
AcDbArc
 50
55.4540446259
 51
100.224000484
  0
LINE
  5
164
330
1F
100
AcDbEntity
  8
0
  6
Continuous
 62
     7
370
    15
100
AcDbLine
 10
174.5610440835
 20
174.6168253209
 30
0.0
 11
174.5610440835
 21
174.2289345936
 31
0.0
  0
ARC
  5
165
330
1F
100
AcDbEntity
  8
0
  6
Continuous
 62
     7
370
    15
100
AcDbCircle
 10
174.408722182
 20
174.4501839592
 30
0.0
 40
0.2686135577966743
100
AcDbArc
 50
259.775999516
 51
304.5459553741
  0
LINE
  5
166
330
1F
100
AcDbEntity
  8
0
  6
Continuous
 62
     7
370
    15
100
AcDbLine
 10
174.3610440835
 20
174.1858356239
 30
0.0
 11
171.4610440835
 21
174.1858356239
 31
0.0
  0
LWPOLYLINE
  5
167
330
1F
100
AcDbEntity
  8
0
  6
Continuous
 62
     7
370
    15
100
AcDbPolyline
 90
       17
 70
   128
 43
0.0
 10
174.0610440835
 20
174.2397093361
 10
173.9653732254
 20
174.2438102282
 10
173.8842673882
 20
174.255488581
 10
173.8300742004
 20
174.2729664711
 10
173.8110440835
 20
174.2935830482
 10
173.8300742004
 20
174.3141996253
 10
173.8842673882
 20
174.3316775154
 10
173.9653732254
 20
174.3433558682
 10
174.0610440835
 20
174.3474567603
 10
174.1567149416
 20
174.3433558682
 10
174.2378207788
 20
174.3316775154
 10
174.2920139666
 20
174.3141996253
 10
174.3110440835
 20
174.2935830482
 10
174.2920139666
 20
174.2729664711
 10
174.2378207788
 20
174.255488581
 10
174.1567149416
 20
174.2438102282
 10
174.0610440835
 20
174.2397093361
  0
LWPOLYLINE
  5
168
330
1F
100
AcDbEntity
  8
0
  6
Continuous
 62
     7
370
    15
100
AcDbPolyline
 90
       17
 70
   128
 43
0.0
 10
174.0610440835
 20
174.6060505785
 10
174.1567149416
 20
174.6019496864
 10
174.2378207788
 20
174.5902713336
 10
174.2920139666
 20
174.5727934435
 10
174.3110440835
 20
174.5521768664
 10
174.2920139666
 20
174.5315602893
 10
174.2378207788
 20
174.5140823992
 10
174.1567149416
 20
174.5024040464
 10
174.0610440835
 20
174.4983031543
 10
173.9653732254
 20
174.5024040464
 10
173.8842673882
 20
174.5140823992
 10
173.8300742004
 20
174.5315602893
 10
173.8110440835
 20
174.5521768664
 10
173.8300742004
 20
174.5727934435
 10
173.8842673882
 20
174.5902713336
 10
173.9653732254
 20
174.6019496864
 10
174.0610440835
 20
174.6060505785
  0
LWPOLYLINE
  5
169
330
1F
100
AcDbEntity
  8
0
  6
Continuous
 62
     7
370
    15
100
AcDbPolyline
 90
       17
 70
   128
 43
0.0
 10
173.0610440835
 20
174.3474567603
 10
173.1567149416
 20
174.3433558682
 10
173.2378207788
 20
174.3316775154
 10
173.2920139666
 20
174.3141996253
 10
173.3110440835
 20
174.2935830482
 10
173.2920139666
 20
174.2729664711
 10
173.2378207788
 20
174.255488581
 10
173.1567149416
 20
174.2438102282
 10
173.0610440835
 20
174.2397093361
 10
172.9653732254
 20
174.2438102282
 10
172.8842673882
 20
174.255488581
 10
172.8300742004
 20
174.2729664711
 10
172.8110440835
 20
174.2935830482
 10
172.8300742004
 20
174.3141996253
 10
172.8842673882
 20
174.3316775154
 10
172.9653732254
 20
174.3433558682
 10
173.0610440835
 20
174.3474567603
  0
LWPOLYLINE
  5
16A
330
1F
100
AcDbEntity
  8
0
  6
Continuous
 62
     7
370
    15
100
AcDbPolyline
 90
       17
 70
   128
 43
0.0
 10
173.0610440835
 20
174.4983031543
 10
172.9653732254
 20
174.5024040464
 10
172.8842673882
 20
174.5140823992
 10
172.8300742004
 20
174.5315602893
 10
172.8110440835
 20
174.5521768664
 10
172.8300742004
 20
174.5727934435
 10
172.8842673882
 20
174.5902713336
 10
172.9653732254
 20
174.6019496864
 10
173.0610440835
 20
174.6060505785
 10
173.1567149416
 20
174.6019496864
 10
173.2378207788
 20
174.5902713336
 10
173.2920139666
 20
174.5727934435
 10
173.3110440835
 20
174.5521768664
 10
173.2920139666
 20
174.5315602893
 10
173.2378207788
 20
174.5140823992
 10
173.1567149416
 20
174.5024040464
 10
173.0610440835
 20
174.4983031543
  0
ARC
  5
16B
330
1F
100
AcDbEntity
  8
0
  6
Continuous
 62
     7
370
    15
100
AcDbCircle
 10
171.4587247622
 20
172.0900141507
 30
0.0
 40
0.1976949458991185
100
AcDbArc
 50
89.3278008638
 51
179.3116453941
  0
ARC
  5
16C
330
1F
100
AcDbEntity
  8
0
  6
Continuous
 62
     7
370
    15
100
AcDbCircle
 10
171.4608886058
 20
172.070392854
 30
0.0
 40
0.5102620807163265
100
AcDbArc
 50
89.9825418804
 51
113.0572524221
  0
ARC
  5
16D
330
1F
100
AcDbEntity
  8
0
  6
Continuous
 62
     7
370
    15
100
AcDbCircle
 10
171.4587247622
 20
171.6161889638
 30
0.0
 40
0.1976949458990368
100
AcDbArc
 50
89.3278008638
 51
179.3116453942
  0
LINE
  5
16E
330
1F
100
AcDbEntity
  8
0
  6
Continuous
 62
     7
370
    15
100
AcDbLine
 10
174.3610440835
 20
172.2876954912
 30
0.0
 11
171.4610440835
 21
172.2876954912
 31
0.0
  0
LINE
  5
16F
330
1F
100
AcDbEntity
  8
0
  6
Continuous
 62
     7
370
    15
100
AcDbLine
 10
174.3610440835
 20
172.580654911
 30
0.0
 11
171.4610440835
 21
172.580654911
 31
0.0
  0
ARC
  5
170
330
1F
100
AcDbEntity
  8
0
  6
Continuous
 62
     7
370
    15
100
AcDbCircle
 10
174.4087247622
 20
172.3161955172
 30
0.0
 40
0.2687233113792291
100
AcDbArc
 50
55.4708216032
 51
100.2203388693
  0
LINE
  5
171
330
1F
100
AcDbEntity
  8
0
  6
Continuous
 62
     7
370
    15
100
AcDbLine
 10
174.5610440835
 20
172.5375798943
 30
0.0
 11
174.5610440835
 21
172.2446204746
 31
0.0
  0
ARC
  5
172
330
1F
100
AcDbEntity
  8
0
  6
Continuous
 62
     7
370
    15
100
AcDbCircle
 10
174.4087247622
 20
172.0232360975
 30
0.0
 40
0.2687233113792832
100
AcDbArc
 50
55.4708216032
 51
100.2203388693
  0
LINE
  5
173
330
1F
100
AcDbEntity
  8
0
  6
Continuous
 62
     7
370
    15
100
AcDbLine
 10
174.5610440835
 20
171.856945321
 30
0.0
 11
174.5610440835
 21
172.2446204746
 31
0.0
  0
ARC
  5
174
330
1F
100
AcDbEntity
  8
0
  6
Continuous
 62
     7
370
    15
100
AcDbCircle
 10
174.4087247622
 20
172.0783296981
 30
0.0
 40
0.2687233113794257
100
AcDbArc
 50
259.7796611307
 51
304.5291783968
  0
LINE
  5
175
330
1F
100
AcDbEntity
  8
0
  6
Continuous
 62
     7
370
    15
100
AcDbLine
 10
171.4610440835
 20
171.8138703043
 30
0.0
 11
174.3610440835
 21
171.8138703043
 31
0.0
  0
LWPOLYLINE
  5
176
330
1F
100
AcDbEntity
  8
0
  6
Continuous
 62
     7
370
    15
100
AcDbPolyline
 90
       17
 70
   128
 43
0.0
 10
174.0610440835
 20
171.9754016168
 10
173.9653732254
 20
171.9713030038
 10
173.8842673882
 20
171.9596311415
 10
173.8300742004
 20
171.942162965
 10
173.8110440835
 20
171.921557846
 10
173.8300742004
 20
171.9009527269
 10
173.8842673882
 20
171.8834845505
 10
173.9653732254
 20
171.8718126882
 10
174.0610440835
 20
171.8677140751
 10
174.1567149416
 20
171.8718126882
 10
174.2378207788
 20
171.8834845505
 10
174.2920139666
 20
171.9009527269
 10
174.3110440835
 20
171.921557846
 10
174.2920139666
 20
171.942162965
 10
174.2378207788
 20
171.9596311415
 10
174.1567149416
 20
171.9713030038
 10
174.0610440835
 20
171.9754016168
  0
LWPOLYLINE
  5
177
330
1F
100
AcDbEntity
  8
0
  6
Continuous
 62
     7
370
    15
100
AcDbPolyline
 90
       17
 70
   128
 43
0.0
 10
173.0610440835
 20
172.2338517204
 10
172.9653732254
 20
172.2297531074
 10
172.8842673882
 20
172.2180812451
 10
172.8300742004
 20
172.2006130686
 10
172.8110440835
 20
172.1800079496
 10
172.8300742004
 20
172.1594028305
 10
172.8842673882
 20
172.1419346541
 10
172.9653732254
 20
172.1302627917
 10
173.0610440835
 20
172.1261641787
 10
173.1567149416
 20
172.1302627917
 10
173.2378207788
 20
172.1419346541
 10
173.2920139666
 20
172.1594028305
 10
173.3110440835
 20
172.1800079496
 10
173.2920139666
 20
172.2006130686
 10
173.2378207788
 20
172.2180812451
 10
173.1567149416
 20
172.2297531074
 10
173.0610440835
 20
172.2338517204
  0
LWPOLYLINE
  5
178
330
1F
100
AcDbEntity
  8
0
  6
Continuous
 62
     7
370
    15
100
AcDbPolyline
 90
       17
 70
   128
 43
0.0
 10
173.0610440835
 20
171.8677140751
 10
173.1567149416
 20
171.8718126882
 10
173.2378207788
 20
171.8834845505
 10
173.2920139666
 20
171.9009527269
 10
173.3110440835
 20
171.921557846
 10
173.2920139666
 20
171.942162965
 10
173.2378207788
 20
171.9596311415
 10
173.1567149416
 20
171.9713030038
 10
173.0610440835
 20
171.9754016168
 10
172.9653732254
 20
171.9713030038
 10
172.8842673882
 20
171.9596311415
 10
172.8300742004
 20
171.942162965
 10
172.8110440835
 20
171.921557846
 10
172.8300742004
 20
171.9009527269
 10
172.8842673882
 20
171.8834845505
 10
172.9653732254
 20
171.8718126882
 10
173.0610440835
 20
171.8677140751
  0
LWPOLYLINE
  5
179
330
1F
100
AcDbEntity
  8
0
  6
Continuous
 62
     7
370
    15
100
AcDbPolyline
 90
       17
 70
   128
 43
0.0
 10
174.0610440835
 20
172.1261641787
 10
174.1567149416
 20
172.1302627917
 10
174.2378207788
 20
172.1419346541
 10
174.2920139666
 20
172.1594028305
 10
174.3110440835
 20
172.1800079496
 10
174.2920139666
 20
172.2006130686
 10
174.2378207788
 20
172.2180812451
 10
174.1567149416
 20
172.2297531074
 10
174.0610440835
 20
172.2338517204
 10
173.9653732254
 20
172.2297531074
 10
173.8842673882
 20
172.2180812451
 10
173.8300742004
 20
172.2006130686
 10
173.8110440835
 20
172.1800079496
 10
173.8300742004
 20
172.1594028305
 10
173.8842673882
 20
172.1419346541
 10
173.9653732254
 20
172.1302627917
 10
174.0610440835
 20
172.1261641787
  0
ARC
  5
17A
330
1F
100
AcDbEntity
  8
0
  6
Continuous
 62
     7
370
    15
100
AcDbCircle
 10
120.1608792632
 20
176.8547867356
 30
0.0
 40
0.5102289471112887
100
AcDbArc
 50
89.9814916251
 51
113.0576959534
  0
ARC
  5
17B
330
1F
100
AcDbEntity
  8
0
  6
Continuous
 62
     7
370
    15
100
AcDbCircle
 10
120.158722182
 20
176.8743854003
 30
0.0
 40
0.1976923984593628
100
AcDbArc
 50
89.3270443605
 51
179.3108520604
  0
ARC
  5
17C
330
1F
100
AcDbEntity
  8
0
  6
Continuous
 62
     7
370
    15
100
AcDbCircle
 10
120.158722182
 20
176.4002967336
 30
0.0
 40
0.1976923984593808
100
AcDbArc
 50
89.3270443605
 51
179.3108520603
  0
LINE
  5
17D
330
1F
100
AcDbEntity
  8
0
  6
Continuous
 62
     7
370
    15
100
AcDbLine
 10
120.1610440835
 20
177.3650156561
 30
0.0
 11
123.0610440835
 21
177.3650156561
 31
0.0
  0
LINE
  5
17E
330
1F
100
AcDbEntity
  8
0
  6
Continuous
 62
     7
370
    15
100
AcDbLine
 10
120.1610440835
 20
177.0720641629
 30
0.0
 11
123.0610440835
 21
177.0720641629
 31
0.0
  0
ARC
  5
17F
330
1F
100
AcDbEntity
  8
0
  6
Continuous
 62
     7
370
    15
100
AcDbCircle
 10
123.108722182
 20
177.1006673208
 30
0.0
 40
0.2686135577970558
100
AcDbArc
 50
55.4540446259
 51
100.224000484
  0
LINE
  5
180
330
1F
100
AcDbEntity
  8
0
  6
Continuous
 62
     7
370
    15
100
AcDbLine
 10
123.2610440835
 20
177.3219166864
 30
0.0
 11
123.2610440835
 21
177.0289651932
 31
0.0
  0
ARC
  5
181
330
1F
100
AcDbEntity
  8
0
  6
Continuous
 62
     7
370
    15
100
AcDbCircle
 10
123.108722182
 20
176.8077158277
 30
0.0
 40
0.2686135577968905
100
AcDbArc
 50
55.4540446259
 51
100.224000484
  0
LINE
  5
182
330
1F
100
AcDbEntity
  8
0
  6
Continuous
 62
     7
370
    15
100
AcDbLine
 10
123.2610440835
 20
177.0289651932
 30
0.0
 11
123.2610440835
 21
176.6410744659
 31
0.0
  0
ARC
  5
183
330
1F
100
AcDbEntity
  8
0
  6
Continuous
 62
     7
370
    15
100
AcDbCircle
 10
123.108722182
 20
176.8623238315
 30
0.0
 40
0.26861355779657
100
AcDbArc
 50
259.775999516
 51
304.5459553742
  0
LINE
  5
184
330
1F
100
AcDbEntity
  8
0
  6
Continuous
 62
     7
370
    15
100
AcDbLine
 10
123.0610440835
 20
176.5979754962
 30
0.0
 11
120.1610440835
 21
176.5979754962
 31
0.0
  0
LWPOLYLINE
  5
185
330
1F
100
AcDbEntity
  8
0
  6
Continuous
 62
     7
370
    15
100
AcDbPolyline
 90
       17
 70
   128
 43
0.0
 10
121.7610440835
 20
176.9104430266
 10
121.6653732254
 20
176.9145439187
 10
121.5842673882
 20
176.9262222715
 10
121.5300742004
 20
176.9437001616
 10
121.5110440835
 20
176.9643167387
 10
121.5300742004
 20
176.9849333158
 10
121.5842673882
 20
177.0024112059
 10
121.6653732254
 20
177.0140895587
 10
121.7610440835
 20
177.0181904508
 10
121.8567149416
 20
177.0140895587
 10
121.9378207788
 20
177.0024112059
 10
121.9920139666
 20
176.9849333158
 10
122.0110440835
 20
176.9643167387
 10
121.9920139666
 20
176.9437001616
 10
121.9378207788
 20
176.9262222715
 10
121.8567149416
 20
176.9145439187
 10
121.7610440835
 20
176.9104430266
  0
LWPOLYLINE
  5
186
330
1F
100
AcDbEntity
  8
0
  6
Continuous
 62
     7
370
    15
100
AcDbPolyline
 90
       17
 70
   128
 43
0.0
 10
121.7610440835
 20
176.7595966326
 10
121.8567149416
 20
176.7554957404
 10
121.9378207788
 20
176.7438173876
 10
121.9920139666
 20
176.7263394975
 10
122.0110440835
 20
176.7057229205
 10
121.9920139666
 20
176.6851063434
 10
121.9378207788
 20
176.6676284533
 10
121.8567149416
 20
176.6559501005
 10
121.7610440835
 20
176.6518492083
 10
121.6653732254
 20
176.6559501005
 10
121.5842673882
 20
176.6676284533
 10
121.5300742004
 20
176.6851063434
 10
121.5110440835
 20
176.7057229205
 10
121.5300742004
 20
176.7263394975
 10
121.5842673882
 20
176.7438173876
 10
121.6653732254
 20
176.7554957404
 10
121.7610440835
 20
176.7595966326
  0
LWPOLYLINE
  5
187
330
1F
100
AcDbEntity
  8
0
  6
Continuous
 62
     7
370
    15
100
AcDbPolyline
 90
       17
 70
   128
 43
0.0
 10
122.7610440835
 20
177.0181904508
 10
122.8567149416
 20
177.0140895587
 10
122.9378207788
 20
177.0024112059
 10
122.9920139666
 20
176.9849333158
 10
123.0110440835
 20
176.9643167387
 10
122.9920139666
 20
176.9437001616
 10
122.9378207788
 20
176.9262222715
 10
122.8567149416
 20
176.9145439187
 10
122.7610440835
 20
176.9104430266
 10
122.6653732254
 20
176.9145439187
 10
122.5842673882
 20
176.9262222715
 10
122.5300742004
 20
176.9437001616
 10
122.5110440835
 20
176.9643167387
 10
122.5300742004
 20
176.9849333158
 10
122.5842673882
 20
177.0024112059
 10
122.6653732254
 20
177.0140895587
 10
122.7610440835
 20
177.0181904508
  0
LWPOLYLINE
  5
188
330
1F
100
AcDbEntity
  8
0
  6
Continuous
 62
     7
370
    15
100
AcDbPolyline
 90
       17
 70
   128
 43
0.0
 10
122.7610440835
 20
176.6518492083
 10
122.6653732254
 20
176.6559501005
 10
122.5842673882
 20
176.6676284533
 10
122.5300742004
 20
176.6851063434
 10
122.5110440835
 20
176.7057229205
 10
122.5300742004
 20
176.7263394975
 10
122.5842673882
 20
176.7438173876
 10
122.6653732254
 20
176.7554957404
 10
122.7610440835
 20
176.7595966326
 10
122.8567149416
 20
176.7554957404
 10
122.9378207788
 20
176.7438173876
 10
122.9920139666
 20
176.7263394975
 10
123.0110440835
 20
176.7057229205
 10
122.9920139666
 20
176.6851063434
 10
122.9378207788
 20
176.6676284533
 10
122.8567149416
 20
176.6559501005
 10
122.7610440835
 20
176.6518492083
  0
ARC
  5
189
330
1F
100
AcDbEntity
  8
0
  6
Continuous
 62
     7
370
    15
100
AcDbCircle
 10
120.1608792632
 20
174.4426468633
 30
0.0
 40
0.5102289471112887
100
AcDbArc
 50
89.9814916251
 51
113.0576959534
  0
ARC
  5
18A
330
1F
100
AcDbEntity
  8
0
  6
Continuous
 62
     7
370
    15
100
AcDbCircle
 10
120.158722182
 20
174.4622455281
 30
0.0
 40
0.1976923984593347
100
AcDbArc
 50
89.3270443605
 51
179.3108520603
  0
ARC
  5
18B
330
1F
100
AcDbEntity
  8
0
  6
Continuous
 62
     7
370
    15
100
AcDbCircle
 10
120.158722182
 20
173.9881568613
 30
0.0
 40
0.1976923984593774
100
AcDbArc
 50
89.3270443605
 51
179.3108520603
  0
LINE
  5
18C
330
1F
100
AcDbEntity
  8
0
  6
Continuous
 62
     7
370
    15
100
AcDbLine
 10
120.1610440835
 20
174.9528757838
 30
0.0
 11
123.0610440835
 21
174.9528757838
 31
0.0
  0
LINE
  5
18D
330
1F
100
AcDbEntity
  8
0
  6
Continuous
 62
     7
370
    15
100
AcDbLine
 10
120.1610440835
 20
174.6599242906
 30
0.0
 11
123.0610440835
 21
174.6599242906
 31
0.0
  0
ARC
  5
18E
330
1F
100
AcDbEntity
  8
0
  6
Continuous
 62
     7
370
    15
100
AcDbCircle
 10
123.108722182
 20
174.6885274485
 30
0.0
 40
0.2686135577968879
100
AcDbArc
 50
55.4540446259
 51
100.224000484
  0
LINE
  5
18F
330
1F
100
AcDbEntity
  8
0
  6
Continuous
 62
     7
370
    15
100
AcDbLine
 10
123.2610440835
 20
174.9097768141
 30
0.0
 11
123.2610440835
 21
174.6168253209
 31
0.0
  0
ARC
  5
190
330
1F
100
AcDbEntity
  8
0
  6
Continuous
 62
     7
370
    15
100
AcDbCircle
 10
123.108722182
 20
174.3955759554
 30
0.0
 40
0.268613557796542
100
AcDbArc
 50
55.4540446258
 51
100.224000484
  0
LINE
  5
191
330
1F
100
AcDbEntity
  8
0
  6
Continuous
 62
     7
370
    15
100
AcDbLine
 10
123.2610440835
 20
174.6168253209
 30
0.0
 11
123.2610440835
 21
174.2289345936
 31
0.0
  0
ARC
  5
192
330
1F
100
AcDbEntity
  8
0
  6
Continuous
 62
     7
370
    15
100
AcDbCircle
 10
123.108722182
 20
174.4501839592
 30
0.0
 40
0.2686135577965156
100
AcDbArc
 50
259.775999516
 51
304.5459553742
  0
LINE
  5
193
330
1F
100
AcDbEntity
  8
0
  6
Continuous
 62
     7
370
    15
100
AcDbLine
 10
123.0610440835
 20
174.1858356239
 30
0.0
 11
120.1610440835
 21
174.1858356239
 31
0.0
  0
LWPOLYLINE
  5
194
330
1F
100
AcDbEntity
  8
0
  6
Continuous
 62
     7
370
    15
100
AcDbPolyline
 90
       17
 70
   128
 43
0.0
 10
122.7610440835
 20
174.2397093361
 10
122.6653732254
 20
174.2438102282
 10
122.5842673882
 20
174.255488581
 10
122.5300742004
 20
174.2729664711
 10
122.5110440835
 20
174.2935830482
 10
122.5300742004
 20
174.3141996253
 10
122.5842673882
 20
174.3316775154
 10
122.6653732254
 20
174.3433558682
 10
122.7610440835
 20
174.3474567603
 10
122.8567149416
 20
174.3433558682
 10
122.9378207788
 20
174.3316775154
 10
122.9920139666
 20
174.3141996253
 10
123.0110440835
 20
174.2935830482
 10
122.9920139666
 20
174.2729664711
 10
122.9378207788
 20
174.255488581
 10
122.8567149416
 20
174.2438102282
 10
122.7610440835
 20
174.2397093361
  0
LWPOLYLINE
  5
195
330
1F
100
AcDbEntity
  8
0
  6
Continuous
 62
     7
370
    15
100
AcDbPolyline
 90
       17
 70
   128
 43
0.0
 10
122.7610440835
 20
174.6060505785
 10
122.8567149416
 20
174.6019496864
 10
122.9378207788
 20
174.5902713336
 10
122.9920139666
 20
174.5727934435
 10
123.0110440835
 20
174.5521768664
 10
122.9920139666
 20
174.5315602893
 10
122.9378207788
 20
174.5140823992
 10
122.8567149416
 20
174.5024040464
 10
122.7610440835
 20
174.4983031543
 10
122.6653732254
 20
174.5024040464
 10
122.5842673882
 20
174.5140823992
 10
122.5300742004
 20
174.5315602893
 10
122.5110440835
 20
174.5521768664
 10
122.5300742004
 20
174.5727934435
 10
122.5842673882
 20
174.5902713336
 10
122.6653732254
 20
174.6019496864
 10
122.7610440835
 20
174.6060505785
  0
LWPOLYLINE
  5
196
330
1F
100
AcDbEntity
  8
0
  6
Continuous
 62
     7
370
    15
100
AcDbPolyline
 90
       17
 70
   128
 43
0.0
 10
121.7610440835
 20
174.3474567603
 10
121.8567149416
 20
174.3433558682
 10
121.9378207788
 20
174.3316775154
 10
121.9920139666
 20
174.3141996253
 10
122.0110440835
 20
174.2935830482
 10
121.9920139666
 20
174.2729664711
 10
121.9378207788
 20
174.255488581
 10
121.8567149416
 20
174.2438102282
 10
121.7610440835
 20
174.2397093361
 10
121.6653732254
 20
174.2438102282
 10
121.5842673882
 20
174.255488581
 10
121.5300742004
 20
174.2729664711
 10
121.5110440835
 20
174.2935830482
 10
121.5300742004
 20
174.3141996253
 10
121.5842673882
 20
174.3316775154
 10
121.6653732254
 20
174.3433558682
 10
121.7610440835
 20
174.3474567603
  0
LWPOLYLINE
  5
197
330
1F
100
AcDbEntity
  8
0
  6
Continuous
 62
     7
370
    15
100
AcDbPolyline
 90
       17
 70
   128
 43
0.0
 10
121.7610440835
 20
174.4983031543
 10
121.6653732254
 20
174.5024040464
 10
121.5842673882
 20
174.5140823992
 10
121.5300742004
 20
174.5315602893
 10
121.5110440835
 20
174.5521768664
 10
121.5300742004
 20
174.5727934435
 10
121.5842673882
 20
174.5902713336
 10
121.6653732254
 20
174.6019496864
 10
121.7610440835
 20
174.6060505785
 10
121.8567149416
 20
174.6019496864
 10
121.9378207788
 20
174.5902713336
 10
121.9920139666
 20
174.5727934435
 10
122.0110440835
 20
174.5521768664
 10
121.9920139666
 20
174.5315602893
 10
121.9378207788
 20
174.5140823992
 10
121.8567149416
 20
174.5024040464
 10
121.7610440835
 20
174.4983031543
  0
ARC
  5
198
330
1F
100
AcDbEntity
  8
0
  6
Continuous
 62
     7
370
    15
100
AcDbCircle
 10
120.1587247622
 20
172.0900141507
 30
0.0
 40
0.1976949458991373
100
AcDbArc
 50
89.3278008638
 51
179.3116453941
  0
ARC
  5
199
330
1F
100
AcDbEntity
  8
0
  6
Continuous
 62
     7
370
    15
100
AcDbCircle
 10
120.1608886058
 20
172.070392854
 30
0.0
 40
0.5102620807156171
100
AcDbArc
 50
89.9825418804
 51
113.0572524221
  0
ARC
  5
19A
330
1F
100
AcDbEntity
  8
0
  6
Continuous
 62
     7
370
    15
100
AcDbCircle
 10
120.1587247622
 20
171.6161889638
 30
0.0
 40
0.1976949458991228
100
AcDbArc
 50
89.3278008638
 51
179.3116453942
  0
LINE
  5
19B
330
1F
100
AcDbEntity
  8
0
  6
Continuous
 62
     7
370
    15
100
AcDbLine
 10
123.0610440835
 20
172.2876954913
 30
0.0
 11
120.1610440835
 21
172.2876954913
 31
0.0
  0
LINE
  5
19C
330
1F
100
AcDbEntity
  8
0
  6
Continuous
 62
     7
370
    15
100
AcDbLine
 10
123.0610440835
 20
172.580654911
 30
0.0
 11
120.1610440835
 21
172.580654911
 31
0.0
  0
ARC
  5
19D
330
1F
100
AcDbEntity
  8
0
  6
Continuous
 62
     7
370
    15
100
AcDbCircle
 10
123.1087247622
 20
172.3161955172
 30
0.0
 40
0.2687233113791815
100
AcDbArc
 50
55.4708216032
 51
100.2203388693
  0
LINE
  5
19E
330
1F
100
AcDbEntity
  8
0
  6
Continuous
 62
     7
370
    15
100
AcDbLine
 10
123.2610440835
 20
172.5375798943
 30
0.0
 11
123.2610440835
 21
172.2446204746
 31
0.0
  0
ARC
  5
19F
330
1F
100
AcDbEntity
  8
0
  6
Continuous
 62
     7
370
    15
100
AcDbCircle
 10
123.1087247622
 20
172.0232360975
 30
0.0
 40
0.268723311379393
100
AcDbArc
 50
55.4708216032
 51
100.2203388693
  0
LINE
  5
1A0
330
1F
100
AcDbEntity
  8
0
  6
Continuous
 62
     7
370
    15
100
AcDbLine
 10
123.2610440835
 20
171.856945321
 30
0.0
 11
123.2610440835
 21
172.2446204746
 31
0.0
  0
ARC
  5
1A1
330
1F
100
AcDbEntity
  8
0
  6
Continuous
 62
     7
370
    15
100
AcDbCircle
 10
123.1087247622
 20
172.0783296981
 30
0.0
 40
0.268723311379235
100
AcDbArc
 50
259.7796611307
 51
304.5291783968
  0
LINE
  5
1A2
330
1F
100
AcDbEntity
  8
0
  6
Continuous
 62
     7
370
    15
100
AcDbLine
 10
120.1610440835
 20
171.8138703043
 30
0.0
 11
123.0610440835
 21
171.8138703043
 31
0.0
  0
LWPOLYLINE
  5
1A3
330
1F
100
AcDbEntity
  8
0
  6
Continuous
 62
     7
370
    15
100
AcDbPolyline
 90
       17
 70
   128
 43
0.0
 10
122.7610440835
 20
171.9754016168
 10
122.6653732254
 20
171.9713030038
 10
122.5842673882
 20
171.9596311415
 10
122.5300742004
 20
171.942162965
 10
122.5110440835
 20
171.921557846
 10
122.5300742004
 20
171.900952727
 10
122.5842673882
 20
171.8834845505
 10
122.6653732254
 20
171.8718126882
 10
122.7610440835
 20
171.8677140752
 10
122.8567149416
 20
171.8718126882
 10
122.9378207788
 20
171.8834845505
 10
122.9920139666
 20
171.900952727
 10
123.0110440835
 20
171.921557846
 10
122.9920139666
 20
171.942162965
 10
122.9378207788
 20
171.9596311415
 10
122.8567149416
 20
171.9713030038
 10
122.7610440835
 20
171.9754016168
  0
LWPOLYLINE
  5
1A4
330
1F
100
AcDbEntity
  8
0
  6
Continuous
 62
     7
370
    15
100
AcDbPolyline
 90
       17
 70
   128
 43
0.0
 10
121.7610440835
 20
172.2338517204
 10
121.6653732254
 20
172.2297531074
 10
121.5842673882
 20
172.2180812451
 10
121.5300742004
 20
172.2006130686
 10
121.5110440835
 20
172.1800079496
 10
121.5300742004
 20
172.1594028305
 10
121.5842673882
 20
172.1419346541
 10
121.6653732254
 20
172.1302627917
 10
121.7610440835
 20
172.1261641787
 10
121.8567149416
 20
172.1302627917
 10
121.9378207788
 20
172.1419346541
 10
121.9920139666
 20
172.1594028305
 10
122.0110440835
 20
172.1800079496
 10
121.9920139666
 20
172.2006130686
 10
121.9378207788
 20
172.2180812451
 10
121.8567149416
 20
172.2297531074
 10
121.7610440835
 20
172.2338517204
  0
LWPOLYLINE
  5
1A5
330
1F
100
AcDbEntity
  8
0
  6
Continuous
 62
     7
370
    15
100
AcDbPolyline
 90
       17
 70
   128
 43
0.0
 10
121.7610440835
 20
171.8677140752
 10
121.8567149416
 20
171.8718126882
 10
121.9378207788
 20
171.8834845505
 10
121.9920139666
 20
171.900952727
 10
122.0110440835
 20
171.921557846
 10
121.9920139666
 20
171.942162965
 10
121.9378207788
 20
171.9596311415
 10
121.8567149416
 20
171.9713030038
 10
121.7610440835
 20
171.9754016168
 10
121.6653732254
 20
171.9713030038
 10
121.5842673882
 20
171.9596311415
 10
121.5300742004
 20
171.942162965
 10
121.5110440835
 20
171.921557846
 10
121.5300742004
 20
171.900952727
 10
121.5842673882
 20
171.8834845505
 10
121.6653732254
 20
171.8718126882
 10
121.7610440835
 20
171.8677140752
  0
LWPOLYLINE
  5
1A6
330
1F
100
AcDbEntity
  8
0
  6
Continuous
 62
     7
370
    15
100
AcDbPolyline
 90
       17
 70
   128
 43
0.0
 10
122.7610440835
 20
172.1261641787
 10
122.8567149416
 20
172.1302627917
 10
122.9378207788
 20
172.1419346541
 10
122.9920139666
 20
172.1594028305
 10
123.0110440835
 20
172.1800079496
 10
122.9920139666
 20
172.2006130686
 10
122.9378207788
 20
172.2180812451
 10
122.8567149416
 20
172.2297531074
 10
122.7610440835
 20
172.2338517204
 10
122.6653732254
 20
172.2297531074
 10
122.5842673882
 20
172.2180812451
 10
122.5300742004
 20
172.2006130686
 10
122.5110440835
 20
172.1800079496
 10
122.5300742004
 20
172.1594028305
 10
122.5842673882
 20
172.1419346541
 10
122.6653732254
 20
172.1302627917
 10
122.7610440835
 20
172.1261641787
  0
ARC
  5
1A7
330
1F
100
AcDbEntity
  8
0
  6
Continuous
 62
     7
370
    15
100
AcDbCircle
 10
222.7608792632
 20
176.8547867356
 30
0.0
 40
0.5102289471104078
100
AcDbArc
 50
89.9814916251
 51
113.0576959534
  0
ARC
  5
1A8
330
1F
100
AcDbEntity
  8
0
  6
Continuous
 62
     7
370
    15
100
AcDbCircle
 10
222.758722182
 20
176.8743854003
 30
0.0
 40
0.1976923984592964
100
AcDbArc
 50
89.3270443605
 51
179.3108520604
  0
ARC
  5
1A9
330
1F
100
AcDbEntity
  8
0
  6
Continuous
 62
     7
370
    15
100
AcDbCircle
 10
222.758722182
 20
176.4002967336
 30
0.0
 40
0.1976923984593245
100
AcDbArc
 50
89.3270443605
 51
179.3108520603
  0
LINE
  5
1AA
330
1F
100
AcDbEntity
  8
0
  6
Continuous
 62
     7
370
    15
100
AcDbLine
 10
222.7610440835
 20
177.3650156561
 30
0.0
 11
225.6610440835
 21
177.3650156561
 31
0.0
  0
LINE
  5
1AB
330
1F
100
AcDbEntity
  8
0
  6
Continuous
 62
     7
370
    15
100
AcDbLine
 10
222.7610440835
 20
177.0720641629
 30
0.0
 11
225.6610440835
 21
177.0720641629
 31
0.0
  0
ARC
  5
1AC
330
1F
100
AcDbEntity
  8
0
  6
Continuous
 62
     7
370
    15
100
AcDbCircle
 10
225.708722182
 20
177.1006673208
 30
0.0
 40
0.2686135577964374
100
AcDbArc
 50
55.4540446258
 51
100.224000484
  0
LINE
  5
1AD
330
1F
100
AcDbEntity
  8
0
  6
Continuous
 62
     7
370
    15
100
AcDbLine
 10
225.8610440835
 20
177.3219166864
 30
0.0
 11
225.8610440835
 21
177.0289651932
 31
0.0
  0
ARC
  5
1AE
330
1F
100
AcDbEntity
  8
0
  6
Continuous
 62
     7
370
    15
100
AcDbCircle
 10
225.708722182
 20
176.8077158277
 30
0.0
 40
0.2686135577966284
100
AcDbArc
 50
55.4540446259
 51
100.224000484
  0
LINE
  5
1AF
330
1F
100
AcDbEntity
  8
0
  6
Continuous
 62
     7
370
    15
100
AcDbLine
 10
225.8610440835
 20
177.0289651932
 30
0.0
 11
225.8610440835
 21
176.6410744659
 31
0.0
  0
ARC
  5
1B0
330
1F
100
AcDbEntity
  8
0
  6
Continuous
 62
     7
370
    15
100
AcDbCircle
 10
225.708722182
 20
176.8623238315
 30
0.0
 40
0.2686135577968981
100
AcDbArc
 50
259.775999516
 51
304.5459553741
  0
LINE
  5
1B1
330
1F
100
AcDbEntity
  8
0
  6
Continuous
 62
     7
370
    15
100
AcDbLine
 10
225.6610440835
 20
176.5979754962
 30
0.0
 11
222.7610440835
 21
176.5979754962
 31
0.0
  0
LWPOLYLINE
  5
1B2
330
1F
100
AcDbEntity
  8
0
  6
Continuous
 62
     7
370
    15
100
AcDbPolyline
 90
       17
 70
   128
 43
0.0
 10
224.3610440835
 20
176.9104430266
 10
224.2653732254
 20
176.9145439187
 10
224.1842673882
 20
176.9262222715
 10
224.1300742004
 20
176.9437001616
 10
224.1110440835
 20
176.9643167387
 10
224.1300742004
 20
176.9849333158
 10
224.1842673882
 20
177.0024112059
 10
224.2653732254
 20
177.0140895587
 10
224.3610440835
 20
177.0181904508
 10
224.4567149416
 20
177.0140895587
 10
224.5378207788
 20
177.0024112059
 10
224.5920139666
 20
176.9849333158
 10
224.6110440835
 20
176.9643167387
 10
224.5920139666
 20
176.9437001616
 10
224.5378207788
 20
176.9262222715
 10
224.4567149416
 20
176.9145439187
 10
224.3610440835
 20
176.9104430266
  0
LWPOLYLINE
  5
1B3
330
1F
100
AcDbEntity
  8
0
  6
Continuous
 62
     7
370
    15
100
AcDbPolyline
 90
       17
 70
   128
 43
0.0
 10
224.3610440835
 20
176.7595966326
 10
224.4567149416
 20
176.7554957404
 10
224.5378207788
 20
176.7438173876
 10
224.5920139666
 20
176.7263394975
 10
224.6110440835
 20
176.7057229205
 10
224.5920139666
 20
176.6851063434
 10
224.5378207788
 20
176.6676284533
 10
224.4567149416
 20
176.6559501005
 10
224.3610440835
 20
176.6518492083
 10
224.2653732254
 20
176.6559501005
 10
224.1842673882
 20
176.6676284533
 10
224.1300742004
 20
176.6851063434
 10
224.1110440835
 20
176.7057229205
 10
224.1300742004
 20
176.7263394975
 10
224.1842673882
 20
176.7438173876
 10
224.2653732254
 20
176.7554957404
 10
224.3610440835
 20
176.7595966326
  0
LWPOLYLINE
  5
1B4
330
1F
100
AcDbEntity
  8
0
  6
Continuous
 62
     7
370
    15
100
AcDbPolyline
 90
       17
 70
   128
 43
0.0
 10
225.3610440835
 20
177.0181904508
 10
225.4567149416
 20
177.0140895587
 10
225.5378207788
 20
177.0024112059
 10
225.5920139666
 20
176.9849333158
 10
225.6110440835
 20
176.9643167387
 10
225.5920139666
 20
176.9437001616
 10
225.5378207788
 20
176.9262222715
 10
225.4567149416
 20
176.9145439187
 10
225.3610440835
 20
176.9104430266
 10
225.2653732254
 20
176.9145439187
 10
225.1842673882
 20
176.9262222715
 10
225.1300742004
 20
176.9437001616
 10
225.1110440835
 20
176.9643167387
 10
225.1300742004
 20
176.9849333158
 10
225.1842673882
 20
177.0024112059
 10
225.2653732254
 20
177.0140895587
 10
225.3610440835
 20
177.0181904508
  0
LWPOLYLINE
  5
1B5
330
1F
100
AcDbEntity
  8
0
  6
Continuous
 62
     7
370
    15
100
AcDbPolyline
 90
       17
 70
   128
 43
0.0
 10
225.3610440835
 20
176.6518492083
 10
225.2653732254
 20
176.6559501005
 10
225.1842673882
 20
176.6676284533
 10
225.1300742004
 20
176.6851063434
 10
225.1110440835
 20
176.7057229205
 10
225.1300742004
 20
176.7263394975
 10
225.1842673882
 20
176.7438173876
 10
225.2653732254
 20
176.7554957404
 10
225.3610440835
 20
176.7595966326
 10
225.4567149416
 20
176.7554957404
 10
225.5378207788
 20
176.7438173876
 10
225.5920139666
 20
176.7263394975
 10
225.6110440835
 20
176.7057229205
 10
225.5920139666
 20
176.6851063434
 10
225.5378207788
 20
176.6676284533
 10
225.4567149416
 20
176.6559501005
 10
225.3610440835
 20
176.6518492083
  0
ARC
  5
1B6
330
1F
100
AcDbEntity
  8
0
  6
Continuous
 62
     7
370
    15
100
AcDbCircle
 10
222.7608792632
 20
174.4426468633
 30
0.0
 40
0.5102289471111561
100
AcDbArc
 50
89.9814916251
 51
113.0576959534
  0
ARC
  5
1B7
330
1F
100
AcDbEntity
  8
0
  6
Continuous
 62
     7
370
    15
100
AcDbCircle
 10
222.758722182
 20
174.4622455281
 30
0.0
 40
0.1976923984593341
100
AcDbArc
 50
89.3270443606
 51
179.3108520604
  0
ARC
  5
1B8
330
1F
100
AcDbEntity
  8
0
  6
Continuous
 62
     7
370
    15
100
AcDbCircle
 10
222.758722182
 20
173.9881568613
 30
0.0
 40
0.1976923984593242
100
AcDbArc
 50
89.3270443605
 51
179.3108520604
  0
LINE
  5
1B9
330
1F
100
AcDbEntity
  8
0
  6
Continuous
 62
     7
370
    15
100
AcDbLine
 10
222.7610440835
 20
174.9528757838
 30
0.0
 11
225.6610440835
 21
174.9528757838
 31
0.0
  0
LINE
  5
1BA
330
1F
100
AcDbEntity
  8
0
  6
Continuous
 62
     7
370
    15
100
AcDbLine
 10
222.7610440835
 20
174.6599242906
 30
0.0
 11
225.6610440835
 21
174.6599242906
 31
0.0
  0
ARC
  5
1BB
330
1F
100
AcDbEntity
  8
0
  6
Continuous
 62
     7
370
    15
100
AcDbCircle
 10
225.708722182
 20
174.6885274485
 30
0.0
 40
0.2686135577966972
100
AcDbArc
 50
55.4540446259
 51
100.224000484
  0
LINE
  5
1BC
330
1F
100
AcDbEntity
  8
0
  6
Continuous
 62
     7
370
    15
100
AcDbLine
 10
225.8610440835
 20
174.9097768141
 30
0.0
 11
225.8610440835
 21
174.6168253209
 31
0.0
  0
ARC
  5
1BD
330
1F
100
AcDbEntity
  8
0
  6
Continuous
 62
     7
370
    15
100
AcDbCircle
 10
225.708722182
 20
174.3955759554
 30
0.0
 40
0.268613557796865
100
AcDbArc
 50
55.4540446259
 51
100.224000484
  0
LINE
  5
1BE
330
1F
100
AcDbEntity
  8
0
  6
Continuous
 62
     7
370
    15
100
AcDbLine
 10
225.8610440835
 20
174.6168253209
 30
0.0
 11
225.8610440835
 21
174.2289345936
 31
0.0
  0
ARC
  5
1BF
330
1F
100
AcDbEntity
  8
0
  6
Continuous
 62
     7
370
    15
100
AcDbCircle
 10
225.708722182
 20
174.4501839592
 30
0.0
 40
0.2686135577967252
100
AcDbArc
 50
259.775999516
 51
304.5459553741
  0
LINE
  5
1C0
330
1F
100
AcDbEntity
  8
0
  6
Continuous
 62
     7
370
    15
100
AcDbLine
 10
225.6610440835
 20
174.1858356239
 30
0.0
 11
222.7610440835
 21
174.1858356239
 31
0.0
  0
LWPOLYLINE
  5
1C1
330
1F
100
AcDbEntity
  8
0
  6
Continuous
 62
     7
370
    15
100
AcDbPolyline
 90
       17
 70
   128
 43
0.0
 10
225.3610440835
 20
174.2397093361
 10
225.2653732254
 20
174.2438102282
 10
225.1842673882
 20
174.255488581
 10
225.1300742004
 20
174.2729664711
 10
225.1110440835
 20
174.2935830482
 10
225.1300742004
 20
174.3141996253
 10
225.1842673882
 20
174.3316775154
 10
225.2653732254
 20
174.3433558682
 10
225.3610440835
 20
174.3474567603
 10
225.4567149416
 20
174.3433558682
 10
225.5378207788
 20
174.3316775154
 10
225.5920139666
 20
174.3141996253
 10
225.6110440835
 20
174.2935830482
 10
225.5920139666
 20
174.2729664711
 10
225.5378207788
 20
174.255488581
 10
225.4567149416
 20
174.2438102282
 10
225.3610440835
 20
174.2397093361
  0
LWPOLYLINE
  5
1C2
330
1F
100
AcDbEntity
  8
0
  6
Continuous
 62
     7
370
    15
100
AcDbPolyline
 90
       17
 70
   128
 43
0.0
 10
225.3610440835
 20
174.6060505785
 10
225.4567149416
 20
174.6019496864
 10
225.5378207788
 20
174.5902713336
 10
225.5920139666
 20
174.5727934435
 10
225.6110440835
 20
174.5521768664
 10
225.5920139666
 20
174.5315602893
 10
225.5378207788
 20
174.5140823992
 10
225.4567149416
 20
174.5024040464
 10
225.3610440835
 20
174.4983031543
 10
225.2653732254
 20
174.5024040464
 10
225.1842673882
 20
174.5140823992
 10
225.1300742004
 20
174.5315602893
 10
225.1110440835
 20
174.5521768664
 10
225.1300742004
 20
174.5727934435
 10
225.1842673882
 20
174.5902713336
 10
225.2653732254
 20
174.6019496864
 10
225.3610440835
 20
174.6060505785
  0
LWPOLYLINE
  5
1C3
330
1F
100
AcDbEntity
  8
0
  6
Continuous
 62
     7
370
    15
100
AcDbPolyline
 90
       17
 70
   128
 43
0.0
 10
224.3610440835
 20
174.3474567603
 10
224.4567149416
 20
174.3433558682
 10
224.5378207788
 20
174.3316775154
 10
224.5920139666
 20
174.3141996253
 10
224.6110440835
 20
174.2935830482
 10
224.5920139666
 20
174.2729664711
 10
224.5378207788
 20
174.255488581
 10
224.4567149416
 20
174.2438102282
 10
224.3610440835
 20
174.2397093361
 10
224.2653732254
 20
174.2438102282
 10
224.1842673882
 20
174.255488581
 10
224.1300742004
 20
174.2729664711
 10
224.1110440835
 20
174.2935830482
 10
224.1300742004
 20
174.3141996253
 10
224.1842673882
 20
174.3316775154
 10
224.2653732254
 20
174.3433558682
 10
224.3610440835
 20
174.3474567603
  0
LWPOLYLINE
  5
1C4
330
1F
100
AcDbEntity
  8
0
  6
Continuous
 62
     7
370
    15
100
AcDbPolyline
 90
       17
 70
   128
 43
0.0
 10
224.3610440835
 20
174.4983031543
 10
224.2653732254
 20
174.5024040464
 10
224.1842673882
 20
174.5140823992
 10
224.1300742004
 20
174.5315602893
 10
224.1110440835
 20
174.5521768664
 10
224.1300742004
 20
174.5727934435
 10
224.1842673882
 20
174.5902713336
 10
224.2653732254
 20
174.6019496864
 10
224.3610440835
 20
174.6060505785
 10
224.4567149416
 20
174.6019496864
 10
224.5378207788
 20
174.5902713336
 10
224.5920139666
 20
174.5727934435
 10
224.6110440835
 20
174.5521768664
 10
224.5920139666
 20
174.5315602893
 10
224.5378207788
 20
174.5140823992
 10
224.4567149416
 20
174.5024040464
 10
224.3610440835
 20
174.4983031543
  0
ARC
  5
1C5
330
1F
100
AcDbEntity
  8
0
  6
Continuous
 62
     7
370
    15
100
AcDbCircle
 10
222.7587247622
 20
172.0900141508
 30
0.0
 40
0.1976949458991512
100
AcDbArc
 50
89.3278008638
 51
179.3116453942
  0
ARC
  5
1C6
330
1F
100
AcDbEntity
  8
0
  6
Continuous
 62
     7
370
    15
100
AcDbCircle
 10
222.7608886058
 20
172.070392854
 30
0.0
 40
0.5102620807162677
100
AcDbArc
 50
89.9825418804
 51
113.057252422
  0
ARC
  5
1C7
330
1F
100
AcDbEntity
  8
0
  6
Continuous
 62
     7
370
    15
100
AcDbCircle
 10
222.7587247622
 20
171.6161889638
 30
0.0
 40
0.1976949458991515
100
AcDbArc
 50
89.3278008638
 51
179.3116453941
  0
LINE
  5
1C8
330
1F
100
AcDbEntity
  8
0
  6
Continuous
 62
     7
370
    15
100
AcDbLine
 10
225.6610440835
 20
172.2876954913
 30
0.0
 11
222.7610440835
 21
172.2876954913
 31
0.0
  0
LINE
  5
1C9
330
1F
100
AcDbEntity
  8
0
  6
Continuous
 62
     7
370
    15
100
AcDbLine
 10
225.6610440835
 20
172.580654911
 30
0.0
 11
222.7610440835
 21
172.580654911
 31
0.0
  0
ARC
  5
1CA
330
1F
100
AcDbEntity
  8
0
  6
Continuous
 62
     7
370
    15
100
AcDbCircle
 10
225.7087247622
 20
172.3161955172
 30
0.0
 40
0.2687233113793462
100
AcDbArc
 50
55.4708216032
 51
100.2203388693
  0
LINE
  5
1CB
330
1F
100
AcDbEntity
  8
0
  6
Continuous
 62
     7
370
    15
100
AcDbLine
 10
225.8610440835
 20
172.5375798943
 30
0.0
 11
225.8610440835
 21
172.2446204746
 31
0.0
  0
ARC
  5
1CC
330
1F
100
AcDbEntity
  8
0
  6
Continuous
 62
     7
370
    15
100
AcDbCircle
 10
225.7087247622
 20
172.0232360975
 30
0.0
 40
0.2687233113795505
100
AcDbArc
 50
55.4708216032
 51
100.2203388693
  0
LINE
  5
1CD
330
1F
100
AcDbEntity
  8
0
  6
Continuous
 62
     7
370
    15
100
AcDbLine
 10
225.8610440835
 20
171.856945321
 30
0.0
 11
225.8610440835
 21
172.2446204746
 31
0.0
  0
ARC
  5
1CE
330
1F
100
AcDbEntity
  8
0
  6
Continuous
 62
     7
370
    15
100
AcDbCircle
 10
225.7087247622
 20
172.0783296981
 30
0.0
 40
0.2687233113795262
100
AcDbArc
 50
259.7796611307
 51
304.5291783968
  0
LINE
  5
1CF
330
1F
100
AcDbEntity
  8
0
  6
Continuous
 62
     7
370
    15
100
AcDbLine
 10
222.7610440835
 20
171.8138703043
 30
0.0
 11
225.6610440835
 21
171.8138703043
 31
0.0
  0
LWPOLYLINE
  5
1D0
330
1F
100
AcDbEntity
  8
0
  6
Continuous
 62
     7
370
    15
100
AcDbPolyline
 90
       17
 70
   128
 43
0.0
 10
225.3610440835
 20
171.9754016168
 10
225.2653732254
 20
171.9713030038
 10
225.1842673882
 20
171.9596311415
 10
225.1300742004
 20
171.942162965
 10
225.1110440835
 20
171.921557846
 10
225.1300742004
 20
171.900952727
 10
225.1842673882
 20
171.8834845505
 10
225.2653732254
 20
171.8718126882
 10
225.3610440835
 20
171.8677140752
 10
225.4567149416
 20
171.8718126882
 10
225.5378207788
 20
171.8834845505
 10
225.5920139666
 20
171.900952727
 10
225.6110440835
 20
171.921557846
 10
225.5920139666
 20
171.942162965
 10
225.5378207788
 20
171.9596311415
 10
225.4567149416
 20
171.9713030038
 10
225.3610440835
 20
171.9754016168
  0
LWPOLYLINE
  5
1D1
330
1F
100
AcDbEntity
  8
0
  6
Continuous
 62
     7
370
    15
100
AcDbPolyline
 90
       17
 70
   128
 43
0.0
 10
224.3610440835
 20
172.2338517204
 10
224.2653732254
 20
172.2297531074
 10
224.1842673882
 20
172.2180812451
 10
224.1300742004
 20
172.2006130686
 10
224.1110440835
 20
172.1800079496
 10
224.1300742004
 20
172.1594028305
 10
224.1842673882
 20
172.1419346541
 10
224.2653732254
 20
172.1302627917
 10
224.3610440835
 20
172.1261641787
 10
224.4567149416
 20
172.1302627917
 10
224.5378207788
 20
172.1419346541
 10
224.5920139666
 20
172.1594028305
 10
224.6110440835
 20
172.1800079496
 10
224.5920139666
 20
172.2006130686
 10
224.5378207788
 20
172.2180812451
 10
224.4567149416
 20
172.2297531074
 10
224.3610440835
 20
172.2338517204
  0
LWPOLYLINE
  5
1D2
330
1F
100
AcDbEntity
  8
0
  6
Continuous
 62
     7
370
    15
100
AcDbPolyline
 90
       17
 70
   128
 43
0.0
 10
224.3610440835
 20
171.8677140752
 10
224.4567149416
 20
171.8718126882
 10
224.5378207788
 20
171.8834845505
 10
224.5920139666
 20
171.900952727
 10
224.6110440835
 20
171.921557846
 10
224.5920139666
 20
171.942162965
 10
224.5378207788
 20
171.9596311415
 10
224.4567149416
 20
171.9713030038
 10
224.3610440835
 20
171.9754016168
 10
224.2653732254
 20
171.9713030038
 10
224.1842673882
 20
171.9596311415
 10
224.1300742004
 20
171.942162965
 10
224.1110440835
 20
171.921557846
 10
224.1300742004
 20
171.900952727
 10
224.1842673882
 20
171.8834845505
 10
224.2653732254
 20
171.8718126882
 10
224.3610440835
 20
171.8677140752
  0
LWPOLYLINE
  5
1D3
330
1F
100
AcDbEntity
  8
0
  6
Continuous
 62
     7
370
    15
100
AcDbPolyline
 90
       17
 70
   128
 43
0.0
 10
225.3610440835
 20
172.1261641787
 10
225.4567149416
 20
172.1302627917
 10
225.5378207788
 20
172.1419346541
 10
225.5920139666
 20
172.1594028305
 10
225.6110440835
 20
172.1800079496
 10
225.5920139666
 20
172.2006130686
 10
225.5378207788
 20
172.2180812451
 10
225.4567149416
 20
172.2297531074
 10
225.3610440835
 20
172.2338517204
 10
225.2653732254
 20
172.2297531074
 10
225.1842673882
 20
172.2180812451
 10
225.1300742004
 20
172.2006130686
 10
225.1110440835
 20
172.1800079496
 10
225.1300742004
 20
172.1594028305
 10
225.1842673882
 20
172.1419346541
 10
225.2653732254
 20
172.1302627917
 10
225.3610440835
 20
172.1261641787
  0
LINE
  5
1D4
330
1F
100
AcDbEntity
  8
0
  6
Continuous
 62
     7
370
    15
100
AcDbLine
 10
222.6210440835
 20
170.8909762251
 30
0.0
 11
222.9210440835
 21
170.8909762251
 31
0.0
  0
LINE
  5
1D5
330
1F
100
AcDbEntity
  8
0
  6
Continuous
 62
     7
370
    15
100
AcDbLine
 10
222.9210440835
 20
170.5509762251
 30
0.0
 11
222.9210440835
 21
170.8909762251
 31
0.0
  0
LINE
  5
1D6
330
1F
100
AcDbEntity
  8
0
  6
Continuous
 62
     7
370
    15
100
AcDbLine
 10
222.6210440835
 20
170.5509762251
 30
0.0
 11
222.6210440835
 21
170.8909762251
 31
0.0
  0
LINE
  5
1D7
330
1F
100
AcDbEntity
  8
0
  6
Continuous
 62
     7
370
    15
100
AcDbLine
 10
120.0210440835
 20
170.8909762251
 30
0.0
 11
120.3210440835
 21
170.8909762251
 31
0.0
  0
LINE
  5
1D8
330
1F
100
AcDbEntity
  8
0
  6
Continuous
 62
     7
370
    15
100
AcDbLine
 10
120.3210440835
 20
170.5509762251
 30
0.0
 11
120.3210440835
 21
170.8909762251
 31
0.0
  0
LINE
  5
1D9
330
1F
100
AcDbEntity
  8
0
  6
Continuous
 62
     7
370
    15
100
AcDbLine
 10
120.0210440835
 20
170.5509762251
 30
0.0
 11
120.0210440835
 21
170.8909762251
 31
0.0
  0
LINE
  5
1DA
330
1F
100
AcDbEntity
  8
0
  6
Continuous
 62
     7
370
    15
100
AcDbLine
 10
119.3010440835
 20
170.8909762251
 30
0.0
 11
119.6010440835
 21
170.8909762251
 31
0.0
  0
LINE
  5
1DB
330
1F
100
AcDbEntity
  8
0
  6
Continuous
 62
     7
370
    15
100
AcDbLine
 10
119.3010440835
 20
170.5509762251
 30
0.0
 11
119.3010440835
 21
170.8909762251
 31
0.0
  0
LINE
  5
1DC
330
1F
100
AcDbEntity
  8
0
  6
Continuous
 62
     7
370
    15
100
AcDbLine
 10
119.6010440835
 20
170.5509762251
 30
0.0
 11
119.6010440835
 21
170.8909762251
 31
0.0
  0
LINE
  5
1DD
330
1F
100
AcDbEntity
  8
0
  6
Continuous
 62
     7
370
    15
100
AcDbLine
 10
221.9010440835
 20
170.5509762251
 30
0.0
 11
221.9010440835
 21
170.8909762251
 31
0.0
  0
LINE
  5
1DE
330
1F
100
AcDbEntity
  8
0
  6
Continuous
 62
     7
370
    15
100
AcDbLine
 10
221.9010440835
 20
170.8909762251
 30
0.0
 11
222.2010440835
 21
170.8909762251
 31
0.0
  0
LINE
  5
1DF
330
1F
100
AcDbEntity
  8
0
  6
Continuous
 62
     7
370
    15
100
AcDbLine
 10
222.2010440835
 20
170.5509762251
 30
0.0
 11
222.2010440835
 21
170.8909762251
 31
0.0
  0
LINE
  5
1E0
330
1F
100
AcDbEntity
  8
0
  6
Continuous
 62
     7
370
    15
100
AcDbLine
 10
171.3210440835
 20
170.8909762251
 30
0.0
 11
171.6210440835
 21
170.8909762251
 31
0.0
  0
LINE
  5
1E1
330
1F
100
AcDbEntity
  8
0
  6
Continuous
 62
     7
370
    15
100
AcDbLine
 10
171.3210440835
 20
170.5509762251
 30
0.0
 11
171.3210440835
 21
170.8909762251
 31
0.0
  0
LINE
  5
1E2
330
1F
100
AcDbEntity
  8
0
  6
Continuous
 62
     7
370
    15
100
AcDbLine
 10
171.6210440835
 20
170.5509762251
 30
0.0
 11
171.6210440835
 21
170.8909762251
 31
0.0
  0
LINE
  5
1E3
330
1F
100
AcDbEntity
  8
0
  6
Continuous
 62
     7
370
    15
100
AcDbLine
 10
170.6010440835
 20
170.5509762251
 30
0.0
 11
170.6010440835
 21
170.8909762251
 31
0.0
  0
LINE
  5
1E4
330
1F
100
AcDbEntity
  8
0
  6
Continuous
 62
     7
370
    15
100
AcDbLine
 10
170.6010440835
 20
170.8909762251
 30
0.0
 11
170.9010440835
 21
170.8909762251
 31
0.0
  0
LINE
  5
1E5
330
1F
100
AcDbEntity
  8
0
  6
Continuous
 62
     7
370
    15
100
AcDbLine
 10
170.9010440835
 20
170.5509762251
 30
0.0
 11
170.9010440835
 21
170.8909762251
 31
0.0
  0
LINE
  5
1E6
330
1F
100
AcDbEntity
  8
0
  6
Continuous
 62
     7
370
    15
100
AcDbLine
 10
169.5910440835
 20
168.0109762251
 30
0.0
 11
172.7410440835
 21
168.0109762251
 31
0.0
  0
LINE
  5
1E7
330
1F
100
AcDbEntity
  8
0
  6
Continuous
 62
     7
370
    15
100
AcDbLine
 10
169.5910440835
 20
168.0909762251
 30
0.0
 11
172.7410440835
 21
168.0909762251
 31
0.0
  0
LINE
  5
1E8
330
1F
100
AcDbEntity
  8
0
  6
Continuous
 62
     7
370
    15
100
AcDbLine
 10
170.6660440835
 20
110.1559762251
 30
0.0
 11
170.6660440835
 21
110.7309762251
 31
0.0
  0
ARC
  5
1E9
330
1F
100
AcDbEntity
  8
0
  6
Continuous
 62
     7
370
    15
100
AcDbCircle
 10
170.8660440835
 20
110.7309762251
 30
0.0
 40
0.2000000000000171
100
AcDbArc
 50
90.0
 51
180.0
  0
LINE
  5
1EA
330
1F
100
AcDbEntity
  8
0
  6
Continuous
 62
     7
370
    15
100
AcDbLine
 10
170.8660440835
 20
110.9309762251
 30
0.0
 11
171.4660440835
 21
110.9309762251
 31
0.0
  0
LINE
  5
1EB
330
1F
100
AcDbEntity
  8
0
  6
Continuous
 62
     7
370
    15
100
AcDbLine
 10
171.6660440835
 20
110.7309762251
 30
0.0
 11
171.6660440835
 21
110.1559762251
 31
0.0
  0
ARC
  5
1EC
330
1F
100
AcDbEntity
  8
0
  6
Continuous
 62
     7
370
    15
100
AcDbCircle
 10
171.4660440835
 20
110.7309762251
 30
0.0
 40
0.1999999999999886
100
AcDbArc
 50
0.0
 51
90.0
  0
CIRCLE
  5
1ED
330
1F
100
AcDbEntity
  8
0
  6
Continuous
 62
     7
370
    15
100
AcDbCircle
 10
171.1660440835
 20
110.4809762251
 30
0.0
 40
0.3200000000000074
  0
LINE
  5
1EE
330
1F
100
AcDbEntity
  8
0
  6
Continuous
 62
     7
370
    15
100
AcDbLine
 10
170.6660440835
 20
110.1509762251
 30
0.0
 11
170.6660440835
 21
110.1559762251
 31
0.0
  0
LINE
  5
1EF
330
1F
100
AcDbEntity
  8
0
  6
Continuous
 62
     7
370
    15
100
AcDbLine
 10
171.6660440835
 20
110.1559762251
 30
0.0
 11
171.6660440835
 21
110.1509762251
 31
0.0
  0
LINE
  5
1F0
330
1F
100
AcDbEntity
  8
0
  6
Continuous
 62
     7
370
    15
100
AcDbLine
 10
138.7043147896
 20
108.8309762251
 30
0.0
 11
131.8277733774
 21
108.8309762251
 31
0.0
  0
LINE
  5
1F1
330
1F
100
AcDbEntity
  8
0
  6
Continuous
 62
     7
370
    15
100
AcDbLine
 10
210.5043147896
 20
108.8309762251
 30
0.0
 11
203.6277733774
 21
108.8309762251
 31
0.0
  0
LINE
  5
1F2
330
1F
100
AcDbEntity
  8
0
  6
Continuous
 62
     7
370
    15
100
AcDbLine
 10
174.6043147896
 20
108.8309762251
 30
0.0
 11
167.7277733774
 21
108.8309762251
 31
0.0
  0
SPLINE
  5
1F3
330
1F
100
AcDbEntity
  8
0
  6
Continuous
 62
     7
370
    15
100
AcDbSpline
210
0.0
220
0.0
230
1.0
 70
     8
 71
     3
 72
    11
 73
     7
 74
     0
 42
0.00000001
 43
0.00000001
 40
0.0
 40
0.0
 40
0.0
 40
0.0
 40
0.2499999999999986
 40
0.5000000000000003
 40
0.7500000000000002
 40
1.0
 40
1.0
 40
1.0
 40
1.0
 10
104.1160440835267
 20
101.0009762250679
 30
0.0
 10
104.0916333391777
 20
100.9420095553551
 30
0.0
 10
104.0428118504797
 20
100.8240762159295
 30
0.0
 10
103.9695796174326
 20
100.6753309942358
 30
0.0
 10
103.8963473843856
 20
100.5712688483308
 30
0.0
 10
103.8475258956876
 20
100.5577404328222
 30
0.0
 10
103.8231151513386
 20
100.5509762250679
 30
0.0
  0
LINE
  5
1F4
330
1F
100
AcDbEntity
  8
0
  6
Continuous
 62
     7
370
    15
100
AcDbLine
 10
103.8231151513
 20
100.7009762251
 30
0.0
 11
103.8231151513
 21
100.5509762251
 31
0.0
  0
SPLINE
  5
1F5
330
1F
100
AcDbEntity
  8
0
  6
Continuous
 62
     7
370
    15
100
AcDbSpline
210
0.0
220
0.0
230
1.0
 70
     8
 71
     3
 72
    11
 73
     7
 74
     0
 42
0.00000001
 43
0.00000001
 40
0.0
 40
0.0
 40
0.0
 40
0.0
 40
0.2499999999999999
 40
0.4999999999999994
 40
0.7499999999999919
 40
1.0
 40
1.0
 40
1.0
 40
1.0
 10
104.1160440835267
 20
101.0009762250679
 30
0.0
 10
104.0916333391777
 20
100.961665111926
 30
0.0
 10
104.0428118504797
 20
100.8830428856423
 30
0.0
 10
103.9695796174327
 20
100.7838794045132
 30
0.0
 10
103.8963473843856
 20
100.7145046405765
 30
0.0
 10
103.8475258956876
 20
100.7054856969041
 30
0.0
 10
103.8231151513386
 20
100.7009762250679
 30
0.0
  0
LINE
  5
1F6
330
1F
100
AcDbEntity
  8
0
  6
Continuous
 62
     7
370
    15
100
AcDbLine
 10
210.2160440835
 20
109.5509762251
 30
0.0
 11
203.9160440835
 21
109.5509762251
 31
0.0
  0
ARC
  5
1F7
330
1F
100
AcDbEntity
  8
0
  6
Continuous
 62
     7
370
    15
100
AcDbCircle
 10
203.9160440835
 20
108.9509762251
 30
0.0
 40
0.6000000000000085
100
AcDbArc
 50
90.0
 51
270.0
  0
LINE
  5
1F8
330
1F
100
AcDbEntity
  8
0
  6
Continuous
 62
     7
370
    15
100
AcDbLine
 10
210.2160440835
 20
108.3509762251
 30
0.0
 11
203.9160440835
 21
108.3509762251
 31
0.0
  0
ARC
  5
1F9
330
1F
100
AcDbEntity
  8
0
  6
Continuous
 62
     7
370
    15
100
AcDbCircle
 10
210.2160440835
 20
108.9509762251
 30
0.0
 40
0.6000000000000085
100
AcDbArc
 50
270.0
 51
90.0
  0
LINE
  5
1FA
330
1F
100
AcDbEntity
  8
0
  6
Continuous
 62
     7
370
    15
100
AcDbLine
 10
138.4160440835
 20
109.5509762251
 30
0.0
 11
132.1160440835
 21
109.5509762251
 31
0.0
  0
ARC
  5
1FB
330
1F
100
AcDbEntity
  8
0
  6
Continuous
 62
     7
370
    15
100
AcDbCircle
 10
132.1160440835
 20
108.9509762251
 30
0.0
 40
0.5999999999999943
100
AcDbArc
 50
90.0
 51
270.0
  0
LINE
  5
1FC
330
1F
100
AcDbEntity
  8
0
  6
Continuous
 62
     7
370
    15
100
AcDbLine
 10
138.4160440835
 20
108.3509762251
 30
0.0
 11
132.1160440835
 21
108.3509762251
 31
0.0
  0
ARC
  5
1FD
330
1F
100
AcDbEntity
  8
0
  6
Continuous
 62
     7
370
    15
100
AcDbCircle
 10
138.4160440835
 20
108.9509762251
 30
0.0
 40
0.6000000000000085
100
AcDbArc
 50
270.0
 51
90.0
  0
CIRCLE
  5
1FE
330
1F
100
AcDbEntity
  8
0
  6
Continuous
 62
     7
370
    15
100
AcDbCircle
 10
153.2160440835
 20
120.7009762251
 30
0.0
 40
0.5249999999999915
  0
LINE
  5
1FF
330
1F
100
AcDbEntity
  8
0
  6
Continuous
 62
     7
370
    15
100
AcDbLine
 10
118.3160440835
 20
167.7759762251
 30
0.0
 11
118.3160440835
 21
167.7293819539
 31
0.0
  0
CIRCLE
  5
200
330
1F
100
AcDbEntity
  8
0
  6
Continuous
 62
     7
370
    15
100
AcDbCircle
 10
189.1160440835
 20
120.7009762251
 30
0.0
 40
0.5250000000000057
  0
LINE
  5
201
330
1F
100
AcDbEntity
  8
0
  6
Continuous
 62
     7
370
    15
100
AcDbLine
 10
172.7410440835
 20
168.1209762251
 30
0.0
 11
169.5910440835
 21
168.1209762251
 31
0.0
  0
LINE
  5
202
330
1F
100
AcDbEntity
  8
0
  6
Continuous
 62
     7
370
    15
100
AcDbLine
 10
169.5910440835
 20
168.1209762251
 30
0.0
 11
169.5910440835
 21
167.3409762251
 31
0.0
  0
LINE
  5
203
330
1F
100
AcDbEntity
  8
0
  6
Continuous
 62
     7
370
    15
100
AcDbLine
 10
172.7410440835
 20
167.3409762251
 30
0.0
 11
172.7410440835
 21
168.1209762251
 31
0.0
  0
LINE
  5
204
330
1F
100
AcDbEntity
  8
0
  6
Continuous
 62
     7
370
    15
100
AcDbLine
 10
148.8660440835
 20
109.9009762251
 30
0.0
 11
149.8660440835
 21
109.9009762251
 31
0.0
  0
ARC
  5
205
330
1F
100
AcDbEntity
  8
0
  6
Continuous
 62
     7
370
    15
100
AcDbCircle
 10
149.8660440835
 20
110.7009762251
 30
0.0
 40
0.8000000000000256
100
AcDbArc
 50
270.0
 51
0.0
  0
LINE
  5
206
330
1F
100
AcDbEntity
  8
0
  6
Continuous
 62
     7
370
    15
100
AcDbLine
 10
150.6660440835
 20
110.7009762251
 30
0.0
 11
150.6660440835
 21
111.7009762251
 31
0.0
  0
LINE
  5
207
330
1F
100
AcDbEntity
  8
0
  6
Continuous
 62
     7
370
    15
100
AcDbLine
 10
150.6660440835
 20
111.7009762251
 30
0.0
 11
150.8660440835
 21
111.7009762251
 31
0.0
  0
LINE
  5
208
330
1F
100
AcDbEntity
  8
0
  6
Continuous
 62
     7
370
    15
100
AcDbLine
 10
121.6660440835
 20
161.4009762251
 30
0.0
 11
121.6660440835
 21
161.2009762251
 31
0.0
  0
LINE
  5
209
330
1F
100
AcDbEntity
  8
0
  6
Continuous
 62
     7
370
    15
100
AcDbLine
 10
121.6660440835
 20
161.2009762251
 30
0.0
 11
121.3110440835
 21
161.2009762251
 31
0.0
  0
LINE
  5
20A
330
1F
100
AcDbEntity
  8
0
  6
Continuous
 62
     7
370
    15
100
AcDbLine
 10
119.6660440835
 20
111.7009762251
 30
0.0
 11
119.8660440835
 21
111.7009762251
 31
0.0
  0
LINE
  5
20B
330
1F
100
AcDbEntity
  8
0
  6
Continuous
 62
     7
370
    15
100
AcDbLine
 10
119.8660440835
 20
111.7009762251
 30
0.0
 11
119.8660440835
 21
110.7009762251
 31
0.0
  0
ARC
  5
20C
330
1F
100
AcDbEntity
  8
0
  6
Continuous
 62
     7
370
    15
100
AcDbCircle
 10
120.6660440835
 20
110.7009762251
 30
0.0
 40
0.8000000000000256
100
AcDbArc
 50
180.0
 51
270.0
  0
LINE
  5
20D
330
1F
100
AcDbEntity
  8
0
  6
Continuous
 62
     7
370
    15
100
AcDbLine
 10
120.6660440835
 20
109.9009762251
 30
0.0
 11
121.6660440835
 21
109.9009762251
 31
0.0
  0
LINE
  5
20E
330
1F
100
AcDbEntity
  8
0
  6
Continuous
 62
     7
370
    15
100
AcDbLine
 10
121.6660440835
 20
109.9009762251
 30
0.0
 11
121.6660440835
 21
109.7009762251
 31
0.0
  0
LINE
  5
20F
330
1F
100
AcDbEntity
  8
0
  6
Continuous
 62
     7
370
    15
100
AcDbLine
 10
148.8660440835
 20
109.7009762251
 30
0.0
 11
148.8660440835
 21
109.9009762251
 31
0.0
  0
LINE
  5
210
330
1F
100
AcDbEntity
  8
0
  6
Continuous
 62
     7
370
    15
100
AcDbLine
 10
184.7660440835
 20
109.9009762251
 30
0.0
 11
185.7660440835
 21
109.9009762251
 31
0.0
  0
ARC
  5
211
330
1F
100
AcDbEntity
  8
0
  6
Continuous
 62
     7
370
    15
100
AcDbCircle
 10
185.7660440835
 20
110.7009762251
 30
0.0
 40
0.8000000000000114
100
AcDbArc
 50
270.0
 51
0.0
  0
LINE
  5
212
330
1F
100
AcDbEntity
  8
0
  6
Continuous
 62
     7
370
    15
100
AcDbLine
 10
186.5660440835
 20
110.7009762251
 30
0.0
 11
186.5660440835
 21
111.7009762251
 31
0.0
  0
LINE
  5
213
330
1F
100
AcDbEntity
  8
0
  6
Continuous
 62
     7
370
    15
100
AcDbLine
 10
186.5660440835
 20
111.7009762251
 30
0.0
 11
186.7660440835
 21
111.7009762251
 31
0.0
  0
LINE
  5
214
330
1F
100
AcDbEntity
  8
0
  6
Continuous
 62
     7
370
    15
100
AcDbLine
 10
155.5660440835
 20
111.7009762251
 30
0.0
 11
155.7660440835
 21
111.7009762251
 31
0.0
  0
LINE
  5
215
330
1F
100
AcDbEntity
  8
0
  6
Continuous
 62
     7
370
    15
100
AcDbLine
 10
155.7660440835
 20
111.7009762251
 30
0.0
 11
155.7660440835
 21
110.7009762251
 31
0.0
  0
ARC
  5
216
330
1F
100
AcDbEntity
  8
0
  6
Continuous
 62
     7
370
    15
100
AcDbCircle
 10
156.5660440835
 20
110.7009762251
 30
0.0
 40
0.8000000000000114
100
AcDbArc
 50
180.0
 51
270.0
  0
LINE
  5
217
330
1F
100
AcDbEntity
  8
0
  6
Continuous
 62
     7
370
    15
100
AcDbLine
 10
156.5660440835
 20
109.9009762251
 30
0.0
 11
157.5660440835
 21
109.9009762251
 31
0.0
  0
LINE
  5
218
330
1F
100
AcDbEntity
  8
0
  6
Continuous
 62
     7
370
    15
100
AcDbLine
 10
157.5660440835
 20
109.9009762251
 30
0.0
 11
157.5660440835
 21
109.7009762251
 31
0.0
  0
LINE
  5
219
330
1F
100
AcDbEntity
  8
0
  6
Continuous
 62
     7
370
    15
100
AcDbLine
 10
184.7660440835
 20
109.7009762251
 30
0.0
 11
184.7660440835
 21
109.9009762251
 31
0.0
  0
LINE
  5
21A
330
1F
100
AcDbEntity
  8
0
  6
Continuous
 62
     7
370
    15
100
AcDbLine
 10
220.6660440835
 20
109.9009762251
 30
0.0
 11
221.6660440835
 21
109.9009762251
 31
0.0
  0
ARC
  5
21B
330
1F
100
AcDbEntity
  8
0
  6
Continuous
 62
     7
370
    15
100
AcDbCircle
 10
221.6660440835
 20
110.7009762251
 30
0.0
 40
0.8000000000000114
100
AcDbArc
 50
270.0
 51
0.0
  0
LINE
  5
21C
330
1F
100
AcDbEntity
  8
0
  6
Continuous
 62
     7
370
    15
100
AcDbLine
 10
222.4660440835
 20
110.7009762251
 30
0.0
 11
222.4660440835
 21
111.7009762251
 31
0.0
  0
LINE
  5
21D
330
1F
100
AcDbEntity
  8
0
  6
Continuous
 62
     7
370
    15
100
AcDbLine
 10
222.4660440835
 20
111.7009762251
 30
0.0
 11
222.6660440835
 21
111.7009762251
 31
0.0
  0
LINE
  5
21E
330
1F
100
AcDbEntity
  8
0
  6
Continuous
 62
     7
370
    15
100
AcDbLine
 10
220.9110440835
 20
161.2009762251
 30
0.0
 11
220.6660440835
 21
161.2009762251
 31
0.0
  0
LINE
  5
21F
330
1F
100
AcDbEntity
  8
0
  6
Continuous
 62
     7
370
    15
100
AcDbLine
 10
220.6660440835
 20
161.2009762251
 30
0.0
 11
220.6660440835
 21
161.4009762251
 31
0.0
  0
LINE
  5
220
330
1F
100
AcDbEntity
  8
0
  6
Continuous
 62
     7
370
    15
100
AcDbLine
 10
191.4660440835
 20
111.7009762251
 30
0.0
 11
191.6660440835
 21
111.7009762251
 31
0.0
  0
LINE
  5
221
330
1F
100
AcDbEntity
  8
0
  6
Continuous
 62
     7
370
    15
100
AcDbLine
 10
191.6660440835
 20
111.7009762251
 30
0.0
 11
191.6660440835
 21
110.7009762251
 31
0.0
  0
ARC
  5
222
330
1F
100
AcDbEntity
  8
0
  6
Continuous
 62
     7
370
    15
100
AcDbCircle
 10
192.4660440835
 20
110.7009762251
 30
0.0
 40
0.8000000000000114
100
AcDbArc
 50
180.0
 51
270.0
  0
LINE
  5
223
330
1F
100
AcDbEntity
  8
0
  6
Continuous
 62
     7
370
    15
100
AcDbLine
 10
192.4660440835
 20
109.9009762251
 30
0.0
 11
193.4660440835
 21
109.9009762251
 31
0.0
  0
LINE
  5
224
330
1F
100
AcDbEntity
  8
0
  6
Continuous
 62
     7
370
    15
100
AcDbLine
 10
193.4660440835
 20
109.9009762251
 30
0.0
 11
193.4660440835
 21
109.7009762251
 31
0.0
  0
LINE
  5
225
330
1F
100
AcDbEntity
  8
0
  6
Continuous
 62
     7
370
    15
100
AcDbLine
 10
220.6660440835
 20
109.7009762251
 30
0.0
 11
220.6660440835
 21
109.9009762251
 31
0.0
  0
LINE
  5
226
330
1F
100
AcDbEntity
  8
0
  6
Continuous
 62
     7
370
    15
100
AcDbLine
 10
174.3160440835
 20
109.5509762251
 30
0.0
 11
168.0160440835
 21
109.5509762251
 31
0.0
  0
ARC
  5
227
330
1F
100
AcDbEntity
  8
0
  6
Continuous
 62
     7
370
    15
100
AcDbCircle
 10
168.0160440835
 20
108.9509762251
 30
0.0
 40
0.6000000000000085
100
AcDbArc
 50
90.0
 51
270.0
  0
LINE
  5
228
330
1F
100
AcDbEntity
  8
0
  6
Continuous
 62
     7
370
    15
100
AcDbLine
 10
174.3160440835
 20
108.3509762251
 30
0.0
 11
168.0160440835
 21
108.3509762251
 31
0.0
  0
ARC
  5
229
330
1F
100
AcDbEntity
  8
0
  6
Continuous
 62
     7
370
    15
100
AcDbCircle
 10
174.3160440835
 20
108.9509762251
 30
0.0
 40
0.6000000000000085
100
AcDbArc
 50
270.0
 51
90.0
  0
SPLINE
  5
22A
330
1F
100
AcDbEntity
  8
0
  6
Continuous
 62
     7
370
    15
100
AcDbSpline
210
0.0
220
0.0
230
1.0
 70
     8
 71
     3
 72
    12
 73
     8
 74
     0
 42
0.00000001
 43
0.00000001
 40
0.0
 40
0.0
 40
0.0
 40
0.0
 40
0.2006459275990554
 40
0.4330792694322858
 40
0.6655464412074934
 40
0.8980132386677278
 40
1.0
 40
1.0
 40
1.0
 40
1.0
 10
103.8231151513386
 20
170.5509762250679
 30
0.0
 10
103.8426888048848
 20
170.5466102039037
 30
0.0
 10
103.8849370761521
 20
170.537186472863
 30
0.0
 10
103.9500019898761
 20
170.4579662249104
 30
0.0
 10
104.0180962513996
 20
170.3318767953726
 30
0.0
 10
104.0735923509269
 20
170.203403784922
 30
0.0
 10
104.1061240222465
 20
170.1249113534669
 30
0.0
 10
104.1160440835267
 20
170.1009762250679
 30
0.0
  0
SPLINE
  5
22B
330
1F
100
AcDbEntity
  8
0
  6
Continuous
 62
     7
370
    15
100
AcDbSpline
210
0.0
220
0.0
230
1.0
 70
     8
 71
     3
 72
    11
 73
     7
 74
     0
 42
0.00000001
 43
0.00000001
 40
0.0
 40
0.0
 40
0.0
 40
0.0
 40
0.2529465945605248
 40
0.5061185781772415
 40
0.7592915392996366
 40
1.0
 40
1.0
 40
1.0
 40
1.0
 10
103.8231151513386
 20
170.4009762250679
 30
0.0
 10
103.8478163396892
 20
170.3963569481193
 30
0.0
 10
103.8972407264813
 20
170.3871142781973
 30
0.0
 10
103.9713856728852
 20
170.3160839629535
 30
0.0
 10
104.044350093691
 20
170.2164377721951
 30
0.0
 10
104.0925515874478
 20
170.1388103580178
 30
0.0
 10
104.1160440835267
 20
170.1009762250679
 30
0.0
  0
LINE
  5
22C
330
1F
100
AcDbEntity
  8
0
  6
Continuous
 62
     7
370
    15
100
AcDbLine
 10
103.8231151513
 20
170.4009762251
 30
0.0
 11
103.8231151513
 21
170.5509762251
 31
0.0
  0
SPLINE
  5
22D
330
1F
100
AcDbEntity
  8
0
  6
Continuous
 62
     7
370
    15
100
AcDbSpline
210
0.0
220
0.0
230
1.0
 70
     8
 71
     3
 72
    11
 73
     7
 74
     0
 42
0.00000001
 43
0.00000001
 40
0.0
 40
0.0
 40
0.0
 40
0.0
 40
0.2499999999999998
 40
0.5000000000000072
 40
0.7499999999999921
 40
0.9999999999999999
 40
0.9999999999999999
 40
0.9999999999999999
 40
0.9999999999999999
 10
238.5089730157148
 20
100.5509762250679
 30
0.0
 10
238.4845622713658
 20
100.5577404328222
 30
0.0
 10
238.4357407826678
 20
100.5712688483308
 30
0.0
 10
238.3625085496207
 20
100.6753309942359
 30
0.0
 10
238.2892763165738
 20
100.8240762159295
 30
0.0
 10
238.2404548278757
 20
100.9420095553551
 30
0.0
 10
238.2160440835267
 20
101.0009762250679
 30
0.0
  0
LINE
  5
22E
330
1F
100
AcDbEntity
  8
0
  6
Continuous
 62
     7
370
    15
100
AcDbLine
 10
238.5089730157
 20
100.5509762251
 30
0.0
 11
103.8231151513
 21
100.5509762251
 31
0.0
  0
LINE
  5
22F
330
1F
100
AcDbEntity
  8
0
  6
Continuous
 62
     7
370
    15
100
AcDbLine
 10
238.6660440835
 20
101.0009762251
 30
0.0
 11
238.6660440835
 21
170.1009762251
 31
0.0
  0
LINE
  5
230
330
1F
100
AcDbEntity
  8
0
  6
Continuous
 62
     7
370
    15
100
AcDbLine
 10
238.2160440835
 20
101.0009762251
 30
0.0
 11
238.6660440835
 21
101.0009762251
 31
0.0
  0
LINE
  5
231
330
1F
100
AcDbEntity
  8
0
  6
Continuous
 62
     7
370
    15
100
AcDbLine
 10
238.6660440835
 20
170.1009762251
 30
0.0
 11
238.2160440835
 21
170.1009762251
 31
0.0
  0
LINE
  5
232
330
1F
100
AcDbEntity
  8
0
  6
Continuous
 62
     7
370
    15
100
AcDbLine
 10
103.6660440835
 20
170.1009762251
 30
0.0
 11
103.6660440835
 21
101.0009762251
 31
0.0
  0
LINE
  5
233
330
1F
100
AcDbEntity
  8
0
  6
Continuous
 62
     7
370
    15
100
AcDbLine
 10
104.1160440835
 20
170.1009762251
 30
0.0
 11
103.6660440835
 21
170.1009762251
 31
0.0
  0
LINE
  5
234
330
1F
100
AcDbEntity
  8
0
  6
Continuous
 62
     7
370
    15
100
AcDbLine
 10
103.6660440835
 20
101.0009762251
 30
0.0
 11
104.1160440835
 21
101.0009762251
 31
0.0
  0
SPLINE
  5
235
330
1F
100
AcDbEntity
  8
0
  6
Continuous
 62
     7
370
    15
100
AcDbSpline
210
0.0
220
0.0
230
1.0
 70
     8
 71
     3
 72
    12
 73
     8
 74
     0
 42
0.00000001
 43
0.00000001
 40
0.0
 40
0.0
 40
0.0
 40
0.0
 40
0.2027004038605105
 40
0.4351396546219187
 40
0.6676107404083932
 40
0.9000814540560712
 40
1.0
 40
1.0
 40
1.0
 40
1.0
 10
238.2160440835267
 20
170.1009762250679
 30
0.0
 10
238.2358196032339
 20
170.148690007029
 30
0.0
 10
238.2782719745736
 20
170.2511178177675
 30
0.0
 10
238.3435358466178
 20
170.3917141419119
 30
0.0
 10
238.4116302882752
 20
170.4994205408282
 30
0.0
 10
238.4669253096618
 20
170.5461509971629
 30
0.0
 10
238.4992546030577
 20
170.5498609785932
 30
0.0
 10
238.5089730157148
 20
170.5509762250679
 30
0.0
  0
LINE
  5
236
330
1F
100
AcDbEntity
  8
0
  6
Continuous
 62
     7
370
    15
100
AcDbLine
 10
238.5089730157
 20
170.4009762251
 30
0.0
 11
238.5089730157
 21
170.5509762251
 31
0.0
  0
SPLINE
  5
237
330
1F
100
AcDbEntity
  8
0
  6
Continuous
 62
     7
370
    15
100
AcDbSpline
210
0.0
220
0.0
230
1.0
 70
     8
 71
     3
 72
    11
 73
     7
 74
     0
 42
0.00000001
 43
0.00000001
 40
0.0
 40
0.0
 40
0.0
 40
0.0
 40
0.2529447163101733
 40
0.5061166943622385
 40
0.7592896545943039
 40
1.0
 40
1.0
 40
1.0
 40
1.0
 10
238.2160440835267
 20
170.1009762250679
 30
0.0
 10
238.2407450862657
 20
170.140753510123
 30
0.0
 10
238.2901692847075
 20
170.220343818695
 30
0.0
 10
238.3643140494949
 20
170.3203195480712
 30
0.0
 10
238.4372786516989
 20
170.3882046771816
 30
0.0
 10
238.4854803336022
 20
170.3967912668958
 30
0.0
 10
238.5089730157148
 20
170.4009762250679
 30
0.0
  0
LINE
  5
238
330
1F
100
AcDbEntity
  8
0
  6
Continuous
 62
     7
370
    15
100
AcDbLine
 10
103.8231151513
 20
170.5509762251
 30
0.0
 11
238.5089730157
 21
170.5509762251
 31
0.0
  0
SPLINE
  5
239
330
1F
100
AcDbEntity
  8
0
  6
Continuous
 62
     7
370
    15
100
AcDbSpline
210
0.0
220
0.0
230
1.0
 70
     8
 71
     3
 72
    11
 73
     7
 74
     0
 42
0.00000001
 43
0.00000001
 40
0.0
 40
0.0
 40
0.0
 40
0.0
 40
0.2500000000000085
 40
0.5000000000000258
 40
0.7499999999999931
 40
1.0
 40
1.0
 40
1.0
 40
1.0
 10
238.5089730157148
 20
100.7009762250679
 30
0.0
 10
238.4845622713658
 20
100.7054856969041
 30
0.0
 10
238.4357407826678
 20
100.7145046405765
 30
0.0
 10
238.3625085496207
 20
100.7838794045132
 30
0.0
 10
238.2892763165738
 20
100.8830428856423
 30
0.0
 10
238.2404548278757
 20
100.961665111926
 30
0.0
 10
238.2160440835267
 20
101.0009762250679
 30
0.0
  0
LINE
  5
23A
330
1F
100
AcDbEntity
  8
0
  6
Continuous
 62
     7
370
    15
100
AcDbLine
 10
238.5089730157
 20
100.7009762251
 30
0.0
 11
238.5089730157
 21
100.5509762251
 31
0.0
  0
LINE
  5
23B
330
1F
100
AcDbEntity
  8
0
  6
Continuous
 62
     7
370
    15
100
AcDbLine
 10
121.6660440835
 20
160.9509762251
 30
0.0
 11
121.8610440835
 21
160.9509762251
 31
0.0
  0
LINE
  5
23C
330
1F
100
AcDbEntity
  8
0
  6
Continuous
 62
     7
370
    15
100
AcDbLine
 10
121.6660440835
 20
160.9509762251
 30
0.0
 11
121.6660440835
 21
161.2009762251
 31
0.0
  0
LINE
  5
23D
330
1F
100
AcDbEntity
  8
0
  6
Continuous
 62
     7
370
    15
100
AcDbLine
 10
222.4660440835
 20
111.7009762251
 30
0.0
 11
222.2160440835
 21
111.7009762251
 31
0.0
  0
LINE
  5
23E
330
1F
100
AcDbEntity
  8
0
  6
Continuous
 62
     7
370
    15
100
AcDbLine
 10
222.2160440835
 20
127.2009762251
 30
0.0
 11
222.2160440835
 21
111.7009762251
 31
0.0
  0
LINE
  5
23F
330
1F
100
AcDbEntity
  8
0
  6
Continuous
 62
     7
370
    15
100
AcDbLine
 10
156.0160440835
 20
111.7009762251
 30
0.0
 11
156.0160440835
 21
127.2009762251
 31
0.0
  0
LINE
  5
240
330
1F
100
AcDbEntity
  8
0
  6
Continuous
 62
     7
370
    15
100
AcDbLine
 10
156.0160440835
 20
149.4409762251
 30
0.0
 11
156.0160440835
 21
149.6409762251
 31
0.0
  0
LINE
  5
241
330
1F
100
AcDbEntity
  8
0
  6
Continuous
 62
     7
370
    15
100
AcDbLine
 10
156.0160440835
 20
111.7009762251
 30
0.0
 11
155.7660440835
 21
111.7009762251
 31
0.0
  0
LINE
  5
242
330
1F
100
AcDbEntity
  8
0
  6
Continuous
 62
     7
370
    15
100
AcDbLine
 10
220.6660440835
 20
161.2009762251
 30
0.0
 11
220.6660440835
 21
160.9509762251
 31
0.0
  0
LINE
  5
243
330
1F
100
AcDbEntity
  8
0
  6
Continuous
 62
     7
370
    15
100
AcDbLine
 10
220.3610440835
 20
160.9509762251
 30
0.0
 11
220.6660440835
 21
160.9509762251
 31
0.0
  0
LINE
  5
244
330
1F
100
AcDbEntity
  8
0
  6
Continuous
 62
     7
370
    15
100
AcDbLine
 10
121.6660440835
 20
109.9009762251
 30
0.0
 11
121.6660440835
 21
110.1509762251
 31
0.0
  0
LINE
  5
245
330
1F
100
AcDbEntity
  8
0
  6
Continuous
 62
     7
370
    15
100
AcDbLine
 10
148.8660440835
 20
110.1509762251
 30
0.0
 11
121.6660440835
 21
110.1509762251
 31
0.0
  0
LINE
  5
246
330
1F
100
AcDbEntity
  8
0
  6
Continuous
 62
     7
370
    15
100
AcDbLine
 10
148.8660440835
 20
110.1509762251
 30
0.0
 11
148.8660440835
 21
109.9009762251
 31
0.0
  0
LINE
  5
247
330
1F
100
AcDbEntity
  8
0
  6
Continuous
 62
     7
370
    15
100
AcDbLine
 10
157.5660440835
 20
109.9009762251
 30
0.0
 11
157.5660440835
 21
110.1509762251
 31
0.0
  0
LINE
  5
248
330
1F
100
AcDbEntity
  8
0
  6
Continuous
 62
     7
370
    15
100
AcDbLine
 10
184.7660440835
 20
110.1509762251
 30
0.0
 11
157.5660440835
 21
110.1509762251
 31
0.0
  0
LINE
  5
249
330
1F
100
AcDbEntity
  8
0
  6
Continuous
 62
     7
370
    15
100
AcDbLine
 10
184.7660440835
 20
110.1509762251
 30
0.0
 11
184.7660440835
 21
109.9009762251
 31
0.0
  0
LINE
  5
24A
330
1F
100
AcDbEntity
  8
0
  6
Continuous
 62
     7
370
    15
100
AcDbLine
 10
193.4660440835
 20
109.9009762251
 30
0.0
 11
193.4660440835
 21
110.1509762251
 31
0.0
  0
LINE
  5
24B
330
1F
100
AcDbEntity
  8
0
  6
Continuous
 62
     7
370
    15
100
AcDbLine
 10
220.6660440835
 20
110.1509762251
 30
0.0
 11
193.4660440835
 21
110.1509762251
 31
0.0
  0
LINE
  5
24C
330
1F
100
AcDbEntity
  8
0
  6
Continuous
 62
     7
370
    15
100
AcDbLine
 10
220.6660440835
 20
110.1509762251
 30
0.0
 11
220.6660440835
 21
109.9009762251
 31
0.0
  0
LINE
  5
24D
330
1F
100
AcDbEntity
  8
0
  6
Continuous
 62
     7
370
    15
100
AcDbLine
 10
120.1160440835
 20
111.7009762251
 30
0.0
 11
120.1160440835
 21
127.2009762251
 31
0.0
  0
LINE
  5
24E
330
1F
100
AcDbEntity
  8
0
  6
Continuous
 62
     7
370
    15
100
AcDbLine
 10
120.1160440835
 20
111.7009762251
 30
0.0
 11
119.8660440835
 21
111.7009762251
 31
0.0
  0
LINE
  5
24F
330
1F
100
AcDbEntity
  8
0
  6
Continuous
 62
     7
370
    15
100
AcDbLine
 10
191.9160440835
 20
111.7009762251
 30
0.0
 11
191.9160440835
 21
127.2009762251
 31
0.0
  0
LINE
  5
250
330
1F
100
AcDbEntity
  8
0
  6
Continuous
 62
     7
370
    15
100
AcDbLine
 10
191.9160440835
 20
149.4409762251
 30
0.0
 11
191.9160440835
 21
149.6409762251
 31
0.0
  0
LINE
  5
251
330
1F
100
AcDbEntity
  8
0
  6
Continuous
 62
     7
370
    15
100
AcDbLine
 10
191.9160440835
 20
111.7009762251
 30
0.0
 11
191.6660440835
 21
111.7009762251
 31
0.0
  0
LINE
  5
252
330
1F
100
AcDbEntity
  8
0
  6
Continuous
 62
     7
370
    15
100
AcDbLine
 10
150.6660440835
 20
111.7009762251
 30
0.0
 11
150.4160440835
 21
111.7009762251
 31
0.0
  0
LINE
  5
253
330
1F
100
AcDbEntity
  8
0
  6
Continuous
 62
     7
370
    15
100
AcDbLine
 10
150.4160440835
 20
149.6409762251
 30
0.0
 11
150.4160440835
 21
149.4409762251
 31
0.0
  0
LINE
  5
254
330
1F
100
AcDbEntity
  8
0
  6
Continuous
 62
     7
370
    15
100
AcDbLine
 10
150.4160440835
 20
127.2009762251
 30
0.0
 11
150.4160440835
 21
111.7009762251
 31
0.0
  0
LINE
  5
255
330
1F
100
AcDbEntity
  8
0
  6
Continuous
 62
     7
370
    15
100
AcDbLine
 10
186.5660440835
 20
111.7009762251
 30
0.0
 11
186.3160440835
 21
111.7009762251
 31
0.0
  0
LINE
  5
256
330
1F
100
AcDbEntity
  8
0
  6
Continuous
 62
     7
370
    15
100
AcDbLine
 10
186.3160440835
 20
149.6409762251
 30
0.0
 11
186.3160440835
 21
149.4409762251
 31
0.0
  0
LINE
  5
257
330
1F
100
AcDbEntity
  8
0
  6
Continuous
 62
     7
370
    15
100
AcDbLine
 10
186.3160440835
 20
127.2009762251
 30
0.0
 11
186.3160440835
 21
111.7009762251
 31
0.0
  0
LINE
  5
258
330
1F
100
AcDbEntity
  8
0
  6
Continuous
 62
     7
370
    15
100
AcDbLine
 10
238.6660440835
 20
170.1009762251
 30
0.0
 11
238.6660440835
 21
170.3939051573
 31
0.0
  0
LINE
  5
259
330
1F
100
AcDbEntity
  8
0
  6
Continuous
 62
     7
370
    15
100
AcDbLine
 10
238.6660440835
 20
170.3939051573
 30
0.0
 11
238.5160440835
 21
170.3939051573
 31
0.0
  0
LINE
  5
25A
330
1F
100
AcDbEntity
  8
0
  6
Continuous
 62
     7
370
    15
100
AcDbLine
 10
238.5160440835
 20
170.1009762251
 30
0.0
 11
238.5160440835
 21
170.3939051573
 31
0.0
  0
LINE
  5
25B
330
1F
100
AcDbEntity
  8
0
  6
Continuous
 62
     7
370
    15
100
AcDbLine
 10
103.8160440835
 20
101.0009762251
 30
0.0
 11
103.8160440835
 21
100.7080472929
 31
0.0
  0
LINE
  5
25C
330
1F
100
AcDbEntity
  8
0
  6
Continuous
 62
     7
370
    15
100
AcDbLine
 10
103.6660440835
 20
101.0009762251
 30
0.0
 11
103.6660440835
 21
100.7080472929
 31
0.0
  0
LINE
  5
25D
330
1F
100
AcDbEntity
  8
0
  6
Continuous
 62
     7
370
    15
100
AcDbLine
 10
103.6660440835
 20
100.7080472929
 30
0.0
 11
103.8160440835
 21
100.7080472929
 31
0.0
  0
LINE
  5
25E
330
1F
100
AcDbEntity
  8
0
  6
Continuous
 62
     7
370
    15
100
AcDbLine
 10
103.8160440835
 20
170.1009762251
 30
0.0
 11
103.8160440835
 21
170.3939051573
 31
0.0
  0
LINE
  5
25F
330
1F
100
AcDbEntity
  8
0
  6
Continuous
 62
     7
370
    15
100
AcDbLine
 10
103.6660440835
 20
170.3939051573
 30
0.0
 11
103.8160440835
 21
170.3939051573
 31
0.0
  0
LINE
  5
260
330
1F
100
AcDbEntity
  8
0
  6
Continuous
 62
     7
370
    15
100
AcDbLine
 10
103.6660440835
 20
170.1009762251
 30
0.0
 11
103.6660440835
 21
170.3939051573
 31
0.0
  0
LINE
  5
261
330
1F
100
AcDbEntity
  8
0
  6
Continuous
 62
     7
370
    15
100
AcDbLine
 10
238.6660440835
 20
100.7080472929
 30
0.0
 11
238.5160440835
 21
100.7080472929
 31
0.0
  0
LINE
  5
262
330
1F
100
AcDbEntity
  8
0
  6
Continuous
 62
     7
370
    15
100
AcDbLine
 10
238.6660440835
 20
101.0009762251
 30
0.0
 11
238.6660440835
 21
100.7080472929
 31
0.0
  0
LINE
  5
263
330
1F
100
AcDbEntity
  8
0
  6
Continuous
 62
     7
370
    15
100
AcDbLine
 10
238.5160440835
 20
101.0009762251
 30
0.0
 11
238.5160440835
 21
100.7080472929
 31
0.0
  0
LINE
  5
264
330
1F
100
AcDbEntity
  8
0
  6
Continuous
 62
     7
370
    15
100
AcDbLine
 10
220.9110440835
 20
161.1509762251
 30
0.0
 11
220.6660440835
 21
161.1509762251
 31
0.0
  0
LINE
  5
265
330
1F
100
AcDbEntity
  8
0
  6
Continuous
 62
     7
370
    15
100
AcDbLine
 10
121.6660440835
 20
161.1509762251
 30
0.0
 11
121.3110440835
 21
161.1509762251
 31
0.0
  0
LINE
  5
266
330
1F
100
AcDbEntity
  8
0
  6
Continuous
 62
     7
370
    15
100
AcDbLine
 10
120.3876558654
 20
109.9509762251
 30
0.0
 11
121.6660440835
 21
109.9509762251
 31
0.0
  0
LINE
  5
267
330
1F
100
AcDbEntity
  8
0
  6
Continuous
 62
     7
370
    15
100
AcDbLine
 10
148.8660440835
 20
109.9509762251
 30
0.0
 11
150.1444323017
 21
109.9509762251
 31
0.0
  0
LINE
  5
268
330
1F
100
AcDbEntity
  8
0
  6
Continuous
 62
     7
370
    15
100
AcDbLine
 10
156.2876558654
 20
109.9509762251
 30
0.0
 11
157.5660440835
 21
109.9509762251
 31
0.0
  0
LINE
  5
269
330
1F
100
AcDbEntity
  8
0
  6
Continuous
 62
     7
370
    15
100
AcDbLine
 10
220.6660440835
 20
109.9509762251
 30
0.0
 11
221.9444323017
 21
109.9509762251
 31
0.0
  0
LINE
  5
26A
330
1F
100
AcDbEntity
  8
0
  6
Continuous
 62
     7
370
    15
100
AcDbLine
 10
184.7660440835
 20
109.9509762251
 30
0.0
 11
186.0444323017
 21
109.9509762251
 31
0.0
  0
LINE
  5
26B
330
1F
100
AcDbEntity
  8
0
  6
Continuous
 62
     7
370
    15
100
AcDbLine
 10
192.1876558654
 20
109.9509762251
 30
0.0
 11
193.4660440835
 21
109.9509762251
 31
0.0
  0
ARC
  5
26C
330
1F
100
AcDbEntity
  8
0
  6
Continuous
 62
     7
370
    15
100
AcDbCircle
 10
118.4510440835
 20
167.6659762251
 30
0.0
 40
0.1750000000000341
100
AcDbArc
 50
90.0
 51
126.8698976579
  0
LINE
  5
26D
330
1F
100
AcDbEntity
  8
0
  6
Continuous
 62
     7
370
    15
100
AcDbLine
 10
118.4510440835
 20
167.8409762251
 30
0.0
 11
118.4610440835
 21
167.8409762251
 31
0.0
  0
LINE
  5
26E
330
1F
100
AcDbEntity
  8
0
  6
Continuous
 62
     7
370
    15
100
AcDbLine
 10
121.1610440835
 20
167.8409762251
 30
0.0
 11
121.2010440835
 21
167.8409762251
 31
0.0
  0
LINE
  5
26F
330
1F
100
AcDbEntity
  8
0
  6
Continuous
 62
     7
370
    15
100
AcDbLine
 10
121.2223453302
 20
167.8396749783
 30
0.0
 11
121.2010440835
 21
167.8409762251
 31
0.0
  0
LINE
  5
270
330
1F
100
AcDbEntity
  8
0
  6
Continuous
 62
     7
370
    15
100
AcDbLine
 10
118.3356935392
 20
167.794827711
 30
0.0
 11
118.3103918031
 21
167.7409762251
 31
0.0
  0
LINE
  5
271
330
1F
100
AcDbEntity
  8
0
  6
Continuous
 62
     7
370
    15
100
AcDbLine
 10
223.8223453302
 20
167.8396749783
 30
0.0
 11
223.8010440835
 21
167.8409762251
 31
0.0
  0
LINE
  5
272
330
1F
100
AcDbEntity
  8
0
  6
Continuous
 62
     7
370
    15
100
AcDbLine
 10
221.0510440835
 20
167.8409762251
 30
0.0
 11
221.0610440835
 21
167.8409762251
 31
0.0
  0
LINE
  5
273
330
1F
100
AcDbEntity
  8
0
  6
Continuous
 62
     7
370
    15
100
AcDbLine
 10
223.7610440835
 20
167.8409762251
 30
0.0
 11
223.8010440835
 21
167.8409762251
 31
0.0
  0
ARC
  5
274
330
1F
100
AcDbEntity
  8
0
  6
Continuous
 62
     7
370
    15
100
AcDbCircle
 10
221.0510440835
 20
167.6659762251
 30
0.0
 40
0.1750000000000057
100
AcDbArc
 50
90.0
 51
126.8698976495
  0
LWPOLYLINE
  5
275
330
1F
100
AcDbEntity
  8
0
  6
Continuous
 62
     7
370
    15
100
AcDbPolyline
 90
        3
 70
   128
 43
0.0
 10
220.9110440835
 20
167.7709762251
 10
220.9055369014
 20
167.7632010158
 10
220.8910440835
 20
167.7368634595
  0
LINE
  5
276
330
1F
100
AcDbEntity
  8
0
  6
Continuous
 62
     7
370
    15
100
AcDbLine
 10
220.9110440835
 20
167.6659762251
 30
0.0
 11
220.8910440835
 21
167.6659762251
 31
0.0
  0
SPLINE
  5
277
330
1F
100
AcDbEntity
  8
0
  6
Continuous
 62
     7
370
    15
100
AcDbSpline
210
0.0
220
0.0
230
1.0
 70
     8
 71
     3
 72
     9
 73
     5
 74
     0
 42
0.00000001
 43
0.00000001
 40
0.0
 40
0.0
 40
0.0
 40
0.0
 40
0.7791992019752012
 40
1.0
 40
1.0
 40
1.0
 40
1.0
 10
220.9356935392304
 20
167.7948277110003
 30
0.0
 10
220.9219331437594
 20
167.7703752200475
 30
0.0
 10
220.9042734805614
 20
167.7389936543441
 30
0.0
 10
220.896523624556
 20
167.704814878136
 30
0.0
 10
220.8948124501654
 20
167.6972681770738
 30
0.0
  0
LINE
  5
278
330
1F
100
AcDbEntity
  8
0
  6
Continuous
 62
     7
370
    15
100
AcDbLine
 10
169.7510440835
 20
167.9909762251
 30
0.0
 11
172.5010440835
 21
167.9909762251
 31
0.0
  0
ARC
  5
279
330
1F
100
AcDbEntity
  8
0
  6
Continuous
 62
     7
370
    15
100
AcDbCircle
 10
172.5010440835
 20
167.6659762251
 30
0.0
 40
0.3250000000000171
100
AcDbArc
 50
42.3994733633
 51
90.0
  0
ARC
  5
27A
330
1F
100
AcDbEntity
  8
0
  6
Continuous
 62
     7
370
    15
100
AcDbCircle
 10
172.5010440835
 20
167.6659762251
 30
0.0
 40
0.1749999999999829
100
AcDbArc
 50
360.0
 51
90.0
  0
LINE
  5
27B
330
1F
100
AcDbEntity
  8
0
  6
Continuous
 62
     7
370
    15
100
AcDbLine
 10
172.6760440835
 20
167.6659762251
 30
0.0
 11
172.6760440835
 21
167.3409762251
 31
0.0
  0
ARC
  5
27C
330
1F
100
AcDbEntity
  8
0
  6
Continuous
 62
     7
370
    15
100
AcDbCircle
 10
169.7510440835
 20
167.6659762251
 30
0.0
 40
0.3249999999999983
100
AcDbArc
 50
90.0
 51
119.4923726742
  0
ARC
  5
27D
330
1F
100
AcDbEntity
  8
0
  6
Continuous
 62
     7
370
    15
100
AcDbCircle
 10
169.7510440835
 20
167.6659762251
 30
0.0
 40
0.1750000000000093
100
AcDbArc
 50
90.0
 51
156.1044918103
  0
LINE
  5
27E
330
1F
100
AcDbEntity
  8
0
  6
Continuous
 62
     7
370
    15
100
AcDbLine
 10
169.6110440835
 20
167.6659762251
 30
0.0
 11
169.5910440835
 21
167.6659762251
 31
0.0
  0
SPLINE
  5
27F
330
1F
100
AcDbEntity
  8
0
  6
Continuous
 62
     7
370
    15
100
AcDbSpline
210
0.0
220
0.0
230
1.0
 70
     8
 71
     3
 72
     9
 73
     5
 74
     0
 42
0.00000001
 43
0.00000001
 40
0.0
 40
0.0
 40
0.0
 40
0.0
 40
0.7791992019688099
 40
1.0
 40
1.0
 40
1.0
 40
1.0
 10
169.6356935392304
 20
167.7948277110014
 30
0.0
 10
169.6219331437594
 20
167.7703752200486
 30
0.0
 10
169.6042734805613
 20
167.738993654345
 30
0.0
 10
169.5965236245559
 20
167.7048148781366
 30
0.0
 10
169.5948124501652
 20
167.697268177074
 30
0.0
  0
LINE
  5
280
330
1F
100
AcDbEntity
  8
0
  6
Continuous
 62
     7
370
    15
100
AcDbLine
 10
172.5010440835
 20
167.9909762251
 30
0.0
 11
172.7410440835
 21
167.9909762251
 31
0.0
  0
ENDSEC
  0
SECTION
  2
OBJECTS
  0
DICTIONARY
  5
C
330
0
100
AcDbDictionary
281
     1
  3
ACAD_GROUP
350
D
  3
ACAD_LAYOUT
350
1A
  3
ACAD_MATERIAL
350
3B
  3
ACAD_MLEADERSTYLE
350
283
  3
ACAD_MLINESTYLE
350
17
  3
ACAD_PLOTSETTINGS
350
19
  3
ACAD_PLOTSTYLENAME
350
E
  3
ACAD_VISUALSTYLE
350
2A
  3
AcDbVariableDictionary
350
281
  0
DICTIONARY
  5
D
102
{ACAD_REACTORS
330
C
102
}
330
C
100
AcDbDictionary
281
     1
  0
DICTIONARY
  5
1A
102
{ACAD_REACTORS
330
C
102
}
330
C
100
AcDbDictionary
281
     1
  3
Layout1
350
1E
  3
Layout2
350
26
  3
Model
350
22
  0
DICTIONARY
  5
3B
102
{ACAD_REACTORS
330
C
102
}
330
C
100
AcDbDictionary
281
     1
  3
ByBlock
350
3D
  3
ByLayer
350
3C
  3
Global
350
3E
  0
DICTIONARY
  5
283
102
{ACAD_REACTORS
330
C
102
}
330
C
100
AcDbDictionary
281
     1
  0
DICTIONARY
  5
17
102
{ACAD_REACTORS
330
C
102
}
330
C
100
AcDbDictionary
281
     1
  3
Standard
350
18
  0
DICTIONARY
  5
19
102
{ACAD_REACTORS
330
C
102
}
330
C
100
AcDbDictionary
281
     1
  0
ACDBDICTIONARYWDFLT
  5
E
102
{ACAD_REACTORS
330
C
102
}
330
C
100
AcDbDictionary
281
     1
  3
Normal
350
F
100
AcDbDictionaryWithDefault
340
F
  0
DICTIONARY
  5
2A
102
{ACAD_REACTORS
330
C
102
}
330
C
100
AcDbDictionary
281
     1
  3
2dWireframe
350
2F
  3
3D Hidden
350
31
  3
3dWireframe
350
30
  3
Basic
350
32
  3
Brighten
350
36
  3
ColorChange
350
3A
  3
Conceptual
350
34
  3
Dim
350
35
  3
Facepattern
350
39
  3
Flat
350
2B
  3
FlatWithEdges
350
2C
  3
Gouraud
350
2D
  3
GouraudWithEdges
350
2E
  3
Linepattern
350
38
  3
Realistic
350
33
  3
Thicken
350
37
  0
DICTIONARY
  5
281
102
{ACAD_REACTORS
330
C
102
}
330
C
100
AcDbDictionary
281
     1
  3
DIMASSOC
350
286
  3
HIDETEXT
350
287
  3
PSOLHEIGHT
350
285
  3
PSOLWIDTH
350
284
  0
LAYOUT
  5
1E
102
{ACAD_REACTORS
330
1A
102
}
330
1A
100
AcDbPlotSettings
  1

  2
none_device
  4

  6

 40
0.0
 41
0.0
 42
0.0
 43
0.0
 44
0.0
 45
0.0
 46
0.0
 47
0.0
 48
0.0
 49
0.0
140
0.0
141
0.0
142
1.0
143
1.0
 70
   688
 72
     0
 73
     0
 74
     5
  7

 75
    16
147
1.0
148
0.0
149
0.0
100
AcDbLayout
  1
Layout1
 70
     1
 71
     1
 10
0.0
 20
0.0
 11
420.0
 21
297.0
 12
0.0
 22
0.0
 32
0.0
 14
1.0000000000E+20
 24
1.0000000000E+20
 34
1.0000000000E+20
 15
-1.0000000000E+20
 25
-1.0000000000E+20
 35
-1.0000000000E+20
146
0.0
 13
0.0
 23
0.0
 33
0.0
 16
1.0
 26
0.0
 36
0.0
 17
0.0
 27
1.0
 37
0.0
 76
     0
330
1B
  0
LAYOUT
  5
26
102
{ACAD_REACTORS
330
1A
102
}
330
1A
100
AcDbPlotSettings
  1

  2
none_device
  4

  6

 40
0.0
 41
0.0
 42
0.0
 43
0.0
 44
0.0
 45
0.0
 46
0.0
 47
0.0
 48
0.0
 49
0.0
140
0.0
141
0.0
142
1.0
143
1.0
 70
   688
 72
     0
 73
     0
 74
     5
  7

 75
    16
147
1.0
148
0.0
149
0.0
100
AcDbLayout
  1
Layout2
 70
     1
 71
     2
 10
0.0
 20
0.0
 11
0.0
 21
0.0
 12
0.0
 22
0.0
 32
0.0
 14
0.0
 24
0.0
 34
0.0
 15
0.0
 25
0.0
 35
0.0
146
0.0
 13
0.0
 23
0.0
 33
0.0
 16
1.0
 26
0.0
 36
0.0
 17
0.0
 27
1.0
 37
0.0
 76
     0
330
23
  0
LAYOUT
  5
22
102
{ACAD_REACTORS
330
1A
102
}
330
1A
100
AcDbPlotSettings
  1

  2
none_device
  4

  6

 40
0.0
 41
0.0
 42
0.0
 43
0.0
 44
0.0
 45
0.0
 46
0.0
 47
0.0
 48
0.0
 49
0.0
140
0.0
141
0.0
142
1.0
143
1.0
 70
  1712
 72
     0
 73
     0
 74
     0
  7

 75
     0
147
1.0
148
0.0
149
0.0
100
AcDbLayout
  1
Model
 70
     1
 71
     0
 10
0.0
 20
0.0
 11
420.0
 21
297.0
 12
0.0
 22
0.0
 32
0.0
 14
0.0
 24
0.0
 34
0.0
 15
420.0
 25
297.0
 35
0.0
146
0.0
 13
0.0
 23
0.0
 33
0.0
 16
1.0
 26
0.0
 36
0.0
 17
0.0
 27
1.0
 37
0.0
 76
     0
330
1F
331
29
  0
MATERIAL
  5
3D
102
{ACAD_REACTORS
330
3B
102
}
102
{ACAD_XDICTIONARY
360
2AA
102
}
330
3B
100
AcDbMaterial
  1
ByBlock
  0
MATERIAL
  5
3C
102
{ACAD_REACTORS
330
3B
102
}
102
{ACAD_XDICTIONARY
360
2A8
102
}
330
3B
100
AcDbMaterial
  1
ByLayer
  0
MATERIAL
  5
3E
102
{ACAD_REACTORS
330
3B
102
}
102
{ACAD_XDICTIONARY
360
2AC
102
}
330
3B
100
AcDbMaterial
  1
Global
  0
MLINESTYLE
  5
18
102
{ACAD_REACTORS
330
17
102
}
330
17
100
AcDbMlineStyle
  2
Standard
 70
     0
  3

 62
   256
 51
90.0
 52
90.0
 71
     2
 49
0.5
 62
   256
  6
BYLAYER
 49
-0.5
 62
   256
  6
BYLAYER
  0
ACDBPLACEHOLDER
  5
F
102
{ACAD_REACTORS
330
E
102
}
330
E
  0
VISUALSTYLE
  5
2F
102
{ACAD_REACTORS
330
2A
102
}
102
{ACAD_XDICTIONARY
360
290
102
}
330
2A
100
AcDbVisualStyle
  2
2dWireframe
 70
     4
 71
     0
 72
     2
 73
     0
 90
        0
 40
-0.6
 41
-30.0
 62
     5
 63
     7
 74
     1
 91
        4
 64
     7
 65
   257
 75
     1
175
     1
 42
1.0
 92
        0
 66
   257
 43
1.0
 76
     1
 77
     6
 78
     2
 67
     7
 79
     5
170
     0
171
     0
290
     0
174
     0
 93
        1
 44
0.0
173
     0
291
     0
 45
0.0
1001
ACAD
1000
AcDbSavedByObjectVersion
1070
     0
  0
VISUALSTYLE
  5
31
102
{ACAD_REACTORS
330
2A
102
}
102
{ACAD_XDICTIONARY
360
294
102
}
330
2A
100
AcDbVisualStyle
  2
3D Hidden
 70
     6
 71
     1
 72
     2
 73
     2
 90
        0
 40
-0.6
 41
-30.0
 62
     5
 63
     7
 74
     2
 91
        2
 64
     7
 65
   257
 75
     2
175
     1
 42
40.0
 92
        0
 66
   257
 43
1.0
 76
     1
 77
     6
 78
     2
 67
     7
 79
     3
170
     0
171
     0
290
     0
174
     0
 93
        1
 44
0.0
173
     0
291
     0
 45
0.0
1001
ACAD
1000
AcDbSavedByObjectVersion
1070
     0
  0
VISUALSTYLE
  5
30
102
{ACAD_REACTORS
330
2A
102
}
102
{ACAD_XDICTIONARY
360
292
102
}
330
2A
100
AcDbVisualStyle
  2
3dWireframe
 70
     5
 71
     0
 72
     2
 73
     0
 90
        0
 40
-0.6
 41
-30.0
 62
     5
 63
     7
 74
     1
 91
        4
 64
     7
 65
   257
 75
     1
175
     1
 42
1.0
 92
        0
 66
   257
 43
1.0
 76
     1
 77
     6
 78
     2
 67
     7
 79
     5
170
     0
171
     0
290
     0
174
     0
 93
        1
 44
0.0
173
     0
291
     0
 45
0.0
1001
ACAD
1000
AcDbSavedByObjectVersion
1070
     0
  0
VISUALSTYLE
  5
32
102
{ACAD_REACTORS
330
2A
102
}
102
{ACAD_XDICTIONARY
360
296
102
}
330
2A
100
AcDbVisualStyle
  2
Basic
 70
     7
 71
     1
 72
     0
 73
     1
 90
        0
 40
-0.6
 41
-30.0
 62
     5
 63
     7
 74
     0
 91
        4
 64
     7
 65
   257
 75
     1
175
     1
 42
1.0
 92
        8
 66
     7
 43
1.0
 76
     1
 77
     6
 78
     2
 67
     7
 79
     5
170
     0
171
     0
290
     0
174
     0
 93
        1
 44
0.0
173
     0
291
     1
 45
0.0
1001
ACAD
1000
AcDbSavedByObjectVersion
1070
     0
  0
VISUALSTYLE
  5
36
102
{ACAD_REACTORS
330
2A
102
}
102
{ACAD_XDICTIONARY
360
29E
102
}
330
2A
100
AcDbVisualStyle
  2
Brighten
 70
    12
 71
     2
 72
     2
 73
     0
 90
        0
 40
-0.6
 41
-30.0
 62
     5
 63
     7
 74
     1
 91
        4
 64
     7
 65
   257
 75
     1
175
     1
 42
1.0
 92
        8
 66
     7
 43
1.0
 76
     1
 77
     6
 78
     2
 67
     7
 79
     5
170
     0
171
     0
290
     0
174
     0
 93
        1
 44
50.0
173
     0
291
     1
 45
0.0
1001
ACAD
1000
AcDbSavedByObjectVersion
1070
     0
  0
VISUALSTYLE
  5
3A
102
{ACAD_REACTORS
330
2A
102
}
102
{ACAD_XDICTIONARY
360
2A6
102
}
330
2A
100
AcDbVisualStyle
  2
ColorChange
 70
    16
 71
     2
 72
     2
 73
     3
 90
        0
 40
-0.6
 41
-30.0
 62
     5
 63
     8
 74
     1
 91
        4
 64
     7
 65
   257
 75
     1
175
     1
 42
1.0
 92
        8
 66
     8
 43
1.0
 76
     1
 77
     6
 78
     2
 67
     7
 79
     5
170
     0
171
     0
290
     0
174
     0
 93
        1
 44
0.0
173
     0
291
     1
 45
0.0
1001
ACAD
1000
AcDbSavedByObjectVersion
1070
     0
  0
VISUALSTYLE
  5
34
102
{ACAD_REACTORS
330
2A
102
}
102
{ACAD_XDICTIONARY
360
29A
102
}
330
2A
100
AcDbVisualStyle
  2
Conceptual
 70
     9
 71
     3
 72
     2
 73
     0
 90
        0
 40
-0.6
 41
-30.0
 62
     5
 63
     7
 74
     2
 91
        2
 64
     7
 65
   257
 75
     1
175
     1
 42
40.0
 92
        8
 66
     7
 43
1.0
 76
     1
 77
     6
 78
     2
 67
     7
 79
     3
170
     0
171
     0
290
     0
174
     0
 93
        1
 44
0.0
173
     0
291
     0
 45
0.0
1001
ACAD
1000
AcDbSavedByObjectVersion
1070
     0
  0
VISUALSTYLE
  5
35
102
{ACAD_REACTORS
330
2A
102
}
102
{ACAD_XDICTIONARY
360
29C
102
}
330
2A
100
AcDbVisualStyle
  2
Dim
 70
    11
 71
     2
 72
     2
 73
     0
 90
        0
 40
-0.6
 41
-30.0
 62
     5
 63
     7
 74
     1
 91
        4
 64
     7
 65
   257
 75
     1
175
     1
 42
1.0
 92
        8
 66
     7
 43
1.0
 76
     1
 77
     6
 78
     2
 67
     7
 79
     5
170
     0
171
     0
290
     0
174
     0
 93
        1
 44
-50.0
173
     0
291
     1
 45
0.0
1001
ACAD
1000
AcDbSavedByObjectVersion
1070
     0
  0
VISUALSTYLE
  5
39
102
{ACAD_REACTORS
330
2A
102
}
102
{ACAD_XDICTIONARY
360
2A4
102
}
330
2A
100
AcDbVisualStyle
  2
Facepattern
 70
    15
 71
     2
 72
     2
 73
     0
 90
        0
 40
-0.6
 41
-30.0
 62
     5
 63
     7
 74
     1
 91
        4
 64
     7
 65
   257
 75
     1
175
     1
 42
1.0
 92
        8
 66
     7
 43
1.0
 76
     1
 77
     6
 78
     2
 67
     7
 79
     5
170
     0
171
     0
290
     0
174
     0
 93
        1
 44
0.0
173
     0
291
     1
 45
0.0
1001
ACAD
1000
AcDbSavedByObjectVersion
1070
     0
  0
VISUALSTYLE
  5
2B
102
{ACAD_REACTORS
330
2A
102
}
102
{ACAD_XDICTIONARY
360
288
102
}
330
2A
100
AcDbVisualStyle
  2
Flat
 70
     0
 71
     2
 72
     1
 73
     1
 90
        2
 40
-0.6
 41
30.0
 62
     5
 63
     7
 74
     0
 91
        4
 64
     7
 65
   257
 75
     1
175
     1
 42
1.0
 92
        8
 66
     7
 43
1.0
 76
     1
 77
     6
 78
     2
 67
     7
 79
     5
170
     0
171
     0
290
     0
174
     0
 93
       13
 44
0.0
173
     0
291
     1
 45
0.0
1001
ACAD
1000
AcDbSavedByObjectVersion
1070
     0
  0
VISUALSTYLE
  5
2C
102
{ACAD_REACTORS
330
2A
102
}
102
{ACAD_XDICTIONARY
360
28A
102
}
330
2A
100
AcDbVisualStyle
  2
FlatWithEdges
 70
     1
 71
     2
 72
     1
 73
     1
 90
        2
 40
-0.6
 41
30.0
 62
     5
 63
     7
 74
     1
 91
        4
 64
     7
 65
   257
 75
     1
175
     1
 42
1.0
 92
        0
 66
   257
 43
1.0
 76
     1
 77
     6
 78
     2
 67
     7
 79
     5
170
     0
171
     0
290
     0
174
     0
 93
       13
 44
0.0
173
     0
291
     1
 45
0.0
1001
ACAD
1000
AcDbSavedByObjectVersion
1070
     0
  0
VISUALSTYLE
  5
2D
102
{ACAD_REACTORS
330
2A
102
}
102
{ACAD_XDICTIONARY
360
28C
102
}
330
2A
100
AcDbVisualStyle
  2
Gouraud
 70
     2
 71
     2
 72
     2
 73
     1
 90
        2
 40
-0.6
 41
30.0
 62
     5
 63
     7
 74
     0
 91
        4
 64
     7
 65
   257
 75
     1
175
     1
 42
1.0
 92
        0
 66
     7
 43
1.0
 76
     1
 77
     6
 78
     2
 67
     7
 79
     5
170
     0
171
     0
290
     0
174
     0
 93
       13
 44
0.0
173
     0
291
     1
 45
0.0
1001
ACAD
1000
AcDbSavedByObjectVersion
1070
     0
  0
VISUALSTYLE
  5
2E
102
{ACAD_REACTORS
330
2A
102
}
102
{ACAD_XDICTIONARY
360
28E
102
}
330
2A
100
AcDbVisualStyle
  2
GouraudWithEdges
 70
     3
 71
     2
 72
     2
 73
     1
 90
        2
 40
-0.6
 41
30.0
 62
     5
 63
     7
 74
     1
 91
        4
 64
     7
 65
   257
 75
     1
175
     1
 42
1.0
 92
        0
 66
   257
 43
1.0
 76
     1
 77
     6
 78
     2
 67
     7
 79
     5
170
     0
171
     0
290
     0
174
     0
 93
       13
 44
0.0
173
     0
291
     1
 45
0.0
1001
ACAD
1000
AcDbSavedByObjectVersion
1070
     0
  0
VISUALSTYLE
  5
38
102
{ACAD_REACTORS
330
2A
102
}
102
{ACAD_XDICTIONARY
360
2A2
102
}
330
2A
100
AcDbVisualStyle
  2
Linepattern
 70
    14
 71
     2
 72
     2
 73
     0
 90
        0
 40
-0.6
 41
-30.0
 62
     5
 63
     7
 74
     1
 91
        4
 64
     7
 65
   257
 75
     7
175
     7
 42
1.0
 92
        8
 66
     7
 43
1.0
 76
     1
 77
     6
 78
     2
 67
     7
 79
     5
170
     0
171
     0
290
     0
174
     0
 93
        1
 44
0.0
173
     0
291
     1
 45
0.0
1001
ACAD
1000
AcDbSavedByObjectVersion
1070
     0
  0
VISUALSTYLE
  5
33
102
{ACAD_REACTORS
330
2A
102
}
102
{ACAD_XDICTIONARY
360
298
102
}
330
2A
100
AcDbVisualStyle
  2
Realistic
 70
     8
 71
     2
 72
     2
 73
     0
 90
        0
 40
-0.6
 41
-30.0
 62
     5
 63
     7
 74
     1
 91
        0
 64
     7
 65
   257
 75
     1
175
     1
 42
1.0
 92
        8
 66
     8
 43
1.0
 76
     1
 77
     6
 78
     2
 67
     7
 79
     5
170
     0
171
     0
290
     0
174
     0
 93
       13
 44
0.0
173
     0
291
     0
 45
0.0
1001
ACAD
1000
AcDbSavedByObjectVersion
1070
     0
  0
VISUALSTYLE
  5
37
102
{ACAD_REACTORS
330
2A
102
}
102
{ACAD_XDICTIONARY
360
2A0
102
}
330
2A
100
AcDbVisualStyle
  2
Thicken
 70
    13
 71
     2
 72
     2
 73
     0
 90
        0
 40
-0.6
 41
-30.0
 62
     5
 63
     7
 74
     1
 91
        4
 64
     7
 65
   257
 75
     1
175
     1
 42
1.0
 92
       12
 66
     7
 43
1.0
 76
     1
 77
     6
 78
     2
 67
     7
 79
     5
170
     0
171
     0
290
     0
174
     0
 93
        1
 44
0.0
173
     0
291
     1
 45
0.0
1001
ACAD
1000
AcDbSavedByObjectVersion
1070
     0
  0
DICTIONARYVAR
  5
286
102
{ACAD_REACTORS
330
281
102
}
330
281
100
DictionaryVariables
280
     0
  1
2
  0
DICTIONARYVAR
  5
287
102
{ACAD_REACTORS
330
281
102
}
330
281
100
DictionaryVariables
280
     0
  1
1
  0
DICTIONARYVAR
  5
285
102
{ACAD_REACTORS
330
281
102
}
330
281
100
DictionaryVariables
280
     0
  1
80.000000
  0
DICTIONARYVAR
  5
284
102
{ACAD_REACTORS
330
281
102
}
330
281
100
DictionaryVariables
280
     0
  1
5.000000
  0
DICTIONARY
  5
2AA
330
3D
100
AcDbDictionary
280
     1
281
     1
  3
ACAD_XREC_ROUNDTRIP
360
2AB
  0
DICTIONARY
  5
2A8
330
3C
100
AcDbDictionary
280
     1
281
     1
  3
ACAD_XREC_ROUNDTRIP
360
2A9
  0
DICTIONARY
  5
2AC
330
3E
100
AcDbDictionary
280
     1
281
     1
  3
ACAD_XREC_ROUNDTRIP
360
2AD
  0
DICTIONARY
  5
290
330
2F
100
AcDbDictionary
280
     1
281
     1
  3
ACAD_XREC_ROUNDTRIP
360
291
  0
DICTIONARY
  5
294
330
31
100
AcDbDictionary
280
     1
281
     1
  3
ACAD_XREC_ROUNDTRIP
360
295
  0
DICTIONARY
  5
292
330
30
100
AcDbDictionary
280
     1
281
     1
  3
ACAD_XREC_ROUNDTRIP
360
293
  0
DICTIONARY
  5
296
330
32
100
AcDbDictionary
280
     1
281
     1
  3
ACAD_XREC_ROUNDTRIP
360
297
  0
DICTIONARY
  5
29E
330
36
100
AcDbDictionary
280
     1
281
     1
  3
ACAD_XREC_ROUNDTRIP
360
29F
  0
DICTIONARY
  5
2A6
330
3A
100
AcDbDictionary
280
     1
281
     1
  3
ACAD_XREC_ROUNDTRIP
360
2A7
  0
DICTIONARY
  5
29A
330
34
100
AcDbDictionary
280
     1
281
     1
  3
ACAD_XREC_ROUNDTRIP
360
29B
  0
DICTIONARY
  5
29C
330
35
100
AcDbDictionary
280
     1
281
     1
  3
ACAD_XREC_ROUNDTRIP
360
29D
  0
DICTIONARY
  5
2A4
330
39
100
AcDbDictionary
280
     1
281
     1
  3
ACAD_XREC_ROUNDTRIP
360
2A5
  0
DICTIONARY
  5
288
330
2B
100
AcDbDictionary
280
     1
281
     1
  3
ACAD_XREC_ROUNDTRIP
360
289
  0
DICTIONARY
  5
28A
330
2C
100
AcDbDictionary
280
     1
281
     1
  3
ACAD_XREC_ROUNDTRIP
360
28B
  0
DICTIONARY
  5
28C
330
2D
100
AcDbDictionary
280
     1
281
     1
  3
ACAD_XREC_ROUNDTRIP
360
28D
  0
DICTIONARY
  5
28E
330
2E
100
AcDbDictionary
280
     1
281
     1
  3
ACAD_XREC_ROUNDTRIP
360
28F
  0
DICTIONARY
  5
2A2
330
38
100
AcDbDictionary
280
     1
281
     1
  3
ACAD_XREC_ROUNDTRIP
360
2A3
  0
DICTIONARY
  5
298
330
33
100
AcDbDictionary
280
     1
281
     1
  3
ACAD_XREC_ROUNDTRIP
360
299
  0
DICTIONARY
  5
2A0
330
37
100
AcDbDictionary
280
     1
281
     1
  3
ACAD_XREC_ROUNDTRIP
360
2A1
  0
XRECORD
  5
2AB
102
{ACAD_REACTORS
330
2AA
102
}
330
2AA
100
AcDbXrecord
280
     1
102
MATERIAL
148
0.0
149
0.0
149
0.0
 93
        0
 94
      127
282
     0
 72
     1
 77
     1
171
     1
175
     1
179
     1
273
     0
  0
XRECORD
  5
2A9
102
{ACAD_REACTORS
330
2A8
102
}
330
2A8
100
AcDbXrecord
280
     1
102
MATERIAL
148
0.0
149
0.0
149
0.0
 93
        0
 94
      127
282
     0
 72
     1
 77
     1
171
     1
175
     1
179
     1
273
     0
  0
XRECORD
  5
2AD
102
{ACAD_REACTORS
330
2AC
102
}
330
2AC
100
AcDbXrecord
280
     1
102
MATERIAL
148
0.0
149
0.0
149
0.0
 93
        0
 94
      127
282
     0
 72
     1
 77
     1
171
     1
175
     1
179
     1
273
     0
  0
XRECORD
  5
291
102
{ACAD_REACTORS
330
290
102
}
330
290
100
AcDbXrecord
280
     1
102
RTVSPropertyOp0
 70
     1
102
RTVSPropertyOp1
 70
     1
102
RTVSPropertyOp2
 70
     1
102
RTVSPropertyOp3
 70
     1
102
RTVSPropertyOp4
 70
     1
102
RTVSPropertyOp5
 70
     1
102
RTVSPropertyOp6
 70
     1
102
RTVSPropertyOp7
 70
     1
102
RTVSPropertyOp8
 70
     1
102
RTVSPropertyOp9
 70
     1
102
RTVSPropertyOp10
 70
     1
102
RTVSPropertyOp11
 70
     1
102
RTVSPropertyOp12
 70
     1
102
RTVSPropertyOp13
 70
     1
102
RTVSPropertyOp14
 70
     1
102
RTVSPropertyOp15
 70
     1
102
RTVSPropertyOp16
 70
     1
102
RTVSPropertyOp17
 70
     1
102
RTVSPropertyOp18
 70
     1
102
RTVSPropertyOp19
 70
     1
102
RTVSPropertyOp20
 70
     1
102
RTVSPropertyOp21
 70
     1
102
RTVSPropertyOp22
 70
     1
102
RTVSPropertyOp23
 70
     1
102
RTVSPropertyOp24
 70
     1
102
RTVSPropertyOp25
 70
     1
102
RTVSPropertyOp26
 70
     1
102
RTVSPropertyOp27
 70
     1
  0
XRECORD
  5
295
102
{ACAD_REACTORS
330
294
102
}
330
294
100
AcDbXrecord
280
     1
102
RTVSPropertyOp0
 70
     1
102
RTVSPropertyOp1
 70
     1
102
RTVSPropertyOp2
 70
     1
102
RTVSPropertyOp3
 70
     1
102
RTVSPropertyOp4
 70
     1
102
RTVSPropertyOp5
 70
     1
102
RTVSPropertyOp6
 70
     1
102
RTVSPropertyOp7
 70
     1
102
RTVSPropertyOp8
 70
     1
102
RTVSPropertyOp9
 70
     1
102
RTVSPropertyOp10
 70
     1
102
RTVSPropertyOp11
 70
     1
102
RTVSPropertyOp12
 70
     1
102
RTVSPropertyOp13
 70
     1
102
RTVSPropertyOp14
 70
     1
102
RTVSPropertyOp15
 70
     1
102
RTVSPropertyOp16
 70
     1
102
RTVSPropertyOp17
 70
     1
102
RTVSPropertyOp18
 70
     1
102
RTVSPropertyOp19
 70
     1
102
RTVSPropertyOp20
 70
     1
102
RTVSPropertyOp21
 70
     1
102
RTVSPropertyOp22
 70
     1
102
RTVSPropertyOp23
 70
     1
102
RTVSPropertyOp24
 70
     1
102
RTVSPropertyOp25
 70
     1
102
RTVSPropertyOp26
 70
     1
102
RTVSPropertyOp27
 70
     1
  0
XRECORD
  5
293
102
{ACAD_REACTORS
330
292
102
}
330
292
100
AcDbXrecord
280
     1
102
RTVSPropertyOp0
 70
     1
102
RTVSPropertyOp1
 70
     1
102
RTVSPropertyOp2
 70
     1
102
RTVSPropertyOp3
 70
     1
102
RTVSPropertyOp4
 70
     1
102
RTVSPropertyOp5
 70
     1
102
RTVSPropertyOp6
 70
     1
102
RTVSPropertyOp7
 70
     1
102
RTVSPropertyOp8
 70
     1
102
RTVSPropertyOp9
 70
     1
102
RTVSPropertyOp10
 70
     1
102
RTVSPropertyOp11
 70
     1
102
RTVSPropertyOp12
 70
     1
102
RTVSPropertyOp13
 70
     1
102
RTVSPropertyOp14
 70
     1
102
RTVSPropertyOp15
 70
     1
102
RTVSPropertyOp16
 70
     1
102
RTVSPropertyOp17
 70
     1
102
RTVSPropertyOp18
 70
     1
102
RTVSPropertyOp19
 70
     1
102
RTVSPropertyOp20
 70
     1
102
RTVSPropertyOp21
 70
     1
102
RTVSPropertyOp22
 70
     1
102
RTVSPropertyOp23
 70
     1
102
RTVSPropertyOp24
 70
     1
102
RTVSPropertyOp25
 70
     1
102
RTVSPropertyOp26
 70
     1
102
RTVSPropertyOp27
 70
     1
  0
XRECORD
  5
297
102
{ACAD_REACTORS
330
296
102
}
330
296
100
AcDbXrecord
280
     1
102
RTVSPropertyOp0
 70
     1
102
RTVSPropertyOp1
 70
     1
102
RTVSPropertyOp2
 70
     1
102
RTVSPropertyOp3
 70
     1
102
RTVSPropertyOp4
 70
     1
102
RTVSPropertyOp5
 70
     1
102
RTVSPropertyOp6
 70
     1
102
RTVSPropertyOp7
 70
     1
102
RTVSPropertyOp8
 70
     1
102
RTVSPropertyOp9
 70
     1
102
RTVSPropertyOp10
 70
     1
102
RTVSPropertyOp11
 70
     1
102
RTVSPropertyOp12
 70
     1
102
RTVSPropertyOp13
 70
     1
102
RTVSPropertyOp14
 70
     1
102
RTVSPropertyOp15
 70
     1
102
RTVSPropertyOp16
 70
     1
102
RTVSPropertyOp17
 70
     1
102
RTVSPropertyOp18
 70
     1
102
RTVSPropertyOp19
 70
     1
102
RTVSPropertyOp20
 70
     1
102
RTVSPropertyOp21
 70
     1
102
RTVSPropertyOp22
 70
     1
102
RTVSPropertyOp23
 70
     1
102
RTVSPropertyOp24
 70
     1
102
RTVSPropertyOp25
 70
     1
102
RTVSPropertyOp26
 70
     1
102
RTVSPropertyOp27
 70
     1
  0
XRECORD
  5
29F
102
{ACAD_REACTORS
330
29E
102
}
330
29E
100
AcDbXrecord
280
     1
102
RTVSPropertyOp0
 70
     1
102
RTVSPropertyOp1
 70
     1
102
RTVSPropertyOp2
 70
     1
102
RTVSPropertyOp3
 70
     1
102
RTVSPropertyOp4
 70
     1
102
RTVSPropertyOp5
 70
     1
102
RTVSPropertyOp6
 70
     1
102
RTVSPropertyOp7
 70
     1
102
RTVSPropertyOp8
 70
     1
102
RTVSPropertyOp9
 70
     1
102
RTVSPropertyOp10
 70
     1
102
RTVSPropertyOp11
 70
     1
102
RTVSPropertyOp12
 70
     1
102
RTVSPropertyOp13
 70
     1
102
RTVSPropertyOp14
 70
     1
102
RTVSPropertyOp15
 70
     1
102
RTVSPropertyOp16
 70
     1
102
RTVSPropertyOp17
 70
     1
102
RTVSPropertyOp18
 70
     1
102
RTVSPropertyOp19
 70
     1
102
RTVSPropertyOp20
 70
     1
102
RTVSPropertyOp21
 70
     1
102
RTVSPropertyOp22
 70
     1
102
RTVSPropertyOp23
 70
     1
102
RTVSPropertyOp24
 70
     1
102
RTVSPropertyOp25
 70
     1
102
RTVSPropertyOp26
 70
     1
102
RTVSPropertyOp27
 70
     1
  0
XRECORD
  5
2A7
102
{ACAD_REACTORS
330
2A6
102
}
330
2A6
100
AcDbXrecord
280
     1
102
RTVSPropertyOp0
 70
     1
102
RTVSPropertyOp1
 70
     1
102
RTVSPropertyOp2
 70
     1
102
RTVSPropertyOp3
 70
     1
102
RTVSPropertyOp4
 70
     1
102
RTVSPropertyOp5
 70
     1
102
RTVSPropertyOp6
 70
     1
102
RTVSPropertyOp7
 70
     1
102
RTVSPropertyOp8
 70
     1
102
RTVSPropertyOp9
 70
     1
102
RTVSPropertyOp10
 70
     1
102
RTVSPropertyOp11
 70
     1
102
RTVSPropertyOp12
 70
     1
102
RTVSPropertyOp13
 70
     1
102
RTVSPropertyOp14
 70
     1
102
RTVSPropertyOp15
 70
     1
102
RTVSPropertyOp16
 70
     1
102
RTVSPropertyOp17
 70
     1
102
RTVSPropertyOp18
 70
     1
102
RTVSPropertyOp19
 70
     1
102
RTVSPropertyOp20
 70
     1
102
RTVSPropertyOp21
 70
     1
102
RTVSPropertyOp22
 70
     1
102
RTVSPropertyOp23
 70
     1
102
RTVSPropertyOp24
 70
     1
102
RTVSPropertyOp25
 70
     1
102
RTVSPropertyOp26
 70
     1
102
RTVSPropertyOp27
 70
     1
  0
XRECORD
  5
29B
102
{ACAD_REACTORS
330
29A
102
}
330
29A
100
AcDbXrecord
280
     1
102
RTVSPropertyOp0
 70
     1
102
RTVSPropertyOp1
 70
     1
102
RTVSPropertyOp2
 70
     1
102
RTVSPropertyOp3
 70
     1
102
RTVSPropertyOp4
 70
     1
102
RTVSPropertyOp5
 70
     1
102
RTVSPropertyOp6
 70
     1
102
RTVSPropertyOp7
 70
     1
102
RTVSPropertyOp8
 70
     1
102
RTVSPropertyOp9
 70
     1
102
RTVSPropertyOp10
 70
     1
102
RTVSPropertyOp11
 70
     1
102
RTVSPropertyOp12
 70
     1
102
RTVSPropertyOp13
 70
     1
102
RTVSPropertyOp14
 70
     1
102
RTVSPropertyOp15
 70
     1
102
RTVSPropertyOp16
 70
     1
102
RTVSPropertyOp17
 70
     1
102
RTVSPropertyOp18
 70
     1
102
RTVSPropertyOp19
 70
     1
102
RTVSPropertyOp20
 70
     1
102
RTVSPropertyOp21
 70
     1
102
RTVSPropertyOp22
 70
     1
102
RTVSPropertyOp23
 70
     1
102
RTVSPropertyOp24
 70
     1
102
RTVSPropertyOp25
 70
     1
102
RTVSPropertyOp26
 70
     1
102
RTVSPropertyOp27
 70
     1
  0
XRECORD
  5
29D
102
{ACAD_REACTORS
330
29C
102
}
330
29C
100
AcDbXrecord
280
     1
102
RTVSPropertyOp0
 70
     1
102
RTVSPropertyOp1
 70
     1
102
RTVSPropertyOp2
 70
     1
102
RTVSPropertyOp3
 70
     1
102
RTVSPropertyOp4
 70
     1
102
RTVSPropertyOp5
 70
     1
102
RTVSPropertyOp6
 70
     1
102
RTVSPropertyOp7
 70
     1
102
RTVSPropertyOp8
 70
     1
102
RTVSPropertyOp9
 70
     1
102
RTVSPropertyOp10
 70
     1
102
RTVSPropertyOp11
 70
     1
102
RTVSPropertyOp12
 70
     1
102
RTVSPropertyOp13
 70
     1
102
RTVSPropertyOp14
 70
     1
102
RTVSPropertyOp15
 70
     1
102
RTVSPropertyOp16
 70
     1
102
RTVSPropertyOp17
 70
     1
102
RTVSPropertyOp18
 70
     1
102
RTVSPropertyOp19
 70
     1
102
RTVSPropertyOp20
 70
     1
102
RTVSPropertyOp21
 70
     1
102
RTVSPropertyOp22
 70
     1
102
RTVSPropertyOp23
 70
     1
102
RTVSPropertyOp24
 70
     1
102
RTVSPropertyOp25
 70
     1
102
RTVSPropertyOp26
 70
     1
102
RTVSPropertyOp27
 70
     1
  0
XRECORD
  5
2A5
102
{ACAD_REACTORS
330
2A4
102
}
330
2A4
100
AcDbXrecord
280
     1
102
RTVSPropertyOp0
 70
     1
102
RTVSPropertyOp1
 70
     1
102
RTVSPropertyOp2
 70
     1
102
RTVSPropertyOp3
 70
     1
102
RTVSPropertyOp4
 70
     1
102
RTVSPropertyOp5
 70
     1
102
RTVSPropertyOp6
 70
     1
102
RTVSPropertyOp7
 70
     1
102
RTVSPropertyOp8
 70
     1
102
RTVSPropertyOp9
 70
     1
102
RTVSPropertyOp10
 70
     1
102
RTVSPropertyOp11
 70
     1
102
RTVSPropertyOp12
 70
     1
102
RTVSPropertyOp13
 70
     1
102
RTVSPropertyOp14
 70
     1
102
RTVSPropertyOp15
 70
     1
102
RTVSPropertyOp16
 70
     1
102
RTVSPropertyOp17
 70
     1
102
RTVSPropertyOp18
 70
     1
102
RTVSPropertyOp19
 70
     1
102
RTVSPropertyOp20
 70
     1
102
RTVSPropertyOp21
 70
     1
102
RTVSPropertyOp22
 70
     1
102
RTVSPropertyOp23
 70
     1
102
RTVSPropertyOp24
 70
     1
102
RTVSPropertyOp25
 70
     1
102
RTVSPropertyOp26
 70
     1
102
RTVSPropertyOp27
 70
     1
  0
XRECORD
  5
289
102
{ACAD_REACTORS
330
288
102
}
330
288
100
AcDbXrecord
280
     1
102
RTVSPropertyOp0
 70
     1
102
RTVSPropertyOp1
 70
     1
102
RTVSPropertyOp2
 70
     1
102
RTVSPropertyOp3
 70
     1
102
RTVSPropertyOp4
 70
     1
102
RTVSPropertyOp5
 70
     1
102
RTVSPropertyOp6
 70
     1
102
RTVSPropertyOp7
 70
     1
102
RTVSPropertyOp8
 70
     1
102
RTVSPropertyOp9
 70
     1
102
RTVSPropertyOp10
 70
     1
102
RTVSPropertyOp11
 70
     1
102
RTVSPropertyOp12
 70
     1
102
RTVSPropertyOp13
 70
     1
102
RTVSPropertyOp14
 70
     1
102
RTVSPropertyOp15
 70
     1
102
RTVSPropertyOp16
 70
     1
102
RTVSPropertyOp17
 70
     1
102
RTVSPropertyOp18
 70
     1
102
RTVSPropertyOp19
 70
     1
102
RTVSPropertyOp20
 70
     1
102
RTVSPropertyOp21
 70
     1
102
RTVSPropertyOp22
 70
     1
102
RTVSPropertyOp23
 70
     1
102
RTVSPropertyOp24
 70
     1
102
RTVSPropertyOp25
 70
     1
102
RTVSPropertyOp26
 70
     1
102
RTVSPropertyOp27
 70
     1
  0
XRECORD
  5
28B
102
{ACAD_REACTORS
330
28A
102
}
330
28A
100
AcDbXrecord
280
     1
102
RTVSPropertyOp0
 70
     1
102
RTVSPropertyOp1
 70
     1
102
RTVSPropertyOp2
 70
     1
102
RTVSPropertyOp3
 70
     1
102
RTVSPropertyOp4
 70
     1
102
RTVSPropertyOp5
 70
     1
102
RTVSPropertyOp6
 70
     1
102
RTVSPropertyOp7
 70
     1
102
RTVSPropertyOp8
 70
     1
102
RTVSPropertyOp9
 70
     1
102
RTVSPropertyOp10
 70
     1
102
RTVSPropertyOp11
 70
     1
102
RTVSPropertyOp12
 70
     1
102
RTVSPropertyOp13
 70
     1
102
RTVSPropertyOp14
 70
     1
102
RTVSPropertyOp15
 70
     1
102
RTVSPropertyOp16
 70
     1
102
RTVSPropertyOp17
 70
     1
102
RTVSPropertyOp18
 70
     1
102
RTVSPropertyOp19
 70
     1
102
RTVSPropertyOp20
 70
     1
102
RTVSPropertyOp21
 70
     1
102
RTVSPropertyOp22
 70
     1
102
RTVSPropertyOp23
 70
     1
102
RTVSPropertyOp24
 70
     1
102
RTVSPropertyOp25
 70
     1
102
RTVSPropertyOp26
 70
     1
102
RTVSPropertyOp27
 70
     1
  0
XRECORD
  5
28D
102
{ACAD_REACTORS
330
28C
102
}
330
28C
100
AcDbXrecord
280
     1
102
RTVSPropertyOp0
 70
     1
102
RTVSPropertyOp1
 70
     1
102
RTVSPropertyOp2
 70
     1
102
RTVSPropertyOp3
 70
     1
102
RTVSPropertyOp4
 70
     1
102
RTVSPropertyOp5
 70
     1
102
RTVSPropertyOp6
 70
     1
102
RTVSPropertyOp7
 70
     1
102
RTVSPropertyOp8
 70
     1
102
RTVSPropertyOp9
 70
     1
102
RTVSPropertyOp10
 70
     1
102
RTVSPropertyOp11
 70
     1
102
RTVSPropertyOp12
 70
     1
102
RTVSPropertyOp13
 70
     1
102
RTVSPropertyOp14
 70
     1
102
RTVSPropertyOp15
 70
     1
102
RTVSPropertyOp16
 70
     1
102
RTVSPropertyOp17
 70
     1
102
RTVSPropertyOp18
 70
     1
102
RTVSPropertyOp19
 70
     1
102
RTVSPropertyOp20
 70
     1
102
RTVSPropertyOp21
 70
     1
102
RTVSPropertyOp22
 70
     1
102
RTVSPropertyOp23
 70
     1
102
RTVSPropertyOp24
 70
     1
102
RTVSPropertyOp25
 70
     1
102
RTVSPropertyOp26
 70
     1
102
RTVSPropertyOp27
 70
     1
  0
XRECORD
  5
28F
102
{ACAD_REACTORS
330
28E
102
}
330
28E
100
AcDbXrecord
280
     1
102
RTVSPropertyOp0
 70
     1
102
RTVSPropertyOp1
 70
     1
102
RTVSPropertyOp2
 70
     1
102
RTVSPropertyOp3
 70
     1
102
RTVSPropertyOp4
 70
     1
102
RTVSPropertyOp5
 70
     1
102
RTVSPropertyOp6
 70
     1
102
RTVSPropertyOp7
 70
     1
102
RTVSPropertyOp8
 70
     1
102
RTVSPropertyOp9
 70
     1
102
RTVSPropertyOp10
 70
     1
102
RTVSPropertyOp11
 70
     1
102
RTVSPropertyOp12
 70
     1
102
RTVSPropertyOp13
 70
     1
102
RTVSPropertyOp14
 70
     1
102
RTVSPropertyOp15
 70
     1
102
RTVSPropertyOp16
 70
     1
102
RTVSPropertyOp17
 70
     1
102
RTVSPropertyOp18
 70
     1
102
RTVSPropertyOp19
 70
     1
102
RTVSPropertyOp20
 70
     1
102
RTVSPropertyOp21
 70
     1
102
RTVSPropertyOp22
 70
     1
102
RTVSPropertyOp23
 70
     1
102
RTVSPropertyOp24
 70
     1
102
RTVSPropertyOp25
 70
     1
102
RTVSPropertyOp26
 70
     1
102
RTVSPropertyOp27
 70
     1
  0
XRECORD
  5
2A3
102
{ACAD_REACTORS
330
2A2
102
}
330
2A2
100
AcDbXrecord
280
     1
102
RTVSPropertyOp0
 70
     1
102
RTVSPropertyOp1
 70
     1
102
RTVSPropertyOp2
 70
     1
102
RTVSPropertyOp3
 70
     1
102
RTVSPropertyOp4
 70
     1
102
RTVSPropertyOp5
 70
     1
102
RTVSPropertyOp6
 70
     1
102
RTVSPropertyOp7
 70
     1
102
RTVSPropertyOp8
 70
     1
102
RTVSPropertyOp9
 70
     1
102
RTVSPropertyOp10
 70
     1
102
RTVSPropertyOp11
 70
     1
102
RTVSPropertyOp12
 70
     1
102
RTVSPropertyOp13
 70
     1
102
RTVSPropertyOp14
 70
     1
102
RTVSPropertyOp15
 70
     1
102
RTVSPropertyOp16
 70
     1
102
RTVSPropertyOp17
 70
     1
102
RTVSPropertyOp18
 70
     1
102
RTVSPropertyOp19
 70
     1
102
RTVSPropertyOp20
 70
     1
102
RTVSPropertyOp21
 70
     1
102
RTVSPropertyOp22
 70
     1
102
RTVSPropertyOp23
 70
     1
102
RTVSPropertyOp24
 70
     1
102
RTVSPropertyOp25
 70
     1
102
RTVSPropertyOp26
 70
     1
102
RTVSPropertyOp27
 70
     1
  0
XRECORD
  5
299
102
{ACAD_REACTORS
330
298
102
}
330
298
100
AcDbXrecord
280
     1
102
RTVSPropertyOp0
 70
     1
102
RTVSPropertyOp1
 70
     1
102
RTVSPropertyOp2
 70
     1
102
RTVSPropertyOp3
 70
     1
102
RTVSPropertyOp4
 70
     1
102
RTVSPropertyOp5
 70
     1
102
RTVSPropertyOp6
 70
     1
102
RTVSPropertyOp7
 70
     1
102
RTVSPropertyOp8
 70
     1
102
RTVSPropertyOp9
 70
     1
102
RTVSPropertyOp10
 70
     1
102
RTVSPropertyOp11
 70
     1
102
RTVSPropertyOp12
 70
     1
102
RTVSPropertyOp13
 70
     1
102
RTVSPropertyOp14
 70
     1
102
RTVSPropertyOp15
 70
     1
102
RTVSPropertyOp16
 70
     1
102
RTVSPropertyOp17
 70
     1
102
RTVSPropertyOp18
 70
     1
102
RTVSPropertyOp19
 70
     1
102
RTVSPropertyOp20
 70
     1
102
RTVSPropertyOp21
 70
     1
102
RTVSPropertyOp22
 70
     1
102
RTVSPropertyOp23
 70
     1
102
RTVSPropertyOp24
 70
     1
102
RTVSPropertyOp25
 70
     1
102
RTVSPropertyOp26
 70
     1
102
RTVSPropertyOp27
 70
     1
  0
XRECORD
  5
2A1
102
{ACAD_REACTORS
330
2A0
102
}
330
2A0
100
AcDbXrecord
280
     1
102
RTVSPropertyOp0
 70
     1
102
RTVSPropertyOp1
 70
     1
102
RTVSPropertyOp2
 70
     1
102
RTVSPropertyOp3
 70
     1
102
RTVSPropertyOp4
 70
     1
102
RTVSPropertyOp5
 70
     1
102
RTVSPropertyOp6
 70
     1
102
RTVSPropertyOp7
 70
     1
102
RTVSPropertyOp8
 70
     1
102
RTVSPropertyOp9
 70
     1
102
RTVSPropertyOp10
 70
     1
102
RTVSPropertyOp11
 70
     1
102
RTVSPropertyOp12
 70
     1
102
RTVSPropertyOp13
 70
     1
102
RTVSPropertyOp14
 70
     1
102
RTVSPropertyOp15
 70
     1
102
RTVSPropertyOp16
 70
     1
102
RTVSPropertyOp17
 70
     1
102
RTVSPropertyOp18
 70
     1
102
RTVSPropertyOp19
 70
     1
102
RTVSPropertyOp20
 70
     1
102
RTVSPropertyOp21
 70
     1
102
RTVSPropertyOp22
 70
     1
102
RTVSPropertyOp23
 70
     1
102
RTVSPropertyOp24
 70
     1
102
RTVSPropertyOp25
 70
     1
102
RTVSPropertyOp26
 70
     1
102
RTVSPropertyOp27
 70
     1
  0
ENDSEC
  0
EOF
