  0
SECTION
  2
HEADER
  9
$ACADVER
  1
AC1015
  9
$ACADMAINTVER
 70
     6
  9
$DWGCODEPAGE
  3
ANSI_1252
  9
$INSBASE
 10
0.0
 20
0.0
 30
0.0
  9
$EXTMIN
 10
0.0
 20
0.0
 30
0.0
  9
$EXTMAX
 10
420.0
 20
297.0
 30
0.0
  9
$LIMMIN
 10
0.0
 20
0.0
  9
$LIMMAX
 10
420.0
 20
297.0
  9
$ORTHOMODE
 70
     0
  9
$REGENMODE
 70
     1
  9
$FILLMODE
 70
     1
  9
$QTEXTMODE
 70
     0
  9
$MIRRTEXT
 70
     1
  9
$LTSCALE
 40
1.0
  9
$ATTMODE
 70
     1
  9
$TEXTSIZE
 40
3.5
  9
$TRACEWID
 40
1.0
  9
$TEXTSTYLE
  7
Standard
  9
$CLAYER
  8
0
  9
$CELTYPE
  6
ByLayer
  9
$CECOLOR
 62
   256
  9
$CELTSCALE
 40
1.0
  9
$DISPSILH
 70
     0
  9
$DIMSCALE
 40
1.0
  9
$DIMASZ
 40
3.302
  9
$DIMEXO
 40
1.0
  9
$DIMDLI
 40
3.75
  9
$DIMRND
 40
0.0
  9
$DIMDLE
 40
0.0
  9
$DIMEXE
 40
1.0
  9
$DIMTP
 40
0.0
  9
$DIMTM
 40
0.0
  9
$DIMTXT
 40
3.5
  9
$DIMCEN
 40
2.5
  9
$DIMTSZ
 40
0.0
  9
$DIMTOL
 70
     0
  9
$DIMLIM
 70
     0
  9
$DIMTIH
 70
     1
  9
$DIMTOH
 70
     1
  9
$DIMSE1
 70
     0
  9
$DIMSE2
 70
     0
  9
$DIMTAD
 70
     1
  9
$DIMZIN
 70
     0
  9
$DIMBLK
  1

  9
$DIMASO
 70
     1
  9
$DIMSHO
 70
     1
  9
$DIMPOST
  1

  9
$DIMAPOST
  1

  9
$DIMALT
 70
     0
  9
$DIMALTD
 70
     3
  9
$DIMALTF
 40
0.0393700787
  9
$DIMLFAC
 40
10.0
  9
$DIMTOFL
 70
     1
  9
$DIMTVP
 40
0.0
  9
$DIMTIX
 70
     0
  9
$DIMSOXD
 70
     0
  9
$DIMSAH
 70
     0
  9
$DIMBLK1
  1

  9
$DIMBLK2
  1

  9
$DIMSTYLE
  2
ISO-25
  9
$DIMCLRD
 70
     0
  9
$DIMCLRE
 70
     0
  9
$DIMCLRT
 70
     0
  9
$DIMTFAC
 40
1.0
  9
$DIMGAP
 40
1.524
  9
$DIMJUST
 70
     0
  9
$DIMSD1
 70
     0
  9
$DIMSD2
 70
     0
  9
$DIMTOLJ
 70
     0
  9
$DIMTZIN
 70
     0
  9
$DIMALTZ
 70
     0
  9
$DIMALTTZ
 70
     0
  9
$DIMUPT
 70
     0
  9
$DIMDEC
 70
     3
  9
$DIMTDEC
 70
     3
  9
$DIMALTU
 70
     2
  9
$DIMALTTD
 70
     3
  9
$DIMTXSTY
  7
Standard
  9
$DIMAUNIT
 70
     0
  9
$DIMADEC
 70
     2
  9
$DIMALTRND
 40
0.0
  9
$DIMAZIN
 70
     0
  9
$DIMDSEP
 70
    44
  9
$DIMATFIT
 70
     3
  9
$DIMFRAC
 70
     0
  9
$DIMLDRBLK
  1

  9
$DIMLUNIT
 70
     2
  9
$DIMLWD
 70
    -2
  9
$DIMLWE
 70
    -2
  9
$DIMTMOVE
 70
     0
  9
$LUNITS
 70
     2
  9
$LUPREC
 70
     8
  9
$SKETCHINC
 40
1.0
  9
$FILLETRAD
 40
10.0
  9
$AUNITS
 70
     0
  9
$AUPREC
 70
     8
  9
$MENU
  1
.
  9
$ELEVATION
 40
0.0
  9
$PELEVATION
 40
0.0
  9
$THICKNESS
 40
0.0
  9
$LIMCHECK
 70
     0
  9
$CHAMFERA
 40
10.0
  9
$CHAMFERB
 40
10.0
  9
$CHAMFERC
 40
20.0
  9
$CHAMFERD
 40
0.0
  9
$SKPOLY
 70
     0
  9
$TDCREATE
 40
2455379.501537431
  9
$TDUCREATE
 40
2455379.459870764
  9
$TDUPDATE
 40
2455379.501537442
  9
$TDUUPDATE
 40
2455379.459870775
  9
$TDINDWG
 40
0.0000000116
  9
$TDUSRTIMER
 40
0.0000000116
  9
$USRTIMER
 70
     1
  9
$ANGBASE
 50
0.0
  9
$ANGDIR
 70
     0
  9
$PDMODE
 70
     0
  9
$PDSIZE
 40
-1.0
  9
$PLINEWID
 40
0.0
  9
$SPLFRAME
 70
     0
  9
$SPLINETYPE
 70
     6
  9
$SPLINESEGS
 70
     8
  9
$HANDSEED
  5
2B5
  9
$SURFTAB1
 70
     6
  9
$SURFTAB2
 70
     6
  9
$SURFTYPE
 70
     6
  9
$SURFU
 70
     6
  9
$SURFV
 70
     6
  9
$UCSBASE
  2

  9
$UCSNAME
  2

  9
$UCSORG
 10
0.0
 20
0.0
 30
0.0
  9
$UCSXDIR
 10
1.0
 20
0.0
 30
0.0
  9
$UCSYDIR
 10
0.0
 20
1.0
 30
0.0
  9
$UCSORTHOREF
  2

  9
$UCSORTHOVIEW
 70
     0
  9
$UCSORGTOP
 10
0.0
 20
0.0
 30
0.0
  9
$UCSORGBOTTOM
 10
0.0
 20
0.0
 30
0.0
  9
$UCSORGLEFT
 10
0.0
 20
0.0
 30
0.0
  9
$UCSORGRIGHT
 10
0.0
 20
0.0
 30
0.0
  9
$UCSORGFRONT
 10
0.0
 20
0.0
 30
0.0
  9
$UCSORGBACK
 10
0.0
 20
0.0
 30
0.0
  9
$PUCSBASE
  2

  9
$PUCSNAME
  2

  9
$PUCSORG
 10
0.0
 20
0.0
 30
0.0
  9
$PUCSXDIR
 10
1.0
 20
0.0
 30
0.0
  9
$PUCSYDIR
 10
0.0
 20
1.0
 30
0.0
  9
$PUCSORTHOREF
  2

  9
$PUCSORTHOVIEW
 70
     0
  9
$PUCSORGTOP
 10
0.0
 20
0.0
 30
0.0
  9
$PUCSORGBOTTOM
 10
0.0
 20
0.0
 30
0.0
  9
$PUCSORGLEFT
 10
0.0
 20
0.0
 30
0.0
  9
$PUCSORGRIGHT
 10
0.0
 20
0.0
 30
0.0
  9
$PUCSORGFRONT
 10
0.0
 20
0.0
 30
0.0
  9
$PUCSORGBACK
 10
0.0
 20
0.0
 30
0.0
  9
$USERI1
 70
     0
  9
$USERI2
 70
     0
  9
$USERI3
 70
     0
  9
$USERI4
 70
     0
  9
$USERI5
 70
     0
  9
$USERR1
 40
0.0
  9
$USERR2
 40
0.0
  9
$USERR3
 40
0.0
  9
$USERR4
 40
0.0
  9
$USERR5
 40
0.0
  9
$WORLDVIEW
 70
     1
  9
$SHADEDGE
 70
     3
  9
$SHADEDIF
 70
    70
  9
$TILEMODE
 70
     1
  9
$MAXACTVP
 70
    64
  9
$PINSBASE
 10
0.0
 20
0.0
 30
0.0
  9
$PLIMCHECK
 70
     0
  9
$PEXTMIN
 10
1.0000000000E+20
 20
1.0000000000E+20
 30
1.0000000000E+20
  9
$PEXTMAX
 10
-1.0000000000E+20
 20
-1.0000000000E+20
 30
-1.0000000000E+20
  9
$PLIMMIN
 10
0.0
 20
0.0
  9
$PLIMMAX
 10
420.0
 20
297.0
  9
$UNITMODE
 70
     0
  9
$VISRETAIN
 70
     1
  9
$PLINEGEN
 70
     0
  9
$PSLTSCALE
 70
     1
  9
$TREEDEPTH
 70
  3020
  9
$CMLSTYLE
  2
Standard
  9
$CMLJUST
 70
     0
  9
$CMLSCALE
 40
20.0
  9
$PROXYGRAPHICS
 70
     1
  9
$MEASUREMENT
 70
     1
  9
$CELWEIGHT
370
    -1
  9
$ENDCAPS
280
     0
  9
$JOINSTYLE
280
     0
  9
$LWDISPLAY
290
     1
  9
$INSUNITS
 70
     4
  9
$HYPERLINKBASE
  1

  9
$STYLESHEET
  1

  9
$XEDIT
290
     1
  9
$CEPSNTYPE
380
     0
  9
$PSTYLEMODE
290
     1
  9
$FINGERPRINTGUID
  2
{2A6A5821-D6D9-42CD-B190-35B9013E56E1}
  9
$VERSIONGUID
  2
{FAEB1C32-E019-11D5-929B-00C0DF256EC4}
  9
$EXTNAMES
290
     1
  9
$PSVPSCALE
 40
0.0
  9
$OLESTARTUP
290
     0
  0
ENDSEC
  0
SECTION
  2
CLASSES
  0
CLASS
  1
ACDBDICTIONARYWDFLT
  2
AcDbDictionaryWithDefault
  3
ObjectDBX Classes
 90
        0
280
     0
281
     0
  0
CLASS
  1
VISUALSTYLE
  2
AcDbVisualStyle
  3
ObjectDBX Classes
 90
     4095
280
     0
281
     0
  0
CLASS
  1
MATERIAL
  2
AcDbMaterial
  3
ObjectDBX Classes
 90
     1153
280
     0
281
     0
  0
CLASS
  1
DICTIONARYVAR
  2
AcDbDictionaryVar
  3
ObjectDBX Classes
 90
        0
280
     0
281
     0
  0
CLASS
  1
ACDBPLACEHOLDER
  2
AcDbPlaceHolder
  3
ObjectDBX Classes
 90
        0
280
     0
281
     0
  0
CLASS
  1
LAYOUT
  2
AcDbLayout
  3
ObjectDBX Classes
 90
        0
280
     0
281
     0
  0
ENDSEC
  0
SECTION
  2
TABLES
  0
TABLE
  2
VPORT
  5
8
330
0
100
AcDbSymbolTable
 70
     1
  0
VPORT
  5
29
330
8
100
AcDbSymbolTableRecord
100
AcDbViewportTableRecord
  2
*Active
 70
     0
 10
0.0
 20
0.0
 11
1.0
 21
1.0
 12
210.0
 22
148.5
 13
0.0
 23
0.0
 14
10.0
 24
10.0
 15
10.0
 25
10.0
 16
0.0
 26
0.0
 36
1.0
 17
0.0
 27
0.0
 37
0.0
 40
297.0
 41
1.4141414141
 42
50.0
 43
0.0
 44
0.0
 50
0.0
 51
0.0
 71
     0
 72
  2000
 73
     1
 74
     3
 75
     0
 76
     0
 77
     0
 78
     0
281
     0
 65
     1
110
0.0
120
0.0
130
0.0
111
1.0
121
0.0
131
0.0
112
0.0
122
1.0
132
0.0
 79
     0
146
0.0
  0
ENDTAB
  0
TABLE
  2
LTYPE
  5
5
330
0
100
AcDbSymbolTable
 70
     6
  0
LTYPE
  5
14
330
5
100
AcDbSymbolTableRecord
100
AcDbLinetypeTableRecord
  2
ByBlock
 70
     0
  3

 72
    65
 73
     0
 40
0.0
  0
LTYPE
  5
15
330
5
100
AcDbSymbolTableRecord
100
AcDbLinetypeTableRecord
  2
ByLayer
 70
     0
  3

 72
    65
 73
     0
 40
0.0
  0
LTYPE
  5
16
330
5
100
AcDbSymbolTableRecord
100
AcDbLinetypeTableRecord
  2
Continuous
 70
     0
  3
Solid line
 72
    65
 73
     0
 40
0.0
  0
LTYPE
  5
3F
330
5
100
AcDbSymbolTableRecord
100
AcDbLinetypeTableRecord
  2
HIDDEN
 70
     0
  3
Hidden __ __ __ __ __ __ __ __ __ __ __ __ __ __
 72
    65
 73
     2
 40
1.905
 49
1.27
 74
     0
 49
-0.635
 74
     0
  0
LTYPE
  5
40
330
5
100
AcDbSymbolTableRecord
100
AcDbLinetypeTableRecord
  2
PHANTOM
 70
     0
  3
Phantom ______  __  __  ______  __  __  ______
 72
    65
 73
     6
 40
12.7
 49
6.35
 74
     0
 49
-1.27
 74
     0
 49
1.27
 74
     0
 49
-1.27
 74
     0
 49
1.27
 74
     0
 49
-1.27
 74
     0
  0
LTYPE
  5
41
330
5
100
AcDbSymbolTableRecord
100
AcDbLinetypeTableRecord
  2
CENTER
 70
     0
  3
Center ____ _ ____ _ ____ _ ____ _ ____ _ ____
 72
    65
 73
     4
 40
10.16
 49
6.35
 74
     0
 49
-1.27
 74
     0
 49
1.27
 74
     0
 49
-1.27
 74
     0
  0
LTYPE
  5
42
330
5
100
AcDbSymbolTableRecord
100
AcDbLinetypeTableRecord
  2
CENTERX2
 70
     0
  3
Center (2x) ________  __  ________  __  _____
 72
    65
 73
     4
 40
20.32
 49
12.7
 74
     0
 49
-2.54
 74
     0
 49
2.54
 74
     0
 49
-2.54
 74
     0
  0
LTYPE
  5
43
330
5
100
AcDbSymbolTableRecord
100
AcDbLinetypeTableRecord
  2
DOT2
 70
     0
  3
Dot (.5x) ........................................
 72
    65
 73
     2
 40
0.635
 49
0.0
 74
     0
 49
-0.635
 74
     0
  0
ENDTAB
  0
TABLE
  2
LAYER
  5
2
330
0
100
AcDbSymbolTable
 70
     4
  0
LAYER
  5
10
330
2
100
AcDbSymbolTableRecord
100
AcDbLayerTableRecord
  2
0
 70
     0
 62
     7
  6
Continuous
370
    -3
390
F
  0
LAYER
  5
44
330
2
100
AcDbSymbolTableRecord
100
AcDbLayerTableRecord
  2
FORMAT
 70
     0
 62
     7
  6
Continuous
370
    -3
390
F
  0
LAYER
  5
45
330
2
100
AcDbSymbolTableRecord
100
AcDbLayerTableRecord
  2
SLD-0
 70
     0
 62
     1
  6
Continuous
370
    -3
390
F
  0
LAYER
  5
46
330
2
100
AcDbSymbolTableRecord
100
AcDbLayerTableRecord
  2
WATERMARK
 70
     0
 62
    20
  6
Continuous
370
    -3
390
F
  0
ENDTAB
  0
TABLE
  2
STYLE
  5
3
330
0
100
AcDbSymbolTable
 70
     1
  0
STYLE
  5
11
330
3
100
AcDbSymbolTableRecord
100
AcDbTextStyleTableRecord
  2
Standard
 70
     0
 40
0.0
 41
1.0
 50
0.0
 71
     0
 42
2.5
  3
txt
  4

  0
ENDTAB
  0
TABLE
  2
VIEW
  5
6
330
0
100
AcDbSymbolTable
 70
     0
  0
ENDTAB
  0
TABLE
  2
UCS
  5
7
330
0
100
AcDbSymbolTable
 70
     0
  0
ENDTAB
  0
TABLE
  2
APPID
  5
9
330
0
100
AcDbSymbolTable
 70
     1
  0
APPID
  5
12
330
9
100
AcDbSymbolTableRecord
100
AcDbRegAppTableRecord
  2
ACAD
 70
     0
  0
ENDTAB
  0
TABLE
  2
DIMSTYLE
  5
A
330
0
100
AcDbSymbolTable
 70
     1
100
AcDbDimStyleTable
  0
DIMSTYLE
105
27
330
A
100
AcDbSymbolTableRecord
100
AcDbDimStyleTableRecord
  2
ISO-25
 70
     0
 41
2.5
 42
0.625
 43
3.75
 44
1.25
 73
     0
 74
     0
 77
     1
 78
     8
140
2.5
141
2.5
143
0.0393700787
147
0.625
171
     3
172
     1
271
     2
272
     2
274
     3
278
    44
283
     0
284
     8
340
11
  0
ENDTAB
  0
TABLE
  2
BLOCK_RECORD
  5
1
330
0
100
AcDbSymbolTable
 70
     1
  0
BLOCK_RECORD
  5
1F
330
1
100
AcDbSymbolTableRecord
100
AcDbBlockTableRecord
  2
*Model_Space
340
22
  0
BLOCK_RECORD
  5
1B
330
1
100
AcDbSymbolTableRecord
100
AcDbBlockTableRecord
  2
*Paper_Space
340
1E
  0
BLOCK_RECORD
  5
23
330
1
100
AcDbSymbolTableRecord
100
AcDbBlockTableRecord
  2
*Paper_Space0
340
26
  0
ENDTAB
  0
ENDSEC
  0
SECTION
  2
BLOCKS
  0
BLOCK
  5
20
330
1F
100
AcDbEntity
  8
0
100
AcDbBlockBegin
  2
*Model_Space
 70
     0
 10
0.0
 20
0.0
 30
0.0
  3
*Model_Space
  1

  0
ENDBLK
  5
21
330
1F
100
AcDbEntity
  8
0
100
AcDbBlockEnd
  0
BLOCK
  5
1C
330
1B
100
AcDbEntity
 67
     1
  8
0
100
AcDbBlockBegin
  2
*Paper_Space
 70
     0
 10
0.0
 20
0.0
 30
0.0
  3
*Paper_Space
  1

  0
ENDBLK
  5
1D
330
1B
100
AcDbEntity
 67
     1
  8
0
100
AcDbBlockEnd
  0
BLOCK
  5
24
330
23
100
AcDbEntity
  8
0
100
AcDbBlockBegin
  2
*Paper_Space0
 70
     0
 10
0.0
 20
0.0
 30
0.0
  3
*Paper_Space0
  1

  0
ENDBLK
  5
25
330
23
100
AcDbEntity
  8
0
100
AcDbBlockEnd
  0
ENDSEC
  0
SECTION
  2
ENTITIES
  0
LINE
  5
47
330
1F
100
AcDbEntity
  8
0
  6
Continuous
 62
     7
370
    15
100
AcDbLine
 10
93.8072081895
 20
200.1368013827
 30
0.0
 11
109.5572110505
 21
200.1368013827
 31
0.0
  0
LINE
  5
48
330
1F
100
AcDbEntity
  8
0
  6
Continuous
 62
     7
370
    15
100
AcDbLine
 10
113.1572064252
 20
200.1368013827
 30
0.0
 11
178.3572081716
 21
200.1368013827
 31
0.0
  0
LINE
  5
49
330
1F
100
AcDbEntity
  8
0
  6
Continuous
 62
     7
370
    15
100
AcDbLine
 10
181.9572083891
 20
200.1368013827
 30
0.0
 11
247.157209763
 21
200.1368013827
 31
0.0
  0
LINE
  5
4A
330
1F
100
AcDbEntity
  8
0
  6
Continuous
 62
     7
370
    15
100
AcDbLine
 10
250.7572110982
 20
200.1368013827
 30
0.0
 11
263.2072087617
 21
200.1368013827
 31
0.0
  0
LINE
  5
4B
330
1F
100
AcDbEntity
  8
0
  6
Continuous
 62
     7
370
    15
100
AcDbLine
 10
93.8072081895
 20
197.7648822276
 30
0.0
 11
109.5572110505
 21
197.7648822276
 31
0.0
  0
LINE
  5
4C
330
1F
100
AcDbEntity
  8
0
  6
Continuous
 62
     7
370
    15
100
AcDbLine
 10
113.1572064252
 20
197.7648822276
 30
0.0
 11
178.3572081716
 21
197.7648822276
 31
0.0
  0
LINE
  5
4D
330
1F
100
AcDbEntity
  8
0
  6
Continuous
 62
     7
370
    15
100
AcDbLine
 10
181.9572083891
 20
197.7648822276
 30
0.0
 11
247.157209763
 21
197.7648822276
 31
0.0
  0
LINE
  5
4E
330
1F
100
AcDbEntity
  8
0
  6
Continuous
 62
     7
370
    15
100
AcDbLine
 10
250.7572110982
 20
197.7648822276
 30
0.0
 11
263.2072087617
 21
197.7648822276
 31
0.0
  0
LINE
  5
4F
330
1F
100
AcDbEntity
  8
0
  6
Continuous
 62
     7
370
    15
100
AcDbLine
 10
263.2072087617
 20
206.0865400044
 30
0.0
 11
93.8072081895
 21
206.0865400044
 31
0.0
  0
LINE
  5
50
330
1F
100
AcDbEntity
  8
0
  6
Continuous
 62
     7
370
    15
100
AcDbLine
 10
93.8072081895
 20
202.5489417521
 30
0.0
 11
109.5572110505
 21
202.5489417521
 31
0.0
  0
LINE
  5
51
330
1F
100
AcDbEntity
  8
0
  6
Continuous
 62
     7
370
    15
100
AcDbLine
 10
113.1572064252
 20
202.5489417521
 30
0.0
 11
178.3572081716
 21
202.5489417521
 31
0.0
  0
LINE
  5
52
330
1F
100
AcDbEntity
  8
0
  6
Continuous
 62
     7
370
    15
100
AcDbLine
 10
181.9572083891
 20
202.5489417521
 30
0.0
 11
247.157209763
 21
202.5489417521
 31
0.0
  0
LINE
  5
53
330
1F
100
AcDbEntity
  8
0
  6
Continuous
 62
     7
370
    15
100
AcDbLine
 10
250.7572110982
 20
202.5489417521
 30
0.0
 11
263.2072087617
 21
202.5489417521
 31
0.0
  0
LINE
  5
54
330
1F
100
AcDbEntity
  8
0
  6
Continuous
 62
     7
370
    15
100
AcDbLine
 10
245.5274518818
 20
191.825988671
 30
0.0
 11
245.3274484963
 21
191.825988671
 31
0.0
  0
LINE
  5
55
330
1F
100
AcDbEntity
  8
0
  6
Continuous
 62
     7
370
    15
100
AcDbLine
 10
245.3274484963
 20
190.8259881345
 30
0.0
 11
245.5274518818
 21
190.8259881345
 31
0.0
  0
LINE
  5
56
330
1F
100
AcDbEntity
  8
0
  6
Continuous
 62
     7
370
    15
100
AcDbLine
 10
111.8274506421
 20
191.825988671
 30
0.0
 11
111.527448544
 21
191.825988671
 31
0.0
  0
LINE
  5
57
330
1F
100
AcDbEntity
  8
0
  6
Continuous
 62
     7
370
    15
100
AcDbLine
 10
111.527448544
 20
190.8259881345
 30
0.0
 11
111.8274506421
 21
190.8259881345
 31
0.0
  0
LINE
  5
58
330
1F
100
AcDbEntity
  8
0
  6
Continuous
 62
     7
370
    15
100
AcDbLine
 10
111.527448544
 20
191.6759876219
 30
0.0
 11
111.4274498314
 21
191.6759876219
 31
0.0
  0
LINE
  5
59
330
1F
100
AcDbEntity
  8
0
  6
Continuous
 62
     7
370
    15
100
AcDbLine
 10
111.4274498314
 20
190.9759876935
 30
0.0
 11
111.527448544
 21
190.9759876935
 31
0.0
  0
LINE
  5
5A
330
1F
100
AcDbEntity
  8
0
  6
Continuous
 62
     7
370
    15
100
AcDbLine
 10
245.5274518818
 20
190.9759876935
 30
0.0
 11
245.6274505944
 21
190.9759876935
 31
0.0
  0
LINE
  5
5B
330
1F
100
AcDbEntity
  8
0
  6
Continuous
 62
     7
370
    15
100
AcDbLine
 10
245.6274505944
 20
191.6759876219
 30
0.0
 11
245.5274518818
 21
191.6759876219
 31
0.0
  0
ARC
  5
5C
330
1F
100
AcDbEntity
  8
0
  6
Continuous
 62
     7
370
    15
100
AcDbCircle
 10
177.9374493815
 20
193.230987826
 30
0.0
 40
0.0500000000000173
100
AcDbArc
 50
224.4270040008
 51
244.1580672368
  0
ARC
  5
5D
330
1F
100
AcDbEntity
  8
0
  6
Continuous
 62
     7
370
    15
100
AcDbCircle
 10
179.1174493815
 20
193.230987826
 30
0.0
 40
0.0500000000000173
100
AcDbArc
 50
295.8419327632
 51
315.5729959992
  0
LINE
  5
5E
330
1F
100
AcDbEntity
  8
0
  6
Continuous
 62
     7
370
    15
100
AcDbLine
 10
178.0074496061
 20
193.4359876124
 30
0.0
 11
178.0074496061
 21
193.4259889332
 31
0.0
  0
LINE
  5
5F
330
1F
100
AcDbEntity
  8
0
  6
Continuous
 62
     7
370
    15
100
AcDbLine
 10
179.0474493296
 20
193.4259889332
 30
0.0
 11
179.0474493296
 21
193.4359876124
 31
0.0
  0
LINE
  5
60
330
1F
100
AcDbEntity
  8
0
  6
Continuous
 62
     7
370
    15
100
AcDbLine
 10
246.8074497075
 20
193.4359876124
 30
0.0
 11
246.8074497075
 21
193.4259889332
 31
0.0
  0
LINE
  5
61
330
1F
100
AcDbEntity
  8
0
  6
Continuous
 62
     7
370
    15
100
AcDbLine
 10
247.8474494309
 20
193.4259889332
 30
0.0
 11
247.8474494309
 21
193.4359876124
 31
0.0
  0
LINE
  5
62
330
1F
100
AcDbEntity
  8
0
  6
Continuous
 62
     7
370
    15
100
AcDbLine
 10
109.2074509949
 20
193.4359876124
 30
0.0
 11
109.2074509949
 21
193.4259889332
 31
0.0
  0
LINE
  5
63
330
1F
100
AcDbEntity
  8
0
  6
Continuous
 62
     7
370
    15
100
AcDbLine
 10
110.2474507184
 20
193.4259889332
 30
0.0
 11
110.2474507184
 21
193.4359876124
 31
0.0
  0
LINE
  5
64
330
1F
100
AcDbEntity
  8
0
  6
Continuous
 62
     7
370
    15
100
AcDbLine
 10
263.327210793
 20
206.0865400044
 30
0.0
 11
263.2072087617
 21
206.0865400044
 31
0.0
  0
LINE
  5
65
330
1F
100
AcDbEntity
  8
0
  6
Continuous
 62
     7
370
    15
100
AcDbLine
 10
263.2072087617
 20
202.5489417521
 30
0.0
 11
263.327210793
 21
202.5489417521
 31
0.0
  0
LINE
  5
66
330
1F
100
AcDbEntity
  8
0
  6
Continuous
 62
     7
370
    15
100
AcDbLine
 10
263.2072087617
 20
200.1368013827
 30
0.0
 11
263.327210793
 21
200.1368013827
 31
0.0
  0
LINE
  5
67
330
1F
100
AcDbEntity
  8
0
  6
Continuous
 62
     7
370
    15
100
AcDbLine
 10
93.6872061581
 20
197.7648822276
 30
0.0
 11
93.8072081895
 21
197.7648822276
 31
0.0
  0
LINE
  5
68
330
1F
100
AcDbEntity
  8
0
  6
Continuous
 62
     7
370
    15
100
AcDbLine
 10
263.2072087617
 20
197.7648822276
 30
0.0
 11
263.327210793
 21
197.7648822276
 31
0.0
  0
LINE
  5
69
330
1F
100
AcDbEntity
  8
0
  6
Continuous
 62
     7
370
    15
100
AcDbLine
 10
93.6872061581
 20
200.1368013827
 30
0.0
 11
93.8072081895
 21
200.1368013827
 31
0.0
  0
LINE
  5
6A
330
1F
100
AcDbEntity
  8
0
  6
Continuous
 62
     7
370
    15
100
AcDbLine
 10
93.8072081895
 20
206.0865400044
 30
0.0
 11
93.6872061581
 21
206.0865400044
 31
0.0
  0
LINE
  5
6B
330
1F
100
AcDbEntity
  8
0
  6
Continuous
 62
     7
370
    15
100
AcDbLine
 10
93.6872061581
 20
202.5489417521
 30
0.0
 11
93.8072081895
 21
202.5489417521
 31
0.0
  0
LINE
  5
6C
330
1F
100
AcDbEntity
  8
0
  6
Continuous
 62
     7
370
    15
100
AcDbLine
 10
178.6572087795
 20
200.6792155711
 30
0.0
 11
178.3572081716
 21
200.6792155711
 31
0.0
  0
LINE
  5
6D
330
1F
100
AcDbEntity
  8
0
  6
Continuous
 62
     7
370
    15
100
AcDbLine
 10
178.6572087795
 20
205.3334025351
 30
0.0
 11
178.3572081716
 21
205.3334025351
 31
0.0
  0
LINE
  5
6E
330
1F
100
AcDbEntity
  8
0
  6
Continuous
 62
     7
370
    15
100
AcDbLine
 10
247.4572059006
 20
200.6792155711
 30
0.0
 11
247.157209763
 21
200.6792155711
 31
0.0
  0
LINE
  5
6F
330
1F
100
AcDbEntity
  8
0
  6
Continuous
 62
     7
370
    15
100
AcDbLine
 10
247.4572059006
 20
205.3334025351
 30
0.0
 11
247.157209763
 21
205.3334025351
 31
0.0
  0
LINE
  5
70
330
1F
100
AcDbEntity
  8
0
  6
Continuous
 62
     7
370
    15
100
AcDbLine
 10
109.8572071881
 20
200.6792155711
 30
0.0
 11
109.5572110505
 21
200.6792155711
 31
0.0
  0
LINE
  5
71
330
1F
100
AcDbEntity
  8
0
  6
Continuous
 62
     7
370
    15
100
AcDbLine
 10
109.8572071881
 20
205.3334025351
 30
0.0
 11
109.5572110505
 21
205.3334025351
 31
0.0
  0
LINE
  5
72
330
1F
100
AcDbEntity
  8
0
  6
Continuous
 62
     7
370
    15
100
AcDbLine
 10
178.6572087795
 20
200.6792155711
 30
0.0
 11
178.3572081716
 21
200.6792155711
 31
0.0
  0
LINE
  5
73
330
1F
100
AcDbEntity
  8
0
  6
Continuous
 62
     7
370
    15
100
AcDbLine
 10
178.6572087795
 20
205.3334025351
 30
0.0
 11
178.3572081716
 21
205.3334025351
 31
0.0
  0
LINE
  5
74
330
1F
100
AcDbEntity
  8
0
  6
Continuous
 62
     7
370
    15
100
AcDbLine
 10
247.4572059006
 20
200.6792155711
 30
0.0
 11
247.157209763
 21
200.6792155711
 31
0.0
  0
LINE
  5
75
330
1F
100
AcDbEntity
  8
0
  6
Continuous
 62
     7
370
    15
100
AcDbLine
 10
247.4572059006
 20
205.3334025351
 30
0.0
 11
247.157209763
 21
205.3334025351
 31
0.0
  0
LINE
  5
76
330
1F
100
AcDbEntity
  8
0
  6
Continuous
 62
     7
370
    15
100
AcDbLine
 10
109.8572071881
 20
200.6792155711
 30
0.0
 11
109.5572110505
 21
200.6792155711
 31
0.0
  0
LINE
  5
77
330
1F
100
AcDbEntity
  8
0
  6
Continuous
 62
     7
370
    15
100
AcDbLine
 10
109.8572071881
 20
205.3334025351
 30
0.0
 11
109.5572110505
 21
205.3334025351
 31
0.0
  0
LINE
  5
78
330
1F
100
AcDbEntity
  8
0
  6
Continuous
 62
     7
370
    15
100
AcDbLine
 10
93.8072081895
 20
200.8617369143
 30
0.0
 11
93.8072081895
 21
200.7425365654
 31
0.0
  0
LINE
  5
79
330
1F
100
AcDbEntity
  8
0
  6
Continuous
 62
     7
370
    15
100
AcDbLine
 10
263.2072087617
 20
200.8617369143
 30
0.0
 11
263.2072087617
 21
200.7425365654
 31
0.0
  0
LINE
  5
7A
330
1F
100
AcDbEntity
  8
0
  6
Continuous
 62
     7
370
    15
100
AcDbLine
 10
93.8072081895
 20
202.5489417521
 30
0.0
 11
93.8072081895
 21
200.8617369143
 31
0.0
  0
LINE
  5
7B
330
1F
100
AcDbEntity
  8
0
  6
Continuous
 62
     7
370
    15
100
AcDbLine
 10
263.2072087617
 20
202.5489417521
 30
0.0
 11
263.2072087617
 21
200.8617369143
 31
0.0
  0
LINE
  5
7C
330
1F
100
AcDbEntity
  8
0
  6
Continuous
 62
     7
370
    15
100
AcDbLine
 10
93.8072081895
 20
200.7425365654
 30
0.0
 11
93.8072081895
 21
200.1391498057
 31
0.0
  0
LINE
  5
7D
330
1F
100
AcDbEntity
  8
0
  6
Continuous
 62
     7
370
    15
100
AcDbLine
 10
263.2072087617
 20
200.7425365654
 30
0.0
 11
263.2072087617
 21
200.1391498057
 31
0.0
  0
LINE
  5
7E
330
1F
100
AcDbEntity
  8
0
  6
Continuous
 62
     7
370
    15
100
AcDbLine
 10
93.8072081895
 20
200.1391498057
 30
0.0
 11
93.8072081895
 21
200.1368013827
 31
0.0
  0
LINE
  5
7F
330
1F
100
AcDbEntity
  8
0
  6
Continuous
 62
     7
370
    15
100
AcDbLine
 10
263.2072087617
 20
200.1391498057
 30
0.0
 11
263.2072087617
 21
200.1368013827
 31
0.0
  0
LINE
  5
80
330
1F
100
AcDbEntity
  8
0
  6
Continuous
 62
     7
370
    15
100
AcDbLine
 10
93.8072081895
 20
198.489469072
 30
0.0
 11
93.8072081895
 21
198.3702776638
 31
0.0
  0
LINE
  5
81
330
1F
100
AcDbEntity
  8
0
  6
Continuous
 62
     7
370
    15
100
AcDbLine
 10
263.2072087617
 20
198.489469072
 30
0.0
 11
263.2072087617
 21
198.3702776638
 31
0.0
  0
LINE
  5
82
330
1F
100
AcDbEntity
  8
0
  6
Continuous
 62
     7
370
    15
100
AcDbLine
 10
93.8072081895
 20
200.1368013827
 30
0.0
 11
93.8072081895
 21
198.489469072
 31
0.0
  0
LINE
  5
83
330
1F
100
AcDbEntity
  8
0
  6
Continuous
 62
     7
370
    15
100
AcDbLine
 10
263.2072087617
 20
200.1368013827
 30
0.0
 11
263.2072087617
 21
198.489469072
 31
0.0
  0
LINE
  5
84
330
1F
100
AcDbEntity
  8
0
  6
Continuous
 62
     7
370
    15
100
AcDbLine
 10
93.8072081895
 20
198.3702776638
 30
0.0
 11
93.8072081895
 21
197.7672276703
 31
0.0
  0
LINE
  5
85
330
1F
100
AcDbEntity
  8
0
  6
Continuous
 62
     7
370
    15
100
AcDbLine
 10
263.2072087617
 20
198.3702776638
 30
0.0
 11
263.2072087617
 21
197.7672276703
 31
0.0
  0
LINE
  5
86
330
1F
100
AcDbEntity
  8
0
  6
Continuous
 62
     7
370
    15
100
AcDbLine
 10
93.8072081895
 20
197.7672276703
 30
0.0
 11
93.8072081895
 21
197.7648822276
 31
0.0
  0
LINE
  5
87
330
1F
100
AcDbEntity
  8
0
  6
Continuous
 62
     7
370
    15
100
AcDbLine
 10
263.2072087617
 20
197.7672276703
 30
0.0
 11
263.2072087617
 21
197.7648822276
 31
0.0
  0
LINE
  5
88
330
1F
100
AcDbEntity
  8
0
  6
Continuous
 62
     7
370
    15
100
AcDbLine
 10
93.8072081895
 20
203.2738743035
 30
0.0
 11
93.8072081895
 21
203.1546769349
 31
0.0
  0
LINE
  5
89
330
1F
100
AcDbEntity
  8
0
  6
Continuous
 62
     7
370
    15
100
AcDbLine
 10
263.2072087617
 20
203.2738743035
 30
0.0
 11
263.2072087617
 21
203.1546769349
 31
0.0
  0
LINE
  5
8A
330
1F
100
AcDbEntity
  8
0
  6
Continuous
 62
     7
370
    15
100
AcDbLine
 10
93.8072081895
 20
206.0080883709
 30
0.0
 11
93.8072081895
 21
203.2738743035
 31
0.0
  0
LINE
  5
8B
330
1F
100
AcDbEntity
  8
0
  6
Continuous
 62
     7
370
    15
100
AcDbLine
 10
263.2072087617
 20
206.0080883709
 30
0.0
 11
263.2072087617
 21
203.2738743035
 31
0.0
  0
LINE
  5
8C
330
1F
100
AcDbEntity
  8
0
  6
Continuous
 62
     7
370
    15
100
AcDbLine
 10
93.8072081895
 20
203.1546769349
 30
0.0
 11
93.8072081895
 21
202.5512901751
 31
0.0
  0
LINE
  5
8D
330
1F
100
AcDbEntity
  8
0
  6
Continuous
 62
     7
370
    15
100
AcDbLine
 10
263.2072087617
 20
203.1546769349
 30
0.0
 11
263.2072087617
 21
202.5512901751
 31
0.0
  0
LINE
  5
8E
330
1F
100
AcDbEntity
  8
0
  6
Continuous
 62
     7
370
    15
100
AcDbLine
 10
93.8072081895
 20
206.0865400044
 30
0.0
 11
93.8072081895
 21
206.0080883709
 31
0.0
  0
LINE
  5
8F
330
1F
100
AcDbEntity
  8
0
  6
Continuous
 62
     7
370
    15
100
AcDbLine
 10
263.2072087617
 20
206.0865400044
 30
0.0
 11
263.2072087617
 21
206.0080883709
 31
0.0
  0
LINE
  5
90
330
1F
100
AcDbEntity
  8
0
  6
Continuous
 62
     7
370
    15
100
AcDbLine
 10
93.8072081895
 20
202.5512901751
 30
0.0
 11
93.8072081895
 21
202.5489417521
 31
0.0
  0
LINE
  5
91
330
1F
100
AcDbEntity
  8
0
  6
Continuous
 62
     7
370
    15
100
AcDbLine
 10
263.2072087617
 20
202.5512901751
 30
0.0
 11
263.2072087617
 21
202.5489417521
 31
0.0
  0
LINE
  5
92
330
1F
100
AcDbEntity
  8
0
  6
Continuous
 62
     7
370
    15
100
AcDbLine
 10
245.5274518818
 20
190.8259881345
 30
0.0
 11
245.5274518818
 21
191.825988671
 31
0.0
  0
LINE
  5
93
330
1F
100
AcDbEntity
  8
0
  6
Continuous
 62
     7
370
    15
100
AcDbLine
 10
111.527448544
 20
190.8703488914
 30
0.0
 11
111.527448544
 21
191.825988671
 31
0.0
  0
LINE
  5
94
330
1F
100
AcDbEntity
  8
0
  6
Continuous
 62
     7
370
    15
100
AcDbLine
 10
111.527448544
 20
190.8259881345
 30
0.0
 11
111.527448544
 21
190.8703488914
 31
0.0
  0
LINE
  5
95
330
1F
100
AcDbEntity
  8
0
  6
Continuous
 62
     7
370
    15
100
AcDbLine
 10
245.3274484963
 20
192.9259864298
 30
0.0
 11
111.8274506421
 21
192.9259864298
 31
0.0
  0
LINE
  5
96
330
1F
100
AcDbEntity
  8
0
  6
Continuous
 62
     7
370
    15
100
AcDbLine
 10
242.8274508805
 20
175.2259878127
 30
0.0
 11
114.2274495453
 21
175.2259878127
 31
0.0
  0
LINE
  5
97
330
1F
100
AcDbEntity
  8
0
  6
Continuous
 62
     7
370
    15
100
AcDbLine
 10
245.3274484963
 20
192.9259864298
 30
0.0
 11
245.3274484963
 21
177.2259881405
 31
0.0
  0
LINE
  5
98
330
1F
100
AcDbEntity
  8
0
  6
Continuous
 62
     7
370
    15
100
AcDbLine
 10
111.8274506421
 20
192.9259864298
 30
0.0
 11
111.8274506421
 21
177.2259881405
 31
0.0
  0
SPLINE
  5
99
330
1F
100
AcDbEntity
  8
0
  6
Continuous
 62
     7
370
    15
100
AcDbSpline
210
0.0
220
0.0
230
1.0
 70
     8
 71
     3
 72
    11
 73
     7
 74
     0
 42
0.00000001
 43
0.00000001
 40
0.0
 40
0.0
 40
0.0
 40
0.0
 40
0.2500011565129648
 40
0.5000062207778979
 40
0.7500123606714938
 40
1.0
 40
1.0
 40
1.0
 40
1.0
 10
249.5624479145632
 20
153.0559880343896
 30
0.0
 10
249.5978281048163
 20
153.0440768316831
 30
0.0
 10
249.6685890383479
 20
153.0202542400869
 30
0.0
 10
249.7578350207938
 20
152.9845239498867
 30
0.0
 10
249.8202758780735
 20
152.9487916294375
 30
0.0
 10
249.8283927227574
 20
152.9249696336289
 30
0.0
 10
249.8324509949312
 20
152.9130590764505
 30
0.0
  0
LINE
  5
9A
330
1F
100
AcDbEntity
  8
0
  6
Continuous
 62
     7
370
    15
100
AcDbLine
 10
249.7124489636
 20
152.9130590765
 30
0.0
 11
249.8324509949
 21
152.9130590765
 31
0.0
  0
SPLINE
  5
9B
330
1F
100
AcDbEntity
  8
0
  6
Continuous
 62
     7
370
    15
100
AcDbSpline
210
0.0
220
0.0
230
1.0
 70
     8
 71
     3
 72
    11
 73
     7
 74
     0
 42
0.00000001
 43
0.00000001
 40
0.0
 40
0.0
 40
0.0
 40
0.0
 40
0.250012498703572
 40
0.5000142477202204
 40
0.7500085228175215
 40
1.0
 40
1.0
 40
1.0
 40
1.0
 10
249.5624479145632
 20
153.0559880343896
 30
0.0
 10
249.5821046529618
 20
153.0440769762653
 30
0.0
 10
249.6214172845862
 20
153.0202553721516
 30
0.0
 10
249.6709958955201
 20
152.9845247170323
 30
0.0
 10
249.7056816339886
 20
152.9487902302582
 30
0.0
 10
249.7101931954817
 20
152.9249694166194
 30
0.0
 10
249.7124489636049
 20
152.9130590764505
 30
0.0
  0
SPLINE
  5
9C
330
1F
100
AcDbEntity
  8
0
  6
Continuous
 62
     7
370
    15
100
AcDbSpline
210
0.0
220
0.0
230
1.0
 70
     8
 71
     3
 72
    11
 73
     7
 74
     0
 42
0.00000001
 43
0.00000001
 40
0.0
 40
0.0
 40
0.0
 40
0.0
 40
0.2499881771736331
 40
0.499993779246206
 40
0.7499993813187789
 40
1.0
 40
1.0
 40
1.0
 40
1.0
 10
249.8324509949312
 20
174.8989170102101
 30
0.0
 10
249.8283927604056
 20
174.8870060455986
 30
0.0
 10
249.8202760084838
 20
174.8631832861469
 30
0.0
 10
249.7578347841362
 20
174.8274526582732
 30
0.0
 10
249.6685893107045
 20
174.7917206754846
 30
0.0
 10
249.5978281448595
 20
174.7678988475342
 30
0.0
 10
249.5624479145632
 20
174.755988052271
 30
0.0
  0
LINE
  5
9D
330
1F
100
AcDbEntity
  8
0
  6
Continuous
 62
     7
370
    15
100
AcDbLine
 10
249.8324509949
 20
174.8989170102
 30
0.0
 11
249.8324509949
 21
152.9130590765
 31
0.0
  0
SPLINE
  5
9E
330
1F
100
AcDbEntity
  8
0
  6
Continuous
 62
     7
370
    15
100
AcDbSpline
210
0.0
220
0.0
230
1.0
 70
     8
 71
     3
 72
    12
 73
     8
 74
     0
 42
0.00000001
 43
0.00000001
 40
0.0
 40
0.0
 40
0.0
 40
0.0
 40
0.2265917227581995
 40
0.4532240358704419
 40
0.6798804906497306
 40
0.9065200664504388
 40
0.9999999999999999
 40
0.9999999999999999
 40
0.9999999999999999
 40
0.9999999999999999
 10
107.6024469227419
 20
174.755988052271
 30
0.0
 10
107.5704110117041
 20
174.7667864830867
 30
0.0
 10
107.5063334508974
 20
174.7883852790875
 30
0.0
 10
107.4221657436902
 20
174.8207979967749
 30
0.0
 10
107.3610135271419
 20
174.8531821908231
 30
0.0
 10
107.3350450224469
 20
174.8792933513445
 30
0.0
 10
107.3330363630011
 20
174.8944817568309
 30
0.0
 10
107.3324498028383
 20
174.8989170102101
 30
0.0
  0
LINE
  5
9F
330
1F
100
AcDbEntity
  8
0
  6
Continuous
 62
     7
370
    15
100
AcDbLine
 10
107.3324498028
 20
174.8989170102
 30
0.0
 11
107.4524518342
 21
174.8989170102
 31
0.0
  0
SPLINE
  5
A0
330
1F
100
AcDbEntity
  8
0
  6
Continuous
 62
     7
370
    15
100
AcDbSpline
210
0.0
220
0.0
230
1.0
 70
     8
 71
     3
 72
    11
 73
     7
 74
     0
 42
0.00000001
 43
0.00000001
 40
0.0
 40
0.0
 40
0.0
 40
0.0
 40
0.2231276676419238
 40
0.4745460616239506
 40
0.726063235484256
 40
1.0
 40
1.0
 40
1.0
 40
1.0
 10
107.6024469227419
 20
174.755988052271
 30
0.0
 10
107.5849252125455
 20
174.7666035071923
 30
0.0
 10
107.5476601855121
 20
174.7891803681368
 30
0.0
 10
107.4983564491819
 20
174.8237931132789
 30
0.0
 10
107.4603526533002
 20
174.8607861482984
 30
0.0
 10
107.455159302269
 20
174.8858502521124
 30
0.0
 10
107.4524518341646
 20
174.8989170102101
 30
0.0
  0
SPLINE
  5
A1
330
1F
100
AcDbEntity
  8
0
  6
Continuous
 62
     7
370
    15
100
AcDbSpline
210
0.0
220
0.0
230
1.0
 70
     8
 71
     3
 72
    12
 73
     8
 74
     0
 42
0.00000001
 43
0.00000001
 40
0.0
 40
0.0
 40
0.0
 40
0.0
 40
0.2265884511931072
 40
0.4532315621298498
 40
0.6798747299092409
 40
0.9065207117766471
 40
1.0
 40
1.0
 40
1.0
 40
1.0
 10
107.3324498028383
 20
152.9130590764505
 30
0.0
 10
107.335776762633
 20
152.9238581899145
 30
0.0
 10
107.3424314847822
 20
152.9454590219036
 30
0.0
 10
107.3941425161253
 20
152.9778661620722
 30
0.0
 10
107.4694858203271
 20
153.0102555064484
 30
0.0
 10
107.5442290938071
 20
153.0363637757833
 30
0.0
 10
107.5892890377492
 20
153.0515527309348
 30
0.0
 10
107.6024469227419
 20
153.0559880343896
 30
0.0
  0
SPLINE
  5
A2
330
1F
100
AcDbEntity
  8
0
  6
Continuous
 62
     7
370
    15
100
AcDbSpline
210
0.0
220
0.0
230
1.0
 70
     8
 71
     3
 72
    11
 73
     7
 74
     0
 42
0.00000001
 43
0.00000001
 40
0.0
 40
0.0
 40
0.0
 40
0.0
 40
0.225380984847147
 40
0.4768466140933734
 40
0.7283382388113085
 40
1.0
 40
1.0
 40
1.0
 40
1.0
 10
107.4524518341646
 20
152.9130590764505
 30
0.0
 10
107.4542884385169
 20
152.9237851804943
 30
0.0
 10
107.4581742080612
 20
152.946478782615
 30
0.0
 10
107.4899305996081
 20
152.9811869696487
 30
0.0
 10
107.5399107723958
 20
153.0180820373495
 30
0.0
 10
107.5810725430474
 20
153.0430320534258
 30
0.0
 10
107.6024469227419
 20
153.0559880343896
 30
0.0
  0
LINE
  5
A3
330
1F
100
AcDbEntity
  8
0
  6
Continuous
 62
     7
370
    15
100
AcDbLine
 10
107.4524518342
 20
152.9130590765
 30
0.0
 11
107.3324498028
 21
152.9130590765
 31
0.0
  0
SPLINE
  5
A4
330
1F
100
AcDbEntity
  8
0
  6
Continuous
 62
     7
370
    15
100
AcDbSpline
210
0.0
220
0.0
230
1.0
 70
     8
 71
     3
 72
    11
 73
     7
 74
     0
 42
0.00000001
 43
0.00000001
 40
0.0
 40
0.0
 40
0.0
 40
0.0
 40
0.2499982728579843
 40
0.5000058315083329
 40
0.7500098663099878
 40
0.9999999999999999
 40
0.9999999999999999
 40
0.9999999999999999
 40
0.9999999999999999
 10
107.6024469227419
 20
153.0559880343896
 30
0.0
 10
107.5905383282294
 20
153.0206077371586
 30
0.0
 10
107.5667206968785
 20
152.949845828551
 30
0.0
 10
107.5309867530132
 20
152.8606008999671
 30
0.0
 10
107.4952551708662
 20
152.7981634985056
 30
0.0
 10
107.471432132865
 20
152.7900463804456
 30
0.0
 10
107.459520945035
 20
152.7859879342538
 30
0.0
  0
LINE
  5
A5
330
1F
100
AcDbEntity
  8
0
  6
Continuous
 62
     7
370
    15
100
AcDbLine
 10
107.459520945
 20
152.9059884755
 30
0.0
 11
107.459520945
 21
152.7859879343
 31
0.0
  0
SPLINE
  5
A6
330
1F
100
AcDbEntity
  8
0
  6
Continuous
 62
     7
370
    15
100
AcDbSpline
210
0.0
220
0.0
230
1.0
 70
     8
 71
     3
 72
    11
 73
     7
 74
     0
 42
0.00000001
 43
0.00000001
 40
0.0
 40
0.0
 40
0.0
 40
0.0
 40
0.2499936502159323
 40
0.5000075103859317
 40
0.7500059313830185
 40
0.9999999999999999
 40
0.9999999999999999
 40
0.9999999999999999
 40
0.9999999999999999
 10
107.6024469227419
 20
153.0559880343896
 30
0.0
 10
107.5905381401552
 20
153.0363322650489
 30
0.0
 10
107.5667196122536
 20
152.9970191373583
 30
0.0
 10
107.5309880162937
 20
152.9474408868078
 30
0.0
 10
107.4952542008287
 20
152.9127516661956
 30
0.0
 10
107.4714319611762
 20
152.9082428592916
 30
0.0
 10
107.459520945035
 20
152.905988475464
 30
0.0
  0
LINE
  5
A7
330
1F
100
AcDbEntity
  8
0
  6
Continuous
 62
     7
370
    15
100
AcDbLine
 10
107.3324498028
 20
152.9130590765
 30
0.0
 11
107.3324498028
 21
174.8989170102
 31
0.0
  0
SPLINE
  5
A8
330
1F
100
AcDbEntity
  8
0
  6
Continuous
 62
     7
370
    15
100
AcDbSpline
210
0.0
220
0.0
230
1.0
 70
     8
 71
     3
 72
    12
 73
     8
 74
     0
 42
0.00000001
 43
0.00000001
 40
0.0
 40
0.0
 40
0.0
 40
0.0
 40
0.2265942587337843
 40
0.4532238367896638
 40
0.6798816515239651
 40
0.9065195851925896
 40
1.0
 40
1.0
 40
1.0
 40
1.0
 10
249.5624479145632
 20
174.755988052271
 30
0.0
 10
249.5732484662015
 20
174.7880239710007
 30
0.0
 10
249.5948512529637
 20
174.8521008019094
 30
0.0
 10
249.6272541998886
 20
174.936272205835
 30
0.0
 10
249.6596426077714
 20
174.9974258248388
 30
0.0
 10
249.6857539147694
 20
175.0233915311038
 30
0.0
 10
249.700944054118
 20
175.0254012714535
 30
0.0
 10
249.7053798527346
 20
175.0259881524068
 30
0.0
  0
LINE
  5
A9
330
1F
100
AcDbEntity
  8
0
  6
Continuous
 62
     7
370
    15
100
AcDbLine
 10
249.7053798527
 20
175.0259881524
 30
0.0
 11
249.7053798527
 21
174.9059876112
 31
0.0
  0
SPLINE
  5
AA
330
1F
100
AcDbEntity
  8
0
  6
Continuous
 62
     7
370
    15
100
AcDbSpline
210
0.0
220
0.0
230
1.0
 70
     8
 71
     3
 72
    11
 73
     7
 74
     0
 42
0.00000001
 43
0.00000001
 40
0.0
 40
0.0
 40
0.0
 40
0.0
 40
0.2231259744733946
 40
0.4745512791248504
 40
0.726064389632352
 40
1.0
 40
1.0
 40
1.0
 40
1.0
 10
249.5624479145632
 20
174.755988052271
 30
0.0
 10
249.573064583527
 20
174.7735090995202
 30
0.0
 10
249.5956444460853
 20
174.8107734090805
 30
0.0
 10
249.6302517234803
 20
174.8600839053415
 30
0.0
 10
249.667248038354
 20
174.8980854401802
 30
0.0
 10
249.6923127191437
 20
174.9032796696521
 30
0.0
 10
249.7053798527346
 20
174.9059876111966
 30
0.0
  0
SPLINE
  5
AB
330
1F
100
AcDbEntity
  8
0
  6
Continuous
 62
     7
370
    15
100
AcDbSpline
210
0.0
220
0.0
230
1.0
 70
     8
 71
     3
 72
    12
 73
     8
 74
     0
 42
0.00000001
 43
0.00000001
 40
0.0
 40
0.0
 40
0.0
 40
0.0
 40
0.2265895315593896
 40
0.4532245714720883
 40
0.6798745700298631
 40
0.9065139935884043
 40
1.0
 40
1.0
 40
1.0
 40
1.0
 10
249.7053798527346
 20
152.7859879342538
 30
0.0
 10
249.6945791207436
 20
152.789315662714
 30
0.0
 10
249.6729754875373
 20
152.795971787977
 30
0.0
 10
249.6405749082365
 20
152.8476791278492
 30
0.0
 10
249.6081843229193
 20
152.923026484515
 30
0.0
 10
249.5820731610432
 20
152.9977688229907
 30
0.0
 10
249.5668836862969
 20
153.0428291101159
 30
0.0
 10
249.5624479145632
 20
153.0559880343896
 30
0.0
  0
SPLINE
  5
AC
330
1F
100
AcDbEntity
  8
0
  6
Continuous
 62
     7
370
    15
100
AcDbSpline
210
0.0
220
0.0
230
1.0
 70
     8
 71
     3
 72
    11
 73
     7
 74
     0
 42
0.00000001
 43
0.00000001
 40
0.0
 40
0.0
 40
0.0
 40
0.0
 40
0.225380075022658
 40
0.4768407271978364
 40
0.7283234877794378
 40
1.0
 40
1.0
 40
1.0
 40
1.0
 10
249.7053798527346
 20
152.905988475464
 30
0.0
 10
249.6946528314958
 20
152.9078246988483
 30
0.0
 10
249.6719574774028
 20
152.9117096300862
 30
0.0
 10
249.6372555143211
 20
152.9434718750687
 30
0.0
 10
249.6003546968592
 20
152.9934479784045
 30
0.0
 10
249.5754045310086
 20
153.034611714143
 30
0.0
 10
249.5624479145632
 20
153.0559880343896
 30
0.0
  0
LINE
  5
AD
330
1F
100
AcDbEntity
  8
0
  6
Continuous
 62
     7
370
    15
100
AcDbLine
 10
249.7053798527
 20
152.7859879343
 30
0.0
 11
249.7053798527
 21
152.9059884755
 31
0.0
  0
LINE
  5
AE
330
1F
100
AcDbEntity
  8
0
  6
Continuous
 62
     7
370
    15
100
AcDbLine
 10
107.459520945
 20
152.7859879343
 30
0.0
 11
249.7053798527
 21
152.7859879343
 31
0.0
  0
SPLINE
  5
AF
330
1F
100
AcDbEntity
  8
0
  6
Continuous
 62
     7
370
    15
100
AcDbSpline
210
0.0
220
0.0
230
1.0
 70
     8
 71
     3
 72
    11
 73
     7
 74
     0
 42
0.00000001
 43
0.00000001
 40
0.0
 40
0.0
 40
0.0
 40
0.0
 40
0.2499911475578062
 40
0.499994696581619
 40
0.7500013319856743
 40
1.0
 40
1.0
 40
1.0
 40
1.0
 10
107.459520945035
 20
175.0259881524068
 30
0.0
 10
107.4714321163385
 20
175.0219290426849
 30
0.0
 10
107.4952550498305
 20
175.0138106218784
 30
0.0
 10
107.530986716162
 20
174.9513746696583
 30
0.0
 10
107.5667208107943
 20
174.8621300998492
 30
0.0
 10
107.5905383452671
 20
174.7913683589435
 30
0.0
 10
107.6024469227419
 20
174.755988052271
 30
0.0
  0
SPLINE
  5
B0
330
1F
100
AcDbEntity
  8
0
  6
Continuous
 62
     7
370
    15
100
AcDbSpline
210
0.0
220
0.0
230
1.0
 70
     8
 71
     3
 72
    11
 73
     7
 74
     0
 42
0.00000001
 43
0.00000001
 40
0.0
 40
0.0
 40
0.0
 40
0.0
 40
0.2499948897388154
 40
0.4999936795655422
 40
0.7500059809614662
 40
1.0
 40
1.0
 40
1.0
 40
1.0
 10
107.459520945035
 20
174.9059876111966
 30
0.0
 10
107.4714319636026
 20
174.9037329285138
 30
0.0
 10
107.4952541865578
 20
174.8992235279737
 30
0.0
 10
107.5309878306837
 20
174.8645344761075
 30
0.0
 10
107.5667197963942
 20
174.8149569179769
 30
0.0
 10
107.5905381709263
 20
174.7756438616888
 30
0.0
 10
107.6024469227419
 20
174.755988052271
 30
0.0
  0
LINE
  5
B1
330
1F
100
AcDbEntity
  8
0
  6
Continuous
 62
     7
370
    15
100
AcDbLine
 10
107.459520945
 20
174.9059876112
 30
0.0
 11
107.459520945
 21
175.0259881524
 31
0.0
  0
LINE
  5
B2
330
1F
100
AcDbEntity
  8
0
  6
Continuous
 62
     7
370
    15
100
AcDbLine
 10
249.7053798527
 20
175.0259881524
 30
0.0
 11
107.459520945
 21
175.0259881524
 31
0.0
  0
SPLINE
  5
B3
330
1F
100
AcDbEntity
  8
0
  6
Continuous
 62
     7
370
    15
100
AcDbSpline
210
0.0
220
0.0
230
1.0
 70
     8
 71
     3
 72
    11
 73
     7
 74
     0
 42
0.00000001
 43
0.00000001
 40
0.0
 40
0.0
 40
0.0
 40
0.0
 40
0.2499928926567504
 40
0.4999857522572697
 40
0.7499889166900326
 40
1.0
 40
1.0
 40
1.0
 40
1.0
 10
249.7124489636049
 20
174.8989170102101
 30
0.0
 10
249.7101932505274
 20
174.8870062924677
 30
0.0
 10
249.7056818246706
 20
174.8631848585576
 30
0.0
 10
249.6709955495147
 20
174.8274516999634
 30
0.0
 10
249.6214176827898
 20
174.7917197166227
 30
0.0
 10
249.5821047115092
 20
174.7678987328083
 30
0.0
 10
249.5624479145632
 20
174.755988052271
 30
0.0
  0
LINE
  5
B4
330
1F
100
AcDbEntity
  8
0
  6
Continuous
 62
     7
370
    15
100
AcDbLine
 10
249.8324509949
 20
174.8989170102
 30
0.0
 11
249.7124489636
 21
174.8989170102
 31
0.0
  0
LINE
  5
B5
330
1F
100
AcDbEntity
  8
0
  6
Continuous
 62
     7
370
    15
100
AcDbLine
 10
249.7024473042
 20
174.8686602024
 30
0.0
 11
249.7024473042
 21
174.9059876112
 31
0.0
  0
LINE
  5
B6
330
1F
100
AcDbEntity
  8
0
  6
Continuous
 62
     7
370
    15
100
AcDbLine
 10
107.4624475331
 20
174.9059876112
 30
0.0
 11
107.4624475331
 21
174.8723258881
 31
0.0
  0
LINE
  5
B7
330
1F
100
AcDbEntity
  8
0
  6
Continuous
 62
     7
370
    15
100
AcDbLine
 10
107.4624475331
 20
152.9454661218
 30
0.0
 11
107.4624475331
 21
152.9059884755
 31
0.0
  0
LINE
  5
B8
330
1F
100
AcDbEntity
  8
0
  6
Continuous
 62
     7
370
    15
100
AcDbLine
 10
249.7024473042
 20
152.9059884755
 30
0.0
 11
249.7024473042
 21
152.9427257983
 31
0.0
  0
SPLINE
  5
B9
330
1F
100
AcDbEntity
  8
0
  6
Continuous
 62
     7
370
    15
100
AcDbSpline
210
0.0
220
0.0
230
1.0
 70
     8
 71
     3
 72
    11
 73
     7
 74
     0
 42
0.00000001
 43
0.00000001
 40
0.0
 40
0.0
 40
0.0
 40
0.0
 40
0.2500020120479457
 40
0.5000017725533138
 40
0.7500015330586819
 40
0.9999999999999999
 40
0.9999999999999999
 40
0.9999999999999999
 40
0.9999999999999999
 10
93.97745097585772
 20
126.5859869925004
 30
0.0
 10
93.95303846461425
 20
126.5270206434748
 30
0.0
 10
93.90421366198872
 20
126.4090884764804
 30
0.0
 10
93.83098440806845
 20
126.2603439214469
 30
0.0
 10
93.75775594538365
 20
126.1562799233511
 30
0.0
 10
93.70893059878496
 20
126.1427511798551
 30
0.0
 10
93.68451798864457
 20
126.1359868256074
 30
0.0
  0
LINE
  5
BA
330
1F
100
AcDbEntity
  8
0
  6
Continuous
 62
     7
370
    15
100
AcDbLine
 10
93.6845179886
 20
126.2859878746
 30
0.0
 11
93.6845179886
 21
126.1359868256
 31
0.0
  0
SPLINE
  5
BB
330
1F
100
AcDbEntity
  8
0
  6
Continuous
 62
     7
370
    15
100
AcDbSpline
210
0.0
220
0.0
230
1.0
 70
     8
 71
     3
 72
    11
 73
     7
 74
     0
 42
0.00000001
 43
0.00000001
 40
0.0
 40
0.0
 40
0.0
 40
0.0
 40
0.2500027612307099
 40
0.4999963812286846
 40
0.749996346333232
 40
1.0
 40
1.0
 40
1.0
 40
1.0
 10
93.97745097585772
 20
126.5859869925004
 30
0.0
 10
93.953038680375
 20
126.5466762966187
 30
0.0
 10
93.90421498203364
 20
126.4680563422323
 30
0.0
 10
93.83098321758631
 20
126.3688909779421
 30
0.0
 10
93.75775523679684
 20
126.2995178748073
 30
0.0
 10
93.70893052475645
 20
126.2904978968822
 30
0.0
 10
93.68451798864457
 20
126.2859878746492
 30
0.0
  0
SPLINE
  5
BC
330
1F
100
AcDbEntity
  8
0
  6
Continuous
 62
     7
370
    15
100
AcDbSpline
210
0.0
220
0.0
230
1.0
 70
     8
 71
     3
 72
    12
 73
     8
 74
     0
 42
0.00000001
 43
0.00000001
 40
0.0
 40
0.0
 40
0.0
 40
0.0
 40
0.2006415164737227
 40
0.4330793263789287
 40
0.6655437656117625
 40
0.8980162434060315
 40
1.0
 40
1.0
 40
1.0
 40
1.0
 10
93.68451798864457
 20
196.1359886137467
 30
0.0
 10
93.70409151554342
 20
196.1316224789145
 30
0.0
 10
93.74634044783423
 20
196.1221982941034
 30
0.0
 10
93.81140912447289
 20
196.0429781888053
 30
0.0
 10
93.87950531557426
 20
195.9168876977527
 30
0.0
 10
93.93499938064991
 20
195.7884163563877
 30
0.0
 10
93.9675312314664
 20
195.7099229698356
 30
0.0
 10
93.97745097585772
 20
195.6859884468537
 30
0.0
  0
LINE
  5
BD
330
1F
100
AcDbEntity
  8
0
  6
Continuous
 62
     7
370
    15
100
AcDbLine
 10
93.6845179886
 20
196.1359886137
 30
0.0
 11
263.3703764767
 21
196.1359886137
 31
0.0
  0
SPLINE
  5
BE
330
1F
100
AcDbEntity
  8
0
  6
Continuous
 62
     7
370
    15
100
AcDbSpline
210
0.0
220
0.0
230
1.0
 70
     8
 71
     3
 72
    12
 73
     8
 74
     0
 42
0.00000001
 43
0.00000001
 40
0.0
 40
0.0
 40
0.0
 40
0.0
 40
0.2026981399467885
 40
0.4351412272329214
 40
0.667610320041576
 40
0.9000880702712325
 40
1.0
 40
1.0
 40
1.0
 40
1.0
 10
263.0774494499788
 20
195.6859884468537
 30
0.0
 10
263.0972236400065
 20
195.7337016709763
 30
0.0
 10
263.1396737844354
 20
195.836129798365
 30
0.0
 10
263.2049425180898
 20
195.9767226676837
 30
0.0
 10
263.2730382033873
 20
196.0844321212984
 30
0.0
 10
263.3283319351859
 20
196.1311623295489
 30
0.0
 10
263.3606592996783
 20
196.1348731810099
 30
0.0
 10
263.3703764767275
 20
196.1359886137467
 30
0.0
  0
LINE
  5
BF
330
1F
100
AcDbEntity
  8
0
  6
Continuous
 62
     7
370
    15
100
AcDbLine
 10
263.5274466366
 20
195.6859884469
 30
0.0
 11
263.07744945
 21
195.6859884469
 31
0.0
  0
LINE
  5
C0
330
1F
100
AcDbEntity
  8
0
  6
Continuous
 62
     7
370
    15
100
AcDbLine
 10
263.5274466366
 20
126.5859869925
 30
0.0
 11
263.5274466366
 21
195.6859884469
 31
0.0
  0
LINE
  5
C1
330
1F
100
AcDbEntity
  8
0
  6
Continuous
 62
     7
370
    15
100
AcDbLine
 10
263.07744945
 20
126.5859869925
 30
0.0
 11
263.5274466366
 21
126.5859869925
 31
0.0
  0
LINE
  5
C2
330
1F
100
AcDbEntity
  8
0
  6
Continuous
 62
     7
370
    15
100
AcDbLine
 10
121.5274509282
 20
133.9359877316
 30
0.0
 11
127.8274473042
 21
133.9359877316
 31
0.0
  0
ARC
  5
C3
330
1F
100
AcDbEntity
  8
0
  6
Continuous
 62
     7
370
    15
100
AcDbCircle
 10
127.8274493815
 20
134.535987826
 30
0.0
 40
0.6000000000046555
100
AcDbArc
 50
270.0
 51
90.0
  0
LINE
  5
C4
330
1F
100
AcDbEntity
  8
0
  6
Continuous
 62
     7
370
    15
100
AcDbLine
 10
121.5274509282
 20
135.1359871832
 30
0.0
 11
127.8274473042
 21
135.1359871832
 31
0.0
  0
ARC
  5
C5
330
1F
100
AcDbEntity
  8
0
  6
Continuous
 62
     7
370
    15
100
AcDbCircle
 10
121.5274493815
 20
134.535987826
 30
0.0
 40
0.5999999999999943
100
AcDbArc
 50
90.0
 51
270.0
  0
LINE
  5
C6
330
1F
100
AcDbEntity
  8
0
  6
Continuous
 62
     7
370
    15
100
AcDbLine
 10
193.3274492861
 20
133.9359877316
 30
0.0
 11
199.6274490149
 21
133.9359877316
 31
0.0
  0
ARC
  5
C7
330
1F
100
AcDbEntity
  8
0
  6
Continuous
 62
     7
370
    15
100
AcDbCircle
 10
199.6274493815
 20
134.535987826
 30
0.0
 40
0.5999999999999943
100
AcDbArc
 50
270.0
 51
90.0
  0
LINE
  5
C8
330
1F
100
AcDbEntity
  8
0
  6
Continuous
 62
     7
370
    15
100
AcDbLine
 10
193.3274492861
 20
135.1359871832
 30
0.0
 11
199.6274490149
 21
135.1359871832
 31
0.0
  0
ARC
  5
C9
330
1F
100
AcDbEntity
  8
0
  6
Continuous
 62
     7
370
    15
100
AcDbCircle
 10
193.3274493815
 20
134.535987826
 30
0.0
 40
0.5999999999999943
100
AcDbArc
 50
90.0
 51
270.0
  0
LINE
  5
CA
330
1F
100
AcDbEntity
  8
0
  6
Continuous
 62
     7
370
    15
100
AcDbLine
 10
216.9024493785
 20
137.2859893052
 30
0.0
 11
216.977449903
 21
137.2859893052
 31
0.0
  0
LINE
  5
CB
330
1F
100
AcDbEntity
  8
0
  6
Continuous
 62
     7
370
    15
100
AcDbLine
 10
216.977449903
 20
137.2859893052
 30
0.0
 11
216.977449903
 21
136.2859872786
 31
0.0
  0
ARC
  5
CC
330
1F
100
AcDbEntity
  8
0
  6
Continuous
 62
     7
370
    15
100
AcDbCircle
 10
217.7774493815
 20
136.285987826
 30
0.0
 40
0.8000000000000398
100
AcDbArc
 50
180.0
 51
270.0
  0
LINE
  5
CD
330
1F
100
AcDbEntity
  8
0
  6
Continuous
 62
     7
370
    15
100
AcDbLine
 10
217.777448544
 20
135.4859886376
 30
0.0
 11
218.7774505705
 21
135.4859886376
 31
0.0
  0
LINE
  5
CE
330
1F
100
AcDbEntity
  8
0
  6
Continuous
 62
     7
370
    15
100
AcDbLine
 10
218.7774505705
 20
135.4859886376
 30
0.0
 11
218.7774505705
 21
135.4109881131
 31
0.0
  0
LINE
  5
CF
330
1F
100
AcDbEntity
  8
0
  6
Continuous
 62
     7
370
    15
100
AcDbLine
 10
245.9774490685
 20
135.4109881131
 30
0.0
 11
245.9774490685
 21
135.4859886376
 31
0.0
  0
LINE
  5
D0
330
1F
100
AcDbEntity
  8
0
  6
Continuous
 62
     7
370
    15
100
AcDbLine
 10
245.9774490685
 20
135.4859886376
 30
0.0
 11
246.9774481148
 21
135.4859886376
 31
0.0
  0
ARC
  5
D1
330
1F
100
AcDbEntity
  8
0
  6
Continuous
 62
     7
370
    15
100
AcDbCircle
 10
246.9774493815
 20
136.285987826
 30
0.0
 40
0.8000000000000398
100
AcDbArc
 50
270.0
 51
0.0
  0
LINE
  5
D2
330
1F
100
AcDbEntity
  8
0
  6
Continuous
 62
     7
370
    15
100
AcDbLine
 10
247.7774497361
 20
136.2859872786
 30
0.0
 11
247.7774497361
 21
137.2859893052
 31
0.0
  0
LINE
  5
D3
330
1F
100
AcDbEntity
  8
0
  6
Continuous
 62
     7
370
    15
100
AcDbLine
 10
247.7774497361
 20
137.2859893052
 30
0.0
 11
247.8524502606
 21
137.2859893052
 31
0.0
  0
LINE
  5
D4
330
1F
100
AcDbEntity
  8
0
  6
Continuous
 62
     7
370
    15
100
AcDbLine
 10
210.0774493308
 20
135.4859886376
 30
0.0
 11
211.0774498672
 21
135.4859886376
 31
0.0
  0
ARC
  5
D5
330
1F
100
AcDbEntity
  8
0
  6
Continuous
 62
     7
370
    15
100
AcDbCircle
 10
211.0774493815
 20
136.285987826
 30
0.0
 40
0.8000000000000398
100
AcDbArc
 50
270.0
 51
0.0
  0
LINE
  5
D6
330
1F
100
AcDbEntity
  8
0
  6
Continuous
 62
     7
370
    15
100
AcDbLine
 10
211.8774499983
 20
136.2859872786
 30
0.0
 11
211.8774499983
 21
137.2859893052
 31
0.0
  0
LINE
  5
D7
330
1F
100
AcDbEntity
  8
0
  6
Continuous
 62
     7
370
    15
100
AcDbLine
 10
211.8774499983
 20
137.2859893052
 30
0.0
 11
211.9524490327
 21
137.2859893052
 31
0.0
  0
LINE
  5
D8
330
1F
100
AcDbEntity
  8
0
  6
Continuous
 62
     7
370
    15
100
AcDbLine
 10
181.0024492682
 20
137.2859893052
 30
0.0
 11
181.0774494202
 21
137.2859893052
 31
0.0
  0
LINE
  5
D9
330
1F
100
AcDbEntity
  8
0
  6
Continuous
 62
     7
370
    15
100
AcDbLine
 10
181.0774494202
 20
137.2859893052
 30
0.0
 11
181.0774494202
 21
136.2859872786
 31
0.0
  0
ARC
  5
DA
330
1F
100
AcDbEntity
  8
0
  6
Continuous
 62
     7
370
    15
100
AcDbCircle
 10
181.8774493815
 20
136.285987826
 30
0.0
 40
0.8000000000000398
100
AcDbArc
 50
180.0
 51
270.0
  0
LINE
  5
DB
330
1F
100
AcDbEntity
  8
0
  6
Continuous
 62
     7
370
    15
100
AcDbLine
 10
181.8774495513
 20
135.4859886376
 30
0.0
 11
182.8774493427
 21
135.4859886376
 31
0.0
  0
LINE
  5
DC
330
1F
100
AcDbEntity
  8
0
  6
Continuous
 62
     7
370
    15
100
AcDbLine
 10
182.8774493427
 20
135.4859886376
 30
0.0
 11
182.8774493427
 21
135.4109881131
 31
0.0
  0
LINE
  5
DD
330
1F
100
AcDbEntity
  8
0
  6
Continuous
 62
     7
370
    15
100
AcDbLine
 10
210.0774493308
 20
135.4109881131
 30
0.0
 11
210.0774493308
 21
135.4859886376
 31
0.0
  0
LINE
  5
DE
330
1F
100
AcDbEntity
  8
0
  6
Continuous
 62
     7
370
    15
100
AcDbLine
 10
145.102449903
 20
137.2859893052
 30
0.0
 11
145.1774504275
 21
137.2859893052
 31
0.0
  0
LINE
  5
DF
330
1F
100
AcDbEntity
  8
0
  6
Continuous
 62
     7
370
    15
100
AcDbLine
 10
145.1774504275
 20
137.2859893052
 30
0.0
 11
145.1774504275
 21
136.2859872786
 31
0.0
  0
ARC
  5
E0
330
1F
100
AcDbEntity
  8
0
  6
Continuous
 62
     7
370
    15
100
AcDbCircle
 10
145.9774493815
 20
136.285987826
 30
0.0
 40
0.8000000000000398
100
AcDbArc
 50
180.0
 51
270.0
  0
LINE
  5
E1
330
1F
100
AcDbEntity
  8
0
  6
Continuous
 62
     7
370
    15
100
AcDbLine
 10
145.9774490685
 20
135.4859886376
 30
0.0
 11
146.9774481148
 21
135.4859886376
 31
0.0
  0
LINE
  5
E2
330
1F
100
AcDbEntity
  8
0
  6
Continuous
 62
     7
370
    15
100
AcDbLine
 10
146.9774481148
 20
135.4859886376
 30
0.0
 11
146.9774481148
 21
135.4109881131
 31
0.0
  0
LINE
  5
E3
330
1F
100
AcDbEntity
  8
0
  6
Continuous
 62
     7
370
    15
100
AcDbLine
 10
174.177449593
 20
135.4109881131
 30
0.0
 11
174.177449593
 21
135.4859886376
 31
0.0
  0
LINE
  5
E4
330
1F
100
AcDbEntity
  8
0
  6
Continuous
 62
     7
370
    15
100
AcDbLine
 10
174.177449593
 20
135.4859886376
 30
0.0
 11
175.1774493844
 21
135.4859886376
 31
0.0
  0
ARC
  5
E5
330
1F
100
AcDbEntity
  8
0
  6
Continuous
 62
     7
370
    15
100
AcDbCircle
 10
175.1774493815
 20
136.285987826
 30
0.0
 40
0.8000000000000398
100
AcDbArc
 50
270.0
 51
0.0
  0
LINE
  5
E6
330
1F
100
AcDbEntity
  8
0
  6
Continuous
 62
     7
370
    15
100
AcDbLine
 10
175.9774495155
 20
136.2859872786
 30
0.0
 11
175.9774495155
 21
137.2859893052
 31
0.0
  0
LINE
  5
E7
330
1F
100
AcDbEntity
  8
0
  6
Continuous
 62
     7
370
    15
100
AcDbLine
 10
175.9774495155
 20
137.2859893052
 30
0.0
 11
176.052449295
 21
137.2859893052
 31
0.0
  0
LINE
  5
E8
330
1F
100
AcDbEntity
  8
0
  6
Continuous
 62
     7
370
    15
100
AcDbLine
 10
138.2774498553
 20
135.4859886376
 30
0.0
 11
139.2774489016
 21
135.4859886376
 31
0.0
  0
ARC
  5
E9
330
1F
100
AcDbEntity
  8
0
  6
Continuous
 62
     7
370
    15
100
AcDbCircle
 10
139.2774493815
 20
136.285987826
 30
0.0
 40
0.8000000000000398
100
AcDbArc
 50
270.0
 51
0.0
  0
LINE
  5
EA
330
1F
100
AcDbEntity
  8
0
  6
Continuous
 62
     7
370
    15
100
AcDbLine
 10
140.0774505229
 20
136.2859872786
 30
0.0
 11
140.0774505229
 21
137.2859893052
 31
0.0
  0
LINE
  5
EB
330
1F
100
AcDbEntity
  8
0
  6
Continuous
 62
     7
370
    15
100
AcDbLine
 10
140.0774505229
 20
137.2859893052
 30
0.0
 11
140.1524480672
 21
137.2859893052
 31
0.0
  0
LINE
  5
EC
330
1F
100
AcDbEntity
  8
0
  6
Continuous
 62
     7
370
    15
100
AcDbLine
 10
109.2024501652
 20
137.2859893052
 30
0.0
 11
109.2774506898
 21
137.2859893052
 31
0.0
  0
LINE
  5
ED
330
1F
100
AcDbEntity
  8
0
  6
Continuous
 62
     7
370
    15
100
AcDbLine
 10
109.2774506898
 20
137.2859893052
 30
0.0
 11
109.2774506898
 21
136.2859872786
 31
0.0
  0
ARC
  5
EE
330
1F
100
AcDbEntity
  8
0
  6
Continuous
 62
     7
370
    15
100
AcDbCircle
 10
110.0774493815
 20
136.285987826
 30
0.0
 40
0.8000000000000398
100
AcDbArc
 50
180.0
 51
270.0
  0
LINE
  5
EF
330
1F
100
AcDbEntity
  8
0
  6
Continuous
 62
     7
370
    15
100
AcDbLine
 10
110.077452311
 20
135.4859886376
 30
0.0
 11
111.0774513573
 21
135.4859886376
 31
0.0
  0
LINE
  5
F0
330
1F
100
AcDbEntity
  8
0
  6
Continuous
 62
     7
370
    15
100
AcDbLine
 10
111.0774513573
 20
135.4859886376
 30
0.0
 11
111.0774513573
 21
135.4109881131
 31
0.0
  0
LINE
  5
F1
330
1F
100
AcDbEntity
  8
0
  6
Continuous
 62
     7
370
    15
100
AcDbLine
 10
138.2774498553
 20
135.4109881131
 30
0.0
 11
138.2774498553
 21
135.4859886376
 31
0.0
  0
LINE
  5
F2
330
1F
100
AcDbEntity
  8
0
  6
Continuous
 62
     7
370
    15
100
AcDbLine
 10
248.8274511189
 20
190.560987374
 30
0.0
 11
248.8374468178
 21
190.560987374
 31
0.0
  0
CIRCLE
  5
F3
330
1F
100
AcDbEntity
  8
0
  6
Continuous
 62
     7
370
    15
100
AcDbCircle
 10
142.6274493815
 20
146.135987826
 30
0.0
 40
0.5250000000000057
  0
CIRCLE
  5
F4
330
1F
100
AcDbEntity
  8
0
  6
Continuous
 62
     7
370
    15
100
AcDbCircle
 10
214.4274493815
 20
146.135987826
 30
0.0
 40
0.5250000000000057
  0
LINE
  5
F5
330
1F
100
AcDbEntity
  8
0
  6
Continuous
 62
     7
370
    15
100
AcDbLine
 10
229.2274501414
 20
133.9359877316
 30
0.0
 11
235.5274494977
 21
133.9359877316
 31
0.0
  0
ARC
  5
F6
330
1F
100
AcDbEntity
  8
0
  6
Continuous
 62
     7
370
    15
100
AcDbCircle
 10
235.5274493815
 20
134.535987826
 30
0.0
 40
0.6000000000046555
100
AcDbArc
 50
270.0
 51
90.0
  0
LINE
  5
F7
330
1F
100
AcDbEntity
  8
0
  6
Continuous
 62
     7
370
    15
100
AcDbLine
 10
229.2274501414
 20
135.1359871832
 30
0.0
 11
235.5274494977
 21
135.1359871832
 31
0.0
  0
ARC
  5
F8
330
1F
100
AcDbEntity
  8
0
  6
Continuous
 62
     7
370
    15
100
AcDbCircle
 10
229.2274493815
 20
134.535987826
 30
0.0
 40
0.5999999999999943
100
AcDbArc
 50
90.0
 51
270.0
  0
LINE
  5
F9
330
1F
100
AcDbEntity
  8
0
  6
Continuous
 62
     7
370
    15
100
AcDbLine
 10
157.4274506659
 20
133.9359877316
 30
0.0
 11
163.7274500222
 21
133.9359877316
 31
0.0
  0
ARC
  5
FA
330
1F
100
AcDbEntity
  8
0
  6
Continuous
 62
     7
370
    15
100
AcDbCircle
 10
163.7274493815
 20
134.535987826
 30
0.0
 40
0.6000000000198327
100
AcDbArc
 50
270.0
 51
90.0
  0
LINE
  5
FB
330
1F
100
AcDbEntity
  8
0
  6
Continuous
 62
     7
370
    15
100
AcDbLine
 10
157.4274506659
 20
135.1359871832
 30
0.0
 11
163.7274500222
 21
135.1359871832
 31
0.0
  0
ARC
  5
FC
330
1F
100
AcDbEntity
  8
0
  6
Continuous
 62
     7
370
    15
100
AcDbCircle
 10
157.4274493815
 20
134.535987826
 30
0.0
 40
0.5999999999999943
100
AcDbArc
 50
90.0
 51
270.0
  0
LINE
  5
FD
330
1F
100
AcDbEntity
  8
0
  6
Continuous
 62
     7
370
    15
100
AcDbLine
 10
263.3703764767
 20
195.9859875647
 30
0.0
 11
263.3703764767
 21
196.1359886137
 31
0.0
  0
SPLINE
  5
FE
330
1F
100
AcDbEntity
  8
0
  6
Continuous
 62
     7
370
    15
100
AcDbSpline
210
0.0
220
0.0
230
1.0
 70
     8
 71
     3
 72
    11
 73
     7
 74
     0
 42
0.00000001
 43
0.00000001
 40
0.0
 40
0.0
 40
0.0
 40
0.0
 40
0.2529435514250956
 40
0.506117392181165
 40
0.7592963768971068
 40
1.0
 40
1.0
 40
1.0
 40
1.0
 10
263.0774494499788
 20
195.6859884468537
 30
0.0
 10
263.1021494395736
 20
195.7257663385861
 30
0.0
 10
263.1515719065633
 20
195.8053583373408
 30
0.0
 10
263.2257205102323
 20
195.9053300047765
 30
0.0
 10
263.2986853774905
 20
195.9732171998955
 30
0.0
 10
263.3468852831763
 20
195.9818030687962
 30
0.0
 10
263.3703764767275
 20
195.985987564705
 30
0.0
  0
SPLINE
  5
FF
330
1F
100
AcDbEntity
  8
0
  6
Continuous
 62
     7
370
    15
100
AcDbSpline
210
0.0
220
0.0
230
1.0
 70
     8
 71
     3
 72
    11
 73
     7
 74
     0
 42
0.00000001
 43
0.00000001
 40
0.0
 40
0.0
 40
0.0
 40
0.0
 40
0.2529487205149318
 40
0.5061153769973115
 40
0.7592929020326832
 40
1.0
 40
1.0
 40
1.0
 40
1.0
 10
93.68451798864457
 20
195.985987564705
 30
0.0
 10
93.70922077868698
 20
195.9813692074669
 30
0.0
 10
93.75864764224151
 20
195.9721285138989
 30
0.0
 10
93.83278813733712
 20
195.9010937055652
 30
0.0
 10
93.90575353467123
 20
195.8014495673044
 30
0.0
 10
93.95395754065143
 20
195.7238221311145
 30
0.0
 10
93.9774509758577
 20
195.6859884468538
 30
0.0
  0
LINE
  5
100
330
1F
100
AcDbEntity
  8
0
  6
Continuous
 62
     7
370
    15
100
AcDbLine
 10
93.6845179886
 20
195.9859875647
 30
0.0
 11
93.6845179886
 21
196.1359886137
 31
0.0
  0
SPLINE
  5
101
330
1F
100
AcDbEntity
  8
0
  6
Continuous
 62
     7
370
    15
100
AcDbSpline
210
0.0
220
0.0
230
1.0
 70
     8
 71
     3
 72
    11
 73
     7
 74
     0
 42
0.00000001
 43
0.00000001
 40
0.0
 40
0.0
 40
0.0
 40
0.0
 40
0.2499962054763358
 40
0.4999967198041719
 40
0.7500002493635888
 40
1.0
 40
1.0
 40
1.0
 40
1.0
 10
263.3703764767275
 20
126.1359868256074
 30
0.0
 10
263.3459661254087
 20
126.1427512290824
 30
0.0
 10
263.2971450020426
 20
126.1562801526212
 30
0.0
 10
263.2239175366378
 20
126.2603451726315
 30
0.0
 10
263.1506784002973
 20
126.4090860221185
 30
0.0
 10
263.1018589770958
 20
126.5270202994809
 30
0.0
 10
263.0774494499788
 20
126.5859869925004
 30
0.0
  0
LINE
  5
102
330
1F
100
AcDbEntity
  8
0
  6
Continuous
 62
     7
370
    15
100
AcDbLine
 10
263.3703764767
 20
126.1359868256
 30
0.0
 11
93.6845179886
 21
126.1359868256
 31
0.0
  0
LINE
  5
103
330
1F
100
AcDbEntity
  8
0
  6
Continuous
 62
     7
370
    15
100
AcDbLine
 10
93.5274478287
 20
195.6859884469
 30
0.0
 11
93.5274478287
 21
126.5859869925
 31
0.0
  0
LINE
  5
104
330
1F
100
AcDbEntity
  8
0
  6
Continuous
 62
     7
370
    15
100
AcDbLine
 10
93.9774509759
 20
195.6859884469
 30
0.0
 11
93.5274478287
 21
195.6859884469
 31
0.0
  0
LINE
  5
105
330
1F
100
AcDbEntity
  8
0
  6
Continuous
 62
     7
370
    15
100
AcDbLine
 10
93.5274478287
 20
126.5859869925
 30
0.0
 11
93.9774509759
 21
126.5859869925
 31
0.0
  0
SPLINE
  5
106
330
1F
100
AcDbEntity
  8
0
  6
Continuous
 62
     7
370
    15
100
AcDbSpline
210
0.0
220
0.0
230
1.0
 70
     8
 71
     3
 72
    11
 73
     7
 74
     0
 42
0.00000001
 43
0.00000001
 40
0.0
 40
0.0
 40
0.0
 40
0.0
 40
0.2499993606497799
 40
0.5000007567406808
 40
0.7500015318118199
 40
1.0
 40
1.0
 40
1.0
 40
1.0
 10
263.3703764767275
 20
126.2859878746492
 30
0.0
 10
263.3459661569343
 20
126.2904979591694
 30
0.0
 10
263.2971453186042
 20
126.29951816493
 30
0.0
 10
263.2239181792622
 20
126.3688925614431
 30
0.0
 10
263.1506780768767
 20
126.4680532360042
 30
0.0
 10
263.1018589171979
 20
126.5466758612506
 30
0.0
 10
263.0774494499789
 20
126.5859869925004
 30
0.0
  0
LINE
  5
107
330
1F
100
AcDbEntity
  8
0
  6
Continuous
 62
     7
370
    15
100
AcDbLine
 10
263.3703764767
 20
126.2859878746
 30
0.0
 11
263.3703764767
 21
126.1359868256
 31
0.0
  0
LINE
  5
108
330
1F
100
AcDbEntity
  8
0
  6
Continuous
 62
     7
370
    15
100
AcDbLine
 10
109.5274504513
 20
137.2859893052
 30
0.0
 11
109.5274504513
 21
152.7859879343
 31
0.0
  0
LINE
  5
109
330
1F
100
AcDbEntity
  8
0
  6
Continuous
 62
     7
370
    15
100
AcDbLine
 10
109.5274504513
 20
137.2859893052
 30
0.0
 11
109.2774506898
 21
137.2859893052
 31
0.0
  0
LINE
  5
10A
330
1F
100
AcDbEntity
  8
0
  6
Continuous
 62
     7
370
    15
100
AcDbLine
 10
247.7774497361
 20
137.2859893052
 30
0.0
 11
247.5274499745
 21
137.2859893052
 31
0.0
  0
LINE
  5
10B
330
1F
100
AcDbEntity
  8
0
  6
Continuous
 62
     7
370
    15
100
AcDbLine
 10
247.5274499745
 20
152.7859879343
 30
0.0
 11
247.5274499745
 21
137.2859893052
 31
0.0
  0
LINE
  5
10C
330
1F
100
AcDbEntity
  8
0
  6
Continuous
 62
     7
370
    15
100
AcDbLine
 10
175.9774495155
 20
137.2859893052
 30
0.0
 11
175.727449754
 21
137.2859893052
 31
0.0
  0
LINE
  5
10D
330
1F
100
AcDbEntity
  8
0
  6
Continuous
 62
     7
370
    15
100
AcDbLine
 10
175.727449754
 20
175.2259878127
 30
0.0
 11
175.727449754
 21
175.0259881524
 31
0.0
  0
LINE
  5
10E
330
1F
100
AcDbEntity
  8
0
  6
Continuous
 62
     7
370
    15
100
AcDbLine
 10
175.727449754
 20
152.7859879343
 30
0.0
 11
175.727449754
 21
137.2859893052
 31
0.0
  0
LINE
  5
10F
330
1F
100
AcDbEntity
  8
0
  6
Continuous
 62
     7
370
    15
100
AcDbLine
 10
146.9774481148
 20
135.4859886376
 30
0.0
 11
146.9774481148
 21
135.7359883992
 31
0.0
  0
LINE
  5
110
330
1F
100
AcDbEntity
  8
0
  6
Continuous
 62
     7
370
    15
100
AcDbLine
 10
174.177449593
 20
135.7359883992
 30
0.0
 11
146.9774481148
 21
135.7359883992
 31
0.0
  0
LINE
  5
111
330
1F
100
AcDbEntity
  8
0
  6
Continuous
 62
     7
370
    15
100
AcDbLine
 10
174.177449593
 20
135.7359883992
 30
0.0
 11
174.177449593
 21
135.4859886376
 31
0.0
  0
LINE
  5
112
330
1F
100
AcDbEntity
  8
0
  6
Continuous
 62
     7
370
    15
100
AcDbLine
 10
111.0774513573
 20
135.4859886376
 30
0.0
 11
111.0774513573
 21
135.7359883992
 31
0.0
  0
LINE
  5
113
330
1F
100
AcDbEntity
  8
0
  6
Continuous
 62
     7
370
    15
100
AcDbLine
 10
138.2774498553
 20
135.7359883992
 30
0.0
 11
111.0774513573
 21
135.7359883992
 31
0.0
  0
LINE
  5
114
330
1F
100
AcDbEntity
  8
0
  6
Continuous
 62
     7
370
    15
100
AcDbLine
 10
138.2774498553
 20
135.7359883992
 30
0.0
 11
138.2774498553
 21
135.4859886376
 31
0.0
  0
LINE
  5
115
330
1F
100
AcDbEntity
  8
0
  6
Continuous
 62
     7
370
    15
100
AcDbLine
 10
182.8774493427
 20
135.4859886376
 30
0.0
 11
182.8774493427
 21
135.7359883992
 31
0.0
  0
LINE
  5
116
330
1F
100
AcDbEntity
  8
0
  6
Continuous
 62
     7
370
    15
100
AcDbLine
 10
210.0774493308
 20
135.7359883992
 30
0.0
 11
182.8774493427
 21
135.7359883992
 31
0.0
  0
LINE
  5
117
330
1F
100
AcDbEntity
  8
0
  6
Continuous
 62
     7
370
    15
100
AcDbLine
 10
210.0774493308
 20
135.7359883992
 30
0.0
 11
210.0774493308
 21
135.4859886376
 31
0.0
  0
LINE
  5
118
330
1F
100
AcDbEntity
  8
0
  6
Continuous
 62
     7
370
    15
100
AcDbLine
 10
218.7774505705
 20
135.4859886376
 30
0.0
 11
218.7774505705
 21
135.7359883992
 31
0.0
  0
LINE
  5
119
330
1F
100
AcDbEntity
  8
0
  6
Continuous
 62
     7
370
    15
100
AcDbLine
 10
245.9774490685
 20
135.7359883992
 30
0.0
 11
218.7774505705
 21
135.7359883992
 31
0.0
  0
LINE
  5
11A
330
1F
100
AcDbEntity
  8
0
  6
Continuous
 62
     7
370
    15
100
AcDbLine
 10
245.9774490685
 20
135.7359883992
 30
0.0
 11
245.9774490685
 21
135.4859886376
 31
0.0
  0
LINE
  5
11B
330
1F
100
AcDbEntity
  8
0
  6
Continuous
 62
     7
370
    15
100
AcDbLine
 10
145.4274501891
 20
137.2859893052
 30
0.0
 11
145.4274501891
 21
152.7859879343
 31
0.0
  0
LINE
  5
11C
330
1F
100
AcDbEntity
  8
0
  6
Continuous
 62
     7
370
    15
100
AcDbLine
 10
145.4274501891
 20
175.0259881524
 30
0.0
 11
145.4274501891
 21
175.2259878127
 31
0.0
  0
LINE
  5
11D
330
1F
100
AcDbEntity
  8
0
  6
Continuous
 62
     7
370
    15
100
AcDbLine
 10
145.4274501891
 20
137.2859893052
 30
0.0
 11
145.1774504275
 21
137.2859893052
 31
0.0
  0
LINE
  5
11E
330
1F
100
AcDbEntity
  8
0
  6
Continuous
 62
     7
370
    15
100
AcDbLine
 10
211.8774499983
 20
137.2859893052
 30
0.0
 11
211.6274487466
 21
137.2859893052
 31
0.0
  0
LINE
  5
11F
330
1F
100
AcDbEntity
  8
0
  6
Continuous
 62
     7
370
    15
100
AcDbLine
 10
211.6274487466
 20
175.2259878127
 30
0.0
 11
211.6274487466
 21
175.0259881524
 31
0.0
  0
LINE
  5
120
330
1F
100
AcDbEntity
  8
0
  6
Continuous
 62
     7
370
    15
100
AcDbLine
 10
211.6274487466
 20
152.7859879343
 30
0.0
 11
211.6274487466
 21
137.2859893052
 31
0.0
  0
LINE
  5
121
330
1F
100
AcDbEntity
  8
0
  6
Continuous
 62
     7
370
    15
100
AcDbLine
 10
181.3274495543
 20
137.2859893052
 30
0.0
 11
181.3274495543
 21
152.7859879343
 31
0.0
  0
LINE
  5
122
330
1F
100
AcDbEntity
  8
0
  6
Continuous
 62
     7
370
    15
100
AcDbLine
 10
181.3274495543
 20
175.0259881524
 30
0.0
 11
181.3274495543
 21
175.2259878127
 31
0.0
  0
LINE
  5
123
330
1F
100
AcDbEntity
  8
0
  6
Continuous
 62
     7
370
    15
100
AcDbLine
 10
181.3274495543
 20
137.2859893052
 30
0.0
 11
181.0774494202
 21
137.2859893052
 31
0.0
  0
LINE
  5
124
330
1F
100
AcDbEntity
  8
0
  6
Continuous
 62
     7
370
    15
100
AcDbLine
 10
245.3274484963
 20
186.5359885303
 30
0.0
 11
245.8274480195
 21
186.5359885303
 31
0.0
  0
LINE
  5
125
330
1F
100
AcDbEntity
  8
0
  6
Continuous
 62
     7
370
    15
100
AcDbLine
 10
217.2274496646
 20
137.2859893052
 30
0.0
 11
217.2274496646
 21
152.7859879343
 31
0.0
  0
LINE
  5
126
330
1F
100
AcDbEntity
  8
0
  6
Continuous
 62
     7
370
    15
100
AcDbLine
 10
217.2274496646
 20
175.0259881524
 30
0.0
 11
217.2274496646
 21
175.2259878127
 31
0.0
  0
LINE
  5
127
330
1F
100
AcDbEntity
  8
0
  6
Continuous
 62
     7
370
    15
100
AcDbLine
 10
217.2274496646
 20
137.2859893052
 30
0.0
 11
216.977449903
 21
137.2859893052
 31
0.0
  0
LINE
  5
128
330
1F
100
AcDbEntity
  8
0
  6
Continuous
 62
     7
370
    15
100
AcDbLine
 10
111.2274464459
 20
186.5359885303
 30
0.0
 11
111.8274506421
 21
186.5359885303
 31
0.0
  0
LINE
  5
129
330
1F
100
AcDbEntity
  8
0
  6
Continuous
 62
     7
370
    15
100
AcDbLine
 10
140.0774505229
 20
137.2859893052
 30
0.0
 11
139.8274507613
 21
137.2859893052
 31
0.0
  0
LINE
  5
12A
330
1F
100
AcDbEntity
  8
0
  6
Continuous
 62
     7
370
    15
100
AcDbLine
 10
139.8274507613
 20
175.2259878127
 30
0.0
 11
139.8274507613
 21
175.0259881524
 31
0.0
  0
LINE
  5
12B
330
1F
100
AcDbEntity
  8
0
  6
Continuous
 62
     7
370
    15
100
AcDbLine
 10
139.8274507613
 20
152.7859879343
 30
0.0
 11
139.8274507613
 21
137.2859893052
 31
0.0
  0
LINE
  5
12C
330
1F
100
AcDbEntity
  8
0
  6
Continuous
 62
     7
370
    15
100
AcDbLine
 10
263.5274466366
 20
195.9789154736
 30
0.0
 11
263.3774515481
 21
195.9789154736
 31
0.0
  0
LINE
  5
12D
330
1F
100
AcDbEntity
  8
0
  6
Continuous
 62
     7
370
    15
100
AcDbLine
 10
263.5274466366
 20
195.6859884469
 30
0.0
 11
263.5274466366
 21
195.9789154736
 31
0.0
  0
LINE
  5
12E
330
1F
100
AcDbEntity
  8
0
  6
Continuous
 62
     7
370
    15
100
AcDbLine
 10
263.3774515481
 20
195.6859884469
 30
0.0
 11
263.3774515481
 21
195.9789154736
 31
0.0
  0
LINE
  5
12F
330
1F
100
AcDbEntity
  8
0
  6
Continuous
 62
     7
370
    15
100
AcDbLine
 10
263.5274466366
 20
126.5859869925
 30
0.0
 11
263.5274466366
 21
126.2930599658
 31
0.0
  0
LINE
  5
130
330
1F
100
AcDbEntity
  8
0
  6
Continuous
 62
     7
370
    15
100
AcDbLine
 10
263.3774515481
 20
126.5859869925
 30
0.0
 11
263.3774515481
 21
126.2930599658
 31
0.0
  0
LINE
  5
131
330
1F
100
AcDbEntity
  8
0
  6
Continuous
 62
     7
370
    15
100
AcDbLine
 10
263.5274466366
 20
126.2930599658
 30
0.0
 11
263.3774515481
 21
126.2930599658
 31
0.0
  0
LINE
  5
132
330
1F
100
AcDbEntity
  8
0
  6
Continuous
 62
     7
370
    15
100
AcDbLine
 10
93.5274478287
 20
195.6859884469
 30
0.0
 11
93.5274478287
 21
195.9789154736
 31
0.0
  0
LINE
  5
133
330
1F
100
AcDbEntity
  8
0
  6
Continuous
 62
     7
370
    15
100
AcDbLine
 10
93.5274478287
 20
195.9789154736
 30
0.0
 11
93.6774488778
 21
195.9789154736
 31
0.0
  0
LINE
  5
134
330
1F
100
AcDbEntity
  8
0
  6
Continuous
 62
     7
370
    15
100
AcDbLine
 10
93.6774488778
 20
195.6859884469
 30
0.0
 11
93.6774488778
 21
195.9789154736
 31
0.0
  0
LINE
  5
135
330
1F
100
AcDbEntity
  8
0
  6
Continuous
 62
     7
370
    15
100
AcDbLine
 10
93.5274478287
 20
126.2930599658
 30
0.0
 11
93.6774488778
 21
126.2930599658
 31
0.0
  0
LINE
  5
136
330
1F
100
AcDbEntity
  8
0
  6
Continuous
 62
     7
370
    15
100
AcDbLine
 10
93.6774488778
 20
126.5859869925
 30
0.0
 11
93.6774488778
 21
126.2930599658
 31
0.0
  0
LINE
  5
137
330
1F
100
AcDbEntity
  8
0
  6
Continuous
 62
     7
370
    15
100
AcDbLine
 10
93.5274478287
 20
126.5859869925
 30
0.0
 11
93.5274478287
 21
126.2930599658
 31
0.0
  0
LINE
  5
138
330
1F
100
AcDbEntity
  8
0
  6
Continuous
 62
     7
370
    15
100
AcDbLine
 10
245.9774490685
 20
135.5359879939
 30
0.0
 11
247.2558375687
 21
135.5359879939
 31
0.0
  0
LINE
  5
139
330
1F
100
AcDbEntity
  8
0
  6
Continuous
 62
     7
370
    15
100
AcDbLine
 10
210.0774493308
 20
135.5359879939
 30
0.0
 11
211.355837831
 21
135.5359879939
 31
0.0
  0
LINE
  5
13A
330
1F
100
AcDbEntity
  8
0
  6
Continuous
 62
     7
370
    15
100
AcDbLine
 10
217.4990620703
 20
135.5359879939
 30
0.0
 11
218.7774505705
 21
135.5359879939
 31
0.0
  0
LINE
  5
13B
330
1F
100
AcDbEntity
  8
0
  6
Continuous
 62
     7
370
    15
100
AcDbLine
 10
109.3274470658
 20
137.2859893052
 30
0.0
 11
109.3274470658
 21
136.0076008049
 31
0.0
  0
LINE
  5
13C
330
1F
100
AcDbEntity
  8
0
  6
Continuous
 62
     7
370
    15
100
AcDbLine
 10
247.7274473996
 20
136.0076008049
 30
0.0
 11
247.7274473996
 21
137.2859893052
 31
0.0
  0
LINE
  5
13D
330
1F
100
AcDbEntity
  8
0
  6
Continuous
 62
     7
370
    15
100
AcDbLine
 10
109.7990628571
 20
135.5359879939
 30
0.0
 11
111.0774513573
 21
135.5359879939
 31
0.0
  0
LINE
  5
13E
330
1F
100
AcDbEntity
  8
0
  6
Continuous
 62
     7
370
    15
100
AcDbLine
 10
138.2774498553
 20
135.5359879939
 30
0.0
 11
139.5558383555
 21
135.5359879939
 31
0.0
  0
LINE
  5
13F
330
1F
100
AcDbEntity
  8
0
  6
Continuous
 62
     7
370
    15
100
AcDbLine
 10
145.6990625949
 20
135.5359879939
 30
0.0
 11
146.9774481148
 21
135.5359879939
 31
0.0
  0
LINE
  5
140
330
1F
100
AcDbEntity
  8
0
  6
Continuous
 62
     7
370
    15
100
AcDbLine
 10
174.177449593
 20
135.5359879939
 30
0.0
 11
175.4558373482
 21
135.5359879939
 31
0.0
  0
LINE
  5
141
330
1F
100
AcDbEntity
  8
0
  6
Continuous
 62
     7
370
    15
100
AcDbLine
 10
181.599061215
 20
135.5359879939
 30
0.0
 11
182.8774493427
 21
135.5359879939
 31
0.0
  0
LINE
  5
142
330
1F
100
AcDbEntity
  8
0
  6
Continuous
 62
     7
370
    15
100
AcDbLine
 10
177.0360280068
 20
193.3259872405
 30
0.0
 11
177.017449239
 21
193.3259872405
 31
0.0
  0
LINE
  5
143
330
1F
100
AcDbEntity
  8
0
  6
Continuous
 62
     7
370
    15
100
AcDbLine
 10
111.2374481053
 20
193.3259872405
 30
0.0
 11
111.2188693375
 21
193.3259872405
 31
0.0
  0
LINE
  5
144
330
1F
100
AcDbEntity
  8
0
  6
Continuous
 62
     7
370
    15
100
AcDbLine
 10
108.2360264153
 20
193.3259872405
 30
0.0
 11
108.2174476475
 21
193.3259872405
 31
0.0
  0
LINE
  5
145
330
1F
100
AcDbEntity
  8
0
  6
Continuous
 62
     7
370
    15
100
AcDbLine
 10
180.018870929
 20
193.3259872405
 30
0.0
 11
180.0374496967
 21
193.3259872405
 31
0.0
  0
LINE
  5
146
330
1F
100
AcDbEntity
  8
0
  6
Continuous
 62
     7
370
    15
100
AcDbLine
 10
245.8174523205
 20
193.3259872405
 30
0.0
 11
245.8360251279
 21
193.3259872405
 31
0.0
  0
LINE
  5
147
330
1F
100
AcDbEntity
  8
0
  6
Continuous
 62
     7
370
    15
100
AcDbLine
 10
248.8188680501
 20
193.3259872405
 30
0.0
 11
248.8374468178
 21
193.3259872405
 31
0.0
  0
LINE
  5
148
330
1F
100
AcDbEntity
  8
0
  6
Continuous
 62
     7
370
    15
100
AcDbLine
 10
248.8374468178
 20
193.3259872405
 30
0.0
 11
248.8374468178
 21
190.5259875266
 31
0.0
  0
LWPOLYLINE
  5
149
330
1F
100
AcDbEntity
  8
0
  6
Continuous
 62
     7
370
    15
100
AcDbPolyline
 90
        4
 70
   128
 43
0.0
 10
248.7274464459
 20
193.4359876124
 10
248.7411972375
 20
193.4222368208
 10
248.754948029
 20
193.4084890095
 10
248.767447123
 20
193.3959869353
  0
LWPOLYLINE
  5
14A
330
1F
100
AcDbEntity
  8
0
  6
Continuous
 62
     7
370
    15
100
AcDbPolyline
 90
        4
 70
   128
 43
0.0
 10
248.7974521012
 20
193.3659879176
 10
248.8099511952
 20
193.3534888236
 10
248.8237019868
 20
193.339738032
 10
248.8374468178
 20
193.3259872405
  0
LWPOLYLINE
  5
14B
330
1F
100
AcDbEntity
  8
0
  6
Continuous
 62
     7
370
    15
100
AcDbPolyline
 90
        4
 70
   128
 43
0.0
 10
245.8174523205
 20
193.3259872405
 10
245.8311971516
 20
193.339738032
 10
245.8449479432
 20
193.3534888236
 10
245.8574470372
 20
193.3659879176
  0
LWPOLYLINE
  5
14C
330
1F
100
AcDbEntity
  8
0
  6
Continuous
 62
     7
370
    15
100
AcDbPolyline
 90
        4
 70
   128
 43
0.0
 10
245.8874520154
 20
193.3959869353
 10
245.8999511094
 20
193.4084890095
 10
245.9137019009
 20
193.4222368208
 10
245.927446732
 20
193.4359876124
  0
LINE
  5
14D
330
1F
100
AcDbEntity
  8
0
  6
Continuous
 62
     7
370
    15
100
AcDbLine
 10
245.8174523205
 20
192.8148684708
 30
0.0
 11
245.8174523205
 21
193.3259872405
 31
0.0
  0
LINE
  5
14E
330
1F
100
AcDbEntity
  8
0
  6
Continuous
 62
     7
370
    15
100
AcDbLine
 10
245.927446732
 20
193.4359876124
 30
0.0
 11
248.7274464459
 21
193.4359876124
 31
0.0
  0
LWPOLYLINE
  5
14F
330
1F
100
AcDbEntity
  8
0
  6
Continuous
 62
     7
370
    15
100
AcDbPolyline
 90
        4
 70
   128
 43
0.0
 10
111.1274477334
 20
193.4359876124
 10
111.1411985249
 20
193.4222368208
 10
111.1549493165
 20
193.4084890095
 10
111.1674484105
 20
193.3959869353
  0
LWPOLYLINE
  5
150
330
1F
100
AcDbEntity
  8
0
  6
Continuous
 62
     7
370
    15
100
AcDbPolyline
 90
        4
 70
   128
 43
0.0
 10
111.1974474282
 20
193.3659879176
 10
111.2099524827
 20
193.3534888236
 10
111.2236973137
 20
193.339738032
 10
111.2374481053
 20
193.3259872405
  0
LINE
  5
151
330
1F
100
AcDbEntity
  8
0
  6
Continuous
 62
     7
370
    15
100
AcDbLine
 10
108.3274480195
 20
193.4359876124
 30
0.0
 11
111.1274477334
 21
193.4359876124
 31
0.0
  0
LINE
  5
152
330
1F
100
AcDbEntity
  8
0
  6
Continuous
 62
     7
370
    15
100
AcDbLine
 10
108.2174476475
 20
193.3259872405
 30
0.0
 11
108.2574483246
 21
193.3659879176
 31
0.0
  0
LWPOLYLINE
  5
153
330
1F
100
AcDbEntity
  8
0
  6
Continuous
 62
     7
370
    15
100
AcDbPolyline
 90
        4
 70
   128
 43
0.0
 10
108.2874473424
 20
193.3959869353
 10
108.2999523968
 20
193.4084890095
 10
108.3136972279
 20
193.4222368208
 10
108.3274480195
 20
193.4359876124
  0
LINE
  5
154
330
1F
100
AcDbEntity
  8
0
  6
Continuous
 62
     7
370
    15
100
AcDbLine
 10
108.2174476475
 20
190.5259875266
 30
0.0
 11
108.2174476475
 21
193.3259872405
 31
0.0
  0
LINE
  5
155
330
1F
100
AcDbEntity
  8
0
  6
Continuous
 62
     7
370
    15
100
AcDbLine
 10
111.2374481053
 20
193.3259872405
 30
0.0
 11
111.2374481053
 21
192.7705852
 31
0.0
  0
LINE
  5
156
330
1F
100
AcDbEntity
  8
0
  6
Continuous
 62
     7
370
    15
100
AcDbLine
 10
180.0374496967
 20
193.3259872405
 30
0.0
 11
180.0374496967
 21
192.9259864298
 31
0.0
  0
LWPOLYLINE
  5
157
330
1F
100
AcDbEntity
  8
0
  6
Continuous
 62
     7
370
    15
100
AcDbPolyline
 90
        4
 70
   128
 43
0.0
 10
179.9274493248
 20
193.4359876124
 10
179.9411993713
 20
193.4222368208
 10
179.9549486727
 20
193.4084890095
 10
179.9674492569
 20
193.3959869353
  0
LWPOLYLINE
  5
158
330
1F
100
AcDbEntity
  8
0
  6
Continuous
 62
     7
370
    15
100
AcDbPolyline
 90
        4
 70
   128
 43
0.0
 10
179.9974490196
 20
193.3659879176
 10
180.0099496038
 20
193.3534888236
 10
180.0236996503
 20
193.339738032
 10
180.0374496967
 20
193.3259872405
  0
LWPOLYLINE
  5
159
330
1F
100
AcDbEntity
  8
0
  6
Continuous
 62
     7
370
    15
100
AcDbPolyline
 90
        4
 70
   128
 43
0.0
 10
177.017449239
 20
193.3259872405
 10
177.0311992855
 20
193.339738032
 10
177.044949332
 20
193.3534888236
 10
177.057449171
 20
193.3659879176
  0
LWPOLYLINE
  5
15A
330
1F
100
AcDbEntity
  8
0
  6
Continuous
 62
     7
370
    15
100
AcDbPolyline
 90
        4
 70
   128
 43
0.0
 10
177.0874496789
 20
193.3959869353
 10
177.0999495179
 20
193.4084890095
 10
177.1136995644
 20
193.4222368208
 10
177.1274496109
 20
193.4359876124
  0
LINE
  5
15B
330
1F
100
AcDbEntity
  8
0
  6
Continuous
 62
     7
370
    15
100
AcDbLine
 10
177.017449239
 20
192.9259864298
 30
0.0
 11
177.017449239
 21
193.3259872405
 31
0.0
  0
LINE
  5
15C
330
1F
100
AcDbEntity
  8
0
  6
Continuous
 62
     7
370
    15
100
AcDbLine
 10
177.1274496109
 20
193.4359876124
 30
0.0
 11
179.9274493248
 21
193.4359876124
 31
0.0
  0
LINE
  5
15D
330
1F
100
AcDbEntity
  8
0
  6
Continuous
 62
     7
370
    15
100
AcDbLine
 10
111.4274498314
 20
191.7259869782
 30
0.0
 11
111.4274498314
 21
192.0759884325
 31
0.0
  0
LINE
  5
15E
330
1F
100
AcDbEntity
  8
0
  6
Continuous
 62
     7
370
    15
100
AcDbLine
 10
111.4261027665
 20
190.6171811429
 30
0.0
 11
111.4274498314
 21
190.6509874073
 31
0.0
  0
LINE
  5
15F
330
1F
100
AcDbEntity
  8
0
  6
Continuous
 62
     7
370
    15
100
AcDbLine
 10
111.4274498314
 20
190.6509874073
 30
0.0
 11
111.4274498314
 21
191.7259869782
 31
0.0
  0
LINE
  5
160
330
1F
100
AcDbEntity
  8
0
  6
Continuous
 62
     7
370
    15
100
AcDbLine
 10
180.0274495275
 20
193.1859878508
 30
0.0
 11
180.0274495275
 21
193.0659887997
 31
0.0
  0
LINE
  5
161
330
1F
100
AcDbEntity
  8
0
  6
Continuous
 62
     7
370
    15
100
AcDbLine
 10
179.8274491222
 20
193.0659887997
 30
0.0
 11
180.0274495275
 21
193.0659887997
 31
0.0
  0
LINE
  5
162
330
1F
100
AcDbEntity
  8
0
  6
Continuous
 62
     7
370
    15
100
AcDbLine
 10
179.8274491222
 20
193.1859878508
 30
0.0
 11
180.0274495275
 21
193.1859878508
 31
0.0
  0
LINE
  5
163
330
1F
100
AcDbEntity
  8
0
  6
Continuous
 62
     7
370
    15
100
AcDbLine
 10
177.2274490685
 20
193.0659887997
 30
0.0
 11
179.8274491222
 21
193.0659887997
 31
0.0
  0
LINE
  5
164
330
1F
100
AcDbEntity
  8
0
  6
Continuous
 62
     7
370
    15
100
AcDbLine
 10
177.2274490685
 20
193.1859878508
 30
0.0
 11
179.8274491222
 21
193.1859878508
 31
0.0
  0
LINE
  5
165
330
1F
100
AcDbEntity
  8
0
  6
Continuous
 62
     7
370
    15
100
AcDbLine
 10
177.0274494083
 20
193.1859878508
 30
0.0
 11
177.0274494083
 21
193.0659887997
 31
0.0
  0
LINE
  5
166
330
1F
100
AcDbEntity
  8
0
  6
Continuous
 62
     7
370
    15
100
AcDbLine
 10
177.0274494083
 20
193.0659887997
 30
0.0
 11
177.2274490685
 21
193.0659887997
 31
0.0
  0
LINE
  5
167
330
1F
100
AcDbEntity
  8
0
  6
Continuous
 62
     7
370
    15
100
AcDbLine
 10
177.0274494083
 20
193.1859878508
 30
0.0
 11
177.2274490685
 21
193.1859878508
 31
0.0
  0
LINE
  5
168
330
1F
100
AcDbEntity
  8
0
  6
Continuous
 62
     7
370
    15
100
AcDbLine
 10
179.8274491222
 20
193.4259889332
 30
0.0
 11
177.2274490685
 21
193.4259889332
 31
0.0
  0
LINE
  5
169
330
1F
100
AcDbEntity
  8
0
  6
Continuous
 62
     7
370
    15
100
AcDbLine
 10
177.0274494083
 20
193.2259885279
 30
0.0
 11
177.0274494083
 21
193.1859878508
 31
0.0
  0
LINE
  5
16A
330
1F
100
AcDbEntity
  8
0
  6
Continuous
 62
     7
370
    15
100
AcDbLine
 10
177.0274494083
 20
193.0659887997
 30
0.0
 11
177.0274494083
 21
192.9259864298
 31
0.0
  0
ARC
  5
16B
330
1F
100
AcDbEntity
  8
0
  6
Continuous
 62
     7
370
    15
100
AcDbCircle
 10
177.2274493815
 20
193.225987826
 30
0.0
 40
0.1999999999999886
100
AcDbArc
 50
90.0
 51
180.0
  0
LINE
  5
16C
330
1F
100
AcDbEntity
  8
0
  6
Continuous
 62
     7
370
    15
100
AcDbLine
 10
179.0274497361
 20
193.19598653
 30
0.0
 11
179.0274497361
 21
193.1859878508
 31
0.0
  0
LINE
  5
16D
330
1F
100
AcDbEntity
  8
0
  6
Continuous
 62
     7
370
    15
100
AcDbLine
 10
179.0274497361
 20
193.0659887997
 30
0.0
 11
179.0274497361
 21
193.0559871403
 31
0.0
  0
LINE
  5
16E
330
1F
100
AcDbEntity
  8
0
  6
Continuous
 62
     7
370
    15
100
AcDbLine
 10
179.0274497361
 20
193.0559871403
 30
0.0
 11
179.7274496646
 21
193.0559871403
 31
0.0
  0
LINE
  5
16F
330
1F
100
AcDbEntity
  8
0
  6
Continuous
 62
     7
370
    15
100
AcDbLine
 10
179.7274496646
 20
193.0559871403
 30
0.0
 11
179.7274496646
 21
193.0659887997
 31
0.0
  0
LINE
  5
170
330
1F
100
AcDbEntity
  8
0
  6
Continuous
 62
     7
370
    15
100
AcDbLine
 10
179.7274496646
 20
193.1859878508
 30
0.0
 11
179.7274496646
 21
193.19598653
 31
0.0
  0
LINE
  5
171
330
1F
100
AcDbEntity
  8
0
  6
Continuous
 62
     7
370
    15
100
AcDbLine
 10
179.7274496646
 20
193.19598653
 30
0.0
 11
179.0274497361
 21
193.19598653
 31
0.0
  0
LINE
  5
172
330
1F
100
AcDbEntity
  8
0
  6
Continuous
 62
     7
370
    15
100
AcDbLine
 10
178.0274491996
 20
193.0559871403
 30
0.0
 11
178.0274491996
 21
193.0659887997
 31
0.0
  0
LINE
  5
173
330
1F
100
AcDbEntity
  8
0
  6
Continuous
 62
     7
370
    15
100
AcDbLine
 10
178.0274491996
 20
193.1859878508
 30
0.0
 11
178.0274491996
 21
193.19598653
 31
0.0
  0
LINE
  5
174
330
1F
100
AcDbEntity
  8
0
  6
Continuous
 62
     7
370
    15
100
AcDbLine
 10
178.0274491996
 20
193.19598653
 30
0.0
 11
177.3274492712
 21
193.19598653
 31
0.0
  0
LINE
  5
175
330
1F
100
AcDbEntity
  8
0
  6
Continuous
 62
     7
370
    15
100
AcDbLine
 10
180.0274495275
 20
192.9259864298
 30
0.0
 11
180.0274495275
 21
193.0659887997
 31
0.0
  0
LINE
  5
176
330
1F
100
AcDbEntity
  8
0
  6
Continuous
 62
     7
370
    15
100
AcDbLine
 10
180.0274495275
 20
193.1859878508
 30
0.0
 11
180.0274495275
 21
193.2259885279
 31
0.0
  0
LINE
  5
177
330
1F
100
AcDbEntity
  8
0
  6
Continuous
 62
     7
370
    15
100
AcDbLine
 10
177.3274492712
 20
193.0559871403
 30
0.0
 11
178.0274491996
 21
193.0559871403
 31
0.0
  0
ARC
  5
178
330
1F
100
AcDbEntity
  8
0
  6
Continuous
 62
     7
370
    15
100
AcDbCircle
 10
179.8274493815
 20
193.225987826
 30
0.0
 40
0.1999999999999886
100
AcDbArc
 50
0.0
 51
90.0
  0
LINE
  5
179
330
1F
100
AcDbEntity
  8
0
  6
Continuous
 62
     7
370
    15
100
AcDbLine
 10
177.3274492712
 20
193.19598653
 30
0.0
 11
177.3274492712
 21
193.1859878508
 31
0.0
  0
LINE
  5
17A
330
1F
100
AcDbEntity
  8
0
  6
Continuous
 62
     7
370
    15
100
AcDbLine
 10
177.3274492712
 20
193.0659887997
 30
0.0
 11
177.3274492712
 21
193.0559871403
 31
0.0
  0
ARC
  5
17B
330
1F
100
AcDbEntity
  8
0
  6
Continuous
 62
     7
370
    15
100
AcDbCircle
 10
179.8774493815
 20
193.275987826
 30
0.0
 40
0.1500000000000057
100
AcDbArc
 50
0.0
 51
90.0
  0
ARC
  5
17C
330
1F
100
AcDbEntity
  8
0
  6
Continuous
 62
     7
370
    15
100
AcDbCircle
 10
177.1774493815
 20
193.275987826
 30
0.0
 40
0.1500000000000057
100
AcDbArc
 50
90.0
 51
180.0
  0
LINE
  5
17D
330
1F
100
AcDbEntity
  8
0
  6
Continuous
 62
     7
370
    15
100
AcDbLine
 10
111.2274464459
 20
177.2259881405
 30
0.0
 11
111.652451405
 21
177.2259881405
 31
0.0
  0
LINE
  5
17E
330
1F
100
AcDbEntity
  8
0
  6
Continuous
 62
     7
370
    15
100
AcDbLine
 10
113.7274500222
 20
177.2259881405
 30
0.0
 11
111.652451405
 21
177.2259881405
 31
0.0
  0
ARC
  5
17F
330
1F
100
AcDbEntity
  8
0
  6
Continuous
 62
     7
370
    15
100
AcDbCircle
 10
113.7274493815
 20
176.725987826
 30
0.0
 40
0.5
100
AcDbArc
 50
0.0
 51
90.0
  0
LINE
  5
180
330
1F
100
AcDbEntity
  8
0
  6
Continuous
 62
     7
370
    15
100
AcDbLine
 10
111.652451405
 20
175.2259878127
 30
0.0
 11
114.2274495453
 21
175.2259878127
 31
0.0
  0
LINE
  5
181
330
1F
100
AcDbEntity
  8
0
  6
Continuous
 62
     7
370
    15
100
AcDbLine
 10
114.2274495453
 20
175.2259878127
 30
0.0
 11
114.2274495453
 21
176.7259878723
 31
0.0
  0
LINE
  5
182
330
1F
100
AcDbEntity
  8
0
  6
Continuous
 62
     7
370
    15
100
AcDbLine
 10
245.6274505944
 20
190.6509874073
 30
0.0
 11
245.6274505944
 21
192.7009878365
 31
0.0
  0
LINE
  5
183
330
1F
100
AcDbEntity
  8
0
  6
Continuous
 62
     7
370
    15
100
AcDbLine
 10
242.8274508805
 20
193.1259868351
 30
0.0
 11
242.8274508805
 21
192.9259864298
 31
0.0
  0
LINE
  5
184
330
1F
100
AcDbEntity
  8
0
  6
Continuous
 62
     7
370
    15
100
AcDbLine
 10
242.8274508805
 20
193.1259868351
 30
0.0
 11
243.3274504037
 21
193.1259868351
 31
0.0
  0
LINE
  5
185
330
1F
100
AcDbEntity
  8
0
  6
Continuous
 62
     7
370
    15
100
AcDbLine
 10
243.3274504037
 20
192.9259864298
 30
0.0
 11
245.4024490208
 21
192.9259864298
 31
0.0
  0
LINE
  5
186
330
1F
100
AcDbEntity
  8
0
  6
Continuous
 62
     7
370
    15
100
AcDbLine
 10
243.3274504037
 20
193.1259868351
 30
0.0
 11
245.4024490208
 21
193.1259868351
 31
0.0
  0
ARC
  5
187
330
1F
100
AcDbEntity
  8
0
  6
Continuous
 62
     7
370
    15
100
AcDbCircle
 10
246.0524493815
 20
190.650987826
 30
0.0
 40
0.4250000000000114
100
AcDbArc
 50
180.0
 51
238.0342812492
  0
ARC
  5
188
330
1F
100
AcDbEntity
  8
0
  6
Continuous
 62
     7
370
    15
100
AcDbCircle
 10
245.4024493815
 20
192.700987826
 30
0.0
 40
0.2249999999999659
100
AcDbArc
 50
360.0
 51
90.0
  0
ARC
  5
189
330
1F
100
AcDbEntity
  8
0
  6
Continuous
 62
     7
370
    15
100
AcDbCircle
 10
245.4024493815
 20
192.700987826
 30
0.0
 40
0.4249999999999829
100
AcDbArc
 50
360.0
 51
90.0
  0
LINE
  5
18A
330
1F
100
AcDbEntity
  8
0
  6
Continuous
 62
     7
370
    15
100
AcDbLine
 10
245.4024490208
 20
193.1259868351
 30
0.0
 11
245.4274472088
 21
193.1259868351
 31
0.0
  0
ARC
  5
18B
330
1F
100
AcDbEntity
  8
0
  6
Continuous
 62
     7
370
    15
100
AcDbCircle
 10
245.4274493815
 20
192.725987826
 30
0.0
 40
0.4000000000000057
100
AcDbArc
 50
0.0
 51
90.0
  0
LINE
  5
18C
330
1F
100
AcDbEntity
  8
0
  6
Continuous
 62
     7
370
    15
100
AcDbLine
 10
242.8274508805
 20
175.2259878127
 30
0.0
 11
242.8274508805
 21
175.0259881524
 31
0.0
  0
LINE
  5
18D
330
1F
100
AcDbEntity
  8
0
  6
Continuous
 62
     7
370
    15
100
AcDbLine
 10
242.8274508805
 20
175.2259878127
 30
0.0
 11
245.4274472088
 21
175.2259878127
 31
0.0
  0
LINE
  5
18E
330
1F
100
AcDbEntity
  8
0
  6
Continuous
 62
     7
370
    15
100
AcDbLine
 10
245.4274472088
 20
175.2259878127
 30
0.0
 11
245.8274480195
 21
175.2259878127
 31
0.0
  0
LINE
  5
18F
330
1F
100
AcDbEntity
  8
0
  6
Continuous
 62
     7
370
    15
100
AcDbLine
 10
114.2274495453
 20
175.0259881524
 30
0.0
 11
114.2274495453
 21
175.2259878127
 31
0.0
  0
LINE
  5
190
330
1F
100
AcDbEntity
  8
0
  6
Continuous
 62
     7
370
    15
100
AcDbLine
 10
114.2274495453
 20
175.2259878127
 30
0.0
 11
111.6274472565
 21
175.2259878127
 31
0.0
  0
LINE
  5
191
330
1F
100
AcDbEntity
  8
0
  6
Continuous
 62
     7
370
    15
100
AcDbLine
 10
111.6274472565
 20
175.2259878127
 30
0.0
 11
111.2274464459
 21
175.2259878127
 31
0.0
  0
ARC
  5
192
330
1F
100
AcDbEntity
  8
0
  6
Continuous
 62
     7
370
    15
100
AcDbCircle
 10
111.6261026739
 20
192.675987826
 30
0.0
 40
0.4000000000000057
100
AcDbArc
 50
90.0
 51
175.2970949082
  0
LINE
  5
193
330
1F
100
AcDbEntity
  8
0
  6
Continuous
 62
     7
370
    15
100
AcDbLine
 10
111.65110434
 20
193.0759874789
 30
0.0
 11
111.6261001916
 21
193.0759874789
 31
0.0
  0
LINE
  5
194
330
1F
100
AcDbEntity
  8
0
  6
Continuous
 62
     7
370
    15
100
AcDbLine
 10
245.6274505944
 20
192.1259877888
 30
0.0
 11
245.6274505944
 21
192.3259881941
 31
0.0
  0
LINE
  5
195
330
1F
100
AcDbEntity
  8
0
  6
Continuous
 62
     7
370
    15
100
AcDbLine
 10
245.6274505944
 20
192.1259877888
 30
0.0
 11
245.3274484963
 21
192.1259877888
 31
0.0
  0
LINE
  5
196
330
1F
100
AcDbEntity
  8
0
  6
Continuous
 62
     7
370
    15
100
AcDbLine
 10
245.6274505944
 20
192.3259881941
 30
0.0
 11
245.3274484963
 21
192.3259881941
 31
0.0
  0
LINE
  5
197
330
1F
100
AcDbEntity
  8
0
  6
Continuous
 62
     7
370
    15
100
AcDbLine
 10
111.4261027665
 20
192.2759888379
 30
0.0
 11
111.4261027665
 21
192.0759884325
 31
0.0
  0
LINE
  5
198
330
1F
100
AcDbEntity
  8
0
  6
Continuous
 62
     7
370
    15
100
AcDbLine
 10
111.4261027665
 20
192.2759888379
 30
0.0
 11
111.8274506421
 21
192.2759888379
 31
0.0
  0
LINE
  5
199
330
1F
100
AcDbEntity
  8
0
  6
Continuous
 62
     7
370
    15
100
AcDbLine
 10
111.4261027665
 20
192.0759884325
 30
0.0
 11
111.8274506421
 21
192.0759884325
 31
0.0
  0
LINE
  5
19A
330
1F
100
AcDbEntity
  8
0
  6
Continuous
 62
     7
370
    15
100
AcDbLine
 10
242.8274508805
 20
176.7259878723
 30
0.0
 11
242.8274508805
 21
175.2259878127
 31
0.0
  0
ARC
  5
19B
330
1F
100
AcDbEntity
  8
0
  6
Continuous
 62
     7
370
    15
100
AcDbCircle
 10
243.3274493815
 20
176.725987826
 30
0.0
 40
0.5
100
AcDbArc
 50
90.0
 51
180.0
  0
LINE
  5
19C
330
1F
100
AcDbEntity
  8
0
  6
Continuous
 62
     7
370
    15
100
AcDbLine
 10
242.8274508805
 20
175.2259878127
 30
0.0
 11
245.4024490208
 21
175.2259878127
 31
0.0
  0
LINE
  5
19D
330
1F
100
AcDbEntity
  8
0
  6
Continuous
 62
     7
370
    15
100
AcDbLine
 10
245.4024490208
 20
177.2259881405
 30
0.0
 11
243.3274504037
 21
177.2259881405
 31
0.0
  0
LINE
  5
19E
330
1F
100
AcDbEntity
  8
0
  6
Continuous
 62
     7
370
    15
100
AcDbLine
 10
245.4024490208
 20
177.2259881405
 30
0.0
 11
245.8274480195
 21
177.2259881405
 31
0.0
  0
ARC
  5
19F
330
1F
100
AcDbEntity
  8
0
  6
Continuous
 62
     7
370
    15
100
AcDbCircle
 10
111.6511026739
 20
192.650987826
 30
0.0
 40
0.2249999999999943
100
AcDbArc
 50
90.0
 51
180.0
  0
ARC
  5
1A0
330
1F
100
AcDbEntity
  8
0
  6
Continuous
 62
     7
370
    15
100
AcDbCircle
 10
111.6511026739
 20
192.650987826
 30
0.0
 40
0.4249999999999912
100
AcDbArc
 50
90.0
 51
175.4375872843
  0
LINE
  5
1A1
330
1F
100
AcDbEntity
  8
0
  6
Continuous
 62
     7
370
    15
100
AcDbLine
 10
111.4261027665
 20
190.6009880511
 30
0.0
 11
111.4261027665
 21
192.6509884802
 31
0.0
  0
LINE
  5
1A2
330
1F
100
AcDbEntity
  8
0
  6
Continuous
 62
     7
370
    15
100
AcDbLine
 10
111.65110434
 20
193.0759874789
 30
0.0
 11
113.7261029572
 21
193.0759874789
 31
0.0
  0
LINE
  5
1A3
330
1F
100
AcDbEntity
  8
0
  6
Continuous
 62
     7
370
    15
100
AcDbLine
 10
111.65110434
 20
192.8759870736
 30
0.0
 11
111.8274506421
 21
192.8759870736
 31
0.0
  0
ARC
  5
1A4
330
1F
100
AcDbEntity
  8
0
  6
Continuous
 62
     7
370
    15
100
AcDbCircle
 10
111.0011026739
 20
190.600987826
 30
0.0
 40
0.4249999999999972
100
AcDbArc
 50
302.1799744126
 51
0.0
  0
LINE
  5
1A5
330
1F
100
AcDbEntity
  8
0
  6
Continuous
 62
     7
370
    15
100
AcDbLine
 10
114.2261024804
 20
193.0759874789
 30
0.0
 11
114.2261024804
 21
192.9259864298
 31
0.0
  0
LINE
  5
1A6
330
1F
100
AcDbEntity
  8
0
  6
Continuous
 62
     7
370
    15
100
AcDbLine
 10
113.7261029572
 20
193.0759874789
 30
0.0
 11
114.2261024804
 21
193.0759874789
 31
0.0
  0
LINE
  5
1A7
330
1F
100
AcDbEntity
  8
0
  6
Continuous
 62
     7
370
    15
100
AcDbLine
 10
108.2274493069
 20
193.2759878842
 30
0.0
 11
108.2274493069
 21
175.4259874729
 31
0.0
  0
ARC
  5
1A8
330
1F
100
AcDbEntity
  8
0
  6
Continuous
 62
     7
370
    15
100
AcDbCircle
 10
108.3774493815
 20
193.275987826
 30
0.0
 40
0.1500000000000199
100
AcDbArc
 50
90.0
 51
180.0
  0
LINE
  5
1A9
330
1F
100
AcDbEntity
  8
0
  6
Continuous
 62
     7
370
    15
100
AcDbLine
 10
111.0774513573
 20
193.4259889332
 30
0.0
 11
108.377450356
 21
193.4259889332
 31
0.0
  0
LINE
  5
1AA
330
1F
100
AcDbEntity
  8
0
  6
Continuous
 62
     7
370
    15
100
AcDbLine
 10
108.2274493069
 20
175.4259874729
 30
0.0
 11
108.2274493069
 21
175.0259881524
 31
0.0
  0
LINE
  5
1AB
330
1F
100
AcDbEntity
  8
0
  6
Continuous
 62
     7
370
    15
100
AcDbLine
 10
111.2274464459
 20
175.4259874729
 30
0.0
 11
111.2274464459
 21
175.0259881524
 31
0.0
  0
LINE
  5
1AC
330
1F
100
AcDbEntity
  8
0
  6
Continuous
 62
     7
370
    15
100
AcDbLine
 10
111.2274464459
 20
193.2759878842
 30
0.0
 11
111.2274464459
 21
175.4259874729
 31
0.0
  0
ARC
  5
1AD
330
1F
100
AcDbEntity
  8
0
  6
Continuous
 62
     7
370
    15
100
AcDbCircle
 10
111.0774493815
 20
193.275987826
 30
0.0
 40
0.1500000000000057
100
AcDbArc
 50
0.0
 51
90.0
  0
LINE
  5
1AE
330
1F
100
AcDbEntity
  8
0
  6
Continuous
 62
     7
370
    15
100
AcDbLine
 10
245.8274480195
 20
175.4259874729
 30
0.0
 11
245.8274480195
 21
175.0259881524
 31
0.0
  0
LINE
  5
1AF
330
1F
100
AcDbEntity
  8
0
  6
Continuous
 62
     7
370
    15
100
AcDbLine
 10
248.6774500699
 20
193.4259889332
 30
0.0
 11
245.9774490685
 21
193.4259889332
 31
0.0
  0
LINE
  5
1B0
330
1F
100
AcDbEntity
  8
0
  6
Continuous
 62
     7
370
    15
100
AcDbLine
 10
245.8274480195
 20
193.2759878842
 30
0.0
 11
245.8274480195
 21
175.4259874729
 31
0.0
  0
ARC
  5
1B1
330
1F
100
AcDbEntity
  8
0
  6
Continuous
 62
     7
370
    15
100
AcDbCircle
 10
245.9774493815
 20
193.275987826
 30
0.0
 40
0.1500000000000057
100
AcDbArc
 50
90.0
 51
180.0
  0
LINE
  5
1B2
330
1F
100
AcDbEntity
  8
0
  6
Continuous
 62
     7
370
    15
100
AcDbLine
 10
248.8274511189
 20
175.4259874729
 30
0.0
 11
248.8274511189
 21
175.0259881524
 31
0.0
  0
LINE
  5
1B3
330
1F
100
AcDbEntity
  8
0
  6
Continuous
 62
     7
370
    15
100
AcDbLine
 10
248.8274511189
 20
193.2759878842
 30
0.0
 11
248.8274511189
 21
175.4259874729
 31
0.0
  0
ARC
  5
1B4
330
1F
100
AcDbEntity
  8
0
  6
Continuous
 62
     7
370
    15
100
AcDbCircle
 10
248.6774493815
 20
193.275987826
 30
0.0
 40
0.1500000000000057
100
AcDbArc
 50
0.0
 51
90.0
  0
LINE
  5
1B5
330
1F
100
AcDbEntity
  8
0
  6
Continuous
 62
     7
370
    15
100
AcDbLine
 10
263.327210793
 20
203.2738743035
 30
0.0
 11
263.327210793
 21
203.1546769349
 31
0.0
  0
LINE
  5
1B6
330
1F
100
AcDbEntity
  8
0
  6
Continuous
 62
     7
370
    15
100
AcDbLine
 10
263.327210793
 20
206.0080883709
 30
0.0
 11
263.327210793
 21
203.2738743035
 31
0.0
  0
LINE
  5
1B7
330
1F
100
AcDbEntity
  8
0
  6
Continuous
 62
     7
370
    15
100
AcDbLine
 10
263.327210793
 20
203.1546769349
 30
0.0
 11
263.327210793
 21
202.5512901751
 31
0.0
  0
LINE
  5
1B8
330
1F
100
AcDbEntity
  8
0
  6
Continuous
 62
     7
370
    15
100
AcDbLine
 10
263.327210793
 20
206.0865400044
 30
0.0
 11
263.327210793
 21
206.0080883709
 31
0.0
  0
LINE
  5
1B9
330
1F
100
AcDbEntity
  8
0
  6
Continuous
 62
     7
370
    15
100
AcDbLine
 10
263.327210793
 20
202.5512901751
 30
0.0
 11
263.327210793
 21
202.5489417521
 31
0.0
  0
LINE
  5
1BA
330
1F
100
AcDbEntity
  8
0
  6
Continuous
 62
     7
370
    15
100
AcDbLine
 10
263.327210793
 20
200.8617369143
 30
0.0
 11
263.327210793
 21
200.7425365654
 31
0.0
  0
LINE
  5
1BB
330
1F
100
AcDbEntity
  8
0
  6
Continuous
 62
     7
370
    15
100
AcDbLine
 10
263.327210793
 20
202.5489417521
 30
0.0
 11
263.327210793
 21
200.8617369143
 31
0.0
  0
LINE
  5
1BC
330
1F
100
AcDbEntity
  8
0
  6
Continuous
 62
     7
370
    15
100
AcDbLine
 10
263.327210793
 20
200.7425365654
 30
0.0
 11
263.327210793
 21
200.1391498057
 31
0.0
  0
LINE
  5
1BD
330
1F
100
AcDbEntity
  8
0
  6
Continuous
 62
     7
370
    15
100
AcDbLine
 10
263.327210793
 20
200.1391498057
 30
0.0
 11
263.327210793
 21
200.1368013827
 31
0.0
  0
LINE
  5
1BE
330
1F
100
AcDbEntity
  8
0
  6
Continuous
 62
     7
370
    15
100
AcDbLine
 10
93.6872061581
 20
198.3702776638
 30
0.0
 11
93.6872061581
 21
198.489469072
 31
0.0
  0
LINE
  5
1BF
330
1F
100
AcDbEntity
  8
0
  6
Continuous
 62
     7
370
    15
100
AcDbLine
 10
93.6872061581
 20
198.489469072
 30
0.0
 11
93.6872061581
 21
200.1368013827
 31
0.0
  0
LINE
  5
1C0
330
1F
100
AcDbEntity
  8
0
  6
Continuous
 62
     7
370
    15
100
AcDbLine
 10
93.6872061581
 20
197.7672276703
 30
0.0
 11
93.6872061581
 21
198.3702776638
 31
0.0
  0
LINE
  5
1C1
330
1F
100
AcDbEntity
  8
0
  6
Continuous
 62
     7
370
    15
100
AcDbLine
 10
93.6872061581
 20
197.7648822276
 30
0.0
 11
93.6872061581
 21
197.7672276703
 31
0.0
  0
LINE
  5
1C2
330
1F
100
AcDbEntity
  8
0
  6
Continuous
 62
     7
370
    15
100
AcDbLine
 10
263.327210793
 20
198.489469072
 30
0.0
 11
263.327210793
 21
198.3702776638
 31
0.0
  0
LINE
  5
1C3
330
1F
100
AcDbEntity
  8
0
  6
Continuous
 62
     7
370
    15
100
AcDbLine
 10
263.327210793
 20
200.1368013827
 30
0.0
 11
263.327210793
 21
198.489469072
 31
0.0
  0
LINE
  5
1C4
330
1F
100
AcDbEntity
  8
0
  6
Continuous
 62
     7
370
    15
100
AcDbLine
 10
263.327210793
 20
198.3702776638
 30
0.0
 11
263.327210793
 21
197.7672276703
 31
0.0
  0
LINE
  5
1C5
330
1F
100
AcDbEntity
  8
0
  6
Continuous
 62
     7
370
    15
100
AcDbLine
 10
263.327210793
 20
197.7672276703
 30
0.0
 11
263.327210793
 21
197.7648822276
 31
0.0
  0
LINE
  5
1C6
330
1F
100
AcDbEntity
  8
0
  6
Continuous
 62
     7
370
    15
100
AcDbLine
 10
93.6872061581
 20
200.7425365654
 30
0.0
 11
93.6872061581
 21
200.8617369143
 31
0.0
  0
LINE
  5
1C7
330
1F
100
AcDbEntity
  8
0
  6
Continuous
 62
     7
370
    15
100
AcDbLine
 10
93.6872061581
 20
200.8617369143
 30
0.0
 11
93.6872061581
 21
202.5489417521
 31
0.0
  0
LINE
  5
1C8
330
1F
100
AcDbEntity
  8
0
  6
Continuous
 62
     7
370
    15
100
AcDbLine
 10
93.6872061581
 20
200.1391498057
 30
0.0
 11
93.6872061581
 21
200.7425365654
 31
0.0
  0
LINE
  5
1C9
330
1F
100
AcDbEntity
  8
0
  6
Continuous
 62
     7
370
    15
100
AcDbLine
 10
93.6872061581
 20
200.1368013827
 30
0.0
 11
93.6872061581
 21
200.1391498057
 31
0.0
  0
LINE
  5
1CA
330
1F
100
AcDbEntity
  8
0
  6
Continuous
 62
     7
370
    15
100
AcDbLine
 10
93.6872061581
 20
203.1546769349
 30
0.0
 11
93.6872061581
 21
203.2738743035
 31
0.0
  0
LINE
  5
1CB
330
1F
100
AcDbEntity
  8
0
  6
Continuous
 62
     7
370
    15
100
AcDbLine
 10
93.6872061581
 20
203.2738743035
 30
0.0
 11
93.6872061581
 21
206.0080883709
 31
0.0
  0
LINE
  5
1CC
330
1F
100
AcDbEntity
  8
0
  6
Continuous
 62
     7
370
    15
100
AcDbLine
 10
93.6872061581
 20
202.5512901751
 30
0.0
 11
93.6872061581
 21
203.1546769349
 31
0.0
  0
LINE
  5
1CD
330
1F
100
AcDbEntity
  8
0
  6
Continuous
 62
     7
370
    15
100
AcDbLine
 10
93.6872061581
 20
206.0080883709
 30
0.0
 11
93.6872061581
 21
206.0865400044
 31
0.0
  0
LINE
  5
1CE
330
1F
100
AcDbEntity
  8
0
  6
Continuous
 62
     7
370
    15
100
AcDbLine
 10
93.6872061581
 20
202.5489417521
 30
0.0
 11
93.6872061581
 21
202.5512901751
 31
0.0
  0
LINE
  5
1CF
330
1F
100
AcDbEntity
  8
0
  6
Continuous
 62
     7
370
    15
100
AcDbLine
 10
178.6572087795
 20
200.296315333
 30
0.0
 11
178.6572087795
 21
196.1359886137
 31
0.0
  0
LINE
  5
1D0
330
1F
100
AcDbEntity
  8
0
  6
Continuous
 62
     7
370
    15
100
AcDbLine
 10
178.3572081716
 20
200.296315333
 30
0.0
 11
178.3572081716
 21
196.1359886137
 31
0.0
  0
LINE
  5
1D1
330
1F
100
AcDbEntity
  8
0
  6
Continuous
 62
     7
370
    15
100
AcDbLine
 10
178.6572087795
 20
200.6792155711
 30
0.0
 11
178.6572087795
 21
200.296315333
 31
0.0
  0
LINE
  5
1D2
330
1F
100
AcDbEntity
  8
0
  6
Continuous
 62
     7
370
    15
100
AcDbLine
 10
178.3572081716
 20
200.6792155711
 30
0.0
 11
178.3572081716
 21
200.296315333
 31
0.0
  0
LINE
  5
1D3
330
1F
100
AcDbEntity
  8
0
  6
Continuous
 62
     7
370
    15
100
AcDbLine
 10
178.6572087795
 20
204.9505022971
 30
0.0
 11
178.6572087795
 21
200.6792155711
 31
0.0
  0
LINE
  5
1D4
330
1F
100
AcDbEntity
  8
0
  6
Continuous
 62
     7
370
    15
100
AcDbLine
 10
178.3572081716
 20
204.9505022971
 30
0.0
 11
178.3572081716
 21
200.6792155711
 31
0.0
  0
LINE
  5
1D5
330
1F
100
AcDbEntity
  8
0
  6
Continuous
 62
     7
370
    15
100
AcDbLine
 10
178.6572087795
 20
205.3334025351
 30
0.0
 11
178.6572087795
 21
204.9505022971
 31
0.0
  0
LINE
  5
1D6
330
1F
100
AcDbEntity
  8
0
  6
Continuous
 62
     7
370
    15
100
AcDbLine
 10
178.3572081716
 20
205.3334025351
 30
0.0
 11
178.3572081716
 21
204.9505022971
 31
0.0
  0
LINE
  5
1D7
330
1F
100
AcDbEntity
  8
0
  6
Continuous
 62
     7
370
    15
100
AcDbLine
 10
247.4572059006
 20
200.296315333
 30
0.0
 11
247.4572059006
 21
196.1359886137
 31
0.0
  0
LINE
  5
1D8
330
1F
100
AcDbEntity
  8
0
  6
Continuous
 62
     7
370
    15
100
AcDbLine
 10
247.157209763
 20
200.296315333
 30
0.0
 11
247.157209763
 21
196.1359886137
 31
0.0
  0
LINE
  5
1D9
330
1F
100
AcDbEntity
  8
0
  6
Continuous
 62
     7
370
    15
100
AcDbLine
 10
247.4572059006
 20
200.6792155711
 30
0.0
 11
247.4572059006
 21
200.296315333
 31
0.0
  0
LINE
  5
1DA
330
1F
100
AcDbEntity
  8
0
  6
Continuous
 62
     7
370
    15
100
AcDbLine
 10
247.157209763
 20
200.6792155711
 30
0.0
 11
247.157209763
 21
200.296315333
 31
0.0
  0
LINE
  5
1DB
330
1F
100
AcDbEntity
  8
0
  6
Continuous
 62
     7
370
    15
100
AcDbLine
 10
247.4572059006
 20
204.9505022971
 30
0.0
 11
247.4572059006
 21
200.6792155711
 31
0.0
  0
LINE
  5
1DC
330
1F
100
AcDbEntity
  8
0
  6
Continuous
 62
     7
370
    15
100
AcDbLine
 10
247.157209763
 20
204.9505022971
 30
0.0
 11
247.157209763
 21
200.6792155711
 31
0.0
  0
LINE
  5
1DD
330
1F
100
AcDbEntity
  8
0
  6
Continuous
 62
     7
370
    15
100
AcDbLine
 10
247.4572059006
 20
205.3334025351
 30
0.0
 11
247.4572059006
 21
204.9505022971
 31
0.0
  0
LINE
  5
1DE
330
1F
100
AcDbEntity
  8
0
  6
Continuous
 62
     7
370
    15
100
AcDbLine
 10
247.157209763
 20
205.3334025351
 30
0.0
 11
247.157209763
 21
204.9505022971
 31
0.0
  0
LINE
  5
1DF
330
1F
100
AcDbEntity
  8
0
  6
Continuous
 62
     7
370
    15
100
AcDbLine
 10
109.8572071881
 20
200.296315333
 30
0.0
 11
109.8572071881
 21
196.1359886137
 31
0.0
  0
LINE
  5
1E0
330
1F
100
AcDbEntity
  8
0
  6
Continuous
 62
     7
370
    15
100
AcDbLine
 10
109.5572110505
 20
200.296315333
 30
0.0
 11
109.5572110505
 21
196.1359886137
 31
0.0
  0
LINE
  5
1E1
330
1F
100
AcDbEntity
  8
0
  6
Continuous
 62
     7
370
    15
100
AcDbLine
 10
109.8572071881
 20
200.6792155711
 30
0.0
 11
109.8572071881
 21
200.296315333
 31
0.0
  0
LINE
  5
1E2
330
1F
100
AcDbEntity
  8
0
  6
Continuous
 62
     7
370
    15
100
AcDbLine
 10
109.5572110505
 20
200.6792155711
 30
0.0
 11
109.5572110505
 21
200.296315333
 31
0.0
  0
LINE
  5
1E3
330
1F
100
AcDbEntity
  8
0
  6
Continuous
 62
     7
370
    15
100
AcDbLine
 10
109.8572071881
 20
204.9505022971
 30
0.0
 11
109.8572071881
 21
200.6792155711
 31
0.0
  0
LINE
  5
1E4
330
1F
100
AcDbEntity
  8
0
  6
Continuous
 62
     7
370
    15
100
AcDbLine
 10
109.5572110505
 20
204.9505022971
 30
0.0
 11
109.5572110505
 21
200.6792155711
 31
0.0
  0
LINE
  5
1E5
330
1F
100
AcDbEntity
  8
0
  6
Continuous
 62
     7
370
    15
100
AcDbLine
 10
109.8572071881
 20
205.3334025351
 30
0.0
 11
109.8572071881
 21
204.9505022971
 31
0.0
  0
LINE
  5
1E6
330
1F
100
AcDbEntity
  8
0
  6
Continuous
 62
     7
370
    15
100
AcDbLine
 10
109.5572110505
 20
205.3334025351
 30
0.0
 11
109.5572110505
 21
204.9505022971
 31
0.0
  0
ARC
  5
1E7
330
1F
100
AcDbEntity
  8
0
  6
Continuous
 62
     7
370
    15
100
AcDbCircle
 10
178.857037334
 20
202.5798181938
 30
0.0
 40
0.5102085918125178
100
AcDbArc
 50
89.9807850391
 51
113.0578603684
  0
ARC
  5
1E8
330
1F
100
AcDbEntity
  8
0
  6
Continuous
 62
     7
370
    15
100
AcDbCircle
 10
178.8548854263
 20
202.5993986033
 30
0.0
 40
0.1976909340551083
100
AcDbArc
 50
89.3267170672
 51
179.3111545468
  0
ARC
  5
1E9
330
1F
100
AcDbEntity
  8
0
  6
Continuous
 62
     7
370
    15
100
AcDbCircle
 10
178.8548854263
 20
202.1253092192
 30
0.0
 40
0.197690934055221
100
AcDbArc
 50
89.3267170673
 51
179.3111545468
  0
LINE
  5
1EA
330
1F
100
AcDbEntity
  8
0
  6
Continuous
 62
     7
370
    15
100
AcDbLine
 10
178.8572084398
 20
203.0900267569
 30
0.0
 11
181.7572083563
 21
203.0900267569
 31
0.0
  0
LINE
  5
1EB
330
1F
100
AcDbEntity
  8
0
  6
Continuous
 62
     7
370
    15
100
AcDbLine
 10
178.8572084398
 20
202.7970758883
 30
0.0
 11
181.7572083563
 21
202.7970758883
 31
0.0
  0
ARC
  5
1EC
330
1F
100
AcDbEntity
  8
0
  6
Continuous
 62
     7
370
    15
100
AcDbCircle
 10
181.8048838911
 20
202.825657007
 30
0.0
 40
0.2686341774337855
100
AcDbArc
 50
55.4564000135
 51
100.2226516588
  0
LINE
  5
1ED
330
1F
100
AcDbEntity
  8
0
  6
Continuous
 62
     7
370
    15
100
AcDbLine
 10
181.9572083891
 20
203.0469296185
 30
0.0
 11
181.9572083891
 21
202.7539757697
 31
0.0
  0
ARC
  5
1EE
330
1F
100
AcDbEntity
  8
0
  6
Continuous
 62
     7
370
    15
100
AcDbCircle
 10
181.8048861042
 20
202.5327317078
 30
0.0
 40
0.2686094067830581
100
AcDbArc
 50
55.4533357291
 51
100.2240841713
  0
LINE
  5
1EF
330
1F
100
AcDbEntity
  8
0
  6
Continuous
 62
     7
370
    15
100
AcDbLine
 10
181.9572083891
 20
202.7539757697
 30
0.0
 11
181.9572083891
 21
202.3660866229
 31
0.0
  0
ARC
  5
1F0
330
1F
100
AcDbEntity
  8
0
  6
Continuous
 62
     7
370
    15
100
AcDbCircle
 10
181.8048841924
 20
202.5873395562
 30
0.0
 40
0.2686177980167248
100
AcDbArc
 50
259.7766530102
 51
304.5459270895
  0
LINE
  5
1F1
330
1F
100
AcDbEntity
  8
0
  6
Continuous
 62
     7
370
    15
100
AcDbLine
 10
181.7572083563
 20
202.3229865042
 30
0.0
 11
178.8572084398
 21
202.3229865042
 31
0.0
  0
LWPOLYLINE
  5
1F2
330
1F
100
AcDbEntity
  8
0
  6
Continuous
 62
     7
370
    15
100
AcDbPolyline
 90
       17
 70
   128
 43
0.0
 10
180.4572087021
 20
202.6354549138
 10
180.3615372867
 20
202.6395557133
 10
180.2804317565
 20
202.6512352435
 10
180.2262384684
 20
202.6687113253
 10
180.2072081954
 20
202.6893285719
 10
180.2262384684
 20
202.7099458186
 10
180.2804317565
 20
202.7274219004
 10
180.3615372867
 20
202.7391014306
 10
180.4572087021
 20
202.7432022301
 10
180.5528793723
 20
202.7391014306
 10
180.6339849026
 20
202.7274219004
 10
180.6881781907
 20
202.7099458186
 10
180.7072084636
 20
202.6893285719
 10
180.6881781907
 20
202.6687113253
 10
180.6339849026
 20
202.6512352435
 10
180.5528793723
 20
202.6395557133
 10
180.4572087021
 20
202.6354549138
  0
LWPOLYLINE
  5
1F3
330
1F
100
AcDbEntity
  8
0
  6
Continuous
 62
     7
370
    15
100
AcDbPolyline
 90
       17
 70
   128
 43
0.0
 10
180.4572087021
 20
202.4846074788
 10
180.5528793723
 20
202.4805066792
 10
180.6339849026
 20
202.4688301293
 10
180.6881781907
 20
202.4513510672
 10
180.7072084636
 20
202.4307338206
 10
180.6881781907
 20
202.410116574
 10
180.6339849026
 20
202.3926404921
 10
180.5528793723
 20
202.380960962
 10
180.4572087021
 20
202.3768601624
 10
180.3615372867
 20
202.380960962
 10
180.2804317565
 20
202.3926404921
 10
180.2262384684
 20
202.410116574
 10
180.2072081954
 20
202.4307338206
 10
180.2262384684
 20
202.4513510672
 10
180.2804317565
 20
202.4688301293
 10
180.3615372867
 20
202.4805066792
 10
180.4572087021
 20
202.4846074788
  0
LWPOLYLINE
  5
1F4
330
1F
100
AcDbEntity
  8
0
  6
Continuous
 62
     7
370
    15
100
AcDbPolyline
 90
       17
 70
   128
 43
0.0
 10
181.4572084934
 20
202.7432022301
 10
181.5528791637
 20
202.7391014306
 10
181.6339850665
 20
202.7274219004
 10
181.6881783546
 20
202.7099458186
 10
181.7072086275
 20
202.6893285719
 10
181.6881783546
 20
202.6687113253
 10
181.6339850665
 20
202.6512352435
 10
181.5528791637
 20
202.6395557133
 10
181.4572084934
 20
202.6354549138
 10
181.3615374506
 20
202.6395557133
 10
181.2804319204
 20
202.6512352435
 10
181.2262386323
 20
202.6687113253
 10
181.2072083593
 20
202.6893285719
 10
181.2262386323
 20
202.7099458186
 10
181.2804319204
 20
202.7274219004
 10
181.3615374506
 20
202.7391014306
 10
181.4572084934
 20
202.7432022301
  0
LWPOLYLINE
  5
1F5
330
1F
100
AcDbEntity
  8
0
  6
Continuous
 62
     7
370
    15
100
AcDbPolyline
 90
       17
 70
   128
 43
0.0
 10
181.4572084934
 20
202.3768601624
 10
181.3615374506
 20
202.380960962
 10
181.2804319204
 20
202.3926404921
 10
181.2262386323
 20
202.410116574
 10
181.2072083593
 20
202.4307338206
 10
181.2262386323
 20
202.4513510672
 10
181.2804319204
 20
202.4688301293
 10
181.3615374506
 20
202.4805066792
 10
181.4572084934
 20
202.4846074788
 10
181.5528791637
 20
202.4805066792
 10
181.6339850665
 20
202.4688301293
 10
181.6881783546
 20
202.4513510672
 10
181.7072086275
 20
202.4307338206
 10
181.6881783546
 20
202.410116574
 10
181.6339850665
 20
202.3926404921
 10
181.5528791637
 20
202.380960962
 10
181.4572084934
 20
202.3768601624
  0
ARC
  5
1F6
330
1F
100
AcDbEntity
  8
0
  6
Continuous
 62
     7
370
    15
100
AcDbCircle
 10
178.857037334
 20
200.1676778244
 30
0.0
 40
0.5102085918125178
100
AcDbArc
 50
89.9807850391
 51
113.0578603684
  0
ARC
  5
1F7
330
1F
100
AcDbEntity
  8
0
  6
Continuous
 62
     7
370
    15
100
AcDbCircle
 10
178.8548854263
 20
200.1872582339
 30
0.0
 40
0.1976909340551083
100
AcDbArc
 50
89.3267170672
 51
179.3111545468
  0
ARC
  5
1F8
330
1F
100
AcDbEntity
  8
0
  6
Continuous
 62
     7
370
    15
100
AcDbCircle
 10
178.8548854263
 20
199.7131688498
 30
0.0
 40
0.197690934055221
100
AcDbArc
 50
89.3267170673
 51
179.3111545468
  0
LINE
  5
1F9
330
1F
100
AcDbEntity
  8
0
  6
Continuous
 62
     7
370
    15
100
AcDbLine
 10
178.8572084398
 20
200.6778863875
 30
0.0
 11
181.7572083563
 21
200.6778863875
 31
0.0
  0
LINE
  5
1FA
330
1F
100
AcDbEntity
  8
0
  6
Continuous
 62
     7
370
    15
100
AcDbLine
 10
178.8572084398
 20
200.3849355189
 30
0.0
 11
181.7572083563
 21
200.3849355189
 31
0.0
  0
ARC
  5
1FB
330
1F
100
AcDbEntity
  8
0
  6
Continuous
 62
     7
370
    15
100
AcDbCircle
 10
181.8048930792
 20
200.4135592765
 30
0.0
 40
0.2685938465072438
100
AcDbArc
 50
55.4528569102
 51
100.2261947621
  0
LINE
  5
1FC
330
1F
100
AcDbEntity
  8
0
  6
Continuous
 62
     7
370
    15
100
AcDbLine
 10
181.9572083891
 20
200.6347892491
 30
0.0
 11
181.9572083891
 21
200.3418383805
 31
0.0
  0
ARC
  5
1FD
330
1F
100
AcDbEntity
  8
0
  6
Continuous
 62
     7
370
    15
100
AcDbCircle
 10
181.8048838911
 20
200.120565769
 30
0.0
 40
0.2686341774335498
100
AcDbArc
 50
55.4564000134
 51
100.2226516589
  0
LINE
  5
1FE
330
1F
100
AcDbEntity
  8
0
  6
Continuous
 62
     7
370
    15
100
AcDbLine
 10
181.9572083891
 20
200.3418383805
 30
0.0
 11
181.9572083891
 21
199.9539462534
 31
0.0
  0
ARC
  5
1FF
330
1F
100
AcDbEntity
  8
0
  6
Continuous
 62
     7
370
    15
100
AcDbCircle
 10
181.8048841924
 20
200.1751991867
 30
0.0
 40
0.2686177980167248
100
AcDbArc
 50
259.7766530102
 51
304.5459270895
  0
LINE
  5
200
330
1F
100
AcDbEntity
  8
0
  6
Continuous
 62
     7
370
    15
100
AcDbLine
 10
181.7572083563
 20
199.9108461348
 30
0.0
 11
178.8572084398
 21
199.9108461348
 31
0.0
  0
LWPOLYLINE
  5
201
330
1F
100
AcDbEntity
  8
0
  6
Continuous
 62
     7
370
    15
100
AcDbPolyline
 90
       17
 70
   128
 43
0.0
 10
181.4572084934
 20
199.964719793
 10
181.3615374506
 20
199.9688205925
 10
181.2804319204
 20
199.9805001227
 10
181.2262386323
 20
199.9979791848
 10
181.2072083593
 20
200.0185934512
 10
181.2262386323
 20
200.0392106978
 10
181.2804319204
 20
200.0566897599
 10
181.3615374506
 20
200.0683663098
 10
181.4572084934
 20
200.0724671093
 10
181.5528791637
 20
200.0683663098
 10
181.6339850665
 20
200.0566897599
 10
181.6881783546
 20
200.0392106978
 10
181.7072086275
 20
200.0185934512
 10
181.6881783546
 20
199.9979791848
 10
181.6339850665
 20
199.9805001227
 10
181.5528791637
 20
199.9688205925
 10
181.4572084934
 20
199.964719793
  0
LWPOLYLINE
  5
202
330
1F
100
AcDbEntity
  8
0
  6
Continuous
 62
     7
370
    15
100
AcDbPolyline
 90
       17
 70
   128
 43
0.0
 10
181.4572084934
 20
200.3310618607
 10
181.5528791637
 20
200.3269610611
 10
181.6339850665
 20
200.315281531
 10
181.6881783546
 20
200.2978054492
 10
181.7072086275
 20
200.2771882025
 10
181.6881783546
 20
200.2565709559
 10
181.6339850665
 20
200.239094874
 10
181.5528791637
 20
200.2274153439
 10
181.4572084934
 20
200.2233145443
 10
181.3615374506
 20
200.2274153439
 10
181.2804319204
 20
200.239094874
 10
181.2262386323
 20
200.2565709559
 10
181.2072083593
 20
200.2771882025
 10
181.2262386323
 20
200.2978054492
 10
181.2804319204
 20
200.315281531
 10
181.3615374506
 20
200.3269610611
 10
181.4572084934
 20
200.3310618607
  0
LWPOLYLINE
  5
203
330
1F
100
AcDbEntity
  8
0
  6
Continuous
 62
     7
370
    15
100
AcDbPolyline
 90
       17
 70
   128
 43
0.0
 10
180.4572087021
 20
200.0724671093
 10
180.5528793723
 20
200.0683663098
 10
180.6339849026
 20
200.0566897599
 10
180.6881781907
 20
200.0392106978
 10
180.7072084636
 20
200.0185934512
 10
180.6881781907
 20
199.9979791848
 10
180.6339849026
 20
199.9805001227
 10
180.5528793723
 20
199.9688205925
 10
180.4572087021
 20
199.964719793
 10
180.3615372867
 20
199.9688205925
 10
180.2804317565
 20
199.9805001227
 10
180.2262384684
 20
199.9979791848
 10
180.2072081954
 20
200.0185934512
 10
180.2262384684
 20
200.0392106978
 10
180.2804317565
 20
200.0566897599
 10
180.3615372867
 20
200.0683663098
 10
180.4572087021
 20
200.0724671093
  0
LWPOLYLINE
  5
204
330
1F
100
AcDbEntity
  8
0
  6
Continuous
 62
     7
370
    15
100
AcDbPolyline
 90
       17
 70
   128
 43
0.0
 10
180.4572087021
 20
200.2233145443
 10
180.3615372867
 20
200.2274153439
 10
180.2804317565
 20
200.239094874
 10
180.2262384684
 20
200.2565709559
 10
180.2072081954
 20
200.2771882025
 10
180.2262384684
 20
200.2978054492
 10
180.2804317565
 20
200.315281531
 10
180.3615372867
 20
200.3269610611
 10
180.4572087021
 20
200.3310618607
 10
180.5528793723
 20
200.3269610611
 10
180.6339849026
 20
200.315281531
 10
180.6881781907
 20
200.2978054492
 10
180.7072084636
 20
200.2771882025
 10
180.6881781907
 20
200.2565709559
 10
180.6339849026
 20
200.239094874
 10
180.5528793723
 20
200.2274153439
 10
180.4572087021
 20
200.2233145443
  0
ARC
  5
205
330
1F
100
AcDbEntity
  8
0
  6
Continuous
 62
     7
370
    15
100
AcDbCircle
 10
178.857042152
 20
197.7954683484
 30
0.0
 40
0.5101979076493219
100
AcDbArc
 50
89.9813257038
 51
113.0589591529
  0
ARC
  5
206
330
1F
100
AcDbEntity
  8
0
  6
Continuous
 62
     7
370
    15
100
AcDbCircle
 10
178.8548866074
 20
197.8150279975
 30
0.0
 40
0.1976920571428835
100
AcDbArc
 50
89.3270632271
 51
179.3125565019
  0
ARC
  5
207
330
1F
100
AcDbEntity
  8
0
  6
Continuous
 62
     7
370
    15
100
AcDbCircle
 10
178.8548912748
 20
197.3411990746
 30
0.0
 40
0.1976967816045987
100
AcDbArc
 50
89.3284320909
 51
179.3111876382
  0
LINE
  5
208
330
1F
100
AcDbEntity
  8
0
  6
Continuous
 62
     7
370
    15
100
AcDbLine
 10
181.7572083563
 20
198.0127064196
 30
0.0
 11
178.8572084398
 21
198.0127064196
 31
0.0
  0
LINE
  5
209
330
1F
100
AcDbEntity
  8
0
  6
Continuous
 62
     7
370
    15
100
AcDbLine
 10
181.7572083563
 20
198.3056662289
 30
0.0
 11
178.8572084398
 21
198.3056662289
 31
0.0
  0
ARC
  5
20A
330
1F
100
AcDbEntity
  8
0
  6
Continuous
 62
     7
370
    15
100
AcDbCircle
 10
181.8048909733
 20
198.0412068782
 30
0.0
 40
0.2687236129292809
100
AcDbArc
 50
55.4713589961
 51
100.2207472124
  0
LINE
  5
20B
330
1F
100
AcDbEntity
  8
0
  6
Continuous
 62
     7
370
    15
100
AcDbLine
 10
181.9572083891
 20
198.2625929324
 30
0.0
 11
181.9572083891
 21
197.9696331231
 31
0.0
  0
ARC
  5
20C
330
1F
100
AcDbEntity
  8
0
  6
Continuous
 62
     7
370
    15
100
AcDbCircle
 10
181.8048909733
 20
197.7482470689
 30
0.0
 40
0.2687236129295046
100
AcDbArc
 50
55.4713589961
 51
100.2207472124
  0
LINE
  5
20D
330
1F
100
AcDbEntity
  8
0
  6
Continuous
 62
     7
370
    15
100
AcDbLine
 10
181.9572083891
 20
197.5819555727
 30
0.0
 11
181.9572083891
 21
197.9696331231
 31
0.0
  0
ARC
  5
20E
330
1F
100
AcDbEntity
  8
0
  6
Continuous
 62
     7
370
    15
100
AcDbCircle
 10
181.8048909733
 20
197.8033416269
 30
0.0
 40
0.268723612929341
100
AcDbArc
 50
259.7792527876
 51
304.5286410039
  0
LINE
  5
20F
330
1F
100
AcDbEntity
  8
0
  6
Continuous
 62
     7
370
    15
100
AcDbLine
 10
178.8572084398
 20
197.5388822762
 30
0.0
 11
181.7572083563
 21
197.5388822762
 31
0.0
  0
LWPOLYLINE
  5
210
330
1F
100
AcDbEntity
  8
0
  6
Continuous
 62
     7
370
    15
100
AcDbPolyline
 90
       17
 70
   128
 43
0.0
 10
181.4572084934
 20
197.7004138438
 10
181.3615374506
 20
197.6963160244
 10
181.2804319204
 20
197.6846424548
 10
181.2262386323
 20
197.6671753136
 10
181.2072083593
 20
197.6465699879
 10
181.2262386323
 20
197.6259646622
 10
181.2804319204
 20
197.6084975211
 10
181.3615374506
 20
197.5968239514
 10
181.4572084934
 20
197.5927261321
 10
181.5528791637
 20
197.5968239514
 10
181.6339850665
 20
197.6084975211
 10
181.6881783546
 20
197.6259646622
 10
181.7072086275
 20
197.6465699879
 10
181.6881783546
 20
197.6671753136
 10
181.6339850665
 20
197.6846424548
 10
181.5528791637
 20
197.6963160244
 10
181.4572084934
 20
197.7004138438
  0
LWPOLYLINE
  5
211
330
1F
100
AcDbEntity
  8
0
  6
Continuous
 62
     7
370
    15
100
AcDbPolyline
 90
       17
 70
   128
 43
0.0
 10
180.4572087021
 20
197.9588625638
 10
180.3615372867
 20
197.9547647444
 10
180.2804317565
 20
197.943094155
 10
180.2262384684
 20
197.9256240336
 10
180.2072081954
 20
197.9050187079
 10
180.2262384684
 20
197.8844133822
 10
180.2804317565
 20
197.866946241
 10
180.3615372867
 20
197.8552756516
 10
180.4572087021
 20
197.851174852
 10
180.5528793723
 20
197.8552756516
 10
180.6339849026
 20
197.866946241
 10
180.6881781907
 20
197.8844133822
 10
180.7072084636
 20
197.9050187079
 10
180.6881781907
 20
197.9256240336
 10
180.6339849026
 20
197.943094155
 10
180.5528793723
 20
197.9547647444
 10
180.4572087021
 20
197.9588625638
  0
LWPOLYLINE
  5
212
330
1F
100
AcDbEntity
  8
0
  6
Continuous
 62
     7
370
    15
100
AcDbPolyline
 90
       17
 70
   128
 43
0.0
 10
180.4572087021
 20
197.5927261321
 10
180.5528793723
 20
197.5968239514
 10
180.6339849026
 20
197.6084975211
 10
180.6881781907
 20
197.6259646622
 10
180.7072084636
 20
197.6465699879
 10
180.6881781907
 20
197.6671753136
 10
180.6339849026
 20
197.6846424548
 10
180.5528793723
 20
197.6963160244
 10
180.4572087021
 20
197.7004138438
 10
180.3615372867
 20
197.6963160244
 10
180.2804317565
 20
197.6846424548
 10
180.2262384684
 20
197.6671753136
 10
180.2072081954
 20
197.6465699879
 10
180.2262384684
 20
197.6259646622
 10
180.2804317565
 20
197.6084975211
 10
180.3615372867
 20
197.5968239514
 10
180.4572087021
 20
197.5927261321
  0
LWPOLYLINE
  5
213
330
1F
100
AcDbEntity
  8
0
  6
Continuous
 62
     7
370
    15
100
AcDbPolyline
 90
       17
 70
   128
 43
0.0
 10
181.4572084934
 20
197.851174852
 10
181.5528791637
 20
197.8552756516
 10
181.6339850665
 20
197.866946241
 10
181.6881783546
 20
197.8844133822
 10
181.7072086275
 20
197.9050187079
 10
181.6881783546
 20
197.9256240336
 10
181.6339850665
 20
197.943094155
 10
181.5528791637
 20
197.9547647444
 10
181.4572084934
 20
197.9588625638
 10
181.3615374506
 20
197.9547647444
 10
181.2804319204
 20
197.943094155
 10
181.2262386323
 20
197.9256240336
 10
181.2072083593
 20
197.9050187079
 10
181.2262386323
 20
197.8844133822
 10
181.2804319204
 20
197.866946241
 10
181.3615374506
 20
197.8552756516
 10
181.4572084934
 20
197.851174852
  0
ARC
  5
214
330
1F
100
AcDbEntity
  8
0
  6
Continuous
 62
     7
370
    15
100
AcDbCircle
 10
247.6570394089
 20
202.5797939026
 30
0.0
 40
0.510232882625602
100
AcDbArc
 50
89.9809239037
 51
113.0573038531
  0
ARC
  5
215
330
1F
100
AcDbEntity
  8
0
  6
Continuous
 62
     7
370
    15
100
AcDbCircle
 10
247.6548890917
 20
202.5993919457
 30
0.0
 40
0.1976975580717421
100
AcDbArc
 50
89.3275566874
 51
179.3092480195
  0
ARC
  5
216
330
1F
100
AcDbEntity
  8
0
  6
Continuous
 62
     7
370
    15
100
AcDbCircle
 10
247.6548890917
 20
202.1253025616
 30
0.0
 40
0.1976975580718263
100
AcDbArc
 50
89.3275566874
 51
179.3092480195
  0
LINE
  5
217
330
1F
100
AcDbEntity
  8
0
  6
Continuous
 62
     7
370
    15
100
AcDbLine
 10
247.6572092862
 20
203.0900267569
 30
0.0
 11
250.5572077126
 21
203.0900267569
 31
0.0
  0
LINE
  5
218
330
1F
100
AcDbEntity
  8
0
  6
Continuous
 62
     7
370
    15
100
AcDbLine
 10
247.6572092862
 20
202.7970758883
 30
0.0
 11
250.5572077126
 21
202.7970758883
 31
0.0
  0
ARC
  5
219
330
1F
100
AcDbEntity
  8
0
  6
Continuous
 62
     7
370
    15
100
AcDbCircle
 10
250.6048814994
 20
202.8256370448
 30
0.0
 40
0.2686535125906339
100
AcDbArc
 50
55.4579180252
 51
100.2215292184
  0
LINE
  5
21A
330
1F
100
AcDbEntity
  8
0
  6
Continuous
 62
     7
370
    15
100
AcDbLine
 10
250.7572110982
 20
203.0469296185
 30
0.0
 11
250.7572110982
 21
202.7539757697
 31
0.0
  0
ARC
  5
21B
330
1F
100
AcDbEntity
  8
0
  6
Continuous
 62
     7
370
    15
100
AcDbCircle
 10
250.604883713
 20
202.5327117494
 30
0.0
 40
0.2686287381117771
100
AcDbArc
 50
55.4548537231
 51
100.2229617735
  0
LINE
  5
21C
330
1F
100
AcDbEntity
  8
0
  6
Continuous
 62
     7
370
    15
100
AcDbLine
 10
250.7572110982
 20
202.7539757697
 30
0.0
 11
250.7572110982
 21
202.3660866229
 31
0.0
  0
ARC
  5
21D
330
1F
100
AcDbEntity
  8
0
  6
Continuous
 62
     7
370
    15
100
AcDbCircle
 10
250.6048818004
 20
202.5873595184
 30
0.0
 40
0.2686371330489343
100
AcDbArc
 50
259.777775632
 51
304.5444088714
  0
LINE
  5
21E
330
1F
100
AcDbEntity
  8
0
  6
Continuous
 62
     7
370
    15
100
AcDbLine
 10
250.5572077126
 20
202.3229865042
 30
0.0
 11
247.6572092862
 21
202.3229865042
 31
0.0
  0
LWPOLYLINE
  5
21F
330
1F
100
AcDbEntity
  8
0
  6
Continuous
 62
     7
370
    15
100
AcDbPolyline
 90
       17
 70
   128
 43
0.0
 10
249.2572065682
 20
202.6354549138
 10
249.1615351529
 20
202.6395557133
 10
249.0804311127
 20
202.6512352435
 10
249.0262385697
 20
202.6687113253
 10
249.0072068066
 20
202.6893285719
 10
249.0262385697
 20
202.7099458186
 10
249.0804311127
 20
202.7274219004
 10
249.1615351529
 20
202.7391014306
 10
249.2572065682
 20
202.7432022301
 10
249.3528779835
 20
202.7391014306
 10
249.4339879841
 20
202.7274219004
 10
249.4881805272
 20
202.7099458186
 10
249.5072063298
 20
202.6893285719
 10
249.4881805272
 20
202.6687113253
 10
249.4339879841
 20
202.6512352435
 10
249.3528779835
 20
202.6395557133
 10
249.2572065682
 20
202.6354549138
  0
LWPOLYLINE
  5
220
330
1F
100
AcDbEntity
  8
0
  6
Continuous
 62
     7
370
    15
100
AcDbPolyline
 90
       17
 70
   128
 43
0.0
 10
249.2572065682
 20
202.4846074788
 10
249.3528779835
 20
202.4805066792
 10
249.4339879841
 20
202.4688301293
 10
249.4881805272
 20
202.4513510672
 10
249.5072063298
 20
202.4307338206
 10
249.4881805272
 20
202.410116574
 10
249.4339879841
 20
202.3926404921
 10
249.3528779835
 20
202.380960962
 10
249.2572065682
 20
202.3768601624
 10
249.1615351529
 20
202.380960962
 10
249.0804311127
 20
202.3926404921
 10
249.0262385697
 20
202.410116574
 10
249.0072068066
 20
202.4307338206
 10
249.0262385697
 20
202.4513510672
 10
249.0804311127
 20
202.4688301293
 10
249.1615351529
 20
202.4805066792
 10
249.2572065682
 20
202.4846074788
  0
LWPOLYLINE
  5
221
330
1F
100
AcDbEntity
  8
0
  6
Continuous
 62
     7
370
    15
100
AcDbPolyline
 90
       17
 70
   128
 43
0.0
 10
250.2572056145
 20
202.7432022301
 10
250.3528770299
 20
202.7391014306
 10
250.4339870305
 20
202.7274219004
 10
250.4881795735
 20
202.7099458186
 10
250.5072113366
 20
202.6893285719
 10
250.4881795735
 20
202.6687113253
 10
250.4339870305
 20
202.6512352435
 10
250.3528770299
 20
202.6395557133
 10
250.2572056145
 20
202.6354549138
 10
250.1615401597
 20
202.6395557133
 10
250.0804301591
 20
202.6512352435
 10
250.026237616
 20
202.6687113253
 10
250.0072058529
 20
202.6893285719
 10
250.026237616
 20
202.7099458186
 10
250.0804301591
 20
202.7274219004
 10
250.1615401597
 20
202.7391014306
 10
250.2572056145
 20
202.7432022301
  0
LWPOLYLINE
  5
222
330
1F
100
AcDbEntity
  8
0
  6
Continuous
 62
     7
370
    15
100
AcDbPolyline
 90
       17
 70
   128
 43
0.0
 10
250.2572056145
 20
202.3768601624
 10
250.1615401597
 20
202.380960962
 10
250.0804301591
 20
202.3926404921
 10
250.026237616
 20
202.410116574
 10
250.0072058529
 20
202.4307338206
 10
250.026237616
 20
202.4513510672
 10
250.0804301591
 20
202.4688301293
 10
250.1615401597
 20
202.4805066792
 10
250.2572056145
 20
202.4846074788
 10
250.3528770299
 20
202.4805066792
 10
250.4339870305
 20
202.4688301293
 10
250.4881795735
 20
202.4513510672
 10
250.5072113366
 20
202.4307338206
 10
250.4881795735
 20
202.410116574
 10
250.4339870305
 20
202.3926404921
 10
250.3528770299
 20
202.380960962
 10
250.2572056145
 20
202.3768601624
  0
ARC
  5
223
330
1F
100
AcDbEntity
  8
0
  6
Continuous
 62
     7
370
    15
100
AcDbCircle
 10
247.6570394089
 20
200.1676535331
 30
0.0
 40
0.510232882625602
100
AcDbArc
 50
89.9809239037
 51
113.0573038531
  0
ARC
  5
224
330
1F
100
AcDbEntity
  8
0
  6
Continuous
 62
     7
370
    15
100
AcDbCircle
 10
247.6548890917
 20
200.1872515763
 30
0.0
 40
0.1976975580717421
100
AcDbArc
 50
89.3275566874
 51
179.3092480195
  0
ARC
  5
225
330
1F
100
AcDbEntity
  8
0
  6
Continuous
 62
     7
370
    15
100
AcDbCircle
 10
247.6548890917
 20
199.7131621922
 30
0.0
 40
0.1976975580718263
100
AcDbArc
 50
89.3275566874
 51
179.3092480195
  0
LINE
  5
226
330
1F
100
AcDbEntity
  8
0
  6
Continuous
 62
     7
370
    15
100
AcDbLine
 10
247.6572092862
 20
200.6778863875
 30
0.0
 11
250.5572077126
 21
200.6778863875
 31
0.0
  0
LINE
  5
227
330
1F
100
AcDbEntity
  8
0
  6
Continuous
 62
     7
370
    15
100
AcDbLine
 10
247.6572092862
 20
200.3849355189
 30
0.0
 11
250.5572077126
 21
200.3849355189
 31
0.0
  0
ARC
  5
228
330
1F
100
AcDbEntity
  8
0
  6
Continuous
 62
     7
370
    15
100
AcDbCircle
 10
250.6048906876
 20
200.4135393154
 30
0.0
 40
0.2686131803049611
100
AcDbArc
 50
55.4543752894
 51
100.2250719541
  0
LINE
  5
229
330
1F
100
AcDbEntity
  8
0
  6
Continuous
 62
     7
370
    15
100
AcDbLine
 10
250.7572110982
 20
200.6347892491
 30
0.0
 11
250.7572110982
 21
200.3418383805
 31
0.0
  0
ARC
  5
22A
330
1F
100
AcDbEntity
  8
0
  6
Continuous
 62
     7
370
    15
100
AcDbCircle
 10
250.6048814994
 20
200.1205458068
 30
0.0
 40
0.268653512590391
100
AcDbArc
 50
55.4579180252
 51
100.2215292184
  0
LINE
  5
22B
330
1F
100
AcDbEntity
  8
0
  6
Continuous
 62
     7
370
    15
100
AcDbLine
 10
250.7572110982
 20
200.3418383805
 30
0.0
 11
250.7572110982
 21
199.9539462534
 31
0.0
  0
ARC
  5
22C
330
1F
100
AcDbEntity
  8
0
  6
Continuous
 62
     7
370
    15
100
AcDbCircle
 10
250.6048818004
 20
200.175219149
 30
0.0
 40
0.2686371330489343
100
AcDbArc
 50
259.777775632
 51
304.5444088714
  0
LINE
  5
22D
330
1F
100
AcDbEntity
  8
0
  6
Continuous
 62
     7
370
    15
100
AcDbLine
 10
250.5572077126
 20
199.9108461348
 30
0.0
 11
247.6572092862
 21
199.9108461348
 31
0.0
  0
LWPOLYLINE
  5
22E
330
1F
100
AcDbEntity
  8
0
  6
Continuous
 62
     7
370
    15
100
AcDbPolyline
 90
       17
 70
   128
 43
0.0
 10
250.2572056145
 20
199.964719793
 10
250.1615401597
 20
199.9688205925
 10
250.0804301591
 20
199.9805001227
 10
250.026237616
 20
199.9979791848
 10
250.0072058529
 20
200.0185934512
 10
250.026237616
 20
200.0392106978
 10
250.0804301591
 20
200.0566897599
 10
250.1615401597
 20
200.0683663098
 10
250.2572056145
 20
200.0724671093
 10
250.3528770299
 20
200.0683663098
 10
250.4339870305
 20
200.0566897599
 10
250.4881795735
 20
200.0392106978
 10
250.5072113366
 20
200.0185934512
 10
250.4881795735
 20
199.9979791848
 10
250.4339870305
 20
199.9805001227
 10
250.3528770299
 20
199.9688205925
 10
250.2572056145
 20
199.964719793
  0
LWPOLYLINE
  5
22F
330
1F
100
AcDbEntity
  8
0
  6
Continuous
 62
     7
370
    15
100
AcDbPolyline
 90
       17
 70
   128
 43
0.0
 10
250.2572056145
 20
200.3310618607
 10
250.3528770299
 20
200.3269610611
 10
250.4339870305
 20
200.315281531
 10
250.4881795735
 20
200.2978054492
 10
250.5072113366
 20
200.2771882025
 10
250.4881795735
 20
200.2565709559
 10
250.4339870305
 20
200.239094874
 10
250.3528770299
 20
200.2274153439
 10
250.2572056145
 20
200.2233145443
 10
250.1615401597
 20
200.2274153439
 10
250.0804301591
 20
200.239094874
 10
250.026237616
 20
200.2565709559
 10
250.0072058529
 20
200.2771882025
 10
250.026237616
 20
200.2978054492
 10
250.0804301591
 20
200.315281531
 10
250.1615401597
 20
200.3269610611
 10
250.2572056145
 20
200.3310618607
  0
LWPOLYLINE
  5
230
330
1F
100
AcDbEntity
  8
0
  6
Continuous
 62
     7
370
    15
100
AcDbPolyline
 90
       17
 70
   128
 43
0.0
 10
249.2572065682
 20
200.0724671093
 10
249.3528779835
 20
200.0683663098
 10
249.4339879841
 20
200.0566897599
 10
249.4881805272
 20
200.0392106978
 10
249.5072063298
 20
200.0185934512
 10
249.4881805272
 20
199.9979791848
 10
249.4339879841
 20
199.9805001227
 10
249.3528779835
 20
199.9688205925
 10
249.2572065682
 20
199.964719793
 10
249.1615351529
 20
199.9688205925
 10
249.0804311127
 20
199.9805001227
 10
249.0262385697
 20
199.9979791848
 10
249.0072068066
 20
200.0185934512
 10
249.0262385697
 20
200.0392106978
 10
249.0804311127
 20
200.0566897599
 10
249.1615351529
 20
200.0683663098
 10
249.2572065682
 20
200.0724671093
  0
LWPOLYLINE
  5
231
330
1F
100
AcDbEntity
  8
0
  6
Continuous
 62
     7
370
    15
100
AcDbPolyline
 90
       17
 70
   128
 43
0.0
 10
249.2572065682
 20
200.2233145443
 10
249.1615351529
 20
200.2274153439
 10
249.0804311127
 20
200.239094874
 10
249.0262385697
 20
200.2565709559
 10
249.0072068066
 20
200.2771882025
 10
249.0262385697
 20
200.2978054492
 10
249.0804311127
 20
200.315281531
 10
249.1615351529
 20
200.3269610611
 10
249.2572065682
 20
200.3310618607
 10
249.3528779835
 20
200.3269610611
 10
249.4339879841
 20
200.315281531
 10
249.4881805272
 20
200.2978054492
 10
249.5072063298
 20
200.2771882025
 10
249.4881805272
 20
200.2565709559
 10
249.4339879841
 20
200.239094874
 10
249.3528779835
 20
200.2274153439
 10
249.2572065682
 20
200.2233145443
  0
ARC
  5
232
330
1F
100
AcDbEntity
  8
0
  6
Continuous
 62
     7
370
    15
100
AcDbCircle
 10
247.6548902728
 20
197.8150213401
 30
0.0
 40
0.197698680995118
100
AcDbArc
 50
89.32790283
 51
179.3106499912
  0
ARC
  5
233
330
1F
100
AcDbEntity
  8
0
  6
Continuous
 62
     7
370
    15
100
AcDbCircle
 10
247.6570488831
 20
197.7954212132
 30
0.0
 40
0.510245040903939
100
AcDbArc
 50
89.981988223
 51
113.0578789549
  0
ARC
  5
234
330
1F
100
AcDbEntity
  8
0
  6
Continuous
 62
     7
370
    15
100
AcDbCircle
 10
247.6548949402
 20
197.3411924171
 30
0.0
 40
0.1977034055795701
100
AcDbArc
 50
89.3292716178
 51
179.3092812034
  0
LINE
  5
235
330
1F
100
AcDbEntity
  8
0
  6
Continuous
 62
     7
370
    15
100
AcDbLine
 10
250.5572077126
 20
198.0127064196
 30
0.0
 11
247.6572092862
 21
198.0127064196
 31
0.0
  0
LINE
  5
236
330
1F
100
AcDbEntity
  8
0
  6
Continuous
 62
     7
370
    15
100
AcDbLine
 10
250.5572077126
 20
198.3056662289
 30
0.0
 11
247.6572092862
 21
198.3056662289
 31
0.0
  0
ARC
  5
237
330
1F
100
AcDbEntity
  8
0
  6
Continuous
 62
     7
370
    15
100
AcDbCircle
 10
250.6048885817
 20
198.0411869061
 30
0.0
 40
0.2687429579983354
100
AcDbArc
 50
55.4728766428
 51
100.2196249375
  0
LINE
  5
238
330
1F
100
AcDbEntity
  8
0
  6
Continuous
 62
     7
370
    15
100
AcDbLine
 10
250.7572110982
 20
198.2625929324
 30
0.0
 11
250.7572110982
 21
197.9696331231
 31
0.0
  0
ARC
  5
239
330
1F
100
AcDbEntity
  8
0
  6
Continuous
 62
     7
370
    15
100
AcDbCircle
 10
250.6048885817
 20
197.7482270968
 30
0.0
 40
0.2687429579985872
100
AcDbArc
 50
55.4728766428
 51
100.2196249375
  0
LINE
  5
23A
330
1F
100
AcDbEntity
  8
0
  6
Continuous
 62
     7
370
    15
100
AcDbLine
 10
250.7572110982
 20
197.5819555727
 30
0.0
 11
250.7572110982
 21
197.9696331231
 31
0.0
  0
ARC
  5
23B
330
1F
100
AcDbEntity
  8
0
  6
Continuous
 62
     7
370
    15
100
AcDbCircle
 10
250.6048885817
 20
197.803361599
 30
0.0
 40
0.2687429579983634
100
AcDbArc
 50
259.7803750625
 51
304.5271233572
  0
LINE
  5
23C
330
1F
100
AcDbEntity
  8
0
  6
Continuous
 62
     7
370
    15
100
AcDbLine
 10
247.6572092862
 20
197.5388822762
 30
0.0
 11
250.5572077126
 21
197.5388822762
 31
0.0
  0
LWPOLYLINE
  5
23D
330
1F
100
AcDbEntity
  8
0
  6
Continuous
 62
     7
370
    15
100
AcDbPolyline
 90
       17
 70
   128
 43
0.0
 10
250.2572056145
 20
197.7004138438
 10
250.1615401597
 20
197.6963160244
 10
250.0804301591
 20
197.6846424548
 10
250.026237616
 20
197.6671753136
 10
250.0072058529
 20
197.6465699879
 10
250.026237616
 20
197.6259646622
 10
250.0804301591
 20
197.6084975211
 10
250.1615401597
 20
197.5968239514
 10
250.2572056145
 20
197.5927261321
 10
250.3528770299
 20
197.5968239514
 10
250.4339870305
 20
197.6084975211
 10
250.4881795735
 20
197.6259646622
 10
250.5072113366
 20
197.6465699879
 10
250.4881795735
 20
197.6671753136
 10
250.4339870305
 20
197.6846424548
 10
250.3528770299
 20
197.6963160244
 10
250.2572056145
 20
197.7004138438
  0
LWPOLYLINE
  5
23E
330
1F
100
AcDbEntity
  8
0
  6
Continuous
 62
     7
370
    15
100
AcDbPolyline
 90
       17
 70
   128
 43
0.0
 10
249.2572065682
 20
197.9588625638
 10
249.1615351529
 20
197.9547647444
 10
249.0804311127
 20
197.943094155
 10
249.0262385697
 20
197.9256240336
 10
249.0072068066
 20
197.9050187079
 10
249.0262385697
 20
197.8844133822
 10
249.0804311127
 20
197.866946241
 10
249.1615351529
 20
197.8552756516
 10
249.2572065682
 20
197.851174852
 10
249.3528779835
 20
197.8552756516
 10
249.4339879841
 20
197.866946241
 10
249.4881805272
 20
197.8844133822
 10
249.5072063298
 20
197.9050187079
 10
249.4881805272
 20
197.9256240336
 10
249.4339879841
 20
197.943094155
 10
249.3528779835
 20
197.9547647444
 10
249.2572065682
 20
197.9588625638
  0
LWPOLYLINE
  5
23F
330
1F
100
AcDbEntity
  8
0
  6
Continuous
 62
     7
370
    15
100
AcDbPolyline
 90
       17
 70
   128
 43
0.0
 10
249.2572065682
 20
197.5927261321
 10
249.3528779835
 20
197.5968239514
 10
249.4339879841
 20
197.6084975211
 10
249.4881805272
 20
197.6259646622
 10
249.5072063298
 20
197.6465699879
 10
249.4881805272
 20
197.6671753136
 10
249.4339879841
 20
197.6846424548
 10
249.3528779835
 20
197.6963160244
 10
249.2572065682
 20
197.7004138438
 10
249.1615351529
 20
197.6963160244
 10
249.0804311127
 20
197.6846424548
 10
249.0262385697
 20
197.6671753136
 10
249.0072068066
 20
197.6465699879
 10
249.0262385697
 20
197.6259646622
 10
249.0804311127
 20
197.6084975211
 10
249.1615351529
 20
197.5968239514
 10
249.2572065682
 20
197.5927261321
  0
LWPOLYLINE
  5
240
330
1F
100
AcDbEntity
  8
0
  6
Continuous
 62
     7
370
    15
100
AcDbPolyline
 90
       17
 70
   128
 43
0.0
 10
250.2572056145
 20
197.851174852
 10
250.3528770299
 20
197.8552756516
 10
250.4339870305
 20
197.866946241
 10
250.4881795735
 20
197.8844133822
 10
250.5072113366
 20
197.9050187079
 10
250.4881795735
 20
197.9256240336
 10
250.4339870305
 20
197.943094155
 10
250.3528770299
 20
197.9547647444
 10
250.2572056145
 20
197.9588625638
 10
250.1615401597
 20
197.9547647444
 10
250.0804301591
 20
197.943094155
 10
250.026237616
 20
197.9256240336
 10
250.0072058529
 20
197.9050187079
 10
250.026237616
 20
197.8844133822
 10
250.0804301591
 20
197.866946241
 10
250.1615401597
 20
197.8552756516
 10
250.2572056145
 20
197.851174852
  0
ARC
  5
241
330
1F
100
AcDbEntity
  8
0
  6
Continuous
 62
     7
370
    15
100
AcDbCircle
 10
110.0570406964
 20
202.5797939026
 30
0.0
 40
0.5102328826259714
100
AcDbArc
 50
89.9809239037
 51
113.0573038531
  0
ARC
  5
242
330
1F
100
AcDbEntity
  8
0
  6
Continuous
 62
     7
370
    15
100
AcDbCircle
 10
110.0548845074
 20
202.5993979589
 30
0.0
 40
0.1976916142544494
100
AcDbArc
 50
89.3258345509
 51
179.3109701561
  0
ARC
  5
243
330
1F
100
AcDbEntity
  8
0
  6
Continuous
 62
     7
370
    15
100
AcDbCircle
 10
110.0548845074
 20
202.1253085748
 30
0.0
 40
0.19769161425457
100
AcDbArc
 50
89.3258345509
 51
179.3109701561
  0
LINE
  5
244
330
1F
100
AcDbEntity
  8
0
  6
Continuous
 62
     7
370
    15
100
AcDbLine
 10
110.0572105736
 20
203.0900267569
 30
0.0
 11
112.9572090001
 21
203.0900267569
 31
0.0
  0
LINE
  5
245
330
1F
100
AcDbEntity
  8
0
  6
Continuous
 62
     7
370
    15
100
AcDbLine
 10
110.0572105736
 20
202.7970758883
 30
0.0
 11
112.9572090001
 21
202.7970758883
 31
0.0
  0
ARC
  5
246
330
1F
100
AcDbEntity
  8
0
  6
Continuous
 62
     7
370
    15
100
AcDbCircle
 10
113.0048845791
 20
202.8256664288
 30
0.0
 40
0.2686249130469624
100
AcDbArc
 50
55.4557264092
 51
100.2230175878
  0
LINE
  5
247
330
1F
100
AcDbEntity
  8
0
  6
Continuous
 62
     7
370
    15
100
AcDbLine
 10
113.1572064252
 20
203.0469296185
 30
0.0
 11
113.1572064252
 21
202.7539757697
 31
0.0
  0
ARC
  5
248
330
1F
100
AcDbEntity
  8
0
  6
Continuous
 62
     7
370
    15
100
AcDbCircle
 10
113.004886792
 20
202.5327411283
 30
0.0
 40
0.2686001437039502
100
AcDbArc
 50
55.4526620952
 51
100.2244501104
  0
LINE
  5
249
330
1F
100
AcDbEntity
  8
0
  6
Continuous
 62
     7
370
    15
100
AcDbLine
 10
113.1572064252
 20
202.7539757697
 30
0.0
 11
113.1572064252
 21
202.3660866229
 31
0.0
  0
ARC
  5
24A
330
1F
100
AcDbEntity
  8
0
  6
Continuous
 62
     7
370
    15
100
AcDbCircle
 10
113.0048848804
 20
202.5873301347
 30
0.0
 40
0.2686085340375128
100
AcDbArc
 50
259.7762870364
 51
304.546600758
  0
LINE
  5
24B
330
1F
100
AcDbEntity
  8
0
  6
Continuous
 62
     7
370
    15
100
AcDbLine
 10
112.9572090001
 20
202.3229865042
 30
0.0
 11
110.0572105736
 21
202.3229865042
 31
0.0
  0
LWPOLYLINE
  5
24C
330
1F
100
AcDbEntity
  8
0
  6
Continuous
 62
     7
370
    15
100
AcDbPolyline
 90
       17
 70
   128
 43
0.0
 10
111.6572078557
 20
202.6354549138
 10
111.5615364403
 20
202.6395557133
 10
111.4804324002
 20
202.6512352435
 10
111.4262398572
 20
202.6687113253
 10
111.4072080941
 20
202.6893285719
 10
111.4262398572
 20
202.7099458186
 10
111.4804324002
 20
202.7274219004
 10
111.5615364403
 20
202.7391014306
 10
111.6572078557
 20
202.7432022301
 10
111.752879271
 20
202.7391014306
 10
111.8339833111
 20
202.7274219004
 10
111.8881758542
 20
202.7099458186
 10
111.9072076172
 20
202.6893285719
 10
111.8881758542
 20
202.6687113253
 10
111.8339833111
 20
202.6512352435
 10
111.752879271
 20
202.6395557133
 10
111.6572078557
 20
202.6354549138
  0
LWPOLYLINE
  5
24D
330
1F
100
AcDbEntity
  8
0
  6
Continuous
 62
     7
370
    15
100
AcDbPolyline
 90
       17
 70
   128
 43
0.0
 10
111.6572078557
 20
202.4846074788
 10
111.752879271
 20
202.4805066792
 10
111.8339833111
 20
202.4688301293
 10
111.8881758542
 20
202.4513510672
 10
111.9072076172
 20
202.4307338206
 10
111.8881758542
 20
202.410116574
 10
111.8339833111
 20
202.3926404921
 10
111.752879271
 20
202.380960962
 10
111.6572078557
 20
202.3768601624
 10
111.5615364403
 20
202.380960962
 10
111.4804324002
 20
202.3926404921
 10
111.4262398572
 20
202.410116574
 10
111.4072080941
 20
202.4307338206
 10
111.4262398572
 20
202.4513510672
 10
111.4804324002
 20
202.4688301293
 10
111.5615364403
 20
202.4805066792
 10
111.6572078557
 20
202.4846074788
  0
LWPOLYLINE
  5
24E
330
1F
100
AcDbEntity
  8
0
  6
Continuous
 62
     7
370
    15
100
AcDbPolyline
 90
       17
 70
   128
 43
0.0
 10
112.657206902
 20
202.7432022301
 10
112.7528783173
 20
202.7391014306
 10
112.8339823575
 20
202.7274219004
 10
112.888180861
 20
202.7099458186
 10
112.9072066636
 20
202.6893285719
 10
112.888180861
 20
202.6687113253
 10
112.8339823575
 20
202.6512352435
 10
112.7528783173
 20
202.6395557133
 10
112.657206902
 20
202.6354549138
 10
112.5615354867
 20
202.6395557133
 10
112.4804314465
 20
202.6512352435
 10
112.4262389035
 20
202.6687113253
 10
112.4072071404
 20
202.6893285719
 10
112.4262389035
 20
202.7099458186
 10
112.4804314465
 20
202.7274219004
 10
112.5615354867
 20
202.7391014306
 10
112.657206902
 20
202.7432022301
  0
LWPOLYLINE
  5
24F
330
1F
100
AcDbEntity
  8
0
  6
Continuous
 62
     7
370
    15
100
AcDbPolyline
 90
       17
 70
   128
 43
0.0
 10
112.657206902
 20
202.3768601624
 10
112.5615354867
 20
202.380960962
 10
112.4804314465
 20
202.3926404921
 10
112.4262389035
 20
202.410116574
 10
112.4072071404
 20
202.4307338206
 10
112.4262389035
 20
202.4513510672
 10
112.4804314465
 20
202.4688301293
 10
112.5615354867
 20
202.4805066792
 10
112.657206902
 20
202.4846074788
 10
112.7528783173
 20
202.4805066792
 10
112.8339823575
 20
202.4688301293
 10
112.888180861
 20
202.4513510672
 10
112.9072066636
 20
202.4307338206
 10
112.888180861
 20
202.410116574
 10
112.8339823575
 20
202.3926404921
 10
112.7528783173
 20
202.380960962
 10
112.657206902
 20
202.3768601624
  0
ARC
  5
250
330
1F
100
AcDbEntity
  8
0
  6
Continuous
 62
     7
370
    15
100
AcDbCircle
 10
110.0570406964
 20
200.1676535331
 30
0.0
 40
0.5102328826259714
100
AcDbArc
 50
89.9809239037
 51
113.0573038531
  0
ARC
  5
251
330
1F
100
AcDbEntity
  8
0
  6
Continuous
 62
     7
370
    15
100
AcDbCircle
 10
110.0548845074
 20
200.1872575895
 30
0.0
 40
0.1976916142544494
100
AcDbArc
 50
89.3258345509
 51
179.3109701561
  0
ARC
  5
252
330
1F
100
AcDbEntity
  8
0
  6
Continuous
 62
     7
370
    15
100
AcDbCircle
 10
110.0548845074
 20
199.7131682054
 30
0.0
 40
0.19769161425457
100
AcDbArc
 50
89.3258345509
 51
179.3109701561
  0
LINE
  5
253
330
1F
100
AcDbEntity
  8
0
  6
Continuous
 62
     7
370
    15
100
AcDbLine
 10
110.0572105736
 20
200.6778863875
 30
0.0
 11
112.9572090001
 21
200.6778863875
 31
0.0
  0
LINE
  5
254
330
1F
100
AcDbEntity
  8
0
  6
Continuous
 62
     7
370
    15
100
AcDbLine
 10
110.0572105736
 20
200.3849355189
 30
0.0
 11
112.9572090001
 21
200.3849355189
 31
0.0
  0
ARC
  5
255
330
1F
100
AcDbEntity
  8
0
  6
Continuous
 62
     7
370
    15
100
AcDbCircle
 10
113.0048937668
 20
200.4135686961
 30
0.0
 40
0.268584584401667
100
AcDbArc
 50
55.4521832929
 51
100.2265607041
  0
LINE
  5
256
330
1F
100
AcDbEntity
  8
0
  6
Continuous
 62
     7
370
    15
100
AcDbLine
 10
113.1572064252
 20
200.6347892491
 30
0.0
 11
113.1572064252
 21
200.3418383805
 31
0.0
  0
ARC
  5
257
330
1F
100
AcDbEntity
  8
0
  6
Continuous
 62
     7
370
    15
100
AcDbCircle
 10
113.0048845791
 20
200.1205751908
 30
0.0
 40
0.268624913046701
100
AcDbArc
 50
55.4557264092
 51
100.2230175878
  0
LINE
  5
258
330
1F
100
AcDbEntity
  8
0
  6
Continuous
 62
     7
370
    15
100
AcDbLine
 10
113.1572064252
 20
200.3418383805
 30
0.0
 11
113.1572064252
 21
199.9539462534
 31
0.0
  0
ARC
  5
259
330
1F
100
AcDbEntity
  8
0
  6
Continuous
 62
     7
370
    15
100
AcDbCircle
 10
113.0048848804
 20
200.1751897653
 30
0.0
 40
0.2686085340375128
100
AcDbArc
 50
259.7762870364
 51
304.546600758
  0
LINE
  5
25A
330
1F
100
AcDbEntity
  8
0
  6
Continuous
 62
     7
370
    15
100
AcDbLine
 10
112.9572090001
 20
199.9108461348
 30
0.0
 11
110.0572105736
 21
199.9108461348
 31
0.0
  0
LWPOLYLINE
  5
25B
330
1F
100
AcDbEntity
  8
0
  6
Continuous
 62
     7
370
    15
100
AcDbPolyline
 90
       17
 70
   128
 43
0.0
 10
112.657206902
 20
199.964719793
 10
112.5615354867
 20
199.9688205925
 10
112.4804314465
 20
199.9805001227
 10
112.4262389035
 20
199.9979791848
 10
112.4072071404
 20
200.0185934512
 10
112.4262389035
 20
200.0392106978
 10
112.4804314465
 20
200.0566897599
 10
112.5615354867
 20
200.0683663098
 10
112.657206902
 20
200.0724671093
 10
112.7528783173
 20
200.0683663098
 10
112.8339823575
 20
200.0566897599
 10
112.888180861
 20
200.0392106978
 10
112.9072066636
 20
200.0185934512
 10
112.888180861
 20
199.9979791848
 10
112.8339823575
 20
199.9805001227
 10
112.7528783173
 20
199.9688205925
 10
112.657206902
 20
199.964719793
  0
LWPOLYLINE
  5
25C
330
1F
100
AcDbEntity
  8
0
  6
Continuous
 62
     7
370
    15
100
AcDbPolyline
 90
       17
 70
   128
 43
0.0
 10
112.657206902
 20
200.3310618607
 10
112.7528783173
 20
200.3269610611
 10
112.8339823575
 20
200.315281531
 10
112.888180861
 20
200.2978054492
 10
112.9072066636
 20
200.2771882025
 10
112.888180861
 20
200.2565709559
 10
112.8339823575
 20
200.239094874
 10
112.7528783173
 20
200.2274153439
 10
112.657206902
 20
200.2233145443
 10
112.5615354867
 20
200.2274153439
 10
112.4804314465
 20
200.239094874
 10
112.4262389035
 20
200.2565709559
 10
112.4072071404
 20
200.2771882025
 10
112.4262389035
 20
200.2978054492
 10
112.4804314465
 20
200.315281531
 10
112.5615354867
 20
200.3269610611
 10
112.657206902
 20
200.3310618607
  0
LWPOLYLINE
  5
25D
330
1F
100
AcDbEntity
  8
0
  6
Continuous
 62
     7
370
    15
100
AcDbPolyline
 90
       17
 70
   128
 43
0.0
 10
111.6572078557
 20
200.0724671093
 10
111.752879271
 20
200.0683663098
 10
111.8339833111
 20
200.0566897599
 10
111.8881758542
 20
200.0392106978
 10
111.9072076172
 20
200.0185934512
 10
111.8881758542
 20
199.9979791848
 10
111.8339833111
 20
199.9805001227
 10
111.752879271
 20
199.9688205925
 10
111.6572078557
 20
199.964719793
 10
111.5615364403
 20
199.9688205925
 10
111.4804324002
 20
199.9805001227
 10
111.4262398572
 20
199.9979791848
 10
111.4072080941
 20
200.0185934512
 10
111.4262398572
 20
200.0392106978
 10
111.4804324002
 20
200.0566897599
 10
111.5615364403
 20
200.0683663098
 10
111.6572078557
 20
200.0724671093
  0
LWPOLYLINE
  5
25E
330
1F
100
AcDbEntity
  8
0
  6
Continuous
 62
     7
370
    15
100
AcDbPolyline
 90
       17
 70
   128
 43
0.0
 10
111.6572078557
 20
200.2233145443
 10
111.5615364403
 20
200.2274153439
 10
111.4804324002
 20
200.239094874
 10
111.4262398572
 20
200.2565709559
 10
111.4072080941
 20
200.2771882025
 10
111.4262398572
 20
200.2978054492
 10
111.4804324002
 20
200.315281531
 10
111.5615364403
 20
200.3269610611
 10
111.6572078557
 20
200.3310618607
 10
111.752879271
 20
200.3269610611
 10
111.8339833111
 20
200.315281531
 10
111.8881758542
 20
200.2978054492
 10
111.9072076172
 20
200.2771882025
 10
111.8881758542
 20
200.2565709559
 10
111.8339833111
 20
200.239094874
 10
111.752879271
 20
200.2274153439
 10
111.6572078557
 20
200.2233145443
  0
ARC
  5
25F
330
1F
100
AcDbEntity
  8
0
  6
Continuous
 62
     7
370
    15
100
AcDbCircle
 10
110.0570423853
 20
197.7954594109
 30
0.0
 40
0.5102068456884528
100
AcDbArc
 50
89.9811125973
 51
113.0587545807
  0
ARC
  5
260
330
1F
100
AcDbEntity
  8
0
  6
Continuous
 62
     7
370
    15
100
AcDbCircle
 10
110.0548856884
 20
197.8150273532
 30
0.0
 40
0.1976927372760883
100
AcDbArc
 50
89.3261807
 51
179.3123721212
  0
ARC
  5
261
330
1F
100
AcDbEntity
  8
0
  6
Continuous
 62
     7
370
    15
100
AcDbCircle
 10
110.0548903558
 20
197.3411984302
 30
0.0
 40
0.1976974617186179
100
AcDbArc
 50
89.3275495701
 51
179.3110032511
  0
LINE
  5
262
330
1F
100
AcDbEntity
  8
0
  6
Continuous
 62
     7
370
    15
100
AcDbLine
 10
112.9572090001
 20
198.0127064196
 30
0.0
 11
110.0572105736
 21
198.0127064196
 31
0.0
  0
LINE
  5
263
330
1F
100
AcDbEntity
  8
0
  6
Continuous
 62
     7
370
    15
100
AcDbLine
 10
112.9572090001
 20
198.3056662289
 30
0.0
 11
110.0572105736
 21
198.3056662289
 31
0.0
  0
ARC
  5
264
330
1F
100
AcDbEntity
  8
0
  6
Continuous
 62
     7
370
    15
100
AcDbCircle
 10
113.0048916611
 20
198.0412163043
 30
0.0
 40
0.2687143442644363
100
AcDbArc
 50
55.4706855962
 51
100.221113092
  0
LINE
  5
265
330
1F
100
AcDbEntity
  8
0
  6
Continuous
 62
     7
370
    15
100
AcDbLine
 10
113.1572064252
 20
198.2625929324
 30
0.0
 11
113.1572064252
 21
197.9696331231
 31
0.0
  0
ARC
  5
266
330
1F
100
AcDbEntity
  8
0
  6
Continuous
 62
     7
370
    15
100
AcDbCircle
 10
113.0048916611
 20
197.748256495
 30
0.0
 40
0.2687143442646041
100
AcDbArc
 50
55.4706855962
 51
100.221113092
  0
LINE
  5
267
330
1F
100
AcDbEntity
  8
0
  6
Continuous
 62
     7
370
    15
100
AcDbLine
 10
113.1572064252
 20
197.5819555727
 30
0.0
 11
113.1572064252
 21
197.9696331231
 31
0.0
  0
ARC
  5
268
330
1F
100
AcDbEntity
  8
0
  6
Continuous
 62
     7
370
    15
100
AcDbCircle
 10
113.0048916611
 20
197.8033322009
 30
0.0
 40
0.2687143442644164
100
AcDbArc
 50
259.778886908
 51
304.5293144038
  0
LINE
  5
269
330
1F
100
AcDbEntity
  8
0
  6
Continuous
 62
     7
370
    15
100
AcDbLine
 10
110.0572105736
 20
197.5388822762
 30
0.0
 11
112.9572090001
 21
197.5388822762
 31
0.0
  0
LWPOLYLINE
  5
26A
330
1F
100
AcDbEntity
  8
0
  6
Continuous
 62
     7
370
    15
100
AcDbPolyline
 90
       17
 70
   128
 43
0.0
 10
112.657206902
 20
197.7004138438
 10
112.5615354867
 20
197.6963160244
 10
112.4804314465
 20
197.6846424548
 10
112.4262389035
 20
197.6671753136
 10
112.4072071404
 20
197.6465699879
 10
112.4262389035
 20
197.6259646622
 10
112.4804314465
 20
197.6084975211
 10
112.5615354867
 20
197.5968239514
 10
112.657206902
 20
197.5927261321
 10
112.7528783173
 20
197.5968239514
 10
112.8339823575
 20
197.6084975211
 10
112.888180861
 20
197.6259646622
 10
112.9072066636
 20
197.6465699879
 10
112.888180861
 20
197.6671753136
 10
112.8339823575
 20
197.6846424548
 10
112.7528783173
 20
197.6963160244
 10
112.657206902
 20
197.7004138438
  0
LWPOLYLINE
  5
26B
330
1F
100
AcDbEntity
  8
0
  6
Continuous
 62
     7
370
    15
100
AcDbPolyline
 90
       17
 70
   128
 43
0.0
 10
111.6572078557
 20
197.9588625638
 10
111.5615364403
 20
197.9547647444
 10
111.4804324002
 20
197.943094155
 10
111.4262398572
 20
197.9256240336
 10
111.4072080941
 20
197.9050187079
 10
111.4262398572
 20
197.8844133822
 10
111.4804324002
 20
197.866946241
 10
111.5615364403
 20
197.8552756516
 10
111.6572078557
 20
197.851174852
 10
111.752879271
 20
197.8552756516
 10
111.8339833111
 20
197.866946241
 10
111.8881758542
 20
197.8844133822
 10
111.9072076172
 20
197.9050187079
 10
111.8881758542
 20
197.9256240336
 10
111.8339833111
 20
197.943094155
 10
111.752879271
 20
197.9547647444
 10
111.6572078557
 20
197.9588625638
  0
LWPOLYLINE
  5
26C
330
1F
100
AcDbEntity
  8
0
  6
Continuous
 62
     7
370
    15
100
AcDbPolyline
 90
       17
 70
   128
 43
0.0
 10
111.6572078557
 20
197.5927261321
 10
111.752879271
 20
197.5968239514
 10
111.8339833111
 20
197.6084975211
 10
111.8881758542
 20
197.6259646622
 10
111.9072076172
 20
197.6465699879
 10
111.8881758542
 20
197.6671753136
 10
111.8339833111
 20
197.6846424548
 10
111.752879271
 20
197.6963160244
 10
111.6572078557
 20
197.7004138438
 10
111.5615364403
 20
197.6963160244
 10
111.4804324002
 20
197.6846424548
 10
111.4262398572
 20
197.6671753136
 10
111.4072080941
 20
197.6465699879
 10
111.4262398572
 20
197.6259646622
 10
111.4804324002
 20
197.6084975211
 10
111.5615364403
 20
197.5968239514
 10
111.6572078557
 20
197.5927261321
  0
LWPOLYLINE
  5
26D
330
1F
100
AcDbEntity
  8
0
  6
Continuous
 62
     7
370
    15
100
AcDbPolyline
 90
       17
 70
   128
 43
0.0
 10
112.657206902
 20
197.851174852
 10
112.7528783173
 20
197.8552756516
 10
112.8339823575
 20
197.866946241
 10
112.888180861
 20
197.8844133822
 10
112.9072066636
 20
197.9050187079
 10
112.888180861
 20
197.9256240336
 10
112.8339823575
 20
197.943094155
 10
112.7528783173
 20
197.9547647444
 10
112.657206902
 20
197.9588625638
 10
112.5615354867
 20
197.9547647444
 10
112.4804314465
 20
197.943094155
 10
112.4262389035
 20
197.9256240336
 10
112.4072071404
 20
197.9050187079
 10
112.4262389035
 20
197.8844133822
 10
112.4804314465
 20
197.866946241
 10
112.5615354867
 20
197.8552756516
 10
112.657206902
 20
197.851174852
  0
LINE
  5
26E
330
1F
100
AcDbEntity
  8
0
  6
Continuous
 62
     7
370
    15
100
AcDbLine
 10
109.197210917
 20
196.1359886137
 30
0.0
 11
109.197210917
 21
196.6159877984
 31
0.0
  0
LINE
  5
26F
330
1F
100
AcDbEntity
  8
0
  6
Continuous
 62
     7
370
    15
100
AcDbLine
 10
109.197210917
 20
196.6159877984
 30
0.0
 11
109.4972070546
 21
196.6159877984
 31
0.0
  0
LINE
  5
270
330
1F
100
AcDbEntity
  8
0
  6
Continuous
 62
     7
370
    15
100
AcDbLine
 10
109.4972070546
 20
196.1359886137
 30
0.0
 11
109.4972070546
 21
196.6159877984
 31
0.0
  0
LINE
  5
271
330
1F
100
AcDbEntity
  8
0
  6
Continuous
 62
     7
370
    15
100
AcDbLine
 10
109.917211184
 20
196.1359886137
 30
0.0
 11
109.917211184
 21
196.6159877984
 31
0.0
  0
LINE
  5
272
330
1F
100
AcDbEntity
  8
0
  6
Continuous
 62
     7
370
    15
100
AcDbLine
 10
109.917211184
 20
196.6159877984
 30
0.0
 11
110.2172073216
 21
196.6159877984
 31
0.0
  0
LINE
  5
273
330
1F
100
AcDbEntity
  8
0
  6
Continuous
 62
     7
370
    15
100
AcDbLine
 10
110.2172073216
 20
196.1359886137
 30
0.0
 11
110.2172073216
 21
196.6159877984
 31
0.0
  0
LINE
  5
274
330
1F
100
AcDbEntity
  8
0
  6
Continuous
 62
     7
370
    15
100
AcDbLine
 10
177.9972087831
 20
196.1359886137
 30
0.0
 11
177.9972087831
 21
196.6159877984
 31
0.0
  0
LINE
  5
275
330
1F
100
AcDbEntity
  8
0
  6
Continuous
 62
     7
370
    15
100
AcDbLine
 10
177.9972087831
 20
196.6159877984
 30
0.0
 11
178.297208646
 21
196.6159877984
 31
0.0
  0
LINE
  5
276
330
1F
100
AcDbEntity
  8
0
  6
Continuous
 62
     7
370
    15
100
AcDbLine
 10
178.297208646
 20
196.1359886137
 30
0.0
 11
178.297208646
 21
196.6159877984
 31
0.0
  0
LINE
  5
277
330
1F
100
AcDbEntity
  8
0
  6
Continuous
 62
     7
370
    15
100
AcDbLine
 10
246.7972096295
 20
196.1359886137
 30
0.0
 11
246.7972096295
 21
196.6159877984
 31
0.0
  0
LINE
  5
278
330
1F
100
AcDbEntity
  8
0
  6
Continuous
 62
     7
370
    15
100
AcDbLine
 10
246.7972096295
 20
196.6159877984
 30
0.0
 11
247.0972057671
 21
196.6159877984
 31
0.0
  0
LINE
  5
279
330
1F
100
AcDbEntity
  8
0
  6
Continuous
 62
     7
370
    15
100
AcDbLine
 10
247.0972057671
 20
196.1359886137
 30
0.0
 11
247.0972057671
 21
196.6159877984
 31
0.0
  0
LINE
  5
27A
330
1F
100
AcDbEntity
  8
0
  6
Continuous
 62
     7
370
    15
100
AcDbLine
 10
247.5172098965
 20
196.1359886137
 30
0.0
 11
247.5172098965
 21
196.6159877984
 31
0.0
  0
LINE
  5
27B
330
1F
100
AcDbEntity
  8
0
  6
Continuous
 62
     7
370
    15
100
AcDbLine
 10
247.5172098965
 20
196.6159877984
 30
0.0
 11
247.8172060341
 21
196.6159877984
 31
0.0
  0
LINE
  5
27C
330
1F
100
AcDbEntity
  8
0
  6
Continuous
 62
     7
370
    15
100
AcDbLine
 10
247.8172060341
 20
196.1359886137
 30
0.0
 11
247.8172060341
 21
196.6159877984
 31
0.0
  0
LINE
  5
27D
330
1F
100
AcDbEntity
  8
0
  6
Continuous
 62
     7
370
    15
100
AcDbLine
 10
178.7172083051
 20
196.1359886137
 30
0.0
 11
178.7172083051
 21
196.6159877984
 31
0.0
  0
LINE
  5
27E
330
1F
100
AcDbEntity
  8
0
  6
Continuous
 62
     7
370
    15
100
AcDbLine
 10
178.7172083051
 20
196.6159877984
 30
0.0
 11
179.017208168
 21
196.6159877984
 31
0.0
  0
LINE
  5
27F
330
1F
100
AcDbEntity
  8
0
  6
Continuous
 62
     7
370
    15
100
AcDbLine
 10
179.017208168
 20
196.1359886137
 30
0.0
 11
179.017208168
 21
196.6159877984
 31
0.0
  0
LINE
  5
280
330
1F
100
AcDbEntity
  8
0
  6
Continuous
 62
     7
370
    15
100
AcDbLine
 10
140.0274481864
 20
137.2859893052
 30
0.0
 11
140.0274481864
 21
137.2609881369
 31
0.0
  0
LINE
  5
281
330
1F
100
AcDbEntity
  8
0
  6
Continuous
 62
     7
370
    15
100
AcDbLine
 10
140.0774505229
 20
137.2609881369
 30
0.0
 11
140.0274481864
 21
137.2609881369
 31
0.0
  0
LINE
  5
282
330
1F
100
AcDbEntity
  8
0
  6
Continuous
 62
     7
370
    15
100
AcDbLine
 10
145.2274497838
 20
137.2859893052
 30
0.0
 11
145.2274497838
 21
137.2609881369
 31
0.0
  0
LINE
  5
283
330
1F
100
AcDbEntity
  8
0
  6
Continuous
 62
     7
370
    15
100
AcDbLine
 10
145.2274497838
 20
137.2609881369
 30
0.0
 11
145.1774504275
 21
137.2609881369
 31
0.0
  0
LINE
  5
284
330
1F
100
AcDbEntity
  8
0
  6
Continuous
 62
     7
370
    15
100
AcDbLine
 10
211.827449152
 20
137.2859893052
 30
0.0
 11
211.827449152
 21
137.2609881369
 31
0.0
  0
LINE
  5
285
330
1F
100
AcDbEntity
  8
0
  6
Continuous
 62
     7
370
    15
100
AcDbLine
 10
211.8774499983
 20
137.2609881369
 30
0.0
 11
211.827449152
 21
137.2609881369
 31
0.0
  0
LINE
  5
286
330
1F
100
AcDbEntity
  8
0
  6
Continuous
 62
     7
370
    15
100
AcDbLine
 10
217.0274492592
 20
137.2859893052
 30
0.0
 11
217.0274492592
 21
137.2609881369
 31
0.0
  0
LINE
  5
287
330
1F
100
AcDbEntity
  8
0
  6
Continuous
 62
     7
370
    15
100
AcDbLine
 10
217.0274492592
 20
137.2609881369
 30
0.0
 11
216.977449903
 21
137.2609881369
 31
0.0
  0
ENDSEC
  0
SECTION
  2
OBJECTS
  0
DICTIONARY
  5
C
330
0
100
AcDbDictionary
281
     1
  3
ACAD_GROUP
350
D
  3
ACAD_LAYOUT
350
1A
  3
ACAD_MATERIAL
350
3B
  3
ACAD_MLEADERSTYLE
350
28A
  3
ACAD_MLINESTYLE
350
17
  3
ACAD_PLOTSETTINGS
350
19
  3
ACAD_PLOTSTYLENAME
350
E
  3
ACAD_VISUALSTYLE
350
2A
  3
AcDbVariableDictionary
350
288
  0
DICTIONARY
  5
D
102
{ACAD_REACTORS
330
C
102
}
330
C
100
AcDbDictionary
281
     1
  0
DICTIONARY
  5
1A
102
{ACAD_REACTORS
330
C
102
}
330
C
100
AcDbDictionary
281
     1
  3
Layout1
350
1E
  3
Layout2
350
26
  3
Model
350
22
  0
DICTIONARY
  5
3B
102
{ACAD_REACTORS
330
C
102
}
330
C
100
AcDbDictionary
281
     1
  3
ByBlock
350
3D
  3
ByLayer
350
3C
  3
Global
350
3E
  0
DICTIONARY
  5
28A
102
{ACAD_REACTORS
330
C
102
}
330
C
100
AcDbDictionary
281
     1
  0
DICTIONARY
  5
17
102
{ACAD_REACTORS
330
C
102
}
330
C
100
AcDbDictionary
281
     1
  3
Standard
350
18
  0
DICTIONARY
  5
19
102
{ACAD_REACTORS
330
C
102
}
330
C
100
AcDbDictionary
281
     1
  0
ACDBDICTIONARYWDFLT
  5
E
102
{ACAD_REACTORS
330
C
102
}
330
C
100
AcDbDictionary
281
     1
  3
Normal
350
F
100
AcDbDictionaryWithDefault
340
F
  0
DICTIONARY
  5
2A
102
{ACAD_REACTORS
330
C
102
}
330
C
100
AcDbDictionary
281
     1
  3
2dWireframe
350
2F
  3
3D Hidden
350
31
  3
3dWireframe
350
30
  3
Basic
350
32
  3
Brighten
350
36
  3
ColorChange
350
3A
  3
Conceptual
350
34
  3
Dim
350
35
  3
Facepattern
350
39
  3
Flat
350
2B
  3
FlatWithEdges
350
2C
  3
Gouraud
350
2D
  3
GouraudWithEdges
350
2E
  3
Linepattern
350
38
  3
Realistic
350
33
  3
Thicken
350
37
  0
DICTIONARY
  5
288
102
{ACAD_REACTORS
330
C
102
}
330
C
100
AcDbDictionary
281
     1
  3
DIMASSOC
350
28D
  3
HIDETEXT
350
28E
  3
PSOLHEIGHT
350
28C
  3
PSOLWIDTH
350
28B
  0
LAYOUT
  5
1E
102
{ACAD_REACTORS
330
1A
102
}
330
1A
100
AcDbPlotSettings
  1

  2
none_device
  4

  6

 40
0.0
 41
0.0
 42
0.0
 43
0.0
 44
0.0
 45
0.0
 46
0.0
 47
0.0
 48
0.0
 49
0.0
140
0.0
141
0.0
142
1.0
143
1.0
 70
   688
 72
     0
 73
     0
 74
     5
  7

 75
    16
147
1.0
148
0.0
149
0.0
100
AcDbLayout
  1
Layout1
 70
     1
 71
     1
 10
0.0
 20
0.0
 11
420.0
 21
297.0
 12
0.0
 22
0.0
 32
0.0
 14
1.0000000000E+20
 24
1.0000000000E+20
 34
1.0000000000E+20
 15
-1.0000000000E+20
 25
-1.0000000000E+20
 35
-1.0000000000E+20
146
0.0
 13
0.0
 23
0.0
 33
0.0
 16
1.0
 26
0.0
 36
0.0
 17
0.0
 27
1.0
 37
0.0
 76
     0
330
1B
  0
LAYOUT
  5
26
102
{ACAD_REACTORS
330
1A
102
}
330
1A
100
AcDbPlotSettings
  1

  2
none_device
  4

  6

 40
0.0
 41
0.0
 42
0.0
 43
0.0
 44
0.0
 45
0.0
 46
0.0
 47
0.0
 48
0.0
 49
0.0
140
0.0
141
0.0
142
1.0
143
1.0
 70
   688
 72
     0
 73
     0
 74
     5
  7

 75
    16
147
1.0
148
0.0
149
0.0
100
AcDbLayout
  1
Layout2
 70
     1
 71
     2
 10
0.0
 20
0.0
 11
0.0
 21
0.0
 12
0.0
 22
0.0
 32
0.0
 14
0.0
 24
0.0
 34
0.0
 15
0.0
 25
0.0
 35
0.0
146
0.0
 13
0.0
 23
0.0
 33
0.0
 16
1.0
 26
0.0
 36
0.0
 17
0.0
 27
1.0
 37
0.0
 76
     0
330
23
  0
LAYOUT
  5
22
102
{ACAD_REACTORS
330
1A
102
}
330
1A
100
AcDbPlotSettings
  1

  2
none_device
  4

  6

 40
0.0
 41
0.0
 42
0.0
 43
0.0
 44
0.0
 45
0.0
 46
0.0
 47
0.0
 48
0.0
 49
0.0
140
0.0
141
0.0
142
1.0
143
1.0
 70
  1712
 72
     0
 73
     0
 74
     0
  7

 75
     0
147
1.0
148
0.0
149
0.0
100
AcDbLayout
  1
Model
 70
     1
 71
     0
 10
0.0
 20
0.0
 11
420.0
 21
297.0
 12
0.0
 22
0.0
 32
0.0
 14
0.0
 24
0.0
 34
0.0
 15
420.0
 25
297.0
 35
0.0
146
0.0
 13
0.0
 23
0.0
 33
0.0
 16
1.0
 26
0.0
 36
0.0
 17
0.0
 27
1.0
 37
0.0
 76
     0
330
1F
331
29
  0
MATERIAL
  5
3D
102
{ACAD_REACTORS
330
3B
102
}
102
{ACAD_XDICTIONARY
360
2B1
102
}
330
3B
100
AcDbMaterial
  1
ByBlock
  0
MATERIAL
  5
3C
102
{ACAD_REACTORS
330
3B
102
}
102
{ACAD_XDICTIONARY
360
2AF
102
}
330
3B
100
AcDbMaterial
  1
ByLayer
  0
MATERIAL
  5
3E
102
{ACAD_REACTORS
330
3B
102
}
102
{ACAD_XDICTIONARY
360
2B3
102
}
330
3B
100
AcDbMaterial
  1
Global
  0
MLINESTYLE
  5
18
102
{ACAD_REACTORS
330
17
102
}
330
17
100
AcDbMlineStyle
  2
Standard
 70
     0
  3

 62
   256
 51
90.0
 52
90.0
 71
     2
 49
0.5
 62
   256
  6
BYLAYER
 49
-0.5
 62
   256
  6
BYLAYER
  0
ACDBPLACEHOLDER
  5
F
102
{ACAD_REACTORS
330
E
102
}
330
E
  0
VISUALSTYLE
  5
2F
102
{ACAD_REACTORS
330
2A
102
}
102
{ACAD_XDICTIONARY
360
297
102
}
330
2A
100
AcDbVisualStyle
  2
2dWireframe
 70
     4
 71
     0
 72
     2
 73
     0
 90
        0
 40
-0.6
 41
-30.0
 62
     5
 63
     7
 74
     1
 91
        4
 64
     7
 65
   257
 75
     1
175
     1
 42
1.0
 92
        0
 66
   257
 43
1.0
 76
     1
 77
     6
 78
     2
 67
     7
 79
     5
170
     0
171
     0
290
     0
174
     0
 93
        1
 44
0.0
173
     0
291
     0
 45
0.0
1001
ACAD
1000
AcDbSavedByObjectVersion
1070
     0
  0
VISUALSTYLE
  5
31
102
{ACAD_REACTORS
330
2A
102
}
102
{ACAD_XDICTIONARY
360
29B
102
}
330
2A
100
AcDbVisualStyle
  2
3D Hidden
 70
     6
 71
     1
 72
     2
 73
     2
 90
        0
 40
-0.6
 41
-30.0
 62
     5
 63
     7
 74
     2
 91
        2
 64
     7
 65
   257
 75
     2
175
     1
 42
40.0
 92
        0
 66
   257
 43
1.0
 76
     1
 77
     6
 78
     2
 67
     7
 79
     3
170
     0
171
     0
290
     0
174
     0
 93
        1
 44
0.0
173
     0
291
     0
 45
0.0
1001
ACAD
1000
AcDbSavedByObjectVersion
1070
     0
  0
VISUALSTYLE
  5
30
102
{ACAD_REACTORS
330
2A
102
}
102
{ACAD_XDICTIONARY
360
299
102
}
330
2A
100
AcDbVisualStyle
  2
3dWireframe
 70
     5
 71
     0
 72
     2
 73
     0
 90
        0
 40
-0.6
 41
-30.0
 62
     5
 63
     7
 74
     1
 91
        4
 64
     7
 65
   257
 75
     1
175
     1
 42
1.0
 92
        0
 66
   257
 43
1.0
 76
     1
 77
     6
 78
     2
 67
     7
 79
     5
170
     0
171
     0
290
     0
174
     0
 93
        1
 44
0.0
173
     0
291
     0
 45
0.0
1001
ACAD
1000
AcDbSavedByObjectVersion
1070
     0
  0
VISUALSTYLE
  5
32
102
{ACAD_REACTORS
330
2A
102
}
102
{ACAD_XDICTIONARY
360
29D
102
}
330
2A
100
AcDbVisualStyle
  2
Basic
 70
     7
 71
     1
 72
     0
 73
     1
 90
        0
 40
-0.6
 41
-30.0
 62
     5
 63
     7
 74
     0
 91
        4
 64
     7
 65
   257
 75
     1
175
     1
 42
1.0
 92
        8
 66
     7
 43
1.0
 76
     1
 77
     6
 78
     2
 67
     7
 79
     5
170
     0
171
     0
290
     0
174
     0
 93
        1
 44
0.0
173
     0
291
     1
 45
0.0
1001
ACAD
1000
AcDbSavedByObjectVersion
1070
     0
  0
VISUALSTYLE
  5
36
102
{ACAD_REACTORS
330
2A
102
}
102
{ACAD_XDICTIONARY
360
2A5
102
}
330
2A
100
AcDbVisualStyle
  2
Brighten
 70
    12
 71
     2
 72
     2
 73
     0
 90
        0
 40
-0.6
 41
-30.0
 62
     5
 63
     7
 74
     1
 91
        4
 64
     7
 65
   257
 75
     1
175
     1
 42
1.0
 92
        8
 66
     7
 43
1.0
 76
     1
 77
     6
 78
     2
 67
     7
 79
     5
170
     0
171
     0
290
     0
174
     0
 93
        1
 44
50.0
173
     0
291
     1
 45
0.0
1001
ACAD
1000
AcDbSavedByObjectVersion
1070
     0
  0
VISUALSTYLE
  5
3A
102
{ACAD_REACTORS
330
2A
102
}
102
{ACAD_XDICTIONARY
360
2AD
102
}
330
2A
100
AcDbVisualStyle
  2
ColorChange
 70
    16
 71
     2
 72
     2
 73
     3
 90
        0
 40
-0.6
 41
-30.0
 62
     5
 63
     8
 74
     1
 91
        4
 64
     7
 65
   257
 75
     1
175
     1
 42
1.0
 92
        8
 66
     8
 43
1.0
 76
     1
 77
     6
 78
     2
 67
     7
 79
     5
170
     0
171
     0
290
     0
174
     0
 93
        1
 44
0.0
173
     0
291
     1
 45
0.0
1001
ACAD
1000
AcDbSavedByObjectVersion
1070
     0
  0
VISUALSTYLE
  5
34
102
{ACAD_REACTORS
330
2A
102
}
102
{ACAD_XDICTIONARY
360
2A1
102
}
330
2A
100
AcDbVisualStyle
  2
Conceptual
 70
     9
 71
     3
 72
     2
 73
     0
 90
        0
 40
-0.6
 41
-30.0
 62
     5
 63
     7
 74
     2
 91
        2
 64
     7
 65
   257
 75
     1
175
     1
 42
40.0
 92
        8
 66
     7
 43
1.0
 76
     1
 77
     6
 78
     2
 67
     7
 79
     3
170
     0
171
     0
290
     0
174
     0
 93
        1
 44
0.0
173
     0
291
     0
 45
0.0
1001
ACAD
1000
AcDbSavedByObjectVersion
1070
     0
  0
VISUALSTYLE
  5
35
102
{ACAD_REACTORS
330
2A
102
}
102
{ACAD_XDICTIONARY
360
2A3
102
}
330
2A
100
AcDbVisualStyle
  2
Dim
 70
    11
 71
     2
 72
     2
 73
     0
 90
        0
 40
-0.6
 41
-30.0
 62
     5
 63
     7
 74
     1
 91
        4
 64
     7
 65
   257
 75
     1
175
     1
 42
1.0
 92
        8
 66
     7
 43
1.0
 76
     1
 77
     6
 78
     2
 67
     7
 79
     5
170
     0
171
     0
290
     0
174
     0
 93
        1
 44
-50.0
173
     0
291
     1
 45
0.0
1001
ACAD
1000
AcDbSavedByObjectVersion
1070
     0
  0
VISUALSTYLE
  5
39
102
{ACAD_REACTORS
330
2A
102
}
102
{ACAD_XDICTIONARY
360
2AB
102
}
330
2A
100
AcDbVisualStyle
  2
Facepattern
 70
    15
 71
     2
 72
     2
 73
     0
 90
        0
 40
-0.6
 41
-30.0
 62
     5
 63
     7
 74
     1
 91
        4
 64
     7
 65
   257
 75
     1
175
     1
 42
1.0
 92
        8
 66
     7
 43
1.0
 76
     1
 77
     6
 78
     2
 67
     7
 79
     5
170
     0
171
     0
290
     0
174
     0
 93
        1
 44
0.0
173
     0
291
     1
 45
0.0
1001
ACAD
1000
AcDbSavedByObjectVersion
1070
     0
  0
VISUALSTYLE
  5
2B
102
{ACAD_REACTORS
330
2A
102
}
102
{ACAD_XDICTIONARY
360
28F
102
}
330
2A
100
AcDbVisualStyle
  2
Flat
 70
     0
 71
     2
 72
     1
 73
     1
 90
        2
 40
-0.6
 41
30.0
 62
     5
 63
     7
 74
     0
 91
        4
 64
     7
 65
   257
 75
     1
175
     1
 42
1.0
 92
        8
 66
     7
 43
1.0
 76
     1
 77
     6
 78
     2
 67
     7
 79
     5
170
     0
171
     0
290
     0
174
     0
 93
       13
 44
0.0
173
     0
291
     1
 45
0.0
1001
ACAD
1000
AcDbSavedByObjectVersion
1070
     0
  0
VISUALSTYLE
  5
2C
102
{ACAD_REACTORS
330
2A
102
}
102
{ACAD_XDICTIONARY
360
291
102
}
330
2A
100
AcDbVisualStyle
  2
FlatWithEdges
 70
     1
 71
     2
 72
     1
 73
     1
 90
        2
 40
-0.6
 41
30.0
 62
     5
 63
     7
 74
     1
 91
        4
 64
     7
 65
   257
 75
     1
175
     1
 42
1.0
 92
        0
 66
   257
 43
1.0
 76
     1
 77
     6
 78
     2
 67
     7
 79
     5
170
     0
171
     0
290
     0
174
     0
 93
       13
 44
0.0
173
     0
291
     1
 45
0.0
1001
ACAD
1000
AcDbSavedByObjectVersion
1070
     0
  0
VISUALSTYLE
  5
2D
102
{ACAD_REACTORS
330
2A
102
}
102
{ACAD_XDICTIONARY
360
293
102
}
330
2A
100
AcDbVisualStyle
  2
Gouraud
 70
     2
 71
     2
 72
     2
 73
     1
 90
        2
 40
-0.6
 41
30.0
 62
     5
 63
     7
 74
     0
 91
        4
 64
     7
 65
   257
 75
     1
175
     1
 42
1.0
 92
        0
 66
     7
 43
1.0
 76
     1
 77
     6
 78
     2
 67
     7
 79
     5
170
     0
171
     0
290
     0
174
     0
 93
       13
 44
0.0
173
     0
291
     1
 45
0.0
1001
ACAD
1000
AcDbSavedByObjectVersion
1070
     0
  0
VISUALSTYLE
  5
2E
102
{ACAD_REACTORS
330
2A
102
}
102
{ACAD_XDICTIONARY
360
295
102
}
330
2A
100
AcDbVisualStyle
  2
GouraudWithEdges
 70
     3
 71
     2
 72
     2
 73
     1
 90
        2
 40
-0.6
 41
30.0
 62
     5
 63
     7
 74
     1
 91
        4
 64
     7
 65
   257
 75
     1
175
     1
 42
1.0
 92
        0
 66
   257
 43
1.0
 76
     1
 77
     6
 78
     2
 67
     7
 79
     5
170
     0
171
     0
290
     0
174
     0
 93
       13
 44
0.0
173
     0
291
     1
 45
0.0
1001
ACAD
1000
AcDbSavedByObjectVersion
1070
     0
  0
VISUALSTYLE
  5
38
102
{ACAD_REACTORS
330
2A
102
}
102
{ACAD_XDICTIONARY
360
2A9
102
}
330
2A
100
AcDbVisualStyle
  2
Linepattern
 70
    14
 71
     2
 72
     2
 73
     0
 90
        0
 40
-0.6
 41
-30.0
 62
     5
 63
     7
 74
     1
 91
        4
 64
     7
 65
   257
 75
     7
175
     7
 42
1.0
 92
        8
 66
     7
 43
1.0
 76
     1
 77
     6
 78
     2
 67
     7
 79
     5
170
     0
171
     0
290
     0
174
     0
 93
        1
 44
0.0
173
     0
291
     1
 45
0.0
1001
ACAD
1000
AcDbSavedByObjectVersion
1070
     0
  0
VISUALSTYLE
  5
33
102
{ACAD_REACTORS
330
2A
102
}
102
{ACAD_XDICTIONARY
360
29F
102
}
330
2A
100
AcDbVisualStyle
  2
Realistic
 70
     8
 71
     2
 72
     2
 73
     0
 90
        0
 40
-0.6
 41
-30.0
 62
     5
 63
     7
 74
     1
 91
        0
 64
     7
 65
   257
 75
     1
175
     1
 42
1.0
 92
        8
 66
     8
 43
1.0
 76
     1
 77
     6
 78
     2
 67
     7
 79
     5
170
     0
171
     0
290
     0
174
     0
 93
       13
 44
0.0
173
     0
291
     0
 45
0.0
1001
ACAD
1000
AcDbSavedByObjectVersion
1070
     0
  0
VISUALSTYLE
  5
37
102
{ACAD_REACTORS
330
2A
102
}
102
{ACAD_XDICTIONARY
360
2A7
102
}
330
2A
100
AcDbVisualStyle
  2
Thicken
 70
    13
 71
     2
 72
     2
 73
     0
 90
        0
 40
-0.6
 41
-30.0
 62
     5
 63
     7
 74
     1
 91
        4
 64
     7
 65
   257
 75
     1
175
     1
 42
1.0
 92
       12
 66
     7
 43
1.0
 76
     1
 77
     6
 78
     2
 67
     7
 79
     5
170
     0
171
     0
290
     0
174
     0
 93
        1
 44
0.0
173
     0
291
     1
 45
0.0
1001
ACAD
1000
AcDbSavedByObjectVersion
1070
     0
  0
DICTIONARYVAR
  5
28D
102
{ACAD_REACTORS
330
288
102
}
330
288
100
DictionaryVariables
280
     0
  1
2
  0
DICTIONARYVAR
  5
28E
102
{ACAD_REACTORS
330
288
102
}
330
288
100
DictionaryVariables
280
     0
  1
1
  0
DICTIONARYVAR
  5
28C
102
{ACAD_REACTORS
330
288
102
}
330
288
100
DictionaryVariables
280
     0
  1
80.000000
  0
DICTIONARYVAR
  5
28B
102
{ACAD_REACTORS
330
288
102
}
330
288
100
DictionaryVariables
280
     0
  1
5.000000
  0
DICTIONARY
  5
2B1
330
3D
100
AcDbDictionary
280
     1
281
     1
  3
ACAD_XREC_ROUNDTRIP
360
2B2
  0
DICTIONARY
  5
2AF
330
3C
100
AcDbDictionary
280
     1
281
     1
  3
ACAD_XREC_ROUNDTRIP
360
2B0
  0
DICTIONARY
  5
2B3
330
3E
100
AcDbDictionary
280
     1
281
     1
  3
ACAD_XREC_ROUNDTRIP
360
2B4
  0
DICTIONARY
  5
297
330
2F
100
AcDbDictionary
280
     1
281
     1
  3
ACAD_XREC_ROUNDTRIP
360
298
  0
DICTIONARY
  5
29B
330
31
100
AcDbDictionary
280
     1
281
     1
  3
ACAD_XREC_ROUNDTRIP
360
29C
  0
DICTIONARY
  5
299
330
30
100
AcDbDictionary
280
     1
281
     1
  3
ACAD_XREC_ROUNDTRIP
360
29A
  0
DICTIONARY
  5
29D
330
32
100
AcDbDictionary
280
     1
281
     1
  3
ACAD_XREC_ROUNDTRIP
360
29E
  0
DICTIONARY
  5
2A5
330
36
100
AcDbDictionary
280
     1
281
     1
  3
ACAD_XREC_ROUNDTRIP
360
2A6
  0
DICTIONARY
  5
2AD
330
3A
100
AcDbDictionary
280
     1
281
     1
  3
ACAD_XREC_ROUNDTRIP
360
2AE
  0
DICTIONARY
  5
2A1
330
34
100
AcDbDictionary
280
     1
281
     1
  3
ACAD_XREC_ROUNDTRIP
360
2A2
  0
DICTIONARY
  5
2A3
330
35
100
AcDbDictionary
280
     1
281
     1
  3
ACAD_XREC_ROUNDTRIP
360
2A4
  0
DICTIONARY
  5
2AB
330
39
100
AcDbDictionary
280
     1
281
     1
  3
ACAD_XREC_ROUNDTRIP
360
2AC
  0
DICTIONARY
  5
28F
330
2B
100
AcDbDictionary
280
     1
281
     1
  3
ACAD_XREC_ROUNDTRIP
360
290
  0
DICTIONARY
  5
291
330
2C
100
AcDbDictionary
280
     1
281
     1
  3
ACAD_XREC_ROUNDTRIP
360
292
  0
DICTIONARY
  5
293
330
2D
100
AcDbDictionary
280
     1
281
     1
  3
ACAD_XREC_ROUNDTRIP
360
294
  0
DICTIONARY
  5
295
330
2E
100
AcDbDictionary
280
     1
281
     1
  3
ACAD_XREC_ROUNDTRIP
360
296
  0
DICTIONARY
  5
2A9
330
38
100
AcDbDictionary
280
     1
281
     1
  3
ACAD_XREC_ROUNDTRIP
360
2AA
  0
DICTIONARY
  5
29F
330
33
100
AcDbDictionary
280
     1
281
     1
  3
ACAD_XREC_ROUNDTRIP
360
2A0
  0
DICTIONARY
  5
2A7
330
37
100
AcDbDictionary
280
     1
281
     1
  3
ACAD_XREC_ROUNDTRIP
360
2A8
  0
XRECORD
  5
2B2
102
{ACAD_REACTORS
330
2B1
102
}
330
2B1
100
AcDbXrecord
280
     1
102
MATERIAL
148
0.0
149
0.0
149
0.0
 93
        0
 94
      127
282
     0
 72
     1
 77
     1
171
     1
175
     1
179
     1
273
     0
  0
XRECORD
  5
2B0
102
{ACAD_REACTORS
330
2AF
102
}
330
2AF
100
AcDbXrecord
280
     1
102
MATERIAL
148
0.0
149
0.0
149
0.0
 93
        0
 94
      127
282
     0
 72
     1
 77
     1
171
     1
175
     1
179
     1
273
     0
  0
XRECORD
  5
2B4
102
{ACAD_REACTORS
330
2B3
102
}
330
2B3
100
AcDbXrecord
280
     1
102
MATERIAL
148
0.0
149
0.0
149
0.0
 93
        0
 94
      127
282
     0
 72
     1
 77
     1
171
     1
175
     1
179
     1
273
     0
  0
XRECORD
  5
298
102
{ACAD_REACTORS
330
297
102
}
330
297
100
AcDbXrecord
280
     1
102
RTVSPropertyOp0
 70
     1
102
RTVSPropertyOp1
 70
     1
102
RTVSPropertyOp2
 70
     1
102
RTVSPropertyOp3
 70
     1
102
RTVSPropertyOp4
 70
     1
102
RTVSPropertyOp5
 70
     1
102
RTVSPropertyOp6
 70
     1
102
RTVSPropertyOp7
 70
     1
102
RTVSPropertyOp8
 70
     1
102
RTVSPropertyOp9
 70
     1
102
RTVSPropertyOp10
 70
     1
102
RTVSPropertyOp11
 70
     1
102
RTVSPropertyOp12
 70
     1
102
RTVSPropertyOp13
 70
     1
102
RTVSPropertyOp14
 70
     1
102
RTVSPropertyOp15
 70
     1
102
RTVSPropertyOp16
 70
     1
102
RTVSPropertyOp17
 70
     1
102
RTVSPropertyOp18
 70
     1
102
RTVSPropertyOp19
 70
     1
102
RTVSPropertyOp20
 70
     1
102
RTVSPropertyOp21
 70
     1
102
RTVSPropertyOp22
 70
     1
102
RTVSPropertyOp23
 70
     1
102
RTVSPropertyOp24
 70
     1
102
RTVSPropertyOp25
 70
     1
102
RTVSPropertyOp26
 70
     1
102
RTVSPropertyOp27
 70
     1
  0
XRECORD
  5
29C
102
{ACAD_REACTORS
330
29B
102
}
330
29B
100
AcDbXrecord
280
     1
102
RTVSPropertyOp0
 70
     1
102
RTVSPropertyOp1
 70
     1
102
RTVSPropertyOp2
 70
     1
102
RTVSPropertyOp3
 70
     1
102
RTVSPropertyOp4
 70
     1
102
RTVSPropertyOp5
 70
     1
102
RTVSPropertyOp6
 70
     1
102
RTVSPropertyOp7
 70
     1
102
RTVSPropertyOp8
 70
     1
102
RTVSPropertyOp9
 70
     1
102
RTVSPropertyOp10
 70
     1
102
RTVSPropertyOp11
 70
     1
102
RTVSPropertyOp12
 70
     1
102
RTVSPropertyOp13
 70
     1
102
RTVSPropertyOp14
 70
     1
102
RTVSPropertyOp15
 70
     1
102
RTVSPropertyOp16
 70
     1
102
RTVSPropertyOp17
 70
     1
102
RTVSPropertyOp18
 70
     1
102
RTVSPropertyOp19
 70
     1
102
RTVSPropertyOp20
 70
     1
102
RTVSPropertyOp21
 70
     1
102
RTVSPropertyOp22
 70
     1
102
RTVSPropertyOp23
 70
     1
102
RTVSPropertyOp24
 70
     1
102
RTVSPropertyOp25
 70
     1
102
RTVSPropertyOp26
 70
     1
102
RTVSPropertyOp27
 70
     1
  0
XRECORD
  5
29A
102
{ACAD_REACTORS
330
299
102
}
330
299
100
AcDbXrecord
280
     1
102
RTVSPropertyOp0
 70
     1
102
RTVSPropertyOp1
 70
     1
102
RTVSPropertyOp2
 70
     1
102
RTVSPropertyOp3
 70
     1
102
RTVSPropertyOp4
 70
     1
102
RTVSPropertyOp5
 70
     1
102
RTVSPropertyOp6
 70
     1
102
RTVSPropertyOp7
 70
     1
102
RTVSPropertyOp8
 70
     1
102
RTVSPropertyOp9
 70
     1
102
RTVSPropertyOp10
 70
     1
102
RTVSPropertyOp11
 70
     1
102
RTVSPropertyOp12
 70
     1
102
RTVSPropertyOp13
 70
     1
102
RTVSPropertyOp14
 70
     1
102
RTVSPropertyOp15
 70
     1
102
RTVSPropertyOp16
 70
     1
102
RTVSPropertyOp17
 70
     1
102
RTVSPropertyOp18
 70
     1
102
RTVSPropertyOp19
 70
     1
102
RTVSPropertyOp20
 70
     1
102
RTVSPropertyOp21
 70
     1
102
RTVSPropertyOp22
 70
     1
102
RTVSPropertyOp23
 70
     1
102
RTVSPropertyOp24
 70
     1
102
RTVSPropertyOp25
 70
     1
102
RTVSPropertyOp26
 70
     1
102
RTVSPropertyOp27
 70
     1
  0
XRECORD
  5
29E
102
{ACAD_REACTORS
330
29D
102
}
330
29D
100
AcDbXrecord
280
     1
102
RTVSPropertyOp0
 70
     1
102
RTVSPropertyOp1
 70
     1
102
RTVSPropertyOp2
 70
     1
102
RTVSPropertyOp3
 70
     1
102
RTVSPropertyOp4
 70
     1
102
RTVSPropertyOp5
 70
     1
102
RTVSPropertyOp6
 70
     1
102
RTVSPropertyOp7
 70
     1
102
RTVSPropertyOp8
 70
     1
102
RTVSPropertyOp9
 70
     1
102
RTVSPropertyOp10
 70
     1
102
RTVSPropertyOp11
 70
     1
102
RTVSPropertyOp12
 70
     1
102
RTVSPropertyOp13
 70
     1
102
RTVSPropertyOp14
 70
     1
102
RTVSPropertyOp15
 70
     1
102
RTVSPropertyOp16
 70
     1
102
RTVSPropertyOp17
 70
     1
102
RTVSPropertyOp18
 70
     1
102
RTVSPropertyOp19
 70
     1
102
RTVSPropertyOp20
 70
     1
102
RTVSPropertyOp21
 70
     1
102
RTVSPropertyOp22
 70
     1
102
RTVSPropertyOp23
 70
     1
102
RTVSPropertyOp24
 70
     1
102
RTVSPropertyOp25
 70
     1
102
RTVSPropertyOp26
 70
     1
102
RTVSPropertyOp27
 70
     1
  0
XRECORD
  5
2A6
102
{ACAD_REACTORS
330
2A5
102
}
330
2A5
100
AcDbXrecord
280
     1
102
RTVSPropertyOp0
 70
     1
102
RTVSPropertyOp1
 70
     1
102
RTVSPropertyOp2
 70
     1
102
RTVSPropertyOp3
 70
     1
102
RTVSPropertyOp4
 70
     1
102
RTVSPropertyOp5
 70
     1
102
RTVSPropertyOp6
 70
     1
102
RTVSPropertyOp7
 70
     1
102
RTVSPropertyOp8
 70
     1
102
RTVSPropertyOp9
 70
     1
102
RTVSPropertyOp10
 70
     1
102
RTVSPropertyOp11
 70
     1
102
RTVSPropertyOp12
 70
     1
102
RTVSPropertyOp13
 70
     1
102
RTVSPropertyOp14
 70
     1
102
RTVSPropertyOp15
 70
     1
102
RTVSPropertyOp16
 70
     1
102
RTVSPropertyOp17
 70
     1
102
RTVSPropertyOp18
 70
     1
102
RTVSPropertyOp19
 70
     1
102
RTVSPropertyOp20
 70
     1
102
RTVSPropertyOp21
 70
     1
102
RTVSPropertyOp22
 70
     1
102
RTVSPropertyOp23
 70
     1
102
RTVSPropertyOp24
 70
     1
102
RTVSPropertyOp25
 70
     1
102
RTVSPropertyOp26
 70
     1
102
RTVSPropertyOp27
 70
     1
  0
XRECORD
  5
2AE
102
{ACAD_REACTORS
330
2AD
102
}
330
2AD
100
AcDbXrecord
280
     1
102
RTVSPropertyOp0
 70
     1
102
RTVSPropertyOp1
 70
     1
102
RTVSPropertyOp2
 70
     1
102
RTVSPropertyOp3
 70
     1
102
RTVSPropertyOp4
 70
     1
102
RTVSPropertyOp5
 70
     1
102
RTVSPropertyOp6
 70
     1
102
RTVSPropertyOp7
 70
     1
102
RTVSPropertyOp8
 70
     1
102
RTVSPropertyOp9
 70
     1
102
RTVSPropertyOp10
 70
     1
102
RTVSPropertyOp11
 70
     1
102
RTVSPropertyOp12
 70
     1
102
RTVSPropertyOp13
 70
     1
102
RTVSPropertyOp14
 70
     1
102
RTVSPropertyOp15
 70
     1
102
RTVSPropertyOp16
 70
     1
102
RTVSPropertyOp17
 70
     1
102
RTVSPropertyOp18
 70
     1
102
RTVSPropertyOp19
 70
     1
102
RTVSPropertyOp20
 70
     1
102
RTVSPropertyOp21
 70
     1
102
RTVSPropertyOp22
 70
     1
102
RTVSPropertyOp23
 70
     1
102
RTVSPropertyOp24
 70
     1
102
RTVSPropertyOp25
 70
     1
102
RTVSPropertyOp26
 70
     1
102
RTVSPropertyOp27
 70
     1
  0
XRECORD
  5
2A2
102
{ACAD_REACTORS
330
2A1
102
}
330
2A1
100
AcDbXrecord
280
     1
102
RTVSPropertyOp0
 70
     1
102
RTVSPropertyOp1
 70
     1
102
RTVSPropertyOp2
 70
     1
102
RTVSPropertyOp3
 70
     1
102
RTVSPropertyOp4
 70
     1
102
RTVSPropertyOp5
 70
     1
102
RTVSPropertyOp6
 70
     1
102
RTVSPropertyOp7
 70
     1
102
RTVSPropertyOp8
 70
     1
102
RTVSPropertyOp9
 70
     1
102
RTVSPropertyOp10
 70
     1
102
RTVSPropertyOp11
 70
     1
102
RTVSPropertyOp12
 70
     1
102
RTVSPropertyOp13
 70
     1
102
RTVSPropertyOp14
 70
     1
102
RTVSPropertyOp15
 70
     1
102
RTVSPropertyOp16
 70
     1
102
RTVSPropertyOp17
 70
     1
102
RTVSPropertyOp18
 70
     1
102
RTVSPropertyOp19
 70
     1
102
RTVSPropertyOp20
 70
     1
102
RTVSPropertyOp21
 70
     1
102
RTVSPropertyOp22
 70
     1
102
RTVSPropertyOp23
 70
     1
102
RTVSPropertyOp24
 70
     1
102
RTVSPropertyOp25
 70
     1
102
RTVSPropertyOp26
 70
     1
102
RTVSPropertyOp27
 70
     1
  0
XRECORD
  5
2A4
102
{ACAD_REACTORS
330
2A3
102
}
330
2A3
100
AcDbXrecord
280
     1
102
RTVSPropertyOp0
 70
     1
102
RTVSPropertyOp1
 70
     1
102
RTVSPropertyOp2
 70
     1
102
RTVSPropertyOp3
 70
     1
102
RTVSPropertyOp4
 70
     1
102
RTVSPropertyOp5
 70
     1
102
RTVSPropertyOp6
 70
     1
102
RTVSPropertyOp7
 70
     1
102
RTVSPropertyOp8
 70
     1
102
RTVSPropertyOp9
 70
     1
102
RTVSPropertyOp10
 70
     1
102
RTVSPropertyOp11
 70
     1
102
RTVSPropertyOp12
 70
     1
102
RTVSPropertyOp13
 70
     1
102
RTVSPropertyOp14
 70
     1
102
RTVSPropertyOp15
 70
     1
102
RTVSPropertyOp16
 70
     1
102
RTVSPropertyOp17
 70
     1
102
RTVSPropertyOp18
 70
     1
102
RTVSPropertyOp19
 70
     1
102
RTVSPropertyOp20
 70
     1
102
RTVSPropertyOp21
 70
     1
102
RTVSPropertyOp22
 70
     1
102
RTVSPropertyOp23
 70
     1
102
RTVSPropertyOp24
 70
     1
102
RTVSPropertyOp25
 70
     1
102
RTVSPropertyOp26
 70
     1
102
RTVSPropertyOp27
 70
     1
  0
XRECORD
  5
2AC
102
{ACAD_REACTORS
330
2AB
102
}
330
2AB
100
AcDbXrecord
280
     1
102
RTVSPropertyOp0
 70
     1
102
RTVSPropertyOp1
 70
     1
102
RTVSPropertyOp2
 70
     1
102
RTVSPropertyOp3
 70
     1
102
RTVSPropertyOp4
 70
     1
102
RTVSPropertyOp5
 70
     1
102
RTVSPropertyOp6
 70
     1
102
RTVSPropertyOp7
 70
     1
102
RTVSPropertyOp8
 70
     1
102
RTVSPropertyOp9
 70
     1
102
RTVSPropertyOp10
 70
     1
102
RTVSPropertyOp11
 70
     1
102
RTVSPropertyOp12
 70
     1
102
RTVSPropertyOp13
 70
     1
102
RTVSPropertyOp14
 70
     1
102
RTVSPropertyOp15
 70
     1
102
RTVSPropertyOp16
 70
     1
102
RTVSPropertyOp17
 70
     1
102
RTVSPropertyOp18
 70
     1
102
RTVSPropertyOp19
 70
     1
102
RTVSPropertyOp20
 70
     1
102
RTVSPropertyOp21
 70
     1
102
RTVSPropertyOp22
 70
     1
102
RTVSPropertyOp23
 70
     1
102
RTVSPropertyOp24
 70
     1
102
RTVSPropertyOp25
 70
     1
102
RTVSPropertyOp26
 70
     1
102
RTVSPropertyOp27
 70
     1
  0
XRECORD
  5
290
102
{ACAD_REACTORS
330
28F
102
}
330
28F
100
AcDbXrecord
280
     1
102
RTVSPropertyOp0
 70
     1
102
RTVSPropertyOp1
 70
     1
102
RTVSPropertyOp2
 70
     1
102
RTVSPropertyOp3
 70
     1
102
RTVSPropertyOp4
 70
     1
102
RTVSPropertyOp5
 70
     1
102
RTVSPropertyOp6
 70
     1
102
RTVSPropertyOp7
 70
     1
102
RTVSPropertyOp8
 70
     1
102
RTVSPropertyOp9
 70
     1
102
RTVSPropertyOp10
 70
     1
102
RTVSPropertyOp11
 70
     1
102
RTVSPropertyOp12
 70
     1
102
RTVSPropertyOp13
 70
     1
102
RTVSPropertyOp14
 70
     1
102
RTVSPropertyOp15
 70
     1
102
RTVSPropertyOp16
 70
     1
102
RTVSPropertyOp17
 70
     1
102
RTVSPropertyOp18
 70
     1
102
RTVSPropertyOp19
 70
     1
102
RTVSPropertyOp20
 70
     1
102
RTVSPropertyOp21
 70
     1
102
RTVSPropertyOp22
 70
     1
102
RTVSPropertyOp23
 70
     1
102
RTVSPropertyOp24
 70
     1
102
RTVSPropertyOp25
 70
     1
102
RTVSPropertyOp26
 70
     1
102
RTVSPropertyOp27
 70
     1
  0
XRECORD
  5
292
102
{ACAD_REACTORS
330
291
102
}
330
291
100
AcDbXrecord
280
     1
102
RTVSPropertyOp0
 70
     1
102
RTVSPropertyOp1
 70
     1
102
RTVSPropertyOp2
 70
     1
102
RTVSPropertyOp3
 70
     1
102
RTVSPropertyOp4
 70
     1
102
RTVSPropertyOp5
 70
     1
102
RTVSPropertyOp6
 70
     1
102
RTVSPropertyOp7
 70
     1
102
RTVSPropertyOp8
 70
     1
102
RTVSPropertyOp9
 70
     1
102
RTVSPropertyOp10
 70
     1
102
RTVSPropertyOp11
 70
     1
102
RTVSPropertyOp12
 70
     1
102
RTVSPropertyOp13
 70
     1
102
RTVSPropertyOp14
 70
     1
102
RTVSPropertyOp15
 70
     1
102
RTVSPropertyOp16
 70
     1
102
RTVSPropertyOp17
 70
     1
102
RTVSPropertyOp18
 70
     1
102
RTVSPropertyOp19
 70
     1
102
RTVSPropertyOp20
 70
     1
102
RTVSPropertyOp21
 70
     1
102
RTVSPropertyOp22
 70
     1
102
RTVSPropertyOp23
 70
     1
102
RTVSPropertyOp24
 70
     1
102
RTVSPropertyOp25
 70
     1
102
RTVSPropertyOp26
 70
     1
102
RTVSPropertyOp27
 70
     1
  0
XRECORD
  5
294
102
{ACAD_REACTORS
330
293
102
}
330
293
100
AcDbXrecord
280
     1
102
RTVSPropertyOp0
 70
     1
102
RTVSPropertyOp1
 70
     1
102
RTVSPropertyOp2
 70
     1
102
RTVSPropertyOp3
 70
     1
102
RTVSPropertyOp4
 70
     1
102
RTVSPropertyOp5
 70
     1
102
RTVSPropertyOp6
 70
     1
102
RTVSPropertyOp7
 70
     1
102
RTVSPropertyOp8
 70
     1
102
RTVSPropertyOp9
 70
     1
102
RTVSPropertyOp10
 70
     1
102
RTVSPropertyOp11
 70
     1
102
RTVSPropertyOp12
 70
     1
102
RTVSPropertyOp13
 70
     1
102
RTVSPropertyOp14
 70
     1
102
RTVSPropertyOp15
 70
     1
102
RTVSPropertyOp16
 70
     1
102
RTVSPropertyOp17
 70
     1
102
RTVSPropertyOp18
 70
     1
102
RTVSPropertyOp19
 70
     1
102
RTVSPropertyOp20
 70
     1
102
RTVSPropertyOp21
 70
     1
102
RTVSPropertyOp22
 70
     1
102
RTVSPropertyOp23
 70
     1
102
RTVSPropertyOp24
 70
     1
102
RTVSPropertyOp25
 70
     1
102
RTVSPropertyOp26
 70
     1
102
RTVSPropertyOp27
 70
     1
  0
XRECORD
  5
296
102
{ACAD_REACTORS
330
295
102
}
330
295
100
AcDbXrecord
280
     1
102
RTVSPropertyOp0
 70
     1
102
RTVSPropertyOp1
 70
     1
102
RTVSPropertyOp2
 70
     1
102
RTVSPropertyOp3
 70
     1
102
RTVSPropertyOp4
 70
     1
102
RTVSPropertyOp5
 70
     1
102
RTVSPropertyOp6
 70
     1
102
RTVSPropertyOp7
 70
     1
102
RTVSPropertyOp8
 70
     1
102
RTVSPropertyOp9
 70
     1
102
RTVSPropertyOp10
 70
     1
102
RTVSPropertyOp11
 70
     1
102
RTVSPropertyOp12
 70
     1
102
RTVSPropertyOp13
 70
     1
102
RTVSPropertyOp14
 70
     1
102
RTVSPropertyOp15
 70
     1
102
RTVSPropertyOp16
 70
     1
102
RTVSPropertyOp17
 70
     1
102
RTVSPropertyOp18
 70
     1
102
RTVSPropertyOp19
 70
     1
102
RTVSPropertyOp20
 70
     1
102
RTVSPropertyOp21
 70
     1
102
RTVSPropertyOp22
 70
     1
102
RTVSPropertyOp23
 70
     1
102
RTVSPropertyOp24
 70
     1
102
RTVSPropertyOp25
 70
     1
102
RTVSPropertyOp26
 70
     1
102
RTVSPropertyOp27
 70
     1
  0
XRECORD
  5
2AA
102
{ACAD_REACTORS
330
2A9
102
}
330
2A9
100
AcDbXrecord
280
     1
102
RTVSPropertyOp0
 70
     1
102
RTVSPropertyOp1
 70
     1
102
RTVSPropertyOp2
 70
     1
102
RTVSPropertyOp3
 70
     1
102
RTVSPropertyOp4
 70
     1
102
RTVSPropertyOp5
 70
     1
102
RTVSPropertyOp6
 70
     1
102
RTVSPropertyOp7
 70
     1
102
RTVSPropertyOp8
 70
     1
102
RTVSPropertyOp9
 70
     1
102
RTVSPropertyOp10
 70
     1
102
RTVSPropertyOp11
 70
     1
102
RTVSPropertyOp12
 70
     1
102
RTVSPropertyOp13
 70
     1
102
RTVSPropertyOp14
 70
     1
102
RTVSPropertyOp15
 70
     1
102
RTVSPropertyOp16
 70
     1
102
RTVSPropertyOp17
 70
     1
102
RTVSPropertyOp18
 70
     1
102
RTVSPropertyOp19
 70
     1
102
RTVSPropertyOp20
 70
     1
102
RTVSPropertyOp21
 70
     1
102
RTVSPropertyOp22
 70
     1
102
RTVSPropertyOp23
 70
     1
102
RTVSPropertyOp24
 70
     1
102
RTVSPropertyOp25
 70
     1
102
RTVSPropertyOp26
 70
     1
102
RTVSPropertyOp27
 70
     1
  0
XRECORD
  5
2A0
102
{ACAD_REACTORS
330
29F
102
}
330
29F
100
AcDbXrecord
280
     1
102
RTVSPropertyOp0
 70
     1
102
RTVSPropertyOp1
 70
     1
102
RTVSPropertyOp2
 70
     1
102
RTVSPropertyOp3
 70
     1
102
RTVSPropertyOp4
 70
     1
102
RTVSPropertyOp5
 70
     1
102
RTVSPropertyOp6
 70
     1
102
RTVSPropertyOp7
 70
     1
102
RTVSPropertyOp8
 70
     1
102
RTVSPropertyOp9
 70
     1
102
RTVSPropertyOp10
 70
     1
102
RTVSPropertyOp11
 70
     1
102
RTVSPropertyOp12
 70
     1
102
RTVSPropertyOp13
 70
     1
102
RTVSPropertyOp14
 70
     1
102
RTVSPropertyOp15
 70
     1
102
RTVSPropertyOp16
 70
     1
102
RTVSPropertyOp17
 70
     1
102
RTVSPropertyOp18
 70
     1
102
RTVSPropertyOp19
 70
     1
102
RTVSPropertyOp20
 70
     1
102
RTVSPropertyOp21
 70
     1
102
RTVSPropertyOp22
 70
     1
102
RTVSPropertyOp23
 70
     1
102
RTVSPropertyOp24
 70
     1
102
RTVSPropertyOp25
 70
     1
102
RTVSPropertyOp26
 70
     1
102
RTVSPropertyOp27
 70
     1
  0
XRECORD
  5
2A8
102
{ACAD_REACTORS
330
2A7
102
}
330
2A7
100
AcDbXrecord
280
     1
102
RTVSPropertyOp0
 70
     1
102
RTVSPropertyOp1
 70
     1
102
RTVSPropertyOp2
 70
     1
102
RTVSPropertyOp3
 70
     1
102
RTVSPropertyOp4
 70
     1
102
RTVSPropertyOp5
 70
     1
102
RTVSPropertyOp6
 70
     1
102
RTVSPropertyOp7
 70
     1
102
RTVSPropertyOp8
 70
     1
102
RTVSPropertyOp9
 70
     1
102
RTVSPropertyOp10
 70
     1
102
RTVSPropertyOp11
 70
     1
102
RTVSPropertyOp12
 70
     1
102
RTVSPropertyOp13
 70
     1
102
RTVSPropertyOp14
 70
     1
102
RTVSPropertyOp15
 70
     1
102
RTVSPropertyOp16
 70
     1
102
RTVSPropertyOp17
 70
     1
102
RTVSPropertyOp18
 70
     1
102
RTVSPropertyOp19
 70
     1
102
RTVSPropertyOp20
 70
     1
102
RTVSPropertyOp21
 70
     1
102
RTVSPropertyOp22
 70
     1
102
RTVSPropertyOp23
 70
     1
102
RTVSPropertyOp24
 70
     1
102
RTVSPropertyOp25
 70
     1
102
RTVSPropertyOp26
 70
     1
102
RTVSPropertyOp27
 70
     1
  0
ENDSEC
  0
EOF
