  0
SECTION
  2
HEADER
  9
$ACADVER
  1
AC1015
  9
$ACADMAINTVER
 70
     6
  9
$DWGCODEPAGE
  3
ANSI_1252
  9
$INSBASE
 10
0.0
 20
0.0
 30
0.0
  9
$EXTMIN
 10
0.0
 20
0.0
 30
0.0
  9
$EXTMAX
 10
279.4
 20
215.9
 30
0.0
  9
$LIMMIN
 10
0.0
 20
0.0
  9
$LIMMAX
 10
279.4
 20
215.9
  9
$ORTHOMODE
 70
     0
  9
$REGENMODE
 70
     1
  9
$FILLMODE
 70
     1
  9
$QTEXTMODE
 70
     0
  9
$MIRRTEXT
 70
     1
  9
$LTSCALE
 40
1.0
  9
$ATTMODE
 70
     1
  9
$TEXTSIZE
 40
3.5
  9
$TRACEWID
 40
1.0
  9
$TEXTSTYLE
  7
Standard
  9
$CLAYER
  8
0
  9
$CELTYPE
  6
ByLayer
  9
$CECOLOR
 62
   256
  9
$CELTSCALE
 40
1.0
  9
$DISPSILH
 70
     0
  9
$DIMSCALE
 40
1.0
  9
$DIMASZ
 40
3.302
  9
$DIMEXO
 40
1.0
  9
$DIMDLI
 40
3.75
  9
$DIMRND
 40
0.0
  9
$DIMDLE
 40
0.0
  9
$DIMEXE
 40
1.0
  9
$DIMTP
 40
0.0
  9
$DIMTM
 40
0.0
  9
$DIMTXT
 40
3.5
  9
$DIMCEN
 40
2.5
  9
$DIMTSZ
 40
0.0
  9
$DIMTOL
 70
     0
  9
$DIMLIM
 70
     0
  9
$DIMTIH
 70
     1
  9
$DIMTOH
 70
     1
  9
$DIMSE1
 70
     0
  9
$DIMSE2
 70
     0
  9
$DIMTAD
 70
     1
  9
$DIMZIN
 70
     0
  9
$DIMBLK
  1

  9
$DIMASO
 70
     1
  9
$DIMSHO
 70
     1
  9
$DIMPOST
  1

  9
$DIMAPOST
  1

  9
$DIMALT
 70
     0
  9
$DIMALTD
 70
     3
  9
$DIMALTF
 40
0.0393700787
  9
$DIMLFAC
 40
20.0
  9
$DIMTOFL
 70
     1
  9
$DIMTVP
 40
0.0
  9
$DIMTIX
 70
     0
  9
$DIMSOXD
 70
     0
  9
$DIMSAH
 70
     0
  9
$DIMBLK1
  1

  9
$DIMBLK2
  1

  9
$DIMSTYLE
  2
ISO-25
  9
$DIMCLRD
 70
     0
  9
$DIMCLRE
 70
     0
  9
$DIMCLRT
 70
     0
  9
$DIMTFAC
 40
1.0
  9
$DIMGAP
 40
1.524
  9
$DIMJUST
 70
     0
  9
$DIMSD1
 70
     0
  9
$DIMSD2
 70
     0
  9
$DIMTOLJ
 70
     0
  9
$DIMTZIN
 70
     0
  9
$DIMALTZ
 70
     0
  9
$DIMALTTZ
 70
     0
  9
$DIMUPT
 70
     0
  9
$DIMDEC
 70
     3
  9
$DIMTDEC
 70
     3
  9
$DIMALTU
 70
     2
  9
$DIMALTTD
 70
     3
  9
$DIMTXSTY
  7
Standard
  9
$DIMAUNIT
 70
     0
  9
$DIMADEC
 70
     2
  9
$DIMALTRND
 40
0.0
  9
$DIMAZIN
 70
     0
  9
$DIMDSEP
 70
    44
  9
$DIMATFIT
 70
     3
  9
$DIMFRAC
 70
     0
  9
$DIMLDRBLK
  1

  9
$DIMLUNIT
 70
     2
  9
$DIMLWD
 70
    -2
  9
$DIMLWE
 70
    -2
  9
$DIMTMOVE
 70
     0
  9
$LUNITS
 70
     2
  9
$LUPREC
 70
     8
  9
$SKETCHINC
 40
1.0
  9
$FILLETRAD
 40
10.0
  9
$AUNITS
 70
     0
  9
$AUPREC
 70
     8
  9
$MENU
  1
.
  9
$ELEVATION
 40
0.0
  9
$PELEVATION
 40
0.0
  9
$THICKNESS
 40
0.0
  9
$LIMCHECK
 70
     0
  9
$CHAMFERA
 40
10.0
  9
$CHAMFERB
 40
10.0
  9
$CHAMFERC
 40
20.0
  9
$CHAMFERD
 40
0.0
  9
$SKPOLY
 70
     0
  9
$TDCREATE
 40
2455379.468147106
  9
$TDUCREATE
 40
2455379.42648044
  9
$TDUPDATE
 40
2455379.468147118
  9
$TDUUPDATE
 40
2455379.426480452
  9
$TDINDWG
 40
0.0000000116
  9
$TDUSRTIMER
 40
0.0000000116
  9
$USRTIMER
 70
     1
  9
$ANGBASE
 50
0.0
  9
$ANGDIR
 70
     0
  9
$PDMODE
 70
     0
  9
$PDSIZE
 40
-1.0
  9
$PLINEWID
 40
0.0
  9
$SPLFRAME
 70
     0
  9
$SPLINETYPE
 70
     6
  9
$SPLINESEGS
 70
     8
  9
$HANDSEED
  5
490
  9
$SURFTAB1
 70
     6
  9
$SURFTAB2
 70
     6
  9
$SURFTYPE
 70
     6
  9
$SURFU
 70
     6
  9
$SURFV
 70
     6
  9
$UCSBASE
  2

  9
$UCSNAME
  2

  9
$UCSORG
 10
0.0
 20
0.0
 30
0.0
  9
$UCSXDIR
 10
1.0
 20
0.0
 30
0.0
  9
$UCSYDIR
 10
0.0
 20
1.0
 30
0.0
  9
$UCSORTHOREF
  2

  9
$UCSORTHOVIEW
 70
     0
  9
$UCSORGTOP
 10
0.0
 20
0.0
 30
0.0
  9
$UCSORGBOTTOM
 10
0.0
 20
0.0
 30
0.0
  9
$UCSORGLEFT
 10
0.0
 20
0.0
 30
0.0
  9
$UCSORGRIGHT
 10
0.0
 20
0.0
 30
0.0
  9
$UCSORGFRONT
 10
0.0
 20
0.0
 30
0.0
  9
$UCSORGBACK
 10
0.0
 20
0.0
 30
0.0
  9
$PUCSBASE
  2

  9
$PUCSNAME
  2

  9
$PUCSORG
 10
0.0
 20
0.0
 30
0.0
  9
$PUCSXDIR
 10
1.0
 20
0.0
 30
0.0
  9
$PUCSYDIR
 10
0.0
 20
1.0
 30
0.0
  9
$PUCSORTHOREF
  2

  9
$PUCSORTHOVIEW
 70
     0
  9
$PUCSORGTOP
 10
0.0
 20
0.0
 30
0.0
  9
$PUCSORGBOTTOM
 10
0.0
 20
0.0
 30
0.0
  9
$PUCSORGLEFT
 10
0.0
 20
0.0
 30
0.0
  9
$PUCSORGRIGHT
 10
0.0
 20
0.0
 30
0.0
  9
$PUCSORGFRONT
 10
0.0
 20
0.0
 30
0.0
  9
$PUCSORGBACK
 10
0.0
 20
0.0
 30
0.0
  9
$USERI1
 70
     0
  9
$USERI2
 70
     0
  9
$USERI3
 70
     0
  9
$USERI4
 70
     0
  9
$USERI5
 70
     0
  9
$USERR1
 40
0.0
  9
$USERR2
 40
0.0
  9
$USERR3
 40
0.0
  9
$USERR4
 40
0.0
  9
$USERR5
 40
0.0
  9
$WORLDVIEW
 70
     1
  9
$SHADEDGE
 70
     3
  9
$SHADEDIF
 70
    70
  9
$TILEMODE
 70
     1
  9
$MAXACTVP
 70
    64
  9
$PINSBASE
 10
0.0
 20
0.0
 30
0.0
  9
$PLIMCHECK
 70
     0
  9
$PEXTMIN
 10
1.0000000000E+20
 20
1.0000000000E+20
 30
1.0000000000E+20
  9
$PEXTMAX
 10
-1.0000000000E+20
 20
-1.0000000000E+20
 30
-1.0000000000E+20
  9
$PLIMMIN
 10
0.0
 20
0.0
  9
$PLIMMAX
 10
420.0
 20
297.0
  9
$UNITMODE
 70
     0
  9
$VISRETAIN
 70
     1
  9
$PLINEGEN
 70
     0
  9
$PSLTSCALE
 70
     1
  9
$TREEDEPTH
 70
  3020
  9
$CMLSTYLE
  2
Standard
  9
$CMLJUST
 70
     0
  9
$CMLSCALE
 40
20.0
  9
$PROXYGRAPHICS
 70
     1
  9
$MEASUREMENT
 70
     1
  9
$CELWEIGHT
370
    -1
  9
$ENDCAPS
280
     0
  9
$JOINSTYLE
280
     0
  9
$LWDISPLAY
290
     1
  9
$INSUNITS
 70
     4
  9
$HYPERLINKBASE
  1

  9
$STYLESHEET
  1

  9
$XEDIT
290
     1
  9
$CEPSNTYPE
380
     0
  9
$PSTYLEMODE
290
     1
  9
$FINGERPRINTGUID
  2
{947EB37C-D313-44E3-B07C-20B6CF5B4388}
  9
$VERSIONGUID
  2
{FAEB1C32-E019-11D5-929B-00C0DF256EC4}
  9
$EXTNAMES
290
     1
  9
$PSVPSCALE
 40
0.0
  9
$OLESTARTUP
290
     0
  0
ENDSEC
  0
SECTION
  2
CLASSES
  0
CLASS
  1
ACDBDICTIONARYWDFLT
  2
AcDbDictionaryWithDefault
  3
ObjectDBX Classes
 90
        0
280
     0
281
     0
  0
CLASS
  1
VISUALSTYLE
  2
AcDbVisualStyle
  3
ObjectDBX Classes
 90
     4095
280
     0
281
     0
  0
CLASS
  1
MATERIAL
  2
AcDbMaterial
  3
ObjectDBX Classes
 90
     1153
280
     0
281
     0
  0
CLASS
  1
DICTIONARYVAR
  2
AcDbDictionaryVar
  3
ObjectDBX Classes
 90
        0
280
     0
281
     0
  0
CLASS
  1
ACDBPLACEHOLDER
  2
AcDbPlaceHolder
  3
ObjectDBX Classes
 90
        0
280
     0
281
     0
  0
CLASS
  1
LAYOUT
  2
AcDbLayout
  3
ObjectDBX Classes
 90
        0
280
     0
281
     0
  0
ENDSEC
  0
SECTION
  2
TABLES
  0
TABLE
  2
VPORT
  5
8
330
0
100
AcDbSymbolTable
 70
     1
  0
VPORT
  5
29
330
8
100
AcDbSymbolTableRecord
100
AcDbViewportTableRecord
  2
*Active
 70
     0
 10
0.0
 20
0.0
 11
1.0
 21
1.0
 12
139.7
 22
107.95
 13
0.0
 23
0.0
 14
10.0
 24
10.0
 15
10.0
 25
10.0
 16
0.0
 26
0.0
 36
1.0
 17
0.0
 27
0.0
 37
0.0
 40
215.9
 41
1.2941176471
 42
50.0
 43
0.0
 44
0.0
 50
0.0
 51
0.0
 71
     0
 72
  2000
 73
     1
 74
     3
 75
     0
 76
     0
 77
     0
 78
     0
281
     0
 65
     1
110
0.0
120
0.0
130
0.0
111
1.0
121
0.0
131
0.0
112
0.0
122
1.0
132
0.0
 79
     0
146
0.0
  0
ENDTAB
  0
TABLE
  2
LTYPE
  5
5
330
0
100
AcDbSymbolTable
 70
     6
  0
LTYPE
  5
14
330
5
100
AcDbSymbolTableRecord
100
AcDbLinetypeTableRecord
  2
ByBlock
 70
     0
  3

 72
    65
 73
     0
 40
0.0
  0
LTYPE
  5
15
330
5
100
AcDbSymbolTableRecord
100
AcDbLinetypeTableRecord
  2
ByLayer
 70
     0
  3

 72
    65
 73
     0
 40
0.0
  0
LTYPE
  5
16
330
5
100
AcDbSymbolTableRecord
100
AcDbLinetypeTableRecord
  2
Continuous
 70
     0
  3
Solid line
 72
    65
 73
     0
 40
0.0
  0
LTYPE
  5
3F
330
5
100
AcDbSymbolTableRecord
100
AcDbLinetypeTableRecord
  2
HIDDEN
 70
     0
  3
Hidden __ __ __ __ __ __ __ __ __ __ __ __ __ __
 72
    65
 73
     2
 40
1.905
 49
1.27
 74
     0
 49
-0.635
 74
     0
  0
LTYPE
  5
40
330
5
100
AcDbSymbolTableRecord
100
AcDbLinetypeTableRecord
  2
PHANTOM
 70
     0
  3
Phantom ______  __  __  ______  __  __  ______
 72
    65
 73
     6
 40
12.7
 49
6.35
 74
     0
 49
-1.27
 74
     0
 49
1.27
 74
     0
 49
-1.27
 74
     0
 49
1.27
 74
     0
 49
-1.27
 74
     0
  0
LTYPE
  5
41
330
5
100
AcDbSymbolTableRecord
100
AcDbLinetypeTableRecord
  2
CENTER
 70
     0
  3
Center ____ _ ____ _ ____ _ ____ _ ____ _ ____
 72
    65
 73
     4
 40
10.16
 49
6.35
 74
     0
 49
-1.27
 74
     0
 49
1.27
 74
     0
 49
-1.27
 74
     0
  0
LTYPE
  5
42
330
5
100
AcDbSymbolTableRecord
100
AcDbLinetypeTableRecord
  2
CENTERX2
 70
     0
  3
Center (2x) ________  __  ________  __  _____
 72
    65
 73
     4
 40
20.32
 49
12.7
 74
     0
 49
-2.54
 74
     0
 49
2.54
 74
     0
 49
-2.54
 74
     0
  0
LTYPE
  5
43
330
5
100
AcDbSymbolTableRecord
100
AcDbLinetypeTableRecord
  2
DOT2
 70
     0
  3
Dot (.5x) ........................................
 72
    65
 73
     2
 40
0.635
 49
0.0
 74
     0
 49
-0.635
 74
     0
  0
ENDTAB
  0
TABLE
  2
LAYER
  5
2
330
0
100
AcDbSymbolTable
 70
     4
  0
LAYER
  5
10
330
2
100
AcDbSymbolTableRecord
100
AcDbLayerTableRecord
  2
0
 70
     0
 62
     7
  6
Continuous
370
    -3
390
F
  0
LAYER
  5
44
330
2
100
AcDbSymbolTableRecord
100
AcDbLayerTableRecord
  2
FORMAT
 70
     0
 62
     7
  6
Continuous
370
    -3
390
F
  0
LAYER
  5
45
330
2
100
AcDbSymbolTableRecord
100
AcDbLayerTableRecord
  2
SLD-0
 70
     0
 62
     1
  6
Continuous
370
    -3
390
F
  0
LAYER
  5
46
330
2
100
AcDbSymbolTableRecord
100
AcDbLayerTableRecord
  2
WATERMARK
 70
     0
 62
    20
  6
Continuous
370
    -3
390
F
  0
ENDTAB
  0
TABLE
  2
STYLE
  5
3
330
0
100
AcDbSymbolTable
 70
     1
  0
STYLE
  5
11
330
3
100
AcDbSymbolTableRecord
100
AcDbTextStyleTableRecord
  2
Standard
 70
     0
 40
0.0
 41
1.0
 50
0.0
 71
     0
 42
2.5
  3
txt
  4

  0
ENDTAB
  0
TABLE
  2
VIEW
  5
6
330
0
100
AcDbSymbolTable
 70
     0
  0
ENDTAB
  0
TABLE
  2
UCS
  5
7
330
0
100
AcDbSymbolTable
 70
     0
  0
ENDTAB
  0
TABLE
  2
APPID
  5
9
330
0
100
AcDbSymbolTable
 70
     1
  0
APPID
  5
12
330
9
100
AcDbSymbolTableRecord
100
AcDbRegAppTableRecord
  2
ACAD
 70
     0
  0
ENDTAB
  0
TABLE
  2
DIMSTYLE
  5
A
330
0
100
AcDbSymbolTable
 70
     1
100
AcDbDimStyleTable
  0
DIMSTYLE
105
27
330
A
100
AcDbSymbolTableRecord
100
AcDbDimStyleTableRecord
  2
ISO-25
 70
     0
 41
2.5
 42
0.625
 43
3.75
 44
1.25
 73
     0
 74
     0
 77
     1
 78
     8
140
2.5
141
2.5
143
0.0393700787
147
0.625
171
     3
172
     1
271
     2
272
     2
274
     3
278
    44
283
     0
284
     8
340
11
  0
ENDTAB
  0
TABLE
  2
BLOCK_RECORD
  5
1
330
0
100
AcDbSymbolTable
 70
     1
  0
BLOCK_RECORD
  5
1F
330
1
100
AcDbSymbolTableRecord
100
AcDbBlockTableRecord
  2
*Model_Space
340
22
  0
BLOCK_RECORD
  5
1B
330
1
100
AcDbSymbolTableRecord
100
AcDbBlockTableRecord
  2
*Paper_Space
340
1E
  0
BLOCK_RECORD
  5
23
330
1
100
AcDbSymbolTableRecord
100
AcDbBlockTableRecord
  2
*Paper_Space0
340
26
  0
ENDTAB
  0
ENDSEC
  0
SECTION
  2
BLOCKS
  0
BLOCK
  5
20
330
1F
100
AcDbEntity
  8
0
100
AcDbBlockBegin
  2
*Model_Space
 70
     0
 10
0.0
 20
0.0
 30
0.0
  3
*Model_Space
  1

  0
ENDBLK
  5
21
330
1F
100
AcDbEntity
  8
0
100
AcDbBlockEnd
  0
BLOCK
  5
1C
330
1B
100
AcDbEntity
 67
     1
  8
0
100
AcDbBlockBegin
  2
*Paper_Space
 70
     0
 10
0.0
 20
0.0
 30
0.0
  3
*Paper_Space
  1

  0
ENDBLK
  5
1D
330
1B
100
AcDbEntity
 67
     1
  8
0
100
AcDbBlockEnd
  0
BLOCK
  5
24
330
23
100
AcDbEntity
  8
0
100
AcDbBlockBegin
  2
*Paper_Space0
 70
     0
 10
0.0
 20
0.0
 30
0.0
  3
*Paper_Space0
  1

  0
ENDBLK
  5
25
330
23
100
AcDbEntity
  8
0
100
AcDbBlockEnd
  0
ENDSEC
  0
SECTION
  2
ENTITIES
  0
LINE
  5
47
330
1F
100
AcDbEntity
  8
0
  6
Continuous
 62
     7
370
    15
100
AcDbLine
 10
85.8858594966
 20
91.8426029736
 30
0.0
 11
89.8858586621
 21
91.8426029736
 31
0.0
  0
LINE
  5
48
330
1F
100
AcDbEntity
  8
0
  6
Continuous
 62
     7
370
    15
100
AcDbLine
 10
89.8858586621
 20
93.0926047617
 30
0.0
 11
85.8858594966
 21
93.0926047617
 31
0.0
  0
LINE
  5
49
330
1F
100
AcDbEntity
  8
0
  6
Continuous
 62
     7
370
    15
100
AcDbLine
 10
106.4008589896
 20
93.0926047617
 30
0.0
 11
89.8858586621
 21
93.0926047617
 31
0.0
  0
LINE
  5
4A
330
1F
100
AcDbEntity
  8
0
  6
Continuous
 62
     7
370
    15
100
AcDbLine
 10
102.0106254441
 20
91.8426029736
 30
0.0
 11
106.4008589896
 21
91.8426029736
 31
0.0
  0
LINE
  5
4B
330
1F
100
AcDbEntity
  8
0
  6
Continuous
 62
     7
370
    15
100
AcDbLine
 10
89.8858586621
 20
91.8426029736
 30
0.0
 11
100.7910905701
 21
91.8426029736
 31
0.0
  0
LINE
  5
4C
330
1F
100
AcDbEntity
  8
0
  6
Continuous
 62
     7
370
    15
100
AcDbLine
 10
125.4158595872
 20
91.8426029736
 30
0.0
 11
129.4158587527
 21
91.8426029736
 31
0.0
  0
LINE
  5
4D
330
1F
100
AcDbEntity
  8
0
  6
Continuous
 62
     7
370
    15
100
AcDbLine
 10
129.4158587527
 20
93.0926047617
 30
0.0
 11
125.4158595872
 21
93.0926047617
 31
0.0
  0
LINE
  5
4E
330
1F
100
AcDbEntity
  8
0
  6
Continuous
 62
     7
370
    15
100
AcDbLine
 10
114.5106258166
 20
91.8426029736
 30
0.0
 11
125.4158595872
 21
91.8426029736
 31
0.0
  0
LINE
  5
4F
330
1F
100
AcDbEntity
  8
0
  6
Continuous
 62
     7
370
    15
100
AcDbLine
 10
108.9008590502
 20
91.8426029736
 30
0.0
 11
113.2910901976
 21
91.8426029736
 31
0.0
  0
LINE
  5
50
330
1F
100
AcDbEntity
  8
0
  6
Continuous
 62
     7
370
    15
100
AcDbLine
 10
125.4158595872
 20
93.0926047617
 30
0.0
 11
108.9008590502
 21
93.0926047617
 31
0.0
  0
LINE
  5
51
330
1F
100
AcDbEntity
  8
0
  6
Continuous
 62
     7
370
    15
100
AcDbLine
 10
131.1933586669
 20
83.7176047617
 30
0.0
 11
131.3133592081
 21
83.7176047617
 31
0.0
  0
LINE
  5
52
330
1F
100
AcDbEntity
  8
0
  6
Continuous
 62
     7
370
    15
100
AcDbLine
 10
131.3133592081
 20
84.8076038414
 30
0.0
 11
131.1933586669
 21
84.8076038414
 31
0.0
  0
LINE
  5
53
330
1F
100
AcDbEntity
  8
0
  6
Continuous
 62
     7
370
    15
100
AcDbLine
 10
131.5083587837
 20
83.7176047617
 30
0.0
 11
131.8487877321
 21
83.7176047617
 31
0.0
  0
LINE
  5
54
330
1F
100
AcDbEntity
  8
0
  6
Continuous
 62
     7
370
    15
100
AcDbLine
 10
131.8487877321
 20
84.8076038414
 30
0.0
 11
131.5083587837
 21
84.8076038414
 31
0.0
  0
ARC
  5
55
330
1F
100
AcDbEntity
  8
0
  6
Continuous
 62
     7
370
    15
100
AcDbCircle
 10
131.8487875877
 20
84.7076036661
 30
0.0
 40
0.1000000000000181
100
AcDbArc
 50
18.9655749889
 51
61.4768331017
  0
LWPOLYLINE
  5
56
330
1F
100
AcDbEntity
  8
0
  6
Continuous
 62
     7
370
    15
100
AcDbPolyline
 90
        3
 70
   128
 43
0.0
 10
131.8683589173
 20
84.8056696707
 10
131.8642223549
 20
84.806405788
 10
131.8487877321
 20
84.8076038414
  0
LWPOLYLINE
  5
57
330
1F
100
AcDbEntity
  8
0
  6
Continuous
 62
     7
370
    15
100
AcDbPolyline
 90
        3
 70
   128
 43
0.0
 10
131.8487877321
 20
83.7176047617
 10
131.8642223549
 20
83.718802815
 10
131.8683589173
 20
83.7195389324
  0
ARC
  5
58
330
1F
100
AcDbEntity
  8
0
  6
Continuous
 62
     7
370
    15
100
AcDbCircle
 10
131.8487875877
 20
83.8176036661
 30
0.0
 40
0.1000000000000007
100
AcDbArc
 50
298.5231769086
 51
341.0344250112
  0
LINE
  5
59
330
1F
100
AcDbEntity
  8
0
  6
Continuous
 62
     7
370
    15
100
AcDbLine
 10
131.1933586669
 20
84.7701035791
 30
0.0
 11
130.9333587361
 21
84.7701035791
 31
0.0
  0
LINE
  5
5A
330
1F
100
AcDbEntity
  8
0
  6
Continuous
 62
     7
370
    15
100
AcDbLine
 10
130.9333587361
 20
83.7551050239
 30
0.0
 11
131.1933586669
 21
83.7551050239
 31
0.0
  0
LINE
  5
5B
330
1F
100
AcDbEntity
  8
0
  6
Continuous
 62
     7
370
    15
100
AcDbLine
 10
130.9333587361
 20
84.7338550144
 30
0.0
 11
130.8683583808
 21
84.7338550144
 31
0.0
  0
LINE
  5
5C
330
1F
100
AcDbEntity
  8
0
  6
Continuous
 62
     7
370
    15
100
AcDbLine
 10
130.8683583808
 20
83.7913535887
 30
0.0
 11
130.9333587361
 21
83.7913535887
 31
0.0
  0
LWPOLYLINE
  5
5D
330
1F
100
AcDbEntity
  8
0
  6
Continuous
 62
     7
370
    15
100
AcDbPolyline
 90
        3
 70
   128
 43
0.0
 10
131.8683589173
 20
83.7176047617
 10
131.8839008284
 20
83.7230168634
 10
131.8965399933
 20
83.7297402674
  0
LWPOLYLINE
  5
5E
330
1F
100
AcDbEntity
  8
0
  6
Continuous
 62
     7
370
    15
100
AcDbPolyline
 90
        3
 70
   128
 43
0.0
 10
131.8965399933
 20
84.7954653555
 10
131.8839008284
 20
84.8021917396
 10
131.8683589173
 20
84.8076038414
  0
LINE
  5
5F
330
1F
100
AcDbEntity
  8
0
  6
Continuous
 62
     7
370
    15
100
AcDbLine
 10
105.6019822431
 20
48.4923873448
 30
0.0
 11
105.6269820143
 21
48.5173873955
 31
0.0
  0
LINE
  5
60
330
1F
100
AcDbEntity
  8
0
  6
Continuous
 62
     7
370
    15
100
AcDbLine
 10
105.6269820143
 20
48.9923857504
 30
0.0
 11
105.6019822431
 21
49.017385801
 31
0.0
  0
LINE
  5
61
330
1F
100
AcDbEntity
  8
0
  6
Continuous
 62
     7
370
    15
100
AcDbLine
 10
104.1869851124
 20
48.4923865997
 30
0.0
 11
104.5858590228
 21
48.4923865997
 31
0.0
  0
LINE
  5
62
330
1F
100
AcDbEntity
  8
0
  6
Continuous
 62
     7
370
    15
100
AcDbLine
 10
105.5858590004
 20
48.4923865997
 30
0.0
 11
105.6019806598
 21
48.4923865997
 31
0.0
  0
LINE
  5
63
330
1F
100
AcDbEntity
  8
0
  6
Continuous
 62
     7
370
    15
100
AcDbLine
 10
105.6019806598
 20
49.0173865461
 30
0.0
 11
104.1869851124
 21
49.0173865461
 31
0.0
  0
LINE
  5
64
330
1F
100
AcDbEntity
  8
0
  6
Continuous
 62
     7
370
    15
100
AcDbLine
 10
104.1869834361
 20
49.017385801
 30
0.0
 11
104.1619835717
 21
48.9923857504
 31
0.0
  0
LINE
  5
65
330
1F
100
AcDbEntity
  8
0
  6
Continuous
 62
     7
370
    15
100
AcDbLine
 10
104.1619835717
 20
48.5173873955
 30
0.0
 11
104.1869834361
 21
48.4923873448
 31
0.0
  0
LINE
  5
66
330
1F
100
AcDbEntity
  8
0
  6
Continuous
 62
     7
370
    15
100
AcDbLine
 10
124.2139736486
 20
49.0173731351
 30
0.0
 11
124.1889769507
 21
48.992374202
 31
0.0
  0
LINE
  5
67
330
1F
100
AcDbEntity
  8
0
  6
Continuous
 62
     7
370
    15
100
AcDbLine
 10
124.1889769507
 20
48.5173987576
 30
0.0
 11
124.2139736486
 21
48.4924000108
 31
0.0
  0
LINE
  5
68
330
1F
100
AcDbEntity
  8
0
  6
Continuous
 62
     7
370
    15
100
AcDbLine
 10
124.2140004707
 20
48.4923865997
 30
0.0
 11
124.6333593798
 21
48.4923865997
 31
0.0
  0
LINE
  5
69
330
1F
100
AcDbEntity
  8
0
  6
Continuous
 62
     7
370
    15
100
AcDbLine
 10
124.6333593798
 20
49.0173865461
 30
0.0
 11
124.2140004707
 21
49.0173865461
 31
0.0
  0
LINE
  5
6A
330
1F
100
AcDbEntity
  8
0
  6
Continuous
 62
     7
370
    15
100
AcDbLine
 10
125.6333584261
 20
48.4968049803
 30
0.0
 11
125.6539503408
 21
48.5173987576
 31
0.0
  0
LINE
  5
6B
330
1F
100
AcDbEntity
  8
0
  6
Continuous
 62
     7
370
    15
100
AcDbLine
 10
125.6539503408
 20
48.992374202
 30
0.0
 11
125.6333584261
 21
49.0129683518
 31
0.0
  0
LINE
  5
6C
330
1F
100
AcDbEntity
  8
0
  6
Continuous
 62
     7
370
    15
100
AcDbLine
 10
108.5108589676
 20
49.4626038128
 30
0.0
 11
108.453124046
 21
49.5626036429
 31
0.0
  0
LINE
  5
6D
330
1F
100
AcDbEntity
  8
0
  6
Continuous
 62
     7
370
    15
100
AcDbLine
 10
108.0685939935
 20
49.5626036429
 30
0.0
 11
108.0108590719
 21
49.4626038128
 31
0.0
  0
LINE
  5
6E
330
1F
100
AcDbEntity
  8
0
  6
Continuous
 62
     7
370
    15
100
AcDbLine
 10
108.5108589676
 20
48.762603698
 30
0.0
 11
108.5108589676
 21
48.7798866236
 31
0.0
  0
LINE
  5
6F
330
1F
100
AcDbEntity
  8
0
  6
Continuous
 62
     7
370
    15
100
AcDbLine
 10
108.5108589676
 20
49.2798865193
 30
0.0
 11
108.5108589676
 21
49.4626038128
 31
0.0
  0
LINE
  5
70
330
1F
100
AcDbEntity
  8
0
  6
Continuous
 62
     7
370
    15
100
AcDbLine
 10
108.0108590719
 20
49.4626038128
 30
0.0
 11
108.0108590719
 21
49.2798865193
 31
0.0
  0
LINE
  5
71
330
1F
100
AcDbEntity
  8
0
  6
Continuous
 62
     7
370
    15
100
AcDbLine
 10
108.0108590719
 20
48.7798866236
 30
0.0
 11
108.0108590719
 21
48.762603698
 31
0.0
  0
LINE
  5
72
330
1F
100
AcDbEntity
  8
0
  6
Continuous
 62
     7
370
    15
100
AcDbLine
 10
87.9608551335
 20
86.9976036602
 30
0.0
 11
87.9608551335
 21
86.7053203636
 31
0.0
  0
LINE
  5
73
330
1F
100
AcDbEntity
  8
0
  6
Continuous
 62
     7
370
    15
100
AcDbLine
 10
87.9608551335
 20
86.2053208404
 30
0.0
 11
87.9608551335
 21
86.0976033264
 31
0.0
  0
LINE
  5
74
330
1F
100
AcDbEntity
  8
0
  6
Continuous
 62
     7
370
    15
100
AcDbLine
 10
88.4608546567
 20
86.0976033264
 30
0.0
 11
88.4608546567
 21
86.2053208404
 31
0.0
  0
LINE
  5
75
330
1F
100
AcDbEntity
  8
0
  6
Continuous
 62
     7
370
    15
100
AcDbLine
 10
88.4608546567
 20
86.7053203636
 30
0.0
 11
88.4608546567
 21
86.9976036602
 31
0.0
  0
LINE
  5
76
330
1F
100
AcDbEntity
  8
0
  6
Continuous
 62
     7
370
    15
100
AcDbLine
 10
87.9608551335
 20
86.0976033264
 30
0.0
 11
88.0185896826
 21
85.9976046139
 31
0.0
  0
LINE
  5
77
330
1F
100
AcDbEntity
  8
0
  6
Continuous
 62
     7
370
    15
100
AcDbLine
 10
88.4031201077
 20
85.9976046139
 30
0.0
 11
88.4608546567
 21
86.0976033264
 31
0.0
  0
LINE
  5
78
330
1F
100
AcDbEntity
  8
0
  6
Continuous
 62
     7
370
    15
100
AcDbLine
 10
108.0108762083
 20
86.9976036602
 30
0.0
 11
108.0108762083
 21
86.7053203636
 31
0.0
  0
LINE
  5
79
330
1F
100
AcDbEntity
  8
0
  6
Continuous
 62
     7
370
    15
100
AcDbLine
 10
108.0108762083
 20
86.2053208404
 30
0.0
 11
108.0108762083
 21
86.0976033264
 31
0.0
  0
LINE
  5
7A
330
1F
100
AcDbEntity
  8
0
  6
Continuous
 62
     7
370
    15
100
AcDbLine
 10
108.510876104
 20
86.0976033264
 30
0.0
 11
108.510876104
 21
86.2053208404
 31
0.0
  0
LINE
  5
7B
330
1F
100
AcDbEntity
  8
0
  6
Continuous
 62
     7
370
    15
100
AcDbLine
 10
108.510876104
 20
86.7053203636
 30
0.0
 11
108.510876104
 21
86.9976036602
 31
0.0
  0
LINE
  5
7C
330
1F
100
AcDbEntity
  8
0
  6
Continuous
 62
     7
370
    15
100
AcDbLine
 10
108.0108762083
 20
86.0976033264
 30
0.0
 11
108.0686111298
 21
85.9976046139
 31
0.0
  0
LINE
  5
7D
330
1F
100
AcDbEntity
  8
0
  6
Continuous
 62
     7
370
    15
100
AcDbLine
 10
108.4531409961
 20
85.9976046139
 30
0.0
 11
108.510876104
 21
86.0976033264
 31
0.0
  0
LINE
  5
7E
330
1F
100
AcDbEntity
  8
0
  6
Continuous
 62
     7
370
    15
100
AcDbLine
 10
88.4608591271
 20
48.762603698
 30
0.0
 11
88.4608591271
 21
48.7798866236
 31
0.0
  0
LINE
  5
7F
330
1F
100
AcDbEntity
  8
0
  6
Continuous
 62
     7
370
    15
100
AcDbLine
 10
88.4608591271
 20
49.2798865193
 30
0.0
 11
88.4608591271
 21
49.4626038128
 31
0.0
  0
LINE
  5
80
330
1F
100
AcDbEntity
  8
0
  6
Continuous
 62
     7
370
    15
100
AcDbLine
 10
87.9608596039
 20
49.4626038128
 30
0.0
 11
87.9608596039
 21
49.2798865193
 31
0.0
  0
LINE
  5
81
330
1F
100
AcDbEntity
  8
0
  6
Continuous
 62
     7
370
    15
100
AcDbLine
 10
87.9608596039
 20
48.7798866236
 30
0.0
 11
87.9608596039
 21
48.762603698
 31
0.0
  0
LINE
  5
82
330
1F
100
AcDbEntity
  8
0
  6
Continuous
 62
     7
370
    15
100
AcDbLine
 10
88.4608591271
 20
49.4626038128
 30
0.0
 11
88.403124578
 21
49.5626036429
 31
0.0
  0
LINE
  5
83
330
1F
100
AcDbEntity
  8
0
  6
Continuous
 62
     7
370
    15
100
AcDbLine
 10
88.0185941529
 20
49.5626036429
 30
0.0
 11
87.9608596039
 21
49.4626038128
 31
0.0
  0
LINE
  5
84
330
1F
100
AcDbEntity
  8
0
  6
Continuous
 62
     7
370
    15
100
AcDbLine
 10
108.6858760861
 20
86.6803221756
 30
0.0
 11
108.6608760354
 21
86.7053203636
 31
0.0
  0
LINE
  5
85
330
1F
100
AcDbEntity
  8
0
  6
Continuous
 62
     7
370
    15
100
AcDbLine
 10
107.8608760905
 20
86.7053203636
 30
0.0
 11
107.835876133
 21
86.6803221756
 31
0.0
  0
LINE
  5
86
330
1F
100
AcDbEntity
  8
0
  6
Continuous
 62
     7
370
    15
100
AcDbLine
 10
108.6858760861
 20
86.6053216511
 30
0.0
 11
108.6858760861
 21
86.6803221756
 31
0.0
  0
LINE
  5
87
330
1F
100
AcDbEntity
  8
0
  6
Continuous
 62
     7
370
    15
100
AcDbLine
 10
107.835876133
 20
86.6803221756
 30
0.0
 11
107.835876133
 21
86.6053216511
 31
0.0
  0
LINE
  5
88
330
1F
100
AcDbEntity
  8
0
  6
Continuous
 62
     7
370
    15
100
AcDbLine
 10
107.835876133
 20
86.6053216511
 30
0.0
 11
107.8608760905
 21
86.5803204828
 31
0.0
  0
LINE
  5
89
330
1F
100
AcDbEntity
  8
0
  6
Continuous
 62
     7
370
    15
100
AcDbLine
 10
108.6608760354
 20
86.5803204828
 30
0.0
 11
108.6858760861
 21
86.6053216511
 31
0.0
  0
LINE
  5
8A
330
1F
100
AcDbEntity
  8
0
  6
Continuous
 62
     7
370
    15
100
AcDbLine
 10
107.9358761494
 20
86.2303220087
 30
0.0
 11
107.9608761069
 21
86.2053208404
 31
0.0
  0
LINE
  5
8B
330
1F
100
AcDbEntity
  8
0
  6
Continuous
 62
     7
370
    15
100
AcDbLine
 10
108.5608762053
 20
86.2053208404
 30
0.0
 11
108.5858760697
 21
86.2303220087
 31
0.0
  0
LINE
  5
8C
330
1F
100
AcDbEntity
  8
0
  6
Continuous
 62
     7
370
    15
100
AcDbLine
 10
108.5858760697
 20
86.2303220087
 30
0.0
 11
108.5858760697
 21
86.254888063
 31
0.0
  0
LINE
  5
8D
330
1F
100
AcDbEntity
  8
0
  6
Continuous
 62
     7
370
    15
100
AcDbLine
 10
108.5858760697
 20
86.5548871809
 30
0.0
 11
108.5858760697
 21
86.5803204828
 31
0.0
  0
LINE
  5
8E
330
1F
100
AcDbEntity
  8
0
  6
Continuous
 62
     7
370
    15
100
AcDbLine
 10
107.9358761494
 20
86.5803204828
 30
0.0
 11
107.9358761494
 21
86.5548871809
 31
0.0
  0
LINE
  5
8F
330
1F
100
AcDbEntity
  8
0
  6
Continuous
 62
     7
370
    15
100
AcDbLine
 10
107.9358761494
 20
86.254888063
 30
0.0
 11
107.9358761494
 21
86.2303220087
 31
0.0
  0
LINE
  5
90
330
1F
100
AcDbEntity
  8
0
  6
Continuous
 62
     7
370
    15
100
AcDbLine
 10
87.7858544064
 20
86.6053216511
 30
0.0
 11
87.8108540845
 21
86.5803204828
 31
0.0
  0
LINE
  5
91
330
1F
100
AcDbEntity
  8
0
  6
Continuous
 62
     7
370
    15
100
AcDbLine
 10
88.6108542156
 20
86.5803204828
 30
0.0
 11
88.6358553839
 21
86.6053216511
 31
0.0
  0
LINE
  5
92
330
1F
100
AcDbEntity
  8
0
  6
Continuous
 62
     7
370
    15
100
AcDbLine
 10
88.6358553839
 20
86.6053216511
 30
0.0
 11
88.6358553839
 21
86.6803221756
 31
0.0
  0
LINE
  5
93
330
1F
100
AcDbEntity
  8
0
  6
Continuous
 62
     7
370
    15
100
AcDbLine
 10
87.7858544064
 20
86.6803221756
 30
0.0
 11
87.7858544064
 21
86.6053216511
 31
0.0
  0
LINE
  5
94
330
1F
100
AcDbEntity
  8
0
  6
Continuous
 62
     7
370
    15
100
AcDbLine
 10
88.6358553839
 20
86.6803221756
 30
0.0
 11
88.6108542156
 21
86.7053203636
 31
0.0
  0
LINE
  5
95
330
1F
100
AcDbEntity
  8
0
  6
Continuous
 62
     7
370
    15
100
AcDbLine
 10
87.8108540845
 20
86.7053203636
 30
0.0
 11
87.7858544064
 21
86.6803221756
 31
0.0
  0
LINE
  5
96
330
1F
100
AcDbEntity
  8
0
  6
Continuous
 62
     7
370
    15
100
AcDbLine
 10
88.5358551812
 20
86.2303220087
 30
0.0
 11
88.5358551812
 21
86.254888063
 31
0.0
  0
LINE
  5
97
330
1F
100
AcDbEntity
  8
0
  6
Continuous
 62
     7
370
    15
100
AcDbLine
 10
88.5358551812
 20
86.5548871809
 30
0.0
 11
88.5358551812
 21
86.5803204828
 31
0.0
  0
LINE
  5
98
330
1F
100
AcDbEntity
  8
0
  6
Continuous
 62
     7
370
    15
100
AcDbLine
 10
87.885854609
 20
86.5803204828
 30
0.0
 11
87.885854609
 21
86.5548871809
 31
0.0
  0
LINE
  5
99
330
1F
100
AcDbEntity
  8
0
  6
Continuous
 62
     7
370
    15
100
AcDbLine
 10
87.885854609
 20
86.254888063
 30
0.0
 11
87.885854609
 21
86.2303220087
 31
0.0
  0
LINE
  5
9A
330
1F
100
AcDbEntity
  8
0
  6
Continuous
 62
     7
370
    15
100
AcDbLine
 10
87.885854609
 20
86.2303220087
 30
0.0
 11
87.9108542872
 21
86.2053208404
 31
0.0
  0
LINE
  5
9B
330
1F
100
AcDbEntity
  8
0
  6
Continuous
 62
     7
370
    15
100
AcDbLine
 10
88.5108555031
 20
86.2053208404
 30
0.0
 11
88.5358551812
 21
86.2303220087
 31
0.0
  0
LINE
  5
9C
330
1F
100
AcDbEntity
  8
0
  6
Continuous
 62
     7
370
    15
100
AcDbLine
 10
87.7858588767
 20
48.8048866743
 30
0.0
 11
87.8108585549
 21
48.7798866236
 31
0.0
  0
LINE
  5
9D
330
1F
100
AcDbEntity
  8
0
  6
Continuous
 62
     7
370
    15
100
AcDbLine
 10
88.610858686
 20
48.7798866236
 30
0.0
 11
88.6358583641
 21
48.8048866743
 31
0.0
  0
LINE
  5
9E
330
1F
100
AcDbEntity
  8
0
  6
Continuous
 62
     7
370
    15
100
AcDbLine
 10
87.7858588767
 20
48.87988664
 30
0.0
 11
87.7858588767
 21
48.8048866743
 31
0.0
  0
LINE
  5
9F
330
1F
100
AcDbEntity
  8
0
  6
Continuous
 62
     7
370
    15
100
AcDbLine
 10
88.6358583641
 20
48.8048866743
 30
0.0
 11
88.6358583641
 21
48.87988664
 31
0.0
  0
LINE
  5
A0
330
1F
100
AcDbEntity
  8
0
  6
Continuous
 62
     7
370
    15
100
AcDbLine
 10
88.6358583641
 20
48.87988664
 30
0.0
 11
88.610858686
 21
48.9048865044
 31
0.0
  0
LINE
  5
A1
330
1F
100
AcDbEntity
  8
0
  6
Continuous
 62
     7
370
    15
100
AcDbLine
 10
87.8108585549
 20
48.9048865044
 30
0.0
 11
87.7858588767
 21
48.87988664
 31
0.0
  0
LINE
  5
A2
330
1F
100
AcDbEntity
  8
0
  6
Continuous
 62
     7
370
    15
100
AcDbLine
 10
88.5358596516
 20
49.2548864686
 30
0.0
 11
88.5108584833
 21
49.2798865193
 31
0.0
  0
LINE
  5
A3
330
1F
100
AcDbEntity
  8
0
  6
Continuous
 62
     7
370
    15
100
AcDbLine
 10
87.9108587575
 20
49.2798865193
 30
0.0
 11
87.8858590794
 21
49.2548864686
 31
0.0
  0
LINE
  5
A4
330
1F
100
AcDbEntity
  8
0
  6
Continuous
 62
     7
370
    15
100
AcDbLine
 10
87.8858590794
 20
49.2548864686
 30
0.0
 11
87.8858590794
 21
49.2048867398
 31
0.0
  0
LINE
  5
A5
330
1F
100
AcDbEntity
  8
0
  6
Continuous
 62
     7
370
    15
100
AcDbLine
 10
88.5358596516
 20
49.2048867398
 30
0.0
 11
88.5358596516
 21
49.2548864686
 31
0.0
  0
LINE
  5
A6
330
1F
100
AcDbEntity
  8
0
  6
Continuous
 62
     7
370
    15
100
AcDbLine
 10
107.8358589967
 20
48.87988664
 30
0.0
 11
107.8358589967
 21
48.8048866743
 31
0.0
  0
LINE
  5
A7
330
1F
100
AcDbEntity
  8
0
  6
Continuous
 62
     7
370
    15
100
AcDbLine
 10
108.6858589497
 20
48.8048866743
 30
0.0
 11
108.6858589497
 21
48.87988664
 31
0.0
  0
LINE
  5
A8
330
1F
100
AcDbEntity
  8
0
  6
Continuous
 62
     7
370
    15
100
AcDbLine
 10
108.6858589497
 20
48.87988664
 30
0.0
 11
108.6608588991
 21
48.9048865044
 31
0.0
  0
LINE
  5
A9
330
1F
100
AcDbEntity
  8
0
  6
Continuous
 62
     7
370
    15
100
AcDbLine
 10
107.8608589542
 20
48.9048865044
 30
0.0
 11
107.8358589967
 21
48.87988664
 31
0.0
  0
LINE
  5
AA
330
1F
100
AcDbEntity
  8
0
  6
Continuous
 62
     7
370
    15
100
AcDbLine
 10
107.8358589967
 20
48.8048866743
 30
0.0
 11
107.8608589542
 21
48.7798866236
 31
0.0
  0
LINE
  5
AB
330
1F
100
AcDbEntity
  8
0
  6
Continuous
 62
     7
370
    15
100
AcDbLine
 10
108.6608588991
 20
48.7798866236
 30
0.0
 11
108.6858589497
 21
48.8048866743
 31
0.0
  0
LINE
  5
AC
330
1F
100
AcDbEntity
  8
0
  6
Continuous
 62
     7
370
    15
100
AcDbLine
 10
107.9358590131
 20
49.2548864686
 30
0.0
 11
107.9358590131
 21
49.2048867398
 31
0.0
  0
LINE
  5
AD
330
1F
100
AcDbEntity
  8
0
  6
Continuous
 62
     7
370
    15
100
AcDbLine
 10
108.5858589333
 20
49.2048867398
 30
0.0
 11
108.5858589333
 21
49.2548864686
 31
0.0
  0
LINE
  5
AE
330
1F
100
AcDbEntity
  8
0
  6
Continuous
 62
     7
370
    15
100
AcDbLine
 10
108.5858589333
 20
49.2548864686
 30
0.0
 11
108.5608590689
 21
49.2798865193
 31
0.0
  0
LINE
  5
AF
330
1F
100
AcDbEntity
  8
0
  6
Continuous
 62
     7
370
    15
100
AcDbLine
 10
107.9608589706
 20
49.2798865193
 30
0.0
 11
107.9358590131
 21
49.2548864686
 31
0.0
  0
LINE
  5
B0
330
1F
100
AcDbEntity
  8
0
  6
Continuous
 62
     7
370
    15
100
AcDbLine
 10
87.7608591986
 20
48.6626036817
 30
0.0
 11
87.7608591986
 21
48.5626036653
 31
0.0
  0
LINE
  5
B1
330
1F
100
AcDbEntity
  8
0
  6
Continuous
 62
     7
370
    15
100
AcDbLine
 10
88.6608595324
 20
48.5626036653
 30
0.0
 11
88.6608595324
 21
48.6626036817
 31
0.0
  0
LINE
  5
B2
330
1F
100
AcDbEntity
  8
0
  6
Continuous
 62
     7
370
    15
100
AcDbLine
 10
87.7608591986
 20
48.762603698
 30
0.0
 11
87.7608591986
 21
48.6626036817
 31
0.0
  0
LINE
  5
B3
330
1F
100
AcDbEntity
  8
0
  6
Continuous
 62
     7
370
    15
100
AcDbLine
 10
88.6608595324
 20
48.6626036817
 30
0.0
 11
88.6608595324
 21
48.762603698
 31
0.0
  0
LINE
  5
B4
330
1F
100
AcDbEntity
  8
0
  6
Continuous
 62
     7
370
    15
100
AcDbLine
 10
107.810858946
 20
48.6626036817
 30
0.0
 11
107.810858946
 21
48.5626036653
 31
0.0
  0
LINE
  5
B5
330
1F
100
AcDbEntity
  8
0
  6
Continuous
 62
     7
370
    15
100
AcDbLine
 10
108.7108590004
 20
48.5626036653
 30
0.0
 11
108.7108590004
 21
48.6626036817
 31
0.0
  0
LINE
  5
B6
330
1F
100
AcDbEntity
  8
0
  6
Continuous
 62
     7
370
    15
100
AcDbLine
 10
107.810858946
 20
48.762603698
 30
0.0
 11
107.810858946
 21
48.6626036817
 31
0.0
  0
LINE
  5
B7
330
1F
100
AcDbEntity
  8
0
  6
Continuous
 62
     7
370
    15
100
AcDbLine
 10
108.7108590004
 20
48.6626036817
 30
0.0
 11
108.7108590004
 21
48.762603698
 31
0.0
  0
LINE
  5
B8
330
1F
100
AcDbEntity
  8
0
  6
Continuous
 62
     7
370
    15
100
AcDbLine
 10
84.5409909558
 20
77.3303501659
 30
0.0
 11
84.5483595801
 21
77.330376988
 31
0.0
  0
LINE
  5
B9
330
1F
100
AcDbEntity
  8
0
  6
Continuous
 62
     7
370
    15
100
AcDbLine
 10
84.6108595205
 20
78.2805882746
 30
0.0
 11
84.5378572416
 21
78.2803468758
 31
0.0
  0
LWPOLYLINE
  5
BA
330
1F
100
AcDbEntity
  8
0
  6
Continuous
 62
     7
370
    15
100
AcDbPolyline
 90
       24
 70
   128
 43
0.0
 10
81.7878732753
 20
78.2712750488
 10
81.5149048639
 20
78.2703750187
 10
81.2432105017
 20
78.2694779688
 10
80.9740538073
 20
78.2685898596
 10
80.7086909485
 20
78.2677166515
 10
80.448361702
 20
78.2668553644
 10
80.194276042
 20
78.2660179192
 10
79.9476230812
 20
78.2652043158
 10
79.7095472288
 20
78.2644205147
 10
79.4811630917
 20
78.2636665159
 10
79.2635346127
 20
78.2629482799
 10
79.0576750708
 20
78.262268787
 10
78.8645441008
 20
78.2616310173
 10
78.685044713
 20
78.2610409313
 10
78.5200113726
 20
78.2604955488
 10
78.3702129793
 20
78.2600008303
 10
78.2363498879
 20
78.2595597559
 10
78.1190479469
 20
78.2591723257
 10
78.0188495588
 20
78.2588415199
 10
77.9362256003
 20
78.2585703188
 10
77.8715575409
 20
78.2583557421
 10
77.8251493645
 20
78.2582037502
 10
77.7972186279
 20
78.258111363
 10
77.7878934813
 20
78.2580815607
  0
LWPOLYLINE
  5
BB
330
1F
100
AcDbEntity
  8
0
  6
Continuous
 62
     7
370
    15
100
AcDbPolyline
 90
       24
 70
   128
 43
0.0
 10
77.7910286856
 20
77.3080848509
 10
77.8003538323
 20
77.3081176334
 10
77.8282845688
 20
77.3082100206
 10
77.8746927452
 20
77.3083620125
 10
77.9393578243
 20
77.3085765892
 10
78.0219817829
 20
77.3088477903
 10
78.122180171
 20
77.3091785961
 10
78.2394850922
 20
77.3095660263
 10
78.3733481836
 20
77.3100071007
 10
78.5231435967
 20
77.3105018192
 10
78.6881769371
 20
77.3110442215
 10
78.8676793051
 20
77.3116372877
 10
79.0608072949
 20
77.3122750574
 10
79.266669817
 20
77.3129545504
 10
79.484298296
 20
77.3136727863
 10
79.7126824331
 20
77.3144238048
 10
79.9507553053
 20
77.3152105862
 10
80.1974112463
 20
77.3160241896
 10
80.4514939261
 20
77.3168616348
 10
80.7118261528
 20
77.3177199417
 10
80.9771860314
 20
77.31859613
 10
81.2463427258
 20
77.3194842392
 10
81.518038578
 20
77.3203812891
 10
81.7910069895
 20
77.3212813192
  0
LINE
  5
BC
330
1F
100
AcDbEntity
  8
0
  6
Continuous
 62
     7
370
    15
100
AcDbLine
 10
84.5378572416
 20
78.2803468758
 30
0.0
 11
81.7878732753
 21
78.2712750488
 31
0.0
  0
LINE
  5
BD
330
1F
100
AcDbEntity
  8
0
  6
Continuous
 62
     7
370
    15
100
AcDbLine
 10
81.7910069895
 20
77.3212813192
 30
0.0
 11
84.5409909558
 21
77.3303501659
 31
0.0
  0
LINE
  5
BE
330
1F
100
AcDbEntity
  8
0
  6
Continuous
 62
     7
370
    15
100
AcDbLine
 10
84.3393603635
 20
78.7599705511
 30
0.0
 11
84.4616094899
 21
78.7338905388
 31
0.0
  0
LINE
  5
BF
330
1F
100
AcDbEntity
  8
0
  6
Continuous
 62
     7
370
    15
100
AcDbLine
 10
84.6108595205
 20
79.6734266334
 30
0.0
 11
84.5375696492
 21
79.6890609318
 31
0.0
  0
LWPOLYLINE
  5
C0
330
1F
100
AcDbEntity
  8
0
  6
Continuous
 62
     7
370
    15
100
AcDbPolyline
 90
       24
 70
   128
 43
0.0
 10
81.8480888677
 20
80.2628212028
 10
81.5811271143
 20
80.3197734409
 10
81.3154096079
 20
80.3764604383
 10
81.0521746349
 20
80.4326169544
 10
80.7926530314
 20
80.4879837089
 10
80.5380517912
 20
80.5422984415
 10
80.2895570469
 20
80.5953108126
 10
80.0483281088
 20
80.6467734629
 10
79.8154915047
 20
80.6964449936
 10
79.5921320391
 20
80.7440959269
 10
79.3792927933
 20
80.7895027452
 10
79.1779632044
 20
80.8324538523
 10
78.9890820456
 20
80.8727465921
 10
78.8135314655
 20
80.9101991707
 10
78.652128048
 20
80.944632774
 10
78.5056257916
 20
80.9758864695
 10
78.3747101498
 20
81.0038142258
 10
78.2599861097
 20
81.0282878929
 10
78.1619930935
 20
81.0491942221
 10
78.0811870766
 20
81.0664348656
 10
78.017940588
 20
81.0799263769
 10
77.9725546312
 20
81.0896091515
 10
77.9452378225
 20
81.0954355055
 10
77.9361183119
 20
81.0973815971
  0
LWPOLYLINE
  5
C1
330
1F
100
AcDbEntity
  8
0
  6
Continuous
 62
     7
370
    15
100
AcDbPolyline
 90
       24
 70
   128
 43
0.0
 10
77.7379120064
 20
80.1682882362
 10
77.747031517
 20
80.1663421446
 10
77.7743483257
 20
80.1605157906
 10
77.8197342825
 20
80.150833016
 10
77.8829777908
 20
80.1373415047
 10
77.9637838078
 20
80.1201008612
 10
78.0617798042
 20
80.0991975122
 10
78.176500864
 20
80.0747208649
 10
78.3074194861
 20
80.0467931086
 10
78.4539187622
 20
80.0155394131
 10
78.6153221798
 20
79.9811058098
 10
78.7908727598
 20
79.9436562115
 10
78.9797539187
 20
79.9033604914
 10
79.1810835076
 20
79.8604093843
 10
79.3939257336
 20
79.8150025659
 10
79.6172851992
 20
79.7673516327
 10
79.8501218033
 20
79.717680102
 10
80.0913477612
 20
79.6662174517
 10
80.3398425055
 20
79.6132050806
 10
80.5944437456
 20
79.558890348
 10
80.8539683294
 20
79.5035235935
 10
81.1172003222
 20
79.4473670774
 10
81.3829178286
 20
79.39068008
 10
81.6498810721
 20
79.3337278419
  0
LINE
  5
C2
330
1F
100
AcDbEntity
  8
0
  6
Continuous
 62
     7
370
    15
100
AcDbLine
 10
84.5375696492
 20
79.6890609318
 30
0.0
 11
81.8480888677
 21
80.2628212028
 31
0.0
  0
LINE
  5
C3
330
1F
100
AcDbEntity
  8
0
  6
Continuous
 62
     7
370
    15
100
AcDbLine
 10
81.6498810721
 20
79.3337278419
 30
0.0
 11
84.3393603635
 21
78.7599705511
 31
0.0
  0
LINE
  5
C4
330
1F
100
AcDbEntity
  8
0
  6
Continuous
 62
     7
370
    15
100
AcDbLine
 10
108.9008590502
 20
93.0926047617
 30
0.0
 11
108.8008590338
 21
93.0926047617
 31
0.0
  0
LINE
  5
C5
330
1F
100
AcDbEntity
  8
0
  6
Continuous
 62
     7
370
    15
100
AcDbLine
 10
108.8008590338
 20
91.8426029736
 30
0.0
 11
108.9008590502
 21
91.8426029736
 31
0.0
  0
LINE
  5
C6
330
1F
100
AcDbEntity
  8
0
  6
Continuous
 62
     7
370
    15
100
AcDbLine
 10
106.4008589896
 20
91.8426029736
 30
0.0
 11
106.5008589944
 21
91.8426029736
 31
0.0
  0
LINE
  5
C7
330
1F
100
AcDbEntity
  8
0
  6
Continuous
 62
     7
370
    15
100
AcDbLine
 10
106.5008589944
 20
93.0926047617
 30
0.0
 11
106.4008589896
 21
93.0926047617
 31
0.0
  0
LINE
  5
C8
330
1F
100
AcDbEntity
  8
0
  6
Continuous
 62
     7
370
    15
100
AcDbLine
 10
130.0408596468
 20
89.3426023775
 30
0.0
 11
130.0408596468
 21
92.2176026159
 31
0.0
  0
LINE
  5
C9
330
1F
100
AcDbEntity
  8
0
  6
Continuous
 62
     7
370
    15
100
AcDbLine
 10
128.7908593488
 20
91.8426029736
 30
0.0
 11
128.7908593488
 21
89.3426023775
 31
0.0
  0
LINE
  5
CA
330
1F
100
AcDbEntity
  8
0
  6
Continuous
 62
     7
370
    15
100
AcDbLine
 10
86.5108589006
 20
89.3426023775
 30
0.0
 11
86.5108589006
 21
91.8426029736
 31
0.0
  0
LINE
  5
CB
330
1F
100
AcDbEntity
  8
0
  6
Continuous
 62
     7
370
    15
100
AcDbLine
 10
85.2608586025
 20
92.2176026159
 30
0.0
 11
85.2608586025
 21
89.3426023775
 31
0.0
  0
LINE
  5
CC
330
1F
100
AcDbEntity
  8
0
  6
Continuous
 62
     7
370
    15
100
AcDbLine
 10
114.5258592737
 20
89.3426023775
 30
0.0
 11
114.5258592737
 21
91.8219469839
 31
0.0
  0
LINE
  5
CD
330
1F
100
AcDbEntity
  8
0
  6
Continuous
 62
     7
370
    15
100
AcDbLine
 10
113.2758589757
 20
91.8219469839
 30
0.0
 11
113.2758589757
 21
89.3426023775
 31
0.0
  0
SPLINE
  5
CE
330
1F
100
AcDbEntity
  8
0
  6
Continuous
 62
     7
370
    15
100
AcDbSpline
210
0.0
220
0.0
230
1.0
 70
     8
 71
     3
 72
    21
 73
    17
 74
     0
 42
0.00000001
 43
0.00000001
 40
0.0
 40
0.0
 40
0.0
 40
0.0
 40
0.0015320641766264
 40
0.0313726377126949
 40
0.1040188601256674
 40
0.1832734127516075
 40
0.2663059477100908
 40
0.3526647184372717
 40
0.4448230263868912
 40
0.5434191164696492
 40
0.6489116108275769
 40
0.7490683618331974
 40
0.8328574096585086
 40
0.9004418273280426
 40
0.9610574022726117
 40
0.9999999999999999
 40
0.9999999999999999
 40
0.9999999999999999
 40
0.9999999999999999
 10
114.5176509690448
 20
91.83612692889525
 30
0.0
 10
114.5176551785943
 20
91.83612351439498
 30
0.0
 10
114.5177413790779
 20
91.8360535944258
 30
0.0
 10
114.5160073845872
 20
91.8376330597428
 30
0.0
 10
114.5078542043028
 20
91.84517550362499
 30
0.0
 10
114.4869971571882
 20
91.86433316838297
 30
0.0
 10
114.4549080895185
 20
91.89362521248383
 30
0.0
 10
114.4122383682964
 20
91.93206462515421
 30
0.0
 10
114.3589318954272
 20
91.97930809099933
 30
0.0
 10
114.2943996537328
 20
92.03440699902377
 30
0.0
 10
114.2214936558161
 20
92.09414661027222
 30
0.0
 10
114.1451569878946
 20
92.15001307221415
 30
0.0
 10
114.0727457109462
 20
92.19474435544362
 30
0.0
 10
114.0061259888095
 20
92.224733696418
 30
0.0
 10
113.9494251074616
 20
92.24097464107933
 30
0.0
 10
113.9144733011592
 20
92.2410895734138
 30
0.0
 10
113.9008017552062
 20
92.24113452967956
 30
0.0
  0
SPLINE
  5
CF
330
1F
100
AcDbEntity
  8
0
  6
Continuous
 62
     7
370
    15
100
AcDbSpline
210
0.0
220
0.0
230
1.0
 70
     8
 71
     3
 72
    20
 73
    16
 74
     0
 42
0.00000001
 43
0.00000001
 40
0.0
 40
0.0
 40
0.0
 40
0.0
 40
0.0203521567649535
 40
0.069341164892397
 40
0.1082804447095491
 40
0.1364399786424824
 40
0.1521830710408718
 40
0.1568130159696636
 40
0.1601155732233137
 40
0.1640420492037453
 40
0.1708204398958259
 40
0.1872569099291717
 40
0.2545526933405349
 40
0.7753315012421644
 40
1.0
 40
1.0
 40
1.0
 40
1.0
 10
114.5251686048671
 20
91.82260561522796
 30
0.0
 10
114.5250787296511
 20
91.82324948129558
 30
0.0
 10
114.5247725187547
 20
91.82544317622826
 30
0.0
 10
114.5233609254119
 20
91.82864528586495
 30
0.0
 10
114.5214801774038
 20
91.83184632709806
 30
0.0
 10
114.5198510542938
 20
91.83389675503895
 30
0.0
 10
114.5187661526169
 20
91.83505957115672
 30
0.0
 10
114.5182973063795
 20
91.83551547829363
 30
0.0
 10
114.5181402197666
 20
91.83567311176564
 30
0.0
 10
114.5180255495943
 20
91.83577791692075
 30
0.0
 10
114.5179144361124
 20
91.83588376906584
 30
0.0
 10
114.5177930356257
 20
91.83599550307878
 30
0.0
 10
114.517507432621
 20
91.83627627056437
 30
0.0
 10
114.5168946844671
 20
91.8368305942177
 30
0.0
 10
114.5125951692273
 20
91.84078982314381
 30
0.0
 10
114.5112993490859
 20
91.84198308524444
 30
0.0
  0
SPLINE
  5
D0
330
1F
100
AcDbEntity
  8
0
  6
Continuous
 62
     7
370
    15
100
AcDbSpline
210
0.0
220
0.0
230
1.0
 70
     8
 71
     3
 72
    18
 73
    14
 74
     0
 42
0.00000001
 43
0.00000001
 40
0.0
 40
0.0
 40
0.0
 40
0.0
 40
0.1943504760178196
 40
0.5954385737048052
 40
0.7871735022498265
 40
0.8830504380094357
 40
0.931656221021621
 40
0.9339024923073521
 40
0.9357370866613147
 40
0.9397519420300857
 40
0.9521648749155648
 40
0.9745620365779006
 40
1.0
 40
1.0
 40
1.0
 40
1.0
 10
113.3195260834857
 20
91.86868298587157
 30
0.0
 10
113.3147234040669
 20
91.86429578623456
 30
0.0
 10
113.3000092616494
 20
91.85085456423221
 30
0.0
 10
113.2893322801233
 20
91.84097336270584
 30
0.0
 10
113.2854228915527
 20
91.8373928584712
 30
0.0
 10
113.2834592028087
 20
91.83555431191259
 30
0.0
 10
113.2845863375696
 20
91.8366274487312
 30
0.0
 10
113.2835279349341
 20
91.83562466943508
 30
0.0
 10
113.2831994239773
 20
91.83529807471771
 30
0.0
 10
113.2822472614119
 20
91.83433474209615
 30
0.0
 10
113.2804324594478
 20
91.83213505630266
 30
0.0
 10
113.2779528289208
 20
91.82834201991666
 30
0.0
 10
113.2772201555126
 20
91.82485392149178
 30
0.0
 10
113.276830531375
 20
91.82299900588347
 30
0.0
  0
SPLINE
  5
D1
330
1F
100
AcDbEntity
  8
0
  6
Continuous
 62
     7
370
    15
100
AcDbSpline
210
0.0
220
0.0
230
1.0
 70
     8
 71
     3
 72
    18
 73
    14
 74
     0
 42
0.00000001
 43
0.00000001
 40
0.0
 40
0.0
 40
0.0
 40
0.0
 40
0.0213953838135182
 40
0.0948536568529649
 40
0.1708625386685823
 40
0.2564196194113993
 40
0.3579406798375854
 40
0.4814670079861406
 40
0.6167499460471061
 40
0.7360718878899609
 40
0.8474753348684091
 40
0.951473166332503
 40
1.0
 40
1.0
 40
1.0
 40
1.0
 10
113.900799520032
 20
92.24119413432433
 30
0.0
 10
113.8947429223904
 20
92.24158757603016
 30
0.0
 10
113.8678917829391
 20
92.24333184876113
 30
0.0
 10
113.819948328927
 20
92.23222401769148
 30
0.0
 10
113.7581970360382
 20
92.20946069796652
 30
0.0
 10
113.6943492875455
 20
92.1742366166042
 30
0.0
 10
113.6249306926414
 20
92.12739927346972
 30
0.0
 10
113.5504479922638
 20
92.07059664894815
 30
0.0
 10
113.4798077952373
 20
92.01118184135582
 30
0.0
 10
113.4182971851311
 20
91.95773618475525
 30
0.0
 10
113.3698958790772
 20
91.91449562898303
 30
0.0
 10
113.3367898699213
 20
91.88449387428659
 30
0.0
 10
113.3236929606183
 20
91.87249918399412
 30
0.0
 10
113.3195260834857
 20
91.86868298587157
 30
0.0
  0
SPLINE
  5
D2
330
1F
100
AcDbEntity
  8
0
  6
Continuous
 62
     7
370
    15
100
AcDbSpline
210
0.0
220
0.0
230
1.0
 70
     8
 71
     3
 72
    18
 73
    14
 74
     0
 42
0.00000001
 43
0.00000001
 40
0.0
 40
0.0
 40
0.0
 40
0.0
 40
0.194349590070343
 40
0.5954387157415154
 40
0.7871738249464345
 40
0.8830507222933296
 40
0.9316566121547306
 40
0.9339028855569833
 40
0.9357374816395702
 40
0.9397512251060219
 40
0.9521652488802961
 40
0.9745615599345572
 40
1.0
 40
1.0
 40
1.0
 40
1.0
 10
100.8195257109566
 20
91.86868298587157
 30
0.0
 10
100.8147233297689
 20
91.86429578377167
 30
0.0
 10
100.8000100304718
 20
91.85085448974517
 30
0.0
 10
100.7893323890836
 20
91.84097335867625
 30
0.0
 10
100.7854216532432
 20
91.83739288483946
 30
0.0
 10
100.7834600801029
 20
91.83555427513436
 30
0.0
 10
100.7845862893229
 20
91.83662749091778
 30
0.0
 10
100.783527940853
 20
91.835624663993
 30
0.0
 10
100.7831994420965
 20
91.83529814514985
 30
0.0
 10
100.7822478262098
 20
91.83433438422526
 30
0.0
 10
100.7804321190538
 20
91.83213550099576
 30
0.0
 10
100.7779534918387
 20
91.82834173294866
 30
0.0
 10
100.7772203924141
 20
91.82485385402146
 30
0.0
 10
100.776830531375
 20
91.82299900588347
 30
0.0
  0
SPLINE
  5
D3
330
1F
100
AcDbEntity
  8
0
  6
Continuous
 62
     7
370
    15
100
AcDbSpline
210
0.0
220
0.0
230
1.0
 70
     8
 71
     3
 72
    18
 73
    14
 74
     0
 42
0.00000001
 43
0.00000001
 40
0.0
 40
0.0
 40
0.0
 40
0.0
 40
0.0214103736525036
 40
0.094867906932894
 40
0.1708759840504072
 40
0.2564313245656645
 40
0.3579507670699736
 40
0.4814751266028753
 40
0.6167559086853261
 40
0.7360756904260161
 40
0.8474778112424578
 40
0.9514738002416108
 40
1.0
 40
1.0
 40
1.0
 40
1.0
 10
101.4008129310771
 20
92.24119413432433
 30
0.0
 10
101.3947519810268
 20
92.24158771990713
 30
0.0
 10
101.367896324296
 20
92.24333167080891
 30
0.0
 10
101.3199483583066
 20
92.23222445994465
 30
0.0
 10
101.258196808378
 20
92.20946073384167
 30
0.0
 10
101.1943492528081
 20
92.17423653214728
 30
0.0
 10
101.1249306653508
 20
92.12739928682122
 30
0.0
 10
101.0504480478759
 20
92.07059662766892
 30
0.0
 10
100.9798076468117
 20
92.01118195358181
 30
0.0
 10
100.9182978093093
 20
91.95773597032445
 30
0.0
 10
100.8698951742007
 20
91.9144958072436
 30
0.0
 10
100.8367901096984
 20
91.88449380781591
 30
0.0
 10
100.823692745909
 20
91.87249917713616
 30
0.0
 10
100.8195257109566
 20
91.86868298587157
 30
0.0
  0
LINE
  5
D4
330
1F
100
AcDbEntity
  8
0
  6
Continuous
 62
     7
370
    15
100
AcDbLine
 10
102.0258589012
 20
89.3426023775
 30
0.0
 11
102.0258589012
 21
91.8219469839
 31
0.0
  0
LINE
  5
D5
330
1F
100
AcDbEntity
  8
0
  6
Continuous
 62
     7
370
    15
100
AcDbLine
 10
100.7758589757
 20
91.8219469839
 30
0.0
 11
100.7758589757
 21
89.3426023775
 31
0.0
  0
SPLINE
  5
D6
330
1F
100
AcDbEntity
  8
0
  6
Continuous
 62
     7
370
    15
100
AcDbSpline
210
0.0
220
0.0
230
1.0
 70
     8
 71
     3
 72
    21
 73
    17
 74
     0
 42
0.00000001
 43
0.00000001
 40
0.0
 40
0.0
 40
0.0
 40
0.0
 40
0.0015320833235334
 40
0.0313730566873023
 40
0.104020141129762
 40
0.1832756842361112
 40
0.2663091272613384
 40
0.3526691416923398
 40
0.444828795631285
 40
0.5434258977784928
 40
0.6489197105243933
 40
0.7490779813180822
 40
0.8328680762934642
 40
0.9004533385963907
 40
0.9610693284272603
 40
1.0
 40
1.0
 40
1.0
 40
1.0
 10
102.0176513415738
 20
91.83612692889525
 30
0.0
 10
102.0176555515277
 20
91.83612351439635
 30
0.0
 10
102.0177417603662
 20
91.83605359439503
 30
0.0
 10
102.0160061052266
 20
91.83763305541146
 30
0.0
 10
102.0078547304785
 20
91.8451755149397
 30
0.0
 10
101.9869968937009
 20
91.86433313606868
 30
0.0
 10
101.9549086607243
 20
91.89362528269578
 30
0.0
 10
101.912238306748
 20
91.93206463783297
 30
0.0
 10
101.8589314794183
 20
91.97930795049366
 30
0.0
 10
101.7943996947453
 20
92.03440708220518
 30
0.0
 10
101.7214936253145
 20
92.09414671239998
 30
0.0
 10
101.6451566456664
 20
92.15001296830167
 30
0.0
 10
101.5727453549595
 20
92.19474439791409
 30
0.0
 10
101.5061256996663
 20
92.2247335504175
 30
0.0
 10
101.4494292446176
 20
92.24097364415125
 30
0.0
 10
101.4144819635096
 20
92.24108929930482
 30
0.0
 10
101.4008147937222
 20
92.24113452967956
 30
0.0
  0
SPLINE
  5
D7
330
1F
100
AcDbEntity
  8
0
  6
Continuous
 62
     7
370
    15
100
AcDbSpline
210
0.0
220
0.0
230
1.0
 70
     8
 71
     3
 72
    20
 73
    16
 74
     0
 42
0.00000001
 43
0.00000001
 40
0.0
 40
0.0
 40
0.0
 40
0.0
 40
0.0203521497624208
 40
0.0693411410342979
 40
0.1082804074536768
 40
0.1364399316978062
 40
0.152183018679496
 40
0.1568129620152703
 40
0.1601155181326151
 40
0.164043046133457
 40
0.1708208622788254
 40
0.1872573266569023
 40
0.2545531745492207
 40
0.7753315785434807
 40
1.0
 40
1.0
 40
1.0
 40
1.0
 10
102.025168604867
 20
91.82260561522796
 30
0.0
 10
102.0250787297776
 20
91.8232494813022
 30
0.0
 10
102.0247725193121
 20
91.82544317625738
 30
0.0
 10
102.0233609197646
 20
91.82864528556972
 30
0.0
 10
102.021480191573
 20
91.8318463278388
 30
0.0
 10
102.0198510239147
 20
91.83389675345076
 30
0.0
 10
102.0187661957103
 20
91.8350595734096
 30
0.0
 10
102.0182972687067
 20
91.83551547632412
 30
0.0
 10
102.018140312893
 20
91.83567313136545
 30
0.0
 10
102.0180248965952
 20
91.83577788892015
 30
0.0
 10
102.0179149775911
 20
91.83588379359908
 30
0.0
 10
102.0177922039453
 20
91.83599546563445
 30
0.0
 10
102.0175085914324
 20
91.83627639637042
 30
0.0
 10
102.0168945049056
 20
91.83683057608427
 30
0.0
 10
102.0125951279429
 20
91.84078981866789
 30
0.0
 10
102.0112993490859
 20
91.84198308524444
 30
0.0
  0
LINE
  5
D8
330
1F
100
AcDbEntity
  8
0
  6
Continuous
 62
     7
370
    15
100
AcDbLine
 10
125.3077337814
 20
45.4625835994
 30
0.0
 11
125.3077337814
 21
45.5126036776
 31
0.0
  0
LINE
  5
D9
330
1F
100
AcDbEntity
  8
0
  6
Continuous
 62
     7
370
    15
100
AcDbLine
 10
124.9577338171
 20
45.5126036776
 30
0.0
 11
124.9577338171
 21
45.4624264154
 31
0.0
  0
LINE
  5
DA
330
1F
100
AcDbEntity
  8
0
  6
Continuous
 62
     7
370
    15
100
AcDbLine
 10
105.2602336106
 20
44.9486421773
 30
0.0
 11
105.2602336106
 21
45.5126036776
 31
0.0
  0
LINE
  5
DB
330
1F
100
AcDbEntity
  8
0
  6
Continuous
 62
     7
370
    15
100
AcDbLine
 10
104.9102335532
 20
45.5126036776
 30
0.0
 11
104.9102335532
 21
44.9486421773
 31
0.0
  0
LINE
  5
DC
330
1F
100
AcDbEntity
  8
0
  6
Continuous
 62
     7
370
    15
100
AcDbLine
 10
88.1833592725
 20
43.9538587236
 30
0.0
 11
88.1833592725
 21
44.303858781
 31
0.0
  0
LINE
  5
DD
330
1F
100
AcDbEntity
  8
0
  6
Continuous
 62
     7
370
    15
100
AcDbLine
 10
84.8233590198
 20
44.303858781
 30
0.0
 11
84.8233590198
 21
43.9538587236
 31
0.0
  0
LINE
  5
DE
330
1F
100
AcDbEntity
  8
0
  6
Continuous
 62
     7
370
    15
100
AcDbLine
 10
87.9421094728
 20
44.4138587804
 30
0.0
 11
87.9421094728
 21
45.4263587601
 31
0.0
  0
LINE
  5
DF
330
1F
100
AcDbEntity
  8
0
  6
Continuous
 62
     7
370
    15
100
AcDbLine
 10
85.0646088195
 20
45.4263587601
 30
0.0
 11
85.0646088195
 21
44.4138587804
 31
0.0
  0
LINE
  5
E0
330
1F
100
AcDbEntity
  8
0
  6
Continuous
 62
     7
370
    15
100
AcDbLine
 10
87.1908584905
 20
45.4263587601
 30
0.0
 11
87.1908584905
 21
45.5126036776
 31
0.0
  0
LINE
  5
E1
330
1F
100
AcDbEntity
  8
0
  6
Continuous
 62
     7
370
    15
100
AcDbLine
 10
85.8158583117
 20
45.5126036776
 30
0.0
 11
85.8158583117
 21
45.4263587601
 31
0.0
  0
ARC
  5
E2
330
1F
100
AcDbEntity
  8
0
  6
Continuous
 62
     7
370
    15
100
AcDbCircle
 10
88.3533589893
 20
43.8038587663
 30
0.0
 40
0.1500000000000057
100
AcDbArc
 50
0.0
 51
90.0
  0
LINE
  5
E3
330
1F
100
AcDbEntity
  8
0
  6
Continuous
 62
     7
370
    15
100
AcDbLine
 10
88.5033587289
 20
43.2038586938
 30
0.0
 11
88.5033587289
 21
43.8038587922
 31
0.0
  0
LINE
  5
E4
330
1F
100
AcDbEntity
  8
0
  6
Continuous
 62
     7
370
    15
100
AcDbLine
 10
83.7846095038
 20
48.2626036161
 30
0.0
 11
83.7846095038
 21
48.2651036584
 31
0.0
  0
LINE
  5
E5
330
1F
100
AcDbEntity
  8
0
  6
Continuous
 62
     7
370
    15
100
AcDbLine
 10
82.9671094489
 20
48.2651036584
 30
0.0
 11
82.9671094489
 21
48.2626036161
 31
0.0
  0
ARC
  5
E6
330
1F
100
AcDbEntity
  8
0
  6
Continuous
 62
     7
370
    15
100
AcDbCircle
 10
83.0271089893
 20
48.2651036661
 30
0.0
 40
0.0600000000000023
100
AcDbArc
 50
90.0
 51
180.0
  0
ARC
  5
E7
330
1F
100
AcDbEntity
  8
0
  6
Continuous
 62
     7
370
    15
100
AcDbCircle
 10
83.7246089893
 20
48.2651036661
 30
0.0
 40
0.0600000000000023
100
AcDbArc
 50
0.0
 51
90.0
  0
LINE
  5
E8
330
1F
100
AcDbEntity
  8
0
  6
Continuous
 62
     7
370
    15
100
AcDbLine
 10
82.2846094442
 20
48.2626036161
 30
0.0
 11
82.2846094442
 21
48.2651036584
 31
0.0
  0
LINE
  5
E9
330
1F
100
AcDbEntity
  8
0
  6
Continuous
 62
     7
370
    15
100
AcDbLine
 10
81.4671093893
 20
48.2651036584
 30
0.0
 11
81.4671093893
 21
48.2626036161
 31
0.0
  0
ARC
  5
EA
330
1F
100
AcDbEntity
  8
0
  6
Continuous
 62
     7
370
    15
100
AcDbCircle
 10
81.5271089893
 20
48.2651036661
 30
0.0
 40
0.0600000000000023
100
AcDbArc
 50
90.0
 51
180.0
  0
ARC
  5
EB
330
1F
100
AcDbEntity
  8
0
  6
Continuous
 62
     7
370
    15
100
AcDbCircle
 10
82.2246089893
 20
48.2651036661
 30
0.0
 40
0.0600000000000023
100
AcDbArc
 50
0.0
 51
90.0
  0
LINE
  5
EC
330
1F
100
AcDbEntity
  8
0
  6
Continuous
 62
     7
370
    15
100
AcDbLine
 10
130.6933591438
 20
52.1959193402
 30
0.0
 11
130.6908587289
 21
52.1959193402
 31
0.0
  0
ARC
  5
ED
330
1F
100
AcDbEntity
  8
0
  6
Continuous
 62
     7
370
    15
100
AcDbCircle
 10
130.6933589893
 20
52.1359195038
 30
0.0
 40
0.0600000000000094
100
AcDbArc
 50
0.0
 51
90.0
  0
LINE
  5
EE
330
1F
100
AcDbEntity
  8
0
  6
Continuous
 62
     7
370
    15
100
AcDbLine
 10
130.6908587289
 20
49.8784195983
 30
0.0
 11
130.6933591438
 21
49.8784195983
 31
0.0
  0
LINE
  5
EF
330
1F
100
AcDbEntity
  8
0
  6
Continuous
 62
     7
370
    15
100
AcDbLine
 10
130.6933591438
 20
50.6959196531
 30
0.0
 11
130.6908587289
 21
50.6959196531
 31
0.0
  0
ARC
  5
F0
330
1F
100
AcDbEntity
  8
0
  6
Continuous
 62
     7
370
    15
100
AcDbCircle
 10
130.6933589893
 20
50.6359195038
 30
0.0
 40
0.0600000000000023
100
AcDbArc
 50
0.0
 51
90.0
  0
ARC
  5
F1
330
1F
100
AcDbEntity
  8
0
  6
Continuous
 62
     7
370
    15
100
AcDbCircle
 10
130.6933589893
 20
49.9384195038
 30
0.0
 40
0.0600000000000023
100
AcDbArc
 50
270.0
 51
0.0
  0
LINE
  5
F2
330
1F
100
AcDbEntity
  8
0
  6
Continuous
 62
     7
370
    15
100
AcDbLine
 10
130.6908587289
 20
83.8538550192
 30
0.0
 11
130.6933591438
 21
83.8538550192
 31
0.0
  0
LINE
  5
F3
330
1F
100
AcDbEntity
  8
0
  6
Continuous
 62
     7
370
    15
100
AcDbLine
 10
130.6933591438
 20
84.6713535839
 30
0.0
 11
130.6908587289
 21
84.6713535839
 31
0.0
  0
ARC
  5
F4
330
1F
100
AcDbEntity
  8
0
  6
Continuous
 62
     7
370
    15
100
AcDbCircle
 10
130.6933589893
 20
84.6113536661
 30
0.0
 40
0.0600000000000023
100
AcDbArc
 50
0.0
 51
90.0
  0
ARC
  5
F5
330
1F
100
AcDbEntity
  8
0
  6
Continuous
 62
     7
370
    15
100
AcDbCircle
 10
130.6933589893
 20
83.9138536661
 30
0.0
 40
0.0600000000000023
100
AcDbArc
 50
270.0
 51
0.0
  0
LINE
  5
F6
330
1F
100
AcDbEntity
  8
0
  6
Continuous
 62
     7
370
    15
100
AcDbLine
 10
130.6908587289
 20
51.0038536393
 30
0.0
 11
130.6933591438
 21
51.0038536393
 31
0.0
  0
LINE
  5
F7
330
1F
100
AcDbEntity
  8
0
  6
Continuous
 62
     7
370
    15
100
AcDbLine
 10
130.6933591438
 20
51.8213536942
 30
0.0
 11
130.6908587289
 21
51.8213536942
 31
0.0
  0
ARC
  5
F8
330
1F
100
AcDbEntity
  8
0
  6
Continuous
 62
     7
370
    15
100
AcDbCircle
 10
130.6933589893
 20
51.7613536661
 30
0.0
 40
0.0600000000000023
100
AcDbArc
 50
0.0
 51
90.0
  0
ARC
  5
F9
330
1F
100
AcDbEntity
  8
0
  6
Continuous
 62
     7
370
    15
100
AcDbCircle
 10
130.6933589893
 20
51.0638536661
 30
0.0
 40
0.0600000000000023
100
AcDbArc
 50
270.0
 51
0.0
  0
LINE
  5
FA
330
1F
100
AcDbEntity
  8
0
  6
Continuous
 62
     7
370
    15
100
AcDbLine
 10
84.6108595205
 20
72.4713527018
 30
0.0
 11
84.6083591056
 21
72.4713527018
 31
0.0
  0
LINE
  5
FB
330
1F
100
AcDbEntity
  8
0
  6
Continuous
 62
     7
370
    15
100
AcDbLine
 10
84.6083591056
 20
71.653854137
 30
0.0
 11
84.6108595205
 21
71.653854137
 31
0.0
  0
ARC
  5
FC
330
1F
100
AcDbEntity
  8
0
  6
Continuous
 62
     7
370
    15
100
AcDbCircle
 10
84.6083589893
 20
71.7138536661
 30
0.0
 40
0.0600000000000023
100
AcDbArc
 50
180.0
 51
270.0
  0
ARC
  5
FD
330
1F
100
AcDbEntity
  8
0
  6
Continuous
 62
     7
370
    15
100
AcDbCircle
 10
84.6083589893
 20
72.4113536661
 30
0.0
 40
0.0600000000000023
100
AcDbArc
 50
90.0
 51
180.0
  0
ARC
  5
FE
330
1F
100
AcDbEntity
  8
0
  6
Continuous
 62
     7
370
    15
100
AcDbCircle
 10
84.6083589893
 20
84.2888536661
 30
0.0
 40
0.0600000000000023
100
AcDbArc
 50
180.0
 51
270.0
  0
ARC
  5
FF
330
1F
100
AcDbEntity
  8
0
  6
Continuous
 62
     7
370
    15
100
AcDbCircle
 10
84.6083589893
 20
84.9863536661
 30
0.0
 40
0.0600000000000023
100
AcDbArc
 50
90.0
 51
180.0
  0
LINE
  5
100
330
1F
100
AcDbEntity
  8
0
  6
Continuous
 62
     7
370
    15
100
AcDbLine
 10
84.6108595205
 20
85.0463532263
 30
0.0
 11
84.6083591056
 21
85.0463532263
 31
0.0
  0
LINE
  5
101
330
1F
100
AcDbEntity
  8
0
  6
Continuous
 62
     7
370
    15
100
AcDbLine
 10
84.6083591056
 20
84.2288546616
 30
0.0
 11
84.6108595205
 21
84.2288546616
 31
0.0
  0
LINE
  5
102
330
1F
100
AcDbEntity
  8
0
  6
Continuous
 62
     7
370
    15
100
AcDbLine
 10
84.6108595205
 20
77.4963550621
 30
0.0
 11
84.6083591056
 21
77.4963550621
 31
0.0
  0
LINE
  5
103
330
1F
100
AcDbEntity
  8
0
  6
Continuous
 62
     7
370
    15
100
AcDbLine
 10
84.6083591056
 20
76.6788535171
 30
0.0
 11
84.6108595205
 21
76.6788535171
 31
0.0
  0
ARC
  5
104
330
1F
100
AcDbEntity
  8
0
  6
Continuous
 62
     7
370
    15
100
AcDbCircle
 10
84.6083589893
 20
76.7388536661
 30
0.0
 40
0.0600000000000165
100
AcDbArc
 50
180.0
 51
270.0
  0
ARC
  5
105
330
1F
100
AcDbEntity
  8
0
  6
Continuous
 62
     7
370
    15
100
AcDbCircle
 10
84.6083589893
 20
77.4363536661
 30
0.0
 40
0.0600000000000165
100
AcDbArc
 50
90.0
 51
180.0
  0
LINE
  5
106
330
1F
100
AcDbEntity
  8
0
  6
Continuous
 62
     7
370
    15
100
AcDbLine
 10
84.6108595205
 20
51.8113535249
 30
0.0
 11
84.6083591056
 21
51.8113535249
 31
0.0
  0
LINE
  5
107
330
1F
100
AcDbEntity
  8
0
  6
Continuous
 62
     7
370
    15
100
AcDbLine
 10
84.6083591056
 20
50.9938538426
 30
0.0
 11
84.6108595205
 21
50.9938538426
 31
0.0
  0
ARC
  5
108
330
1F
100
AcDbEntity
  8
0
  6
Continuous
 62
     7
370
    15
100
AcDbCircle
 10
84.6083589893
 20
51.0538536661
 30
0.0
 40
0.0600000000000023
100
AcDbArc
 50
180.0
 51
270.0
  0
ARC
  5
109
330
1F
100
AcDbEntity
  8
0
  6
Continuous
 62
     7
370
    15
100
AcDbCircle
 10
84.6083589893
 20
51.7513536661
 30
0.0
 40
0.0600000000000023
100
AcDbArc
 50
90.0
 51
180.0
  0
LINE
  5
10A
330
1F
100
AcDbEntity
  8
0
  6
Continuous
 62
     7
370
    15
100
AcDbLine
 10
90.0208587122
 20
87.297602778
 30
0.0
 11
90.0208587122
 21
87.3226039463
 31
0.0
  0
LINE
  5
10B
330
1F
100
AcDbEntity
  8
0
  6
Continuous
 62
     7
370
    15
100
AcDbLine
 10
89.5008588505
 20
87.3226039463
 30
0.0
 11
89.5008588505
 21
87.297602778
 31
0.0
  0
LINE
  5
10C
330
1F
100
AcDbEntity
  8
0
  6
Continuous
 62
     7
370
    15
100
AcDbLine
 10
110.7208589387
 20
87.297602778
 30
0.0
 11
110.7208589387
 21
87.3226039463
 31
0.0
  0
LINE
  5
10D
330
1F
100
AcDbEntity
  8
0
  6
Continuous
 62
     7
370
    15
100
AcDbLine
 10
110.200859077
 20
87.3226039463
 30
0.0
 11
110.200859077
 21
87.297602778
 31
0.0
  0
LINE
  5
10E
330
1F
100
AcDbEntity
  8
0
  6
Continuous
 62
     7
370
    15
100
AcDbLine
 10
109.5708588433
 20
87.297602778
 30
0.0
 11
109.5708588433
 21
87.3226039463
 31
0.0
  0
LINE
  5
10F
330
1F
100
AcDbEntity
  8
0
  6
Continuous
 62
     7
370
    15
100
AcDbLine
 10
109.0508589816
 20
87.3226039463
 30
0.0
 11
109.0508589816
 21
87.297602778
 31
0.0
  0
LINE
  5
110
330
1F
100
AcDbEntity
  8
0
  6
Continuous
 62
     7
370
    15
100
AcDbLine
 10
108.4208589342
 20
87.297602778
 30
0.0
 11
108.4208589342
 21
87.3226039463
 31
0.0
  0
LINE
  5
111
330
1F
100
AcDbEntity
  8
0
  6
Continuous
 62
     7
370
    15
100
AcDbLine
 10
107.9008589794
 20
87.3226039463
 30
0.0
 11
107.9008589794
 21
87.297602778
 31
0.0
  0
LINE
  5
112
330
1F
100
AcDbEntity
  8
0
  6
Continuous
 62
     7
370
    15
100
AcDbLine
 10
91.1708588076
 20
87.297602778
 30
0.0
 11
91.1708588076
 21
87.3226039463
 31
0.0
  0
LINE
  5
113
330
1F
100
AcDbEntity
  8
0
  6
Continuous
 62
     7
370
    15
100
AcDbLine
 10
90.6508589459
 20
87.3226039463
 30
0.0
 11
90.6508589459
 21
87.297602778
 31
0.0
  0
LINE
  5
114
330
1F
100
AcDbEntity
  8
0
  6
Continuous
 62
     7
370
    15
100
AcDbLine
 10
88.8708586168
 20
87.297602778
 30
0.0
 11
88.8708586168
 21
87.3226039463
 31
0.0
  0
LINE
  5
115
330
1F
100
AcDbEntity
  8
0
  6
Continuous
 62
     7
370
    15
100
AcDbLine
 10
88.3508587551
 20
87.3226039463
 30
0.0
 11
88.3508587551
 21
87.297602778
 31
0.0
  0
LINE
  5
116
330
1F
100
AcDbEntity
  8
0
  6
Continuous
 62
     7
370
    15
100
AcDbLine
 10
121.8483591747
 20
45.3176036828
 30
0.0
 11
121.8608582688
 21
45.2876036872
 31
0.0
  0
LINE
  5
117
330
1F
100
AcDbEntity
  8
0
  6
Continuous
 62
     7
370
    15
100
AcDbLine
 10
122.1858585549
 20
45.2876036872
 30
0.0
 11
122.198359139
 21
45.3176036828
 31
0.0
  0
LINE
  5
118
330
1F
100
AcDbEntity
  8
0
  6
Continuous
 62
     7
370
    15
100
AcDbLine
 10
121.8483591747
 20
45.4776036672
 30
0.0
 11
121.8483591747
 21
45.3176036828
 31
0.0
  0
LINE
  5
119
330
1F
100
AcDbEntity
  8
0
  6
Continuous
 62
     7
370
    15
100
AcDbLine
 10
122.198359139
 20
45.3176036828
 30
0.0
 11
122.198359139
 21
45.4776036672
 31
0.0
  0
LINE
  5
11A
330
1F
100
AcDbEntity
  8
0
  6
Continuous
 62
     7
370
    15
100
AcDbLine
 10
120.5958584619
 20
45.2701036704
 30
0.0
 11
120.5658594442
 21
45.300103666
 31
0.0
  0
LINE
  5
11B
330
1F
100
AcDbEntity
  8
0
  6
Continuous
 62
     7
370
    15
100
AcDbLine
 10
119.8308596683
 20
45.300103666
 30
0.0
 11
119.8008591604
 21
45.2701036704
 31
0.0
  0
LINE
  5
11C
330
1F
100
AcDbEntity
  8
0
  6
Continuous
 62
     7
370
    15
100
AcDbLine
 10
120.5958584619
 20
44.9776036551
 30
0.0
 11
120.5958584619
 21
45.2701036704
 31
0.0
  0
LINE
  5
11D
330
1F
100
AcDbEntity
  8
0
  6
Continuous
 62
     7
370
    15
100
AcDbLine
 10
119.8008591604
 20
45.2701036704
 30
0.0
 11
119.8008591604
 21
44.9776036551
 31
0.0
  0
LINE
  5
11E
330
1F
100
AcDbEntity
  8
0
  6
Continuous
 62
     7
370
    15
100
AcDbLine
 10
115.3458589983
 20
45.2701036704
 30
0.0
 11
115.3158592355
 21
45.300103666
 31
0.0
  0
LINE
  5
11F
330
1F
100
AcDbEntity
  8
0
  6
Continuous
 62
     7
370
    15
100
AcDbLine
 10
114.5808587146
 20
45.300103666
 30
0.0
 11
114.5508589518
 21
45.2701036704
 31
0.0
  0
LINE
  5
120
330
1F
100
AcDbEntity
  8
0
  6
Continuous
 62
     7
370
    15
100
AcDbLine
 10
115.3458589983
 20
44.9776036551
 30
0.0
 11
115.3458589983
 21
45.2701036704
 31
0.0
  0
LINE
  5
121
330
1F
100
AcDbEntity
  8
0
  6
Continuous
 62
     7
370
    15
100
AcDbLine
 10
114.5508589518
 20
45.2701036704
 30
0.0
 11
114.5508589518
 21
44.9776036551
 31
0.0
  0
ARC
  5
122
330
1F
100
AcDbEntity
  8
0
  6
Continuous
 62
     7
370
    15
100
AcDbCircle
 10
85.8858589893
 20
92.4676036661
 30
0.0
 40
0.6250000000000142
100
AcDbArc
 50
90.0
 51
270.0
  0
LINE
  5
123
330
1F
100
AcDbEntity
  8
0
  6
Continuous
 62
     7
370
    15
100
AcDbLine
 10
106.4008589896
 20
93.0926047617
 30
0.0
 11
106.4008589896
 21
91.8426029736
 31
0.0
  0
ARC
  5
124
330
1F
100
AcDbEntity
  8
0
  6
Continuous
 62
     7
370
    15
100
AcDbCircle
 10
129.4158589893
 20
92.4676036661
 30
0.0
 40
0.6250000000000142
100
AcDbArc
 50
270.0
 51
90.0
  0
LINE
  5
125
330
1F
100
AcDbEntity
  8
0
  6
Continuous
 62
     7
370
    15
100
AcDbLine
 10
108.9008590502
 20
93.0926047617
 30
0.0
 11
108.9008590502
 21
91.8426029736
 31
0.0
  0
LINE
  5
126
330
1F
100
AcDbEntity
  8
0
  6
Continuous
 62
     7
370
    15
100
AcDbLine
 10
80.3308600855
 20
46.0999421195
 30
0.0
 11
80.3308600855
 21
46.6174421252
 31
0.0
  0
LINE
  5
127
330
1F
100
AcDbEntity
  8
0
  6
Continuous
 62
     7
370
    15
100
AcDbLine
 10
80.3308600855
 20
46.6174421252
 30
0.0
 11
130.3308585954
 21
46.6174421252
 31
0.0
  0
LINE
  5
128
330
1F
100
AcDbEntity
  8
0
  6
Continuous
 62
     7
370
    15
100
AcDbLine
 10
130.3308585954
 20
46.0999421195
 30
0.0
 11
130.3308585954
 21
46.6174421252
 31
0.0
  0
LINE
  5
129
330
1F
100
AcDbEntity
  8
0
  6
Continuous
 62
     7
370
    15
100
AcDbLine
 10
80.3308600855
 20
46.0999421195
 30
0.0
 11
130.3308585954
 21
46.0999421195
 31
0.0
  0
LINE
  5
12A
330
1F
100
AcDbEntity
  8
0
  6
Continuous
 62
     7
370
    15
100
AcDbLine
 10
128.4258583856
 20
46.0876036554
 30
0.0
 11
82.4258590412
 21
46.0876036554
 31
0.0
  0
LINE
  5
12B
330
1F
100
AcDbEntity
  8
0
  6
Continuous
 62
     7
370
    15
100
AcDbLine
 10
128.4258583856
 20
45.5126036776
 30
0.0
 11
128.4258583856
 21
46.0876036554
 31
0.0
  0
LINE
  5
12C
330
1F
100
AcDbEntity
  8
0
  6
Continuous
 62
     7
370
    15
100
AcDbLine
 10
128.4258583856
 20
45.5126036776
 30
0.0
 11
82.4258590412
 21
45.5126036776
 31
0.0
  0
LINE
  5
12D
330
1F
100
AcDbEntity
  8
0
  6
Continuous
 62
     7
370
    15
100
AcDbLine
 10
82.4258590412
 20
45.5126036776
 30
0.0
 11
82.4258590412
 21
46.0876036554
 31
0.0
  0
LINE
  5
12E
330
1F
100
AcDbEntity
  8
0
  6
Continuous
 62
     7
370
    15
100
AcDbLine
 10
128.4258583856
 20
47.2126036302
 30
0.0
 11
82.4258590412
 21
47.2126036302
 31
0.0
  0
LINE
  5
12F
330
1F
100
AcDbEntity
  8
0
  6
Continuous
 62
     7
370
    15
100
AcDbLine
 10
82.4258590412
 20
46.6376036757
 30
0.0
 11
82.4258590412
 21
47.2126036302
 31
0.0
  0
LINE
  5
130
330
1F
100
AcDbEntity
  8
0
  6
Continuous
 62
     7
370
    15
100
AcDbLine
 10
128.4258583856
 20
46.6376036757
 30
0.0
 11
128.4258583856
 21
47.2126036302
 31
0.0
  0
LINE
  5
131
330
1F
100
AcDbEntity
  8
0
  6
Continuous
 62
     7
370
    15
100
AcDbLine
 10
128.4258583856
 20
46.6376036757
 30
0.0
 11
82.4258590412
 21
46.6376036757
 31
0.0
  0
SPLINE
  5
132
330
1F
100
AcDbEntity
  8
0
  6
Continuous
 62
     7
370
    15
100
AcDbSpline
210
0.0
220
0.0
230
1.0
 70
     8
 71
     3
 72
    12
 73
     8
 74
     0
 42
0.00000001
 43
0.00000001
 40
0.0
 40
0.0
 40
0.0
 40
0.0
 40
0.2277600596621922
 40
0.4555780339460641
 40
0.6833979198035266
 40
0.9112229336558316
 40
1.0
 40
1.0
 40
1.0
 40
1.0
 10
130.8023238849803
 20
87.45760250624969
 30
0.0
 10
130.7966278877917
 20
87.44150151312054
 30
0.0
 10
130.7852344450417
 20
87.40929543271626
 30
0.0
 10
130.768139547189
 20
87.36706187484755
 30
0.0
 10
130.7510581226663
 20
87.33648952021072
 30
0.0
 10
130.7374145305941
 20
87.3238123736762
 30
0.0
 10
130.7295333026535
 20
87.32286858901189
 30
0.0
 10
130.7273233604594
 20
87.3226039462979
 30
0.0
  0
LINE
  5
133
330
1F
100
AcDbEntity
  8
0
  6
Continuous
 62
     7
370
    15
100
AcDbLine
 10
84.5743948889
 20
87.3226039463
 30
0.0
 11
130.7273233605
 21
87.3226039463
 31
0.0
  0
SPLINE
  5
134
330
1F
100
AcDbEntity
  8
0
  6
Continuous
 62
     7
370
    15
100
AcDbSpline
210
0.0
220
0.0
230
1.0
 70
     8
 71
     3
 72
    12
 73
     8
 74
     0
 42
0.00000001
 43
0.00000001
 40
0.0
 40
0.0
 40
0.0
 40
0.0
 40
0.227766058094421
 40
0.4555892487279264
 40
0.6834138547402411
 40
0.9112288225738197
 40
0.9999999999999999
 40
0.9999999999999999
 40
0.9999999999999999
 40
0.9999999999999999
 10
84.57439488889415
 20
87.3226039462979
 30
0.0
 10
84.56869890248016
 20
87.32428486189553
 30
0.0
 10
84.55730550087848
 20
87.32764711472946
 30
0.0
 10
84.54021049297748
 20
87.35376004173582
 30
0.0
 10
84.52312978263289
 20
87.39177960279602
 30
0.0
 10
84.50948566858285
 20
87.42907606223368
 30
0.0
 10
84.50160430830748
 20
87.45135536112275
 30
0.0
 10
84.49939436437327
 20
87.45760250624969
 30
0.0
  0
LINE
  5
135
330
1F
100
AcDbEntity
  8
0
  6
Continuous
 62
     7
370
    15
100
AcDbLine
 10
84.4993943644
 20
89.2076038176
 30
0.0
 11
84.4993943644
 21
87.4576025062
 31
0.0
  0
LINE
  5
136
330
1F
100
AcDbEntity
  8
0
  6
Continuous
 62
     7
370
    15
100
AcDbLine
 10
130.802323885
 20
89.2076038176
 30
0.0
 11
130.802323885
 21
87.4576025062
 31
0.0
  0
SPLINE
  5
137
330
1F
100
AcDbEntity
  8
0
  6
Continuous
 62
     7
370
    15
100
AcDbSpline
210
0.0
220
0.0
230
1.0
 70
     8
 71
     3
 72
    12
 73
     8
 74
     0
 42
0.00000001
 43
0.00000001
 40
0.0
 40
0.0
 40
0.0
 40
0.0
 40
0.2265929499256373
 40
0.4532268019889694
 40
0.679875167388148
 40
0.9065203588763214
 40
1.0
 40
1.0
 40
1.0
 40
1.0
 10
130.7308594060107
 20
89.34260237750367
 30
0.0
 10
130.7362589650268
 20
89.3409386858298
 30
0.0
 10
130.7470590577296
 20
89.33761100217026
 30
0.0
 10
130.7632622821981
 20
89.31175979398309
 30
0.0
 10
130.779458078736
 20
89.27408381967076
 30
0.0
 10
130.7925104264075
 20
89.23671267152675
 30
0.0
 10
130.8001059239962
 20
89.21418277255813
 30
0.0
 10
130.8023238849802
 20
89.20760381755187
 30
0.0
  0
LINE
  5
138
330
1F
100
AcDbEntity
  8
0
  6
Continuous
 62
     7
370
    15
100
AcDbLine
 10
84.5708588433
 20
89.3426023775
 30
0.0
 11
130.730859406
 21
89.3426023775
 31
0.0
  0
SPLINE
  5
139
330
1F
100
AcDbEntity
  8
0
  6
Continuous
 62
     7
370
    15
100
AcDbSpline
210
0.0
220
0.0
230
1.0
 70
     8
 71
     3
 72
    12
 73
     8
 74
     0
 42
0.00000001
 43
0.00000001
 40
0.0
 40
0.0
 40
0.0
 40
0.0
 40
0.2265868781855682
 40
0.4532262638853256
 40
0.6798766318217767
 40
0.9065161091015833
 40
1.0
 40
1.0
 40
1.0
 40
1.0
 10
84.49939436437327
 20
89.20760381755187
 30
0.0
 10
84.50479376130404
 20
89.223622130023
 30
0.0
 10
84.51559380638062
 20
89.2556624669268
 30
0.0
 10
84.53179993203192
 20
89.29774146831615
 30
0.0
 10
84.5479909256534
 20
89.32832644146136
 30
0.0
 10
84.56104868884906
 20
89.34130435827448
 30
0.0
 10
84.56864154325376
 20
89.34230899801057
 30
0.0
 10
84.57085884334283
 20
89.34260237750367
 30
0.0
  0
LINE
  5
13A
330
1F
100
AcDbEntity
  8
0
  6
Continuous
 62
     7
370
    15
100
AcDbLine
 10
84.4958583188
 20
87.4576025062
 30
0.0
 11
84.4358587933
 21
87.4576025062
 31
0.0
  0
SPLINE
  5
13B
330
1F
100
AcDbEntity
  8
0
  6
Continuous
 62
     7
370
    15
100
AcDbSpline
210
0.0
220
0.0
230
1.0
 70
     8
 71
     3
 72
    10
 73
     6
 74
     0
 42
0.00000001
 43
0.00000001
 40
0.0
 40
0.0
 40
0.0
 40
0.0
 40
0.4368931219874274
 40
0.9379273409242314
 40
1.0
 40
1.0
 40
1.0
 40
1.0
 10
84.49585831882197
 20
87.45760250624969
 30
0.0
 10
84.49686270037436
 20
87.44903447310234
 30
0.0
 10
84.4990189186147
 20
87.43064051782495
 30
0.0
 10
84.50869793051378
 20
87.41142265132473
 30
0.0
 10
84.51792059972082
 20
87.40508061700434
 30
0.0
 10
84.518937237279
 20
87.40438151892975
 30
0.0
  0
SPLINE
  5
13C
330
1F
100
AcDbEntity
  8
0
  6
Continuous
 62
     7
370
    15
100
AcDbSpline
210
0.0
220
0.0
230
1.0
 70
     8
 71
     3
 72
    12
 73
     8
 74
     0
 42
0.00000001
 43
0.00000001
 40
0.0
 40
0.0
 40
0.0
 40
0.0
 40
0.2277606230956828
 40
0.4555802745495947
 40
0.683404066817179
 40
0.9112307578913486
 40
1.0
 40
1.0
 40
1.0
 40
1.0
 10
84.43585879327495
 20
87.45760250624969
 30
0.0
 10
84.43754031475487
 20
87.44150150266842
 30
0.0
 10
84.44090379351196
 20
87.40929532263438
 30
0.0
 10
84.467016909566
 20
87.36706166105263
 30
0.0
 10
84.50503514022799
 20
87.33648968521544
 30
0.0
 10
84.54233107932583
 20
87.3238125819511
 30
0.0
 10
84.56461166636464
 20
87.32286862041758
 30
0.0
 10
84.57085884334283
 20
87.3226039462979
 30
0.0
  0
LINE
  5
13D
330
1F
100
AcDbEntity
  8
0
  6
Continuous
 62
     7
370
    15
100
AcDbLine
 10
130.8058584404
 20
87.4576025062
 30
0.0
 11
130.8658594561
 21
87.4576025062
 31
0.0
  0
SPLINE
  5
13E
330
1F
100
AcDbEntity
  8
0
  6
Continuous
 62
     7
370
    15
100
AcDbSpline
210
0.0
220
0.0
230
1.0
 70
     8
 71
     3
 72
     9
 73
     5
 74
     0
 42
0.00000001
 43
0.00000001
 40
0.0
 40
0.0
 40
0.0
 40
0.0
 40
0.4814012027965645
 40
0.9999999999999999
 40
0.9999999999999999
 40
0.9999999999999999
 40
0.9999999999999999
 10
130.7823458981677
 20
87.40325797137572
 30
0.0
 10
130.7888693038294
 20
87.41076492537536
 30
0.0
 10
130.8024201749611
 20
87.42635889139791
 30
0.0
 10
130.8046842788578
 20
87.44693286716381
 30
0.0
 10
130.8058584404154
 20
87.45760250624969
 30
0.0
  0
SPLINE
  5
13F
330
1F
100
AcDbEntity
  8
0
  6
Continuous
 62
     7
370
    15
100
AcDbSpline
210
0.0
220
0.0
230
1.0
 70
     8
 71
     3
 72
    12
 73
     8
 74
     0
 42
0.00000001
 43
0.00000001
 40
0.0
 40
0.0
 40
0.0
 40
0.0
 40
0.2277591239734102
 40
0.4555837794631505
 40
0.6834120795152012
 40
0.9112304720556871
 40
1.0
 40
1.0
 40
1.0
 40
1.0
 10
130.7308594060107
 20
87.32260394629792
 30
0.0
 10
130.7469603655348
 20
87.3242849475844
 30
0.0
 10
130.7791669171979
 20
87.32764743381998
 30
0.0
 10
130.8214019262778
 20
87.3537601907177
 30
0.0
 10
130.8519737840126
 20
87.39177972583485
 30
0.0
 10
130.8646481703905
 20
87.42907538153797
 30
0.0
 10
130.8655941957284
 20
87.45135533007449
 30
0.0
 10
130.8658594560786
 20
87.45760250624969
 30
0.0
  0
SPLINE
  5
140
330
1F
100
AcDbEntity
  8
0
  6
Continuous
 62
     7
370
    15
100
AcDbSpline
210
0.0
220
0.0
230
1.0
 70
     8
 71
     3
 72
    12
 73
     8
 74
     0
 42
0.00000001
 43
0.00000001
 40
0.0
 40
0.0
 40
0.0
 40
0.0
 40
0.2265873364852984
 40
0.4532294081117983
 40
0.6798722628983076
 40
0.9065222405074481
 40
1.0
 40
1.0
 40
1.0
 40
1.0
 10
84.57085884334283
 20
89.34260237750367
 30
0.0
 10
84.55484074034358
 20
89.34093846152527
 30
0.0
 10
84.52280066496233
 20
89.33761022762779
 30
0.0
 10
84.48071890545134
 20
89.31176121832057
 30
0.0
 10
84.45013882299249
 20
89.27408229053917
 30
0.0
 10
84.43715668384955
 20
89.23671357179963
 30
0.0
 10
84.43615212569915
 20
89.21418282733019
 30
0.0
 10
84.43585879327495
 20
89.20760381755187
 30
0.0
  0
SPLINE
  5
141
330
1F
100
AcDbEntity
  8
0
  6
Continuous
 62
     7
370
    15
100
AcDbSpline
210
0.0
220
0.0
230
1.0
 70
     8
 71
     3
 72
     9
 73
     5
 74
     0
 42
0.00000001
 43
0.00000001
 40
0.0
 40
0.0
 40
0.0
 40
0.0
 40
0.4426172928794887
 40
1.0
 40
1.0
 40
1.0
 40
1.0
 10
84.5173606944247
 20
89.25915289458587
 30
0.0
 10
84.51174423716355
 20
89.25263400472006
 30
0.0
 10
84.49905504188922
 20
89.23790595416558
 30
0.0
 10
84.49700241664006
 20
89.21844886344846
 30
0.0
 10
84.49585831882197
 20
89.20760381755187
 30
0.0
  0
LINE
  5
142
330
1F
100
AcDbEntity
  8
0
  6
Continuous
 62
     7
370
    15
100
AcDbLine
 10
84.4358587933
 20
89.2076038176
 30
0.0
 11
84.4958583188
 21
89.2076038176
 31
0.0
  0
SPLINE
  5
143
330
1F
100
AcDbEntity
  8
0
  6
Continuous
 62
     7
370
    15
100
AcDbSpline
210
0.0
220
0.0
230
1.0
 70
     8
 71
     3
 72
    12
 73
     8
 74
     0
 42
0.00000001
 43
0.00000001
 40
0.0
 40
0.0
 40
0.0
 40
0.0
 40
0.2265888633147382
 40
0.4532269663924309
 40
0.6798754205833609
 40
0.906513615242319
 40
1.0
 40
1.0
 40
1.0
 40
1.0
 10
130.8658594560786
 20
89.20760381755187
 30
0.0
 10
130.8641952411585
 20
89.22362207863716
 30
0.0
 10
130.8608664496698
 20
89.25566208171747
 30
0.0
 10
130.8350132897121
 20
89.29774145365256
 30
0.0
 10
130.7973404159193
 20
89.32832647545246
 30
0.0
 10
130.7599687990688
 20
89.34130443542833
 30
0.0
 10
130.7374388542246
 20
89.34230901025094
 30
0.0
 10
130.7308594060107
 20
89.34260237750367
 30
0.0
  0
LINE
  5
144
330
1F
100
AcDbEntity
  8
0
  6
Continuous
 62
     7
370
    15
100
AcDbLine
 10
130.8658594561
 20
89.2076038176
 30
0.0
 11
130.8058584404
 21
89.2076038176
 31
0.0
  0
SPLINE
  5
145
330
1F
100
AcDbEntity
  8
0
  6
Continuous
 62
     7
370
    15
100
AcDbSpline
210
0.0
220
0.0
230
1.0
 70
     8
 71
     3
 72
    10
 73
     6
 74
     0
 42
0.00000001
 43
0.00000001
 40
0.0
 40
0.0
 40
0.0
 40
0.0
 40
0.4544451349946638
 40
0.9614290387129251
 40
1.0
 40
1.0
 40
1.0
 40
1.0
 10
130.8058584404154
 20
89.20760381755187
 30
0.0
 10
130.8048176714939
 20
89.21628348861235
 30
0.0
 10
130.8026158095161
 20
89.23464629450777
 30
0.0
 10
130.793245281314
 20
89.25346493340078
 30
0.0
 10
130.7845978902462
 20
89.2595344036252
 30
0.0
 10
130.7839865160151
 20
89.25996351775481
 30
0.0
  0
LINE
  5
146
330
1F
100
AcDbEntity
  8
0
  6
Continuous
 62
     7
370
    15
100
AcDbLine
 10
84.4958583188
 20
89.2076038176
 30
0.0
 11
84.4958583188
 21
87.4576025062
 31
0.0
  0
LINE
  5
147
330
1F
100
AcDbEntity
  8
0
  6
Continuous
 62
     7
370
    15
100
AcDbLine
 10
84.4358587933
 20
89.2076038176
 30
0.0
 11
84.4358587933
 21
87.4576025062
 31
0.0
  0
LINE
  5
148
330
1F
100
AcDbEntity
  8
0
  6
Continuous
 62
     7
370
    15
100
AcDbLine
 10
130.8058584404
 20
89.2076038176
 30
0.0
 11
130.8058584404
 21
87.4576025062
 31
0.0
  0
LINE
  5
149
330
1F
100
AcDbEntity
  8
0
  6
Continuous
 62
     7
370
    15
100
AcDbLine
 10
130.8658594561
 20
89.2076038176
 30
0.0
 11
130.8658594561
 21
87.4576025062
 31
0.0
  0
LINE
  5
14A
330
1F
100
AcDbEntity
  8
0
  6
Continuous
 62
     7
370
    15
100
AcDbLine
 10
84.5708588433
 20
87.3226039463
 30
0.0
 11
84.5743948889
 21
87.3226039463
 31
0.0
  0
LINE
  5
14B
330
1F
100
AcDbEntity
  8
0
  6
Continuous
 62
     7
370
    15
100
AcDbLine
 10
130.7273233605
 20
87.3226039463
 30
0.0
 11
130.730859406
 21
87.3226039463
 31
0.0
  0
LINE
  5
14C
330
1F
100
AcDbEntity
  8
0
  6
Continuous
 62
     7
370
    15
100
AcDbLine
 10
126.6158590388
 20
87.3226039463
 30
0.0
 11
126.6158590388
 21
87.1876024061
 31
0.0
  0
LINE
  5
14D
330
1F
100
AcDbEntity
  8
0
  6
Continuous
 62
     7
370
    15
100
AcDbLine
 10
126.6158590388
 20
87.1876024061
 30
0.0
 11
126.6158590388
 21
86.2298868948
 31
0.0
  0
LINE
  5
14E
330
1F
100
AcDbEntity
  8
0
  6
Continuous
 62
     7
370
    15
100
AcDbLine
 10
88.6858592105
 20
86.2298868948
 30
0.0
 11
88.6858592105
 21
86.254888063
 31
0.0
  0
LINE
  5
14F
330
1F
100
AcDbEntity
  8
0
  6
Continuous
 62
     7
370
    15
100
AcDbLine
 10
88.6858592105
 20
86.5548871809
 30
0.0
 11
88.6858592105
 21
86.9976036602
 31
0.0
  0
LINE
  5
150
330
1F
100
AcDbEntity
  8
0
  6
Continuous
 62
     7
370
    15
100
AcDbLine
 10
107.7327781652
 20
85.3826038891
 30
0.0
 11
107.3048102033
 21
85.3826038891
 31
0.0
  0
LINE
  5
151
330
1F
100
AcDbEntity
  8
0
  6
Continuous
 62
     7
370
    15
100
AcDbLine
 10
126.8443594051
 20
49.229886418
 30
0.0
 11
126.8443594051
 21
48.3721694329
 31
0.0
  0
LINE
  5
152
330
1F
100
AcDbEntity
  8
0
  6
Continuous
 62
     7
370
    15
100
AcDbLine
 10
126.8443594051
 20
48.3721694329
 30
0.0
 11
126.8443594051
 21
48.2626036161
 31
0.0
  0
LINE
  5
153
330
1F
100
AcDbEntity
  8
0
  6
Continuous
 62
     7
370
    15
100
AcDbLine
 10
107.3048102033
 20
50.0771694237
 30
0.0
 11
107.7327781652
 21
50.0771694237
 31
0.0
  0
LINE
  5
154
330
1F
100
AcDbEntity
  8
0
  6
Continuous
 62
     7
370
    15
100
AcDbLine
 10
105.6108590045
 20
48.0626035833
 30
0.0
 11
105.6108590045
 21
48.1276037523
 31
0.0
  0
LINE
  5
155
330
1F
100
AcDbEntity
  8
0
  6
Continuous
 62
     7
370
    15
100
AcDbLine
 10
124.6108586264
 20
48.0626035833
 30
0.0
 11
124.6108586264
 21
48.1276037523
 31
0.0
  0
LINE
  5
156
330
1F
100
AcDbEntity
  8
0
  6
Continuous
 62
     7
370
    15
100
AcDbLine
 10
124.6108586264
 20
48.0626035833
 30
0.0
 11
125.6608585191
 21
48.0626035833
 31
0.0
  0
LINE
  5
157
330
1F
100
AcDbEntity
  8
0
  6
Continuous
 62
     7
370
    15
100
AcDbLine
 10
125.6608585191
 20
48.0626035833
 30
0.0
 11
125.6608585191
 21
48.1276037523
 31
0.0
  0
LINE
  5
158
330
1F
100
AcDbEntity
  8
0
  6
Continuous
 62
     7
370
    15
100
AcDbLine
 10
130.8773229194
 20
48.1276037523
 30
0.0
 11
130.8773229194
 21
47.2126036302
 31
0.0
  0
LINE
  5
159
330
1F
100
AcDbEntity
  8
0
  6
Continuous
 62
     7
370
    15
100
AcDbLine
 10
104.5608589721
 20
48.0626035833
 30
0.0
 11
104.5608589721
 21
48.1276037523
 31
0.0
  0
LINE
  5
15A
330
1F
100
AcDbEntity
  8
0
  6
Continuous
 62
     7
370
    15
100
AcDbLine
 10
104.5608589721
 20
48.0626035833
 30
0.0
 11
105.6108590045
 21
48.0626035833
 31
0.0
  0
LINE
  5
15B
330
1F
100
AcDbEntity
  8
0
  6
Continuous
 62
     7
370
    15
100
AcDbLine
 10
79.9743945074
 20
48.1276037523
 30
0.0
 11
79.9743945074
 21
47.2126036302
 31
0.0
  0
SPLINE
  5
15C
330
1F
100
AcDbEntity
  8
0
  6
Continuous
 62
     7
370
    15
100
AcDbSpline
210
0.0
220
0.0
230
1.0
 70
     8
 71
     3
 72
    12
 73
     8
 74
     0
 42
0.00000001
 43
0.00000001
 40
0.0
 40
0.0
 40
0.0
 40
0.0
 40
0.2265869894772967
 40
0.4532301390713206
 40
0.679877030622554
 40
0.9065201448136583
 40
1.0
 40
1.0
 40
1.0
 40
1.0
 10
79.9743945074244
 20
48.12760375228478
 30
0.0
 10
79.97979336976312
 20
48.14362203412315
 30
0.0
 10
79.99059243256119
 20
48.1756625679686
 30
0.0
 10
80.00679763791193
 20
48.21774310270115
 30
0.0
 10
80.02299244248479
 20
48.24832395462071
 30
0.0
 10
80.03604729265773
 20
48.26130579834228
 30
0.0
 10
80.04364256369385
 20
48.26231029165289
 30
0.0
 10
80.0458604765101
 20
48.26260361608817
 30
0.0
  0
LINE
  5
15D
330
1F
100
AcDbEntity
  8
0
  6
Continuous
 62
     7
370
    15
100
AcDbLine
 10
80.0458604765
 20
48.2626036161
 30
0.0
 11
87.7608591986
 21
48.2626036161
 31
0.0
  0
LINE
  5
15E
330
1F
100
AcDbEntity
  8
0
  6
Continuous
 62
     7
370
    15
100
AcDbLine
 10
91.7197952342
 20
48.2626036161
 30
0.0
 11
104.5608589721
 21
48.2626036161
 31
0.0
  0
LINE
  5
15F
330
1F
100
AcDbEntity
  8
0
  6
Continuous
 62
     7
370
    15
100
AcDbLine
 10
104.5608589721
 20
48.2626036161
 30
0.0
 11
104.5608589721
 21
48.1276037523
 31
0.0
  0
LINE
  5
160
330
1F
100
AcDbEntity
  8
0
  6
Continuous
 62
     7
370
    15
100
AcDbLine
 10
125.6608585191
 20
48.2626036161
 30
0.0
 11
130.8058584404
 21
48.2626036161
 31
0.0
  0
SPLINE
  5
161
330
1F
100
AcDbEntity
  8
0
  6
Continuous
 62
     7
370
    15
100
AcDbSpline
210
0.0
220
0.0
230
1.0
 70
     8
 71
     3
 72
    12
 73
     8
 74
     0
 42
0.00000001
 43
0.00000001
 40
0.0
 40
0.0
 40
0.0
 40
0.0
 40
0.226587998874471
 40
0.4532290312388118
 40
0.6798737920746633
 40
0.9065168791297872
 40
1.0
 40
1.0
 40
1.0
 40
1.0
 10
130.8058584404154
 20
48.26260361608817
 30
0.0
 10
130.8112578583696
 20
48.26093981066554
 30
0.0
 10
130.8220579580252
 20
48.25761181040244
 30
0.0
 10
130.8382636203918
 20
48.23175900219918
 30
0.0
 10
130.8544554990785
 20
48.19408318136902
 30
0.0
 10
130.8675125754598
 20
48.15671370372574
 30
0.0
 10
130.8751056058404
 20
48.13418312300886
 30
0.0
 10
130.877322919385
 20
48.12760375228478
 30
0.0
  0
LINE
  5
162
330
1F
100
AcDbEntity
  8
0
  6
Continuous
 62
     7
370
    15
100
AcDbLine
 10
125.6608585191
 20
48.1276037523
 30
0.0
 11
125.6608585191
 21
48.2626036161
 31
0.0
  0
LINE
  5
163
330
1F
100
AcDbEntity
  8
0
  6
Continuous
 62
     7
370
    15
100
AcDbLine
 10
105.6108590045
 20
48.2626036161
 30
0.0
 11
107.810858946
 21
48.2626036161
 31
0.0
  0
LINE
  5
164
330
1F
100
AcDbEntity
  8
0
  6
Continuous
 62
     7
370
    15
100
AcDbLine
 10
111.7916023654
 20
48.2626036161
 30
0.0
 11
124.6108586264
 21
48.2626036161
 31
0.0
  0
LINE
  5
165
330
1F
100
AcDbEntity
  8
0
  6
Continuous
 62
     7
370
    15
100
AcDbLine
 10
124.6108586264
 20
48.2626036161
 30
0.0
 11
124.6108586264
 21
48.1276037523
 31
0.0
  0
LINE
  5
166
330
1F
100
AcDbEntity
  8
0
  6
Continuous
 62
     7
370
    15
100
AcDbLine
 10
105.6108590045
 20
48.1276037523
 30
0.0
 11
105.6108590045
 21
48.2626036161
 31
0.0
  0
SPLINE
  5
167
330
1F
100
AcDbEntity
  8
0
  6
Continuous
 62
     7
370
    15
100
AcDbSpline
210
0.0
220
0.0
230
1.0
 70
     8
 71
     3
 72
     9
 73
     5
 74
     0
 42
0.00000001
 43
0.00000001
 40
0.0
 40
0.0
 40
0.0
 40
0.0
 40
0.4426422266169347
 40
1.0
 40
1.0
 40
1.0
 40
1.0
 10
79.99236232759196
 20
48.17915245678975
 30
0.0
 10
79.98674517714927
 20
48.17263339946746
 30
0.0
 10
79.97405513064014
 20
48.15790580022299
 30
0.0
 10
79.972003464218
 20
48.13844845493208
 30
0.0
 10
79.97085995198924
 20
48.12760375228478
 30
0.0
  0
LINE
  5
168
330
1F
100
AcDbEntity
  8
0
  6
Continuous
 62
     7
370
    15
100
AcDbLine
 10
79.9108589363
 20
48.1276037523
 30
0.0
 11
79.970859952
 21
48.1276037523
 31
0.0
  0
SPLINE
  5
169
330
1F
100
AcDbEntity
  8
0
  6
Continuous
 62
     7
370
    15
100
AcDbSpline
210
0.0
220
0.0
230
1.0
 70
     8
 71
     3
 72
    12
 73
     8
 74
     0
 42
0.00000001
 43
0.00000001
 40
0.0
 40
0.0
 40
0.0
 40
0.0
 40
0.226596049001047
 40
0.4532348080644879
 40
0.6798754559094556
 40
0.9065161425386248
 40
1.0
 40
1.0
 40
1.0
 40
1.0
 10
80.0458604765101
 20
48.26260361608817
 30
0.0
 10
80.02984114920321
 20
48.26093991463194
 30
0.0
 10
79.997799475179
 20
48.25761219813594
 30
0.0
 10
79.95571946105218
 20
48.23175916045513
 30
0.0
 10
79.9251392981703
 20
48.19408305988836
 30
0.0
 10
79.91215655328992
 20
48.15671333379078
 30
0.0
 10
79.91115222398378
 20
48.1341831059876
 30
0.0
 10
79.9108589363261
 20
48.12760375228478
 30
0.0
  0
LINE
  5
16A
330
1F
100
AcDbEntity
  8
0
  6
Continuous
 62
     7
370
    15
100
AcDbLine
 10
130.9408584905
 20
48.1276037523
 30
0.0
 11
130.8808589649
 21
48.1276037523
 31
0.0
  0
SPLINE
  5
16B
330
1F
100
AcDbEntity
  8
0
  6
Continuous
 62
     7
370
    15
100
AcDbSpline
210
0.0
220
0.0
230
1.0
 70
     8
 71
     3
 72
    10
 73
     6
 74
     0
 42
0.00000001
 43
0.00000001
 40
0.0
 40
0.0
 40
0.0
 40
0.0
 40
0.4544641104609803
 40
0.9614308348631436
 40
1.0
 40
1.0
 40
1.0
 40
1.0
 10
130.8808589649363
 20
48.12760375228478
 30
0.0
 10
130.8798182720444
 20
48.13628433199236
 30
0.0
 10
130.8776166587311
 20
48.15464832774747
 30
0.0
 10
130.8682459097154
 20
48.17345810342566
 30
0.0
 10
130.8595984148967
 20
48.179534070365
 30
0.0
 10
130.858987040536
 20
48.17996363875224
 30
0.0
  0
SPLINE
  5
16C
330
1F
100
AcDbEntity
  8
0
  6
Continuous
 62
     7
370
    15
100
AcDbSpline
210
0.0
220
0.0
230
1.0
 70
     8
 71
     3
 72
    12
 73
     8
 74
     0
 42
0.00000001
 43
0.00000001
 40
0.0
 40
0.0
 40
0.0
 40
0.0
 40
0.2265873201352387
 40
0.4532297760208629
 40
0.6798738278011964
 40
0.9065162482840095
 40
1.0
 40
1.0
 40
1.0
 40
1.0
 10
130.9408584904834
 20
48.12760375228478
 30
0.0
 10
130.9391947433789
 20
48.14362202494815
 30
0.0
 10
130.9358668443287
 20
48.17566246801939
 30
0.0
 10
130.9100152213261
 20
48.21774289429788
 30
0.0
 10
130.8723376028727
 20
48.24832411858463
 30
0.0
 10
130.8349688837276
 20
48.26130589741596
 30
0.0
 10
130.8124379572442
 20
48.26231030685371
 30
0.0
 10
130.8058584404154
 20
48.26260361608817
 30
0.0
  0
LINE
  5
16D
330
1F
100
AcDbEntity
  8
0
  6
Continuous
 62
     7
370
    15
100
AcDbLine
 10
130.8808589649
 20
48.1276037523
 30
0.0
 11
130.8808589649
 21
47.2126036302
 31
0.0
  0
LINE
  5
16E
330
1F
100
AcDbEntity
  8
0
  6
Continuous
 62
     7
370
    15
100
AcDbLine
 10
130.9408584905
 20
48.1276037523
 30
0.0
 11
130.9408584905
 21
47.2126036302
 31
0.0
  0
LINE
  5
16F
330
1F
100
AcDbEntity
  8
0
  6
Continuous
 62
     7
370
    15
100
AcDbLine
 10
79.9108589363
 20
48.1276037523
 30
0.0
 11
79.9108589363
 21
47.2126036302
 31
0.0
  0
LINE
  5
170
330
1F
100
AcDbEntity
  8
0
  6
Continuous
 62
     7
370
    15
100
AcDbLine
 10
79.970859952
 20
48.1276037523
 30
0.0
 11
79.970859952
 21
47.2126036302
 31
0.0
  0
LINE
  5
171
330
1F
100
AcDbEntity
  8
0
  6
Continuous
 62
     7
370
    15
100
AcDbLine
 10
104.5608589721
 20
48.202603718
 30
0.0
 11
104.5858590228
 21
48.202603718
 31
0.0
  0
LINE
  5
172
330
1F
100
AcDbEntity
  8
0
  6
Continuous
 62
     7
370
    15
100
AcDbLine
 10
105.5858590004
 20
48.202603718
 30
0.0
 11
105.6108590045
 21
48.202603718
 31
0.0
  0
LINE
  5
173
330
1F
100
AcDbEntity
  8
0
  6
Continuous
 62
     7
370
    15
100
AcDbLine
 10
105.6108590045
 20
48.2626036161
 30
0.0
 11
105.5858590004
 21
48.2626036161
 31
0.0
  0
LINE
  5
174
330
1F
100
AcDbEntity
  8
0
  6
Continuous
 62
     7
370
    15
100
AcDbLine
 10
104.5858590228
 20
48.2626036161
 30
0.0
 11
104.5608589721
 21
48.2626036161
 31
0.0
  0
LINE
  5
175
330
1F
100
AcDbEntity
  8
0
  6
Continuous
 62
     7
370
    15
100
AcDbLine
 10
124.6108586264
 20
48.202603718
 30
0.0
 11
124.6333593798
 21
48.202603718
 31
0.0
  0
LINE
  5
176
330
1F
100
AcDbEntity
  8
0
  6
Continuous
 62
     7
370
    15
100
AcDbLine
 10
125.6333584261
 20
48.202603718
 30
0.0
 11
125.6608585191
 21
48.202603718
 31
0.0
  0
LINE
  5
177
330
1F
100
AcDbEntity
  8
0
  6
Continuous
 62
     7
370
    15
100
AcDbLine
 10
125.6608585191
 20
48.2626036161
 30
0.0
 11
125.6333584261
 21
48.2626036161
 31
0.0
  0
LINE
  5
178
330
1F
100
AcDbEntity
  8
0
  6
Continuous
 62
     7
370
    15
100
AcDbLine
 10
124.6333593798
 20
48.2626036161
 30
0.0
 11
124.6108586264
 21
48.2626036161
 31
0.0
  0
LINE
  5
179
330
1F
100
AcDbEntity
  8
0
  6
Continuous
 62
     7
370
    15
100
AcDbLine
 10
83.3008596969
 20
81.5626047903
 30
0.0
 11
83.1508586478
 21
81.5626047903
 31
0.0
  0
LINE
  5
17A
330
1F
100
AcDbEntity
  8
0
  6
Continuous
 62
     7
370
    15
100
AcDbLine
 10
83.3008596969
 20
81.5626047903
 30
0.0
 11
83.3008596969
 21
81.5240674072
 31
0.0
  0
LINE
  5
17B
330
1F
100
AcDbEntity
  8
0
  6
Continuous
 62
     7
370
    15
100
AcDbLine
 10
83.3008596969
 20
81.3976042324
 30
0.0
 11
83.3008596969
 21
81.3126050287
 31
0.0
  0
LINE
  5
17C
330
1F
100
AcDbEntity
  8
0
  6
Continuous
 62
     7
370
    15
100
AcDbLine
 10
83.3008596969
 20
81.3126050287
 30
0.0
 11
83.1508586478
 21
81.3126050287
 31
0.0
  0
LINE
  5
17D
330
1F
100
AcDbEntity
  8
0
  6
Continuous
 62
     7
370
    15
100
AcDbLine
 10
83.1508586478
 20
81.5626047903
 30
0.0
 11
83.1508586478
 21
81.3126050287
 31
0.0
  0
LINE
  5
17E
330
1F
100
AcDbEntity
  8
0
  6
Continuous
 62
     7
370
    15
100
AcDbLine
 10
83.3008596969
 20
85.9626047665
 30
0.0
 11
83.1508586478
 21
85.9626047665
 31
0.0
  0
LINE
  5
17F
330
1F
100
AcDbEntity
  8
0
  6
Continuous
 62
     7
370
    15
100
AcDbLine
 10
83.3008596969
 20
85.9626047665
 30
0.0
 11
83.3008596969
 21
81.5626047903
 31
0.0
  0
LINE
  5
180
330
1F
100
AcDbEntity
  8
0
  6
Continuous
 62
     7
370
    15
100
AcDbLine
 10
83.1508586478
 20
85.9626047665
 30
0.0
 11
83.1508586478
 21
81.5626047903
 31
0.0
  0
LINE
  5
181
330
1F
100
AcDbEntity
  8
0
  6
Continuous
 62
     7
370
    15
100
AcDbLine
 10
83.3008596969
 20
86.212604528
 30
0.0
 11
83.1508586478
 21
86.212604528
 31
0.0
  0
LINE
  5
182
330
1F
100
AcDbEntity
  8
0
  6
Continuous
 62
     7
370
    15
100
AcDbLine
 10
83.3008596969
 20
86.212604528
 30
0.0
 11
83.3008596969
 21
86.1276023441
 31
0.0
  0
LINE
  5
183
330
1F
100
AcDbEntity
  8
0
  6
Continuous
 62
     7
370
    15
100
AcDbLine
 10
83.3008596969
 20
86.0011391693
 30
0.0
 11
83.3008596969
 21
85.9626047665
 31
0.0
  0
LINE
  5
184
330
1F
100
AcDbEntity
  8
0
  6
Continuous
 62
     7
370
    15
100
AcDbLine
 10
83.1508586478
 20
86.212604528
 30
0.0
 11
83.1508586478
 21
85.9626047665
 31
0.0
  0
LINE
  5
185
330
1F
100
AcDbEntity
  8
0
  6
Continuous
 62
     7
370
    15
100
AcDbLine
 10
84.5508585048
 20
81.3226037079
 30
0.0
 11
84.5508585048
 21
84.2717133814
 31
0.0
  0
LINE
  5
186
330
1F
100
AcDbEntity
  8
0
  6
Continuous
 62
     7
370
    15
100
AcDbLine
 10
84.5508585048
 20
85.0034915262
 30
0.0
 11
84.5508585048
 21
86.2026028686
 31
0.0
  0
LINE
  5
187
330
1F
100
AcDbEntity
  8
0
  6
Continuous
 62
     7
370
    15
100
AcDbLine
 10
83.4358582568
 20
81.3226037079
 30
0.0
 11
84.5508585048
 21
81.3226037079
 31
0.0
  0
LINE
  5
188
330
1F
100
AcDbEntity
  8
0
  6
Continuous
 62
     7
370
    15
100
AcDbLine
 10
84.5508585048
 20
86.2026028686
 30
0.0
 11
83.4358582568
 21
86.2026028686
 31
0.0
  0
SPLINE
  5
189
330
1F
100
AcDbEntity
  8
0
  6
Continuous
 62
     7
370
    15
100
AcDbSpline
210
0.0
220
0.0
230
1.0
 70
     8
 71
     3
 72
    12
 73
     8
 74
     0
 42
0.00000001
 43
0.00000001
 40
0.0
 40
0.0
 40
0.0
 40
0.0
 40
0.2277624473496568
 40
0.4555881125052417
 40
0.6834090531398478
 40
0.9112287270507055
 40
1.0
 40
1.0
 40
1.0
 40
1.0
 10
83.30085969688136
 20
86.12760234412507
 30
0.0
 10
83.30254065858614
 20
86.13329823185947
 30
0.0
 10
83.30590304856389
 20
86.14469158828044
 30
0.0
 10
83.33201579569605
 20
86.16178822783979
 30
0.0
 10
83.37003383833402
 20
86.17886987067888
 30
0.0
 10
83.4073315968154
 20
86.19251124164147
 30
0.0
 10
83.42961113315212
 20
86.20039287834211
 30
0.0
 10
83.43585825683314
 20
86.20260286864593
 30
0.0
  0
SPLINE
  5
18A
330
1F
100
AcDbEntity
  8
0
  6
Continuous
 62
     7
370
    15
100
AcDbSpline
210
0.0
220
0.0
230
1.0
 70
     8
 71
     3
 72
    12
 73
     8
 74
     0
 42
0.00000001
 43
0.00000001
 40
0.0
 40
0.0
 40
0.0
 40
0.0
 40
0.2277606776138579
 40
0.4555813296606293
 40
0.6834062059806963
 40
0.9112284399300145
 40
1.0
 40
1.0
 40
1.0
 40
1.0
 10
83.43585825683314
 20
81.32260370787934
 30
0.0
 10
83.41975739597679
 20
81.32829998604727
 30
0.0
 10
83.3875514345507
 20
81.33969404233937
 30
0.0
 10
83.34531552190047
 20
81.35678488498044
 30
0.0
 10
83.31474385075863
 20
81.37387253948211
 30
0.0
 10
83.30206837094933
 20
81.3875124372111
 30
0.0
 10
83.30112438620804
 20
81.39539421520509
 30
0.0
 10
83.30085969688136
 20
81.39760423240021
 30
0.0
  0
LINE
  5
18B
330
1F
100
AcDbEntity
  8
0
  6
Continuous
 62
     7
370
    15
100
AcDbLine
 10
83.3008596969
 20
81.3976042324
 30
0.0
 11
83.3008596969
 21
81.5240674072
 31
0.0
  0
LINE
  5
18C
330
1F
100
AcDbEntity
  8
0
  6
Continuous
 62
     7
370
    15
100
AcDbLine
 10
83.3008596969
 20
86.0011391693
 30
0.0
 11
83.3008596969
 21
86.1276023441
 31
0.0
  0
LINE
  5
18D
330
1F
100
AcDbEntity
  8
0
  6
Continuous
 62
     7
370
    15
100
AcDbLine
 10
83.4358582568
 20
86.2026028686
 30
0.0
 11
83.4358582568
 21
86.2626038843
 31
0.0
  0
SPLINE
  5
18E
330
1F
100
AcDbEntity
  8
0
  6
Continuous
 62
     7
370
    15
100
AcDbSpline
210
0.0
220
0.0
230
1.0
 70
     8
 71
     3
 72
     9
 73
     5
 74
     0
 42
0.00000001
 43
0.00000001
 40
0.0
 40
0.0
 40
0.0
 40
0.0
 40
0.5391074679136457
 40
1.0
 40
1.0
 40
1.0
 40
1.0
 10
83.43585825683314
 20
86.20260286864593
 30
0.0
 10
83.42700741955785
 20
86.20191279610152
 30
0.0
 10
83.41058984458058
 20
86.20063276830471
 30
0.0
 10
83.39736176495686
 20
86.19095100522964
 30
0.0
 10
83.39126504184443
 20
86.1864887529309
 30
0.0
  0
SPLINE
  5
18F
330
1F
100
AcDbEntity
  8
0
  6
Continuous
 62
     7
370
    15
100
AcDbSpline
210
0.0
220
0.0
230
1.0
 70
     8
 71
     3
 72
    12
 73
     8
 74
     0
 42
0.00000001
 43
0.00000001
 40
0.0
 40
0.0
 40
0.0
 40
0.0
 40
0.2277574498849704
 40
0.4555784798525059
 40
0.6834031543421842
 40
0.9112182000913948
 40
1.0
 40
1.0
 40
1.0
 40
1.0
 10
83.43585825683314
 20
86.26260388430907
 30
0.0
 10
83.41975733845413
 20
86.26092290320544
 30
0.0
 10
83.38755100701233
 20
86.25756047174058
 30
0.0
 10
83.34531559564977
 20
86.23144765130526
 30
0.0
 10
83.31474428916832
 20
86.19342804317549
 30
0.0
 10
83.30206801320568
 20
86.15613160110932
 30
0.0
 10
83.3011243297112
 20
86.1338505242224
 30
0.0
 10
83.30085969688136
 20
86.12760234412507
 30
0.0
  0
LINE
  5
190
330
1F
100
AcDbEntity
  8
0
  6
Continuous
 62
     7
370
    15
100
AcDbLine
 10
83.4358582568
 20
81.3226037079
 30
0.0
 11
83.4358582568
 21
81.2626026922
 31
0.0
  0
SPLINE
  5
191
330
1F
100
AcDbEntity
  8
0
  6
Continuous
 62
     7
370
    15
100
AcDbSpline
210
0.0
220
0.0
230
1.0
 70
     8
 71
     3
 72
     9
 73
     5
 74
     0
 42
0.00000001
 43
0.00000001
 40
0.0
 40
0.0
 40
0.0
 40
0.0
 40
0.3432842896464059
 40
1.0
 40
1.0
 40
1.0
 40
1.0
 10
83.39185512782771
 20
81.33871186312989
 30
0.0
 10
83.39614463963001
 20
81.3351788349409
 30
0.0
 10
83.40864014825556
 20
81.32488699142942
 30
0.0
 10
83.42506910369279
 20
81.32350879266194
 30
0.0
 10
83.43585825683314
 20
81.32260370787934
 30
0.0
  0
SPLINE
  5
192
330
1F
100
AcDbEntity
  8
0
  6
Continuous
 62
     7
370
    15
100
AcDbSpline
210
0.0
220
0.0
230
1.0
 70
     8
 71
     3
 72
    12
 73
     8
 74
     0
 42
0.00000001
 43
0.00000001
 40
0.0
 40
0.0
 40
0.0
 40
0.0
 40
0.22775907895221
 40
0.4555871258071378
 40
0.683408538788925
 40
0.9112292093532766
 40
1.0
 40
1.0
 40
1.0
 40
1.0
 10
83.30085969688136
 20
81.3976042324002
 30
0.0
 10
83.30254073076831
 20
81.38150332684675
 30
0.0
 10
83.30590330757741
 20
81.3492966402122
 30
0.0
 10
83.33201560407575
 20
81.30706107757906
 30
0.0
 10
83.37003396756771
 20
81.27648674301064
 30
0.0
 10
83.4073313938744
 20
81.26381679538417
 30
0.0
 10
83.42961112314491
 20
81.26286857019979
 30
0.0
 10
83.43585825683314
 20
81.26260269221618
 30
0.0
  0
LINE
  5
193
330
1F
100
AcDbEntity
  8
0
  6
Continuous
 62
     7
370
    15
100
AcDbLine
 10
84.4758594704
 20
86.2626038843
 30
0.0
 11
84.4758594704
 21
86.2026028686
 31
0.0
  0
LINE
  5
194
330
1F
100
AcDbEntity
  8
0
  6
Continuous
 62
     7
370
    15
100
AcDbLine
 10
84.4758594704
 20
86.2626038843
 30
0.0
 11
83.4358582568
 21
86.2626038843
 31
0.0
  0
LINE
  5
195
330
1F
100
AcDbEntity
  8
0
  6
Continuous
 62
     7
370
    15
100
AcDbLine
 10
84.5508585048
 20
81.3976042324
 30
0.0
 11
84.6108595205
 21
81.3976042324
 31
0.0
  0
LINE
  5
196
330
1F
100
AcDbEntity
  8
0
  6
Continuous
 62
     7
370
    15
100
AcDbLine
 10
84.6108595205
 20
86.1276023441
 30
0.0
 11
84.5508585048
 21
86.1276023441
 31
0.0
  0
LINE
  5
197
330
1F
100
AcDbEntity
  8
0
  6
Continuous
 62
     7
370
    15
100
AcDbLine
 10
84.4758594704
 20
81.2626026922
 30
0.0
 11
84.4758594704
 21
81.3226037079
 31
0.0
  0
LINE
  5
198
330
1F
100
AcDbEntity
  8
0
  6
Continuous
 62
     7
370
    15
100
AcDbLine
 10
84.4758594704
 20
81.2626026922
 30
0.0
 11
83.4358582568
 21
81.2626026922
 31
0.0
  0
ARC
  5
199
330
1F
100
AcDbEntity
  8
0
  6
Continuous
 62
     7
370
    15
100
AcDbCircle
 10
84.4758589893
 20
86.1276036661
 30
0.0
 40
0.1350000000000051
100
AcDbArc
 50
0.0
 51
90.0
  0
ARC
  5
19A
330
1F
100
AcDbEntity
  8
0
  6
Continuous
 62
     7
370
    15
100
AcDbCircle
 10
84.4758589893
 20
81.3976036661
 30
0.0
 40
0.1349999999999909
100
AcDbArc
 50
270.0
 51
0.0
  0
LINE
  5
19B
330
1F
100
AcDbEntity
  8
0
  6
Continuous
 62
     7
370
    15
100
AcDbLine
 10
131.5083587837
 20
84.5105760151
 30
0.0
 11
131.3133592081
 21
84.5105760151
 31
0.0
  0
LINE
  5
19C
330
1F
100
AcDbEntity
  8
0
  6
Continuous
 62
     7
370
    15
100
AcDbLine
 10
131.3133592081
 20
83.9716785007
 30
0.0
 11
131.5083587837
 21
83.9716785007
 31
0.0
  0
LINE
  5
19D
330
1F
100
AcDbEntity
  8
0
  6
Continuous
 62
     7
370
    15
100
AcDbLine
 10
131.5083587837
 20
83.9716785007
 30
0.0
 11
131.5083587837
 21
84.5105760151
 31
0.0
  0
LINE
  5
19E
330
1F
100
AcDbEntity
  8
0
  6
Continuous
 62
     7
370
    15
100
AcDbLine
 10
131.3133592081
 20
83.9716785007
 30
0.0
 11
131.3133592081
 21
84.5105760151
 31
0.0
  0
LINE
  5
19F
330
1F
100
AcDbEntity
  8
0
  6
Continuous
 62
     7
370
    15
100
AcDbLine
 10
131.5083587837
 20
83.9125089699
 30
0.0
 11
131.3133592081
 21
83.9125089699
 31
0.0
  0
LINE
  5
1A0
330
1F
100
AcDbEntity
  8
0
  6
Continuous
 62
     7
370
    15
100
AcDbLine
 10
131.5083587837
 20
83.9716785007
 30
0.0
 11
131.5083587837
 21
83.9125089699
 31
0.0
  0
LINE
  5
1A1
330
1F
100
AcDbEntity
  8
0
  6
Continuous
 62
     7
370
    15
100
AcDbLine
 10
131.3133592081
 20
83.9125089699
 30
0.0
 11
131.3133592081
 21
83.9716785007
 31
0.0
  0
LINE
  5
1A2
330
1F
100
AcDbEntity
  8
0
  6
Continuous
 62
     7
370
    15
100
AcDbLine
 10
131.3133592081
 20
84.5913701111
 30
0.0
 11
131.5083587837
 21
84.5913701111
 31
0.0
  0
LINE
  5
1A3
330
1F
100
AcDbEntity
  8
0
  6
Continuous
 62
     7
370
    15
100
AcDbLine
 10
131.5083587837
 20
84.5913701111
 30
0.0
 11
131.5083587837
 21
84.5105760151
 31
0.0
  0
LINE
  5
1A4
330
1F
100
AcDbEntity
  8
0
  6
Continuous
 62
     7
370
    15
100
AcDbLine
 10
131.3133592081
 20
84.5105760151
 30
0.0
 11
131.3133592081
 21
84.5913701111
 31
0.0
  0
LINE
  5
1A5
330
1F
100
AcDbEntity
  8
0
  6
Continuous
 62
     7
370
    15
100
AcDbLine
 10
131.1933586669
 20
84.2626028114
 30
0.0
 11
131.1933586669
 21
84.8076038414
 31
0.0
  0
LINE
  5
1A6
330
1F
100
AcDbEntity
  8
0
  6
Continuous
 62
     7
370
    15
100
AcDbLine
 10
131.1933586669
 20
83.7176047617
 30
0.0
 11
131.1933586669
 21
84.2626028114
 31
0.0
  0
LINE
  5
1A7
330
1F
100
AcDbEntity
  8
0
  6
Continuous
 62
     7
370
    15
100
AcDbLine
 10
131.9433594418
 20
84.2626028114
 30
0.0
 11
131.9433594418
 21
84.7401045614
 31
0.0
  0
LINE
  5
1A8
330
1F
100
AcDbEntity
  8
0
  6
Continuous
 62
     7
370
    15
100
AcDbLine
 10
131.9433594418
 20
83.7851040417
 30
0.0
 11
131.9433594418
 21
84.2626028114
 31
0.0
  0
LINE
  5
1A9
330
1F
100
AcDbEntity
  8
0
  6
Continuous
 62
     7
370
    15
100
AcDbLine
 10
131.5083587837
 20
84.8606698566
 30
0.0
 11
131.3133592081
 21
84.8606698566
 31
0.0
  0
LINE
  5
1AA
330
1F
100
AcDbEntity
  8
0
  6
Continuous
 62
     7
370
    15
100
AcDbLine
 10
131.5083587837
 20
84.5913701111
 30
0.0
 11
131.5083587837
 21
84.8606698566
 31
0.0
  0
LINE
  5
1AB
330
1F
100
AcDbEntity
  8
0
  6
Continuous
 62
     7
370
    15
100
AcDbLine
 10
131.3133592081
 20
84.5913701111
 30
0.0
 11
131.3133592081
 21
84.8606698566
 31
0.0
  0
LINE
  5
1AC
330
1F
100
AcDbEntity
  8
0
  6
Continuous
 62
     7
370
    15
100
AcDbLine
 10
130.9333587361
 20
84.2626028114
 30
0.0
 11
130.9333587361
 21
84.7701035791
 31
0.0
  0
LINE
  5
1AD
330
1F
100
AcDbEntity
  8
0
  6
Continuous
 62
     7
370
    15
100
AcDbLine
 10
130.9333587361
 20
83.7551050239
 30
0.0
 11
130.9333587361
 21
84.2626028114
 31
0.0
  0
LINE
  5
1AE
330
1F
100
AcDbEntity
  8
0
  6
Continuous
 62
     7
370
    15
100
AcDbLine
 10
131.3133592081
 20
83.6429112011
 30
0.0
 11
131.5083587837
 21
83.6429112011
 31
0.0
  0
LINE
  5
1AF
330
1F
100
AcDbEntity
  8
0
  6
Continuous
 62
     7
370
    15
100
AcDbLine
 10
131.5083587837
 20
83.6429112011
 30
0.0
 11
131.5083587837
 21
83.9125089699
 31
0.0
  0
LINE
  5
1B0
330
1F
100
AcDbEntity
  8
0
  6
Continuous
 62
     7
370
    15
100
AcDbLine
 10
131.3133592081
 20
83.6429112011
 30
0.0
 11
131.3133592081
 21
83.9125089699
 31
0.0
  0
LINE
  5
1B1
330
1F
100
AcDbEntity
  8
0
  6
Continuous
 62
     7
370
    15
100
AcDbLine
 10
131.3133592081
 20
84.8822944218
 30
0.0
 11
131.5083587837
 21
84.8822944218
 31
0.0
  0
LINE
  5
1B2
330
1F
100
AcDbEntity
  8
0
  6
Continuous
 62
     7
370
    15
100
AcDbLine
 10
131.5083587837
 20
84.8822944218
 30
0.0
 11
131.5083587837
 21
84.8606698566
 31
0.0
  0
LINE
  5
1B3
330
1F
100
AcDbEntity
  8
0
  6
Continuous
 62
     7
370
    15
100
AcDbLine
 10
131.3133592081
 20
84.8606698566
 30
0.0
 11
131.3133592081
 21
84.8822944218
 31
0.0
  0
LINE
  5
1B4
330
1F
100
AcDbEntity
  8
0
  6
Continuous
 62
     7
370
    15
100
AcDbLine
 10
130.7533586693
 20
84.3220852667
 30
0.0
 11
130.8683583808
 21
84.3220852667
 31
0.0
  0
LINE
  5
1B5
330
1F
100
AcDbEntity
  8
0
  6
Continuous
 62
     7
370
    15
100
AcDbLine
 10
130.8683583808
 20
84.2412971312
 30
0.0
 11
130.7533586693
 21
84.2412971312
 31
0.0
  0
LINE
  5
1B6
330
1F
100
AcDbEntity
  8
0
  6
Continuous
 62
     7
370
    15
100
AcDbLine
 10
130.8683583808
 20
84.3220852667
 30
0.0
 11
130.8683583808
 21
84.2412971312
 31
0.0
  0
LINE
  5
1B7
330
1F
100
AcDbEntity
  8
0
  6
Continuous
 62
     7
370
    15
100
AcDbLine
 10
130.6908587289
 20
83.7719492966
 30
0.0
 11
130.8683583808
 21
83.7719492966
 31
0.0
  0
LINE
  5
1B8
330
1F
100
AcDbEntity
  8
0
  6
Continuous
 62
     7
370
    15
100
AcDbLine
 10
130.8683583808
 20
83.7719492966
 30
0.0
 11
130.8683583808
 21
84.2412971312
 31
0.0
  0
LINE
  5
1B9
330
1F
100
AcDbEntity
  8
0
  6
Continuous
 62
     7
370
    15
100
AcDbLine
 10
130.8683583808
 20
84.791135078
 30
0.0
 11
130.6908587289
 21
84.791135078
 31
0.0
  0
LINE
  5
1BA
330
1F
100
AcDbEntity
  8
0
  6
Continuous
 62
     7
370
    15
100
AcDbLine
 10
130.8683583808
 20
84.3220852667
 30
0.0
 11
130.8683583808
 21
84.791135078
 31
0.0
  0
LINE
  5
1BB
330
1F
100
AcDbEntity
  8
0
  6
Continuous
 62
     7
370
    15
100
AcDbLine
 10
130.8683583808
 20
83.7127648645
 30
0.0
 11
130.6908587289
 21
83.7127648645
 31
0.0
  0
LINE
  5
1BC
330
1F
100
AcDbEntity
  8
0
  6
Continuous
 62
     7
370
    15
100
AcDbLine
 10
130.8683583808
 20
83.7719492966
 30
0.0
 11
130.8683583808
 21
83.7127648645
 31
0.0
  0
LINE
  5
1BD
330
1F
100
AcDbEntity
  8
0
  6
Continuous
 62
     7
370
    15
100
AcDbLine
 10
130.6908587289
 20
84.8127417618
 30
0.0
 11
130.8683583808
 21
84.8127417618
 31
0.0
  0
LINE
  5
1BE
330
1F
100
AcDbEntity
  8
0
  6
Continuous
 62
     7
370
    15
100
AcDbLine
 10
130.8683583808
 20
84.8127417618
 30
0.0
 11
130.8683583808
 21
84.791135078
 31
0.0
  0
LINE
  5
1BF
330
1F
100
AcDbEntity
  8
0
  6
Continuous
 62
     7
370
    15
100
AcDbLine
 10
130.6908587289
 20
83.7124668413
 30
0.0
 11
130.8683583808
 21
83.7124668413
 31
0.0
  0
LINE
  5
1C0
330
1F
100
AcDbEntity
  8
0
  6
Continuous
 62
     7
370
    15
100
AcDbLine
 10
130.8683583808
 20
83.7124668413
 30
0.0
 11
130.8683583808
 21
83.7127648645
 31
0.0
  0
LINE
  5
1C1
330
1F
100
AcDbEntity
  8
0
  6
Continuous
 62
     7
370
    15
100
AcDbLine
 10
131.8683589173
 20
84.8076038414
 30
0.0
 11
131.8683589173
 21
83.7176047617
 31
0.0
  0
LINE
  5
1C2
330
1F
100
AcDbEntity
  8
0
  6
Continuous
 62
     7
370
    15
100
AcDbLine
 10
130.9283593965
 20
82.3751025253
 30
0.0
 11
130.6908587289
 21
82.3751025253
 31
0.0
  0
LINE
  5
1C3
330
1F
100
AcDbEntity
  8
0
  6
Continuous
 62
     7
370
    15
100
AcDbLine
 10
130.9283593965
 20
79.8751049095
 30
0.0
 11
130.9283593965
 21
82.3751025253
 31
0.0
  0
LINE
  5
1C4
330
1F
100
AcDbEntity
  8
0
  6
Continuous
 62
     7
370
    15
100
AcDbLine
 10
130.9283593965
 20
79.8751049095
 30
0.0
 11
130.6908587289
 21
79.8751049095
 31
0.0
  0
LINE
  5
1C5
330
1F
100
AcDbEntity
  8
0
  6
Continuous
 62
     7
370
    15
100
AcDbLine
 10
130.9533590746
 20
82.3501043373
 30
0.0
 11
130.9533590746
 21
79.9001030975
 31
0.0
  0
LINE
  5
1C6
330
1F
100
AcDbEntity
  8
0
  6
Continuous
 62
     7
370
    15
100
AcDbLine
 10
130.9533590746
 20
79.9001030975
 30
0.0
 11
130.9283593965
 21
79.8751049095
 31
0.0
  0
LINE
  5
1C7
330
1F
100
AcDbEntity
  8
0
  6
Continuous
 62
     7
370
    15
100
AcDbLine
 10
130.9533590746
 20
82.3501043373
 30
0.0
 11
130.9283593965
 21
82.3751025253
 31
0.0
  0
ELLIPSE
  5
1C8
330
1F
100
AcDbEntity
  8
0
  6
Continuous
 62
     7
370
    15
100
AcDbEllipse
 10
107.1898602877
 20
49.3452981855
 30
0.0
 11
-0.04999996113278371
 21
0.04999996113278371
 31
0.0
210
0.0
220
0.0
230
0.9999999999999998
 40
0.0012468888
 41
1.569549438675826
 42
3.142839541724328
  0
LWPOLYLINE
  5
1C9
330
1F
100
AcDbEntity
  8
0
  6
Continuous
 62
     7
370
    15
100
AcDbPolyline
 90
       24
 70
   128
 43
0.0
 10
105.6271378712
 20
48.9838533455
 10
105.6269780097
 20
48.9923842603
 10
105.6268182878
 20
48.9833012575
 10
105.6266706266
 20
48.957277497
 10
105.6265459691
 20
48.9162434244
 10
105.6264534888
 20
48.8632422292
 10
105.6264001706
 20
48.8022048378
 10
105.6263898329
 20
48.7376580366
 10
105.6264233139
 20
48.67438901
 10
105.6264981457
 20
48.6170901337
 10
105.6266087403
 20
48.5700110325
 10
105.6267469485
 20
48.5366432348
 10
105.6269024328
 20
48.5194614508
 10
105.6270637379
 20
48.5197402888
 10
105.6272188497
 20
48.5374587008
 10
105.6273563129
 20
48.5713027769
 10
105.627465883
 20
48.6187624165
 10
105.6275394575
 20
48.6763177791
 10
105.6275715881
 20
48.7397002408
 10
105.6275599
 20
48.8042090439
 10
105.6275052314
 20
48.8650597983
 10
105.6274116334
 20
48.917739501
 10
105.6272860912
 20
48.9583410674
 10
105.6271378712
 20
48.9838533455
  0
ARC
  5
1CA
330
1F
100
AcDbEntity
  8
0
  6
Continuous
 62
     7
370
    15
100
AcDbCircle
 10
144.2115206902
 20
48.7548865729
 30
0.0
 40
38.6104307790434
100
AcDbArc
 50
179.6104624202
 51
180.3895375798
  0
ARC
  5
1CB
330
1F
100
AcDbEntity
  8
0
  6
Continuous
 62
     7
370
    15
100
AcDbCircle
 10
142.351574267
 20
48.7548865729
 30
0.0
 40
38.16549189479862
100
AcDbArc
 50
179.6059199444
 51
180.3940800556
  0
ARC
  5
1CC
330
1F
100
AcDbEntity
  8
0
  6
Continuous
 62
     7
370
    15
100
AcDbCircle
 10
138.1051498036
 20
48.7548865729
 30
0.0
 40
33.94399710855934
100
AcDbArc
 50
179.5991099253
 51
180.4008900747
  0
LWPOLYLINE
  5
1CD
330
1F
100
AcDbEntity
  8
0
  6
Continuous
 62
     7
370
    15
100
AcDbPolyline
 90
       18
 70
   128
 43
0.0
 10
105.6270666716
 20
48.8802157694
 10
105.6271737737
 20
48.859277589
 10
105.6272547522
 20
48.8242406749
 10
105.6272987106
 20
48.7798372635
 10
105.6272996885
 20
48.7320639544
 10
105.6272575927
 20
48.6873731368
 10
105.6271780577
 20
48.6518003398
 10
105.6270718404
 20
48.6301498839
 10
105.6269533296
 20
48.6253457495
 10
105.626838451
 20
48.6380368823
 10
105.6267428041
 20
48.666509276
 10
105.6266792414
 20
48.7069174999
 10
105.6266563774
 20
48.7538041898
 10
105.6266772856
 20
48.8008370974
 10
105.626739172
 20
48.8416640439
 10
105.6268336547
 20
48.8707712272
 10
105.6269479279
 20
48.8842275345
 10
105.6270666716
 20
48.8802157694
  0
LWPOLYLINE
  5
1CE
330
1F
100
AcDbEntity
  8
0
  6
Continuous
 62
     7
370
    15
100
AcDbPolyline
 90
       15
 70
   128
 43
0.0
 10
124.2139736486
 20
49.0173731351
 10
124.2139810991
 20
49.0173798406
 10
124.2146710229
 20
49.0089163536
 10
124.2153162432
 20
48.98314107
 10
124.2158705664
 20
48.9418104642
 10
124.2162967396
 20
48.8877412283
 10
124.2165679407
 20
48.8246184194
 10
124.2166633082
 20
48.7567432576
 10
124.2165768814
 20
48.6887418085
 10
124.2163161111
 20
48.6252477744
 10
124.2158973885
 20
48.5705886388
 10
124.2153475356
 20
48.5284889468
 10
124.2147082758
 20
48.5018179172
 10
124.2140198422
 20
48.492393119
 10
124.2139736486
 20
48.4924000108
  0
LWPOLYLINE
  5
1CF
330
1F
100
AcDbEntity
  8
0
  6
Continuous
 62
     7
370
    15
100
AcDbPolyline
 90
       24
 70
   128
 43
0.0
 10
124.1883615327
 20
48.9838533455
 10
124.1877580357
 20
48.9583410674
 10
124.187248416
 20
48.917739501
 10
124.1868669462
 20
48.8650597983
 10
124.1866449189
 20
48.8042090439
 10
124.1865972352
 20
48.7397002408
 10
124.1867283654
 20
48.6763177791
 10
124.1870278788
 20
48.6187624165
 10
124.1874734235
 20
48.5713027769
 10
124.188032217
 20
48.5374587008
 10
124.1886625362
 20
48.5197402888
 10
124.1893196774
 20
48.5194614508
 10
124.1899514866
 20
48.5366432348
 10
124.1905147505
 20
48.5700110325
 10
124.1909647656
 20
48.6170901337
 10
124.1912687493
 20
48.67438901
 10
124.1914043498
 20
48.7376580366
 10
124.1913626266
 20
48.8022048378
 10
124.1911450696
 20
48.8632422292
 10
124.1907695604
 20
48.9162434244
 10
124.1902629209
 20
48.957277497
 10
124.1896624041
 20
48.9833012575
 10
124.1890127134
 20
48.9923842603
 10
124.1883615327
 20
48.9838533455
  0
ARC
  5
1D0
330
1F
100
AcDbEntity
  8
0
  6
Continuous
 62
     7
370
    15
100
AcDbCircle
 10
116.3324797294
 20
48.7548864798
 30
0.0
 40
9.32449541674183
100
AcDbArc
 50
358.5405627762
 51
1.4594372238
  0
LWPOLYLINE
  5
1D1
330
1F
100
AcDbEntity
  8
0
  6
Continuous
 62
     7
370
    15
100
AcDbPolyline
 90
       18
 70
   128
 43
0.0
 10
124.1886506152
 20
48.8802157694
 10
124.189134903
 20
48.8842275345
 10
124.1895998192
 20
48.8707712272
 10
124.1899842692
 20
48.8416640439
 10
124.1902346087
 20
48.8008370974
 10
124.1903210354
 20
48.7538041898
 10
124.1902271581
 20
48.7069174999
 10
124.189969368
 20
48.666509276
 10
124.1895789576
 20
48.6380368823
 10
124.1891125512
 20
48.6253457495
 10
124.1886297536
 20
48.6301498839
 10
124.1881976199
 20
48.6518003398
 10
124.1878742647
 20
48.6873731368
 10
124.1877029014
 20
48.7320639544
 10
124.1877073717
 20
48.7798372635
 10
124.1878861857
 20
48.8242406749
 10
124.1882155013
 20
48.859277589
 10
124.1886506152
 20
48.8802157694
  0
SPLINE
  5
1D2
330
1F
100
AcDbEntity
  8
0
  6
Continuous
 62
     7
370
    15
100
AcDbSpline
210
0.0
220
0.0
230
1.0
 70
     8
 71
     3
 72
    12
 73
     8
 74
     0
 42
0.00000001
 43
0.00000001
 40
0.0
 40
0.0
 40
0.0
 40
0.0
 40
0.2167059123621538
 40
0.433417686904107
 40
0.6501293282006483
 40
0.866844710925585
 40
1.0
 40
1.0
 40
1.0
 40
1.0
 10
125.8721033406421
 20
49.2298864179547
 30
0.0
 10
125.8536383397275
 20
49.22805604455572
 30
0.0
 10
125.816707838396
 20
49.22439524824375
 30
0.0
 10
125.7675969708896
 20
49.19586338606812
 30
0.0
 10
125.7307435410411
 20
49.15393988093729
 30
0.0
 10
125.7118632678981
 20
49.10834805473909
 30
0.0
 10
125.7099758226886
 20
49.07867843808692
 30
0.0
 10
125.7092574906512
 20
49.06738664743258
 30
0.0
  0
LINE
  5
1D3
330
1F
100
AcDbEntity
  8
0
  6
Continuous
 62
     7
370
    15
100
AcDbLine
 10
125.8721033406
 20
49.1548866385
 30
0.0
 11
125.8721033406
 21
49.229886418
 31
0.0
  0
SPLINE
  5
1D4
330
1F
100
AcDbEntity
  8
0
  6
Continuous
 62
     7
370
    15
100
AcDbSpline
210
0.0
220
0.0
230
1.0
 70
     8
 71
     3
 72
    12
 73
     8
 74
     0
 42
0.00000001
 43
0.00000001
 40
0.0
 40
0.0
 40
0.0
 40
0.0
 40
0.2216132041208584
 40
0.4432223513135266
 40
0.6648133674568405
 40
0.8864023870705137
 40
1.0
 40
1.0
 40
1.0
 40
1.0
 10
125.8721033406421
 20
49.15488663849189
 30
0.0
 10
125.8619232489893
 20
49.15385538360557
 30
0.0
 10
125.841563252044
 20
49.15179289271143
 30
0.0
 10
125.8146470592157
 20
49.13574651211032
 30
0.0
 10
125.7947473699903
 20
49.11226739252842
 30
0.0
 10
125.7854024980694
 20
49.08786741679817
 30
0.0
 10
125.7845443713119
 20
49.07257080114199
 30
0.0
 10
125.7842535448237
 20
49.06738664743258
 30
0.0
  0
LINE
  5
1D5
330
1F
100
AcDbEntity
  8
0
  6
Continuous
 62
     7
370
    15
100
AcDbLine
 10
125.7842535448
 20
49.0673866474
 30
0.0
 11
125.7092574907
 21
49.0673866474
 31
0.0
  0
ARC
  5
1D6
330
1F
100
AcDbEntity
  8
0
  6
Continuous
 62
     7
370
    15
100
AcDbCircle
 10
125.8557244589
 20
49.0673902706
 30
0.0
 40
0.1624961474121166
100
AcDbArc
 50
90.0017436021
 51
180.001277527
  0
LINE
  5
1D7
330
1F
100
AcDbEntity
  8
0
  6
Continuous
 62
     7
370
    15
100
AcDbLine
 10
126.6345644665
 20
49.229886418
 30
0.0
 11
126.6345644665
 21
49.1548866385
 31
0.0
  0
LINE
  5
1D8
330
1F
100
AcDbEntity
  8
0
  6
Continuous
 62
     7
370
    15
100
AcDbLine
 10
126.6345644665
 20
49.1548866385
 30
0.0
 11
125.8721033406
 21
49.1548866385
 31
0.0
  0
LINE
  5
1D9
330
1F
100
AcDbEntity
  8
0
  6
Continuous
 62
     7
370
    15
100
AcDbLine
 10
126.6345644665
 20
49.229886418
 30
0.0
 11
125.8721033406
 21
49.229886418
 31
0.0
  0
LINE
  5
1DA
330
1F
100
AcDbEntity
  8
0
  6
Continuous
 62
     7
370
    15
100
AcDbLine
 10
125.7074589205
 20
48.6241780573
 30
0.0
 11
125.7092574907
 21
49.0673866474
 31
0.0
  0
ARC
  5
1DB
330
1F
100
AcDbEntity
  8
0
  6
Continuous
 62
     7
370
    15
100
AcDbCircle
 10
123.7660585243
 20
48.606106952
 30
0.0
 40
1.94148449985974
100
AcDbArc
 50
357.75006047
 51
0.5333099556
  0
LINE
  5
1DC
330
1F
100
AcDbEntity
  8
0
  6
Continuous
 62
     7
370
    15
100
AcDbLine
 10
125.6947497201
 20
48.5298866757
 30
0.0
 11
125.7060462904
 21
48.5298866757
 31
0.0
  0
ARC
  5
1DD
330
1F
100
AcDbEntity
  8
0
  6
Continuous
 62
     7
370
    15
100
AcDbCircle
 10
129.3926593313
 20
48.6424012498
 30
0.0
 40
3.699620929487502
100
AcDbArc
 50
179.4194568669
 51
181.7427743342
  0
LINE
  5
1DE
330
1F
100
AcDbEntity
  8
0
  6
Continuous
 62
     7
370
    15
100
AcDbLine
 10
125.6932283116
 20
49.0673866474
 30
0.0
 11
125.6932283116
 21
48.6798866072
 31
0.0
  0
LWPOLYLINE
  5
1DF
330
1F
100
AcDbEntity
  8
0
  6
Continuous
 62
     7
370
    15
100
AcDbPolyline
 90
       17
 70
   128
 43
0.0
 10
125.6964246106
 20
48.6548865565
 10
125.6968120408
 20
48.6624986285
 10
125.6971413565
 20
48.6841759064
 10
125.6973618937
 20
48.7166181558
 10
125.6974378896
 20
48.7548865729
 10
125.6973618937
 20
48.79315499
 10
125.6971413565
 20
48.8255972394
 10
125.6968120408
 20
48.8472745174
 10
125.6964246106
 20
48.8548865893
 10
125.6960356903
 20
48.8472745174
 10
125.6957063747
 20
48.8255972394
 10
125.6954873276
 20
48.79315499
 10
125.6954098416
 20
48.7548865729
 10
125.6954873276
 20
48.7166181558
 10
125.6957063747
 20
48.6841759064
 10
125.6960356903
 20
48.6624986285
 10
125.6964246106
 20
48.6548865565
  0
LINE
  5
1E0
330
1F
100
AcDbEntity
  8
0
  6
Continuous
 62
     7
370
    15
100
AcDbLine
 10
125.7824549747
 20
48.6241780573
 30
0.0
 11
125.7842535448
 21
49.0673866474
 31
0.0
  0
LINE
  5
1E1
330
1F
100
AcDbEntity
  8
0
  6
Continuous
 62
     7
370
    15
100
AcDbLine
 10
125.7060462904
 20
48.5298866757
 30
0.0
 11
125.7810423446
 21
48.5298866757
 31
0.0
  0
ARC
  5
1E2
330
1F
100
AcDbEntity
  8
0
  6
Continuous
 62
     7
370
    15
100
AcDbCircle
 10
123.8410545784
 20
48.606106952
 30
0.0
 40
1.941484499891714
100
AcDbArc
 50
357.75006047
 51
0.5333099556
  0
SPLINE
  5
1E3
330
1F
100
AcDbEntity
  8
0
  6
Continuous
 62
     7
370
    15
100
AcDbSpline
210
0.0
220
0.0
230
1.0
 70
     8
 71
     3
 72
    12
 73
     8
 74
     0
 42
0.00000001
 43
0.00000001
 40
0.0
 40
0.0
 40
0.0
 40
0.0
 40
0.2167057271343279
 40
0.4334186664565534
 40
0.6501313621734072
 40
0.8668450965919744
 40
1.0
 40
1.0
 40
1.0
 40
1.0
 10
105.8287380092754
 20
49.2298864179547
 30
0.0
 10
105.8103039857607
 20
49.22805603197914
 30
0.0
 10
105.7734353252283
 20
49.22439519911091
 30
0.0
 10
105.7244178574801
 20
49.19586334017297
 30
0.0
 10
105.6876573717866
 20
49.15394027054629
 30
0.0
 10
105.6688610140486
 20
49.10834790940777
 30
0.0
 10
105.6670246691679
 20
49.07867842188282
 30
0.0
 10
105.6663257830753
 20
49.06738664743258
 30
0.0
  0
LINE
  5
1E4
330
1F
100
AcDbEntity
  8
0
  6
Continuous
 62
     7
370
    15
100
AcDbLine
 10
105.8287380093
 20
49.1548866385
 30
0.0
 11
105.8287380093
 21
49.229886418
 31
0.0
  0
SPLINE
  5
1E5
330
1F
100
AcDbEntity
  8
0
  6
Continuous
 62
     7
370
    15
100
AcDbSpline
210
0.0
220
0.0
230
1.0
 70
     8
 71
     3
 72
    12
 73
     8
 74
     0
 42
0.00000001
 43
0.00000001
 40
0.0
 40
0.0
 40
0.0
 40
0.0
 40
0.2216139390723086
 40
0.443229804959178
 40
0.6648167978775692
 40
0.8864020789040954
 40
1.0
 40
1.0
 40
1.0
 40
1.0
 10
105.8287380092754
 20
49.15488663849189
 30
0.0
 10
105.8185899259287
 20
49.15385531559978
 30
0.0
 10
105.7982936710031
 20
49.15179266084878
 30
0.0
 10
105.7714743035666
 20
49.13574709584905
 30
0.0
 10
105.7516705852129
 20
49.11226737024595
 30
0.0
 10
105.7424099121524
 20
49.0878671551975
 30
0.0
 10
105.7416000390157
 20
49.07257078505495
 30
0.0
 10
105.7413255625381
 20
49.06738664743258
 30
0.0
  0
LINE
  5
1E6
330
1F
100
AcDbEntity
  8
0
  6
Continuous
 62
     7
370
    15
100
AcDbLine
 10
105.7413255625
 20
49.0673866474
 30
0.0
 11
105.6663257831
 21
49.0673866474
 31
0.0
  0
ARC
  5
1E7
330
1F
100
AcDbEntity
  8
0
  6
Continuous
 62
     7
370
    15
100
AcDbCircle
 10
105.8327655001
 20
49.0673868474
 30
0.0
 40
0.0874997911168398
100
AcDbArc
 50
90.0000215354
 51
180.0001309244
  0
LINE
  5
1E8
330
1F
100
AcDbEntity
  8
0
  6
Continuous
 62
     7
370
    15
100
AcDbLine
 10
106.591235643
 20
49.229886418
 30
0.0
 11
106.591235643
 21
49.1548866385
 31
0.0
  0
LINE
  5
1E9
330
1F
100
AcDbEntity
  8
0
  6
Continuous
 62
     7
370
    15
100
AcDbLine
 10
106.5952630776
 20
49.229886418
 30
0.0
 11
106.5952630776
 21
49.1548866385
 31
0.0
  0
LINE
  5
1EA
330
1F
100
AcDbEntity
  8
0
  6
Continuous
 62
     7
370
    15
100
AcDbLine
 10
106.5952630776
 20
49.1548866385
 30
0.0
 11
106.591235643
 21
49.1548866385
 31
0.0
  0
LINE
  5
1EB
330
1F
100
AcDbEntity
  8
0
  6
Continuous
 62
     7
370
    15
100
AcDbLine
 10
106.591235643
 20
49.229886418
 30
0.0
 11
105.8287380093
 21
49.229886418
 31
0.0
  0
LINE
  5
1EC
330
1F
100
AcDbEntity
  8
0
  6
Continuous
 62
     7
370
    15
100
AcDbLine
 10
106.591235643
 20
49.1548866385
 30
0.0
 11
105.8287380093
 21
49.1548866385
 31
0.0
  0
ARC
  5
1ED
330
1F
100
AcDbEntity
  8
0
  6
Continuous
 62
     7
370
    15
100
AcDbCircle
 10
90.7086981194
 20
48.6423839546
 30
0.0
 40
15.03661435711525
100
AcDbArc
 50
359.5713343932
 51
0.1429009144
  0
LINE
  5
1EE
330
1F
100
AcDbEntity
  8
0
  6
Continuous
 62
     7
370
    15
100
AcDbLine
 10
105.7448916432
 20
48.5298866757
 30
0.0
 11
105.7421149981
 21
48.5298866757
 31
0.0
  0
ARC
  5
1EF
330
1F
100
AcDbEntity
  8
0
  6
Continuous
 62
     7
370
    15
100
AcDbCircle
 10
113.6253018773
 20
48.6060719332
 30
0.0
 40
7.883555008041951
100
AcDbArc
 50
179.8684089345
 51
180.5537047253
  0
LINE
  5
1F0
330
1F
100
AcDbEntity
  8
0
  6
Continuous
 62
     7
370
    15
100
AcDbLine
 10
105.7417676614
 20
48.6241780573
 30
0.0
 11
105.7413255625
 21
49.0673866474
 31
0.0
  0
LINE
  5
1F1
330
1F
100
AcDbEntity
  8
0
  6
Continuous
 62
     7
370
    15
100
AcDbLine
 10
105.745265709
 20
49.0673866474
 30
0.0
 11
105.745265709
 21
48.6798866072
 31
0.0
  0
ARC
  5
1F2
330
1F
100
AcDbEntity
  8
0
  6
Continuous
 62
     7
370
    15
100
AcDbCircle
 10
100.6282849252
 20
48.722822464
 30
0.0
 40
5.11789945864018
100
AcDbArc
 50
359.2392370052
 51
1.4786451067
  0
LINE
  5
1F3
330
1F
100
AcDbEntity
  8
0
  6
Continuous
 62
     7
370
    15
100
AcDbLine
 10
105.6667678819
 20
48.6241780573
 30
0.0
 11
105.6663257831
 21
49.0673866474
 31
0.0
  0
LINE
  5
1F4
330
1F
100
AcDbEntity
  8
0
  6
Continuous
 62
     7
370
    15
100
AcDbLine
 10
105.6671152187
 20
48.5298866757
 30
0.0
 11
105.7421149981
 21
48.5298866757
 31
0.0
  0
ARC
  5
1F5
330
1F
100
AcDbEntity
  8
0
  6
Continuous
 62
     7
370
    15
100
AcDbCircle
 10
113.5509172971
 20
48.6060741994
 30
0.0
 40
7.884170200478859
100
AcDbArc
 50
179.8684356712
 51
180.5536779886
  0
LINE
  5
1F6
330
1F
100
AcDbEntity
  8
0
  6
Continuous
 62
     7
370
    15
100
AcDbLine
 10
123.9972004962
 20
49.1548866385
 30
0.0
 11
123.9972004962
 21
49.229886418
 31
0.0
  0
SPLINE
  5
1F7
330
1F
100
AcDbEntity
  8
0
  6
Continuous
 62
     7
370
    15
100
AcDbSpline
210
0.0
220
0.0
230
1.0
 70
     8
 71
     3
 72
    12
 73
     8
 74
     0
 42
0.00000001
 43
0.00000001
 40
0.0
 40
0.0
 40
0.0
 40
0.0
 40
0.2167046094073819
 40
0.4334195967366467
 40
0.6501291730007539
 40
0.8668454919727552
 40
1.0
 40
1.0
 40
1.0
 40
1.0
 10
124.159337050931
 20
49.06738664743258
 30
0.0
 10
124.1575324520498
 20
49.08582701429818
 30
0.0
 10
124.1539231678657
 20
49.12270863113325
 30
0.0
 10
124.1254692012218
 20
49.1717444259754
 30
0.0
 10
124.0836261737988
 20
49.20852503735506
 30
0.0
 10
124.0381024375036
 20
49.2273371748915
 30
0.0
 10
124.0084758424009
 20
49.22918367385143
 30
0.0
 10
123.997200496213
 20
49.2298864179547
 30
0.0
  0
LINE
  5
1F8
330
1F
100
AcDbEntity
  8
0
  6
Continuous
 62
     7
370
    15
100
AcDbLine
 10
124.0843409968
 20
49.0673866474
 30
0.0
 11
124.1593370509
 21
49.0673866474
 31
0.0
  0
SPLINE
  5
1F9
330
1F
100
AcDbEntity
  8
0
  6
Continuous
 62
     7
370
    15
100
AcDbSpline
210
0.0
220
0.0
230
1.0
 70
     8
 71
     3
 72
    12
 73
     8
 74
     0
 42
0.00000001
 43
0.00000001
 40
0.0
 40
0.0
 40
0.0
 40
0.0
 40
0.2216148966242937
 40
0.4432283515969049
 40
0.6648182567307092
 40
0.8864019850755168
 40
1.0
 40
1.0
 40
1.0
 40
1.0
 10
124.0843409967585
 20
49.06738664743258
 30
0.0
 10
124.0833359520305
 20
49.07754114246016
 30
0.0
 10
124.0813258691125
 20
49.09785006645816
 30
0.0
 10
124.0653601179569
 20
49.12468973683376
 30
0.0
 10
124.0419595180293
 20
49.1445120643295
 30
0.0
 10
124.0176276652528
 20
49.15378942166178
 30
0.0
 10
124.0023711524449
 20
49.15460890392038
 30
0.0
 10
123.997200496213
 20
49.15488663849189
 30
0.0
  0
LINE
  5
1FA
330
1F
100
AcDbEntity
  8
0
  6
Continuous
 62
     7
370
    15
100
AcDbLine
 10
123.2347393704
 20
49.1548866385
 30
0.0
 11
123.2347393704
 21
49.229886418
 31
0.0
  0
LINE
  5
1FB
330
1F
100
AcDbEntity
  8
0
  6
Continuous
 62
     7
370
    15
100
AcDbLine
 10
123.2347393704
 20
49.229886418
 30
0.0
 11
123.9972004962
 21
49.229886418
 31
0.0
  0
LINE
  5
1FC
330
1F
100
AcDbEntity
  8
0
  6
Continuous
 62
     7
370
    15
100
AcDbLine
 10
123.2347393704
 20
49.1548866385
 30
0.0
 11
123.9972004962
 21
49.1548866385
 31
0.0
  0
LINE
  5
1FD
330
1F
100
AcDbEntity
  8
0
  6
Continuous
 62
     7
370
    15
100
AcDbLine
 10
123.2183555436
 20
49.1548866385
 30
0.0
 11
123.2347393704
 21
49.1548866385
 31
0.0
  0
LINE
  5
1FE
330
1F
100
AcDbEntity
  8
0
  6
Continuous
 62
     7
370
    15
100
AcDbLine
 10
123.2183555436
 20
49.1548866385
 30
0.0
 11
123.2183555436
 21
49.229886418
 31
0.0
  0
ARC
  5
1FF
330
1F
100
AcDbEntity
  8
0
  6
Continuous
 62
     7
370
    15
100
AcDbCircle
 10
123.9808150147
 20
49.0673898355
 30
0.0
 40
0.0874968029721567
100
AcDbArc
 50
359.9979123256
 51
89.9989164271
  0
LINE
  5
200
330
1F
100
AcDbEntity
  8
0
  6
Continuous
 62
     7
370
    15
100
AcDbLine
 10
124.0825424266
 20
48.6241780573
 30
0.0
 11
124.0843409968
 21
49.0673866474
 31
0.0
  0
LINE
  5
201
330
1F
100
AcDbEntity
  8
0
  6
Continuous
 62
     7
370
    15
100
AcDbLine
 10
124.1575384808
 20
48.6241780573
 30
0.0
 11
124.1593370509
 21
49.0673866474
 31
0.0
  0
ARC
  5
202
330
1F
100
AcDbEntity
  8
0
  6
Continuous
 62
     7
370
    15
100
AcDbCircle
 10
122.1411420304
 20
48.606106952
 30
0.0
 40
1.941484499910981
100
AcDbArc
 50
357.75006047
 51
0.5333099555
  0
LINE
  5
203
330
1F
100
AcDbEntity
  8
0
  6
Continuous
 62
     7
370
    15
100
AcDbLine
 10
124.0698332262
 20
48.5298866757
 30
0.0
 11
124.0811297965
 21
48.5298866757
 31
0.0
  0
ARC
  5
204
330
1F
100
AcDbEntity
  8
0
  6
Continuous
 62
     7
370
    15
100
AcDbCircle
 10
127.7695522995
 20
48.6424196026
 30
0.0
 40
3.701430112900729
100
AcDbArc
 50
179.4200247397
 51
181.7422064614
  0
LINE
  5
205
330
1F
100
AcDbEntity
  8
0
  6
Continuous
 62
     7
370
    15
100
AcDbLine
 10
124.0683118177
 20
49.0673866474
 30
0.0
 11
124.0683118177
 21
48.6798866072
 31
0.0
  0
LWPOLYLINE
  5
206
330
1F
100
AcDbEntity
  8
0
  6
Continuous
 62
     7
370
    15
100
AcDbPolyline
 90
       17
 70
   128
 43
0.0
 10
124.0715081167
 20
48.6548865565
 10
124.0718955469
 20
48.6624986285
 10
124.0722248626
 20
48.6841759064
 10
124.0724453998
 20
48.7166181558
 10
124.0725228858
 20
48.7548865729
 10
124.0724453998
 20
48.79315499
 10
124.0722248626
 20
48.8255972394
 10
124.0718955469
 20
48.8472745174
 10
124.0715081167
 20
48.8548865893
 10
124.0711191964
 20
48.8472745174
 10
124.0707898808
 20
48.8255972394
 10
124.0705708337
 20
48.79315499
 10
124.0704933477
 20
48.7548865729
 10
124.0705708337
 20
48.7166181558
 10
124.0707898808
 20
48.6841759064
 10
124.0711191964
 20
48.6624986285
 10
124.0715081167
 20
48.6548865565
  0
LINE
  5
207
330
1F
100
AcDbEntity
  8
0
  6
Continuous
 62
     7
370
    15
100
AcDbLine
 10
124.1561258507
 20
48.5298866757
 30
0.0
 11
124.0811297965
 21
48.5298866757
 31
0.0
  0
ARC
  5
208
330
1F
100
AcDbEntity
  8
0
  6
Continuous
 62
     7
370
    15
100
AcDbCircle
 10
122.2161380846
 20
48.606106952
 30
0.0
 40
1.941484499868501
100
AcDbArc
 50
357.75006047
 51
0.5333099556
  0
LINE
  5
209
330
1F
100
AcDbEntity
  8
0
  6
Continuous
 62
     7
370
    15
100
AcDbLine
 10
103.9537437555
 20
49.1548866385
 30
0.0
 11
103.9537437555
 21
49.229886418
 31
0.0
  0
SPLINE
  5
20A
330
1F
100
AcDbEntity
  8
0
  6
Continuous
 62
     7
370
    15
100
AcDbSpline
210
0.0
220
0.0
230
1.0
 70
     8
 71
     3
 72
    12
 73
     8
 74
     0
 42
0.00000001
 43
0.00000001
 40
0.0
 40
0.0
 40
0.0
 40
0.0
 40
0.216704670158264
 40
0.4334183279018347
 40
0.6501313478391743
 40
0.8668440733060847
 40
1.0
 40
1.0
 40
1.0
 40
1.0
 10
104.1163306978508
 20
49.06738664743258
 30
0.0
 10
104.1144938339628
 20
49.08582696315955
 30
0.0
 10
104.1108200300048
 20
49.12270835940505
 30
0.0
 10
104.082269994918
 20
49.17174509182249
 30
0.0
 10
104.0403277873245
 20
49.20852434793592
 30
0.0
 10
103.9947189648199
 20
49.22733736803394
 30
0.0
 10
103.9650394373758
 20
49.22918371850783
 30
0.0
 10
103.9537437555357
 20
49.2298864179547
 30
0.0
  0
LINE
  5
20B
330
1F
100
AcDbEntity
  8
0
  6
Continuous
 62
     7
370
    15
100
AcDbLine
 10
104.0413309184
 20
49.0673866474
 30
0.0
 11
104.1163306979
 21
49.0673866474
 31
0.0
  0
SPLINE
  5
20C
330
1F
100
AcDbEntity
  8
0
  6
Continuous
 62
     7
370
    15
100
AcDbSpline
210
0.0
220
0.0
230
1.0
 70
     8
 71
     3
 72
    12
 73
     8
 74
     0
 42
0.00000001
 43
0.00000001
 40
0.0
 40
0.0
 40
0.0
 40
0.0
 40
0.2216152372930546
 40
0.4432295737407999
 40
0.6648168491727233
 40
0.8864040843738428
 40
1.0
 40
1.0
 40
1.0
 40
1.0
 10
104.041330918388
 20
49.06738664743258
 30
0.0
 10
104.0402932454968
 20
49.07754115753134
 30
0.0
 10
104.0382179039325
 20
49.09785013645171
 30
0.0
 10
104.0221526536963
 20
49.12468947826657
 30
0.0
 10
103.9986538723166
 20
49.1445123708264
 30
0.0
 10
103.9742375800773
 20
49.15378932806475
 30
0.0
 10
103.9589311961663
 20
49.15460888493337
 30
0.0
 10
103.9537437555357
 20
49.15488663849189
 30
0.0
  0
ARC
  5
20D
330
1F
100
AcDbEntity
  8
0
  6
Continuous
 62
     7
370
    15
100
AcDbCircle
 10
103.9577712394
 20
49.0673869062
 30
0.0
 40
0.1624995117463584
100
AcDbArc
 50
359.9999087581
 51
89.9999598918
  0
LINE
  5
20E
330
1F
100
AcDbEntity
  8
0
  6
Continuous
 62
     7
370
    15
100
AcDbLine
 10
103.1912463081
 20
49.1548866385
 30
0.0
 11
103.1912463081
 21
49.229886418
 31
0.0
  0
LINE
  5
20F
330
1F
100
AcDbEntity
  8
0
  6
Continuous
 62
     7
370
    15
100
AcDbLine
 10
103.1912463081
 20
49.1548866385
 30
0.0
 11
103.9537437555
 21
49.1548866385
 31
0.0
  0
LINE
  5
210
330
1F
100
AcDbEntity
  8
0
  6
Continuous
 62
     7
370
    15
100
AcDbLine
 10
103.1912463081
 20
49.229886418
 30
0.0
 11
103.9537437555
 21
49.229886418
 31
0.0
  0
LINE
  5
211
330
1F
100
AcDbEntity
  8
0
  6
Continuous
 62
     7
370
    15
100
AcDbLine
 10
104.0417729241
 20
48.6241780573
 30
0.0
 11
104.0413309184
 21
49.0673866474
 31
0.0
  0
LINE
  5
212
330
1F
100
AcDbEntity
  8
0
  6
Continuous
 62
     7
370
    15
100
AcDbLine
 10
104.1167727035
 20
48.6241780573
 30
0.0
 11
104.1163306979
 21
49.0673866474
 31
0.0
  0
ARC
  5
213
330
1F
100
AcDbEntity
  8
0
  6
Continuous
 62
     7
370
    15
100
AcDbCircle
 10
89.0780080102
 20
48.6423934874
 30
0.0
 40
15.04230946698224
100
AcDbArc
 50
359.5714603804
 51
0.1428105009
  0
LINE
  5
214
330
1F
100
AcDbEntity
  8
0
  6
Continuous
 62
     7
370
    15
100
AcDbLine
 10
104.119896732
 20
48.5298866757
 30
0.0
 11
104.1171200869
 21
48.5298866757
 31
0.0
  0
ARC
  5
215
330
1F
100
AcDbEntity
  8
0
  6
Continuous
 62
     7
370
    15
100
AcDbCircle
 10
112.0019898916
 20
48.6060820267
 30
0.0
 40
7.885237952624577
100
AcDbArc
 50
179.8685103613
 51
180.5536598891
  0
LINE
  5
216
330
1F
100
AcDbEntity
  8
0
  6
Continuous
 62
     7
370
    15
100
AcDbLine
 10
104.1202707511
 20
49.0673866474
 30
0.0
 11
104.1202707511
 21
48.6798866072
 31
0.0
  0
ARC
  5
217
330
1F
100
AcDbEntity
  8
0
  6
Continuous
 62
     7
370
    15
100
AcDbCircle
 10
99.0006493593
 20
48.7228242489
 30
0.0
 40
5.12053918839582
100
AcDbArc
 50
359.2396094392
 51
1.4778626912
  0
LINE
  5
218
330
1F
100
AcDbEntity
  8
0
  6
Continuous
 62
     7
370
    15
100
AcDbLine
 10
104.1171200869
 20
48.5298866757
 30
0.0
 11
104.0421203074
 21
48.5298866757
 31
0.0
  0
ARC
  5
219
330
1F
100
AcDbEntity
  8
0
  6
Continuous
 62
     7
370
    15
100
AcDbCircle
 10
111.9269901122
 20
48.6060820267
 30
0.0
 40
7.885237952624592
100
AcDbArc
 50
179.8685103613
 51
180.5536598891
  0
LINE
  5
21A
330
1F
100
AcDbEntity
  8
0
  6
Continuous
 62
     7
370
    15
100
AcDbLine
 10
88.4096319151
 20
86.254888063
 30
0.0
 11
88.7605035973
 21
86.254888063
 31
0.0
  0
LINE
  5
21B
330
1F
100
AcDbEntity
  8
0
  6
Continuous
 62
     7
370
    15
100
AcDbLine
 10
88.4096319151
 20
86.5548871809
 30
0.0
 11
88.7605035973
 21
86.5548871809
 31
0.0
  0
LINE
  5
21C
330
1F
100
AcDbEntity
  8
0
  6
Continuous
 62
     7
370
    15
100
AcDbLine
 10
88.1096327973
 20
86.254888063
 30
0.0
 11
88.4096319151
 21
86.254888063
 31
0.0
  0
LINE
  5
21D
330
1F
100
AcDbEntity
  8
0
  6
Continuous
 62
     7
370
    15
100
AcDbLine
 10
88.1096327973
 20
86.5548871809
 30
0.0
 11
88.4096319151
 21
86.5548871809
 31
0.0
  0
LINE
  5
21E
330
1F
100
AcDbEntity
  8
0
  6
Continuous
 62
     7
370
    15
100
AcDbLine
 10
87.7605075312
 20
86.254888063
 30
0.0
 11
87.7605075312
 21
86.5548871809
 31
0.0
  0
LINE
  5
21F
330
1F
100
AcDbEntity
  8
0
  6
Continuous
 62
     7
370
    15
100
AcDbLine
 10
87.7605075312
 20
86.254888063
 30
0.0
 11
88.1096327973
 21
86.254888063
 31
0.0
  0
LINE
  5
220
330
1F
100
AcDbEntity
  8
0
  6
Continuous
 62
     7
370
    15
100
AcDbLine
 10
87.7605075312
 20
86.5548871809
 30
0.0
 11
88.1096327973
 21
86.5548871809
 31
0.0
  0
LINE
  5
221
330
1F
100
AcDbEntity
  8
0
  6
Continuous
 62
     7
370
    15
100
AcDbLine
 10
88.7605035973
 20
86.254888063
 30
0.0
 11
88.7615019751
 21
86.254888063
 31
0.0
  0
LINE
  5
222
330
1F
100
AcDbEntity
  8
0
  6
Continuous
 62
     7
370
    15
100
AcDbLine
 10
88.7605035973
 20
86.5548871809
 30
0.0
 11
88.7615019751
 21
86.5548871809
 31
0.0
  0
LINE
  5
223
330
1F
100
AcDbEntity
  8
0
  6
Continuous
 62
     7
370
    15
100
AcDbLine
 10
88.7615019751
 20
86.254888063
 30
0.0
 11
88.9118755531
 21
86.254888063
 31
0.0
  0
LINE
  5
224
330
1F
100
AcDbEntity
  8
0
  6
Continuous
 62
     7
370
    15
100
AcDbLine
 10
88.7615019751
 20
86.5548871809
 30
0.0
 11
88.9118755531
 21
86.5548871809
 31
0.0
  0
LINE
  5
225
330
1F
100
AcDbEntity
  8
0
  6
Continuous
 62
     7
370
    15
100
AcDbLine
 10
91.4118672085
 20
86.254888063
 30
0.0
 11
91.7627388907
 21
86.254888063
 31
0.0
  0
LINE
  5
226
330
1F
100
AcDbEntity
  8
0
  6
Continuous
 62
     7
370
    15
100
AcDbLine
 10
91.4118672085
 20
86.5548871809
 30
0.0
 11
91.7627388907
 21
86.5548871809
 31
0.0
  0
LINE
  5
227
330
1F
100
AcDbEntity
  8
0
  6
Continuous
 62
     7
370
    15
100
AcDbLine
 10
88.9118755531
 20
86.254888063
 30
0.0
 11
91.4118672085
 21
86.254888063
 31
0.0
  0
LINE
  5
228
330
1F
100
AcDbEntity
  8
0
  6
Continuous
 62
     7
370
    15
100
AcDbLine
 10
88.9118755531
 20
86.5548871809
 30
0.0
 11
91.4118672085
 21
86.5548871809
 31
0.0
  0
LINE
  5
229
330
1F
100
AcDbEntity
  8
0
  6
Continuous
 62
     7
370
    15
100
AcDbLine
 10
91.7647341561
 20
86.254888063
 30
0.0
 11
91.7647341561
 21
86.5548871809
 31
0.0
  0
LINE
  5
22A
330
1F
100
AcDbEntity
  8
0
  6
Continuous
 62
     7
370
    15
100
AcDbLine
 10
91.7627388907
 20
86.254888063
 30
0.0
 11
91.7647341561
 21
86.254888063
 31
0.0
  0
LINE
  5
22B
330
1F
100
AcDbEntity
  8
0
  6
Continuous
 62
     7
370
    15
100
AcDbLine
 10
91.7627388907
 20
86.5548871809
 30
0.0
 11
91.7647341561
 21
86.5548871809
 31
0.0
  0
LINE
  5
22C
330
1F
100
AcDbEntity
  8
0
  6
Continuous
 62
     7
370
    15
100
AcDbLine
 10
88.4096363855
 20
48.9048865044
 30
0.0
 11
88.7605080676
 21
48.9048865044
 31
0.0
  0
LINE
  5
22D
330
1F
100
AcDbEntity
  8
0
  6
Continuous
 62
     7
370
    15
100
AcDbLine
 10
88.4096363855
 20
49.2048867398
 30
0.0
 11
88.7605080676
 21
49.2048867398
 31
0.0
  0
LINE
  5
22E
330
1F
100
AcDbEntity
  8
0
  6
Continuous
 62
     7
370
    15
100
AcDbLine
 10
88.1096372676
 20
48.9048865044
 30
0.0
 11
88.4096363855
 21
48.9048865044
 31
0.0
  0
LINE
  5
22F
330
1F
100
AcDbEntity
  8
0
  6
Continuous
 62
     7
370
    15
100
AcDbLine
 10
88.1096372676
 20
49.2048867398
 30
0.0
 11
88.4096363855
 21
49.2048867398
 31
0.0
  0
LINE
  5
230
330
1F
100
AcDbEntity
  8
0
  6
Continuous
 62
     7
370
    15
100
AcDbLine
 10
87.7605120015
 20
48.9048865044
 30
0.0
 11
87.7605120015
 21
49.2048867398
 31
0.0
  0
LINE
  5
231
330
1F
100
AcDbEntity
  8
0
  6
Continuous
 62
     7
370
    15
100
AcDbLine
 10
87.7605120015
 20
48.9048865044
 30
0.0
 11
88.1096372676
 21
48.9048865044
 31
0.0
  0
LINE
  5
232
330
1F
100
AcDbEntity
  8
0
  6
Continuous
 62
     7
370
    15
100
AcDbLine
 10
87.7605120015
 20
49.2048867398
 30
0.0
 11
88.1096372676
 21
49.2048867398
 31
0.0
  0
LINE
  5
233
330
1F
100
AcDbEntity
  8
0
  6
Continuous
 62
     7
370
    15
100
AcDbLine
 10
88.7605080676
 20
48.9048865044
 30
0.0
 11
88.7615049553
 21
48.9048865044
 31
0.0
  0
LINE
  5
234
330
1F
100
AcDbEntity
  8
0
  6
Continuous
 62
     7
370
    15
100
AcDbLine
 10
88.7605080676
 20
49.2048867398
 30
0.0
 11
88.7615049553
 21
49.2048867398
 31
0.0
  0
LINE
  5
235
330
1F
100
AcDbEntity
  8
0
  6
Continuous
 62
     7
370
    15
100
AcDbLine
 10
88.7615049553
 20
48.9048865044
 30
0.0
 11
88.9118785334
 21
48.9048865044
 31
0.0
  0
LINE
  5
236
330
1F
100
AcDbEntity
  8
0
  6
Continuous
 62
     7
370
    15
100
AcDbLine
 10
88.7615049553
 20
49.2048867398
 30
0.0
 11
88.9118785334
 21
49.2048867398
 31
0.0
  0
LINE
  5
237
330
1F
100
AcDbEntity
  8
0
  6
Continuous
 62
     7
370
    15
100
AcDbLine
 10
91.4118716788
 20
48.9048865044
 30
0.0
 11
91.762743361
 21
48.9048865044
 31
0.0
  0
LINE
  5
238
330
1F
100
AcDbEntity
  8
0
  6
Continuous
 62
     7
370
    15
100
AcDbLine
 10
91.4118716788
 20
49.2048867398
 30
0.0
 11
91.762743361
 21
49.2048867398
 31
0.0
  0
LINE
  5
239
330
1F
100
AcDbEntity
  8
0
  6
Continuous
 62
     7
370
    15
100
AcDbLine
 10
88.9118785334
 20
48.9048865044
 30
0.0
 11
91.4118716788
 21
48.9048865044
 31
0.0
  0
LINE
  5
23A
330
1F
100
AcDbEntity
  8
0
  6
Continuous
 62
     7
370
    15
100
AcDbLine
 10
88.9118785334
 20
49.2048867398
 30
0.0
 11
91.4118716788
 21
49.2048867398
 31
0.0
  0
LINE
  5
23B
330
1F
100
AcDbEntity
  8
0
  6
Continuous
 62
     7
370
    15
100
AcDbLine
 10
91.7647386265
 20
48.9048865044
 30
0.0
 11
91.7647386265
 21
49.2048867398
 31
0.0
  0
LINE
  5
23C
330
1F
100
AcDbEntity
  8
0
  6
Continuous
 62
     7
370
    15
100
AcDbLine
 10
91.762743361
 20
48.9048865044
 30
0.0
 11
91.7647386265
 21
48.9048865044
 31
0.0
  0
LINE
  5
23D
330
1F
100
AcDbEntity
  8
0
  6
Continuous
 62
     7
370
    15
100
AcDbLine
 10
91.762743361
 20
49.2048867398
 30
0.0
 11
91.7647386265
 21
49.2048867398
 31
0.0
  0
LINE
  5
23E
330
1F
100
AcDbEntity
  8
0
  6
Continuous
 62
     7
370
    15
100
AcDbLine
 10
107.8123024029
 20
48.9048865044
 30
0.0
 11
108.1658350599
 21
48.9048865044
 31
0.0
  0
LINE
  5
23F
330
1F
100
AcDbEntity
  8
0
  6
Continuous
 62
     7
370
    15
100
AcDbLine
 10
107.8123024029
 20
49.2048867398
 30
0.0
 11
108.1658350599
 21
49.2048867398
 31
0.0
  0
LINE
  5
240
330
1F
100
AcDbEntity
  8
0
  6
Continuous
 62
     7
370
    15
100
AcDbLine
 10
108.1658350599
 20
49.2048867398
 30
0.0
 11
108.4658196491
 21
49.2048867398
 31
0.0
  0
LINE
  5
241
330
1F
100
AcDbEntity
  8
0
  6
Continuous
 62
     7
370
    15
100
AcDbLine
 10
108.1658350599
 20
48.9048865044
 30
0.0
 11
108.4658196491
 21
48.9048865044
 31
0.0
  0
LINE
  5
242
330
1F
100
AcDbEntity
  8
0
  6
Continuous
 62
     7
370
    15
100
AcDbLine
 10
108.8122509715
 20
48.9048865044
 30
0.0
 11
108.8122509715
 21
49.2048867398
 31
0.0
  0
LINE
  5
243
330
1F
100
AcDbEntity
  8
0
  6
Continuous
 62
     7
370
    15
100
AcDbLine
 10
108.4658196491
 20
49.2048867398
 30
0.0
 11
108.8122509715
 21
49.2048867398
 31
0.0
  0
LINE
  5
244
330
1F
100
AcDbEntity
  8
0
  6
Continuous
 62
     7
370
    15
100
AcDbLine
 10
108.4658196491
 20
48.9048865044
 30
0.0
 11
108.8122509715
 21
48.9048865044
 31
0.0
  0
LINE
  5
245
330
1F
100
AcDbEntity
  8
0
  6
Continuous
 62
     7
370
    15
100
AcDbLine
 10
107.7950561714
 20
48.9048865044
 30
0.0
 11
107.7950561714
 21
49.2048867398
 31
0.0
  0
LINE
  5
246
330
1F
100
AcDbEntity
  8
0
  6
Continuous
 62
     7
370
    15
100
AcDbLine
 10
107.7950561714
 20
49.2048867398
 30
0.0
 11
107.8123024029
 21
49.2048867398
 31
0.0
  0
LINE
  5
247
330
1F
100
AcDbEntity
  8
0
  6
Continuous
 62
     7
370
    15
100
AcDbLine
 10
107.7950561714
 20
48.9048865044
 30
0.0
 11
107.8123024029
 21
48.9048865044
 31
0.0
  0
LINE
  5
248
330
1F
100
AcDbEntity
  8
0
  6
Continuous
 62
     7
370
    15
100
AcDbLine
 10
108.8122509715
 20
49.2048867398
 30
0.0
 11
108.9566635263
 21
49.2048867398
 31
0.0
  0
LINE
  5
249
330
1F
100
AcDbEntity
  8
0
  6
Continuous
 62
     7
370
    15
100
AcDbLine
 10
108.8122509715
 20
48.9048865044
 30
0.0
 11
108.9566635263
 21
48.9048865044
 31
0.0
  0
LINE
  5
24A
330
1F
100
AcDbEntity
  8
0
  6
Continuous
 62
     7
370
    15
100
AcDbLine
 10
108.9566635263
 20
49.2048867398
 30
0.0
 11
111.4565348548
 21
49.2048867398
 31
0.0
  0
LINE
  5
24B
330
1F
100
AcDbEntity
  8
0
  6
Continuous
 62
     7
370
    15
100
AcDbLine
 10
108.9566635263
 20
48.9048865044
 30
0.0
 11
111.4565348548
 21
48.9048865044
 31
0.0
  0
LINE
  5
24C
330
1F
100
AcDbEntity
  8
0
  6
Continuous
 62
     7
370
    15
100
AcDbLine
 10
111.8029663634
 20
48.9048865044
 30
0.0
 11
111.8029663634
 21
49.2048867398
 31
0.0
  0
LINE
  5
24D
330
1F
100
AcDbEntity
  8
0
  6
Continuous
 62
     7
370
    15
100
AcDbLine
 10
111.4565348548
 20
49.2048867398
 30
0.0
 11
111.8029663634
 21
49.2048867398
 31
0.0
  0
LINE
  5
24E
330
1F
100
AcDbEntity
  8
0
  6
Continuous
 62
     7
370
    15
100
AcDbLine
 10
111.4565348548
 20
48.9048865044
 30
0.0
 11
111.8029663634
 21
48.9048865044
 31
0.0
  0
LINE
  5
24F
330
1F
100
AcDbEntity
  8
0
  6
Continuous
 62
     7
370
    15
100
AcDbLine
 10
107.8123195392
 20
86.5548871809
 30
0.0
 11
108.1658521962
 21
86.5548871809
 31
0.0
  0
LINE
  5
250
330
1F
100
AcDbEntity
  8
0
  6
Continuous
 62
     7
370
    15
100
AcDbLine
 10
107.8123195392
 20
86.254888063
 30
0.0
 11
108.1658521962
 21
86.254888063
 31
0.0
  0
LINE
  5
251
330
1F
100
AcDbEntity
  8
0
  6
Continuous
 62
     7
370
    15
100
AcDbLine
 10
108.1658521962
 20
86.5548871809
 30
0.0
 11
108.4658367855
 21
86.5548871809
 31
0.0
  0
LINE
  5
252
330
1F
100
AcDbEntity
  8
0
  6
Continuous
 62
     7
370
    15
100
AcDbLine
 10
108.1658521962
 20
86.254888063
 30
0.0
 11
108.4658367855
 21
86.254888063
 31
0.0
  0
LINE
  5
253
330
1F
100
AcDbEntity
  8
0
  6
Continuous
 62
     7
370
    15
100
AcDbLine
 10
108.8122681078
 20
86.254888063
 30
0.0
 11
108.8122681078
 21
86.5548871809
 31
0.0
  0
LINE
  5
254
330
1F
100
AcDbEntity
  8
0
  6
Continuous
 62
     7
370
    15
100
AcDbLine
 10
108.4658367855
 20
86.5548871809
 30
0.0
 11
108.8122681078
 21
86.5548871809
 31
0.0
  0
LINE
  5
255
330
1F
100
AcDbEntity
  8
0
  6
Continuous
 62
     7
370
    15
100
AcDbLine
 10
108.4658367855
 20
86.254888063
 30
0.0
 11
108.8122681078
 21
86.254888063
 31
0.0
  0
LINE
  5
256
330
1F
100
AcDbEntity
  8
0
  6
Continuous
 62
     7
370
    15
100
AcDbLine
 10
107.7950732146
 20
86.254888063
 30
0.0
 11
107.7950732146
 21
86.5548871809
 31
0.0
  0
LINE
  5
257
330
1F
100
AcDbEntity
  8
0
  6
Continuous
 62
     7
370
    15
100
AcDbLine
 10
107.7950732146
 20
86.5548871809
 30
0.0
 11
107.8123195392
 21
86.5548871809
 31
0.0
  0
LINE
  5
258
330
1F
100
AcDbEntity
  8
0
  6
Continuous
 62
     7
370
    15
100
AcDbLine
 10
107.7950732146
 20
86.254888063
 30
0.0
 11
107.8123195392
 21
86.254888063
 31
0.0
  0
LINE
  5
259
330
1F
100
AcDbEntity
  8
0
  6
Continuous
 62
     7
370
    15
100
AcDbLine
 10
108.8122681078
 20
86.5548871809
 30
0.0
 11
108.9566806626
 21
86.5548871809
 31
0.0
  0
LINE
  5
25A
330
1F
100
AcDbEntity
  8
0
  6
Continuous
 62
     7
370
    15
100
AcDbLine
 10
108.8122681078
 20
86.254888063
 30
0.0
 11
108.9566806626
 21
86.254888063
 31
0.0
  0
LINE
  5
25B
330
1F
100
AcDbEntity
  8
0
  6
Continuous
 62
     7
370
    15
100
AcDbLine
 10
108.9566806626
 20
86.5548871809
 30
0.0
 11
111.4565519911
 21
86.5548871809
 31
0.0
  0
LINE
  5
25C
330
1F
100
AcDbEntity
  8
0
  6
Continuous
 62
     7
370
    15
100
AcDbLine
 10
108.9566806626
 20
86.254888063
 30
0.0
 11
111.4565519911
 21
86.254888063
 31
0.0
  0
LINE
  5
25D
330
1F
100
AcDbEntity
  8
0
  6
Continuous
 62
     7
370
    15
100
AcDbLine
 10
111.8029834998
 20
86.254888063
 30
0.0
 11
111.8029834998
 21
86.5548871809
 31
0.0
  0
LINE
  5
25E
330
1F
100
AcDbEntity
  8
0
  6
Continuous
 62
     7
370
    15
100
AcDbLine
 10
111.4565519911
 20
86.5548871809
 30
0.0
 11
111.8029834998
 21
86.5548871809
 31
0.0
  0
LINE
  5
25F
330
1F
100
AcDbEntity
  8
0
  6
Continuous
 62
     7
370
    15
100
AcDbLine
 10
111.4565519911
 20
86.254888063
 30
0.0
 11
111.8029834998
 21
86.254888063
 31
0.0
  0
LINE
  5
260
330
1F
100
AcDbEntity
  8
0
  6
Continuous
 62
     7
370
    15
100
AcDbLine
 10
107.1665312924
 20
49.364886468
 30
0.0
 11
107.1666809094
 21
49.364886468
 31
0.0
  0
SPLINE
  5
261
330
1F
100
AcDbEntity
  8
0
  6
Continuous
 62
     7
370
    15
100
AcDbSpline
210
0.0
220
0.0
230
1.0
 70
     8
 71
     3
 72
    12
 73
     8
 74
     0
 42
0.00000001
 43
0.00000001
 40
0.0
 40
0.0
 40
0.0
 40
0.0
 40
0.2899943455252653
 40
0.5021499092854811
 40
0.7236689236816728
 40
0.8548814112559743
 40
1.0
 40
1.0
 40
1.0
 40
1.0
 10
107.1665312924399
 20
49.3648864680226
 30
0.0
 10
107.1857683803648
 20
49.35423585936955
 30
0.0
 10
107.2190790366087
 20
49.33579342333072
 30
0.0
 10
107.2609957840768
 20
49.3120613281198
 30
0.0
 10
107.2862627437481
 20
49.30059257091815
 30
0.0
 10
107.2995616318036
 20
49.29396878466974
 30
0.0
 10
107.3010735181104
 20
49.29152408306462
 30
0.0
 10
107.3018675033911
 20
49.29024021860911
 30
0.0
  0
LINE
  5
262
330
1F
100
AcDbEntity
  8
0
  6
Continuous
 62
     7
370
    15
100
AcDbLine
 10
107.3018675034
 20
49.2902402186
 30
0.0
 11
107.2418676984
 21
49.2902402186
 31
0.0
  0
SPLINE
  5
263
330
1F
100
AcDbEntity
  8
0
  6
Continuous
 62
     7
370
    15
100
AcDbSpline
210
0.0
220
0.0
230
1.0
 70
     8
 71
     3
 72
    12
 73
     8
 74
     0
 42
0.00000001
 43
0.00000001
 40
0.0
 40
0.0
 40
0.0
 40
0.0
 40
0.315465105887934
 40
0.5366051568951727
 40
0.7489970721053993
 40
0.8692177621661712
 40
1.0
 40
1.0
 40
1.0
 40
1.0
 10
107.1666809094115
 20
49.3648864680226
 30
0.0
 10
107.1772921157485
 20
49.3543244149496
 30
0.0
 10
107.1953417444872
 20
49.33635839575892
 30
0.0
 10
107.2182957561915
 20
49.31286838266665
 30
0.0
 10
107.2329848904776
 20
49.30075838184574
 30
0.0
 10
107.2405624247211
 20
49.29400679264722
 30
0.0
 10
107.2414205710201
 20
49.29153047560674
 30
0.0
 10
107.2418676984473
 20
49.29024021860911
 30
0.0
  0
SPLINE
  5
264
330
1F
100
AcDbEntity
  8
0
  6
Continuous
 62
     7
370
    15
100
AcDbSpline
210
0.0
220
0.0
230
1.0
 70
     8
 71
     3
 72
    12
 73
     8
 74
     0
 42
0.00000001
 43
0.00000001
 40
0.0
 40
0.0
 40
0.0
 40
0.0
 40
0.1927084253018953
 40
0.3855139673562327
 40
0.5805866958489129
 40
0.7882067487204913
 40
1.0
 40
1.0
 40
1.0
 40
1.0
 10
107.3018675033911
 20
86.16953421172455
 30
0.0
 10
107.3004537399953
 20
86.16821697293626
 30
0.0
 10
107.2976255007278
 20
86.16558183152806
 30
0.0
 10
107.2763704087711
 20
86.15559557219812
 30
0.0
 10
107.2460511212385
 20
86.13894471035661
 30
0.0
 10
107.2084179293791
 20
86.11783686359362
 30
0.0
 10
107.1805858153947
 20
86.102586438616
 30
0.0
 10
107.1665312924399
 20
86.09488535460784
 30
0.0
  0
LINE
  5
265
330
1F
100
AcDbEntity
  8
0
  6
Continuous
 62
     7
370
    15
100
AcDbLine
 10
107.3018675034
 20
49.2902402186
 30
0.0
 11
107.3018675034
 21
86.1695342117
 31
0.0
  0
SPLINE
  5
266
330
1F
100
AcDbEntity
  8
0
  6
Continuous
 62
     7
370
    15
100
AcDbSpline
210
0.0
220
0.0
230
1.0
 70
     8
 71
     3
 72
    12
 73
     8
 74
     0
 42
0.00000001
 43
0.00000001
 40
0.0
 40
0.0
 40
0.0
 40
0.0
 40
0.1609118772175739
 40
0.3215989431560828
 40
0.4895667727909541
 40
0.7685524270082659
 40
1.0
 40
1.0
 40
1.0
 40
1.0
 10
107.2418676984473
 20
86.16953421172455
 30
0.0
 10
107.2411685190972
 20
86.16832183824533
 30
0.0
 10
107.2397711372259
 20
86.16589878510366
 30
0.0
 10
107.2296539996124
 20
86.15721611191128
 30
0.0
 10
107.2132251174298
 20
86.1415743810262
 30
0.0
 10
107.1917560667795
 20
86.11955807028662
 30
0.0
 10
107.1745037083216
 20
86.10258260214601
 30
0.0
 10
107.1666809094115
 20
86.09488535460784
 30
0.0
  0
LINE
  5
267
330
1F
100
AcDbEntity
  8
0
  6
Continuous
 62
     7
370
    15
100
AcDbLine
 10
107.3018675034
 20
86.1695342117
 30
0.0
 11
107.2418676984
 21
86.1695342117
 31
0.0
  0
SPLINE
  5
268
330
1F
100
AcDbEntity
  8
0
  6
Continuous
 62
     7
370
    15
100
AcDbSpline
210
0.0
220
0.0
230
1.0
 70
     8
 71
     3
 72
    12
 73
     8
 74
     0
 42
0.00000001
 43
0.00000001
 40
0.0
 40
0.0
 40
0.0
 40
0.0
 40
0.1927058741141408
 40
0.3855181646439421
 40
0.5805884556901689
 40
0.7882122151247206
 40
1.0
 40
1.0
 40
1.0
 40
1.0
 10
107.241514168398
 20
49.2298864179547
 30
0.0
 10
107.2401614987074
 20
49.23126411098184
 30
0.0
 10
107.2374554123524
 20
49.23402025782845
 30
0.0
 10
107.2273706920077
 20
49.25517804576572
 30
0.0
 10
107.2106479590579
 20
49.28542543775589
 30
0.0
 10
107.189489270575
 20
49.32300825840441
 30
0.0
 10
107.1742344364542
 20
49.35083497455694
 30
0.0
 10
107.1665312924399
 20
49.3648864680226
 30
0.0
  0
SPLINE
  5
269
330
1F
100
AcDbEntity
  8
0
  6
Continuous
 62
     7
370
    15
100
AcDbSpline
210
0.0
220
0.0
230
1.0
 70
     8
 71
     3
 72
    12
 73
     8
 74
     0
 42
0.00000001
 43
0.00000001
 40
0.0
 40
0.0
 40
0.0
 40
0.0
 40
0.160898492391148
 40
0.3216010389107433
 40
0.4895658332960777
 40
0.7685577009475144
 40
0.9999999999999999
 40
0.9999999999999999
 40
0.9999999999999999
 40
0.9999999999999999
 10
107.241514168398
 20
49.28988668855979
 30
0.0
 10
107.2402841402647
 20
49.29056713201723
 30
0.0
 10
107.2378255819545
 20
49.29192719027247
 30
0.0
 10
107.2290895644257
 20
49.30199368796363
 30
0.0
 10
107.2134053576535
 20
49.31837873382324
 30
0.0
 10
107.1913577637168
 20
49.3398164277106
 30
0.0
 10
107.1743793176472
 20
49.35706539802649
 30
0.0
 10
107.1666809094115
 20
49.3648864680226
 30
0.0
  0
LINE
  5
26A
330
1F
100
AcDbEntity
  8
0
  6
Continuous
 62
     7
370
    15
100
AcDbLine
 10
107.2415141684
 20
49.229886418
 30
0.0
 11
107.2415141684
 21
49.2898866886
 31
0.0
  0
LINE
  5
26B
330
1F
100
AcDbEntity
  8
0
  6
Continuous
 62
     7
370
    15
100
AcDbLine
 10
87.7622822595
 20
49.229886418
 30
0.0
 11
87.8858590794
 21
49.229886418
 31
0.0
  0
LINE
  5
26C
330
1F
100
AcDbEntity
  8
0
  6
Continuous
 62
     7
370
    15
100
AcDbLine
 10
88.5358596516
 20
49.229886418
 30
0.0
 11
103.1912463081
 21
49.229886418
 31
0.0
  0
LINE
  5
26D
330
1F
100
AcDbEntity
  8
0
  6
Continuous
 62
     7
370
    15
100
AcDbLine
 10
103.9537437555
 20
49.229886418
 30
0.0
 11
105.8287380093
 21
49.229886418
 31
0.0
  0
LINE
  5
26E
330
1F
100
AcDbEntity
  8
0
  6
Continuous
 62
     7
370
    15
100
AcDbLine
 10
106.5915161806
 20
49.229886418
 30
0.0
 11
107.2415141684
 21
49.229886418
 31
0.0
  0
SPLINE
  5
26F
330
1F
100
AcDbEntity
  8
0
  6
Continuous
 62
     7
370
    15
100
AcDbSpline
210
0.0
220
0.0
230
1.0
 70
     8
 71
     3
 72
    12
 73
     8
 74
     0
 42
0.00000001
 43
0.00000001
 40
0.0
 40
0.0
 40
0.0
 40
0.0
 40
0.2614639112549627
 40
0.5198346202995644
 40
0.750262990088296
 40
0.9483936085935306
 40
1.0
 40
1.0
 40
1.0
 40
1.0
 10
87.83659137012202
 20
49.3648864680226
 30
0.0
 10
87.82701543470672
 20
49.34760368573135
 30
0.0
 10
87.80797685027369
 20
49.31324258202503
 30
0.0
 10
87.78302300110762
 20
49.26923398358099
 30
0.0
 10
87.77009769333289
 20
49.239817444009
 30
0.0
 10
87.76472410472829
 20
49.23049232391185
 30
0.0
 10
87.76270043628833
 20
49.22999018203198
 30
0.0
 10
87.76228225948054
 20
49.2298864179547
 30
0.0
  0
SPLINE
  5
270
330
1F
100
AcDbEntity
  8
0
  6
Continuous
 62
     7
370
    15
100
AcDbSpline
210
0.0
220
0.0
230
1.0
 70
     8
 71
     3
 72
    13
 73
     9
 74
     0
 42
0.00000001
 43
0.00000001
 40
0.0
 40
0.0
 40
0.0
 40
0.0
 40
0.1331002193318196
 40
0.2604564627188007
 40
0.3828196235028913
 40
0.5010455653084993
 40
0.7066971851780184
 40
1.0
 40
1.0
 40
1.0
 40
1.0
 10
87.76228225948054
 20
86.22988689479186
 30
0.0
 10
87.76307185478684
 20
86.22923752743687
 30
0.0
 10
87.76461697020058
 20
86.22796681635064
 30
0.0
 10
87.76952422053769
 20
86.2183107915488
 30
0.0
 10
87.77629248177695
 20
86.20456536796456
 30
0.0
 10
87.78744810647031
 20
86.1832227068862
 30
0.0
 10
87.807782546278
 20
86.14773195697617
 30
0.0
 10
87.82592600968466
 20
86.11444977921605
 30
0.0
 10
87.83659137012202
 20
86.09488535460784
 30
0.0
  0
LINE
  5
271
330
1F
100
AcDbEntity
  8
0
  6
Continuous
 62
     7
370
    15
100
AcDbLine
 10
107.2415141684
 20
86.2298868948
 30
0.0
 11
88.5354200673
 21
86.2298868948
 31
0.0
  0
LINE
  5
272
330
1F
100
AcDbEntity
  8
0
  6
Continuous
 62
     7
370
    15
100
AcDbLine
 10
87.8862882328
 20
86.2298868948
 30
0.0
 11
87.7622822595
 21
86.2298868948
 31
0.0
  0
SPLINE
  5
273
330
1F
100
AcDbEntity
  8
0
  6
Continuous
 62
     7
370
    15
100
AcDbSpline
210
0.0
220
0.0
230
1.0
 70
     8
 71
     3
 72
    12
 73
     8
 74
     0
 42
0.00000001
 43
0.00000001
 40
0.0
 40
0.0
 40
0.0
 40
0.0
 40
0.2899981024449093
 40
0.502148687520841
 40
0.7236663030589806
 40
0.8548778470658681
 40
1.0
 40
1.0
 40
1.0
 40
1.0
 10
107.1665312924399
 20
86.09488535460784
 30
0.0
 10
107.17718771039
 20
86.11411714473688
 30
0.0
 10
107.1956399217743
 20
86.14741811495203
 30
0.0
 10
107.2194438588681
 20
86.18926234958239
 30
0.0
 10
107.2309952625829
 20
86.21444851345149
 30
0.0
 10
107.2377067899086
 20
86.227657420992
 30
0.0
 10
107.2402031533449
 20
86.22911920812233
 30
0.0
 10
107.241514168398
 20
86.22988689479186
 30
0.0
  0
LINE
  5
274
330
1F
100
AcDbEntity
  8
0
  6
Continuous
 62
     7
370
    15
100
AcDbLine
 10
107.2415141684
 20
86.2298868948
 30
0.0
 11
107.2415141684
 21
86.1698858791
 31
0.0
  0
SPLINE
  5
275
330
1F
100
AcDbEntity
  8
0
  6
Continuous
 62
     7
370
    15
100
AcDbSpline
210
0.0
220
0.0
230
1.0
 70
     8
 71
     3
 72
    12
 73
     8
 74
     0
 42
0.00000001
 43
0.00000001
 40
0.0
 40
0.0
 40
0.0
 40
0.0
 40
0.3154690792057053
 40
0.5366167843140275
 40
0.7490104382387393
 40
0.8692233277866775
 40
1.0
 40
1.0
 40
1.0
 40
1.0
 10
107.1666809094115
 20
86.09488535460784
 30
0.0
 10
107.1772462771117
 20
86.10549334734046
 30
0.0
 10
107.1952180975344
 20
86.12353767346754
 30
0.0
 10
107.2187451373489
 20
86.1464568924742
 30
0.0
 10
107.2309016713724
 20
86.16109843472528
 30
0.0
 10
107.2377034298328
 20
86.16862350215077
 30
0.0
 10
107.2402087734629
 20
86.16945344313632
 30
0.0
 10
107.241514168398
 20
86.16988587912871
 30
0.0
  0
LINE
  5
276
330
1F
100
AcDbEntity
  8
0
  6
Continuous
 62
     7
370
    15
100
AcDbLine
 10
87.7622822595
 20
49.229886418
 30
0.0
 11
87.7622822595
 21
49.2898866886
 31
0.0
  0
SPLINE
  5
277
330
1F
100
AcDbEntity
  8
0
  6
Continuous
 62
     7
370
    15
100
AcDbSpline
210
0.0
220
0.0
230
1.0
 70
     8
 71
     3
 72
    11
 73
     7
 74
     0
 42
0.00000001
 43
0.00000001
 40
0.0
 40
0.0
 40
0.0
 40
0.0
 40
0.3103695710753018
 40
0.5939573162619968
 40
0.8775888405198861
 40
1.0
 40
1.0
 40
1.0
 40
1.0
 10
87.80077195884425
 20
49.32888638016536
 30
0.0
 10
87.79465125377517
 20
49.32284170922105
 30
0.0
 10
87.7829379999795
 20
49.31127396268156
 30
0.0
 10
87.77139336241214
 20
49.29705101815997
 30
0.0
 10
87.7654180187884
 20
49.29056638975586
 30
0.0
 10
87.76300862742667
 20
49.29004413468792
 30
0.0
 10
87.76228225948054
 20
49.28988668855979
 30
0.0
  0
SPLINE
  5
278
330
1F
100
AcDbEntity
  8
0
  6
Continuous
 62
     7
370
    15
100
AcDbSpline
210
0.0
220
0.0
230
1.0
 70
     8
 71
     3
 72
    12
 73
     8
 74
     0
 42
0.00000001
 43
0.00000001
 40
0.0
 40
0.0
 40
0.0
 40
0.0
 40
0.1453813844181822
 40
0.2766923605611356
 40
0.4978603270728599
 40
0.7098939932621859
 40
1.0
 40
1.0
 40
1.0
 40
1.0
 10
87.70192808629709
 20
49.29024021860911
 30
0.0
 10
87.70267060752671
 20
49.29153775753849
 30
0.0
 10
87.70408378674915
 20
49.29400725602844
 30
0.0
 10
87.71722335806467
 20
49.30064277322768
 30
0.0
 10
87.74231940367001
 20
49.31206448447557
 30
0.0
 10
87.78408059486962
 20
49.33576907080515
 30
0.0
 10
87.81736287609523
 20
49.35422420497697
 30
0.0
 10
87.83659137012202
 20
49.3648864680226
 30
0.0
  0
LINE
  5
279
330
1F
100
AcDbEntity
  8
0
  6
Continuous
 62
     7
370
    15
100
AcDbLine
 10
87.7019280863
 20
86.1695342117
 30
0.0
 11
87.7019280863
 21
49.2902402186
 31
0.0
  0
SPLINE
  5
27A
330
1F
100
AcDbEntity
  8
0
  6
Continuous
 62
     7
370
    15
100
AcDbSpline
210
0.0
220
0.0
230
1.0
 70
     8
 71
     3
 72
    12
 73
     8
 74
     0
 42
0.00000001
 43
0.00000001
 40
0.0
 40
0.0
 40
0.0
 40
0.0
 40
0.2597232168235996
 40
0.5171410384571051
 40
0.7152354953856782
 40
0.9135183423244636
 40
1.0
 40
1.0
 40
1.0
 40
1.0
 10
87.83659137012202
 20
86.09488535460784
 30
0.0
 10
87.8193431607826
 20
86.10429727409502
 30
0.0
 10
87.78499984331408
 20
86.12303756954107
 30
0.0
 10
87.7432060901314
 20
86.14715322901752
 30
0.0
 10
87.71468722970917
 20
86.16147761690831
 30
0.0
 10
87.70308717238206
 20
86.16743059436807
 30
0.0
 10
87.70219809497651
 20
86.16904417483101
 30
0.0
 10
87.70192808629709
 20
86.16953421172455
 30
0.0
  0
LINE
  5
27B
330
1F
100
AcDbEntity
  8
0
  6
Continuous
 62
     7
370
    15
100
AcDbLine
 10
87.8365913701
 20
86.0948853546
 30
0.0
 11
87.8367403817
 21
86.0948853546
 31
0.0
  0
LINE
  5
27C
330
1F
100
AcDbEntity
  8
0
  6
Continuous
 62
     7
370
    15
100
AcDbLine
 10
87.7019280863
 20
86.1695342117
 30
0.0
 11
87.7619276118
 21
86.1695342117
 31
0.0
  0
SPLINE
  5
27D
330
1F
100
AcDbEntity
  8
0
  6
Continuous
 62
     7
370
    15
100
AcDbSpline
210
0.0
220
0.0
230
1.0
 70
     8
 71
     3
 72
    12
 73
     8
 74
     0
 42
0.00000001
 43
0.00000001
 40
0.0
 40
0.0
 40
0.0
 40
0.0
 40
0.3431175824975398
 40
0.5698386690815384
 40
0.7476152666950586
 40
0.9260564812271126
 40
1.0
 40
1.0
 40
1.0
 40
1.0
 10
87.83674038173396
 20
86.09488535460784
 30
0.0
 10
87.82509631861102
 20
86.1063234403022
 30
0.0
 10
87.8057582322781
 20
86.12531944593235
 30
0.0
 10
87.78341532928701
 20
86.14851676810113
 30
0.0
 10
87.76885429461018
 20
86.16161040393422
 30
0.0
 10
87.76254134719073
 20
86.16746934095343
 30
0.0
 10
87.76206667964115
 20
86.1690663275936
 30
0.0
 10
87.76192761184411
 20
86.16953421172455
 30
0.0
  0
SPLINE
  5
27E
330
1F
100
AcDbEntity
  8
0
  6
Continuous
 62
     7
370
    15
100
AcDbSpline
210
0.0
220
0.0
230
1.0
 70
     8
 71
     3
 72
    12
 73
     8
 74
     0
 42
0.00000001
 43
0.00000001
 40
0.0
 40
0.0
 40
0.0
 40
0.0
 40
0.1310455951755881
 40
0.251375374940611
 40
0.4633830512154162
 40
0.6843549524472677
 40
1.0
 40
1.0
 40
1.0
 40
1.0
 10
87.76192761184411
 20
49.29024021860911
 30
0.0
 10
87.76234633569291
 20
49.29154422946242
 30
0.0
 10
87.76314954364771
 20
49.2940456200413
 30
0.0
 10
87.7706339223442
 20
49.30080628953158
 30
0.0
 10
87.78522923319629
 20
49.31286922573475
 30
0.0
 10
87.80810620623406
 20
49.33634001184365
 30
0.0
 10
87.8261353850004
 20
49.35431395914999
 30
0.0
 10
87.83674038173396
 20
49.3648864680226
 30
0.0
  0
LINE
  5
27F
330
1F
100
AcDbEntity
  8
0
  6
Continuous
 62
     7
370
    15
100
AcDbLine
 10
87.7019280863
 20
49.2902402186
 30
0.0
 11
87.7619276118
 21
49.2902402186
 31
0.0
  0
SPLINE
  5
280
330
1F
100
AcDbEntity
  8
0
  6
Continuous
 62
     7
370
    15
100
AcDbSpline
210
0.0
220
0.0
230
1.0
 70
     8
 71
     3
 72
    13
 73
     9
 74
     0
 42
0.00000001
 43
0.00000001
 40
0.0
 40
0.0
 40
0.0
 40
0.0
 40
0.1189005029808874
 40
0.2350853202899688
 40
0.3505010921284646
 40
0.4671886256067762
 40
0.6821911253502532
 40
1.0
 40
1.0
 40
1.0
 40
1.0
 10
87.76228225948054
 20
86.16988587912871
 30
0.0
 10
87.7630888515671
 20
86.16951843950856
 30
0.0
 10
87.7646836131893
 20
86.16879195258359
 30
0.0
 10
87.76968518833397
 20
86.16334680769371
 30
0.0
 10
87.77655726703188
 20
86.15562372313241
 30
0.0
 10
87.78799157809505
 20
86.14352984306053
 30
0.0
 10
87.80837641021817
 20
86.1238059778762
 30
0.0
 10
87.82614303012122
 20
86.10569068253817
 30
0.0
 10
87.83674038173396
 20
86.09488535460784
 30
0.0
  0
LINE
  5
281
330
1F
100
AcDbEntity
  8
0
  6
Continuous
 62
     7
370
    15
100
AcDbLine
 10
87.7622822595
 20
86.2298868948
 30
0.0
 11
87.7622822595
 21
86.1698858791
 31
0.0
  0
LINE
  5
282
330
1F
100
AcDbEntity
  8
0
  6
Continuous
 62
     7
370
    15
100
AcDbLine
 10
107.3048102033
 20
49.2902402186
 30
0.0
 11
107.3048102033
 21
86.1695342117
 31
0.0
  0
LINE
  5
283
330
1F
100
AcDbEntity
  8
0
  6
Continuous
 62
     7
370
    15
100
AcDbLine
 10
107.2444567752
 20
49.229886418
 30
0.0
 11
107.2444567752
 21
49.2898866886
 31
0.0
  0
LINE
  5
284
330
1F
100
AcDbEntity
  8
0
  6
Continuous
 62
     7
370
    15
100
AcDbLine
 10
107.2415141684
 20
49.229886418
 30
0.0
 11
107.2444567752
 21
49.229886418
 31
0.0
  0
LINE
  5
285
330
1F
100
AcDbEntity
  8
0
  6
Continuous
 62
     7
370
    15
100
AcDbLine
 10
107.2444567752
 20
86.2298868948
 30
0.0
 11
107.2444567752
 21
86.1698858791
 31
0.0
  0
LINE
  5
286
330
1F
100
AcDbEntity
  8
0
  6
Continuous
 62
     7
370
    15
100
AcDbLine
 10
107.2415141684
 20
86.2298868948
 30
0.0
 11
107.2444567752
 21
86.2298868948
 31
0.0
  0
SPLINE
  5
287
330
1F
100
AcDbEntity
  8
0
  6
Continuous
 62
     7
370
    15
100
AcDbSpline
210
0.0
220
0.0
230
1.0
 70
     8
 71
     3
 72
    12
 73
     8
 74
     0
 42
0.00000001
 43
0.00000001
 40
0.0
 40
0.0
 40
0.0
 40
0.0
 40
0.1453838066890573
 40
0.2766878033583679
 40
0.4978604558587638
 40
0.7098961057248376
 40
1.0
 40
1.0
 40
1.0
 40
1.0
 10
107.744749106185
 20
49.29024021860911
 30
0.0
 10
107.7456290155402
 20
49.2915377057581
 30
0.0
 10
107.7473036187314
 20
49.29400702388448
 30
0.0
 10
107.7608854366605
 20
49.30064319469952
 30
0.0
 10
107.7864018880689
 20
49.31206431610543
 30
0.0
 10
107.8285232591994
 20
49.33576884814435
 30
0.0
 10
107.8618548991034
 20
49.3542241709191
 30
0.0
 10
107.8811117743118
 20
49.3648864680226
 30
0.0
  0
SPLINE
  5
288
330
1F
100
AcDbEntity
  8
0
  6
Continuous
 62
     7
370
    15
100
AcDbSpline
210
0.0
220
0.0
230
1.0
 70
     8
 71
     3
 72
    12
 73
     8
 74
     0
 42
0.00000001
 43
0.00000001
 40
0.0
 40
0.0
 40
0.0
 40
0.0
 40
0.1310547189550031
 40
0.2513805337582484
 40
0.463380164365674
 40
0.6843550964005966
 40
1.0
 40
1.0
 40
1.0
 40
1.0
 10
107.8047460240288
 20
49.29024021860911
 30
0.0
 10
107.8052410590489
 20
49.29154417818796
 30
0.0
 10
107.8061906026331
 20
49.29404534760438
 30
0.0
 10
107.8139248913598
 20
49.30080626073099
 30
0.0
 10
107.8287585390789
 20
49.31286978874819
 30
0.0
 10
107.8518257125782
 20
49.33633971187521
 30
0.0
 10
107.8698821142557
 20
49.35431388690149
 30
0.0
 10
107.8805030618771
 20
49.3648864680226
 30
0.0
  0
LINE
  5
289
330
1F
100
AcDbEntity
  8
0
  6
Continuous
 62
     7
370
    15
100
AcDbLine
 10
107.7447491062
 20
49.2902402186
 30
0.0
 11
107.804746024
 21
49.2902402186
 31
0.0
  0
LINE
  5
28A
330
1F
100
AcDbEntity
  8
0
  6
Continuous
 62
     7
370
    15
100
AcDbLine
 10
107.7447491062
 20
86.1695342117
 30
0.0
 11
107.7447491062
 21
49.2902402186
 31
0.0
  0
SPLINE
  5
28B
330
1F
100
AcDbEntity
  8
0
  6
Continuous
 62
     7
370
    15
100
AcDbSpline
210
0.0
220
0.0
230
1.0
 70
     8
 71
     3
 72
    12
 73
     8
 74
     0
 42
0.00000001
 43
0.00000001
 40
0.0
 40
0.0
 40
0.0
 40
0.0
 40
0.2597267248080723
 40
0.5171437037106584
 40
0.7152402807548516
 40
0.9135211473293307
 40
1.0
 40
1.0
 40
1.0
 40
1.0
 10
107.8811117743118
 20
86.09488535460784
 30
0.0
 10
107.8638397547161
 20
86.10429722695878
 30
0.0
 10
107.8294493153382
 20
86.12303727201969
 30
0.0
 10
107.7873052739595
 20
86.14715342774763
 30
0.0
 10
107.7583032088008
 20
86.1614774651537
 30
0.0
 10
107.7462596626382
 20
86.16743056118526
 30
0.0
 10
107.7451009855393
 20
86.16904417297637
 30
0.0
 10
107.744749106185
 20
86.16953421172455
 30
0.0
  0
LINE
  5
28C
330
1F
100
AcDbEntity
  8
0
  6
Continuous
 62
     7
370
    15
100
AcDbLine
 10
107.7447491062
 20
86.1695342117
 30
0.0
 11
107.804746024
 21
86.1695342117
 31
0.0
  0
SPLINE
  5
28D
330
1F
100
AcDbEntity
  8
0
  6
Continuous
 62
     7
370
    15
100
AcDbSpline
210
0.0
220
0.0
230
1.0
 70
     8
 71
     3
 72
    12
 73
     8
 74
     0
 42
0.00000001
 43
0.00000001
 40
0.0
 40
0.0
 40
0.0
 40
0.0
 40
0.3431199093441192
 40
0.5698378355426907
 40
0.7476116261068019
 40
0.9260525841809505
 40
1.0
 40
1.0
 40
1.0
 40
1.0
 10
107.8805030618771
 20
86.09488535460784
 30
0.0
 10
107.8688400340492
 20
86.10632337203715
 30
0.0
 10
107.8494706114295
 20
86.12531910768905
 30
0.0
 10
107.8269211180178
 20
86.14851676612973
 30
0.0
 10
107.8121074832993
 20
86.16161047131429
 30
0.0
 10
107.805552042053
 20
86.16746943886675
 30
0.0
 10
107.8049286670361
 20
86.16906633592941
 30
0.0
 10
107.8047460240288
 20
86.16953421172455
 30
0.0
  0
SPLINE
  5
28E
330
1F
100
AcDbEntity
  8
0
  6
Continuous
 62
     7
370
    15
100
AcDbSpline
210
0.0
220
0.0
230
1.0
 70
     8
 71
     3
 72
    12
 73
     8
 74
     0
 42
0.00000001
 43
0.00000001
 40
0.0
 40
0.0
 40
0.0
 40
0.0
 40
0.1927083329378251
 40
0.3855182373241299
 40
0.5805885353143121
 40
0.7882116819975219
 40
1.0
 40
1.0
 40
1.0
 40
1.0
 10
127.2833893370791
 20
49.2298864179547
 30
0.0
 10
127.2822209100152
 20
49.23126405093304
 30
0.0
 10
127.2798834400404
 20
49.2340200430035
 30
0.0
 10
127.2702861584238
 20
49.255178254951
 30
0.0
 10
127.2539365213235
 20
49.28542533831046
 30
0.0
 10
127.233026727888
 20
49.32300840333861
 30
0.0
 10
127.2178041990641
 20
49.35083499791143
 30
0.0
 10
127.2101173472567
 20
49.3648864680226
 30
0.0
  0
LINE
  5
28F
330
1F
100
AcDbEntity
  8
0
  6
Continuous
 62
     7
370
    15
100
AcDbLine
 10
107.8050995541
 20
49.229886418
 30
0.0
 11
107.9358590131
 21
49.229886418
 31
0.0
  0
LINE
  5
290
330
1F
100
AcDbEntity
  8
0
  6
Continuous
 62
     7
370
    15
100
AcDbLine
 10
108.5858589333
 20
49.229886418
 30
0.0
 11
123.2335979414
 21
49.229886418
 31
0.0
  0
LINE
  5
291
330
1F
100
AcDbEntity
  8
0
  6
Continuous
 62
     7
370
    15
100
AcDbLine
 10
123.9972004962
 20
49.229886418
 30
0.0
 11
125.8721033406
 21
49.229886418
 31
0.0
  0
LINE
  5
292
330
1F
100
AcDbEntity
  8
0
  6
Continuous
 62
     7
370
    15
100
AcDbLine
 10
126.6345644665
 20
49.229886418
 30
0.0
 11
127.2833893371
 21
49.229886418
 31
0.0
  0
SPLINE
  5
293
330
1F
100
AcDbEntity
  8
0
  6
Continuous
 62
     7
370
    15
100
AcDbSpline
210
0.0
220
0.0
230
1.0
 70
     8
 71
     3
 72
    12
 73
     8
 74
     0
 42
0.00000001
 43
0.00000001
 40
0.0
 40
0.0
 40
0.0
 40
0.0
 40
0.2614620527771749
 40
0.5198350955819653
 40
0.7502620195539615
 40
0.9483966324289242
 40
1.0
 40
1.0
 40
1.0
 40
1.0
 10
107.8811117743118
 20
49.3648864680226
 30
0.0
 10
107.8715123677934
 20
49.34760360340479
 30
0.0
 10
107.8524269657166
 20
49.31324206036213
 30
0.0
 10
107.8271012220446
 20
49.26923442363133
 30
0.0
 10
107.8136482252152
 20
49.23981705888796
 30
0.0
 10
107.8078262014708
 20
49.23049242714738
 30
0.0
 10
107.8055664803349
 20
49.22999019433762
 30
0.0
 10
107.8050995540782
 20
49.2298864179547
 30
0.0
  0
LINE
  5
294
330
1F
100
AcDbEntity
  8
0
  6
Continuous
 62
     7
370
    15
100
AcDbLine
 10
107.8050995541
 20
49.229886418
 30
0.0
 11
107.8050995541
 21
49.2898866886
 31
0.0
  0
SPLINE
  5
295
330
1F
100
AcDbEntity
  8
0
  6
Continuous
 62
     7
370
    15
100
AcDbSpline
210
0.0
220
0.0
230
1.0
 70
     8
 71
     3
 72
    11
 73
     7
 74
     0
 42
0.00000001
 43
0.00000001
 40
0.0
 40
0.0
 40
0.0
 40
0.0
 40
0.3130993273731753
 40
0.5955543467178341
 40
0.8780896767577988
 40
1.0
 40
1.0
 40
1.0
 40
1.0
 10
107.8446377363964
 20
49.32911213275744
 30
0.0
 10
107.8383888618189
 20
49.32298899260058
 30
0.0
 10
107.8265027155027
 20
49.31134200898493
 30
0.0
 10
107.814646541148
 20
49.29704923527153
 30
0.0
 10
107.8084322955185
 20
49.29056681182546
 30
0.0
 10
107.8058714567532
 20
49.29004421322154
 30
0.0
 10
107.8050995540782
 20
49.28988668855979
 30
0.0
  0
SPLINE
  5
296
330
1F
100
AcDbEntity
  8
0
  6
Continuous
 62
     7
370
    15
100
AcDbSpline
210
0.0
220
0.0
230
1.0
 70
     8
 71
     3
 72
    13
 73
     9
 74
     0
 42
0.00000001
 43
0.00000001
 40
0.0
 40
0.0
 40
0.0
 40
0.0
 40
0.1330980541652557
 40
0.2604575261048206
 40
0.3828207863305469
 40
0.5010465344615769
 40
0.7066999494027021
 40
1.0
 40
1.0
 40
1.0
 40
1.0
 10
107.8050995540782
 20
86.22988689479186
 30
0.0
 10
107.8060159494445
 20
86.22923747832913
 30
0.0
 10
107.8078092293804
 20
86.22796664528536
 30
0.0
 10
107.8130611447672
 20
86.21831096353228
 30
0.0
 10
107.8201228247264
 20
86.2045653929521
 30
0.0
 10
107.8315788412402
 20
86.1832225254372
 30
0.0
 10
107.8522226828107
 20
86.14773250444944
 30
0.0
 10
107.8704167482546
 20
86.11444988970523
 30
0.0
 10
107.8811117743118
 20
86.09488535460784
 30
0.0
  0
SPLINE
  5
297
330
1F
100
AcDbEntity
  8
0
  6
Continuous
 62
     7
370
    15
100
AcDbSpline
210
0.0
220
0.0
230
1.0
 70
     8
 71
     3
 72
    13
 73
     9
 74
     0
 42
0.00000001
 43
0.00000001
 40
0.0
 40
0.0
 40
0.0
 40
0.0
 40
0.1188931900026352
 40
0.2350770325011618
 40
0.3505028017939639
 40
0.4671835603881872
 40
0.6821915046915188
 40
1.0
 40
1.0
 40
1.0
 40
1.0
 10
107.8050995540782
 20
86.16988587912871
 30
0.0
 10
107.8059771706354
 20
86.16951844009871
 30
0.0
 10
107.8077124045537
 20
86.16879193526864
 30
0.0
 10
107.8129037552359
 20
86.16334630579311
 30
0.0
 10
107.8199415220121
 20
86.15562457397257
 30
0.0
 10
107.8315419733693
 20
86.1435289161805
 30
0.0
 10
107.8520967706547
 20
86.1238066855312
 30
0.0
 10
107.8698899699019
 20
86.10569087450945
 30
0.0
 10
107.8805030618771
 20
86.09488535460784
 30
0.0
  0
LINE
  5
298
330
1F
100
AcDbEntity
  8
0
  6
Continuous
 62
     7
370
    15
100
AcDbLine
 10
107.8050995541
 20
86.2298868948
 30
0.0
 11
107.8050995541
 21
86.1698858791
 31
0.0
  0
LINE
  5
299
330
1F
100
AcDbEntity
  8
0
  6
Continuous
 62
     7
370
    15
100
AcDbLine
 10
127.2833893371
 20
86.2298868948
 30
0.0
 11
108.5854418871
 21
86.2298868948
 31
0.0
  0
LINE
  5
29A
330
1F
100
AcDbEntity
  8
0
  6
Continuous
 62
     7
370
    15
100
AcDbLine
 10
107.9363102389
 20
86.2298868948
 30
0.0
 11
107.8050995541
 21
86.2298868948
 31
0.0
  0
SPLINE
  5
29B
330
1F
100
AcDbEntity
  8
0
  6
Continuous
 62
     7
370
    15
100
AcDbSpline
210
0.0
220
0.0
230
1.0
 70
     8
 71
     3
 72
    12
 73
     8
 74
     0
 42
0.00000001
 43
0.00000001
 40
0.0
 40
0.0
 40
0.0
 40
0.0
 40
0.2899982027840652
 40
0.5021473312196284
 40
0.7236705297875622
 40
0.8548817854116336
 40
1.0
 40
1.0
 40
1.0
 40
1.0
 10
127.2101173472567
 20
86.09488535460784
 30
0.0
 10
127.2207436740084
 20
86.11411706945682
 30
0.0
 10
127.2391437246562
 20
86.14741780785273
 30
0.0
 10
127.2625857054129
 20
86.18926307912818
 30
0.0
 10
127.2737130877128
 20
86.2144481592424
 30
0.0
 10
127.2799832567553
 20
86.22765736365112
 30
0.0
 10
127.2822165122822
 20
86.2291191943389
 30
0.0
 10
127.2833893370791
 20
86.22988689479186
 30
0.0
  0
SPLINE
  5
29C
330
1F
100
AcDbEntity
  8
0
  6
Continuous
 62
     7
370
    15
100
AcDbSpline
210
0.0
220
0.0
230
1.0
 70
     8
 71
     3
 72
    12
 73
     8
 74
     0
 42
0.00000001
 43
0.00000001
 40
0.0
 40
0.0
 40
0.0
 40
0.0
 40
0.160897380312258
 40
0.3216039670746351
 40
0.4895587121509374
 40
0.76855916655621
 40
0.9999999999999999
 40
0.9999999999999999
 40
0.9999999999999999
 40
0.9999999999999999
 10
127.2833893370791
 20
49.28988668855979
 30
0.0
 10
127.2822549685085
 20
49.2905671956363
 30
0.0
 10
127.2799875765118
 20
49.29192740283794
 30
0.0
 10
127.2715044252338
 20
49.30199298457745
 30
0.0
 10
127.2560491973985
 20
49.31837998885725
 30
0.0
 10
127.2341544904903
 20
49.33981568663188
 30
0.0
 10
127.2171967525225
 20
49.35706527598465
 30
0.0
 10
127.2095078897639
 20
49.3648864680226
 30
0.0
  0
SPLINE
  5
29D
330
1F
100
AcDbEntity
  8
0
  6
Continuous
 62
     7
370
    15
100
AcDbSpline
210
0.0
220
0.0
230
1.0
 70
     8
 71
     3
 72
    12
 73
     8
 74
     0
 42
0.00000001
 43
0.00000001
 40
0.0
 40
0.0
 40
0.0
 40
0.0
 40
0.3154695852509476
 40
0.5366153077088796
 40
0.7490058299757698
 40
0.8692243293188276
 40
1.0
 40
1.0
 40
1.0
 40
1.0
 10
127.2095078897639
 20
86.09488535460784
 30
0.0
 10
127.2200565374989
 20
86.10549332871959
 30
0.0
 10
127.2379998388975
 20
86.12353754457519
 30
0.0
 10
127.2613345194257
 20
86.14645677707958
 30
0.0
 10
127.2732515129404
 20
86.16109881754063
 30
0.0
 10
127.2798035271657
 20
86.16862334611591
 30
0.0
 10
127.2821610140259
 20
86.16945339708352
 30
0.0
 10
127.2833893370791
 20
86.16988587912871
 30
0.0
  0
LINE
  5
29E
330
1F
100
AcDbEntity
  8
0
  6
Continuous
 62
     7
370
    15
100
AcDbLine
 10
107.7447491062
 20
86.1695342117
 30
0.0
 11
107.7327781652
 21
86.1695342117
 31
0.0
  0
LINE
  5
29F
330
1F
100
AcDbEntity
  8
0
  6
Continuous
 62
     7
370
    15
100
AcDbLine
 10
107.7327781652
 20
86.1695342117
 30
0.0
 11
107.7327781652
 21
49.2902402186
 31
0.0
  0
LINE
  5
2A0
330
1F
100
AcDbEntity
  8
0
  6
Continuous
 62
     7
370
    15
100
AcDbLine
 10
107.7447491062
 20
49.2902402186
 30
0.0
 11
107.7327781652
 21
49.2902402186
 31
0.0
  0
LINE
  5
2A1
330
1F
100
AcDbEntity
  8
0
  6
Continuous
 62
     7
370
    15
100
AcDbLine
 10
107.7931286131
 20
49.229886418
 30
0.0
 11
107.7931286131
 21
49.2898866886
 31
0.0
  0
LINE
  5
2A2
330
1F
100
AcDbEntity
  8
0
  6
Continuous
 62
     7
370
    15
100
AcDbLine
 10
107.8050995541
 20
49.229886418
 30
0.0
 11
107.7931286131
 21
49.229886418
 31
0.0
  0
LINE
  5
2A3
330
1F
100
AcDbEntity
  8
0
  6
Continuous
 62
     7
370
    15
100
AcDbLine
 10
107.7931286131
 20
86.2298868948
 30
0.0
 11
107.7931286131
 21
86.1698858791
 31
0.0
  0
LINE
  5
2A4
330
1F
100
AcDbEntity
  8
0
  6
Continuous
 62
     7
370
    15
100
AcDbLine
 10
107.8050995541
 20
86.2298868948
 30
0.0
 11
107.7931286131
 21
86.2298868948
 31
0.0
  0
LINE
  5
2A5
330
1F
100
AcDbEntity
  8
0
  6
Continuous
 62
     7
370
    15
100
AcDbLine
 10
127.2833893371
 20
49.229886418
 30
0.0
 11
127.2833893371
 21
49.2898866886
 31
0.0
  0
SPLINE
  5
2A6
330
1F
100
AcDbEntity
  8
0
  6
Continuous
 62
     7
370
    15
100
AcDbSpline
210
0.0
220
0.0
230
1.0
 70
     8
 71
     3
 72
    12
 73
     8
 74
     0
 42
0.00000001
 43
0.00000001
 40
0.0
 40
0.0
 40
0.0
 40
0.0
 40
0.1927114095058779
 40
0.3855146626207565
 40
0.5805916105329633
 40
0.7882075008186493
 40
1.0
 40
1.0
 40
1.0
 40
1.0
 10
127.3437405300303
 20
86.16953421172455
 30
0.0
 10
127.3425105208632
 20
86.16821701729957
 30
0.0
 10
127.3400499163234
 20
86.16558200069286
 30
0.0
 10
127.3192836234153
 20
86.1555952253351
 30
0.0
 10
127.2893378855536
 20
86.1389452484857
 30
0.0
 10
127.2519535649824
 20
86.11783658116684
 30
0.0
 10
127.2241550288693
 20
86.1025863856419
 30
0.0
 10
127.2101173472567
 20
86.09488535460785
 30
0.0
  0
LINE
  5
2A7
330
1F
100
AcDbEntity
  8
0
  6
Continuous
 62
     7
370
    15
100
AcDbLine
 10
127.34374053
 20
49.2902402186
 30
0.0
 11
127.34374053
 21
86.1695342117
 31
0.0
  0
SPLINE
  5
2A8
330
1F
100
AcDbEntity
  8
0
  6
Continuous
 62
     7
370
    15
100
AcDbSpline
210
0.0
220
0.0
230
1.0
 70
     8
 71
     3
 72
    12
 73
     8
 74
     0
 42
0.00000001
 43
0.00000001
 40
0.0
 40
0.0
 40
0.0
 40
0.0
 40
0.2899902745367556
 40
0.5021468161880911
 40
0.7236627245676658
 40
0.8548761033011647
 40
1.0
 40
1.0
 40
1.0
 40
1.0
 10
127.2101173472567
 20
49.3648864680226
 30
0.0
 10
127.2293233977237
 20
49.35423579525085
 30
0.0
 10
127.2625805719822
 20
49.3357931028842
 30
0.0
 10
127.3041348337007
 20
49.31206157142839
 30
0.0
 10
127.3289774209189
 20
49.30059245109468
 30
0.0
 10
127.3418342711586
 20
49.29396871785007
 30
0.0
 10
127.3430841380923
 20
49.29152407196137
 30
0.0
 10
127.3437405300303
 20
49.29024021860911
 30
0.0
  0
LINE
  5
2A9
330
1F
100
AcDbEntity
  8
0
  6
Continuous
 62
     7
370
    15
100
AcDbLine
 10
127.2101173473
 20
86.0948853546
 30
0.0
 11
127.2095078898
 21
86.0948853546
 31
0.0
  0
SPLINE
  5
2AA
330
1F
100
AcDbEntity
  8
0
  6
Continuous
 62
     7
370
    15
100
AcDbSpline
210
0.0
220
0.0
230
1.0
 70
     8
 71
     3
 72
    12
 73
     8
 74
     0
 42
0.00000001
 43
0.00000001
 40
0.0
 40
0.0
 40
0.0
 40
0.0
 40
0.1609031457765811
 40
0.3216027460014657
 40
0.4895668128264312
 40
0.7685514726445279
 40
1.0
 40
1.0
 40
1.0
 40
1.0
 10
127.2837439847155
 20
86.16953421172455
 30
0.0
 10
127.2831405095615
 20
86.16832170179111
 30
0.0
 10
127.2819343226611
 20
86.16589821577247
 30
0.0
 10
127.2720688711727
 20
86.15721681493758
 30
0.0
 10
127.2558689098082
 20
86.14157403756512
 30
0.0
 10
127.2345532530291
 20
86.11955801352089
 30
0.0
 10
127.2173214162753
 20
86.10258260668932
 30
0.0
 10
127.2095078897639
 20
86.09488535460785
 30
0.0
  0
LINE
  5
2AB
330
1F
100
AcDbEntity
  8
0
  6
Continuous
 62
     7
370
    15
100
AcDbLine
 10
127.34374053
 20
86.1695342117
 30
0.0
 11
127.2837439847
 21
86.1695342117
 31
0.0
  0
LINE
  5
2AC
330
1F
100
AcDbEntity
  8
0
  6
Continuous
 62
     7
370
    15
100
AcDbLine
 10
127.34374053
 20
49.2902402186
 30
0.0
 11
127.2837439847
 21
49.2902402186
 31
0.0
  0
SPLINE
  5
2AD
330
1F
100
AcDbEntity
  8
0
  6
Continuous
 62
     7
370
    15
100
AcDbSpline
210
0.0
220
0.0
230
1.0
 70
     8
 71
     3
 72
    12
 73
     8
 74
     0
 42
0.00000001
 43
0.00000001
 40
0.0
 40
0.0
 40
0.0
 40
0.0
 40
0.3154663220875605
 40
0.5366027599378927
 40
0.7490024714130166
 40
0.8692158737621715
 40
1.0
 40
1.0
 40
1.0
 40
1.0
 10
127.2095078897639
 20
49.3648864680226
 30
0.0
 10
127.2201023131265
 20
49.35432452193563
 30
0.0
 10
127.2381232441049
 20
49.33635883424168
 30
0.0
 10
127.2608857825066
 20
49.31286768696361
 30
0.0
 10
127.275334769753
 20
49.3007589772171
 30
0.0
 10
127.2826614053882
 20
49.29400653076593
 30
0.0
 10
127.2833731334983
 20
49.29153041639191
 30
0.0
 10
127.2837439847155
 20
49.29024021860911
 30
0.0
  0
LINE
  5
2AE
330
1F
100
AcDbEntity
  8
0
  6
Continuous
 62
     7
370
    15
100
AcDbLine
 10
127.2833893371
 20
86.2298868948
 30
0.0
 11
127.2833893371
 21
86.1698858791
 31
0.0
  0
LINE
  5
2AF
330
1F
100
AcDbEntity
  8
0
  6
Continuous
 62
     7
370
    15
100
AcDbLine
 10
107.8108760823
 20
86.9976036602
 30
0.0
 11
107.8108760823
 21
87.297602778
 31
0.0
  0
LINE
  5
2B0
330
1F
100
AcDbEntity
  8
0
  6
Continuous
 62
     7
370
    15
100
AcDbLine
 10
107.8108760823
 20
87.297602778
 30
0.0
 11
108.2750605714
 21
87.297602778
 31
0.0
  0
LINE
  5
2B1
330
1F
100
AcDbEntity
  8
0
  6
Continuous
 62
     7
370
    15
100
AcDbLine
 10
107.8108760823
 20
86.9976036602
 30
0.0
 11
108.2750605714
 21
86.9976036602
 31
0.0
  0
LINE
  5
2B2
330
1F
100
AcDbEntity
  8
0
  6
Continuous
 62
     7
370
    15
100
AcDbLine
 10
108.2750605714
 20
87.297602778
 30
0.0
 11
111.5736225915
 21
87.297602778
 31
0.0
  0
LINE
  5
2B3
330
1F
100
AcDbEntity
  8
0
  6
Continuous
 62
     7
370
    15
100
AcDbLine
 10
108.2750605714
 20
86.9976036602
 30
0.0
 11
111.5736225915
 21
86.9976036602
 31
0.0
  0
LINE
  5
2B4
330
1F
100
AcDbEntity
  8
0
  6
Continuous
 62
     7
370
    15
100
AcDbLine
 10
111.8094383103
 20
86.9976036602
 30
0.0
 11
111.8094383103
 21
87.297602778
 31
0.0
  0
LINE
  5
2B5
330
1F
100
AcDbEntity
  8
0
  6
Continuous
 62
     7
370
    15
100
AcDbLine
 10
111.5736225915
 20
87.297602778
 30
0.0
 11
111.8094383103
 21
87.297602778
 31
0.0
  0
LINE
  5
2B6
330
1F
100
AcDbEntity
  8
0
  6
Continuous
 62
     7
370
    15
100
AcDbLine
 10
111.5736225915
 20
86.9976036602
 30
0.0
 11
111.8094383103
 21
86.9976036602
 31
0.0
  0
LINE
  5
2B7
330
1F
100
AcDbEntity
  8
0
  6
Continuous
 62
     7
370
    15
100
AcDbLine
 10
87.7608547282
 20
86.9976036602
 30
0.0
 11
87.7608547282
 21
87.297602778
 31
0.0
  0
LINE
  5
2B8
330
1F
100
AcDbEntity
  8
0
  6
Continuous
 62
     7
370
    15
100
AcDbLine
 10
87.7608547282
 20
86.9976036602
 30
0.0
 11
88.2250393105
 21
86.9976036602
 31
0.0
  0
LINE
  5
2B9
330
1F
100
AcDbEntity
  8
0
  6
Continuous
 62
     7
370
    15
100
AcDbLine
 10
87.7608547282
 20
87.297602778
 30
0.0
 11
88.2250393105
 21
87.297602778
 31
0.0
  0
LINE
  5
2BA
330
1F
100
AcDbEntity
  8
0
  6
Continuous
 62
     7
370
    15
100
AcDbLine
 10
88.2250393105
 20
86.9976036602
 30
0.0
 11
91.5236020756
 21
86.9976036602
 31
0.0
  0
LINE
  5
2BB
330
1F
100
AcDbEntity
  8
0
  6
Continuous
 62
     7
370
    15
100
AcDbLine
 10
88.2250393105
 20
87.297602778
 30
0.0
 11
91.5236020756
 21
87.297602778
 31
0.0
  0
LINE
  5
2BC
330
1F
100
AcDbEntity
  8
0
  6
Continuous
 62
     7
370
    15
100
AcDbLine
 10
91.7594174218
 20
86.9976036602
 30
0.0
 11
91.7594174218
 21
87.297602778
 31
0.0
  0
LINE
  5
2BD
330
1F
100
AcDbEntity
  8
0
  6
Continuous
 62
     7
370
    15
100
AcDbLine
 10
91.5236020756
 20
86.9976036602
 30
0.0
 11
91.7594174218
 21
86.9976036602
 31
0.0
  0
LINE
  5
2BE
330
1F
100
AcDbEntity
  8
0
  6
Continuous
 62
     7
370
    15
100
AcDbLine
 10
91.5236020756
 20
87.297602778
 30
0.0
 11
91.7594174218
 21
87.297602778
 31
0.0
  0
LINE
  5
2BF
330
1F
100
AcDbEntity
  8
0
  6
Continuous
 62
     7
370
    15
100
AcDbLine
 10
108.2608590198
 20
49.5626036429
 30
0.0
 11
108.453124046
 21
49.5626036429
 31
0.0
  0
LINE
  5
2C0
330
1F
100
AcDbEntity
  8
0
  6
Continuous
 62
     7
370
    15
100
AcDbLine
 10
108.0685939935
 20
49.5626036429
 30
0.0
 11
108.2608590198
 21
49.5626036429
 31
0.0
  0
LINE
  5
2C1
330
1F
100
AcDbEntity
  8
0
  6
Continuous
 62
     7
370
    15
100
AcDbLine
 10
108.2608590198
 20
49.4626038128
 30
0.0
 11
108.0108590719
 21
49.4626038128
 31
0.0
  0
LINE
  5
2C2
330
1F
100
AcDbEntity
  8
0
  6
Continuous
 62
     7
370
    15
100
AcDbLine
 10
108.5108589676
 20
49.4626038128
 30
0.0
 11
108.2608590198
 21
49.4626038128
 31
0.0
  0
LINE
  5
2C3
330
1F
100
AcDbEntity
  8
0
  6
Continuous
 62
     7
370
    15
100
AcDbLine
 10
87.9608551335
 20
86.0976033264
 30
0.0
 11
88.4608546567
 21
86.0976033264
 31
0.0
  0
LINE
  5
2C4
330
1F
100
AcDbEntity
  8
0
  6
Continuous
 62
     7
370
    15
100
AcDbLine
 10
88.4031201077
 20
85.9976046139
 30
0.0
 11
88.0185896826
 21
85.9976046139
 31
0.0
  0
LINE
  5
2C5
330
1F
100
AcDbEntity
  8
0
  6
Continuous
 62
     7
370
    15
100
AcDbLine
 10
108.0108762083
 20
86.0976033264
 30
0.0
 11
108.510876104
 21
86.0976033264
 31
0.0
  0
LINE
  5
2C6
330
1F
100
AcDbEntity
  8
0
  6
Continuous
 62
     7
370
    15
100
AcDbLine
 10
108.4531409961
 20
85.9976046139
 30
0.0
 11
108.0686111298
 21
85.9976046139
 31
0.0
  0
LINE
  5
2C7
330
1F
100
AcDbEntity
  8
0
  6
Continuous
 62
     7
370
    15
100
AcDbLine
 10
88.2108593655
 20
49.4626038128
 30
0.0
 11
87.9608596039
 21
49.4626038128
 31
0.0
  0
LINE
  5
2C8
330
1F
100
AcDbEntity
  8
0
  6
Continuous
 62
     7
370
    15
100
AcDbLine
 10
88.4608591271
 20
49.4626038128
 30
0.0
 11
88.2108593655
 21
49.4626038128
 31
0.0
  0
LINE
  5
2C9
330
1F
100
AcDbEntity
  8
0
  6
Continuous
 62
     7
370
    15
100
AcDbLine
 10
88.2108593655
 20
49.5626036429
 30
0.0
 11
88.403124578
 21
49.5626036429
 31
0.0
  0
LINE
  5
2CA
330
1F
100
AcDbEntity
  8
0
  6
Continuous
 62
     7
370
    15
100
AcDbLine
 10
88.0185941529
 20
49.5626036429
 30
0.0
 11
88.2108593655
 21
49.5626036429
 31
0.0
  0
LINE
  5
2CB
330
1F
100
AcDbEntity
  8
0
  6
Continuous
 62
     7
370
    15
100
AcDbLine
 10
107.810858946
 20
48.5626036653
 30
0.0
 11
107.810858946
 21
48.2626036161
 31
0.0
  0
LINE
  5
2CC
330
1F
100
AcDbEntity
  8
0
  6
Continuous
 62
     7
370
    15
100
AcDbLine
 10
108.275006741
 20
48.5626036653
 30
0.0
 11
107.810858946
 21
48.5626036653
 31
0.0
  0
LINE
  5
2CD
330
1F
100
AcDbEntity
  8
0
  6
Continuous
 62
     7
370
    15
100
AcDbLine
 10
108.275006741
 20
48.2626036161
 30
0.0
 11
107.810858946
 21
48.2626036161
 31
0.0
  0
LINE
  5
2CE
330
1F
100
AcDbEntity
  8
0
  6
Continuous
 62
     7
370
    15
100
AcDbLine
 10
111.5750065369
 20
48.5626036653
 30
0.0
 11
108.4383756218
 21
48.5626036653
 31
0.0
  0
LINE
  5
2CF
330
1F
100
AcDbEntity
  8
0
  6
Continuous
 62
     7
370
    15
100
AcDbLine
 10
108.3760770333
 20
48.5626036653
 30
0.0
 11
108.275006741
 21
48.5626036653
 31
0.0
  0
LINE
  5
2D0
330
1F
100
AcDbEntity
  8
0
  6
Continuous
 62
     7
370
    15
100
AcDbLine
 10
111.5750065369
 20
48.2626036161
 30
0.0
 11
108.275006741
 21
48.2626036161
 31
0.0
  0
LINE
  5
2D1
330
1F
100
AcDbEntity
  8
0
  6
Continuous
 62
     7
370
    15
100
AcDbLine
 10
111.810859136
 20
48.5626036653
 30
0.0
 11
111.810859136
 21
48.2626036161
 31
0.0
  0
LINE
  5
2D2
330
1F
100
AcDbEntity
  8
0
  6
Continuous
 62
     7
370
    15
100
AcDbLine
 10
111.810859136
 20
48.5626036653
 30
0.0
 11
111.5750065369
 21
48.5626036653
 31
0.0
  0
LINE
  5
2D3
330
1F
100
AcDbEntity
  8
0
  6
Continuous
 62
     7
370
    15
100
AcDbLine
 10
111.7916023654
 20
48.2626036161
 30
0.0
 11
111.5750065369
 21
48.2626036161
 31
0.0
  0
LINE
  5
2D4
330
1F
100
AcDbEntity
  8
0
  6
Continuous
 62
     7
370
    15
100
AcDbLine
 10
87.7608591986
 20
48.5626036653
 30
0.0
 11
87.7608591986
 21
48.2626036161
 31
0.0
  0
LINE
  5
2D5
330
1F
100
AcDbEntity
  8
0
  6
Continuous
 62
     7
370
    15
100
AcDbLine
 10
88.2250065279
 20
48.2626036161
 30
0.0
 11
87.7608591986
 21
48.2626036161
 31
0.0
  0
LINE
  5
2D6
330
1F
100
AcDbEntity
  8
0
  6
Continuous
 62
     7
370
    15
100
AcDbLine
 10
88.2250065279
 20
48.5626036653
 30
0.0
 11
87.7608591986
 21
48.5626036653
 31
0.0
  0
LINE
  5
2D7
330
1F
100
AcDbEntity
  8
0
  6
Continuous
 62
     7
370
    15
100
AcDbLine
 10
91.5250072551
 20
48.2626036161
 30
0.0
 11
88.2250065279
 21
48.2626036161
 31
0.0
  0
LINE
  5
2D8
330
1F
100
AcDbEntity
  8
0
  6
Continuous
 62
     7
370
    15
100
AcDbLine
 10
91.5250072551
 20
48.5626036653
 30
0.0
 11
88.3883754087
 21
48.5626036653
 31
0.0
  0
LINE
  5
2D9
330
1F
100
AcDbEntity
  8
0
  6
Continuous
 62
     7
370
    15
100
AcDbLine
 10
88.3260766339
 20
48.5626036653
 30
0.0
 11
88.2250065279
 21
48.5626036653
 31
0.0
  0
LINE
  5
2DA
330
1F
100
AcDbEntity
  8
0
  6
Continuous
 62
     7
370
    15
100
AcDbLine
 10
91.7608583641
 20
48.5626036653
 30
0.0
 11
91.7608583641
 21
48.2626036161
 31
0.0
  0
LINE
  5
2DB
330
1F
100
AcDbEntity
  8
0
  6
Continuous
 62
     7
370
    15
100
AcDbLine
 10
91.7197952342
 20
48.2626036161
 30
0.0
 11
91.5250072551
 21
48.2626036161
 31
0.0
  0
LINE
  5
2DC
330
1F
100
AcDbEntity
  8
0
  6
Continuous
 62
     7
370
    15
100
AcDbLine
 10
91.7608583641
 20
48.5626036653
 30
0.0
 11
91.5250072551
 21
48.5626036653
 31
0.0
  0
LINE
  5
2DD
330
1F
100
AcDbEntity
  8
0
  6
Continuous
 62
     7
370
    15
100
AcDbLine
 10
108.6858760861
 20
86.6803221756
 30
0.0
 11
107.835876133
 21
86.6803221756
 31
0.0
  0
LINE
  5
2DE
330
1F
100
AcDbEntity
  8
0
  6
Continuous
 62
     7
370
    15
100
AcDbLine
 10
108.6608760354
 20
86.7053203636
 30
0.0
 11
107.8608760905
 21
86.7053203636
 31
0.0
  0
LINE
  5
2DF
330
1F
100
AcDbEntity
  8
0
  6
Continuous
 62
     7
370
    15
100
AcDbLine
 10
108.6858760861
 20
86.6053216511
 30
0.0
 11
107.835876133
 21
86.6053216511
 31
0.0
  0
LINE
  5
2E0
330
1F
100
AcDbEntity
  8
0
  6
Continuous
 62
     7
370
    15
100
AcDbLine
 10
108.6608760354
 20
86.5803204828
 30
0.0
 11
107.8608760905
 21
86.5803204828
 31
0.0
  0
LINE
  5
2E1
330
1F
100
AcDbEntity
  8
0
  6
Continuous
 62
     7
370
    15
100
AcDbLine
 10
108.5608762053
 20
86.2053208404
 30
0.0
 11
107.9608761069
 21
86.2053208404
 31
0.0
  0
LINE
  5
2E2
330
1F
100
AcDbEntity
  8
0
  6
Continuous
 62
     7
370
    15
100
AcDbLine
 10
108.5858760697
 20
86.2303220087
 30
0.0
 11
107.9358761494
 21
86.2303220087
 31
0.0
  0
LINE
  5
2E3
330
1F
100
AcDbEntity
  8
0
  6
Continuous
 62
     7
370
    15
100
AcDbLine
 10
88.6108542156
 20
86.5803204828
 30
0.0
 11
87.8108540845
 21
86.5803204828
 31
0.0
  0
LINE
  5
2E4
330
1F
100
AcDbEntity
  8
0
  6
Continuous
 62
     7
370
    15
100
AcDbLine
 10
88.6358553839
 20
86.6053216511
 30
0.0
 11
87.7858544064
 21
86.6053216511
 31
0.0
  0
LINE
  5
2E5
330
1F
100
AcDbEntity
  8
0
  6
Continuous
 62
     7
370
    15
100
AcDbLine
 10
88.6358553839
 20
86.6803221756
 30
0.0
 11
87.7858544064
 21
86.6803221756
 31
0.0
  0
LINE
  5
2E6
330
1F
100
AcDbEntity
  8
0
  6
Continuous
 62
     7
370
    15
100
AcDbLine
 10
88.6108542156
 20
86.7053203636
 30
0.0
 11
87.8108540845
 21
86.7053203636
 31
0.0
  0
LINE
  5
2E7
330
1F
100
AcDbEntity
  8
0
  6
Continuous
 62
     7
370
    15
100
AcDbLine
 10
88.5358551812
 20
86.2303220087
 30
0.0
 11
87.885854609
 21
86.2303220087
 31
0.0
  0
LINE
  5
2E8
330
1F
100
AcDbEntity
  8
0
  6
Continuous
 62
     7
370
    15
100
AcDbLine
 10
88.5108555031
 20
86.2053208404
 30
0.0
 11
87.9108542872
 21
86.2053208404
 31
0.0
  0
LINE
  5
2E9
330
1F
100
AcDbEntity
  8
0
  6
Continuous
 62
     7
370
    15
100
AcDbLine
 10
87.9784072113
 20
48.8048866743
 30
0.0
 11
88.6358583641
 21
48.8048866743
 31
0.0
  0
LINE
  5
2EA
330
1F
100
AcDbEntity
  8
0
  6
Continuous
 62
     7
370
    15
100
AcDbLine
 10
87.7858588767
 20
48.8048866743
 30
0.0
 11
87.9784072113
 21
48.8048866743
 31
0.0
  0
LINE
  5
2EB
330
1F
100
AcDbEntity
  8
0
  6
Continuous
 62
     7
370
    15
100
AcDbLine
 10
87.9920820069
 20
48.7798866236
 30
0.0
 11
88.610858686
 21
48.7798866236
 31
0.0
  0
LINE
  5
2EC
330
1F
100
AcDbEntity
  8
0
  6
Continuous
 62
     7
370
    15
100
AcDbLine
 10
87.8108585549
 20
48.7798866236
 30
0.0
 11
87.9920820069
 21
48.7798866236
 31
0.0
  0
LINE
  5
2ED
330
1F
100
AcDbEntity
  8
0
  6
Continuous
 62
     7
370
    15
100
AcDbLine
 10
87.9784072113
 20
48.87988664
 30
0.0
 11
88.6358583641
 21
48.87988664
 31
0.0
  0
LINE
  5
2EE
330
1F
100
AcDbEntity
  8
0
  6
Continuous
 62
     7
370
    15
100
AcDbLine
 10
87.7858588767
 20
48.87988664
 30
0.0
 11
87.9784072113
 21
48.87988664
 31
0.0
  0
LINE
  5
2EF
330
1F
100
AcDbEntity
  8
0
  6
Continuous
 62
     7
370
    15
100
AcDbLine
 10
88.046775229
 20
49.2798865193
 30
0.0
 11
88.5108584833
 21
49.2798865193
 31
0.0
  0
LINE
  5
2F0
330
1F
100
AcDbEntity
  8
0
  6
Continuous
 62
     7
370
    15
100
AcDbLine
 10
87.9108587575
 20
49.2798865193
 30
0.0
 11
88.046775229
 21
49.2798865193
 31
0.0
  0
LINE
  5
2F1
330
1F
100
AcDbEntity
  8
0
  6
Continuous
 62
     7
370
    15
100
AcDbLine
 10
88.0331019235
 20
49.2548864686
 30
0.0
 11
88.5358596516
 21
49.2548864686
 31
0.0
  0
LINE
  5
2F2
330
1F
100
AcDbEntity
  8
0
  6
Continuous
 62
     7
370
    15
100
AcDbLine
 10
87.8858590794
 20
49.2548864686
 30
0.0
 11
88.0331019235
 21
49.2548864686
 31
0.0
  0
LINE
  5
2F3
330
1F
100
AcDbEntity
  8
0
  6
Continuous
 62
     7
370
    15
100
AcDbLine
 10
107.8358589967
 20
48.87988664
 30
0.0
 11
108.6858589497
 21
48.87988664
 31
0.0
  0
LINE
  5
2F4
330
1F
100
AcDbEntity
  8
0
  6
Continuous
 62
     7
370
    15
100
AcDbLine
 10
107.8358589967
 20
48.8048866743
 30
0.0
 11
108.6858589497
 21
48.8048866743
 31
0.0
  0
LINE
  5
2F5
330
1F
100
AcDbEntity
  8
0
  6
Continuous
 62
     7
370
    15
100
AcDbLine
 10
107.8608589542
 20
48.7798866236
 30
0.0
 11
108.6608588991
 21
48.7798866236
 31
0.0
  0
LINE
  5
2F6
330
1F
100
AcDbEntity
  8
0
  6
Continuous
 62
     7
370
    15
100
AcDbLine
 10
107.9358590131
 20
49.2548864686
 30
0.0
 11
108.5858589333
 21
49.2548864686
 31
0.0
  0
LINE
  5
2F7
330
1F
100
AcDbEntity
  8
0
  6
Continuous
 62
     7
370
    15
100
AcDbLine
 10
107.9608589706
 20
49.2798865193
 30
0.0
 11
108.5608590689
 21
49.2798865193
 31
0.0
  0
LINE
  5
2F8
330
1F
100
AcDbEntity
  8
0
  6
Continuous
 62
     7
370
    15
100
AcDbLine
 10
88.2108593655
 20
48.6626036817
 30
0.0
 11
88.6608595324
 21
48.6626036817
 31
0.0
  0
LINE
  5
2F9
330
1F
100
AcDbEntity
  8
0
  6
Continuous
 62
     7
370
    15
100
AcDbLine
 10
87.7608591986
 20
48.6626036817
 30
0.0
 11
88.2108593655
 21
48.6626036817
 31
0.0
  0
LINE
  5
2FA
330
1F
100
AcDbEntity
  8
0
  6
Continuous
 62
     7
370
    15
100
AcDbLine
 10
88.3260766339
 20
48.5626036653
 30
0.0
 11
88.3883754087
 21
48.5626036653
 31
0.0
  0
LINE
  5
2FB
330
1F
100
AcDbEntity
  8
0
  6
Continuous
 62
     7
370
    15
100
AcDbLine
 10
88.2108593655
 20
48.762603698
 30
0.0
 11
88.6608595324
 21
48.762603698
 31
0.0
  0
LINE
  5
2FC
330
1F
100
AcDbEntity
  8
0
  6
Continuous
 62
     7
370
    15
100
AcDbLine
 10
87.7608591986
 20
48.762603698
 30
0.0
 11
88.2108593655
 21
48.762603698
 31
0.0
  0
LINE
  5
2FD
330
1F
100
AcDbEntity
  8
0
  6
Continuous
 62
     7
370
    15
100
AcDbLine
 10
108.3760770333
 20
48.5626036653
 30
0.0
 11
108.4383756218
 21
48.5626036653
 31
0.0
  0
LINE
  5
2FE
330
1F
100
AcDbEntity
  8
0
  6
Continuous
 62
     7
370
    15
100
AcDbLine
 10
108.2608590198
 20
48.6626036817
 30
0.0
 11
108.7108590004
 21
48.6626036817
 31
0.0
  0
LINE
  5
2FF
330
1F
100
AcDbEntity
  8
0
  6
Continuous
 62
     7
370
    15
100
AcDbLine
 10
107.810858946
 20
48.6626036817
 30
0.0
 11
108.2608590198
 21
48.6626036817
 31
0.0
  0
LINE
  5
300
330
1F
100
AcDbEntity
  8
0
  6
Continuous
 62
     7
370
    15
100
AcDbLine
 10
108.2608590198
 20
48.762603698
 30
0.0
 11
108.7108590004
 21
48.762603698
 31
0.0
  0
LINE
  5
301
330
1F
100
AcDbEntity
  8
0
  6
Continuous
 62
     7
370
    15
100
AcDbLine
 10
107.810858946
 20
48.762603698
 30
0.0
 11
108.2608590198
 21
48.762603698
 31
0.0
  0
LINE
  5
302
330
1F
100
AcDbEntity
  8
0
  6
Continuous
 62
     7
370
    15
100
AcDbLine
 10
107.7327781652
 20
85.3226028734
 30
0.0
 11
107.3048102033
 21
85.3226028734
 31
0.0
  0
LINE
  5
303
330
1F
100
AcDbEntity
  8
0
  6
Continuous
 62
     7
370
    15
100
AcDbLine
 10
126.8443594051
 20
48.3226037004
 30
0.0
 11
126.8493587446
 21
48.3226037004
 31
0.0
  0
LINE
  5
304
330
1F
100
AcDbEntity
  8
0
  6
Continuous
 62
     7
370
    15
100
AcDbLine
 10
107.6358589639
 20
85.3226028734
 30
0.0
 11
107.6358589639
 21
85.2698855453
 31
0.0
  0
LINE
  5
305
330
1F
100
AcDbEntity
  8
0
  6
Continuous
 62
     7
370
    15
100
AcDbLine
 10
107.7327781652
 20
85.2826021963
 30
0.0
 11
107.6358589639
 21
85.2826021963
 31
0.0
  0
LWPOLYLINE
  5
306
330
1F
100
AcDbEntity
  8
0
  6
Continuous
 62
     7
370
    15
100
AcDbPolyline
 90
        5
 70
   128
 43
0.0
 10
84.5381969881
 20
78.1775676065
 10
84.5380300951
 20
78.2279841953
 10
84.5379183364
 20
78.2621585184
 10
84.5378632021
 20
78.2787792736
 10
84.5378572416
 20
78.2803468758
  0
LWPOLYLINE
  5
307
330
1F
100
AcDbEntity
  8
0
  6
Continuous
 62
     7
370
    15
100
AcDbPolyline
 90
       14
 70
   128
 43
0.0
 10
84.5409909558
 20
77.3303501659
 10
84.540980525
 20
77.3334943109
 10
84.54091645
 20
77.3531996065
 10
84.5407942605
 20
77.3902826363
 10
84.5406184268
 20
77.4433158689
 10
84.5403978896
 20
77.5102608257
 10
84.5401400995
 20
77.5885485464
 10
84.5398539972
 20
77.6751660162
 10
84.5395515037
 20
77.7667872959
 10
84.5392445398
 20
77.859889751
 10
84.5389450264
 20
77.9508941227
 10
84.5386633945
 20
78.0363075787
 10
84.5384100747
 20
78.112845903
 10
84.5381969881
 20
78.1775676065
  0
ARC
  5
308
330
1F
100
AcDbEntity
  8
0
  6
Continuous
 62
     7
370
    15
100
AcDbCircle
 10
77.7894613036
 20
77.7830833497
 30
0.0
 40
0.4750000000000009
100
AcDbArc
 50
90.1889975426
 51
270.1889975426
  0
LWPOLYLINE
  5
309
330
1F
100
AcDbEntity
  8
0
  6
Continuous
 62
     7
370
    15
100
AcDbPolyline
 90
       17
 70
   128
 43
0.0
 10
84.5378572416
 20
78.2803468758
 10
84.5378885341
 20
78.2712184244
 10
84.5379764509
 20
78.2441906982
 10
84.5381224823
 20
78.2002948576
 10
84.5383161974
 20
78.1412236744
 10
84.538554616
 20
78.0692421251
 10
84.538824327
 20
77.9871218258
 10
84.53911937
 20
77.8980158621
 10
84.5394248438
 20
77.8053485208
 10
84.5397303176
 20
77.7126811796
 10
84.5400238705
 20
77.6235752159
 10
84.5402950716
 20
77.5414549166
 10
84.5405320001
 20
77.4694763475
 10
84.5407272053
 20
77.4104021841
 10
84.5408717466
 20
77.3665093237
 10
84.5409611535
 20
77.3394786173
 10
84.5409909558
 20
77.3303501659
  0
LINE
  5
30A
330
1F
100
AcDbEntity
  8
0
  6
Continuous
 62
     7
370
    15
100
AcDbLine
 10
84.4563940835
 20
78.7094407135
 30
0.0
 11
84.6108595205
 21
78.6764853054
 31
0.0
  0
LINE
  5
30B
330
1F
100
AcDbEntity
  8
0
  6
Continuous
 62
     7
370
    15
100
AcDbLine
 10
84.4666818452
 20
78.7576608711
 30
0.0
 11
84.4563940835
 21
78.7094407135
 31
0.0
  0
LWPOLYLINE
  5
30C
330
1F
100
AcDbEntity
  8
0
  6
Continuous
 62
     7
370
    15
100
AcDbPolyline
 90
       11
 70
   128
 43
0.0
 10
84.4666818452
 20
78.7576608711
 10
84.4691539478
 20
78.7692509943
 10
84.4783122015
 20
78.8121782595
 10
84.4906369519
 20
78.8699530416
 10
84.5056543422
 20
78.9403461271
 10
84.5227891874
 20
79.0206604057
 10
84.5413798762
 20
79.1078083569
 10
84.5607141328
 20
79.198434239
 10
84.5800483895
 20
79.2890631014
 10
84.5986390782
 20
79.3762110525
 10
84.6108595205
 20
79.4334881359
  0
LWPOLYLINE
  5
30D
330
1F
100
AcDbEntity
  8
0
  6
Continuous
 62
     7
370
    15
100
AcDbPolyline
 90
       17
 70
   128
 43
0.0
 10
84.3393603635
 20
78.7599705511
 10
84.3412647319
 20
78.7688963467
 10
84.3469048214
 20
78.7953310066
 10
84.3560630751
 20
78.8382582718
 10
84.3683878255
 20
78.896033054
 10
84.3834052158
 20
78.9664261394
 10
84.400540061
 20
79.046740418
 10
84.4191307497
 20
79.1338883692
 10
84.4384650064
 20
79.2245142513
 10
84.457799263
 20
79.3151431137
 10
84.4763899517
 20
79.4022910648
 10
84.493524797
 20
79.4826023632
 10
84.5085421872
 20
79.5529984289
 10
84.5208669377
 20
79.6107732111
 10
84.5300251913
 20
79.6537004763
 10
84.5356652808
 20
79.6801351362
 10
84.5375696492
 20
79.6890609318
  0
ARC
  5
30E
330
1F
100
AcDbEntity
  8
0
  6
Continuous
 62
     7
370
    15
100
AcDbCircle
 10
77.8370153781
 20
80.632834927
 30
0.0
 40
0.4750000000000148
100
AcDbArc
 50
77.9573410604
 51
257.9573410604
  0
LWPOLYLINE
  5
30F
330
1F
100
AcDbEntity
  8
0
  6
Continuous
 62
     7
370
    15
100
AcDbPolyline
 90
       17
 70
   128
 43
0.0
 10
84.5375696492
 20
79.6890609318
 10
84.5356652808
 20
79.6801351362
 10
84.5300251913
 20
79.6537004763
 10
84.5208669377
 20
79.6107732111
 10
84.5085421872
 20
79.5529984289
 10
84.493524797
 20
79.4826023632
 10
84.4763899517
 20
79.4022910648
 10
84.457799263
 20
79.3151431137
 10
84.4384650064
 20
79.2245142513
 10
84.4191307497
 20
79.1338883692
 10
84.400540061
 20
79.046740418
 10
84.3834052158
 20
78.9664261394
 10
84.3683878255
 20
78.896033054
 10
84.3560630751
 20
78.8382582718
 10
84.3469048214
 20
78.7953310066
 10
84.3412647319
 20
78.7688963467
 10
84.3393603635
 20
78.7599705511
  0
LINE
  5
310
330
1F
100
AcDbEntity
  8
0
  6
Continuous
 62
     7
370
    15
100
AcDbLine
 10
78.4608597231
 20
46.6227379979
 30
0.0
 11
78.4608597231
 21
46.5876036675
 31
0.0
  0
LINE
  5
311
330
1F
100
AcDbEntity
  8
0
  6
Continuous
 62
     7
370
    15
100
AcDbLine
 10
78.4608597231
 20
46.1376036636
 30
0.0
 11
78.4608597231
 21
46.1052380388
 31
0.0
  0
LINE
  5
312
330
1F
100
AcDbEntity
  8
0
  6
Continuous
 62
     7
370
    15
100
AcDbLine
 10
78.4618372393
 20
46.6225807906
 30
0.0
 11
78.4608597231
 21
46.6227379979
 31
0.0
  0
LINE
  5
313
330
1F
100
AcDbEntity
  8
0
  6
Continuous
 62
     7
370
    15
100
AcDbLine
 10
78.4608597231
 20
46.1052380388
 30
0.0
 11
78.4616912079
 21
46.1053715672
 31
0.0
  0
LINE
  5
314
330
1F
100
AcDbEntity
  8
0
  6
Continuous
 62
     7
370
    15
100
AcDbLine
 10
132.3908591938
 20
46.6227379979
 30
0.0
 11
132.3898786974
 21
46.6225807906
 31
0.0
  0
LINE
  5
315
330
1F
100
AcDbEntity
  8
0
  6
Continuous
 62
     7
370
    15
100
AcDbLine
 10
132.3908591938
 20
46.1052380388
 30
0.0
 11
132.3908591938
 21
46.1376036636
 31
0.0
  0
LINE
  5
316
330
1F
100
AcDbEntity
  8
0
  6
Continuous
 62
     7
370
    15
100
AcDbLine
 10
132.3908591938
 20
46.5876036675
 30
0.0
 11
132.3908591938
 21
46.6227379979
 31
0.0
  0
LINE
  5
317
330
1F
100
AcDbEntity
  8
0
  6
Continuous
 62
     7
370
    15
100
AcDbLine
 10
132.390027709
 20
46.1053715672
 30
0.0
 11
132.3908591938
 21
46.1052380388
 31
0.0
  0
LINE
  5
318
330
1F
100
AcDbEntity
  8
0
  6
Continuous
 62
     7
370
    15
100
AcDbLine
 10
80.5208588314
 20
46.6174421252
 30
0.0
 11
80.5208588314
 21
46.6376036757
 31
0.0
  0
LINE
  5
319
330
1F
100
AcDbEntity
  8
0
  6
Continuous
 62
     7
370
    15
100
AcDbLine
 10
79.710858531
 20
47.2126036302
 30
0.0
 11
82.4858585668
 21
47.2126036302
 31
0.0
  0
LINE
  5
31A
330
1F
100
AcDbEntity
  8
0
  6
Continuous
 62
     7
370
    15
100
AcDbLine
 10
82.4858585668
 20
47.2126036302
 30
0.0
 11
82.4858585668
 21
46.6376036757
 31
0.0
  0
LINE
  5
31B
330
1F
100
AcDbEntity
  8
0
  6
Continuous
 62
     7
370
    15
100
AcDbLine
 10
82.4858585668
 20
46.6376036757
 30
0.0
 11
80.5208588314
 21
46.6376036757
 31
0.0
  0
LINE
  5
31C
330
1F
100
AcDbEntity
  8
0
  6
Continuous
 62
     7
370
    15
100
AcDbLine
 10
82.4858585668
 20
46.0876036554
 30
0.0
 11
82.4858585668
 21
45.5126036776
 31
0.0
  0
LINE
  5
31D
330
1F
100
AcDbEntity
  8
0
  6
Continuous
 62
     7
370
    15
100
AcDbLine
 10
82.4858585668
 20
45.5126036776
 30
0.0
 11
79.710858531
 21
45.5126036776
 31
0.0
  0
LINE
  5
31E
330
1F
100
AcDbEntity
  8
0
  6
Continuous
 62
     7
370
    15
100
AcDbLine
 10
80.5208588314
 20
46.0876036554
 30
0.0
 11
80.5208588314
 21
46.0999421195
 31
0.0
  0
LINE
  5
31F
330
1F
100
AcDbEntity
  8
0
  6
Continuous
 62
     7
370
    15
100
AcDbLine
 10
80.5208588314
 20
46.0876036554
 30
0.0
 11
82.4858585668
 21
46.0876036554
 31
0.0
  0
LINE
  5
320
330
1F
100
AcDbEntity
  8
0
  6
Continuous
 62
     7
370
    15
100
AcDbLine
 10
79.710858531
 20
45.5126036776
 30
0.0
 11
79.0858591271
 21
45.5126036776
 31
0.0
  0
ARC
  5
321
330
1F
100
AcDbEntity
  8
0
  6
Continuous
 62
     7
370
    15
100
AcDbCircle
 10
79.0858589893
 20
46.1376036661
 30
0.0
 40
0.625
100
AcDbArc
 50
180.0
 51
270.0
  0
LINE
  5
322
330
1F
100
AcDbEntity
  8
0
  6
Continuous
 62
     7
370
    15
100
AcDbLine
 10
80.5208588314
 20
46.5876036675
 30
0.0
 11
80.5208588314
 21
46.1376036636
 31
0.0
  0
LINE
  5
323
330
1F
100
AcDbEntity
  8
0
  6
Continuous
 62
     7
370
    15
100
AcDbLine
 10
78.4608597231
 20
46.5876036675
 30
0.0
 11
78.4608597231
 21
46.1376036636
 31
0.0
  0
ARC
  5
324
330
1F
100
AcDbEntity
  8
0
  6
Continuous
 62
     7
370
    15
100
AcDbCircle
 10
79.0858589893
 20
46.5876036661
 30
0.0
 40
0.625
100
AcDbArc
 50
90.0
 51
180.0
  0
LINE
  5
325
330
1F
100
AcDbEntity
  8
0
  6
Continuous
 62
     7
370
    15
100
AcDbLine
 10
79.0858591271
 20
47.2126036302
 30
0.0
 11
79.710858531
 21
47.2126036302
 31
0.0
  0
LINE
  5
326
330
1F
100
AcDbEntity
  8
0
  6
Continuous
 62
     7
370
    15
100
AcDbLine
 10
132.3908591938
 20
46.5876036675
 30
0.0
 11
132.3908591938
 21
46.1376036636
 31
0.0
  0
LINE
  5
327
330
1F
100
AcDbEntity
  8
0
  6
Continuous
 62
     7
370
    15
100
AcDbLine
 10
130.3308585954
 20
46.0876036554
 30
0.0
 11
130.3308585954
 21
46.0999421195
 31
0.0
  0
LINE
  5
328
330
1F
100
AcDbEntity
  8
0
  6
Continuous
 62
     7
370
    15
100
AcDbLine
 10
131.1408588958
 20
45.5126036776
 30
0.0
 11
128.36585886
 21
45.5126036776
 31
0.0
  0
LINE
  5
329
330
1F
100
AcDbEntity
  8
0
  6
Continuous
 62
     7
370
    15
100
AcDbLine
 10
128.36585886
 20
45.5126036776
 30
0.0
 11
128.36585886
 21
46.0876036554
 31
0.0
  0
LINE
  5
32A
330
1F
100
AcDbEntity
  8
0
  6
Continuous
 62
     7
370
    15
100
AcDbLine
 10
128.36585886
 20
46.0876036554
 30
0.0
 11
130.3308585954
 21
46.0876036554
 31
0.0
  0
LINE
  5
32B
330
1F
100
AcDbEntity
  8
0
  6
Continuous
 62
     7
370
    15
100
AcDbLine
 10
131.7658597899
 20
45.5126036776
 30
0.0
 11
131.1408588958
 21
45.5126036776
 31
0.0
  0
ARC
  5
32C
330
1F
100
AcDbEntity
  8
0
  6
Continuous
 62
     7
370
    15
100
AcDbCircle
 10
131.7658589893
 20
46.1376036661
 30
0.0
 40
0.625
100
AcDbArc
 50
270.0
 51
0.0
  0
LINE
  5
32D
330
1F
100
AcDbEntity
  8
0
  6
Continuous
 62
     7
370
    15
100
AcDbLine
 10
128.36585886
 20
46.6376036757
 30
0.0
 11
128.36585886
 21
47.2126036302
 31
0.0
  0
LINE
  5
32E
330
1F
100
AcDbEntity
  8
0
  6
Continuous
 62
     7
370
    15
100
AcDbLine
 10
128.36585886
 20
47.2126036302
 30
0.0
 11
131.1408588958
 21
47.2126036302
 31
0.0
  0
LINE
  5
32F
330
1F
100
AcDbEntity
  8
0
  6
Continuous
 62
     7
370
    15
100
AcDbLine
 10
130.3308585954
 20
46.6174421252
 30
0.0
 11
130.3308585954
 21
46.6376036757
 31
0.0
  0
LINE
  5
330
330
1F
100
AcDbEntity
  8
0
  6
Continuous
 62
     7
370
    15
100
AcDbLine
 10
130.3308585954
 20
46.6376036757
 30
0.0
 11
128.36585886
 21
46.6376036757
 31
0.0
  0
LINE
  5
331
330
1F
100
AcDbEntity
  8
0
  6
Continuous
 62
     7
370
    15
100
AcDbLine
 10
130.3308585954
 20
46.1376036636
 30
0.0
 11
130.3308585954
 21
46.5876036675
 31
0.0
  0
LINE
  5
332
330
1F
100
AcDbEntity
  8
0
  6
Continuous
 62
     7
370
    15
100
AcDbLine
 10
131.1408588958
 20
47.2126036302
 30
0.0
 11
131.7658597899
 21
47.2126036302
 31
0.0
  0
ARC
  5
333
330
1F
100
AcDbEntity
  8
0
  6
Continuous
 62
     7
370
    15
100
AcDbCircle
 10
131.7658589893
 20
46.5876036661
 30
0.0
 40
0.625
100
AcDbArc
 50
0.0
 51
90.0
  0
LINE
  5
334
330
1F
100
AcDbEntity
  8
0
  6
Continuous
 62
     7
370
    15
100
AcDbLine
 10
108.8008590338
 20
93.0926047617
 30
0.0
 11
108.8008590338
 21
91.8426029736
 31
0.0
  0
LINE
  5
335
330
1F
100
AcDbEntity
  8
0
  6
Continuous
 62
     7
370
    15
100
AcDbLine
 10
106.5008589944
 20
91.8426029736
 30
0.0
 11
106.5008589944
 21
93.0926047617
 31
0.0
  0
ARC
  5
336
330
1F
100
AcDbEntity
  8
0
  6
Continuous
 62
     7
370
    15
100
AcDbCircle
 10
130.0158589893
 20
92.2176036661
 30
0.0
 40
0.0250000000000057
100
AcDbArc
 50
0.0
 51
157.380135052
  0
LINE
  5
337
330
1F
100
AcDbEntity
  8
0
  6
Continuous
 62
     7
370
    15
100
AcDbLine
 10
129.4065857601
 20
91.8462567383
 30
0.0
 11
129.4769609642
 21
91.8503485971
 31
0.0
  0
SPLINE
  5
338
330
1F
100
AcDbEntity
  8
0
  6
Continuous
 62
     7
370
    15
100
AcDbSpline
210
0.0
220
0.0
230
1.0
 70
     8
 71
     3
 72
    10
 73
     6
 74
     0
 42
0.00000001
 43
0.00000001
 40
0.0
 40
0.0
 40
0.0
 40
0.0
 40
0.2423507711560385
 40
0.6992626660094448
 40
1.0
 40
1.0
 40
1.0
 40
1.0
 10
129.9189785790606
 20
92.09969270762757
 30
0.0
 10
129.9297182328567
 20
92.11401206674041
 30
0.0
 10
129.96070570985
 20
92.15532818544321
 30
0.0
 10
129.9866269895388
 20
92.21269831513801
 30
0.0
 10
129.9910334592348
 20
92.22309358224098
 30
0.0
 10
129.9927825403376
 20
92.22721982535674
 30
0.0
  0
ARC
  5
339
330
1F
100
AcDbEntity
  8
0
  6
Continuous
 62
     7
370
    15
100
AcDbCircle
 10
85.2858589893
 20
92.2176036661
 30
0.0
 40
0.0250000000000057
100
AcDbArc
 50
22.619864948
 51
180.0
  0
SPLINE
  5
33A
330
1F
100
AcDbEntity
  8
0
  6
Continuous
 62
     7
370
    15
100
AcDbSpline
210
0.0
220
0.0
230
1.0
 70
     8
 71
     3
 72
    11
 73
     7
 74
     0
 42
0.00000001
 43
0.00000001
 40
0.0
 40
0.0
 40
0.0
 40
0.0
 40
0.2525002518243
 40
0.583359657879566
 40
0.9384927025697105
 40
1.0
 40
1.0
 40
1.0
 40
1.0
 10
85.3089357090159
 20
92.22721982535674
 30
0.0
 10
85.31010262797855
 20
92.22423473767893
 30
0.0
 10
85.3127985993366
 20
92.21733819118487
 30
0.0
 10
85.33649161315964
 20
92.16831391399884
 30
0.0
 10
85.36077101796403
 20
92.12457702140495
 30
0.0
 10
85.38202494848676
 20
92.09884522881399
 30
0.0
 10
85.38516259910303
 20
92.09504652556731
 30
0.0
  0
LINE
  5
33B
330
1F
100
AcDbEntity
  8
0
  6
Continuous
 62
     7
370
    15
100
AcDbLine
 10
85.8631933403
 20
91.8454759174
 30
0.0
 11
85.903188057
 21
91.8478034788
 31
0.0
  0
LINE
  5
33C
330
1F
100
AcDbEntity
  8
0
  6
Continuous
 62
     7
370
    15
100
AcDbLine
 10
113.9008591247
 20
92.2176026159
 30
0.0
 11
113.9008591247
 21
92.2426008039
 31
0.0
  0
LINE
  5
33D
330
1F
100
AcDbEntity
  8
0
  6
Continuous
 62
     7
370
    15
100
AcDbLine
 10
101.4008591247
 20
92.2425918632
 30
0.0
 11
101.4008591247
 21
92.2176026159
 31
0.0
  0
LINE
  5
33E
330
1F
100
AcDbEntity
  8
0
  6
Continuous
 62
     7
370
    15
100
AcDbLine
 10
91.1708588076
 20
87.3176031166
 30
0.0
 11
91.9708589387
 21
87.3176031166
 31
0.0
  0
LINE
  5
33F
330
1F
100
AcDbEntity
  8
0
  6
Continuous
 62
     7
370
    15
100
AcDbLine
 10
91.9708589387
 20
87.3226039463
 30
0.0
 11
91.9708589387
 21
87.3176031166
 31
0.0
  0
LINE
  5
340
330
1F
100
AcDbEntity
  8
0
  6
Continuous
 62
     7
370
    15
100
AcDbLine
 10
107.1508589962
 20
87.3176031166
 30
0.0
 11
107.9008589794
 21
87.3176031166
 31
0.0
  0
LINE
  5
341
330
1F
100
AcDbEntity
  8
0
  6
Continuous
 62
     7
370
    15
100
AcDbLine
 10
107.1508589962
 20
87.3176031166
 30
0.0
 11
107.1508589962
 21
87.3226039463
 31
0.0
  0
LINE
  5
342
330
1F
100
AcDbEntity
  8
0
  6
Continuous
 62
     7
370
    15
100
AcDbLine
 10
124.330858357
 20
87.3226039463
 30
0.0
 11
124.330858357
 21
87.3176031166
 31
0.0
  0
LINE
  5
343
330
1F
100
AcDbEntity
  8
0
  6
Continuous
 62
     7
370
    15
100
AcDbLine
 10
123.3308593106
 20
87.3176031166
 30
0.0
 11
124.330858357
 21
87.3176031166
 31
0.0
  0
LINE
  5
344
330
1F
100
AcDbEntity
  8
0
  6
Continuous
 62
     7
370
    15
100
AcDbLine
 10
123.3308593106
 20
87.3176031166
 30
0.0
 11
123.3308593106
 21
87.3226039463
 31
0.0
  0
SPLINE
  5
345
330
1F
100
AcDbEntity
  8
0
  6
Continuous
 62
     7
370
    15
100
AcDbSpline
210
0.0
220
0.0
230
1.0
 70
     8
 71
     3
 72
     9
 73
     5
 74
     0
 42
0.00000001
 43
0.00000001
 40
0.0
 40
0.0
 40
0.0
 40
0.0
 40
0.8712169363332001
 40
1.0
 40
1.0
 40
1.0
 40
1.0
 10
130.555858678834
 20
87.25906837519958
 30
0.0
 10
130.5724011359069
 20
87.25366658976769
 30
0.0
 10
130.5913888947337
 20
87.24746631380128
 30
0.0
 10
130.6069913570959
 20
87.24127238002922
 30
0.0
 10
130.6090006899996
 20
87.24047470626189
 30
0.0
  0
SPLINE
  5
346
330
1F
100
AcDbEntity
  8
0
  6
Continuous
 62
     7
370
    15
100
AcDbSpline
210
0.0
220
0.0
230
1.0
 70
     8
 71
     3
 72
    10
 73
     6
 74
     0
 42
0.00000001
 43
0.00000001
 40
0.0
 40
0.0
 40
0.0
 40
0.0
 40
0.0007002541305694
 40
0.7081885922950567
 40
1.0
 40
1.0
 40
1.0
 40
1.0
 10
130.6741426062747
 20
87.21047866877868
 30
0.0
 10
130.6741525425039
 20
87.21047370195686
 30
0.0
 10
130.6842013575288
 20
87.20545060189785
 30
0.0
 10
130.6891976078578
 20
87.19735298469301
 30
0.0
 10
130.6904832894451
 20
87.18980619008187
 30
0.0
 10
130.6908587289019
 20
87.18760240611388
 30
0.0
  0
SPLINE
  5
347
330
1F
100
AcDbEntity
  8
0
  6
Continuous
 62
     7
370
    15
100
AcDbSpline
210
0.0
220
0.0
230
1.0
 70
     8
 71
     3
 72
     9
 73
     5
 74
     0
 42
0.00000001
 43
0.00000001
 40
0.0
 40
0.0
 40
0.0
 40
0.0
 40
0.9714795797377335
 40
1.0
 40
1.0
 40
1.0
 40
1.0
 10
84.61085952045161
 20
87.18760240611388
 30
0.0
 10
84.61110792545188
 20
87.19301226043473
 30
0.0
 10
84.61136362305525
 20
87.19858093571486
 30
0.0
 10
84.61980097904065
 20
87.20411886151851
 30
0.0
 10
84.62004161597926
 20
87.2042768054898
 30
0.0
  0
SPLINE
  5
348
330
1F
100
AcDbEntity
  8
0
  6
Continuous
 62
     7
370
    15
100
AcDbSpline
210
0.0
220
0.0
230
1.0
 70
     8
 71
     3
 72
     9
 73
     5
 74
     0
 42
0.00000001
 43
0.00000001
 40
0.0
 40
0.0
 40
0.0
 40
0.0
 40
0.6416329858793509
 40
1.0
 40
1.0
 40
1.0
 40
1.0
 10
84.69269818784433
 20
87.2404449039395
 30
0.0
 10
84.70366917703534
 20
87.24443828195292
 30
0.0
 10
84.72076772002247
 20
87.25066205489055
 30
0.0
 10
84.73923978996837
 20
87.25685060350933
 30
0.0
 10
84.74585957051951
 20
87.25906837519958
 30
0.0
  0
LINE
  5
349
330
1F
100
AcDbEntity
  8
0
  6
Continuous
 62
     7
370
    15
100
AcDbLine
 10
130.6908587289
 20
48.3226037004
 30
0.0
 11
130.6908587289
 21
48.3976036662
 31
0.0
  0
LINE
  5
34A
330
1F
100
AcDbEntity
  8
0
  6
Continuous
 62
     7
370
    15
100
AcDbLine
 10
130.6681091261
 20
48.3226037004
 30
0.0
 11
130.6908587289
 21
48.3226037004
 31
0.0
  0
LINE
  5
34B
330
1F
100
AcDbEntity
  8
0
  6
Continuous
 62
     7
370
    15
100
AcDbLine
 10
107.3048102033
 20
85.2698855453
 30
0.0
 11
107.7327781652
 21
85.2698855453
 31
0.0
  0
LINE
  5
34C
330
1F
100
AcDbEntity
  8
0
  6
Continuous
 62
     7
370
    15
100
AcDbLine
 10
107.7327781652
 20
50.1898866498
 30
0.0
 11
107.3048102033
 21
50.1898866498
 31
0.0
  0
LINE
  5
34D
330
1F
100
AcDbEntity
  8
0
  6
Continuous
 62
     7
370
    15
100
AcDbLine
 10
126.8493587446
 20
49.229886418
 30
0.0
 11
126.8493587446
 21
48.3976036662
 31
0.0
  0
SPLINE
  5
34E
330
1F
100
AcDbEntity
  8
0
  6
Continuous
 62
     7
370
    15
100
AcDbSpline
210
0.0
220
0.0
230
1.0
 70
     8
 71
     3
 72
    12
 73
     8
 74
     0
 42
0.00000001
 43
0.00000001
 40
0.0
 40
0.0
 40
0.0
 40
0.0
 40
0.2277666774140619
 40
0.4555916007186724
 40
0.6834108189549793
 40
0.9112290161096896
 40
1.0
 40
1.0
 40
1.0
 40
1.0
 10
126.750859088914
 20
87.18760240611388
 30
0.0
 10
126.7347575724624
 20
87.19329826227435
 30
0.0
 10
126.7025504219806
 20
87.20469143117454
 30
0.0
 10
126.6603162074915
 20
87.22178827108446
 30
0.0
 10
126.6297419095423
 20
87.23886993687461
 30
0.0
 10
126.6170705009146
 20
87.25251132668943
 30
0.0
 10
126.6161243403953
 20
87.26039294137396
 30
0.0
 10
126.6158590388461
 20
87.26260293063476
 30
0.0
  0
LINE
  5
34F
330
1F
100
AcDbEntity
  8
0
  6
Continuous
 62
     7
370
    15
100
AcDbLine
 10
126.6758585644
 20
87.2626029306
 30
0.0
 11
126.6158590388
 21
87.2626029306
 31
0.0
  0
SPLINE
  5
350
330
1F
100
AcDbEntity
  8
0
  6
Continuous
 62
     7
370
    15
100
AcDbSpline
210
0.0
220
0.0
230
1.0
 70
     8
 71
     3
 72
    11
 73
     7
 74
     0
 42
0.00000001
 43
0.00000001
 40
0.0
 40
0.0
 40
0.0
 40
0.0
 40
0.2199773665918321
 40
0.474807960735408
 40
0.729707420768231
 40
0.9999999999999999
 40
0.9999999999999999
 40
0.9999999999999999
 40
0.9999999999999999
 10
126.750859088914
 20
87.18760240611388
 30
0.0
 10
126.7422228969713
 20
87.19309419155304
 30
0.0
 10
126.723582194301
 20
87.20494788125563
 30
0.0
 10
126.6987533185143
 20
87.22320334248964
 30
0.0
 10
126.6797395311869
 20
87.2426972395955
 30
0.0
 10
126.6771772530267
 20
87.25583930447873
 30
0.0
 10
126.6758585643931
 20
87.26260293063476
 30
0.0
  0
SPLINE
  5
351
330
1F
100
AcDbEntity
  8
0
  6
Continuous
 62
     7
370
    15
100
AcDbSpline
210
0.0
220
0.0
230
1.0
 70
     8
 71
     3
 72
    11
 73
     7
 74
     0
 42
0.00000001
 43
0.00000001
 40
0.0
 40
0.0
 40
0.0
 40
0.0
 40
0.249998204483076
 40
0.499998035959334
 40
0.750001795516924
 40
1.0
 40
1.0
 40
1.0
 40
1.0
 10
130.555858678834
 20
87.18760240611388
 30
0.0
 10
130.5555641324817
 20
87.20529245783615
 30
0.0
 10
130.5549750378603
 20
87.24067267640787
 30
0.0
 10
130.5540913915299
 20
87.28529625556025
 30
0.0
 10
130.5532077749508
 20
87.31651690693548
 30
0.0
 10
130.5526186717345
 20
87.32057494820553
 30
0.0
 10
130.5523241233988
 20
87.3226039462979
 30
0.0
  0
LINE
  5
352
330
1F
100
AcDbEntity
  8
0
  6
Continuous
 62
     7
370
    15
100
AcDbLine
 10
126.7508590889
 20
87.3226039463
 30
0.0
 11
126.7508590889
 21
87.1876024061
 31
0.0
  0
LINE
  5
353
330
1F
100
AcDbEntity
  8
0
  6
Continuous
 62
     7
370
    15
100
AcDbLine
 10
130.5558586788
 20
48.3976036662
 30
0.0
 11
130.6908587289
 21
48.3976036662
 31
0.0
  0
LINE
  5
354
330
1F
100
AcDbEntity
  8
0
  6
Continuous
 62
     7
370
    15
100
AcDbLine
 10
130.6908587289
 20
48.3976036662
 30
0.0
 11
130.6908587289
 21
87.1876024061
 31
0.0
  0
LINE
  5
355
330
1F
100
AcDbEntity
  8
0
  6
Continuous
 62
     7
370
    15
100
AcDbLine
 10
130.5558586788
 20
87.1876024061
 30
0.0
 11
130.6908587289
 21
87.1876024061
 31
0.0
  0
SPLINE
  5
356
330
1F
100
AcDbEntity
  8
0
  6
Continuous
 62
     7
370
    15
100
AcDbSpline
210
0.0
220
0.0
230
1.0
 70
     8
 71
     3
 72
    11
 73
     7
 74
     0
 42
0.00000001
 43
0.00000001
 40
0.0
 40
0.0
 40
0.0
 40
0.0
 40
0.2499995473592447
 40
0.4999992520350566
 40
0.7499999353931426
 40
1.0
 40
1.0
 40
1.0
 40
1.0
 10
130.555858678834
 20
48.39760366615607
 30
0.0
 10
130.5555641325935
 20
48.37991363991903
 30
0.0
 10
130.5549750399271
 20
48.3445335763132
 30
0.0
 10
130.5540913988585
 20
48.29990994042203
 30
0.0
 10
130.5532077638096
 20
48.26869165108021
 30
0.0
 10
130.5526186699594
 20
48.2646329594113
 30
0.0
 10
130.5523241233988
 20
48.26260361608817
 30
0.0
  0
LINE
  5
357
330
1F
100
AcDbEntity
  8
0
  6
Continuous
 62
     7
370
    15
100
AcDbLine
 10
126.8493587446
 20
48.3976036662
 30
0.0
 11
126.8493587446
 21
48.2626036161
 31
0.0
  0
SPLINE
  5
358
330
1F
100
AcDbEntity
  8
0
  6
Continuous
 62
     7
370
    15
100
AcDbSpline
210
0.0
220
0.0
230
1.0
 70
     8
 71
     3
 72
    11
 73
     7
 74
     0
 42
0.00000001
 43
0.00000001
 40
0.0
 40
0.0
 40
0.0
 40
0.0
 40
0.2499920004170348
 40
0.5000015353006073
 40
0.7499930448087095
 40
1.0
 40
1.0
 40
1.0
 40
1.0
 10
130.555858678834
 20
87.26260293063476
 30
0.0
 10
130.565686566961
 20
87.26147648101474
 30
0.0
 10
130.5853430325442
 20
87.25922350276542
 30
0.0
 10
130.6101318687555
 20
87.24187649461655
 30
0.0
 10
130.6274783540056
 20
87.2170869799634
 30
0.0
 10
130.6297322303633
 20
87.19743079979976
 30
0.0
 10
130.6308592033549
 20
87.18760240611388
 30
0.0
  0
LINE
  5
359
330
1F
100
AcDbEntity
  8
0
  6
Continuous
 62
     7
370
    15
100
AcDbLine
 10
130.5558586788
 20
87.3226039463
 30
0.0
 11
130.5558586788
 21
87.2626029306
 31
0.0
  0
SPLINE
  5
35A
330
1F
100
AcDbEntity
  8
0
  6
Continuous
 62
     7
370
    15
100
AcDbSpline
210
0.0
220
0.0
230
1.0
 70
     8
 71
     3
 72
    11
 73
     7
 74
     0
 42
0.00000001
 43
0.00000001
 40
0.0
 40
0.0
 40
0.0
 40
0.0
 40
0.2499981748071629
 40
0.5000020233926853
 40
0.7500018251928371
 40
1.0
 40
1.0
 40
1.0
 40
1.0
 10
130.555858678834
 20
87.32260394629792
 30
0.0
 10
130.573548772791
 20
87.32057494628204
 30
0.0
 10
130.6089293621866
 20
87.31651690020155
 30
0.0
 10
130.6535522464986
 20
87.28529626677114
 30
0.0
 10
130.684771475438
 20
87.24067267537082
 30
0.0
 10
130.6888296488157
 20
87.20529245749047
 30
0.0
 10
130.6908587289019
 20
87.1876024061139
 30
0.0
  0
SPLINE
  5
35B
330
1F
100
AcDbEntity
  8
0
  6
Continuous
 62
     7
370
    15
100
AcDbSpline
210
0.0
220
0.0
230
1.0
 70
     8
 71
     3
 72
    11
 73
     7
 74
     0
 42
0.00000001
 43
0.00000001
 40
0.0
 40
0.0
 40
0.0
 40
0.0
 40
0.2499995176824882
 40
0.499999192681525
 40
0.7499999650699604
 40
1.0
 40
1.0
 40
1.0
 40
1.0
 10
130.6908587289019
 20
48.39760366615607
 30
0.0
 10
130.6888296469773
 20
48.3799136402647
 30
0.0
 10
130.684771481851
 20
48.34453357735021
 30
0.0
 10
130.6535525994827
 20
48.29990992921106
 30
0.0
 10
130.6089287551899
 20
48.26869165781428
 30
0.0
 10
130.5735486868918
 20
48.2646329613348
 30
0.0
 10
130.555858678834
 20
48.26260361608817
 30
0.0
  0
LINE
  5
35C
330
1F
100
AcDbEntity
  8
0
  6
Continuous
 62
     7
370
    15
100
AcDbLine
 10
130.5558586788
 20
48.2626036161
 30
0.0
 11
130.5558586788
 21
48.3226037004
 31
0.0
  0
SPLINE
  5
35D
330
1F
100
AcDbEntity
  8
0
  6
Continuous
 62
     7
370
    15
100
AcDbSpline
210
0.0
220
0.0
230
1.0
 70
     8
 71
     3
 72
    11
 73
     7
 74
     0
 42
0.00000001
 43
0.00000001
 40
0.0
 40
0.0
 40
0.0
 40
0.0
 40
0.249998660901841
 40
0.5000007219488977
 40
0.7500022780713508
 40
1.0
 40
1.0
 40
1.0
 40
1.0
 10
130.6308592033549
 20
48.39760366615607
 30
0.0
 10
130.6297320515863
 20
48.38777583325319
 30
0.0
 10
130.6274777327191
 20
48.36812003378248
 30
0.0
 10
130.6101329595861
 20
48.34332947411357
 30
0.0
 10
130.5853420454632
 20
48.32598586371098
 30
0.0
 10
130.565686417468
 20
48.32373108242597
 30
0.0
 10
130.555858678834
 20
48.32260370042874
 30
0.0
  0
LINE
  5
35E
330
1F
100
AcDbEntity
  8
0
  6
Continuous
 62
     7
370
    15
100
AcDbLine
 10
126.676213212
 20
87.3226039463
 30
0.0
 11
126.676213212
 21
87.2626029306
 31
0.0
  0
LINE
  5
35F
330
1F
100
AcDbEntity
  8
0
  6
Continuous
 62
     7
370
    15
100
AcDbLine
 10
126.7508590889
 20
87.2626029306
 30
0.0
 11
126.676213212
 21
87.2626029306
 31
0.0
  0
LINE
  5
360
330
1F
100
AcDbEntity
  8
0
  6
Continuous
 62
     7
370
    15
100
AcDbLine
 10
130.5558586788
 20
87.2626029306
 30
0.0
 11
130.5999825072
 21
87.2465901428
 31
0.0
  0
LINE
  5
361
330
1F
100
AcDbEntity
  8
0
  6
Continuous
 62
     7
370
    15
100
AcDbLine
 10
130.5999825072
 20
48.3386176058
 30
0.0
 11
130.5558586788
 21
48.3226037004
 31
0.0
  0
LINE
  5
362
330
1F
100
AcDbEntity
  8
0
  6
Continuous
 62
     7
370
    15
100
AcDbLine
 10
84.7458595705
 20
48.3976036662
 30
0.0
 11
84.6108595205
 21
48.3976036662
 31
0.0
  0
LINE
  5
363
330
1F
100
AcDbEntity
  8
0
  6
Continuous
 62
     7
370
    15
100
AcDbLine
 10
84.6108595205
 20
48.3976036662
 30
0.0
 11
84.6108595205
 21
87.1876024061
 31
0.0
  0
LINE
  5
364
330
1F
100
AcDbEntity
  8
0
  6
Continuous
 62
     7
370
    15
100
AcDbLine
 10
84.6108595205
 20
87.1876024061
 30
0.0
 11
84.7458595705
 21
87.1876024061
 31
0.0
  0
SPLINE
  5
365
330
1F
100
AcDbEntity
  8
0
  6
Continuous
 62
     7
370
    15
100
AcDbSpline
210
0.0
220
0.0
230
1.0
 70
     8
 71
     3
 72
    11
 73
     7
 74
     0
 42
0.00000001
 43
0.00000001
 40
0.0
 40
0.0
 40
0.0
 40
0.0
 40
0.249998204483076
 40
0.499998035959334
 40
0.750001795516924
 40
1.0
 40
1.0
 40
1.0
 40
1.0
 10
84.74585957051951
 20
87.18760240611388
 30
0.0
 10
84.74615411687179
 20
87.20529245783615
 30
0.0
 10
84.74674321149328
 20
87.24067267640787
 30
0.0
 10
84.74762685782362
 20
87.28529625556025
 30
0.0
 10
84.74851047440274
 20
87.31651690693548
 30
0.0
 10
84.74909957761905
 20
87.32057494820553
 30
0.0
 10
84.7493941259547
 20
87.3226039462979
 30
0.0
  0
LINE
  5
366
330
1F
100
AcDbEntity
  8
0
  6
Continuous
 62
     7
370
    15
100
AcDbLine
 10
88.4689906907
 20
48.762603698
 30
0.0
 11
88.4689906907
 21
48.7798866236
 31
0.0
  0
SPLINE
  5
367
330
1F
100
AcDbEntity
  8
0
  6
Continuous
 62
     7
370
    15
100
AcDbSpline
210
0.0
220
0.0
230
1.0
 70
     8
 71
     3
 72
    11
 73
     7
 74
     0
 42
0.00000001
 43
0.00000001
 40
0.0
 40
0.0
 40
0.0
 40
0.0
 40
0.2500000646068574
 40
0.5000007479649433
 40
0.7500004526407552
 40
0.9999999999999999
 40
0.9999999999999999
 40
0.9999999999999999
 40
0.9999999999999999
 10
84.7493941259547
 20
48.26260361608817
 30
0.0
 10
84.74909957939411
 20
48.26463295941131
 30
0.0
 10
84.74851048554393
 20
48.26869165108021
 30
0.0
 10
84.747626850495
 20
48.29990994042203
 30
0.0
 10
84.74674320942646
 20
48.34453357631319
 30
0.0
 10
84.74615411676004
 20
48.37991363991903
 30
0.0
 10
84.74585957051951
 20
48.39760366615607
 30
0.0
  0
SPLINE
  5
368
330
1F
100
AcDbEntity
  8
0
  6
Continuous
 62
     7
370
    15
100
AcDbSpline
210
0.0
220
0.0
230
1.0
 70
     8
 71
     3
 72
    11
 73
     7
 74
     0
 42
0.00000001
 43
0.00000001
 40
0.0
 40
0.0
 40
0.0
 40
0.0
 40
0.2499920004170348
 40
0.5000015353006073
 40
0.7499930448087095
 40
1.0
 40
1.0
 40
1.0
 40
1.0
 10
84.74585957051951
 20
87.26260293063476
 30
0.0
 10
84.73603168239252
 20
87.26147648101474
 30
0.0
 10
84.71637521680938
 20
87.25922350276542
 30
0.0
 10
84.69158638059807
 20
87.24187649461655
 30
0.0
 10
84.67423989534798
 20
87.2170869799634
 30
0.0
 10
84.67198601899025
 20
87.19743079979976
 30
0.0
 10
84.67085904599864
 20
87.18760240611388
 30
0.0
  0
LINE
  5
369
330
1F
100
AcDbEntity
  8
0
  6
Continuous
 62
     7
370
    15
100
AcDbLine
 10
84.7458595705
 20
87.3226039463
 30
0.0
 11
84.7458595705
 21
87.2626029306
 31
0.0
  0
SPLINE
  5
36A
330
1F
100
AcDbEntity
  8
0
  6
Continuous
 62
     7
370
    15
100
AcDbSpline
210
0.0
220
0.0
230
1.0
 70
     8
 71
     3
 72
    11
 73
     7
 74
     0
 42
0.00000001
 43
0.00000001
 40
0.0
 40
0.0
 40
0.0
 40
0.0
 40
0.2499981748071629
 40
0.5000020233926853
 40
0.7500018251928371
 40
1.0
 40
1.0
 40
1.0
 40
1.0
 10
84.74585957051951
 20
87.32260394629792
 30
0.0
 10
84.72816947656251
 20
87.32057494628204
 30
0.0
 10
84.69278888716693
 20
87.31651690020155
 30
0.0
 10
84.64816600285494
 20
87.28529626677114
 30
0.0
 10
84.61694677391556
 20
87.24067267537082
 30
0.0
 10
84.61288860053783
 20
87.20529245749047
 30
0.0
 10
84.61085952045161
 20
87.1876024061139
 30
0.0
  0
SPLINE
  5
36B
330
1F
100
AcDbEntity
  8
0
  6
Continuous
 62
     7
370
    15
100
AcDbSpline
210
0.0
220
0.0
230
1.0
 70
     8
 71
     3
 72
    11
 73
     7
 74
     0
 42
0.00000001
 43
0.00000001
 40
0.0
 40
0.0
 40
0.0
 40
0.0
 40
0.249998660901841
 40
0.5000007219488977
 40
0.7500022780713508
 40
1.0
 40
1.0
 40
1.0
 40
1.0
 10
84.67085904599864
 20
48.39760366615607
 30
0.0
 10
84.67198619776725
 20
48.38777583325319
 30
0.0
 10
84.6742405166345
 20
48.36812003378248
 30
0.0
 10
84.69158528976739
 20
48.34332947411357
 30
0.0
 10
84.7163762038903
 20
48.32598586371098
 30
0.0
 10
84.73603183188551
 20
48.32373108242597
 30
0.0
 10
84.74585957051951
 20
48.32260370042874
 30
0.0
  0
LINE
  5
36C
330
1F
100
AcDbEntity
  8
0
  6
Continuous
 62
     7
370
    15
100
AcDbLine
 10
84.7458595705
 20
48.2626036161
 30
0.0
 11
84.7458595705
 21
48.3226037004
 31
0.0
  0
SPLINE
  5
36D
330
1F
100
AcDbEntity
  8
0
  6
Continuous
 62
     7
370
    15
100
AcDbSpline
210
0.0
220
0.0
230
1.0
 70
     8
 71
     3
 72
    11
 73
     7
 74
     0
 42
0.00000001
 43
0.00000001
 40
0.0
 40
0.0
 40
0.0
 40
0.0
 40
0.2499995176824882
 40
0.499999192681525
 40
0.7499999650699604
 40
1.0
 40
1.0
 40
1.0
 40
1.0
 10
84.61085952045161
 20
48.39760366615607
 30
0.0
 10
84.6128886023763
 20
48.3799136402647
 30
0.0
 10
84.6169467675025
 20
48.34453357735021
 30
0.0
 10
84.64816564987082
 20
48.29990992921106
 30
0.0
 10
84.69278949416365
 20
48.26869165781428
 30
0.0
 10
84.72816956246174
 20
48.2646329613348
 30
0.0
 10
84.74585957051951
 20
48.26260361608817
 30
0.0
  0
LINE
  5
36E
330
1F
100
AcDbEntity
  8
0
  6
Continuous
 62
     7
370
    15
100
AcDbLine
 10
84.7458595705
 20
87.2622512632
 30
0.0
 11
84.7008297515
 21
87.2459851557
 31
0.0
  0
SPLINE
  5
36F
330
1F
100
AcDbEntity
  8
0
  6
Continuous
 62
     7
370
    15
100
AcDbSpline
210
0.0
220
0.0
230
1.0
 70
     8
 71
     3
 72
     9
 73
     5
 74
     0
 42
0.00000001
 43
0.00000001
 40
0.0
 40
0.0
 40
0.0
 40
0.0
 40
0.5991736737577097
 40
1.0
 40
1.0
 40
1.0
 40
1.0
 10
84.70032758237558
 20
48.33955805537059
 30
0.0
 10
84.70910346280408
 20
48.33623317081939
 30
0.0
 10
84.72375010168834
 20
48.33068405426636
 30
0.0
 10
84.73953326368137
 20
48.32516815008642
 30
0.0
 10
84.74585957051951
 20
48.32295723047807
 30
0.0
  0
ARC
  5
370
330
1F
100
AcDbEntity
  8
0
  6
Continuous
 62
     7
370
    15
100
AcDbCircle
 10
125.1327335982
 20
48.4630623384
 30
0.0
 40
0.0800000000000032
100
AcDbArc
 50
258.1848999875
 51
233.5711003082
  0
LINE
  5
371
330
1F
100
AcDbEntity
  8
0
  6
Continuous
 62
     7
370
    15
100
AcDbLine
 10
125.1194248271
 20
48.3994394892
 30
0.0
 11
125.1163536978
 21
48.3847571888
 31
0.0
  0
ARC
  5
372
330
1F
100
AcDbEntity
  8
0
  6
Continuous
 62
     7
370
    15
100
AcDbCircle
 10
125.1327335982
 20
48.4630623384
 30
0.0
 40
0.0650000000000033
100
AcDbArc
 50
258.1848999875
 51
233.5711003082
  0
LINE
  5
373
330
1F
100
AcDbEntity
  8
0
  6
Continuous
 62
     7
370
    15
100
AcDbLine
 10
125.0852281523
 20
48.3986948037
 30
0.0
 11
125.0941345763
 21
48.4107636267
 31
0.0
  0
LINE
  5
374
330
1F
100
AcDbEntity
  8
0
  6
Continuous
 62
     7
370
    15
100
AcDbLine
 10
105.5608589497
 20
48.3673178011
 30
0.0
 11
105.5608589497
 21
48.3889684432
 31
0.0
  0
LINE
  5
375
330
1F
100
AcDbEntity
  8
0
  6
Continuous
 62
     7
370
    15
100
AcDbLine
 10
104.6108590734
 20
48.3889684432
 30
0.0
 11
104.6108590734
 21
48.3673178011
 31
0.0
  0
LINE
  5
376
330
1F
100
AcDbEntity
  8
0
  6
Continuous
 62
     7
370
    15
100
AcDbLine
 10
105.5858590004
 20
48.3673178011
 30
0.0
 11
105.5858590004
 21
48.0626035833
 31
0.0
  0
LINE
  5
377
330
1F
100
AcDbEntity
  8
0
  6
Continuous
 62
     7
370
    15
100
AcDbLine
 10
105.5608589497
 20
48.0626035833
 30
0.0
 11
105.5608589497
 21
48.3673178011
 31
0.0
  0
LINE
  5
378
330
1F
100
AcDbEntity
  8
0
  6
Continuous
 62
     7
370
    15
100
AcDbLine
 10
105.5858590004
 20
48.3673178011
 30
0.0
 11
105.5608589497
 21
48.3673178011
 31
0.0
  0
LINE
  5
379
330
1F
100
AcDbEntity
  8
0
  6
Continuous
 62
     7
370
    15
100
AcDbLine
 10
104.6108590734
 20
48.3673178011
 30
0.0
 11
104.6108590734
 21
48.0626035833
 31
0.0
  0
LINE
  5
37A
330
1F
100
AcDbEntity
  8
0
  6
Continuous
 62
     7
370
    15
100
AcDbLine
 10
105.5858590004
 20
48.3673178011
 30
0.0
 11
105.5608589497
 21
48.3889684432
 31
0.0
  0
LINE
  5
37B
330
1F
100
AcDbEntity
  8
0
  6
Continuous
 62
     7
370
    15
100
AcDbLine
 10
104.5858590228
 20
48.0626035833
 30
0.0
 11
104.5858590228
 21
48.3673178011
 31
0.0
  0
LINE
  5
37C
330
1F
100
AcDbEntity
  8
0
  6
Continuous
 62
     7
370
    15
100
AcDbLine
 10
104.5858590228
 20
48.3673178011
 30
0.0
 11
104.6108590734
 21
48.3673178011
 31
0.0
  0
LINE
  5
37D
330
1F
100
AcDbEntity
  8
0
  6
Continuous
 62
     7
370
    15
100
AcDbLine
 10
104.5858590228
 20
48.3673178011
 30
0.0
 11
104.6108590734
 21
48.3889684432
 31
0.0
  0
LINE
  5
37E
330
1F
100
AcDbEntity
  8
0
  6
Continuous
 62
     7
370
    15
100
AcDbLine
 10
105.5858590004
 20
48.7451110387
 30
0.0
 11
105.5858590004
 21
48.3673178011
 31
0.0
  0
LINE
  5
37F
330
1F
100
AcDbEntity
  8
0
  6
Continuous
 62
     7
370
    15
100
AcDbLine
 10
105.5608589497
 20
48.3889684432
 30
0.0
 11
105.5608589497
 21
48.7743256965
 31
0.0
  0
LINE
  5
380
330
1F
100
AcDbEntity
  8
0
  6
Continuous
 62
     7
370
    15
100
AcDbLine
 10
104.6108590734
 20
48.7757571393
 30
0.0
 11
104.6108590734
 21
48.3889684432
 31
0.0
  0
LINE
  5
381
330
1F
100
AcDbEntity
  8
0
  6
Continuous
 62
     7
370
    15
100
AcDbLine
 10
104.5858590228
 20
48.3673178011
 30
0.0
 11
104.5858590228
 21
48.7465227374
 31
0.0
  0
LINE
  5
382
330
1F
100
AcDbEntity
  8
0
  6
Continuous
 62
     7
370
    15
100
AcDbLine
 10
125.608358748
 20
48.0626035833
 30
0.0
 11
125.608358748
 21
48.8810254612
 31
0.0
  0
LINE
  5
383
330
1F
100
AcDbEntity
  8
0
  6
Continuous
 62
     7
370
    15
100
AcDbLine
 10
124.6583590579
 20
48.8810254612
 30
0.0
 11
124.6583590579
 21
48.0626035833
 31
0.0
  0
CIRCLE
  5
384
330
1F
100
AcDbEntity
  8
0
  6
Continuous
 62
     7
370
    15
100
AcDbCircle
 10
125.1327335982
 20
48.4630623384
 30
0.0
 40
0.0799999999999983
  0
LINE
  5
385
330
1F
100
AcDbEntity
  8
0
  6
Continuous
 62
     7
370
    15
100
AcDbLine
 10
124.6333593798
 20
48.0626035833
 30
0.0
 11
124.6333593798
 21
48.8810254612
 31
0.0
  0
LINE
  5
386
330
1F
100
AcDbEntity
  8
0
  6
Continuous
 62
     7
370
    15
100
AcDbLine
 10
124.6333593798
 20
48.8810254612
 30
0.0
 11
124.6583590579
 21
48.8810254612
 31
0.0
  0
LINE
  5
387
330
1F
100
AcDbEntity
  8
0
  6
Continuous
 62
     7
370
    15
100
AcDbLine
 10
125.6333584261
 20
48.8810254612
 30
0.0
 11
125.6333584261
 21
48.0626035833
 31
0.0
  0
LINE
  5
388
330
1F
100
AcDbEntity
  8
0
  6
Continuous
 62
     7
370
    15
100
AcDbLine
 10
125.6333584261
 20
48.8810254612
 30
0.0
 11
125.608358748
 21
48.8810254612
 31
0.0
  0
LINE
  5
389
330
1F
100
AcDbEntity
  8
0
  6
Continuous
 62
     7
370
    15
100
AcDbLine
 10
124.6333593798
 20
48.8810254612
 30
0.0
 11
124.6583590579
 21
48.9026762896
 31
0.0
  0
LINE
  5
38A
330
1F
100
AcDbEntity
  8
0
  6
Continuous
 62
     7
370
    15
100
AcDbLine
 10
124.6583590579
 20
48.9026762896
 30
0.0
 11
124.6583590579
 21
48.8810254612
 31
0.0
  0
LINE
  5
38B
330
1F
100
AcDbEntity
  8
0
  6
Continuous
 62
     7
370
    15
100
AcDbLine
 10
125.608358748
 20
48.8810254612
 30
0.0
 11
125.608358748
 21
48.9026762896
 31
0.0
  0
LINE
  5
38C
330
1F
100
AcDbEntity
  8
0
  6
Continuous
 62
     7
370
    15
100
AcDbLine
 10
125.6333584261
 20
48.8810254612
 30
0.0
 11
125.608358748
 21
48.9026762896
 31
0.0
  0
LINE
  5
38D
330
1F
100
AcDbEntity
  8
0
  6
Continuous
 62
     7
370
    15
100
AcDbLine
 10
124.6333593798
 20
48.8810254612
 30
0.0
 11
124.6333593798
 21
49.229886418
 31
0.0
  0
LINE
  5
38E
330
1F
100
AcDbEntity
  8
0
  6
Continuous
 62
     7
370
    15
100
AcDbLine
 10
124.6583590579
 20
49.229886418
 30
0.0
 11
124.6583590579
 21
48.9026762896
 31
0.0
  0
LINE
  5
38F
330
1F
100
AcDbEntity
  8
0
  6
Continuous
 62
     7
370
    15
100
AcDbLine
 10
125.608358748
 20
48.9026762896
 30
0.0
 11
125.608358748
 21
49.229886418
 31
0.0
  0
LINE
  5
390
330
1F
100
AcDbEntity
  8
0
  6
Continuous
 62
     7
370
    15
100
AcDbLine
 10
125.6333584261
 20
49.229886418
 30
0.0
 11
125.6333584261
 21
48.8810254612
 31
0.0
  0
LWPOLYLINE
  5
391
330
1F
100
AcDbEntity
  8
0
  6
Continuous
 62
     7
370
    15
100
AcDbPolyline
 90
        9
 70
   128
 43
0.0
 10
106.3233589874
 20
41.9640388691
 10
106.3137516267
 20
41.9564847254
 10
106.28529875
 20
41.9492207819
 10
106.2390937998
 20
41.9425264352
 10
106.1769123717
 20
41.9366587305
 10
106.1011441114
 20
41.9318430477
 10
106.0147007058
 20
41.9282649064
 10
105.9209041593
 20
41.9260613972
 10
105.8233589695
 20
41.9253174567
  0
LINE
  5
392
330
1F
100
AcDbEntity
  8
0
  6
Continuous
 62
     7
370
    15
100
AcDbLine
 10
105.8233589695
 20
41.9253174567
 30
0.0
 11
104.3233590496
 21
41.9253174567
 31
0.0
  0
LWPOLYLINE
  5
393
330
1F
100
AcDbEntity
  8
0
  6
Continuous
 62
     7
370
    15
100
AcDbPolyline
 90
        9
 70
   128
 43
0.0
 10
104.3233590496
 20
41.9253174567
 10
104.2258138132
 20
41.9260613972
 10
104.1320173365
 20
41.9282649064
 10
104.0455738378
 20
41.9318430477
 10
103.9698055309
 20
41.9366587305
 10
103.9076241028
 20
41.9425264352
 10
103.861419141
 20
41.9492207819
 10
103.832966305
 20
41.9564847254
 10
103.8233589676
 20
41.9640388691
  0
LINE
  5
394
330
1F
100
AcDbEntity
  8
0
  6
Continuous
 62
     7
370
    15
100
AcDbLine
 10
103.8233589676
 20
41.9640388691
 30
0.0
 11
103.8233589676
 21
42.0265119874
 31
0.0
  0
LINE
  5
395
330
1F
100
AcDbEntity
  8
0
  6
Continuous
 62
     7
370
    15
100
AcDbLine
 10
106.3233589874
 20
42.0265119874
 30
0.0
 11
106.3233589874
 21
41.9640388691
 31
0.0
  0
LINE
  5
396
330
1F
100
AcDbEntity
  8
0
  6
Continuous
 62
     7
370
    15
100
AcDbLine
 10
106.3233589874
 20
41.6649397814
 30
0.0
 11
106.3233589874
 21
41.9640388691
 31
0.0
  0
LWPOLYLINE
  5
397
330
1F
100
AcDbEntity
  8
0
  6
Continuous
 62
     7
370
    15
100
AcDbPolyline
 90
        9
 70
   128
 43
0.0
 10
106.3233589874
 20
41.6649397814
 10
106.3137516267
 20
41.6573856377
 10
106.28529875
 20
41.6501216942
 10
106.2390937998
 20
41.6434273475
 10
106.1769123717
 20
41.6375596428
 10
106.1011441114
 20
41.6327443325
 10
106.0147007058
 20
41.6291658187
 10
105.9209041593
 20
41.6269623094
 10
105.8233589695
 20
41.626218369
  0
LWPOLYLINE
  5
398
330
1F
100
AcDbEntity
  8
0
  6
Continuous
 62
     7
370
    15
100
AcDbPolyline
 90
        9
 70
   128
 43
0.0
 10
104.3233590496
 20
41.626218369
 10
104.2258138132
 20
41.6269623094
 10
104.1320173365
 20
41.6291658187
 10
104.0455738378
 20
41.6327443325
 10
103.9698055309
 20
41.6375596428
 10
103.9076241028
 20
41.6434273475
 10
103.861419141
 20
41.6501216942
 10
103.832966305
 20
41.6573856377
 10
103.8233589676
 20
41.6649397814
  0
LINE
  5
399
330
1F
100
AcDbEntity
  8
0
  6
Continuous
 62
     7
370
    15
100
AcDbLine
 10
103.8233589676
 20
41.6649397814
 30
0.0
 11
103.8233589676
 21
41.9640388691
 31
0.0
  0
LINE
  5
39A
330
1F
100
AcDbEntity
  8
0
  6
Continuous
 62
     7
370
    15
100
AcDbLine
 10
105.8233589695
 20
41.626218369
 30
0.0
 11
104.3233590496
 21
41.626218369
 31
0.0
  0
LINE
  5
39B
330
1F
100
AcDbEntity
  8
0
  6
Continuous
 62
     7
370
    15
100
AcDbLine
 10
106.3233589874
 20
42.0689292603
 30
0.0
 11
106.3233589874
 21
44.2272247167
 31
0.0
  0
LINE
  5
39C
330
1F
100
AcDbEntity
  8
0
  6
Continuous
 62
     7
370
    15
100
AcDbLine
 10
103.8233589676
 20
44.2272247167
 30
0.0
 11
103.8233589676
 21
42.0689292603
 31
0.0
  0
LINE
  5
39D
330
1F
100
AcDbEntity
  8
0
  6
Continuous
 62
     7
370
    15
100
AcDbLine
 10
106.3233589874
 20
42.0265119874
 30
0.0
 11
106.3233589874
 21
42.0689292603
 31
0.0
  0
LINE
  5
39E
330
1F
100
AcDbEntity
  8
0
  6
Continuous
 62
     7
370
    15
100
AcDbLine
 10
103.8233589676
 20
42.0689292603
 30
0.0
 11
103.8233589676
 21
42.0265119874
 31
0.0
  0
ARC
  5
39F
330
1F
100
AcDbEntity
  8
0
  6
Continuous
 62
     7
370
    15
100
AcDbCircle
 10
125.9983581937
 20
57.1497335012
 30
0.0
 40
14.65792781009174
100
AcDbArc
 50
269.5113917871
 51
271.4659855139
  0
LINE
  5
3A0
330
1F
100
AcDbEntity
  8
0
  6
Continuous
 62
     7
370
    15
100
AcDbLine
 10
125.8733595085
 20
42.4923386776
 30
0.0
 11
124.3733594489
 21
42.4923386776
 31
0.0
  0
ARC
  5
3A1
330
1F
100
AcDbEntity
  8
0
  6
Continuous
 62
     7
370
    15
100
AcDbCircle
 10
124.2483598962
 20
57.1497628192
 30
0.0
 40
14.65795713437221
100
AcDbArc
 50
268.5340149851
 51
270.4886106266
  0
LINE
  5
3A2
330
1F
100
AcDbEntity
  8
0
  6
Continuous
 62
     7
370
    15
100
AcDbLine
 10
123.8733584356
 20
42.4966033899
 30
0.0
 11
123.8733584356
 21
42.5034843737
 31
0.0
  0
LINE
  5
3A3
330
1F
100
AcDbEntity
  8
0
  6
Continuous
 62
     7
370
    15
100
AcDbLine
 10
126.3733590317
 20
42.5034843737
 30
0.0
 11
126.3733590317
 21
42.4966033899
 31
0.0
  0
ARC
  5
3A4
330
1F
100
AcDbEntity
  8
0
  6
Continuous
 62
     7
370
    15
100
AcDbCircle
 10
124.2483598962
 20
56.8497737596
 30
0.0
 40
14.65795713437221
100
AcDbArc
 50
268.5340149851
 51
270.4886106266
  0
LINE
  5
3A5
330
1F
100
AcDbEntity
  8
0
  6
Continuous
 62
     7
370
    15
100
AcDbLine
 10
123.8733584356
 20
42.1966143304
 30
0.0
 11
123.8733584356
 21
42.4966033899
 31
0.0
  0
LINE
  5
3A6
330
1F
100
AcDbEntity
  8
0
  6
Continuous
 62
     7
370
    15
100
AcDbLine
 10
125.8733595085
 20
42.192349618
 30
0.0
 11
124.3733594489
 21
42.192349618
 31
0.0
  0
LINE
  5
3A7
330
1F
100
AcDbEntity
  8
0
  6
Continuous
 62
     7
370
    15
100
AcDbLine
 10
126.3733590317
 20
42.1966143304
 30
0.0
 11
126.3733590317
 21
42.4966033899
 31
0.0
  0
ARC
  5
3A8
330
1F
100
AcDbEntity
  8
0
  6
Continuous
 62
     7
370
    15
100
AcDbCircle
 10
125.9983581937
 20
56.8497444416
 30
0.0
 40
14.65792781009173
100
AcDbArc
 50
269.5113917871
 51
271.4659855139
  0
LINE
  5
3A9
330
1F
100
AcDbEntity
  8
0
  6
Continuous
 62
     7
370
    15
100
AcDbLine
 10
126.3733590317
 20
42.5034843737
 30
0.0
 11
126.3733590317
 21
42.5415367239
 31
0.0
  0
LINE
  5
3AA
330
1F
100
AcDbEntity
  8
0
  6
Continuous
 62
     7
370
    15
100
AcDbLine
 10
123.8733584356
 20
42.5415367239
 30
0.0
 11
123.8733584356
 21
42.5034843737
 31
0.0
  0
LINE
  5
3AB
330
1F
100
AcDbEntity
  8
0
  6
Continuous
 62
     7
370
    15
100
AcDbLine
 10
126.3733590317
 20
42.5415367239
 30
0.0
 11
126.3733590317
 21
44.7589313963
 31
0.0
  0
LINE
  5
3AC
330
1F
100
AcDbEntity
  8
0
  6
Continuous
 62
     7
370
    15
100
AcDbLine
 10
123.8733584356
 20
44.7589313963
 30
0.0
 11
123.8733584356
 21
42.5415367239
 31
0.0
  0
LINE
  5
3AD
330
1F
100
AcDbEntity
  8
0
  6
Continuous
 62
     7
370
    15
100
AcDbLine
 10
106.3233589874
 20
44.9541635231
 30
0.0
 11
106.3233589874
 21
44.5512486042
 31
0.0
  0
LINE
  5
3AE
330
1F
100
AcDbEntity
  8
0
  6
Continuous
 62
     7
370
    15
100
AcDbLine
 10
103.8233589676
 20
44.5512486042
 30
0.0
 11
103.8233589676
 21
44.9541635231
 31
0.0
  0
ARC
  5
3AF
330
1F
100
AcDbEntity
  8
0
  6
Continuous
 62
     7
370
    15
100
AcDbCircle
 10
106.1236589297
 20
44.2275253526
 30
0.0
 40
0.199700283982255
100
AcDbArc
 50
269.9139461475
 51
359.9137448692
  0
LINE
  5
3B0
330
1F
100
AcDbEntity
  8
0
  6
Continuous
 62
     7
370
    15
100
AcDbLine
 10
104.0233590004
 20
44.0278252938
 30
0.0
 11
106.1233589954
 21
44.0278252938
 31
0.0
  0
ARC
  5
3B1
330
1F
100
AcDbEntity
  8
0
  6
Continuous
 62
     7
370
    15
100
AcDbCircle
 10
104.0230591391
 20
44.2275254666
 30
0.0
 40
0.1997003979264124
100
AcDbArc
 50
180.0862878047
 51
270.0860328513
  0
LINE
  5
3B2
330
1F
100
AcDbEntity
  8
0
  6
Continuous
 62
     7
370
    15
100
AcDbLine
 10
106.3233589874
 20
44.2272247167
 30
0.0
 11
106.3233589874
 21
44.5512486042
 31
0.0
  0
LINE
  5
3B3
330
1F
100
AcDbEntity
  8
0
  6
Continuous
 62
     7
370
    15
100
AcDbLine
 10
103.8233589676
 20
44.5512486042
 30
0.0
 11
103.8233589676
 21
44.2272247167
 31
0.0
  0
ARC
  5
3B4
330
1F
100
AcDbEntity
  8
0
  6
Continuous
 62
     7
370
    15
100
AcDbCircle
 10
104.9103245439
 20
45.2220006194
 30
0.0
 40
0.2650838429029355
100
AcDbArc
 50
250.848430584
 51
269.9803330812
  0
ARC
  5
3B5
330
1F
100
AcDbEntity
  8
0
  6
Continuous
 62
     7
370
    15
100
AcDbCircle
 10
105.2620915119
 20
45.1109615155
 30
0.0
 40
0.1522453828032131
100
AcDbArc
 50
269.3007830786
 51
293.7299334295
  0
LINE
  5
3B6
330
1F
100
AcDbEntity
  8
0
  6
Continuous
 62
     7
370
    15
100
AcDbLine
 10
105.8233589695
 20
45.374290657
 30
0.0
 11
106.1233589954
 21
45.374290657
 31
0.0
  0
ARC
  5
3B7
330
1F
100
AcDbEntity
  8
0
  6
Continuous
 62
     7
370
    15
100
AcDbCircle
 10
106.1730590634
 20
44.7170360918
 30
0.0
 40
0.6591309886858404
100
AcDbArc
 50
76.8190358362
 51
94.3243444302
  0
LINE
  5
3B8
330
1F
100
AcDbEntity
  8
0
  6
Continuous
 62
     7
370
    15
100
AcDbLine
 10
105.3233590272
 20
44.9715881028
 30
0.0
 11
105.3233590272
 21
44.9909488091
 31
0.0
  0
ARC
  5
3B9
330
1F
100
AcDbEntity
  8
0
  6
Continuous
 62
     7
370
    15
100
AcDbCircle
 10
105.2627014033
 20
44.8545690007
 30
0.0
 40
0.1492608436806194
100
AcDbArc
 50
66.021944946
 51
90.9473385459
  0
ARC
  5
3BA
330
1F
100
AcDbEntity
  8
0
  6
Continuous
 62
     7
370
    15
100
AcDbCircle
 10
104.9114268653
 20
44.7340090137
 30
0.0
 40
0.271613727507108
100
AcDbArc
 50
90.2517249952
 51
108.9195113397
  0
LINE
  5
3BB
330
1F
100
AcDbEntity
  8
0
  6
Continuous
 62
     7
370
    15
100
AcDbLine
 10
104.8233589453
 20
44.9909488091
 30
0.0
 11
104.8233589453
 21
44.9715881028
 31
0.0
  0
LINE
  5
3BC
330
1F
100
AcDbEntity
  8
0
  6
Continuous
 62
     7
370
    15
100
AcDbLine
 10
103.8233589676
 20
44.9541635231
 30
0.0
 11
103.8233589676
 21
45.3588020874
 31
0.0
  0
ARC
  5
3BD
330
1F
100
AcDbEntity
  8
0
  6
Continuous
 62
     7
370
    15
100
AcDbCircle
 10
103.9736589808
 20
44.7170350711
 30
0.0
 40
0.6591320028278438
100
AcDbArc
 50
85.6756664574
 51
103.1809514791
  0
LINE
  5
3BE
330
1F
100
AcDbEntity
  8
0
  6
Continuous
 62
     7
370
    15
100
AcDbLine
 10
104.0233590004
 20
45.374290657
 30
0.0
 11
104.3233590496
 21
45.374290657
 31
0.0
  0
LINE
  5
3BF
330
1F
100
AcDbEntity
  8
0
  6
Continuous
 62
     7
370
    15
100
AcDbLine
 10
104.3233590496
 20
45.374290657
 30
0.0
 11
104.3233590496
 21
45.2310214636
 31
0.0
  0
LINE
  5
3C0
330
1F
100
AcDbEntity
  8
0
  6
Continuous
 62
     7
370
    15
100
AcDbLine
 10
104.3233590496
 20
45.2310214636
 30
0.0
 11
104.9102335532
 21
45.2310214636
 31
0.0
  0
LINE
  5
3C1
330
1F
100
AcDbEntity
  8
0
  6
Continuous
 62
     7
370
    15
100
AcDbLine
 10
105.2602336106
 20
45.2310214636
 30
0.0
 11
105.8233589695
 21
45.2310214636
 31
0.0
  0
LINE
  5
3C2
330
1F
100
AcDbEntity
  8
0
  6
Continuous
 62
     7
370
    15
100
AcDbLine
 10
105.8233589695
 20
45.2310214636
 30
0.0
 11
105.8233589695
 21
45.374290657
 31
0.0
  0
LINE
  5
3C3
330
1F
100
AcDbEntity
  8
0
  6
Continuous
 62
     7
370
    15
100
AcDbLine
 10
106.3233589874
 20
45.3588020874
 30
0.0
 11
106.3233589874
 21
44.9541635231
 31
0.0
  0
LINE
  5
3C4
330
1F
100
AcDbEntity
  8
0
  6
Continuous
 62
     7
370
    15
100
AcDbLine
 10
125.2444917631
 20
45.4621045503
 30
0.0
 11
126.3733590317
 21
45.4621045503
 31
0.0
  0
LINE
  5
3C5
330
1F
100
AcDbEntity
  8
0
  6
Continuous
 62
     7
370
    15
100
AcDbLine
 10
126.3733590317
 20
45.4621045503
 30
0.0
 11
126.3733590317
 21
45.0839195752
 31
0.0
  0
LINE
  5
3C6
330
1F
100
AcDbEntity
  8
0
  6
Continuous
 62
     7
370
    15
100
AcDbLine
 10
123.8733584356
 20
45.4621045503
 30
0.0
 11
125.0143865419
 21
45.4621045503
 31
0.0
  0
LINE
  5
3C7
330
1F
100
AcDbEntity
  8
0
  6
Continuous
 62
     7
370
    15
100
AcDbLine
 10
125.0143865419
 20
45.4621045503
 30
0.0
 11
125.0303456855
 21
45.461920521
 31
0.0
  0
LINE
  5
3C8
330
1F
100
AcDbEntity
  8
0
  6
Continuous
 62
     7
370
    15
100
AcDbLine
 10
123.8733584356
 20
45.0839195752
 30
0.0
 11
123.8733584356
 21
45.4621045503
 31
0.0
  0
LINE
  5
3C9
330
1F
100
AcDbEntity
  8
0
  6
Continuous
 62
     7
370
    15
100
AcDbLine
 10
126.3733590317
 20
44.7589313963
 30
0.0
 11
126.3733590317
 21
45.0839195752
 31
0.0
  0
ARC
  5
3CA
330
1F
100
AcDbEntity
  8
0
  6
Continuous
 62
     7
370
    15
100
AcDbCircle
 10
126.1733626052
 20
44.7589351474
 30
0.0
 40
0.1999964265378161
100
AcDbArc
 50
269.9988601348
 51
359.9989253515
  0
LINE
  5
3CB
330
1F
100
AcDbEntity
  8
0
  6
Continuous
 62
     7
370
    15
100
AcDbLine
 10
124.073358841
 20
44.5589387209
 30
0.0
 11
126.1733586264
 21
44.5589387209
 31
0.0
  0
ARC
  5
3CC
330
1F
100
AcDbEntity
  8
0
  6
Continuous
 62
     7
370
    15
100
AcDbCircle
 10
124.0733557101
 20
44.7589359954
 30
0.0
 40
0.1999972744598623
100
AcDbArc
 50
180.0013175634
 51
270.0008969503
  0
LINE
  5
3CD
330
1F
100
AcDbEntity
  8
0
  6
Continuous
 62
     7
370
    15
100
AcDbLine
 10
123.8733584356
 20
45.0839195752
 30
0.0
 11
123.8733584356
 21
44.7589313963
 31
0.0
  0
ARC
  5
3CE
330
1F
100
AcDbEntity
  8
0
  6
Continuous
 62
     7
370
    15
100
AcDbCircle
 10
124.9886566507
 20
48.7539759075
 30
0.0
 40
3.2919719105086
100
AcDbArc
 50
267.9928681411
 51
270.4478255649
  0
ARC
  5
3CF
330
1F
100
AcDbEntity
  8
0
  6
Continuous
 62
     7
370
    15
100
AcDbCircle
 10
125.2741182674
 20
48.2061744568
 30
0.0
 40
2.743945950065286
100
AcDbArc
 50
269.7595125792
 51
272.072667119
  0
LINE
  5
3D0
330
1F
100
AcDbEntity
  8
0
  6
Continuous
 62
     7
370
    15
100
AcDbLine
 10
125.8733595085
 20
45.5083776617
 30
0.0
 11
126.1733586264
 21
45.5083776617
 31
0.0
  0
ARC
  5
3D1
330
1F
100
AcDbEntity
  8
0
  6
Continuous
 62
     7
370
    15
100
AcDbCircle
 10
126.2233540339
 20
39.6450345588
 30
0.0
 40
5.8635562487508
100
AcDbArc
 50
88.534065219
 51
90.488536382
  0
LINE
  5
3D2
330
1F
100
AcDbEntity
  8
0
  6
Continuous
 62
     7
370
    15
100
AcDbLine
 10
126.3733590317
 20
45.5066717348
 30
0.0
 11
126.3733590317
 21
45.4621045503
 31
0.0
  0
LINE
  5
3D3
330
1F
100
AcDbEntity
  8
0
  6
Continuous
 62
     7
370
    15
100
AcDbLine
 10
125.3733584953
 20
45.4640237035
 30
0.0
 11
125.3733584953
 21
45.4661561062
 31
0.0
  0
ARC
  5
3D4
330
1F
100
AcDbEntity
  8
0
  6
Continuous
 62
     7
370
    15
100
AcDbCircle
 10
125.3123583422
 20
44.1823745335
 30
0.0
 40
1.285229996937546
100
AcDbArc
 50
87.2795804134
 51
90.2061641829
  0
ARC
  5
3D5
330
1F
100
AcDbEntity
  8
0
  6
Continuous
 62
     7
370
    15
100
AcDbCircle
 10
124.9451606429
 20
43.9026172524
 30
0.0
 40
1.565186642957153
100
AcDbArc
 50
89.5397369596
 51
92.6293202861
  0
LINE
  5
3D6
330
1F
100
AcDbEntity
  8
0
  6
Continuous
 62
     7
370
    15
100
AcDbLine
 10
124.8733589721
 20
45.4661561062
 30
0.0
 11
124.8733589721
 21
45.4640237035
 31
0.0
  0
LINE
  5
3D7
330
1F
100
AcDbEntity
  8
0
  6
Continuous
 62
     7
370
    15
100
AcDbLine
 10
123.8733584356
 20
45.4621045503
 30
0.0
 11
123.8733584356
 21
45.5066717348
 31
0.0
  0
ARC
  5
3D8
330
1F
100
AcDbEntity
  8
0
  6
Continuous
 62
     7
370
    15
100
AcDbCircle
 10
124.0233639816
 20
39.6449702931
 30
0.0
 40
5.863620507515815
100
AcDbArc
 50
89.5114743284
 51
91.4659240705
  0
LINE
  5
3D9
330
1F
100
AcDbEntity
  8
0
  6
Continuous
 62
     7
370
    15
100
AcDbLine
 10
124.073358841
 20
45.5083776617
 30
0.0
 11
124.3733594489
 21
45.5083776617
 31
0.0
  0
LINE
  5
3DA
330
1F
100
AcDbEntity
  8
0
  6
Continuous
 62
     7
370
    15
100
AcDbLine
 10
124.3733594489
 20
45.5083776617
 30
0.0
 11
124.3733594489
 21
45.4925978908
 31
0.0
  0
LINE
  5
3DB
330
1F
100
AcDbEntity
  8
0
  6
Continuous
 62
     7
370
    15
100
AcDbLine
 10
124.3733594489
 20
45.4925978908
 30
0.0
 11
124.9577338171
 21
45.4925978908
 31
0.0
  0
LINE
  5
3DC
330
1F
100
AcDbEntity
  8
0
  6
Continuous
 62
     7
370
    15
100
AcDbLine
 10
125.3077337814
 20
45.4925978908
 30
0.0
 11
125.8733595085
 21
45.4925978908
 31
0.0
  0
LINE
  5
3DD
330
1F
100
AcDbEntity
  8
0
  6
Continuous
 62
     7
370
    15
100
AcDbLine
 10
125.8733595085
 20
45.4925978908
 30
0.0
 11
125.8733595085
 21
45.5083776617
 31
0.0
  0
LINE
  5
3DE
330
1F
100
AcDbEntity
  8
0
  6
Continuous
 62
     7
370
    15
100
AcDbLine
 10
124.4233588052
 20
45.4925978908
 30
0.0
 11
124.4233588052
 21
45.5126036776
 31
0.0
  0
LINE
  5
3DF
330
1F
100
AcDbEntity
  8
0
  6
Continuous
 62
     7
370
    15
100
AcDbLine
 10
125.8233586621
 20
45.5126036776
 30
0.0
 11
125.8233586621
 21
45.4925978908
 31
0.0
  0
LINE
  5
3E0
330
1F
100
AcDbEntity
  8
0
  6
Continuous
 62
     7
370
    15
100
AcDbLine
 10
105.7733590079
 20
45.5126036776
 30
0.0
 11
105.7733590079
 21
45.4676036609
 31
0.0
  0
LINE
  5
3E1
330
1F
100
AcDbEntity
  8
0
  6
Continuous
 62
     7
370
    15
100
AcDbLine
 10
105.7733590079
 20
45.4676036609
 30
0.0
 11
105.6233589833
 21
45.4676036609
 31
0.0
  0
LINE
  5
3E2
330
1F
100
AcDbEntity
  8
0
  6
Continuous
 62
     7
370
    15
100
AcDbLine
 10
105.6233589833
 20
45.4676036609
 30
0.0
 11
105.2602336106
 21
45.4676036609
 31
0.0
  0
LINE
  5
3E3
330
1F
100
AcDbEntity
  8
0
  6
Continuous
 62
     7
370
    15
100
AcDbLine
 10
104.9102335532
 20
45.4676036609
 30
0.0
 11
104.5233590824
 21
45.4676036609
 31
0.0
  0
LINE
  5
3E4
330
1F
100
AcDbEntity
  8
0
  6
Continuous
 62
     7
370
    15
100
AcDbLine
 10
104.3733589646
 20
45.4676036609
 30
0.0
 11
104.3733589646
 21
45.5126036776
 31
0.0
  0
LINE
  5
3E5
330
1F
100
AcDbEntity
  8
0
  6
Continuous
 62
     7
370
    15
100
AcDbLine
 10
104.5233590824
 20
45.4676036609
 30
0.0
 11
104.3733589646
 21
45.4676036609
 31
0.0
  0
LINE
  5
3E6
330
1F
100
AcDbEntity
  8
0
  6
Continuous
 62
     7
370
    15
100
AcDbLine
 10
105.7733590079
 20
45.4551036588
 30
0.0
 11
105.7733590079
 21
45.4676036609
 31
0.0
  0
LINE
  5
3E7
330
1F
100
AcDbEntity
  8
0
  6
Continuous
 62
     7
370
    15
100
AcDbLine
 10
104.3733589646
 20
45.4551036588
 30
0.0
 11
104.3733589646
 21
45.4676036609
 31
0.0
  0
LINE
  5
3E8
330
1F
100
AcDbEntity
  8
0
  6
Continuous
 62
     7
370
    15
100
AcDbLine
 10
105.7733590079
 20
45.3571036809
 30
0.0
 11
105.7733590079
 21
45.4551036588
 31
0.0
  0
LINE
  5
3E9
330
1F
100
AcDbEntity
  8
0
  6
Continuous
 62
     7
370
    15
100
AcDbLine
 10
104.3733589646
 20
45.3571036809
 30
0.0
 11
104.3733589646
 21
45.4551036588
 31
0.0
  0
LINE
  5
3EA
330
1F
100
AcDbEntity
  8
0
  6
Continuous
 62
     7
370
    15
100
AcDbLine
 10
105.7733590079
 20
45.2310214636
 30
0.0
 11
105.7733590079
 21
45.3571036809
 31
0.0
  0
LINE
  5
3EB
330
1F
100
AcDbEntity
  8
0
  6
Continuous
 62
     7
370
    15
100
AcDbLine
 10
104.3733589646
 20
45.2310214636
 30
0.0
 11
104.3733589646
 21
45.3571036809
 31
0.0
  0
LWPOLYLINE
  5
3EC
330
1F
100
AcDbEntity
  8
0
  6
Continuous
 62
     7
370
    15
100
AcDbPolyline
 90
       15
 70
   128
 43
0.0
 10
120.948358841
 20
44.9026036428
 10
120.944599278
 20
44.8938595482
 10
120.9333772135
 20
44.8677585812
 10
120.9148625207
 20
44.824693294
 10
120.8893323612
 20
44.7653112353
 10
120.8571696949
 20
44.6905055435
 10
120.8188602996
 20
44.6014009767
 10
120.7749808502
 20
44.4993374289
 10
120.726188488
 20
44.3858499059
 10
120.6732178402
 20
44.2626447768
 10
120.6168661189
 20
44.1315748149
 10
120.5579797101
 20
43.9946111643
 10
120.4974452329
 20
43.8538132587
 10
120.4361731482
 20
43.711298553
 10
120.3750843477
 20
43.5692100206
  0
LWPOLYLINE
  5
3ED
330
1F
100
AcDbEntity
  8
0
  6
Continuous
 62
     7
370
    15
100
AcDbPolyline
 90
       15
 70
   128
 43
0.0
 10
114.771633066
 20
43.5692100206
 10
114.7105442655
 20
43.711298553
 10
114.6492721808
 20
43.8538132587
 10
114.5887377036
 20
43.9946111643
 10
114.5298520398
 20
44.1315748149
 10
114.4735003185
 20
44.2626447768
 10
114.4205304158
 20
44.3858499059
 10
114.3717380536
 20
44.4993374289
 10
114.3278571141
 20
44.6014009767
 10
114.2895477188
 20
44.6905055435
 10
114.2573857975
 20
44.7653112353
 10
114.231855638
 20
44.824693294
 10
114.2133402002
 20
44.8677585812
 10
114.2021181357
 20
44.8938595482
 10
114.1983593178
 20
44.9026036428
  0
LINE
  5
3EE
330
1F
100
AcDbEntity
  8
0
  6
Continuous
 62
     7
370
    15
100
AcDbLine
 10
120.3750843477
 20
43.5692100206
 30
0.0
 11
119.0388450694
 21
40.4612169021
 31
0.0
  0
LINE
  5
3EF
330
1F
100
AcDbEntity
  8
0
  6
Continuous
 62
     7
370
    15
100
AcDbLine
 10
116.1078723443
 20
40.4612169021
 30
0.0
 11
114.771633066
 21
43.5692100206
 31
0.0
  0
LINE
  5
3F0
330
1F
100
AcDbEntity
  8
0
  6
Continuous
 62
     7
370
    15
100
AcDbLine
 10
116.7604791296
 20
38.9433026665
 30
0.0
 11
116.7604791296
 21
44.9026036428
 31
0.0
  0
LWPOLYLINE
  5
3F1
330
1F
100
AcDbEntity
  8
0
  6
Continuous
 62
     7
370
    15
100
AcDbPolyline
 90
        4
 70
   128
 43
0.0
 10
116.7604791296
 20
38.9433026665
 10
116.5424140465
 20
39.450505411
 10
116.3248436821
 20
39.9565574133
 10
116.1078723443
 20
40.4612169021
  0
LINE
  5
3F2
330
1F
100
AcDbEntity
  8
0
  6
Continuous
 62
     7
370
    15
100
AcDbLine
 10
118.3862390292
 20
38.9433026665
 30
0.0
 11
118.3862390292
 21
44.9026036428
 31
0.0
  0
LWPOLYLINE
  5
3F3
330
1F
100
AcDbEntity
  8
0
  6
Continuous
 62
     7
370
    15
100
AcDbPolyline
 90
        4
 70
   128
 43
0.0
 10
119.0388450694
 20
40.4612169021
 10
118.8218744767
 20
39.9565574133
 10
118.6043041122
 20
39.450505411
 10
118.3862390292
 20
38.9433026665
  0
ARC
  5
3F4
330
1F
100
AcDbEntity
  8
0
  6
Continuous
 62
     7
370
    15
100
AcDbCircle
 10
117.5733589893
 20
37.6855497248
 30
0.0
 40
0.2500000000000062
100
AcDbArc
 50
203.2646248058
 51
336.7353751942
  0
CIRCLE
  5
3F5
330
1F
100
AcDbEntity
  8
0
  6
Continuous
 62
     7
370
    15
100
AcDbCircle
 10
117.5733589893
 20
38.0526036661
 30
0.0
 40
0.25
  0
LINE
  5
3F6
330
1F
100
AcDbEntity
  8
0
  6
Continuous
 62
     7
370
    15
100
AcDbLine
 10
118.3862390292
 20
38.9433026665
 30
0.0
 11
117.8030314219
 21
37.5868052596
 31
0.0
  0
LINE
  5
3F7
330
1F
100
AcDbEntity
  8
0
  6
Continuous
 62
     7
370
    15
100
AcDbLine
 10
117.3436867368
 20
37.5868052596
 30
0.0
 11
116.7604791296
 21
38.9433026665
 31
0.0
  0
ARC
  5
3F8
330
1F
100
AcDbEntity
  8
0
  6
Continuous
 62
     7
370
    15
100
AcDbCircle
 10
117.5733589893
 20
38.0526036661
 30
0.0
 40
5.000000000000014
100
AcDbArc
 50
0.0
 51
62.2045358506
  0
ARC
  5
3F9
330
1F
100
AcDbEntity
  8
0
  6
Continuous
 62
     7
370
    15
100
AcDbCircle
 10
117.5733589893
 20
38.0526036661
 30
0.0
 40
5.000000000000014
100
AcDbArc
 50
117.7954641494
 51
0.0
  0
LINE
  5
3FA
330
1F
100
AcDbEntity
  8
0
  6
Continuous
 62
     7
370
    15
100
AcDbLine
 10
84.8233590198
 20
44.303858781
 30
0.0
 11
88.1833592725
 21
44.303858781
 31
0.0
  0
LINE
  5
3FB
330
1F
100
AcDbEntity
  8
0
  6
Continuous
 62
     7
370
    15
100
AcDbLine
 10
85.0646088195
 20
45.4263587601
 30
0.0
 11
87.9421094728
 21
45.4263587601
 31
0.0
  0
LINE
  5
3FC
330
1F
100
AcDbEntity
  8
0
  6
Continuous
 62
     7
370
    15
100
AcDbLine
 10
85.0646088195
 20
44.4138587804
 30
0.0
 11
87.9421094728
 21
44.4138587804
 31
0.0
  0
CIRCLE
  5
3FD
330
1F
100
AcDbEntity
  8
0
  6
Continuous
 62
     7
370
    15
100
AcDbCircle
 10
82.8033589893
 20
38.1788587663
 30
0.0
 40
0.2000000000000028
  0
LINE
  5
3FE
330
1F
100
AcDbEntity
  8
0
  6
Continuous
 62
     7
370
    15
100
AcDbLine
 10
82.6174522114
 20
37.8568590039
 30
0.0
 11
82.9892659855
 21
37.8568590039
 31
0.0
  0
LINE
  5
3FF
330
1F
100
AcDbEntity
  8
0
  6
Continuous
 62
     7
370
    15
100
AcDbLine
 10
83.1751728726
 20
38.1788589412
 30
0.0
 11
82.9892659855
 21
38.5008588785
 31
0.0
  0
LINE
  5
400
330
1F
100
AcDbEntity
  8
0
  6
Continuous
 62
     7
370
    15
100
AcDbLine
 10
82.6174522114
 20
38.5008588785
 30
0.0
 11
82.4315453243
 21
38.1788589412
 31
0.0
  0
LINE
  5
401
330
1F
100
AcDbEntity
  8
0
  6
Continuous
 62
     7
370
    15
100
AcDbLine
 10
82.9892659855
 20
38.5008588785
 30
0.0
 11
82.6174522114
 21
38.5008588785
 31
0.0
  0
LINE
  5
402
330
1F
100
AcDbEntity
  8
0
  6
Continuous
 62
     7
370
    15
100
AcDbLine
 10
82.9892659855
 20
37.8568590039
 30
0.0
 11
83.1751728726
 21
38.1788589412
 31
0.0
  0
LINE
  5
403
330
1F
100
AcDbEntity
  8
0
  6
Continuous
 62
     7
370
    15
100
AcDbLine
 10
82.4315453243
 20
38.1788589412
 30
0.0
 11
82.6174522114
 21
37.8568590039
 31
0.0
  0
SPLINE
  5
404
330
1F
100
AcDbEntity
  8
0
  6
Continuous
 62
     7
370
    15
100
AcDbSpline
210
0.0
220
0.0
230
1.0
 70
     8
 71
     3
 72
    13
 73
     9
 74
     0
 42
0.00000001
 43
0.00000001
 40
0.0
 40
0.0
 40
0.0
 40
0.0
 40
0.2033563983335948
 40
0.4065853885781369
 40
0.6133863686415003
 40
0.8283815061949564
 40
0.9969667459259969
 40
1.0
 40
1.0
 40
1.0
 40
1.0
 10
85.41048414231975
 20
43.80385879215552
 30
0.0
 10
85.41094849645944
 20
43.82020312131979
 30
0.0
 10
85.41187691380884
 20
43.85288153949969
 30
0.0
 10
85.41910198227137
 20
43.89654453060433
 30
0.0
 10
85.42990280456178
 20
43.93065176760076
 30
0.0
 10
85.4427633240911
 20
43.94985903912149
 30
0.0
 10
85.45189436069015
 20
43.95384061390129
 30
0.0
 10
85.45596943788928
 20
43.95385840909086
 30
0.0
 10
85.4560414624377
 20
43.95385872361018
 30
0.0
  0
LINE
  5
405
330
1F
100
AcDbEntity
  8
0
  6
Continuous
 62
     7
370
    15
100
AcDbLine
 10
85.4560414624
 20
43.9538587236
 30
0.0
 11
88.35335917
 21
43.9538587236
 31
0.0
  0
LINE
  5
406
330
1F
100
AcDbEntity
  8
0
  6
Continuous
 62
     7
370
    15
100
AcDbLine
 10
87.8033588004
 20
43.2038586938
 30
0.0
 11
88.5033587289
 21
43.2038586938
 31
0.0
  0
LINE
  5
407
330
1F
100
AcDbEntity
  8
0
  6
Continuous
 62
     7
370
    15
100
AcDbLine
 10
85.4104841423
 20
38.0762704068
 30
0.0
 11
85.4104841423
 21
43.8038587922
 31
0.0
  0
SPLINE
  5
408
330
1F
100
AcDbEntity
  8
0
  6
Continuous
 62
     7
370
    15
100
AcDbSpline
210
0.0
220
0.0
230
1.0
 70
    11
 71
     3
 72
    27
 73
    23
 74
     0
 42
0.00000001
 43
0.00000001
 40
0.0
 40
0.0
 40
0.0
 40
0.0
 40
0.0535140056077849
 40
0.0702820935562528
 40
0.1237701462890766
 40
0.177259994616814
 40
0.2306874627573153
 40
0.2840336019668913
 40
0.3375580740907624
 40
0.3915914546416722
 40
0.4460160279032526
 40
0.5001027414542591
 40
0.5532232565377568
 40
0.6056834020350728
 40
0.6584589618299359
 40
0.7121846557455864
 40
0.7665705364620394
 40
0.8208256147252961
 40
0.8745348432159186
 40
0.9279100188113648
 40
0.9812935314032752
 40
1.0
 40
1.0
 40
1.0
 40
1.0
 10
86.50335914613444
 20
42.80885871288135
 30
0.0
 10
86.50037084018642
 20
42.8318528438306
 30
0.0
 10
86.49644617792599
 20
42.86205195982398
 30
0.0
 10
86.50576721445697
 20
42.91449151060938
 30
0.0
 10
86.52613389599722
 20
42.96459970271065
 30
0.0
 10
86.57278956400285
 20
43.01692890650192
 30
0.0
 10
86.63395775384728
 20
43.05089015540633
 30
0.0
 10
86.70275985852534
 20
43.062731862863
 30
0.0
 10
86.7716222661337
 20
43.05128722541237
 30
0.0
 10
86.83314226565206
 20
43.01762678570713
 30
0.0
 10
86.88025459353405
 20
42.96515518559939
 30
0.0
 10
86.90713543511873
 20
42.90001047200878
 30
0.0
 10
86.91084935469837
 20
42.83030214988495
 30
0.0
 10
86.89175943801241
 20
42.76392342397922
 30
0.0
 10
86.85220288097685
 20
42.70739108250453
 30
0.0
 10
86.7958246507805
 20
42.66650168643156
 30
0.0
 10
86.72836591194336
 20
42.64636513394515
 30
0.0
 10
86.65781275930549
 20
42.6499098744079
 30
0.0
 10
86.59262908545465
 20
42.67666424419267
 30
0.0
 10
86.54045110540147
 20
42.7232695576547
 30
0.0
 10
86.51327558454636
 20
42.77118664727134
 30
0.0
 10
86.5054021945596
 20
42.80109727161384
 30
0.0
 10
86.50335914613444
 20
42.80885871288135
 30
0.0
  0
LWPOLYLINE
  5
409
330
1F
100
AcDbEntity
  8
0
  6
Continuous
 62
     7
370
    15
100
AcDbPolyline
 90
       22
 70
   128
 43
0.0
 10
85.4104841423
 20
38.0762704068
 10
85.5150172782
 20
38.3002683872
 10
85.6232533527
 20
38.532202726
 10
85.7347870541
 20
38.7712039405
 10
85.8491996598
 20
39.0163757258
 10
85.9660649967
 20
39.2668009156
 10
86.0849434805
 20
39.5215399915
 10
86.2053895664
 20
39.7796385342
 10
86.3269517493
 20
40.0401298308
 10
86.4491755438
 20
40.3020378554
 10
86.5716019941
 20
40.5643806213
 10
86.6937736345
 20
40.826175397
 10
86.8152315092
 20
41.0864416861
 10
86.9355196428
 20
41.3442034626
 10
87.0541895104
 20
41.5984951311
 10
87.1707940769
 20
41.8483637625
 10
87.2848997188
 20
42.0928735637
 10
87.3960757923
 20
42.331107741
 10
87.5039065552
 20
42.5621737146
 10
87.6079881859
 20
42.7852059135
 10
87.707930274
 20
42.9993683824
 10
87.8033588004
 20
43.2038586938
  0
LWPOLYLINE
  5
40A
330
1F
100
AcDbEntity
  8
0
  6
Continuous
 62
     7
370
    15
100
AcDbPolyline
 90
        9
 70
   128
 43
0.0
 10
83.4644699764
 20
43.8038587922
 10
83.4720576477
 20
43.8331222513
 10
83.4793517661
 20
43.8612612316
 10
83.4860751701
 20
43.8871942812
 10
83.4919685793
 20
43.9099246987
 10
83.4968054962
 20
43.9285792762
 10
83.5003981662
 20
43.9424407088
 10
83.5026124787
 20
43.9509764665
 10
83.5033590269
 20
43.9538587236
  0
LINE
  5
40B
330
1F
100
AcDbEntity
  8
0
  6
Continuous
 62
     7
370
    15
100
AcDbLine
 10
83.5033590269
 20
43.9538587236
 30
0.0
 11
85.4560414624
 21
43.9538587236
 31
0.0
  0
SPLINE
  5
40C
330
1F
100
AcDbEntity
  8
0
  6
Continuous
 62
     7
370
    15
100
AcDbSpline
210
0.0
220
0.0
230
1.0
 70
     8
 71
     3
 72
    11
 73
     7
 74
     0
 42
0.00000001
 43
0.00000001
 40
0.0
 40
0.0
 40
0.0
 40
0.0
 40
0.103186028422092
 40
0.5513804563067546
 40
0.9995816462742041
 40
1.0
 40
1.0
 40
1.0
 40
1.0
 10
86.50015986682612
 20
42.86960162010743
 30
0.0
 10
86.49943196365047
 20
42.86435108204692
 30
0.0
 10
86.4955423713163
 20
42.83629453102027
 30
0.0
 10
86.50827312864928
 20
42.78588319371121
 30
0.0
 10
86.52625672520129
 20
42.74115712774318
 30
0.0
 10
86.54330369320229
 20
42.72577933552679
 30
0.0
 10
86.54331959010798
 20
42.72576499518706
 30
0.0
  0
ARC
  5
40D
330
1F
100
AcDbEntity
  8
0
  6
Continuous
 62
     7
370
    15
100
AcDbCircle
 10
82.3995191997
 20
37.7038587663
 30
0.0
 40
0.5
100
AcDbArc
 50
165.4655449195
 51
270.0
  0
ARC
  5
40E
330
1F
100
AcDbEntity
  8
0
  6
Continuous
 62
     7
370
    15
100
AcDbCircle
 10
84.6849274774
 20
37.7038587663
 30
0.0
 40
0.5
100
AcDbArc
 50
270.0
 51
334.9831065219
  0
LINE
  5
40F
330
1F
100
AcDbEntity
  8
0
  6
Continuous
 62
     7
370
    15
100
AcDbLine
 10
82.3995197487
 20
37.2038588279
 30
0.0
 11
84.6849272323
 21
37.2038588279
 31
0.0
  0
CIRCLE
  5
410
330
1F
100
AcDbEntity
  8
0
  6
Continuous
 62
     7
370
    15
100
AcDbCircle
 10
84.8533589893
 20
43.5038587663
 30
0.0
 40
0.1599999999999966
  0
LINE
  5
411
330
1F
100
AcDbEntity
  8
0
  6
Continuous
 62
     7
370
    15
100
AcDbLine
 10
83.4644699764
 20
43.8038587922
 30
0.0
 11
81.9155210924
 21
37.8293395394
 31
0.0
  0
LINE
  5
412
330
1F
100
AcDbEntity
  8
0
  6
Continuous
 62
     7
370
    15
100
AcDbLine
 10
85.1380193901
 20
37.4924160891
 30
0.0
 11
85.4104841423
 21
38.0762704068
 31
0.0
  0
ARC
  5
413
330
1F
100
AcDbEntity
  8
0
  6
Continuous
 62
     7
370
    15
100
AcDbCircle
 10
82.8033589893
 20
38.1788587663
 30
0.0
 40
3.500000000000008
100
AcDbArc
 50
0.0
 51
21.5580934531
  0
ARC
  5
414
330
1F
100
AcDbEntity
  8
0
  6
Continuous
 62
     7
370
    15
100
AcDbCircle
 10
82.8033589893
 20
38.1788587663
 30
0.0
 40
3.500000000000008
100
AcDbArc
 50
88.2032528214
 51
0.0
  0
ARC
  5
415
330
1F
100
AcDbEntity
  8
0
  6
Continuous
 62
     7
370
    15
100
AcDbCircle
 10
82.8033589893
 20
38.1788587663
 30
0.0
 40
4.050000000000011
100
AcDbArc
 50
86.4501564022
 51
180.0
  0
ARC
  5
416
330
1F
100
AcDbEntity
  8
0
  6
Continuous
 62
     7
370
    15
100
AcDbCircle
 10
82.8033589893
 20
38.1788587663
 30
0.0
 40
4.050000000000011
100
AcDbArc
 50
180.0
 51
28.5379265952
  0
ARC
  5
417
330
1F
100
AcDbEntity
  8
0
  6
Continuous
 62
     7
370
    15
100
AcDbCircle
 10
82.8033589893
 20
38.1788587663
 30
0.0
 40
2.372500000000008
100
AcDbArc
 50
94.4476206529
 51
339.1011221922
  0
ARC
  5
418
330
1F
100
AcDbEntity
  8
0
  6
Continuous
 62
     7
370
    15
100
AcDbCircle
 10
82.8033589893
 20
38.1788587663
 30
0.0
 40
2.222499999999999
100
AcDbArc
 50
95.7832518414
 51
334.4199563895
  0
ARC
  5
419
330
1F
100
AcDbEntity
  8
0
  6
Continuous
 62
     7
370
    15
100
AcDbCircle
 10
82.8033589893
 20
38.1788587663
 30
0.0
 40
4.0505
100
AcDbArc
 50
180.0
 51
28.5431494623
  0
ARC
  5
41A
330
1F
100
AcDbEntity
  8
0
  6
Continuous
 62
     7
370
    15
100
AcDbCircle
 10
82.8033589893
 20
38.1788587663
 30
0.0
 40
4.050500000000001
100
AcDbArc
 50
86.4487835869
 51
180.0
  0
ARC
  5
41B
330
1F
100
AcDbEntity
  8
0
  6
Continuous
 62
     7
370
    15
100
AcDbCircle
 10
82.8033589893
 20
38.1788587663
 30
0.0
 40
5.000000000000003
100
AcDbArc
 50
84.3441655409
 51
0.0
  0
ARC
  5
41C
330
1F
100
AcDbEntity
  8
0
  6
Continuous
 62
     7
370
    15
100
AcDbCircle
 10
82.8033589893
 20
38.1788587663
 30
0.0
 40
5.000000000000002
100
AcDbArc
 50
0.0
 51
36.2203962097
  0
LINE
  5
41D
330
1F
100
AcDbEntity
  8
0
  6
Continuous
 62
     7
370
    15
100
AcDbLine
 10
83.3758587313
 20
48.3251037427
 30
0.0
 11
83.7246084881
 21
48.3251037427
 31
0.0
  0
LINE
  5
41E
330
1F
100
AcDbEntity
  8
0
  6
Continuous
 62
     7
370
    15
100
AcDbLine
 10
83.0271089745
 20
48.3251037427
 30
0.0
 11
83.3758587313
 21
48.3251037427
 31
0.0
  0
LINE
  5
41F
330
1F
100
AcDbEntity
  8
0
  6
Continuous
 62
     7
370
    15
100
AcDbLine
 10
81.8758586717
 20
48.3251037427
 30
0.0
 11
82.2246084285
 21
48.3251037427
 31
0.0
  0
LINE
  5
420
330
1F
100
AcDbEntity
  8
0
  6
Continuous
 62
     7
370
    15
100
AcDbLine
 10
81.5271089149
 20
48.3251037427
 30
0.0
 11
81.8758586717
 21
48.3251037427
 31
0.0
  0
LINE
  5
421
330
1F
100
AcDbEntity
  8
0
  6
Continuous
 62
     7
370
    15
100
AcDbLine
 10
130.7533586693
 20
51.7871696853
 30
0.0
 11
130.7533586693
 21
51.7613537961
 31
0.0
  0
LINE
  5
422
330
1F
100
AcDbEntity
  8
0
  6
Continuous
 62
     7
370
    15
100
AcDbLine
 10
130.7533586693
 20
52.1359198147
 30
0.0
 11
130.7533586693
 21
51.7871696853
 31
0.0
  0
LINE
  5
423
330
1F
100
AcDbEntity
  8
0
  6
Continuous
 62
     7
370
    15
100
AcDbLine
 10
130.7533586693
 20
50.2871696257
 30
0.0
 11
130.7533586693
 21
49.9384194964
 31
0.0
  0
LINE
  5
424
330
1F
100
AcDbEntity
  8
0
  6
Continuous
 62
     7
370
    15
100
AcDbLine
 10
130.7533586693
 20
50.6359193825
 30
0.0
 11
130.7533586693
 21
50.2871696257
 31
0.0
  0
LINE
  5
425
330
1F
100
AcDbEntity
  8
0
  6
Continuous
 62
     7
370
    15
100
AcDbLine
 10
130.7533586693
 20
84.2626028114
 30
0.0
 11
130.7533586693
 21
83.9138530546
 31
0.0
  0
LINE
  5
426
330
1F
100
AcDbEntity
  8
0
  6
Continuous
 62
     7
370
    15
100
AcDbLine
 10
130.7533586693
 20
84.6113525682
 30
0.0
 11
130.7533586693
 21
84.2626028114
 31
0.0
  0
LINE
  5
427
330
1F
100
AcDbEntity
  8
0
  6
Continuous
 62
     7
370
    15
100
AcDbLine
 10
130.7533586693
 20
51.4126036668
 30
0.0
 11
130.7533586693
 21
51.0638535374
 31
0.0
  0
LINE
  5
428
330
1F
100
AcDbEntity
  8
0
  6
Continuous
 62
     7
370
    15
100
AcDbLine
 10
130.7533586693
 20
51.7613537961
 30
0.0
 11
130.7533586693
 21
51.4126036668
 31
0.0
  0
LINE
  5
429
330
1F
100
AcDbEntity
  8
0
  6
Continuous
 62
     7
370
    15
100
AcDbLine
 10
84.5483595801
 20
72.0626049095
 30
0.0
 11
84.5483595801
 21
72.4113546663
 31
0.0
  0
LINE
  5
42A
330
1F
100
AcDbEntity
  8
0
  6
Continuous
 62
     7
370
    15
100
AcDbLine
 10
84.5483595801
 20
71.7138551527
 30
0.0
 11
84.5483595801
 21
72.0626049095
 31
0.0
  0
LINE
  5
42B
330
1F
100
AcDbEntity
  8
0
  6
Continuous
 62
     7
370
    15
100
AcDbLine
 10
84.5483595801
 20
84.6376024538
 30
0.0
 11
84.5483595801
 21
84.9863522106
 31
0.0
  0
LINE
  5
42C
330
1F
100
AcDbEntity
  8
0
  6
Continuous
 62
     7
370
    15
100
AcDbLine
 10
84.5483595801
 20
84.288852697
 30
0.0
 11
84.5483595801
 21
84.6376024538
 31
0.0
  0
LINE
  5
42D
330
1F
100
AcDbEntity
  8
0
  6
Continuous
 62
     7
370
    15
100
AcDbLine
 10
84.5483595801
 20
77.0876042896
 30
0.0
 11
84.5483595801
 21
77.4363540464
 31
0.0
  0
LINE
  5
42E
330
1F
100
AcDbEntity
  8
0
  6
Continuous
 62
     7
370
    15
100
AcDbLine
 10
84.5483595801
 20
76.7388545328
 30
0.0
 11
84.5483595801
 21
77.0876042896
 31
0.0
  0
CIRCLE
  5
42F
330
1F
100
AcDbEntity
  8
0
  6
Continuous
 62
     7
370
    15
100
AcDbCircle
 10
91.4708589893
 20
88.0726036661
 30
0.0
 40
0.4087499999999931
  0
CIRCLE
  5
430
330
1F
100
AcDbEntity
  8
0
  6
Continuous
 62
     7
370
    15
100
AcDbCircle
 10
107.6508589893
 20
88.0980378284
 30
0.0
 40
0.4087499999999977
  0
CIRCLE
  5
431
330
1F
100
AcDbEntity
  8
0
  6
Continuous
 62
     7
370
    15
100
AcDbCircle
 10
123.8308589893
 20
88.0726036661
 30
0.0
 40
0.4087500000000119
  0
LINE
  5
432
330
1F
100
AcDbEntity
  8
0
  6
Continuous
 62
     7
370
    15
100
AcDbLine
 10
84.5483595801
 20
51.4026034975
 30
0.0
 11
84.5483595801
 21
51.7513536268
 31
0.0
  0
LINE
  5
433
330
1F
100
AcDbEntity
  8
0
  6
Continuous
 62
     7
370
    15
100
AcDbLine
 10
84.5483595801
 20
51.0538537407
 30
0.0
 11
84.5483595801
 21
51.4026034975
 31
0.0
  0
LINE
  5
434
330
1F
100
AcDbEntity
  8
0
  6
Continuous
 62
     7
370
    15
100
AcDbLine
 10
121.9344804359
 20
45.2876036872
 30
0.0
 11
122.1858585549
 21
45.2876036872
 31
0.0
  0
LINE
  5
435
330
1F
100
AcDbEntity
  8
0
  6
Continuous
 62
     7
370
    15
100
AcDbLine
 10
121.9344804359
 20
45.2876036872
 30
0.0
 11
121.8608582688
 21
45.2876036872
 31
0.0
  0
LINE
  5
436
330
1F
100
AcDbEntity
  8
0
  6
Continuous
 62
     7
370
    15
100
AcDbLine
 10
121.9276437831
 20
45.3176036828
 30
0.0
 11
122.198359139
 21
45.3176036828
 31
0.0
  0
LINE
  5
437
330
1F
100
AcDbEntity
  8
0
  6
Continuous
 62
     7
370
    15
100
AcDbLine
 10
121.9276437831
 20
45.3176036828
 30
0.0
 11
121.8483591747
 21
45.3176036828
 31
0.0
  0
LINE
  5
438
330
1F
100
AcDbEntity
  8
0
  6
Continuous
 62
     7
370
    15
100
AcDbLine
 10
120.5958584619
 20
45.2701036704
 30
0.0
 11
119.8008591604
 21
45.2701036704
 31
0.0
  0
LINE
  5
439
330
1F
100
AcDbEntity
  8
0
  6
Continuous
 62
     7
370
    15
100
AcDbLine
 10
120.5658594442
 20
45.300103666
 30
0.0
 11
119.8308596683
 21
45.300103666
 31
0.0
  0
LINE
  5
43A
330
1F
100
AcDbEntity
  8
0
  6
Continuous
 62
     7
370
    15
100
AcDbLine
 10
115.3458589983
 20
45.2701036704
 30
0.0
 11
114.5508589518
 21
45.2701036704
 31
0.0
  0
LINE
  5
43B
330
1F
100
AcDbEntity
  8
0
  6
Continuous
 62
     7
370
    15
100
AcDbLine
 10
115.3158592355
 20
45.300103666
 30
0.0
 11
114.5808587146
 21
45.300103666
 31
0.0
  0
ARC
  5
43C
330
1F
100
AcDbEntity
  8
0
  6
Continuous
 62
     7
370
    15
100
AcDbCircle
 10
121.1108589893
 20
45.3551036661
 30
0.0
 40
0.0875000000000057
100
AcDbArc
 50
0.0
 51
90.0
  0
ARC
  5
43D
330
1F
100
AcDbEntity
  8
0
  6
Continuous
 62
     7
370
    15
100
AcDbCircle
 10
121.1108589893
 20
45.3551036661
 30
0.0
 40
0.1625000000000085
100
AcDbArc
 50
0.0
 51
75.7499673022
  0
LINE
  5
43E
330
1F
100
AcDbEntity
  8
0
  6
Continuous
 62
     7
370
    15
100
AcDbLine
 10
113.9483588112
 20
45.0676036884
 30
0.0
 11
113.9483588112
 21
45.3551036657
 31
0.0
  0
LINE
  5
43F
330
1F
100
AcDbEntity
  8
0
  6
Continuous
 62
     7
370
    15
100
AcDbLine
 10
113.8733590317
 20
45.0676036884
 30
0.0
 11
113.9483588112
 21
45.0676036884
 31
0.0
  0
LINE
  5
440
330
1F
100
AcDbEntity
  8
0
  6
Continuous
 62
     7
370
    15
100
AcDbLine
 10
113.8733590317
 20
45.0676036884
 30
0.0
 11
113.8733590317
 21
45.3551036657
 31
0.0
  0
LINE
  5
441
330
1F
100
AcDbEntity
  8
0
  6
Continuous
 62
     7
370
    15
100
AcDbLine
 10
121.110858984
 20
45.4426036568
 30
0.0
 11
114.0358591747
 21
45.4426036568
 31
0.0
  0
LINE
  5
442
330
1F
100
AcDbEntity
  8
0
  6
Continuous
 62
     7
370
    15
100
AcDbLine
 10
121.2733591271
 20
45.0676036884
 30
0.0
 11
121.1983586025
 21
45.0676036884
 31
0.0
  0
LINE
  5
443
330
1F
100
AcDbEntity
  8
0
  6
Continuous
 62
     7
370
    15
100
AcDbLine
 10
121.1983586025
 20
45.3551036657
 30
0.0
 11
121.1983586025
 21
45.0676036884
 31
0.0
  0
LINE
  5
444
330
1F
100
AcDbEntity
  8
0
  6
Continuous
 62
     7
370
    15
100
AcDbLine
 10
121.2733591271
 20
45.3551036657
 30
0.0
 11
121.2733591271
 21
45.0676036884
 31
0.0
  0
ARC
  5
445
330
1F
100
AcDbEntity
  8
0
  6
Continuous
 62
     7
370
    15
100
AcDbCircle
 10
114.0358589893
 20
45.3551036661
 30
0.0
 40
0.0875000000000057
100
AcDbArc
 50
90.0
 51
179.9999999999
  0
ARC
  5
446
330
1F
100
AcDbEntity
  8
0
  6
Continuous
 62
     7
370
    15
100
AcDbCircle
 10
114.0358589893
 20
45.3551036661
 30
0.0
 40
0.1624999999999971
100
AcDbArc
 50
104.2500326978
 51
180.0
  0
LINE
  5
447
330
1F
100
AcDbEntity
  8
0
  6
Continuous
 62
     7
370
    15
100
AcDbLine
 10
113.910859294
 20
44.9026036428
 30
0.0
 11
121.2358588648
 21
44.9026036428
 31
0.0
  0
LINE
  5
448
330
1F
100
AcDbEntity
  8
0
  6
Continuous
 62
     7
370
    15
100
AcDbLine
 10
113.910859294
 20
44.9776036551
 30
0.0
 11
121.2358588648
 21
44.9776036551
 31
0.0
  0
LINE
  5
449
330
1F
100
AcDbEntity
  8
0
  6
Continuous
 62
     7
370
    15
100
AcDbLine
 10
113.7483591509
 20
45.0651036461
 30
0.0
 11
113.7483591509
 21
45.3901036761
 31
0.0
  0
LINE
  5
44A
330
1F
100
AcDbEntity
  8
0
  6
Continuous
 62
     7
370
    15
100
AcDbLine
 10
113.8233589304
 20
45.0651036461
 30
0.0
 11
113.8233589304
 21
45.3901036761
 31
0.0
  0
ARC
  5
44B
330
1F
100
AcDbEntity
  8
0
  6
Continuous
 62
     7
370
    15
100
AcDbCircle
 10
113.9108589893
 20
45.0651036661
 30
0.0
 40
0.1625000000000014
100
AcDbArc
 50
180.0
 51
270.0
  0
ARC
  5
44C
330
1F
100
AcDbEntity
  8
0
  6
Continuous
 62
     7
370
    15
100
AcDbCircle
 10
113.9108589893
 20
45.0651036661
 30
0.0
 40
0.0874999999999986
100
AcDbArc
 50
180.0
 51
270.0
  0
LINE
  5
44D
330
1F
100
AcDbEntity
  8
0
  6
Continuous
 62
     7
370
    15
100
AcDbLine
 10
121.3983590079
 20
45.3901036761
 30
0.0
 11
121.3983590079
 21
45.0651036461
 31
0.0
  0
LINE
  5
44E
330
1F
100
AcDbEntity
  8
0
  6
Continuous
 62
     7
370
    15
100
AcDbLine
 10
121.3233584833
 20
45.3901036761
 30
0.0
 11
121.3233584833
 21
45.0651036461
 31
0.0
  0
ARC
  5
44F
330
1F
100
AcDbEntity
  8
0
  6
Continuous
 62
     7
370
    15
100
AcDbCircle
 10
121.2358589893
 20
45.0651036661
 30
0.0
 40
0.1625000000000085
100
AcDbArc
 50
270.0
 51
0.0
  0
ARC
  5
450
330
1F
100
AcDbEntity
  8
0
  6
Continuous
 62
     7
370
    15
100
AcDbCircle
 10
121.2358589893
 20
45.0651036661
 30
0.0
 40
0.0875000000000057
100
AcDbArc
 50
270.0
 51
0.0
  0
LINE
  5
451
330
1F
100
AcDbEntity
  8
0
  6
Continuous
 62
     7
370
    15
100
AcDbLine
 10
112.4983588529
 20
45.5126036776
 30
0.0
 11
112.4983588529
 21
45.4776036672
 31
0.0
  0
LINE
  5
452
330
1F
100
AcDbEntity
  8
0
  6
Continuous
 62
     7
370
    15
100
AcDbLine
 10
112.4983588529
 20
45.4776036672
 30
0.0
 11
112.9983591211
 21
45.4776036672
 31
0.0
  0
LINE
  5
453
330
1F
100
AcDbEntity
  8
0
  6
Continuous
 62
     7
370
    15
100
AcDbLine
 10
121.4858586264
 20
45.4776036672
 30
0.0
 11
122.1483582926
 21
45.4776036672
 31
0.0
  0
ARC
  5
454
330
1F
100
AcDbEntity
  8
0
  6
Continuous
 62
     7
370
    15
100
AcDbCircle
 10
121.4858589893
 20
45.3901036661
 30
0.0
 40
0.0875000000000057
100
AcDbArc
 50
90.0
 51
180.0
  0
ARC
  5
455
330
1F
100
AcDbEntity
  8
0
  6
Continuous
 62
     7
370
    15
100
AcDbCircle
 10
121.4858589893
 20
45.3901036661
 30
0.0
 40
0.1625000000000132
100
AcDbArc
 50
131.0753488744
 51
180.0
  0
LINE
  5
456
330
1F
100
AcDbEntity
  8
0
  6
Continuous
 62
     7
370
    15
100
AcDbLine
 10
112.9983591211
 20
45.4776036672
 30
0.0
 11
113.6608587873
 21
45.4776036672
 31
0.0
  0
ARC
  5
457
330
1F
100
AcDbEntity
  8
0
  6
Continuous
 62
     7
370
    15
100
AcDbCircle
 10
113.6608589893
 20
45.3901036661
 30
0.0
 40
0.1625000000000085
100
AcDbArc
 50
0.0
 51
48.9246511256
  0
ARC
  5
458
330
1F
100
AcDbEntity
  8
0
  6
Continuous
 62
     7
370
    15
100
AcDbCircle
 10
113.6608589893
 20
45.3901036661
 30
0.0
 40
0.0875000000000057
100
AcDbArc
 50
0.0
 51
90.0
  0
LINE
  5
459
330
1F
100
AcDbEntity
  8
0
  6
Continuous
 62
     7
370
    15
100
AcDbLine
 10
122.6483593059
 20
45.5126036776
 30
0.0
 11
122.6483593059
 21
45.4776036672
 31
0.0
  0
LINE
  5
45A
330
1F
100
AcDbEntity
  8
0
  6
Continuous
 62
     7
370
    15
100
AcDbLine
 10
122.1483582926
 20
45.4776036672
 30
0.0
 11
122.6483593059
 21
45.4776036672
 31
0.0
  0
LINE
  5
45B
330
1F
100
AcDbEntity
  8
0
  6
Continuous
 62
     7
370
    15
100
AcDbLine
 10
105.6108590045
 20
48.1276037523
 30
0.0
 11
105.6083590087
 21
48.1276037523
 31
0.0
  0
LINE
  5
45C
330
1F
100
AcDbEntity
  8
0
  6
Continuous
 62
     7
370
    15
100
AcDbLine
 10
105.6083590087
 20
48.1276037523
 30
0.0
 11
105.6083590087
 21
48.0626035833
 31
0.0
  0
LINE
  5
45D
330
1F
100
AcDbEntity
  8
0
  6
Continuous
 62
     7
370
    15
100
AcDbLine
 10
104.5858590228
 20
48.1276037523
 30
0.0
 11
104.5608589721
 21
48.1276037523
 31
0.0
  0
LINE
  5
45E
330
1F
100
AcDbEntity
  8
0
  6
Continuous
 62
     7
370
    15
100
AcDbLine
 10
105.6083590087
 20
48.1276037523
 30
0.0
 11
105.5858590004
 21
48.1276037523
 31
0.0
  0
LINE
  5
45F
330
1F
100
AcDbEntity
  8
0
  6
Continuous
 62
     7
370
    15
100
AcDbLine
 10
125.6608585191
 20
48.1276037523
 30
0.0
 11
125.6583595944
 21
48.1276037523
 31
0.0
  0
LINE
  5
460
330
1F
100
AcDbEntity
  8
0
  6
Continuous
 62
     7
370
    15
100
AcDbLine
 10
125.6583595944
 20
48.1276037523
 30
0.0
 11
125.6583595944
 21
48.0626035833
 31
0.0
  0
LINE
  5
461
330
1F
100
AcDbEntity
  8
0
  6
Continuous
 62
     7
370
    15
100
AcDbLine
 10
125.6583595944
 20
48.1276037523
 30
0.0
 11
125.6333584261
 21
48.1276037523
 31
0.0
  0
LINE
  5
462
330
1F
100
AcDbEntity
  8
0
  6
Continuous
 62
     7
370
    15
100
AcDbLine
 10
124.6333593798
 20
48.1276037523
 30
0.0
 11
124.6108586264
 21
48.1276037523
 31
0.0
  0
ENDSEC
  0
SECTION
  2
OBJECTS
  0
DICTIONARY
  5
C
330
0
100
AcDbDictionary
281
     1
  3
ACAD_GROUP
350
D
  3
ACAD_LAYOUT
350
1A
  3
ACAD_MATERIAL
350
3B
  3
ACAD_MLEADERSTYLE
350
465
  3
ACAD_MLINESTYLE
350
17
  3
ACAD_PLOTSETTINGS
350
19
  3
ACAD_PLOTSTYLENAME
350
E
  3
ACAD_VISUALSTYLE
350
2A
  3
AcDbVariableDictionary
350
463
  0
DICTIONARY
  5
D
102
{ACAD_REACTORS
330
C
102
}
330
C
100
AcDbDictionary
281
     1
  0
DICTIONARY
  5
1A
102
{ACAD_REACTORS
330
C
102
}
330
C
100
AcDbDictionary
281
     1
  3
Layout1
350
1E
  3
Layout2
350
26
  3
Model
350
22
  0
DICTIONARY
  5
3B
102
{ACAD_REACTORS
330
C
102
}
330
C
100
AcDbDictionary
281
     1
  3
ByBlock
350
3D
  3
ByLayer
350
3C
  3
Global
350
3E
  0
DICTIONARY
  5
465
102
{ACAD_REACTORS
330
C
102
}
330
C
100
AcDbDictionary
281
     1
  0
DICTIONARY
  5
17
102
{ACAD_REACTORS
330
C
102
}
330
C
100
AcDbDictionary
281
     1
  3
Standard
350
18
  0
DICTIONARY
  5
19
102
{ACAD_REACTORS
330
C
102
}
330
C
100
AcDbDictionary
281
     1
  0
ACDBDICTIONARYWDFLT
  5
E
102
{ACAD_REACTORS
330
C
102
}
330
C
100
AcDbDictionary
281
     1
  3
Normal
350
F
100
AcDbDictionaryWithDefault
340
F
  0
DICTIONARY
  5
2A
102
{ACAD_REACTORS
330
C
102
}
330
C
100
AcDbDictionary
281
     1
  3
2dWireframe
350
2F
  3
3D Hidden
350
31
  3
3dWireframe
350
30
  3
Basic
350
32
  3
Brighten
350
36
  3
ColorChange
350
3A
  3
Conceptual
350
34
  3
Dim
350
35
  3
Facepattern
350
39
  3
Flat
350
2B
  3
FlatWithEdges
350
2C
  3
Gouraud
350
2D
  3
GouraudWithEdges
350
2E
  3
Linepattern
350
38
  3
Realistic
350
33
  3
Thicken
350
37
  0
DICTIONARY
  5
463
102
{ACAD_REACTORS
330
C
102
}
330
C
100
AcDbDictionary
281
     1
  3
DIMASSOC
350
468
  3
HIDETEXT
350
469
  3
PSOLHEIGHT
350
467
  3
PSOLWIDTH
350
466
  0
LAYOUT
  5
1E
102
{ACAD_REACTORS
330
1A
102
}
330
1A
100
AcDbPlotSettings
  1

  2
none_device
  4

  6

 40
0.0
 41
0.0
 42
0.0
 43
0.0
 44
0.0
 45
0.0
 46
0.0
 47
0.0
 48
0.0
 49
0.0
140
0.0
141
0.0
142
1.0
143
1.0
 70
   688
 72
     0
 73
     0
 74
     5
  7

 75
    16
147
1.0
148
0.0
149
0.0
100
AcDbLayout
  1
Layout1
 70
     1
 71
     1
 10
0.0
 20
0.0
 11
420.0
 21
297.0
 12
0.0
 22
0.0
 32
0.0
 14
1.0000000000E+20
 24
1.0000000000E+20
 34
1.0000000000E+20
 15
-1.0000000000E+20
 25
-1.0000000000E+20
 35
-1.0000000000E+20
146
0.0
 13
0.0
 23
0.0
 33
0.0
 16
1.0
 26
0.0
 36
0.0
 17
0.0
 27
1.0
 37
0.0
 76
     0
330
1B
  0
LAYOUT
  5
26
102
{ACAD_REACTORS
330
1A
102
}
330
1A
100
AcDbPlotSettings
  1

  2
none_device
  4

  6

 40
0.0
 41
0.0
 42
0.0
 43
0.0
 44
0.0
 45
0.0
 46
0.0
 47
0.0
 48
0.0
 49
0.0
140
0.0
141
0.0
142
1.0
143
1.0
 70
   688
 72
     0
 73
     0
 74
     5
  7

 75
    16
147
1.0
148
0.0
149
0.0
100
AcDbLayout
  1
Layout2
 70
     1
 71
     2
 10
0.0
 20
0.0
 11
0.0
 21
0.0
 12
0.0
 22
0.0
 32
0.0
 14
0.0
 24
0.0
 34
0.0
 15
0.0
 25
0.0
 35
0.0
146
0.0
 13
0.0
 23
0.0
 33
0.0
 16
1.0
 26
0.0
 36
0.0
 17
0.0
 27
1.0
 37
0.0
 76
     0
330
23
  0
LAYOUT
  5
22
102
{ACAD_REACTORS
330
1A
102
}
330
1A
100
AcDbPlotSettings
  1

  2
none_device
  4

  6

 40
0.0
 41
0.0
 42
0.0
 43
0.0
 44
0.0
 45
0.0
 46
0.0
 47
0.0
 48
0.0
 49
0.0
140
0.0
141
0.0
142
1.0
143
1.0
 70
  1712
 72
     0
 73
     0
 74
     0
  7

 75
     0
147
1.0
148
0.0
149
0.0
100
AcDbLayout
  1
Model
 70
     1
 71
     0
 10
0.0
 20
0.0
 11
279.4
 21
215.9
 12
0.0
 22
0.0
 32
0.0
 14
0.0
 24
0.0
 34
0.0
 15
279.4
 25
215.9
 35
0.0
146
0.0
 13
0.0
 23
0.0
 33
0.0
 16
1.0
 26
0.0
 36
0.0
 17
0.0
 27
1.0
 37
0.0
 76
     0
330
1F
331
29
  0
MATERIAL
  5
3D
102
{ACAD_REACTORS
330
3B
102
}
102
{ACAD_XDICTIONARY
360
48C
102
}
330
3B
100
AcDbMaterial
  1
ByBlock
  0
MATERIAL
  5
3C
102
{ACAD_REACTORS
330
3B
102
}
102
{ACAD_XDICTIONARY
360
48A
102
}
330
3B
100
AcDbMaterial
  1
ByLayer
  0
MATERIAL
  5
3E
102
{ACAD_REACTORS
330
3B
102
}
102
{ACAD_XDICTIONARY
360
48E
102
}
330
3B
100
AcDbMaterial
  1
Global
  0
MLINESTYLE
  5
18
102
{ACAD_REACTORS
330
17
102
}
330
17
100
AcDbMlineStyle
  2
Standard
 70
     0
  3

 62
   256
 51
90.0
 52
90.0
 71
     2
 49
0.5
 62
   256
  6
BYLAYER
 49
-0.5
 62
   256
  6
BYLAYER
  0
ACDBPLACEHOLDER
  5
F
102
{ACAD_REACTORS
330
E
102
}
330
E
  0
VISUALSTYLE
  5
2F
102
{ACAD_REACTORS
330
2A
102
}
102
{ACAD_XDICTIONARY
360
472
102
}
330
2A
100
AcDbVisualStyle
  2
2dWireframe
 70
     4
 71
     0
 72
     2
 73
     0
 90
        0
 40
-0.6
 41
-30.0
 62
     5
 63
     7
 74
     1
 91
        4
 64
     7
 65
   257
 75
     1
175
     1
 42
1.0
 92
        0
 66
   257
 43
1.0
 76
     1
 77
     6
 78
     2
 67
     7
 79
     5
170
     0
171
     0
290
     0
174
     0
 93
        1
 44
0.0
173
     0
291
     0
 45
0.0
1001
ACAD
1000
AcDbSavedByObjectVersion
1070
     0
  0
VISUALSTYLE
  5
31
102
{ACAD_REACTORS
330
2A
102
}
102
{ACAD_XDICTIONARY
360
476
102
}
330
2A
100
AcDbVisualStyle
  2
3D Hidden
 70
     6
 71
     1
 72
     2
 73
     2
 90
        0
 40
-0.6
 41
-30.0
 62
     5
 63
     7
 74
     2
 91
        2
 64
     7
 65
   257
 75
     2
175
     1
 42
40.0
 92
        0
 66
   257
 43
1.0
 76
     1
 77
     6
 78
     2
 67
     7
 79
     3
170
     0
171
     0
290
     0
174
     0
 93
        1
 44
0.0
173
     0
291
     0
 45
0.0
1001
ACAD
1000
AcDbSavedByObjectVersion
1070
     0
  0
VISUALSTYLE
  5
30
102
{ACAD_REACTORS
330
2A
102
}
102
{ACAD_XDICTIONARY
360
474
102
}
330
2A
100
AcDbVisualStyle
  2
3dWireframe
 70
     5
 71
     0
 72
     2
 73
     0
 90
        0
 40
-0.6
 41
-30.0
 62
     5
 63
     7
 74
     1
 91
        4
 64
     7
 65
   257
 75
     1
175
     1
 42
1.0
 92
        0
 66
   257
 43
1.0
 76
     1
 77
     6
 78
     2
 67
     7
 79
     5
170
     0
171
     0
290
     0
174
     0
 93
        1
 44
0.0
173
     0
291
     0
 45
0.0
1001
ACAD
1000
AcDbSavedByObjectVersion
1070
     0
  0
VISUALSTYLE
  5
32
102
{ACAD_REACTORS
330
2A
102
}
102
{ACAD_XDICTIONARY
360
478
102
}
330
2A
100
AcDbVisualStyle
  2
Basic
 70
     7
 71
     1
 72
     0
 73
     1
 90
        0
 40
-0.6
 41
-30.0
 62
     5
 63
     7
 74
     0
 91
        4
 64
     7
 65
   257
 75
     1
175
     1
 42
1.0
 92
        8
 66
     7
 43
1.0
 76
     1
 77
     6
 78
     2
 67
     7
 79
     5
170
     0
171
     0
290
     0
174
     0
 93
        1
 44
0.0
173
     0
291
     1
 45
0.0
1001
ACAD
1000
AcDbSavedByObjectVersion
1070
     0
  0
VISUALSTYLE
  5
36
102
{ACAD_REACTORS
330
2A
102
}
102
{ACAD_XDICTIONARY
360
480
102
}
330
2A
100
AcDbVisualStyle
  2
Brighten
 70
    12
 71
     2
 72
     2
 73
     0
 90
        0
 40
-0.6
 41
-30.0
 62
     5
 63
     7
 74
     1
 91
        4
 64
     7
 65
   257
 75
     1
175
     1
 42
1.0
 92
        8
 66
     7
 43
1.0
 76
     1
 77
     6
 78
     2
 67
     7
 79
     5
170
     0
171
     0
290
     0
174
     0
 93
        1
 44
50.0
173
     0
291
     1
 45
0.0
1001
ACAD
1000
AcDbSavedByObjectVersion
1070
     0
  0
VISUALSTYLE
  5
3A
102
{ACAD_REACTORS
330
2A
102
}
102
{ACAD_XDICTIONARY
360
488
102
}
330
2A
100
AcDbVisualStyle
  2
ColorChange
 70
    16
 71
     2
 72
     2
 73
     3
 90
        0
 40
-0.6
 41
-30.0
 62
     5
 63
     8
 74
     1
 91
        4
 64
     7
 65
   257
 75
     1
175
     1
 42
1.0
 92
        8
 66
     8
 43
1.0
 76
     1
 77
     6
 78
     2
 67
     7
 79
     5
170
     0
171
     0
290
     0
174
     0
 93
        1
 44
0.0
173
     0
291
     1
 45
0.0
1001
ACAD
1000
AcDbSavedByObjectVersion
1070
     0
  0
VISUALSTYLE
  5
34
102
{ACAD_REACTORS
330
2A
102
}
102
{ACAD_XDICTIONARY
360
47C
102
}
330
2A
100
AcDbVisualStyle
  2
Conceptual
 70
     9
 71
     3
 72
     2
 73
     0
 90
        0
 40
-0.6
 41
-30.0
 62
     5
 63
     7
 74
     2
 91
        2
 64
     7
 65
   257
 75
     1
175
     1
 42
40.0
 92
        8
 66
     7
 43
1.0
 76
     1
 77
     6
 78
     2
 67
     7
 79
     3
170
     0
171
     0
290
     0
174
     0
 93
        1
 44
0.0
173
     0
291
     0
 45
0.0
1001
ACAD
1000
AcDbSavedByObjectVersion
1070
     0
  0
VISUALSTYLE
  5
35
102
{ACAD_REACTORS
330
2A
102
}
102
{ACAD_XDICTIONARY
360
47E
102
}
330
2A
100
AcDbVisualStyle
  2
Dim
 70
    11
 71
     2
 72
     2
 73
     0
 90
        0
 40
-0.6
 41
-30.0
 62
     5
 63
     7
 74
     1
 91
        4
 64
     7
 65
   257
 75
     1
175
     1
 42
1.0
 92
        8
 66
     7
 43
1.0
 76
     1
 77
     6
 78
     2
 67
     7
 79
     5
170
     0
171
     0
290
     0
174
     0
 93
        1
 44
-50.0
173
     0
291
     1
 45
0.0
1001
ACAD
1000
AcDbSavedByObjectVersion
1070
     0
  0
VISUALSTYLE
  5
39
102
{ACAD_REACTORS
330
2A
102
}
102
{ACAD_XDICTIONARY
360
486
102
}
330
2A
100
AcDbVisualStyle
  2
Facepattern
 70
    15
 71
     2
 72
     2
 73
     0
 90
        0
 40
-0.6
 41
-30.0
 62
     5
 63
     7
 74
     1
 91
        4
 64
     7
 65
   257
 75
     1
175
     1
 42
1.0
 92
        8
 66
     7
 43
1.0
 76
     1
 77
     6
 78
     2
 67
     7
 79
     5
170
     0
171
     0
290
     0
174
     0
 93
        1
 44
0.0
173
     0
291
     1
 45
0.0
1001
ACAD
1000
AcDbSavedByObjectVersion
1070
     0
  0
VISUALSTYLE
  5
2B
102
{ACAD_REACTORS
330
2A
102
}
102
{ACAD_XDICTIONARY
360
46A
102
}
330
2A
100
AcDbVisualStyle
  2
Flat
 70
     0
 71
     2
 72
     1
 73
     1
 90
        2
 40
-0.6
 41
30.0
 62
     5
 63
     7
 74
     0
 91
        4
 64
     7
 65
   257
 75
     1
175
     1
 42
1.0
 92
        8
 66
     7
 43
1.0
 76
     1
 77
     6
 78
     2
 67
     7
 79
     5
170
     0
171
     0
290
     0
174
     0
 93
       13
 44
0.0
173
     0
291
     1
 45
0.0
1001
ACAD
1000
AcDbSavedByObjectVersion
1070
     0
  0
VISUALSTYLE
  5
2C
102
{ACAD_REACTORS
330
2A
102
}
102
{ACAD_XDICTIONARY
360
46C
102
}
330
2A
100
AcDbVisualStyle
  2
FlatWithEdges
 70
     1
 71
     2
 72
     1
 73
     1
 90
        2
 40
-0.6
 41
30.0
 62
     5
 63
     7
 74
     1
 91
        4
 64
     7
 65
   257
 75
     1
175
     1
 42
1.0
 92
        0
 66
   257
 43
1.0
 76
     1
 77
     6
 78
     2
 67
     7
 79
     5
170
     0
171
     0
290
     0
174
     0
 93
       13
 44
0.0
173
     0
291
     1
 45
0.0
1001
ACAD
1000
AcDbSavedByObjectVersion
1070
     0
  0
VISUALSTYLE
  5
2D
102
{ACAD_REACTORS
330
2A
102
}
102
{ACAD_XDICTIONARY
360
46E
102
}
330
2A
100
AcDbVisualStyle
  2
Gouraud
 70
     2
 71
     2
 72
     2
 73
     1
 90
        2
 40
-0.6
 41
30.0
 62
     5
 63
     7
 74
     0
 91
        4
 64
     7
 65
   257
 75
     1
175
     1
 42
1.0
 92
        0
 66
     7
 43
1.0
 76
     1
 77
     6
 78
     2
 67
     7
 79
     5
170
     0
171
     0
290
     0
174
     0
 93
       13
 44
0.0
173
     0
291
     1
 45
0.0
1001
ACAD
1000
AcDbSavedByObjectVersion
1070
     0
  0
VISUALSTYLE
  5
2E
102
{ACAD_REACTORS
330
2A
102
}
102
{ACAD_XDICTIONARY
360
470
102
}
330
2A
100
AcDbVisualStyle
  2
GouraudWithEdges
 70
     3
 71
     2
 72
     2
 73
     1
 90
        2
 40
-0.6
 41
30.0
 62
     5
 63
     7
 74
     1
 91
        4
 64
     7
 65
   257
 75
     1
175
     1
 42
1.0
 92
        0
 66
   257
 43
1.0
 76
     1
 77
     6
 78
     2
 67
     7
 79
     5
170
     0
171
     0
290
     0
174
     0
 93
       13
 44
0.0
173
     0
291
     1
 45
0.0
1001
ACAD
1000
AcDbSavedByObjectVersion
1070
     0
  0
VISUALSTYLE
  5
38
102
{ACAD_REACTORS
330
2A
102
}
102
{ACAD_XDICTIONARY
360
484
102
}
330
2A
100
AcDbVisualStyle
  2
Linepattern
 70
    14
 71
     2
 72
     2
 73
     0
 90
        0
 40
-0.6
 41
-30.0
 62
     5
 63
     7
 74
     1
 91
        4
 64
     7
 65
   257
 75
     7
175
     7
 42
1.0
 92
        8
 66
     7
 43
1.0
 76
     1
 77
     6
 78
     2
 67
     7
 79
     5
170
     0
171
     0
290
     0
174
     0
 93
        1
 44
0.0
173
     0
291
     1
 45
0.0
1001
ACAD
1000
AcDbSavedByObjectVersion
1070
     0
  0
VISUALSTYLE
  5
33
102
{ACAD_REACTORS
330
2A
102
}
102
{ACAD_XDICTIONARY
360
47A
102
}
330
2A
100
AcDbVisualStyle
  2
Realistic
 70
     8
 71
     2
 72
     2
 73
     0
 90
        0
 40
-0.6
 41
-30.0
 62
     5
 63
     7
 74
     1
 91
        0
 64
     7
 65
   257
 75
     1
175
     1
 42
1.0
 92
        8
 66
     8
 43
1.0
 76
     1
 77
     6
 78
     2
 67
     7
 79
     5
170
     0
171
     0
290
     0
174
     0
 93
       13
 44
0.0
173
     0
291
     0
 45
0.0
1001
ACAD
1000
AcDbSavedByObjectVersion
1070
     0
  0
VISUALSTYLE
  5
37
102
{ACAD_REACTORS
330
2A
102
}
102
{ACAD_XDICTIONARY
360
482
102
}
330
2A
100
AcDbVisualStyle
  2
Thicken
 70
    13
 71
     2
 72
     2
 73
     0
 90
        0
 40
-0.6
 41
-30.0
 62
     5
 63
     7
 74
     1
 91
        4
 64
     7
 65
   257
 75
     1
175
     1
 42
1.0
 92
       12
 66
     7
 43
1.0
 76
     1
 77
     6
 78
     2
 67
     7
 79
     5
170
     0
171
     0
290
     0
174
     0
 93
        1
 44
0.0
173
     0
291
     1
 45
0.0
1001
ACAD
1000
AcDbSavedByObjectVersion
1070
     0
  0
DICTIONARYVAR
  5
468
102
{ACAD_REACTORS
330
463
102
}
330
463
100
DictionaryVariables
280
     0
  1
2
  0
DICTIONARYVAR
  5
469
102
{ACAD_REACTORS
330
463
102
}
330
463
100
DictionaryVariables
280
     0
  1
1
  0
DICTIONARYVAR
  5
467
102
{ACAD_REACTORS
330
463
102
}
330
463
100
DictionaryVariables
280
     0
  1
80.000000
  0
DICTIONARYVAR
  5
466
102
{ACAD_REACTORS
330
463
102
}
330
463
100
DictionaryVariables
280
     0
  1
5.000000
  0
DICTIONARY
  5
48C
330
3D
100
AcDbDictionary
280
     1
281
     1
  3
ACAD_XREC_ROUNDTRIP
360
48D
  0
DICTIONARY
  5
48A
330
3C
100
AcDbDictionary
280
     1
281
     1
  3
ACAD_XREC_ROUNDTRIP
360
48B
  0
DICTIONARY
  5
48E
330
3E
100
AcDbDictionary
280
     1
281
     1
  3
ACAD_XREC_ROUNDTRIP
360
48F
  0
DICTIONARY
  5
472
330
2F
100
AcDbDictionary
280
     1
281
     1
  3
ACAD_XREC_ROUNDTRIP
360
473
  0
DICTIONARY
  5
476
330
31
100
AcDbDictionary
280
     1
281
     1
  3
ACAD_XREC_ROUNDTRIP
360
477
  0
DICTIONARY
  5
474
330
30
100
AcDbDictionary
280
     1
281
     1
  3
ACAD_XREC_ROUNDTRIP
360
475
  0
DICTIONARY
  5
478
330
32
100
AcDbDictionary
280
     1
281
     1
  3
ACAD_XREC_ROUNDTRIP
360
479
  0
DICTIONARY
  5
480
330
36
100
AcDbDictionary
280
     1
281
     1
  3
ACAD_XREC_ROUNDTRIP
360
481
  0
DICTIONARY
  5
488
330
3A
100
AcDbDictionary
280
     1
281
     1
  3
ACAD_XREC_ROUNDTRIP
360
489
  0
DICTIONARY
  5
47C
330
34
100
AcDbDictionary
280
     1
281
     1
  3
ACAD_XREC_ROUNDTRIP
360
47D
  0
DICTIONARY
  5
47E
330
35
100
AcDbDictionary
280
     1
281
     1
  3
ACAD_XREC_ROUNDTRIP
360
47F
  0
DICTIONARY
  5
486
330
39
100
AcDbDictionary
280
     1
281
     1
  3
ACAD_XREC_ROUNDTRIP
360
487
  0
DICTIONARY
  5
46A
330
2B
100
AcDbDictionary
280
     1
281
     1
  3
ACAD_XREC_ROUNDTRIP
360
46B
  0
DICTIONARY
  5
46C
330
2C
100
AcDbDictionary
280
     1
281
     1
  3
ACAD_XREC_ROUNDTRIP
360
46D
  0
DICTIONARY
  5
46E
330
2D
100
AcDbDictionary
280
     1
281
     1
  3
ACAD_XREC_ROUNDTRIP
360
46F
  0
DICTIONARY
  5
470
330
2E
100
AcDbDictionary
280
     1
281
     1
  3
ACAD_XREC_ROUNDTRIP
360
471
  0
DICTIONARY
  5
484
330
38
100
AcDbDictionary
280
     1
281
     1
  3
ACAD_XREC_ROUNDTRIP
360
485
  0
DICTIONARY
  5
47A
330
33
100
AcDbDictionary
280
     1
281
     1
  3
ACAD_XREC_ROUNDTRIP
360
47B
  0
DICTIONARY
  5
482
330
37
100
AcDbDictionary
280
     1
281
     1
  3
ACAD_XREC_ROUNDTRIP
360
483
  0
XRECORD
  5
48D
102
{ACAD_REACTORS
330
48C
102
}
330
48C
100
AcDbXrecord
280
     1
102
MATERIAL
148
0.0
149
0.0
149
0.0
 93
        0
 94
      127
282
     0
 72
     1
 77
     1
171
     1
175
     1
179
     1
273
     0
  0
XRECORD
  5
48B
102
{ACAD_REACTORS
330
48A
102
}
330
48A
100
AcDbXrecord
280
     1
102
MATERIAL
148
0.0
149
0.0
149
0.0
 93
        0
 94
      127
282
     0
 72
     1
 77
     1
171
     1
175
     1
179
     1
273
     0
  0
XRECORD
  5
48F
102
{ACAD_REACTORS
330
48E
102
}
330
48E
100
AcDbXrecord
280
     1
102
MATERIAL
148
0.0
149
0.0
149
0.0
 93
        0
 94
      127
282
     0
 72
     1
 77
     1
171
     1
175
     1
179
     1
273
     0
  0
XRECORD
  5
473
102
{ACAD_REACTORS
330
472
102
}
330
472
100
AcDbXrecord
280
     1
102
RTVSPropertyOp0
 70
     1
102
RTVSPropertyOp1
 70
     1
102
RTVSPropertyOp2
 70
     1
102
RTVSPropertyOp3
 70
     1
102
RTVSPropertyOp4
 70
     1
102
RTVSPropertyOp5
 70
     1
102
RTVSPropertyOp6
 70
     1
102
RTVSPropertyOp7
 70
     1
102
RTVSPropertyOp8
 70
     1
102
RTVSPropertyOp9
 70
     1
102
RTVSPropertyOp10
 70
     1
102
RTVSPropertyOp11
 70
     1
102
RTVSPropertyOp12
 70
     1
102
RTVSPropertyOp13
 70
     1
102
RTVSPropertyOp14
 70
     1
102
RTVSPropertyOp15
 70
     1
102
RTVSPropertyOp16
 70
     1
102
RTVSPropertyOp17
 70
     1
102
RTVSPropertyOp18
 70
     1
102
RTVSPropertyOp19
 70
     1
102
RTVSPropertyOp20
 70
     1
102
RTVSPropertyOp21
 70
     1
102
RTVSPropertyOp22
 70
     1
102
RTVSPropertyOp23
 70
     1
102
RTVSPropertyOp24
 70
     1
102
RTVSPropertyOp25
 70
     1
102
RTVSPropertyOp26
 70
     1
102
RTVSPropertyOp27
 70
     1
  0
XRECORD
  5
477
102
{ACAD_REACTORS
330
476
102
}
330
476
100
AcDbXrecord
280
     1
102
RTVSPropertyOp0
 70
     1
102
RTVSPropertyOp1
 70
     1
102
RTVSPropertyOp2
 70
     1
102
RTVSPropertyOp3
 70
     1
102
RTVSPropertyOp4
 70
     1
102
RTVSPropertyOp5
 70
     1
102
RTVSPropertyOp6
 70
     1
102
RTVSPropertyOp7
 70
     1
102
RTVSPropertyOp8
 70
     1
102
RTVSPropertyOp9
 70
     1
102
RTVSPropertyOp10
 70
     1
102
RTVSPropertyOp11
 70
     1
102
RTVSPropertyOp12
 70
     1
102
RTVSPropertyOp13
 70
     1
102
RTVSPropertyOp14
 70
     1
102
RTVSPropertyOp15
 70
     1
102
RTVSPropertyOp16
 70
     1
102
RTVSPropertyOp17
 70
     1
102
RTVSPropertyOp18
 70
     1
102
RTVSPropertyOp19
 70
     1
102
RTVSPropertyOp20
 70
     1
102
RTVSPropertyOp21
 70
     1
102
RTVSPropertyOp22
 70
     1
102
RTVSPropertyOp23
 70
     1
102
RTVSPropertyOp24
 70
     1
102
RTVSPropertyOp25
 70
     1
102
RTVSPropertyOp26
 70
     1
102
RTVSPropertyOp27
 70
     1
  0
XRECORD
  5
475
102
{ACAD_REACTORS
330
474
102
}
330
474
100
AcDbXrecord
280
     1
102
RTVSPropertyOp0
 70
     1
102
RTVSPropertyOp1
 70
     1
102
RTVSPropertyOp2
 70
     1
102
RTVSPropertyOp3
 70
     1
102
RTVSPropertyOp4
 70
     1
102
RTVSPropertyOp5
 70
     1
102
RTVSPropertyOp6
 70
     1
102
RTVSPropertyOp7
 70
     1
102
RTVSPropertyOp8
 70
     1
102
RTVSPropertyOp9
 70
     1
102
RTVSPropertyOp10
 70
     1
102
RTVSPropertyOp11
 70
     1
102
RTVSPropertyOp12
 70
     1
102
RTVSPropertyOp13
 70
     1
102
RTVSPropertyOp14
 70
     1
102
RTVSPropertyOp15
 70
     1
102
RTVSPropertyOp16
 70
     1
102
RTVSPropertyOp17
 70
     1
102
RTVSPropertyOp18
 70
     1
102
RTVSPropertyOp19
 70
     1
102
RTVSPropertyOp20
 70
     1
102
RTVSPropertyOp21
 70
     1
102
RTVSPropertyOp22
 70
     1
102
RTVSPropertyOp23
 70
     1
102
RTVSPropertyOp24
 70
     1
102
RTVSPropertyOp25
 70
     1
102
RTVSPropertyOp26
 70
     1
102
RTVSPropertyOp27
 70
     1
  0
XRECORD
  5
479
102
{ACAD_REACTORS
330
478
102
}
330
478
100
AcDbXrecord
280
     1
102
RTVSPropertyOp0
 70
     1
102
RTVSPropertyOp1
 70
     1
102
RTVSPropertyOp2
 70
     1
102
RTVSPropertyOp3
 70
     1
102
RTVSPropertyOp4
 70
     1
102
RTVSPropertyOp5
 70
     1
102
RTVSPropertyOp6
 70
     1
102
RTVSPropertyOp7
 70
     1
102
RTVSPropertyOp8
 70
     1
102
RTVSPropertyOp9
 70
     1
102
RTVSPropertyOp10
 70
     1
102
RTVSPropertyOp11
 70
     1
102
RTVSPropertyOp12
 70
     1
102
RTVSPropertyOp13
 70
     1
102
RTVSPropertyOp14
 70
     1
102
RTVSPropertyOp15
 70
     1
102
RTVSPropertyOp16
 70
     1
102
RTVSPropertyOp17
 70
     1
102
RTVSPropertyOp18
 70
     1
102
RTVSPropertyOp19
 70
     1
102
RTVSPropertyOp20
 70
     1
102
RTVSPropertyOp21
 70
     1
102
RTVSPropertyOp22
 70
     1
102
RTVSPropertyOp23
 70
     1
102
RTVSPropertyOp24
 70
     1
102
RTVSPropertyOp25
 70
     1
102
RTVSPropertyOp26
 70
     1
102
RTVSPropertyOp27
 70
     1
  0
XRECORD
  5
481
102
{ACAD_REACTORS
330
480
102
}
330
480
100
AcDbXrecord
280
     1
102
RTVSPropertyOp0
 70
     1
102
RTVSPropertyOp1
 70
     1
102
RTVSPropertyOp2
 70
     1
102
RTVSPropertyOp3
 70
     1
102
RTVSPropertyOp4
 70
     1
102
RTVSPropertyOp5
 70
     1
102
RTVSPropertyOp6
 70
     1
102
RTVSPropertyOp7
 70
     1
102
RTVSPropertyOp8
 70
     1
102
RTVSPropertyOp9
 70
     1
102
RTVSPropertyOp10
 70
     1
102
RTVSPropertyOp11
 70
     1
102
RTVSPropertyOp12
 70
     1
102
RTVSPropertyOp13
 70
     1
102
RTVSPropertyOp14
 70
     1
102
RTVSPropertyOp15
 70
     1
102
RTVSPropertyOp16
 70
     1
102
RTVSPropertyOp17
 70
     1
102
RTVSPropertyOp18
 70
     1
102
RTVSPropertyOp19
 70
     1
102
RTVSPropertyOp20
 70
     1
102
RTVSPropertyOp21
 70
     1
102
RTVSPropertyOp22
 70
     1
102
RTVSPropertyOp23
 70
     1
102
RTVSPropertyOp24
 70
     1
102
RTVSPropertyOp25
 70
     1
102
RTVSPropertyOp26
 70
     1
102
RTVSPropertyOp27
 70
     1
  0
XRECORD
  5
489
102
{ACAD_REACTORS
330
488
102
}
330
488
100
AcDbXrecord
280
     1
102
RTVSPropertyOp0
 70
     1
102
RTVSPropertyOp1
 70
     1
102
RTVSPropertyOp2
 70
     1
102
RTVSPropertyOp3
 70
     1
102
RTVSPropertyOp4
 70
     1
102
RTVSPropertyOp5
 70
     1
102
RTVSPropertyOp6
 70
     1
102
RTVSPropertyOp7
 70
     1
102
RTVSPropertyOp8
 70
     1
102
RTVSPropertyOp9
 70
     1
102
RTVSPropertyOp10
 70
     1
102
RTVSPropertyOp11
 70
     1
102
RTVSPropertyOp12
 70
     1
102
RTVSPropertyOp13
 70
     1
102
RTVSPropertyOp14
 70
     1
102
RTVSPropertyOp15
 70
     1
102
RTVSPropertyOp16
 70
     1
102
RTVSPropertyOp17
 70
     1
102
RTVSPropertyOp18
 70
     1
102
RTVSPropertyOp19
 70
     1
102
RTVSPropertyOp20
 70
     1
102
RTVSPropertyOp21
 70
     1
102
RTVSPropertyOp22
 70
     1
102
RTVSPropertyOp23
 70
     1
102
RTVSPropertyOp24
 70
     1
102
RTVSPropertyOp25
 70
     1
102
RTVSPropertyOp26
 70
     1
102
RTVSPropertyOp27
 70
     1
  0
XRECORD
  5
47D
102
{ACAD_REACTORS
330
47C
102
}
330
47C
100
AcDbXrecord
280
     1
102
RTVSPropertyOp0
 70
     1
102
RTVSPropertyOp1
 70
     1
102
RTVSPropertyOp2
 70
     1
102
RTVSPropertyOp3
 70
     1
102
RTVSPropertyOp4
 70
     1
102
RTVSPropertyOp5
 70
     1
102
RTVSPropertyOp6
 70
     1
102
RTVSPropertyOp7
 70
     1
102
RTVSPropertyOp8
 70
     1
102
RTVSPropertyOp9
 70
     1
102
RTVSPropertyOp10
 70
     1
102
RTVSPropertyOp11
 70
     1
102
RTVSPropertyOp12
 70
     1
102
RTVSPropertyOp13
 70
     1
102
RTVSPropertyOp14
 70
     1
102
RTVSPropertyOp15
 70
     1
102
RTVSPropertyOp16
 70
     1
102
RTVSPropertyOp17
 70
     1
102
RTVSPropertyOp18
 70
     1
102
RTVSPropertyOp19
 70
     1
102
RTVSPropertyOp20
 70
     1
102
RTVSPropertyOp21
 70
     1
102
RTVSPropertyOp22
 70
     1
102
RTVSPropertyOp23
 70
     1
102
RTVSPropertyOp24
 70
     1
102
RTVSPropertyOp25
 70
     1
102
RTVSPropertyOp26
 70
     1
102
RTVSPropertyOp27
 70
     1
  0
XRECORD
  5
47F
102
{ACAD_REACTORS
330
47E
102
}
330
47E
100
AcDbXrecord
280
     1
102
RTVSPropertyOp0
 70
     1
102
RTVSPropertyOp1
 70
     1
102
RTVSPropertyOp2
 70
     1
102
RTVSPropertyOp3
 70
     1
102
RTVSPropertyOp4
 70
     1
102
RTVSPropertyOp5
 70
     1
102
RTVSPropertyOp6
 70
     1
102
RTVSPropertyOp7
 70
     1
102
RTVSPropertyOp8
 70
     1
102
RTVSPropertyOp9
 70
     1
102
RTVSPropertyOp10
 70
     1
102
RTVSPropertyOp11
 70
     1
102
RTVSPropertyOp12
 70
     1
102
RTVSPropertyOp13
 70
     1
102
RTVSPropertyOp14
 70
     1
102
RTVSPropertyOp15
 70
     1
102
RTVSPropertyOp16
 70
     1
102
RTVSPropertyOp17
 70
     1
102
RTVSPropertyOp18
 70
     1
102
RTVSPropertyOp19
 70
     1
102
RTVSPropertyOp20
 70
     1
102
RTVSPropertyOp21
 70
     1
102
RTVSPropertyOp22
 70
     1
102
RTVSPropertyOp23
 70
     1
102
RTVSPropertyOp24
 70
     1
102
RTVSPropertyOp25
 70
     1
102
RTVSPropertyOp26
 70
     1
102
RTVSPropertyOp27
 70
     1
  0
XRECORD
  5
487
102
{ACAD_REACTORS
330
486
102
}
330
486
100
AcDbXrecord
280
     1
102
RTVSPropertyOp0
 70
     1
102
RTVSPropertyOp1
 70
     1
102
RTVSPropertyOp2
 70
     1
102
RTVSPropertyOp3
 70
     1
102
RTVSPropertyOp4
 70
     1
102
RTVSPropertyOp5
 70
     1
102
RTVSPropertyOp6
 70
     1
102
RTVSPropertyOp7
 70
     1
102
RTVSPropertyOp8
 70
     1
102
RTVSPropertyOp9
 70
     1
102
RTVSPropertyOp10
 70
     1
102
RTVSPropertyOp11
 70
     1
102
RTVSPropertyOp12
 70
     1
102
RTVSPropertyOp13
 70
     1
102
RTVSPropertyOp14
 70
     1
102
RTVSPropertyOp15
 70
     1
102
RTVSPropertyOp16
 70
     1
102
RTVSPropertyOp17
 70
     1
102
RTVSPropertyOp18
 70
     1
102
RTVSPropertyOp19
 70
     1
102
RTVSPropertyOp20
 70
     1
102
RTVSPropertyOp21
 70
     1
102
RTVSPropertyOp22
 70
     1
102
RTVSPropertyOp23
 70
     1
102
RTVSPropertyOp24
 70
     1
102
RTVSPropertyOp25
 70
     1
102
RTVSPropertyOp26
 70
     1
102
RTVSPropertyOp27
 70
     1
  0
XRECORD
  5
46B
102
{ACAD_REACTORS
330
46A
102
}
330
46A
100
AcDbXrecord
280
     1
102
RTVSPropertyOp0
 70
     1
102
RTVSPropertyOp1
 70
     1
102
RTVSPropertyOp2
 70
     1
102
RTVSPropertyOp3
 70
     1
102
RTVSPropertyOp4
 70
     1
102
RTVSPropertyOp5
 70
     1
102
RTVSPropertyOp6
 70
     1
102
RTVSPropertyOp7
 70
     1
102
RTVSPropertyOp8
 70
     1
102
RTVSPropertyOp9
 70
     1
102
RTVSPropertyOp10
 70
     1
102
RTVSPropertyOp11
 70
     1
102
RTVSPropertyOp12
 70
     1
102
RTVSPropertyOp13
 70
     1
102
RTVSPropertyOp14
 70
     1
102
RTVSPropertyOp15
 70
     1
102
RTVSPropertyOp16
 70
     1
102
RTVSPropertyOp17
 70
     1
102
RTVSPropertyOp18
 70
     1
102
RTVSPropertyOp19
 70
     1
102
RTVSPropertyOp20
 70
     1
102
RTVSPropertyOp21
 70
     1
102
RTVSPropertyOp22
 70
     1
102
RTVSPropertyOp23
 70
     1
102
RTVSPropertyOp24
 70
     1
102
RTVSPropertyOp25
 70
     1
102
RTVSPropertyOp26
 70
     1
102
RTVSPropertyOp27
 70
     1
  0
XRECORD
  5
46D
102
{ACAD_REACTORS
330
46C
102
}
330
46C
100
AcDbXrecord
280
     1
102
RTVSPropertyOp0
 70
     1
102
RTVSPropertyOp1
 70
     1
102
RTVSPropertyOp2
 70
     1
102
RTVSPropertyOp3
 70
     1
102
RTVSPropertyOp4
 70
     1
102
RTVSPropertyOp5
 70
     1
102
RTVSPropertyOp6
 70
     1
102
RTVSPropertyOp7
 70
     1
102
RTVSPropertyOp8
 70
     1
102
RTVSPropertyOp9
 70
     1
102
RTVSPropertyOp10
 70
     1
102
RTVSPropertyOp11
 70
     1
102
RTVSPropertyOp12
 70
     1
102
RTVSPropertyOp13
 70
     1
102
RTVSPropertyOp14
 70
     1
102
RTVSPropertyOp15
 70
     1
102
RTVSPropertyOp16
 70
     1
102
RTVSPropertyOp17
 70
     1
102
RTVSPropertyOp18
 70
     1
102
RTVSPropertyOp19
 70
     1
102
RTVSPropertyOp20
 70
     1
102
RTVSPropertyOp21
 70
     1
102
RTVSPropertyOp22
 70
     1
102
RTVSPropertyOp23
 70
     1
102
RTVSPropertyOp24
 70
     1
102
RTVSPropertyOp25
 70
     1
102
RTVSPropertyOp26
 70
     1
102
RTVSPropertyOp27
 70
     1
  0
XRECORD
  5
46F
102
{ACAD_REACTORS
330
46E
102
}
330
46E
100
AcDbXrecord
280
     1
102
RTVSPropertyOp0
 70
     1
102
RTVSPropertyOp1
 70
     1
102
RTVSPropertyOp2
 70
     1
102
RTVSPropertyOp3
 70
     1
102
RTVSPropertyOp4
 70
     1
102
RTVSPropertyOp5
 70
     1
102
RTVSPropertyOp6
 70
     1
102
RTVSPropertyOp7
 70
     1
102
RTVSPropertyOp8
 70
     1
102
RTVSPropertyOp9
 70
     1
102
RTVSPropertyOp10
 70
     1
102
RTVSPropertyOp11
 70
     1
102
RTVSPropertyOp12
 70
     1
102
RTVSPropertyOp13
 70
     1
102
RTVSPropertyOp14
 70
     1
102
RTVSPropertyOp15
 70
     1
102
RTVSPropertyOp16
 70
     1
102
RTVSPropertyOp17
 70
     1
102
RTVSPropertyOp18
 70
     1
102
RTVSPropertyOp19
 70
     1
102
RTVSPropertyOp20
 70
     1
102
RTVSPropertyOp21
 70
     1
102
RTVSPropertyOp22
 70
     1
102
RTVSPropertyOp23
 70
     1
102
RTVSPropertyOp24
 70
     1
102
RTVSPropertyOp25
 70
     1
102
RTVSPropertyOp26
 70
     1
102
RTVSPropertyOp27
 70
     1
  0
XRECORD
  5
471
102
{ACAD_REACTORS
330
470
102
}
330
470
100
AcDbXrecord
280
     1
102
RTVSPropertyOp0
 70
     1
102
RTVSPropertyOp1
 70
     1
102
RTVSPropertyOp2
 70
     1
102
RTVSPropertyOp3
 70
     1
102
RTVSPropertyOp4
 70
     1
102
RTVSPropertyOp5
 70
     1
102
RTVSPropertyOp6
 70
     1
102
RTVSPropertyOp7
 70
     1
102
RTVSPropertyOp8
 70
     1
102
RTVSPropertyOp9
 70
     1
102
RTVSPropertyOp10
 70
     1
102
RTVSPropertyOp11
 70
     1
102
RTVSPropertyOp12
 70
     1
102
RTVSPropertyOp13
 70
     1
102
RTVSPropertyOp14
 70
     1
102
RTVSPropertyOp15
 70
     1
102
RTVSPropertyOp16
 70
     1
102
RTVSPropertyOp17
 70
     1
102
RTVSPropertyOp18
 70
     1
102
RTVSPropertyOp19
 70
     1
102
RTVSPropertyOp20
 70
     1
102
RTVSPropertyOp21
 70
     1
102
RTVSPropertyOp22
 70
     1
102
RTVSPropertyOp23
 70
     1
102
RTVSPropertyOp24
 70
     1
102
RTVSPropertyOp25
 70
     1
102
RTVSPropertyOp26
 70
     1
102
RTVSPropertyOp27
 70
     1
  0
XRECORD
  5
485
102
{ACAD_REACTORS
330
484
102
}
330
484
100
AcDbXrecord
280
     1
102
RTVSPropertyOp0
 70
     1
102
RTVSPropertyOp1
 70
     1
102
RTVSPropertyOp2
 70
     1
102
RTVSPropertyOp3
 70
     1
102
RTVSPropertyOp4
 70
     1
102
RTVSPropertyOp5
 70
     1
102
RTVSPropertyOp6
 70
     1
102
RTVSPropertyOp7
 70
     1
102
RTVSPropertyOp8
 70
     1
102
RTVSPropertyOp9
 70
     1
102
RTVSPropertyOp10
 70
     1
102
RTVSPropertyOp11
 70
     1
102
RTVSPropertyOp12
 70
     1
102
RTVSPropertyOp13
 70
     1
102
RTVSPropertyOp14
 70
     1
102
RTVSPropertyOp15
 70
     1
102
RTVSPropertyOp16
 70
     1
102
RTVSPropertyOp17
 70
     1
102
RTVSPropertyOp18
 70
     1
102
RTVSPropertyOp19
 70
     1
102
RTVSPropertyOp20
 70
     1
102
RTVSPropertyOp21
 70
     1
102
RTVSPropertyOp22
 70
     1
102
RTVSPropertyOp23
 70
     1
102
RTVSPropertyOp24
 70
     1
102
RTVSPropertyOp25
 70
     1
102
RTVSPropertyOp26
 70
     1
102
RTVSPropertyOp27
 70
     1
  0
XRECORD
  5
47B
102
{ACAD_REACTORS
330
47A
102
}
330
47A
100
AcDbXrecord
280
     1
102
RTVSPropertyOp0
 70
     1
102
RTVSPropertyOp1
 70
     1
102
RTVSPropertyOp2
 70
     1
102
RTVSPropertyOp3
 70
     1
102
RTVSPropertyOp4
 70
     1
102
RTVSPropertyOp5
 70
     1
102
RTVSPropertyOp6
 70
     1
102
RTVSPropertyOp7
 70
     1
102
RTVSPropertyOp8
 70
     1
102
RTVSPropertyOp9
 70
     1
102
RTVSPropertyOp10
 70
     1
102
RTVSPropertyOp11
 70
     1
102
RTVSPropertyOp12
 70
     1
102
RTVSPropertyOp13
 70
     1
102
RTVSPropertyOp14
 70
     1
102
RTVSPropertyOp15
 70
     1
102
RTVSPropertyOp16
 70
     1
102
RTVSPropertyOp17
 70
     1
102
RTVSPropertyOp18
 70
     1
102
RTVSPropertyOp19
 70
     1
102
RTVSPropertyOp20
 70
     1
102
RTVSPropertyOp21
 70
     1
102
RTVSPropertyOp22
 70
     1
102
RTVSPropertyOp23
 70
     1
102
RTVSPropertyOp24
 70
     1
102
RTVSPropertyOp25
 70
     1
102
RTVSPropertyOp26
 70
     1
102
RTVSPropertyOp27
 70
     1
  0
XRECORD
  5
483
102
{ACAD_REACTORS
330
482
102
}
330
482
100
AcDbXrecord
280
     1
102
RTVSPropertyOp0
 70
     1
102
RTVSPropertyOp1
 70
     1
102
RTVSPropertyOp2
 70
     1
102
RTVSPropertyOp3
 70
     1
102
RTVSPropertyOp4
 70
     1
102
RTVSPropertyOp5
 70
     1
102
RTVSPropertyOp6
 70
     1
102
RTVSPropertyOp7
 70
     1
102
RTVSPropertyOp8
 70
     1
102
RTVSPropertyOp9
 70
     1
102
RTVSPropertyOp10
 70
     1
102
RTVSPropertyOp11
 70
     1
102
RTVSPropertyOp12
 70
     1
102
RTVSPropertyOp13
 70
     1
102
RTVSPropertyOp14
 70
     1
102
RTVSPropertyOp15
 70
     1
102
RTVSPropertyOp16
 70
     1
102
RTVSPropertyOp17
 70
     1
102
RTVSPropertyOp18
 70
     1
102
RTVSPropertyOp19
 70
     1
102
RTVSPropertyOp20
 70
     1
102
RTVSPropertyOp21
 70
     1
102
RTVSPropertyOp22
 70
     1
102
RTVSPropertyOp23
 70
     1
102
RTVSPropertyOp24
 70
     1
102
RTVSPropertyOp25
 70
     1
102
RTVSPropertyOp26
 70
     1
102
RTVSPropertyOp27
 70
     1
  0
ENDSEC
  0
EOF
