  0
SECTION
  2
HEADER
  9
$ACADVER
  1
AC1015
  9
$ACADMAINTVER
 70
     6
  9
$DWGCODEPAGE
  3
ANSI_1252
  9
$INSBASE
 10
0.0
 20
0.0
 30
0.0
  9
$EXTMIN
 10
0.0
 20
0.0
 30
0.0
  9
$EXTMAX
 10
420.0
 20
297.0
 30
0.0
  9
$LIMMIN
 10
0.0
 20
0.0
  9
$LIMMAX
 10
420.0
 20
297.0
  9
$ORTHOMODE
 70
     0
  9
$REGENMODE
 70
     1
  9
$FILLMODE
 70
     1
  9
$QTEXTMODE
 70
     0
  9
$MIRRTEXT
 70
     1
  9
$LTSCALE
 40
1.0
  9
$ATTMODE
 70
     1
  9
$TEXTSIZE
 40
3.5
  9
$TRACEWID
 40
1.0
  9
$TEXTSTYLE
  7
Standard
  9
$CLAYER
  8
0
  9
$CELTYPE
  6
ByLayer
  9
$CECOLOR
 62
   256
  9
$CELTSCALE
 40
1.0
  9
$DISPSILH
 70
     0
  9
$DIMSCALE
 40
1.0
  9
$DIMASZ
 40
3.302
  9
$DIMEXO
 40
1.0
  9
$DIMDLI
 40
3.75
  9
$DIMRND
 40
0.0
  9
$DIMDLE
 40
0.0
  9
$DIMEXE
 40
1.0
  9
$DIMTP
 40
0.0
  9
$DIMTM
 40
0.0
  9
$DIMTXT
 40
3.5
  9
$DIMCEN
 40
2.5
  9
$DIMTSZ
 40
0.0
  9
$DIMTOL
 70
     0
  9
$DIMLIM
 70
     0
  9
$DIMTIH
 70
     1
  9
$DIMTOH
 70
     1
  9
$DIMSE1
 70
     0
  9
$DIMSE2
 70
     0
  9
$DIMTAD
 70
     1
  9
$DIMZIN
 70
     0
  9
$DIMBLK
  1

  9
$DIMASO
 70
     1
  9
$DIMSHO
 70
     1
  9
$DIMPOST
  1

  9
$DIMAPOST
  1

  9
$DIMALT
 70
     0
  9
$DIMALTD
 70
     3
  9
$DIMALTF
 40
0.0393700787
  9
$DIMLFAC
 40
20.0
  9
$DIMTOFL
 70
     1
  9
$DIMTVP
 40
0.0
  9
$DIMTIX
 70
     0
  9
$DIMSOXD
 70
     0
  9
$DIMSAH
 70
     0
  9
$DIMBLK1
  1

  9
$DIMBLK2
  1

  9
$DIMSTYLE
  2
ISO-25
  9
$DIMCLRD
 70
     0
  9
$DIMCLRE
 70
     0
  9
$DIMCLRT
 70
     0
  9
$DIMTFAC
 40
1.0
  9
$DIMGAP
 40
1.524
  9
$DIMJUST
 70
     0
  9
$DIMSD1
 70
     0
  9
$DIMSD2
 70
     0
  9
$DIMTOLJ
 70
     0
  9
$DIMTZIN
 70
     0
  9
$DIMALTZ
 70
     0
  9
$DIMALTTZ
 70
     0
  9
$DIMUPT
 70
     0
  9
$DIMDEC
 70
     1
  9
$DIMTDEC
 70
     1
  9
$DIMALTU
 70
     2
  9
$DIMALTTD
 70
     3
  9
$DIMTXSTY
  7
Standard
  9
$DIMAUNIT
 70
     0
  9
$DIMADEC
 70
     1
  9
$DIMALTRND
 40
0.0
  9
$DIMAZIN
 70
     0
  9
$DIMDSEP
 70
    44
  9
$DIMATFIT
 70
     3
  9
$DIMFRAC
 70
     0
  9
$DIMLDRBLK
  1

  9
$DIMLUNIT
 70
     2
  9
$DIMLWD
 70
    -2
  9
$DIMLWE
 70
    -2
  9
$DIMTMOVE
 70
     0
  9
$LUNITS
 70
     2
  9
$LUPREC
 70
     1
  9
$SKETCHINC
 40
1.0
  9
$FILLETRAD
 40
10.0
  9
$AUNITS
 70
     0
  9
$AUPREC
 70
     1
  9
$MENU
  1
.
  9
$ELEVATION
 40
0.0
  9
$PELEVATION
 40
0.0
  9
$THICKNESS
 40
0.0
  9
$LIMCHECK
 70
     0
  9
$CHAMFERA
 40
10.0
  9
$CHAMFERB
 40
10.0
  9
$CHAMFERC
 40
20.0
  9
$CHAMFERD
 40
0.0
  9
$SKPOLY
 70
     0
  9
$TDCREATE
 40
2455379.447054387
  9
$TDUCREATE
 40
2455379.40538772
  9
$TDUPDATE
 40
2455379.447054398
  9
$TDUUPDATE
 40
2455379.405387731
  9
$TDINDWG
 40
0.0000000116
  9
$TDUSRTIMER
 40
0.0000000116
  9
$USRTIMER
 70
     1
  9
$ANGBASE
 50
0.0
  9
$ANGDIR
 70
     0
  9
$PDMODE
 70
     0
  9
$PDSIZE
 40
-1.0
  9
$PLINEWID
 40
0.0
  9
$SPLFRAME
 70
     0
  9
$SPLINETYPE
 70
     6
  9
$SPLINESEGS
 70
     8
  9
$HANDSEED
  5
49A
  9
$SURFTAB1
 70
     6
  9
$SURFTAB2
 70
     6
  9
$SURFTYPE
 70
     6
  9
$SURFU
 70
     6
  9
$SURFV
 70
     6
  9
$UCSBASE
  2

  9
$UCSNAME
  2

  9
$UCSORG
 10
0.0
 20
0.0
 30
0.0
  9
$UCSXDIR
 10
1.0
 20
0.0
 30
0.0
  9
$UCSYDIR
 10
0.0
 20
1.0
 30
0.0
  9
$UCSORTHOREF
  2

  9
$UCSORTHOVIEW
 70
     0
  9
$UCSORGTOP
 10
0.0
 20
0.0
 30
0.0
  9
$UCSORGBOTTOM
 10
0.0
 20
0.0
 30
0.0
  9
$UCSORGLEFT
 10
0.0
 20
0.0
 30
0.0
  9
$UCSORGRIGHT
 10
0.0
 20
0.0
 30
0.0
  9
$UCSORGFRONT
 10
0.0
 20
0.0
 30
0.0
  9
$UCSORGBACK
 10
0.0
 20
0.0
 30
0.0
  9
$PUCSBASE
  2

  9
$PUCSNAME
  2

  9
$PUCSORG
 10
0.0
 20
0.0
 30
0.0
  9
$PUCSXDIR
 10
1.0
 20
0.0
 30
0.0
  9
$PUCSYDIR
 10
0.0
 20
1.0
 30
0.0
  9
$PUCSORTHOREF
  2

  9
$PUCSORTHOVIEW
 70
     0
  9
$PUCSORGTOP
 10
0.0
 20
0.0
 30
0.0
  9
$PUCSORGBOTTOM
 10
0.0
 20
0.0
 30
0.0
  9
$PUCSORGLEFT
 10
0.0
 20
0.0
 30
0.0
  9
$PUCSORGRIGHT
 10
0.0
 20
0.0
 30
0.0
  9
$PUCSORGFRONT
 10
0.0
 20
0.0
 30
0.0
  9
$PUCSORGBACK
 10
0.0
 20
0.0
 30
0.0
  9
$USERI1
 70
     0
  9
$USERI2
 70
     0
  9
$USERI3
 70
     0
  9
$USERI4
 70
     0
  9
$USERI5
 70
     0
  9
$USERR1
 40
0.0
  9
$USERR2
 40
0.0
  9
$USERR3
 40
0.0
  9
$USERR4
 40
0.0
  9
$USERR5
 40
0.0
  9
$WORLDVIEW
 70
     1
  9
$SHADEDGE
 70
     3
  9
$SHADEDIF
 70
    70
  9
$TILEMODE
 70
     1
  9
$MAXACTVP
 70
    64
  9
$PINSBASE
 10
0.0
 20
0.0
 30
0.0
  9
$PLIMCHECK
 70
     0
  9
$PEXTMIN
 10
1.0000000000E+20
 20
1.0000000000E+20
 30
1.0000000000E+20
  9
$PEXTMAX
 10
-1.0000000000E+20
 20
-1.0000000000E+20
 30
-1.0000000000E+20
  9
$PLIMMIN
 10
0.0
 20
0.0
  9
$PLIMMAX
 10
420.0
 20
297.0
  9
$UNITMODE
 70
     0
  9
$VISRETAIN
 70
     1
  9
$PLINEGEN
 70
     0
  9
$PSLTSCALE
 70
     1
  9
$TREEDEPTH
 70
  3020
  9
$CMLSTYLE
  2
Standard
  9
$CMLJUST
 70
     0
  9
$CMLSCALE
 40
20.0
  9
$PROXYGRAPHICS
 70
     1
  9
$MEASUREMENT
 70
     1
  9
$CELWEIGHT
370
    -1
  9
$ENDCAPS
280
     0
  9
$JOINSTYLE
280
     0
  9
$LWDISPLAY
290
     1
  9
$INSUNITS
 70
     4
  9
$HYPERLINKBASE
  1

  9
$STYLESHEET
  1

  9
$XEDIT
290
     1
  9
$CEPSNTYPE
380
     0
  9
$PSTYLEMODE
290
     1
  9
$FINGERPRINTGUID
  2
{4331EB45-86BB-4E42-9A74-68D255882D4F}
  9
$VERSIONGUID
  2
{FAEB1C32-E019-11D5-929B-00C0DF256EC4}
  9
$EXTNAMES
290
     1
  9
$PSVPSCALE
 40
0.0
  9
$OLESTARTUP
290
     0
  0
ENDSEC
  0
SECTION
  2
CLASSES
  0
CLASS
  1
ACDBDICTIONARYWDFLT
  2
AcDbDictionaryWithDefault
  3
ObjectDBX Classes
 90
        0
280
     0
281
     0
  0
CLASS
  1
VISUALSTYLE
  2
AcDbVisualStyle
  3
ObjectDBX Classes
 90
     4095
280
     0
281
     0
  0
CLASS
  1
MATERIAL
  2
AcDbMaterial
  3
ObjectDBX Classes
 90
     1153
280
     0
281
     0
  0
CLASS
  1
SCALE
  2
AcDbScale
  3
ObjectDBX Classes
 90
     1153
280
     0
281
     0
  0
CLASS
  1
DICTIONARYVAR
  2
AcDbDictionaryVar
  3
ObjectDBX Classes
 90
        0
280
     0
281
     0
  0
CLASS
  1
ACDBPLACEHOLDER
  2
AcDbPlaceHolder
  3
ObjectDBX Classes
 90
        0
280
     0
281
     0
  0
CLASS
  1
LAYOUT
  2
AcDbLayout
  3
ObjectDBX Classes
 90
        0
280
     0
281
     0
  0
ENDSEC
  0
SECTION
  2
TABLES
  0
TABLE
  2
VPORT
  5
8
330
0
100
AcDbSymbolTable
 70
     1
  0
VPORT
  5
29
330
8
100
AcDbSymbolTableRecord
100
AcDbViewportTableRecord
  2
*Active
 70
     0
 10
0.0
 20
0.0
 11
1.0
 21
1.0
 12
210.0
 22
148.5
 13
0.0
 23
0.0
 14
10.0
 24
10.0
 15
10.0
 25
10.0
 16
0.0
 26
0.0
 36
1.0
 17
0.0
 27
0.0
 37
0.0
 40
297.0
 41
1.4141414141
 42
50.0
 43
0.0
 44
0.0
 50
0.0
 51
0.0
 71
     0
 72
  2000
 73
     1
 74
     3
 75
     0
 76
     0
 77
     0
 78
     0
281
     0
 65
     1
110
0.0
120
0.0
130
0.0
111
1.0
121
0.0
131
0.0
112
0.0
122
1.0
132
0.0
 79
     0
146
0.0
  0
ENDTAB
  0
TABLE
  2
LTYPE
  5
5
330
0
100
AcDbSymbolTable
 70
     6
  0
LTYPE
  5
14
330
5
100
AcDbSymbolTableRecord
100
AcDbLinetypeTableRecord
  2
ByBlock
 70
     0
  3

 72
    65
 73
     0
 40
0.0
  0
LTYPE
  5
15
330
5
100
AcDbSymbolTableRecord
100
AcDbLinetypeTableRecord
  2
ByLayer
 70
     0
  3

 72
    65
 73
     0
 40
0.0
  0
LTYPE
  5
16
330
5
100
AcDbSymbolTableRecord
100
AcDbLinetypeTableRecord
  2
Continuous
 70
     0
  3
Solid line
 72
    65
 73
     0
 40
0.0
  0
LTYPE
  5
3F
330
5
100
AcDbSymbolTableRecord
100
AcDbLinetypeTableRecord
  2
HIDDEN
 70
     0
  3
Hidden __ __ __ __ __ __ __ __ __ __ __ __ __ __
 72
    65
 73
     2
 40
1.905
 49
1.27
 74
     0
 49
-0.635
 74
     0
  0
LTYPE
  5
40
330
5
100
AcDbSymbolTableRecord
100
AcDbLinetypeTableRecord
  2
PHANTOM
 70
     0
  3
Phantom ______  __  __  ______  __  __  ______
 72
    65
 73
     6
 40
12.7
 49
6.35
 74
     0
 49
-1.27
 74
     0
 49
1.27
 74
     0
 49
-1.27
 74
     0
 49
1.27
 74
     0
 49
-1.27
 74
     0
  0
LTYPE
  5
41
330
5
100
AcDbSymbolTableRecord
100
AcDbLinetypeTableRecord
  2
CENTER
 70
     0
  3
Center ____ _ ____ _ ____ _ ____ _ ____ _ ____
 72
    65
 73
     4
 40
10.16
 49
6.35
 74
     0
 49
-1.27
 74
     0
 49
1.27
 74
     0
 49
-1.27
 74
     0
  0
LTYPE
  5
42
330
5
100
AcDbSymbolTableRecord
100
AcDbLinetypeTableRecord
  2
CENTERX2
 70
     0
  3
Center (2x) ________  __  ________  __  _____
 72
    65
 73
     4
 40
20.32
 49
12.7
 74
     0
 49
-2.54
 74
     0
 49
2.54
 74
     0
 49
-2.54
 74
     0
  0
LTYPE
  5
43
330
5
100
AcDbSymbolTableRecord
100
AcDbLinetypeTableRecord
  2
DOT2
 70
     0
  3
Dot (.5x) ........................................
 72
    65
 73
     2
 40
0.635
 49
0.0
 74
     0
 49
-0.635
 74
     0
  0
ENDTAB
  0
TABLE
  2
LAYER
  5
2
330
0
100
AcDbSymbolTable
 70
     4
  0
LAYER
  5
10
330
2
100
AcDbSymbolTableRecord
100
AcDbLayerTableRecord
  2
0
 70
     0
 62
     7
  6
Continuous
370
    -3
390
F
  0
LAYER
  5
44
330
2
100
AcDbSymbolTableRecord
100
AcDbLayerTableRecord
  2
FORMAT
 70
     0
 62
     7
  6
Continuous
370
    -3
390
F
  0
LAYER
  5
45
330
2
100
AcDbSymbolTableRecord
100
AcDbLayerTableRecord
  2
SLD-0
 70
     0
 62
     1
  6
Continuous
370
    -3
390
F
  0
LAYER
  5
46
330
2
100
AcDbSymbolTableRecord
100
AcDbLayerTableRecord
  2
WATERMARK
 70
     0
 62
    20
  6
Continuous
370
    -3
390
F
  0
ENDTAB
  0
TABLE
  2
STYLE
  5
3
330
0
100
AcDbSymbolTable
 70
     2
  0
STYLE
  5
11
330
3
100
AcDbSymbolTableRecord
100
AcDbTextStyleTableRecord
  2
Standard
 70
     0
 40
0.0
 41
1.0
 50
0.0
 71
     0
 42
2.5
  3
txt
  4

  0
STYLE
  5
47
330
3
100
AcDbSymbolTableRecord
100
AcDbTextStyleTableRecord
  2
SLDTEXTSTYLE0
 70
     0
 40
0.0
 41
0.75
 50
0.0
 71
     0
 42
0.2
  3
TXT
  4

  0
ENDTAB
  0
TABLE
  2
VIEW
  5
6
330
0
100
AcDbSymbolTable
 70
     0
  0
ENDTAB
  0
TABLE
  2
UCS
  5
7
330
0
100
AcDbSymbolTable
 70
     0
  0
ENDTAB
  0
TABLE
  2
APPID
  5
9
330
0
100
AcDbSymbolTable
 70
     1
  0
APPID
  5
12
330
9
100
AcDbSymbolTableRecord
100
AcDbRegAppTableRecord
  2
ACAD
 70
     0
  0
ENDTAB
  0
TABLE
  2
DIMSTYLE
  5
A
330
0
100
AcDbSymbolTable
 70
     1
100
AcDbDimStyleTable
  0
DIMSTYLE
105
27
330
A
100
AcDbSymbolTableRecord
100
AcDbDimStyleTableRecord
  2
ISO-25
 70
     0
 41
2.5
 42
0.625
 43
3.75
 44
1.25
 73
     0
 74
     0
 77
     1
 78
     8
140
2.5
141
2.5
143
0.0393700787
147
0.625
171
     3
172
     1
271
     2
272
     2
274
     3
278
    44
283
     0
284
     8
340
11
  0
ENDTAB
  0
TABLE
  2
BLOCK_RECORD
  5
1
330
0
100
AcDbSymbolTable
 70
     1
  0
BLOCK_RECORD
  5
1F
330
1
100
AcDbSymbolTableRecord
100
AcDbBlockTableRecord
  2
*Model_Space
340
22
  0
BLOCK_RECORD
  5
1B
330
1
100
AcDbSymbolTableRecord
100
AcDbBlockTableRecord
  2
*Paper_Space
340
1E
  0
BLOCK_RECORD
  5
23
330
1
100
AcDbSymbolTableRecord
100
AcDbBlockTableRecord
  2
*Paper_Space0
340
26
  0
ENDTAB
  0
ENDSEC
  0
SECTION
  2
BLOCKS
  0
BLOCK
  5
20
330
1F
100
AcDbEntity
  8
0
100
AcDbBlockBegin
  2
*Model_Space
 70
     0
 10
0.0
 20
0.0
 30
0.0
  3
*Model_Space
  1

  0
ENDBLK
  5
21
330
1F
100
AcDbEntity
  8
0
100
AcDbBlockEnd
  0
BLOCK
  5
1C
330
1B
100
AcDbEntity
 67
     1
  8
0
100
AcDbBlockBegin
  2
*Paper_Space
 70
     0
 10
0.0
 20
0.0
 30
0.0
  3
*Paper_Space
  1

  0
ENDBLK
  5
1D
330
1B
100
AcDbEntity
 67
     1
  8
0
100
AcDbBlockEnd
  0
BLOCK
  5
24
330
23
100
AcDbEntity
  8
0
100
AcDbBlockBegin
  2
*Paper_Space0
 70
     0
 10
0.0
 20
0.0
 30
0.0
  3
*Paper_Space0
  1

  0
ENDBLK
  5
25
330
23
100
AcDbEntity
  8
0
100
AcDbBlockEnd
  0
ENDSEC
  0
SECTION
  2
ENTITIES
  0
MTEXT
  5
6A
330
1F
100
AcDbEntity
  8
0
  6
Continuous
 62
     7
370
     0
100
AcDbMText
 10
261.1343039443
 20
95.0673882664
 30
0.0
 40
3.5
 41
0.0
 71
     1
 72
     1
  1
HT3 TROLLEY
  7
SLDTEXTSTYLE0
 73
     1
 44
1.0
  0
LINE
  5
6B
330
1F
100
AcDbEntity
  8
0
  6
Continuous
 62
     7
370
    15
100
AcDbLine
 10
312.112953075
 20
177.2594720424
 30
0.0
 11
312.1365520439
 21
177.2594720424
 31
0.0
  0
LINE
  5
6C
330
1F
100
AcDbEntity
  8
0
  6
Continuous
 62
     7
370
    15
100
AcDbLine
 10
312.1365520439
 20
214.1286496372
 30
0.0
 11
312.112953075
 21
214.1286496372
 31
0.0
  0
LINE
  5
6D
330
1F
100
AcDbEntity
  8
0
  6
Continuous
 62
     7
370
    15
100
AcDbLine
 10
312.6373323879
 20
214.2190609426
 30
0.0
 11
312.6373323879
 21
214.1940597743
 31
0.0
  0
LINE
  5
6E
330
1F
100
AcDbEntity
  8
0
  6
Continuous
 62
     7
370
    15
100
AcDbLine
 10
313.1873327575
 20
214.1940597743
 30
0.0
 11
313.1873327575
 21
214.2190609426
 31
0.0
  0
LINE
  5
6F
330
1F
100
AcDbEntity
  8
0
  6
Continuous
 62
     7
370
    15
100
AcDbLine
 10
313.2378178916
 20
214.1940597743
 30
0.0
 11
313.2378178916
 21
214.2190609426
 31
0.0
  0
LINE
  5
70
330
1F
100
AcDbEntity
  8
0
  6
Continuous
 62
     7
370
    15
100
AcDbLine
 10
312.6345309696
 20
214.2190609426
 30
0.0
 11
312.6345309696
 21
214.1940597743
 31
0.0
  0
LINE
  5
71
330
1F
100
AcDbEntity
  8
0
  6
Continuous
 62
     7
370
    15
100
AcDbLine
 10
312.6311558566
 20
177.1940604151
 30
0.0
 11
312.6311558566
 21
177.1690603644
 31
0.0
  0
LINE
  5
72
330
1F
100
AcDbEntity
  8
0
  6
Continuous
 62
     7
370
    15
100
AcDbLine
 10
313.1856444559
 20
177.1690603644
 30
0.0
 11
313.1856444559
 21
177.1940604151
 31
0.0
  0
LINE
  5
73
330
1F
100
AcDbEntity
  8
0
  6
Continuous
 62
     7
370
    15
100
AcDbLine
 10
312.6356440864
 20
177.1940604151
 30
0.0
 11
312.6356440864
 21
177.1690603644
 31
0.0
  0
LINE
  5
74
330
1F
100
AcDbEntity
  8
0
  6
Continuous
 62
     7
370
    15
100
AcDbLine
 10
314.5600783906
 20
214.986777708
 30
0.0
 11
314.5600783906
 21
215.2867768258
 31
0.0
  0
LINE
  5
75
330
1F
100
AcDbEntity
  8
0
  6
Continuous
 62
     7
370
    15
100
AcDbLine
 10
313.821129807
 20
214.0867773742
 30
0.0
 11
313.8788658462
 21
213.9867786617
 31
0.0
  0
LINE
  5
76
330
1F
100
AcDbEntity
  8
0
  6
Continuous
 62
     7
370
    15
100
AcDbLine
 10
314.2633947811
 20
213.9867786617
 30
0.0
 11
314.3211308203
 21
214.0867773742
 31
0.0
  0
LINE
  5
77
330
1F
100
AcDbEntity
  8
0
  6
Continuous
 62
     7
370
    15
100
AcDbLine
 10
313.821129807
 20
214.986777708
 30
0.0
 11
313.821129807
 21
214.6440599412
 31
0.0
  0
LINE
  5
78
330
1F
100
AcDbEntity
  8
0
  6
Continuous
 62
     7
370
    15
100
AcDbLine
 10
313.821129807
 20
214.1440604181
 30
0.0
 11
313.821129807
 21
214.0867773742
 31
0.0
  0
LINE
  5
79
330
1F
100
AcDbEntity
  8
0
  6
Continuous
 62
     7
370
    15
100
AcDbLine
 10
314.3211308203
 20
214.0867773742
 30
0.0
 11
314.3211308203
 21
214.1440604181
 31
0.0
  0
LINE
  5
7A
330
1F
100
AcDbEntity
  8
0
  6
Continuous
 62
     7
370
    15
100
AcDbLine
 10
314.3211308203
 20
214.6440599412
 30
0.0
 11
314.3211308203
 21
214.986777708
 31
0.0
  0
LINE
  5
7B
330
1F
100
AcDbEntity
  8
0
  6
Continuous
 62
     7
370
    15
100
AcDbLine
 10
314.3211308203
 20
176.7013432757
 30
0.0
 11
314.3211308203
 21
176.7440602482
 31
0.0
  0
LINE
  5
7C
330
1F
100
AcDbEntity
  8
0
  6
Continuous
 62
     7
370
    15
100
AcDbLine
 10
314.3211308203
 20
177.2440601439
 30
0.0
 11
314.3211308203
 21
177.4013433904
 31
0.0
  0
LINE
  5
7D
330
1F
100
AcDbEntity
  8
0
  6
Continuous
 62
     7
370
    15
100
AcDbLine
 10
313.821129807
 20
177.4013433904
 30
0.0
 11
313.821129807
 21
177.2440601439
 31
0.0
  0
LINE
  5
7E
330
1F
100
AcDbEntity
  8
0
  6
Continuous
 62
     7
370
    15
100
AcDbLine
 10
313.821129807
 20
176.7440602482
 30
0.0
 11
313.821129807
 21
176.7013432757
 31
0.0
  0
LINE
  5
7F
330
1F
100
AcDbEntity
  8
0
  6
Continuous
 62
     7
370
    15
100
AcDbLine
 10
314.3211308203
 20
177.4013433904
 30
0.0
 11
314.2633947811
 21
177.5013432205
 31
0.0
  0
LINE
  5
80
330
1F
100
AcDbEntity
  8
0
  6
Continuous
 62
     7
370
    15
100
AcDbLine
 10
313.8788658462
 20
177.5013432205
 30
0.0
 11
313.821129807
 21
177.4013433904
 31
0.0
  0
LINE
  5
81
330
1F
100
AcDbEntity
  8
0
  6
Continuous
 62
     7
370
    15
100
AcDbLine
 10
314.3711301766
 20
177.2440601439
 30
0.0
 11
314.3711301766
 21
177.4511978329
 31
0.0
  0
LINE
  5
82
330
1F
100
AcDbEntity
  8
0
  6
Continuous
 62
     7
370
    15
100
AcDbLine
 10
314.3711301766
 20
177.4511978329
 30
0.0
 11
314.3133956275
 21
177.5511980355
 31
0.0
  0
LINE
  5
83
330
1F
100
AcDbEntity
  8
0
  6
Continuous
 62
     7
370
    15
100
AcDbLine
 10
313.9288652025
 20
177.5511980355
 30
0.0
 11
313.9000821195
 21
177.5013432205
 31
0.0
  0
LINE
  5
84
330
1F
100
AcDbEntity
  8
0
  6
Continuous
 62
     7
370
    15
100
AcDbLine
 10
314.6101358614
 20
176.2511978224
 30
0.0
 11
314.6101358614
 21
176.5511978716
 31
0.0
  0
LINE
  5
85
330
1F
100
AcDbEntity
  8
0
  6
Continuous
 62
     7
370
    15
100
AcDbLine
 10
314.5601365052
 20
176.2013431937
 30
0.0
 11
314.5601365052
 21
176.5013432429
 31
0.0
  0
LINE
  5
86
330
1F
100
AcDbEntity
  8
0
  6
Continuous
 62
     7
370
    15
100
AcDbLine
 10
314.4978183589
 20
214.6190617532
 30
0.0
 11
314.4728186808
 21
214.6440599412
 31
0.0
  0
LINE
  5
87
330
1F
100
AcDbEntity
  8
0
  6
Continuous
 62
     7
370
    15
100
AcDbLine
 10
313.6728185497
 20
214.6440599412
 30
0.0
 11
313.6478188715
 21
214.6190617532
 31
0.0
  0
LINE
  5
88
330
1F
100
AcDbEntity
  8
0
  6
Continuous
 62
     7
370
    15
100
AcDbLine
 10
313.6478188715
 20
214.5440612287
 30
0.0
 11
313.6728185497
 21
214.5190600604
 31
0.0
  0
LINE
  5
89
330
1F
100
AcDbEntity
  8
0
  6
Continuous
 62
     7
370
    15
100
AcDbLine
 10
314.4728186808
 20
214.5190600604
 30
0.0
 11
314.4978183589
 21
214.5440612287
 31
0.0
  0
LINE
  5
8A
330
1F
100
AcDbEntity
  8
0
  6
Continuous
 62
     7
370
    15
100
AcDbLine
 10
314.4978183589
 20
214.5440612287
 30
0.0
 11
314.4978183589
 21
214.6190617532
 31
0.0
  0
LINE
  5
8B
330
1F
100
AcDbEntity
  8
0
  6
Continuous
 62
     7
370
    15
100
AcDbLine
 10
313.6478188715
 20
214.6190617532
 30
0.0
 11
313.6478188715
 21
214.5440612287
 31
0.0
  0
LINE
  5
8C
330
1F
100
AcDbEntity
  8
0
  6
Continuous
 62
     7
370
    15
100
AcDbLine
 10
314.3978181563
 20
214.1690615863
 30
0.0
 11
314.3978181563
 21
214.2190609426
 31
0.0
  0
LINE
  5
8D
330
1F
100
AcDbEntity
  8
0
  6
Continuous
 62
     7
370
    15
100
AcDbLine
 10
313.7478190742
 20
214.2190609426
 30
0.0
 11
313.7478190742
 21
214.1690615863
 31
0.0
  0
LINE
  5
8E
330
1F
100
AcDbEntity
  8
0
  6
Continuous
 62
     7
370
    15
100
AcDbLine
 10
313.7478190742
 20
214.1690615863
 30
0.0
 11
313.7728187523
 21
214.1440604181
 31
0.0
  0
LINE
  5
8F
330
1F
100
AcDbEntity
  8
0
  6
Continuous
 62
     7
370
    15
100
AcDbLine
 10
314.3728184781
 20
214.1440604181
 30
0.0
 11
314.3978181563
 21
214.1690615863
 31
0.0
  0
LINE
  5
90
330
1F
100
AcDbEntity
  8
0
  6
Continuous
 62
     7
370
    15
100
AcDbLine
 10
314.5228180371
 20
214.5190600604
 30
0.0
 11
314.5478192053
 21
214.5440612287
 31
0.0
  0
LINE
  5
91
330
1F
100
AcDbEntity
  8
0
  6
Continuous
 62
     7
370
    15
100
AcDbLine
 10
314.5478192053
 20
214.6190617532
 30
0.0
 11
314.5228180371
 21
214.6440599412
 31
0.0
  0
LINE
  5
92
330
1F
100
AcDbEntity
  8
0
  6
Continuous
 62
     7
370
    15
100
AcDbLine
 10
314.5478192053
 20
214.5440612287
 30
0.0
 11
314.5478192053
 21
214.6190617532
 31
0.0
  0
LINE
  5
93
330
1F
100
AcDbEntity
  8
0
  6
Continuous
 62
     7
370
    15
100
AcDbLine
 10
314.4228193245
 20
214.1440604181
 30
0.0
 11
314.4478190027
 21
214.1690615863
 31
0.0
  0
LINE
  5
94
330
1F
100
AcDbEntity
  8
0
  6
Continuous
 62
     7
370
    15
100
AcDbLine
 10
314.4478190027
 20
214.1690615863
 30
0.0
 11
314.4478190027
 21
214.2190609426
 31
0.0
  0
LINE
  5
95
330
1F
100
AcDbEntity
  8
0
  6
Continuous
 62
     7
370
    15
100
AcDbLine
 10
314.5461309037
 20
176.7690602989
 30
0.0
 11
314.5461309037
 21
176.8440604508
 31
0.0
  0
LINE
  5
96
330
1F
100
AcDbEntity
  8
0
  6
Continuous
 62
     7
370
    15
100
AcDbLine
 10
314.5461309037
 20
176.8440604508
 30
0.0
 11
314.5211297355
 21
176.8690605015
 31
0.0
  0
LINE
  5
97
330
1F
100
AcDbEntity
  8
0
  6
Continuous
 62
     7
370
    15
100
AcDbLine
 10
314.5282673917
 20
176.7511979044
 30
0.0
 11
314.5461309037
 21
176.7690602989
 31
0.0
  0
LINE
  5
98
330
1F
100
AcDbEntity
  8
0
  6
Continuous
 62
     7
370
    15
100
AcDbLine
 10
314.4461307011
 20
177.1690603644
 30
0.0
 11
314.4461307011
 21
177.2190604657
 31
0.0
  0
LINE
  5
99
330
1F
100
AcDbEntity
  8
0
  6
Continuous
 62
     7
370
    15
100
AcDbLine
 10
314.4461307011
 20
177.2190604657
 30
0.0
 11
314.421131023
 21
177.2440601439
 31
0.0
  0
LINE
  5
9A
330
1F
100
AcDbEntity
  8
0
  6
Continuous
 62
     7
370
    15
100
AcDbLine
 10
314.4961300574
 20
176.8440604508
 30
0.0
 11
314.4711303792
 21
176.8690605015
 31
0.0
  0
LINE
  5
9B
330
1F
100
AcDbEntity
  8
0
  6
Continuous
 62
     7
370
    15
100
AcDbLine
 10
313.6711302481
 20
176.8690605015
 30
0.0
 11
313.64613057
 21
176.8440604508
 31
0.0
  0
LINE
  5
9C
330
1F
100
AcDbEntity
  8
0
  6
Continuous
 62
     7
370
    15
100
AcDbLine
 10
313.64613057
 20
176.7690602989
 30
0.0
 11
313.6711302481
 21
176.7440602482
 31
0.0
  0
LINE
  5
9D
330
1F
100
AcDbEntity
  8
0
  6
Continuous
 62
     7
370
    15
100
AcDbLine
 10
314.4711303792
 20
176.7440602482
 30
0.0
 11
314.4961300574
 21
176.7690602989
 31
0.0
  0
LINE
  5
9E
330
1F
100
AcDbEntity
  8
0
  6
Continuous
 62
     7
370
    15
100
AcDbLine
 10
313.64613057
 20
176.8440604508
 30
0.0
 11
313.64613057
 21
176.7690602989
 31
0.0
  0
LINE
  5
9F
330
1F
100
AcDbEntity
  8
0
  6
Continuous
 62
     7
370
    15
100
AcDbLine
 10
314.4961300574
 20
176.7690602989
 30
0.0
 11
314.4961300574
 21
176.8440604508
 31
0.0
  0
LINE
  5
A0
330
1F
100
AcDbEntity
  8
0
  6
Continuous
 62
     7
370
    15
100
AcDbLine
 10
314.3961298547
 20
177.2190604657
 30
0.0
 11
314.3711301766
 21
177.2440601439
 31
0.0
  0
LINE
  5
A1
330
1F
100
AcDbEntity
  8
0
  6
Continuous
 62
     7
370
    15
100
AcDbLine
 10
313.7711304507
 20
177.2440601439
 30
0.0
 11
313.7461307726
 21
177.2190604657
 31
0.0
  0
LINE
  5
A2
330
1F
100
AcDbEntity
  8
0
  6
Continuous
 62
     7
370
    15
100
AcDbLine
 10
313.7461307726
 20
177.2190604657
 30
0.0
 11
313.7461307726
 21
177.1690603644
 31
0.0
  0
LINE
  5
A3
330
1F
100
AcDbEntity
  8
0
  6
Continuous
 62
     7
370
    15
100
AcDbLine
 10
314.3961298547
 20
177.1690603644
 30
0.0
 11
314.3961298547
 21
177.2190604657
 31
0.0
  0
LINE
  5
A4
330
1F
100
AcDbEntity
  8
0
  6
Continuous
 62
     7
370
    15
100
AcDbLine
 10
313.6211308918
 20
176.6013432593
 30
0.0
 11
313.6211308918
 21
176.5013432429
 31
0.0
  0
LINE
  5
A5
330
1F
100
AcDbEntity
  8
0
  6
Continuous
 62
     7
370
    15
100
AcDbLine
 10
314.5211297355
 20
176.5013432429
 30
0.0
 11
314.5211297355
 21
176.6013432593
 31
0.0
  0
LINE
  5
A6
330
1F
100
AcDbEntity
  8
0
  6
Continuous
 62
     7
370
    15
100
AcDbLine
 10
313.6211308918
 20
176.7013432757
 30
0.0
 11
313.6211308918
 21
176.6013432593
 31
0.0
  0
LINE
  5
A7
330
1F
100
AcDbEntity
  8
0
  6
Continuous
 62
     7
370
    15
100
AcDbLine
 10
314.5211297355
 20
176.6013432593
 30
0.0
 11
314.5211297355
 21
176.7013432757
 31
0.0
  0
LINE
  5
A8
330
1F
100
AcDbEntity
  8
0
  6
Continuous
 62
     7
370
    15
100
AcDbLine
 10
313.6711302481
 20
176.7440602482
 30
0.0
 11
313.6711302481
 21
176.7013432757
 31
0.0
  0
LINE
  5
A9
330
1F
100
AcDbEntity
  8
0
  6
Continuous
 62
     7
370
    15
100
AcDbLine
 10
314.5711305819
 20
176.651197888
 30
0.0
 11
314.5711305819
 21
176.7511979044
 31
0.0
  0
LINE
  5
AA
330
1F
100
AcDbEntity
  8
0
  6
Continuous
 62
     7
370
    15
100
AcDbLine
 10
314.5711305819
 20
176.5511978716
 30
0.0
 11
314.5711305819
 21
176.651197888
 31
0.0
  0
LINE
  5
AB
330
1F
100
AcDbEntity
  8
0
  6
Continuous
 62
     7
370
    15
100
AcDbLine
 10
285.8186307631
 20
206.5036002845
 30
0.0
 11
285.8661304496
 21
206.5036002845
 31
0.0
  0
LINE
  5
AC
330
1F
100
AcDbEntity
  8
0
  6
Continuous
 62
     7
370
    15
100
AcDbLine
 10
286.1661303125
 20
206.5036002845
 30
0.0
 11
286.1786301515
 21
206.5036002845
 31
0.0
  0
LINE
  5
AD
330
1F
100
AcDbEntity
  8
0
  6
Continuous
 62
     7
370
    15
100
AcDbLine
 10
307.1036304615
 20
206.5036002845
 30
0.0
 11
307.1161303005
 21
206.5036002845
 31
0.0
  0
LINE
  5
AE
330
1F
100
AcDbEntity
  8
0
  6
Continuous
 62
     7
370
    15
100
AcDbLine
 10
307.4161301635
 20
206.5036002845
 30
0.0
 11
307.463630595
 21
206.5036002845
 31
0.0
  0
LINE
  5
AF
330
1F
100
AcDbEntity
  8
0
  6
Continuous
 62
     7
370
    15
100
AcDbLine
 10
306.6411304555
 20
205.7695214004
 30
0.0
 11
306.6411304555
 21
205.769759819
 31
0.0
  0
LINE
  5
B0
330
1F
100
AcDbEntity
  8
0
  6
Continuous
 62
     7
370
    15
100
AcDbLine
 10
286.6411301575
 20
205.769759819
 30
0.0
 11
286.6411301575
 21
205.7695214004
 31
0.0
  0
SPLINE
  5
B1
330
1F
100
AcDbEntity
  8
0
  6
Continuous
 62
     7
370
    15
100
AcDbSpline
210
0.0
220
0.0
230
1.0
 70
     8
 71
     3
 72
    33
 73
    29
 74
     0
 42
0.00000001
 43
0.00000001
 40
0.0
 40
0.0
 40
0.0
 40
0.0
 40
0.022082796333423
 40
0.0640597214673458
 40
0.1060415886351101
 40
0.1480229278748194
 40
0.1900037679525841
 40
0.2319837065603661
 40
0.2739623951278982
 40
0.3159394644279758
 40
0.357915000573744
 40
0.3998877526055314
 40
0.4418574374061091
 40
0.4838230064425954
 40
0.5257828846300253
 40
0.5677361348569986
 40
0.6096795444673151
 40
0.6516090943413898
 40
0.6935196491313965
 40
0.7354011171161852
 40
0.7772381168635155
 40
0.8190003716111056
 40
0.8606304567971712
 40
0.9020011027789188
 40
0.9427906971289077
 40
0.9753179879385391
 40
0.9976562212211142
 40
1.0
 40
1.0
 40
1.0
 40
1.0
 10
291.1161306581737
 20
206.2222574204738
 30
0.0
 10
291.0720770305047
 20
206.2222583958877
 30
0.0
 10
290.9442823855016
 20
206.2222612254543
 30
0.0
 10
290.7330309393905
 20
206.2223081763116
 30
0.0
 10
290.4836698877609
 20
206.2224170504684
 30
0.0
 10
290.2367949538426
 20
206.222569502524
 30
0.0
 10
289.9934003935546
 20
206.222780645575
 30
0.0
 10
289.7544471344357
 20
206.2230353110155
 30
0.0
 10
289.5208824985398
 20
206.2233432957422
 30
0.0
 10
289.2936282619967
 20
206.2236984630229
 30
0.0
 10
289.0735905733883
 20
206.2240976866779
 30
0.0
 10
288.8616358448948
 20
206.2245416961069
 30
0.0
 10
288.6586091344493
 20
206.2250307379314
 30
0.0
 10
288.4653177639516
 20
206.2255630622452
 30
0.0
 10
288.2825259791363
 20
206.226127543371
 30
0.0
 10
288.110973895929
 20
206.2267346910409
 30
0.0
 10
287.9513413705518
 20
206.2273713884889
 30
0.0
 10
287.8042771958544
 20
206.2280438556126
 30
0.0
 10
287.6703882643787
 20
206.2287403003969
 30
0.0
 10
287.5502287874234
 20
206.2294657453185
 30
0.0
 10
287.4443274448598
 20
206.2302117768531
 30
0.0
 10
287.3531949450798
 20
206.2309707841681
 30
0.0
 10
287.277286460577
 20
206.2317449480193
 30
0.0
 10
287.2174092048656
 20
206.2325126143771
 30
0.0
 10
287.1760601290964
 20
206.2332356260335
 30
0.0
 10
287.155398544765
 20
206.2337236844545
 30
0.0
 10
287.147052137377
 20
206.2340608161206
 30
0.0
 10
287.1484851609827
 20
206.233991241106
 30
0.0
 10
287.1486212394478
 20
206.2339846343334
 30
0.0
  0
SPLINE
  5
B2
330
1F
100
AcDbEntity
  8
0
  6
Continuous
 62
     7
370
    15
100
AcDbSpline
210
0.0
220
0.0
230
1.0
 70
     8
 71
     3
 72
    46
 73
    42
 74
     0
 42
0.00000001
 43
0.00000001
 40
0.0
 40
0.0
 40
0.0
 40
0.0
 40
0.0017740346952013
 40
0.0131592709929696
 40
0.0239295303793347
 40
0.0341059236970155
 40
0.0436750090601569
 40
0.0525867330644734
 40
0.060729364950234
 40
0.0678607782453863
 40
0.0736998370389509
 40
0.0786155286309587
 40
0.0835685292022419
 40
0.089374249472149
 40
0.0971193238736538
 40
0.1086553552222627
 40
0.1279658372428511
 40
0.1731523668101698
 40
0.2098017195889058
 40
0.2486025147485733
 40
0.2865380107784987
 40
0.3241499899795147
 40
0.3616157995202672
 40
0.3990040345891078
 40
0.4363474829341962
 40
0.4736630615726926
 40
0.5109602411561133
 40
0.5482450331958447
 40
0.5855207613378318
 40
0.6227901670344723
 40
0.6600548890250691
 40
0.6973158101520323
 40
0.734573869120353
 40
0.7718298977799712
 40
0.8090842903134432
 40
0.8463374616619744
 40
0.883589727445742
 40
0.9208412136261056
 40
0.9580921687461237
 40
0.9933843125052398
 40
1.0
 40
1.0
 40
1.0
 40
1.0
 10
286.6662326536419
 20
205.6108270139034
 30
0.0
 10
286.6672210587223
 20
205.6069592187298
 30
0.0
 10
286.6745527587947
 20
205.5782690443091
 30
0.0
 10
286.6994515401382
 20
205.5298097653036
 30
0.0
 10
286.7388430033961
 20
205.4686954196139
 30
0.0
 10
286.7851276745371
 20
205.4176340254583
 30
0.0
 10
286.8345553546197
 20
205.3761764023783
 30
0.0
 10
286.8850484425354
 20
205.3440949665247
 30
0.0
 10
286.9337960248985
 20
205.3208078046605
 30
0.0
 10
286.9775715503831
 20
205.3053930485018
 30
0.0
 10
287.0138189007309
 20
205.2961440379775
 30
0.0
 10
287.0416205908543
 20
205.2910087633165
 30
0.0
 10
287.0620586577217
 20
205.2882520510326
 30
0.0
 10
287.0777556838426
 20
205.2866876023097
 30
0.0
 10
287.0913069521538
 20
205.2856823010849
 30
0.0
 10
287.1054103794598
 20
205.2849301707623
 30
0.0
 10
287.1280369416962
 20
205.2840782243702
 30
0.0
 10
287.1628827836433
 20
205.2832792315145
 30
0.0
 10
287.2210862690445
 20
205.2823612420263
 30
0.0
 10
287.2905461805468
 20
205.2815426704375
 30
0.0
 10
287.376077247149
 20
205.2807273494443
 30
0.0
 10
287.4754747737644
 20
205.2799541059052
 30
0.0
 10
287.5887996471188
 20
205.2791999134347
 30
0.0
 10
287.7157917493288
 20
205.2784789842485
 30
0.0
 10
287.8560366619176
 20
205.2777874081609
 30
0.0
 10
288.0090301045392
 20
205.2771250776234
 30
0.0
 10
288.1742061848452
 20
205.2764957198256
 30
0.0
 10
288.3509259100778
 20
205.2759021553314
 30
0.0
 10
288.5385135968122
 20
205.275347171197
 30
0.0
 10
288.7362344252392
 20
205.2748345878835
 30
0.0
 10
288.9433175012236
 20
205.2743642169839
 30
0.0
 10
289.1589524624058
 20
205.2739329726729
 30
0.0
 10
289.382293228095
 20
205.2735533563483
 30
0.0
 10
289.6124589780839
 20
205.2732142137529
 30
0.0
 10
289.8485484285775
 20
205.2729297838374
 30
0.0
 10
290.0896302605714
 20
205.2726900172612
 30
0.0
 10
290.3347553226804
 20
205.2725029918817
 30
0.0
 10
290.5829596495212
 20
205.2723643262877
 30
0.0
 10
290.8288722992829
 20
205.2722848817824
 30
0.0
 10
291.0069520377546
 20
205.2722567733915
 30
0.0
 10
291.1012452654317
 20
205.2722575999371
 30
0.0
 10
291.1161306581737
 20
205.2722577304179
 30
0.0
  0
SPLINE
  5
B3
330
1F
100
AcDbEntity
  8
0
  6
Continuous
 62
     7
370
    15
100
AcDbSpline
210
0.0
220
0.0
230
1.0
 70
     8
 71
     3
 72
     9
 73
     5
 74
     0
 42
0.00000001
 43
0.00000001
 40
0.0
 40
0.0
 40
0.0
 40
0.0
 40
0.5435885520504863
 40
1.0
 40
1.0
 40
1.0
 40
1.0
 10
286.6411301574948
 20
205.760452553683
 30
0.0
 10
286.642257598232
 20
205.7327393256449
 30
0.0
 10
286.6443316682854
 20
205.681757332125
 30
0.0
 10
286.6593693043788
 20
205.6330552168529
 30
0.0
 10
286.6662326536419
 20
205.6108270139034
 30
0.0
  0
LINE
  5
B4
330
1F
100
AcDbEntity
  8
0
  6
Continuous
 62
     7
370
    15
100
AcDbLine
 10
291.1161306582
 20
205.2722577304
 30
0.0
 11
302.1661303274
 21
205.2722577304
 31
0.0
  0
LINE
  5
B5
330
1F
100
AcDbEntity
  8
0
  6
Continuous
 62
     7
370
    15
100
AcDbLine
 10
302.1661303274
 20
206.2222574205
 30
0.0
 11
291.1161306582
 21
206.2222574205
 31
0.0
  0
SPLINE
  5
B6
330
1F
100
AcDbEntity
  8
0
  6
Continuous
 62
     7
370
    15
100
AcDbSpline
210
0.0
220
0.0
230
1.0
 70
     8
 71
     3
 72
    33
 73
    29
 74
     0
 42
0.00000001
 43
0.00000001
 40
0.0
 40
0.0
 40
0.0
 40
0.0
 40
0.0110411656341914
 40
0.0349213881211204
 40
0.0664041754993068
 40
0.1033802649498004
 40
0.1431261294231366
 40
0.1840453757310899
 40
0.2254662862728359
 40
0.2671224478564589
 40
0.3089010296690107
 40
0.3507487309351597
 40
0.3926382124345536
 40
0.4345544606276734
 40
0.4764890964205851
 40
0.5184358313512047
 40
0.5603918970590962
 40
0.6023545097662724
 40
0.6443220430471001
 40
0.6862930764292241
 40
0.7282671356027325
 40
0.770243405440218
 40
0.8122214968276649
 40
0.8542007597934714
 40
0.8961811247286119
 40
0.938162182151381
 40
0.9801436453442881
 40
1.0
 40
1.0
 40
1.0
 40
1.0
 10
306.1332742951157
 20
206.2339727134044
 30
0.0
 10
306.1332595657345
 20
206.2339711557416
 30
0.0
 10
306.1332129791284
 20
206.2339662291108
 30
0.0
 10
306.121819089923
 20
206.23359223
 30
0.0
 10
306.0979407174986
 20
206.2330802138611
 30
0.0
 10
306.0566754412946
 20
206.2323967537214
 30
0.0
 10
305.9980816944486
 20
206.2316720649272
 30
0.0
 10
305.9226155701055
 20
206.2309115259835
 30
0.0
 10
305.8313722053206
 20
206.2301593569727
 30
0.0
 10
305.7251083423185
 20
206.229421276742
 30
0.0
 10
305.6044657141256
 20
206.2286980138819
 30
0.0
 10
305.4700339027051
 20
206.228004974751
 30
0.0
 10
305.3224106583161
 20
206.2273355886132
 30
0.0
 10
305.1622177369517
 20
206.2267015640845
 30
0.0
 10
304.9901188618961
 20
206.2260987724537
 30
0.0
 10
304.8068030916407
 20
206.2255322241739
 30
0.0
 10
304.6130151917425
 20
206.2250039017943
 30
0.0
 10
304.4095268935523
 20
206.2245188564232
 30
0.0
 10
304.1971478982547
 20
206.2240727707534
 30
0.0
 10
303.9767240617128
 20
206.2236778874391
 30
0.0
 10
303.7491299338538
 20
206.223325309755
 30
0.0
 10
303.5152686960373
 20
206.2230205261411
 30
0.0
 10
303.2760670032058
 20
206.2227683535292
 30
0.0
 10
303.0324707082483
 20
206.2225619246558
 30
0.0
 10
302.7854454422648
 20
206.2224060031257
 30
0.0
 10
302.5359727629951
 20
206.2223062929307
 30
0.0
 10
302.3291037356328
 20
206.2222624381932
 30
0.0
 10
302.2057421833273
 20
206.2222586400665
 30
0.0
 10
302.166130327368
 20
206.2222574204738
 30
0.0
  0
SPLINE
  5
B7
330
1F
100
AcDbEntity
  8
0
  6
Continuous
 62
     7
370
    15
100
AcDbSpline
210
0.0
220
0.0
230
1.0
 70
     8
 71
     3
 72
    10
 73
     6
 74
     0
 42
0.00000001
 43
0.00000001
 40
0.0
 40
0.0
 40
0.0
 40
0.0
 40
0.2492692010016837
 40
0.7744754885765311
 40
1.0
 40
1.0
 40
1.0
 40
1.0
 10
306.6143135807754
 20
205.6083981246288
 30
0.0
 10
306.6187940273035
 20
205.6205061438578
 30
0.0
 10
306.6327147042256
 20
205.6581255692438
 30
0.0
 10
306.6398360540255
 20
205.7099933919541
 30
0.0
 10
306.6408314361312
 20
205.7487959945081
 30
0.0
 10
306.641130455518
 20
205.760452553683
 30
0.0
  0
SPLINE
  5
B8
330
1F
100
AcDbEntity
  8
0
  6
Continuous
 62
     7
370
    15
100
AcDbSpline
210
0.0
220
0.0
230
1.0
 70
     8
 71
     3
 72
    44
 73
    40
 74
     0
 42
0.00000001
 43
0.00000001
 40
0.0
 40
0.0
 40
0.0
 40
0.0
 40
0.0196027236435372
 40
0.0568655521482156
 40
0.0941330254448657
 40
0.1314006565324002
 40
0.1686689202431279
 40
0.205937869954873
 40
0.2432075553924339
 40
0.2804787610069457
 40
0.3177513467823359
 40
0.3550259789278742
 40
0.3923033128712142
 40
0.4295840966499244
 40
0.4668689296870442
 40
0.5041598340653802
 40
0.541458540656089
 40
0.5787678561225337
 40
0.6160929115077569
 40
0.6534403534861201
 40
0.6908229455263609
 40
0.7282625724436478
 40
0.7658038173459903
 40
0.8035442238074616
 40
0.8417436044348262
 40
0.8813449274962316
 40
0.89940646189124
 40
0.9086279931314357
 40
0.9158606259994062
 40
0.9213791108068515
 40
0.9267110107207431
 40
0.9329425042067963
 40
0.9409820949963601
 40
0.9499251275784351
 40
0.9597285890397431
 40
0.9704949778334303
 40
0.9819128110196952
 40
0.9937169676601729
 40
1.0
 40
1.0
 40
1.0
 40
1.0
 10
302.166130327368
 20
205.2722577304179
 30
0.0
 10
302.2102183460357
 20
205.2722586633251
 30
0.0
 10
302.3381133044228
 20
205.2722613695962
 30
0.0
 10
302.5495318145992
 20
205.2723098932735
 30
0.0
 10
302.7990946439065
 20
205.2724121945144
 30
0.0
 10
303.0461780222563
 20
205.2725711942561
 30
0.0
 10
303.289790464834
 20
205.2727806102651
 30
0.0
 10
303.5289744584927
 20
205.2730356480593
 30
0.0
 10
303.7627897751333
 20
205.2733438865999
 30
0.0
 10
303.9903123992777
 20
205.2736976973377
 30
0.0
 10
304.2106497903262
 20
205.2741021087325
 30
0.0
 10
304.4229355593455
 20
205.2745446654949
 30
0.0
 10
304.6263339534329
 20
205.2750343867782
 30
0.0
 10
304.8200466568954
 20
205.2755655326438
 30
0.0
 10
305.003319070955
 20
205.2761341612501
 30
0.0
 10
305.1754312595571
 20
205.2767439474656
 30
0.0
 10
305.3357184689559
 20
205.2773840901453
 30
0.0
 10
305.4835616981244
 20
205.2780584095131
 30
0.0
 10
305.618395165861
 20
205.2787624916338
 30
0.0
 10
305.7397232836086
 20
205.2794923005606
 30
0.0
 10
305.8471128957239
 20
205.2802507578445
 30
0.0
 10
305.9402217525985
 20
205.2810305070586
 30
0.0
 10
306.0188458356577
 20
205.2818411540421
 30
0.0
 10
306.0829457211744
 20
205.2826720284521
 30
0.0
 10
306.1333103495157
 20
205.2835669862681
 30
0.0
 10
306.1633368334857
 20
205.2843687264517
 30
0.0
 10
306.1839391946165
 20
205.2852562851579
 30
0.0
 10
306.1997780193603
 20
205.2862997194363
 30
0.0
 10
306.2159658655868
 20
205.2877510177759
 30
0.0
 10
306.2382513175183
 20
205.2906048630112
 30
0.0
 10
306.2683112269538
 20
205.2960548527246
 30
0.0
 10
306.3081913750254
 20
205.3063326230379
 30
0.0
 10
306.3563098238027
 20
205.3239054664599
 30
0.0
 10
306.4097622165019
 20
205.351027834352
 30
0.0
 10
306.4644282435578
 20
205.3886315619917
 30
0.0
 10
306.5174022254302
 20
205.437633703814
 30
0.0
 10
306.5642593344299
 20
205.4981507899875
 30
0.0
 10
306.5978108625994
 20
205.5560681574971
 30
0.0
 10
306.6100589164196
 20
205.5949066231971
 30
0.0
 10
306.6143135807754
 20
205.6083981246288
 30
0.0
  0
LINE
  5
B9
330
1F
100
AcDbEntity
  8
0
  6
Continuous
 62
     7
370
    15
100
AcDbLine
 10
286.6411301575
 20
205.7695214004
 30
0.0
 11
286.6411301575
 21
205.7604525537
 31
0.0
  0
LINE
  5
BA
330
1F
100
AcDbEntity
  8
0
  6
Continuous
 62
     7
370
    15
100
AcDbLine
 10
306.6411304555
 20
205.7604525537
 30
0.0
 11
306.6411304555
 21
205.7695214004
 31
0.0
  0
LINE
  5
BB
330
1F
100
AcDbEntity
  8
0
  6
Continuous
 62
     7
370
    15
100
AcDbLine
 10
307.4499572895
 20
206.5780286044
 30
0.0
 11
307.463630595
 21
206.5780286044
 31
0.0
  0
ARC
  5
BC
330
1F
100
AcDbEntity
  8
0
  6
Continuous
 62
     7
370
    15
100
AcDbCircle
 10
307.4499572743
 20
206.590527406
 30
0.0
 40
0.0124999999999886
100
AcDbArc
 50
180.0
 51
270.0
  0
ARC
  5
BD
330
1F
100
AcDbEntity
  8
0
  6
Continuous
 62
     7
370
    15
100
AcDbCircle
 10
285.8323035636
 20
206.590527406
 30
0.0
 40
0.0125000000000171
100
AcDbArc
 50
270.0
 51
0.0
  0
LINE
  5
BE
330
1F
100
AcDbEntity
  8
0
  6
Continuous
 62
     7
370
    15
100
AcDbLine
 10
285.8186307631
 20
206.5780286044
 30
0.0
 11
285.8323033235
 21
206.5780286044
 31
0.0
  0
LINE
  5
BF
330
1F
100
AcDbEntity
  8
0
  6
Continuous
 62
     7
370
    15
100
AcDbLine
 10
285.5411301635
 20
207.1886901111
 30
0.0
 11
285.5411301635
 21
207.1626100988
 31
0.0
  0
LINE
  5
C0
330
1F
100
AcDbEntity
  8
0
  6
Continuous
 62
     7
370
    15
100
AcDbLine
 10
286.4911305986
 20
207.1626100988
 30
0.0
 11
286.4911305986
 21
207.1886901111
 31
0.0
  0
LINE
  5
C1
330
1F
100
AcDbEntity
  8
0
  6
Continuous
 62
     7
370
    15
100
AcDbLine
 10
306.7911307595
 20
207.1886901111
 30
0.0
 11
306.7911307595
 21
207.1626100988
 31
0.0
  0
LINE
  5
C2
330
1F
100
AcDbEntity
  8
0
  6
Continuous
 62
     7
370
    15
100
AcDbLine
 10
307.7411304496
 20
207.1626100988
 30
0.0
 11
307.7411304496
 21
207.1886901111
 31
0.0
  0
SPLINE
  5
C3
330
1F
100
AcDbEntity
  8
0
  6
Continuous
 62
     7
370
    15
100
AcDbSpline
210
0.0
220
0.0
230
1.0
 70
     8
 71
     3
 72
    35
 73
    31
 74
     0
 42
0.00000001
 43
0.00000001
 40
0.0
 40
0.0
 40
0.0
 40
0.0
 40
0.020325287667879
 40
0.0589427398223377
 40
0.097571831286043
 40
0.1362185374528548
 40
0.1748938602619492
 40
0.2136094806276252
 40
0.252379368415274
 40
0.2912194338314763
 40
0.3301493323893306
 40
0.3691930253167198
 40
0.4083809546634563
 40
0.4477521556105072
 40
0.4873583381267417
 40
0.5272703180265157
 40
0.5675837868328834
 40
0.6084342134303694
 40
0.6500139443736044
 40
0.6925928479188733
 40
0.7365100617388541
 40
0.7819796408112011
 40
0.8197897901095169
 40
0.8526217983096303
 40
0.8817751237361195
 40
0.9084070393659236
 40
0.9333721937954819
 40
0.9572982773941707
 40
0.9830940679535888
 40
1.0
 40
1.0
 40
1.0
 40
1.0
 10
290.0161306641342
 20
209.0720091313655
 30
0.0
 10
289.9709677986355
 20
209.0719148433781
 30
0.0
 10
289.8399968094802
 20
209.0716414109721
 30
0.0
 10
289.6234793095113
 20
209.0686128778438
 30
0.0
 10
289.3677996503976
 20
209.0618217348856
 30
0.0
 10
289.1144260754235
 20
209.0516445672208
 30
0.0
 10
288.8642537343451
 20
209.0381543811212
 30
0.0
 10
288.6181389231833
 20
209.0213756005616
 30
0.0
 10
288.3769145404254
 20
209.0013500907081
 30
0.0
 10
288.1413803052259
 20
208.9781168876039
 30
0.0
 10
287.9122950192001
 20
208.9517062902478
 30
0.0
 10
287.6903640124845
 20
208.9221684998384
 30
0.0
 10
287.4762371637444
 20
208.8895151760184
 30
0.0
 10
287.2704830626965
 20
208.8537464600676
 30
0.0
 10
287.0735761334506
 20
208.814832845103
 30
0.0
 10
286.8858849971872
 20
208.772668229879
 30
0.0
 10
286.7076100106202
 20
208.7270625729949
 30
0.0
 10
286.5387728163694
 20
208.6776315362834
 30
0.0
 10
286.3791321195985
 20
208.6237476732757
 30
0.0
 10
286.2281781776513
 20
208.5642697892047
 30
0.0
 10
286.0852846616266
 20
208.497365923764
 30
0.0
 10
285.9590274038022
 20
208.4252056107984
 30
0.0
 10
285.8524579374954
 20
208.3495390701355
 30
0.0
 10
285.7670927864282
 20
208.2741777582385
 30
0.0
 10
285.6971006693232
 20
208.196504440515
 30
0.0
 10
285.6400621564765
 20
208.1150199437621
 30
0.0
 10
285.5951112427887
 20
208.0288163204876
 30
0.0
 10
285.5618366168225
 20
207.9348260261172
 30
0.0
 10
285.5437865969456
 20
207.8449038233712
 30
0.0
 10
285.5418835815243
 20
207.7858358396574
 30
0.0
 10
285.5411301634553
 20
207.7624503821666
 30
0.0
  0
SPLINE
  5
C4
330
1F
100
AcDbEntity
  8
0
  6
Continuous
 62
     7
370
    15
100
AcDbSpline
210
0.0
220
0.0
230
1.0
 70
     8
 71
     3
 72
    31
 73
    27
 74
     0
 42
0.00000001
 43
0.00000001
 40
0.0
 40
0.0
 40
0.0
 40
0.0
 40
0.0267971568524071
 40
0.0592185180374326
 40
0.0932274459523433
 40
0.1290013565837672
 40
0.1665333471809934
 40
0.2056935686528437
 40
0.2462867671761323
 40
0.2880938279883182
 40
0.3309026924775041
 40
0.3745236701129242
 40
0.4187953386222146
 40
0.4635869324442486
 40
0.5087918648621379
 40
0.5543258303556321
 40
0.6001228950255613
 40
0.6461295143458204
 40
0.6923040782643901
 40
0.7386121325911793
 40
0.785025970338056
 40
0.8315227413645626
 40
0.8780829738069971
 40
0.9246897564219514
 40
0.971328291424858
 40
1.0
 40
1.0
 40
1.0
 40
1.0
 10
286.4369417808296
 20
207.5975720137889
 30
0.0
 10
286.4374284973405
 20
207.5980663806768
 30
0.0
 10
286.4385040827332
 20
207.5991588724897
 30
0.0
 10
286.4545247254668
 20
207.6117474512825
 30
0.0
 10
286.4837953016913
 20
207.6306193549931
 30
0.0
 10
286.5282622286165
 20
207.6551915891578
 30
0.0
 10
286.588396591426
 20
207.6838261205436
 30
0.0
 10
286.6648108557671
 20
207.7155150726485
 30
0.0
 10
286.7575588583068
 20
207.7492029685308
 30
0.0
 10
286.8664049703225
 20
207.7840134108182
 30
0.0
 10
286.9908351561356
 20
207.8191680043085
 30
0.0
 10
287.1301513780766
 20
207.8540140564457
 30
0.0
 10
287.2835391249934
 20
207.8880103912999
 30
0.0
 10
287.4500906452704
 20
207.920717015483
 30
0.0
 10
287.6288651014246
 20
207.9517438029983
 30
0.0
 10
287.8188814477837
 20
207.9807953950153
 30
0.0
 10
288.01913838905
 20
208.0076080009775
 30
0.0
 10
288.2286213804422
 20
208.0319624930772
 30
0.0
 10
288.4462974256682
 20
208.0536873686823
 30
0.0
 10
288.6711274045726
 20
208.0726231855915
 30
0.0
 10
288.9020565797315
 20
208.0886449602702
 30
0.0
 10
289.1380227366683
 20
208.101656521987
 30
0.0
 10
289.3779550112316
 20
208.1115918923793
 30
0.0
 10
289.6207728846264
 20
208.1183260368014
 30
0.0
 10
289.8339613074282
 20
208.1215697754786
 30
0.0
 10
289.9658997673426
 20
208.1218882090158
 30
0.0
 10
290.0161306641342
 20
208.1220094413096
 30
0.0
  0
LINE
  5
C5
330
1F
100
AcDbEntity
  8
0
  6
Continuous
 62
     7
370
    15
100
AcDbLine
 10
290.0161306641
 20
208.1220094413
 30
0.0
 11
303.2661303214
 21
208.1220094413
 31
0.0
  0
LINE
  5
C6
330
1F
100
AcDbEntity
  8
0
  6
Continuous
 62
     7
370
    15
100
AcDbLine
 10
303.2661303214
 20
209.0720091314
 30
0.0
 11
290.0161306641
 21
209.0720091314
 31
0.0
  0
SPLINE
  5
C7
330
1F
100
AcDbEntity
  8
0
  6
Continuous
 62
     7
370
    15
100
AcDbSpline
210
0.0
220
0.0
230
1.0
 70
     8
 71
     3
 72
    35
 73
    31
 74
     0
 42
0.00000001
 43
0.00000001
 40
0.0
 40
0.0
 40
0.0
 40
0.0
 40
0.0247272581784254
 40
0.0489265005195157
 40
0.0732801599124825
 40
0.0983203225430379
 40
0.1246849349623278
 40
0.1531734493416869
 40
0.1847814632031252
 40
0.2206197585326578
 40
0.261326176445494
 40
0.3056584712397438
 40
0.3502975397906294
 40
0.393627959480299
 40
0.4357439372783818
 40
0.4769516951032086
 40
0.5175017283242682
 40
0.5575715623411266
 40
0.597284351854994
 40
0.63672770414336
 40
0.6759641292949068
 40
0.7150410651955881
 40
0.7539931665973643
 40
0.7928478797386053
 40
0.8316271917793069
 40
0.8703487706253796
 40
0.9090273243500154
 40
0.9476756462028286
 40
0.9863051096754969
 40
1.0
 40
1.0
 40
1.0
 40
1.0
 10
307.7411304495575
 20
207.7624503821666
 30
0.0
 10
307.7395564371853
 20
207.7966607098536
 30
0.0
 10
307.7364420232624
 20
207.8643508517719
 30
0.0
 10
307.7123219908112
 20
207.9616234567286
 30
0.0
 10
307.6764511449673
 20
208.0521173808107
 30
0.0
 10
307.6288540933255
 20
208.1359878969095
 30
0.0
 10
307.5706359557253
 20
208.2139849155496
 30
0.0
 10
307.5011074080077
 20
208.2875130057573
 30
0.0
 10
307.4181413076498
 20
208.3583297574551
 30
0.0
 10
307.3182031295746
 20
208.4279354292881
 30
0.0
 10
307.1981385959004
 20
208.496553363025
 30
0.0
 10
307.058267498094
 20
208.5625820116581
 30
0.0
 10
306.9025539951068
 20
208.6240883388395
 30
0.0
 10
306.7360671690805
 20
208.680048279088
 30
0.0
 10
306.5610332629227
 20
208.7308206301383
 30
0.0
 10
306.3775299574846
 20
208.7771954832565
 30
0.0
 10
306.1854343141628
 20
208.8197175660748
 30
0.0
 10
305.9847868093374
 20
208.8587245631102
 30
0.0
 10
305.7758173567146
 20
208.8943993537254
 30
0.0
 10
305.5589202070034
 20
208.9268301525805
 30
0.0
 10
305.334592643099
 20
208.9560511819436
 30
0.0
 10
305.1034505157915
 20
208.9820703370332
 30
0.0
 10
304.8661603399207
 20
209.0048570037698
 30
0.0
 10
304.6234650157588
 20
209.0243988432098
 30
0.0
 10
304.3761468335186
 20
209.0406587611315
 30
0.0
 10
304.1250288139252
 20
209.0536060235132
 30
0.0
 10
303.8709591998381
 20
209.0632259482913
 30
0.0
 10
303.6148216746352
 20
209.0694498926532
 30
0.0
 10
303.4128217011374
 20
209.0717996026955
 30
0.0
 10
303.2965596664217
 20
209.0719656671879
 30
0.0
 10
303.2661303214076
 20
209.0720091313655
 30
0.0
  0
SPLINE
  5
C8
330
1F
100
AcDbEntity
  8
0
  6
Continuous
 62
     7
370
    15
100
AcDbSpline
210
0.0
220
0.0
230
1.0
 70
     8
 71
     3
 72
    31
 73
    27
 74
     0
 42
0.00000001
 43
0.00000001
 40
0.0
 40
0.0
 40
0.0
 40
0.0
 40
0.024532166583623
 40
0.0711870553496745
 40
0.1178349627877268
 40
0.1644567814532998
 40
0.2110390253987971
 40
0.2575658567071872
 40
0.304020854441952
 40
0.3503830691303768
 40
0.3966292502349993
 40
0.4427303732752527
 40
0.4886511268855254
 40
0.5343473453919547
 40
0.5797641385240474
 40
0.6248306515895315
 40
0.669459305256841
 40
0.7135363668286687
 40
0.756921077822236
 40
0.799439015799025
 40
0.8408815666199231
 40
0.8810163730124619
 40
0.9196093944612378
 40
0.9527490502394087
 40
0.9843617318824985
 40
1.0
 40
1.0
 40
1.0
 40
1.0
 10
303.2661303214076
 20
208.1220094413096
 30
0.0
 10
303.3091089869139
 20
208.121920294336
 30
0.0
 10
303.4338238028608
 20
208.1216616090493
 30
0.0
 10
303.6399617448591
 20
208.1187717527167
 30
0.0
 10
303.8831746118233
 20
208.1123093793646
 30
0.0
 10
304.1237057097242
 20
208.1026383820248
 30
0.0
 10
304.3604659227238
 20
208.0898645502154
 30
0.0
 10
304.5923972975901
 20
208.0740493406932
 30
0.0
 10
304.8184418131032
 20
208.055288627971
 30
0.0
 10
305.0375662815282
 20
208.0336955664005
 30
0.0
 10
305.248737308273
 20
208.0094015241629
 30
0.0
 10
305.4509450126045
 20
207.9825776531741
 30
0.0
 10
305.6431867553923
 20
207.9534131692669
 30
0.0
 10
305.8244778845003
 20
207.9221486544152
 30
0.0
 10
305.9938383036546
 20
207.8890521789534
 30
0.0
 10
306.1503151984732
 20
207.8544673678489
 30
0.0
 10
306.2929487364271
 20
207.8187963698978
 30
0.0
 10
306.4208246864127
 20
207.782570571296
 30
0.0
 10
306.5330452992321
 20
207.7464091373678
 30
0.0
 10
306.6287841585126
 20
207.7111618709507
 30
0.0
 10
306.7073757020413
 20
207.6778351696502
 30
0.0
 10
306.7682676153731
 20
207.6478419535966
 30
0.0
 10
306.8102744026103
 20
207.6233645401571
 30
0.0
 10
306.8347830801462
 20
207.6066235955867
 30
0.0
 10
306.8458026133781
 20
207.5971437463817
 30
0.0
 10
306.8447987322526
 20
207.5981551794295
 30
0.0
 10
306.8444664857628
 20
207.5984899253185
 30
0.0
  0
LINE
  5
C9
330
1F
100
AcDbEntity
  8
0
  6
Continuous
 62
     7
370
    15
100
AcDbLine
 10
286.4911305986
 20
207.1886901111
 30
0.0
 11
286.4911305986
 21
207.6341573448
 31
0.0
  0
LINE
  5
CA
330
1F
100
AcDbEntity
  8
0
  6
Continuous
 62
     7
370
    15
100
AcDbLine
 10
285.5411301635
 20
207.7624503822
 30
0.0
 11
285.5411301635
 21
207.1886901111
 31
0.0
  0
LINE
  5
CB
330
1F
100
AcDbEntity
  8
0
  6
Continuous
 62
     7
370
    15
100
AcDbLine
 10
307.7411304496
 20
207.1886901111
 30
0.0
 11
307.7411304496
 21
207.7624503822
 31
0.0
  0
LINE
  5
CC
330
1F
100
AcDbEntity
  8
0
  6
Continuous
 62
     7
370
    15
100
AcDbLine
 10
306.7911307595
 20
207.6338682622
 30
0.0
 11
306.7911307595
 21
207.1886901111
 31
0.0
  0
LINE
  5
CD
330
1F
100
AcDbEntity
  8
0
  6
Continuous
 62
     7
370
    15
100
AcDbLine
 10
313.7061300955
 20
217.3067782373
 30
0.0
 11
313.7061300955
 21
220.1817784757
 31
0.0
  0
LINE
  5
CE
330
1F
100
AcDbEntity
  8
0
  6
Continuous
 62
     7
370
    15
100
AcDbLine
 10
312.4561297975
 20
219.8067788333
 30
0.0
 11
312.4561297975
 21
217.3067782373
 31
0.0
  0
SPLINE
  5
CF
330
1F
100
AcDbEntity
  8
0
  6
Continuous
 62
     7
370
    15
100
AcDbSpline
210
0.0
220
0.0
230
1.0
 70
     8
 71
     3
 72
    18
 73
    14
 74
     0
 42
0.00000001
 43
0.00000001
 40
0.0
 40
0.0
 40
0.0
 40
0.0
 40
0.1943541435494084
 40
0.5954394964943107
 40
0.7871664394234277
 40
0.8830427190741622
 40
0.9316548839252502
 40
0.9339011398392079
 40
0.9357287612208216
 40
0.9397527420703197
 40
0.9521651366915324
 40
0.9745622328650116
 40
1.0
 40
1.0
 40
1.0
 40
1.0
 10
305.4997968755009
 20
219.8328558654125
 30
0.0
 10
305.4949944496942
 20
219.8284687788721
 30
0.0
 10
305.4802813391216
 20
219.8150281361724
 30
0.0
 10
305.4696053342722
 20
219.8051433211458
 30
0.0
 10
305.4656924927523
 20
219.8015696939142
 30
0.0
 10
305.463733367786
 20
219.7997214808193
 30
0.0
 10
305.4648550068349
 20
219.800806755967
 30
0.0
 10
305.4638000091801
 20
219.7997968468766
 30
0.0
 10
305.4634694402687
 20
219.7994751887535
 30
0.0
 10
305.4625217061571
 20
219.7985039608782
 30
0.0
 10
305.4607022036951
 20
219.7963107929232
 30
0.0
 10
305.4582250011497
 20
219.7925138876193
 30
0.0
 10
305.4574919125196
 20
219.7890264470396
 30
0.0
 10
305.4571020684483
 20
219.7871718854244
 30
0.0
  0
SPLINE
  5
D0
330
1F
100
AcDbEntity
  8
0
  6
Continuous
 62
     7
370
    15
100
AcDbSpline
210
0.0
220
0.0
230
1.0
 70
     8
 71
     3
 72
    18
 73
    14
 74
     0
 42
0.00000001
 43
0.00000001
 40
0.0
 40
0.0
 40
0.0
 40
0.0
 40
0.0213945336662921
 40
0.0948528956766004
 40
0.1708621625990343
 40
0.2564169841144025
 40
0.3579405535111239
 40
0.4814670312717428
 40
0.6167491106698413
 40
0.7360729914114663
 40
0.8474749726968295
 40
0.9514728286419807
 40
1.0
 40
1.0
 40
1.0
 40
1.0
 10
306.0810703120472
 20
220.2053670138652
 30
0.0
 10
306.0750139621754
 20
220.2057604456494
 30
0.0
 10
306.0481630697219
 20
220.2075047297065
 30
0.0
 10
306.000219870246
 20
220.1963970044467
 30
0.0
 10
305.9384687004127
 20
220.1736331485528
 30
0.0
 10
305.8746188860292
 20
220.1384132285124
 30
0.0
 10
305.8052035496135
 20
220.0915715612691
 30
0.0
 10
305.730719763288
 20
220.0347688776354
 30
0.0
 10
305.6600782353832
 20
219.9753593522552
 30
0.0
 10
305.5985699014196
 20
219.9219072984379
 30
0.0
 10
305.5501667543945
 20
219.8786736372817
 30
0.0
 10
305.5170618116277
 20
219.8486661464141
 30
0.0
 10
305.5039640446216
 20
219.8366719301981
 30
0.0
 10
305.4997968755009
 20
219.8328558654125
 30
0.0
  0
LINE
  5
D1
330
1F
100
AcDbEntity
  8
0
  6
Continuous
 62
     7
370
    15
100
AcDbLine
 10
306.7061300657
 20
217.3067782373
 30
0.0
 11
306.7061300657
 21
219.7861198634
 31
0.0
  0
LINE
  5
D2
330
1F
100
AcDbEntity
  8
0
  6
Continuous
 62
     7
370
    15
100
AcDbLine
 10
305.4561305127
 20
219.7861198634
 30
0.0
 11
305.4561305127
 21
217.3067782373
 31
0.0
  0
SPLINE
  5
D3
330
1F
100
AcDbEntity
  8
0
  6
Continuous
 62
     7
370
    15
100
AcDbSpline
210
0.0
220
0.0
230
1.0
 70
     8
 71
     3
 72
    21
 73
    17
 74
     0
 42
0.00000001
 43
0.00000001
 40
0.0
 40
0.0
 40
0.0
 40
0.0
 40
0.0015334830874968
 40
0.0313726486540841
 40
0.1040201359022856
 40
0.1832739618418293
 40
0.266305505033372
 40
0.3526642268032931
 40
0.4448234531592418
 40
0.5434201662367666
 40
0.6489116948605798
 40
0.7490683890867899
 40
0.8328587972255461
 40
0.900442430065626
 40
0.9610574243493836
 40
1.0
 40
1.0
 40
1.0
 40
1.0
 10
306.697922506118
 20
219.8002998084361
 30
0.0
 10
306.6979267169335
 20
219.8002963931339
 30
0.0
 10
306.6980128635851
 20
219.8002265214301
 30
0.0
 10
306.69627713443
 20
219.8018061550838
 30
0.0
 10
306.6881266418208
 20
219.8093468849004
 30
0.0
 10
306.6672685480566
 20
219.8285112090433
 30
0.0
 10
306.6351794586683
 20
219.8577967444745
 30
0.0
 10
306.5925096121437
 20
219.8962384786768
 30
0.0
 10
306.5392035264942
 20
219.9434795433496
 30
0.0
 10
306.4746718266111
 20
219.9985844154071
 30
0.0
 10
306.4017649532011
 20
220.0583189589436
 30
0.0
 10
306.3254273872448
 20
220.1141849887384
 30
0.0
 10
306.2530189427818
 20
220.158921733702
 30
0.0
 10
306.1863960939539
 20
220.1889055549905
 30
0.0
 10
306.1296965680035
 20
220.2051476964974
 30
0.0
 10
306.0947448706397
 20
220.2052625022294
 30
0.0
 10
306.0810732922795
 20
220.2053074092204
 30
0.0
  0
SPLINE
  5
D4
330
1F
100
AcDbEntity
  8
0
  6
Continuous
 62
     7
370
    15
100
AcDbSpline
210
0.0
220
0.0
230
1.0
 70
     8
 71
     3
 72
    20
 73
    16
 74
     0
 42
0.00000001
 43
0.00000001
 40
0.0
 40
0.0
 40
0.0
 40
0.0
 40
0.019518084570012
 40
0.0664992595468958
 40
0.1038428294184299
 40
0.1308476740533271
 40
0.1459484146456316
 40
0.1504059789890657
 40
0.1535487929309509
 40
0.1573163701597181
 40
0.163820051728128
 40
0.1795977841314669
 40
0.2441051794842107
 40
0.7435548714517275
 40
1.0
 40
1.0
 40
1.0
 40
1.0
 10
306.7054401419403
 20
219.7867784947688
 30
0.0
 10
306.7053502625823
 20
219.7874223478145
 30
0.0
 10
306.7050440383351
 20
219.7896159929256
 30
0.0
 10
306.703632651413
 20
219.7928187399512
 30
0.0
 10
306.701751233612
 20
219.7960177832316
 30
0.0
 10
306.7001236229493
 20
219.7980726739774
 30
0.0
 10
306.6990355728807
 20
219.7992288522391
 30
0.0
 10
306.6985702008083
 20
219.7996920123512
 30
0.0
 10
306.6984111986272
 20
219.7998454390406
 30
0.0
 10
306.6982960131607
 20
219.7999506963943
 30
0.0
 10
306.6981868349033
 20
219.8000622165737
 30
0.0
 10
306.6980633391392
 20
219.8001674022602
 30
0.0
 10
306.6977832276412
 20
219.8004493603556
 30
0.0
 10
306.6970451462068
 20
219.8011130684304
 30
0.0
 10
306.6924535948123
 20
219.805343586391
 30
0.0
 10
306.6908958635571
 20
219.8067788333232
 30
0.0
  0
SPLINE
  5
D5
330
1F
100
AcDbEntity
  8
0
  6
Continuous
 62
     7
370
    15
100
AcDbSpline
210
0.0
220
0.0
230
1.0
 70
     8
 71
     3
 72
    18
 73
    14
 74
     0
 42
0.00000001
 43
0.00000001
 40
0.0
 40
0.0
 40
0.0
 40
0.0
 40
0.1943537855448043
 40
0.5954390497392318
 40
0.7871656395031059
 40
0.8830416137972782
 40
0.9316536891036901
 40
0.933899940879995
 40
0.93572755889509
 40
0.9397515323323269
 40
0.9521660626671121
 40
0.9745613742774123
 40
1.0
 40
1.0
 40
1.0
 40
1.0
 10
288.7497972033265
 20
219.8328558654125
 30
0.0
 10
288.7449947907583
 20
219.8284687781542
 30
0.0
 10
288.7302817046817
 20
219.8150281185815
 30
0.0
 10
288.7196052614041
 20
219.8051433278156
 30
0.0
 10
288.715691467824
 20
219.8015696972663
 30
0.0
 10
288.713733828254
 20
219.7997214777905
 30
0.0
 10
288.7148553287764
 20
219.8008067599393
 30
0.0
 10
288.7138003376879
 20
219.7997968463509
 30
0.0
 10
288.7134697649835
 20
219.7994751912074
 30
0.0
 10
288.7125219769284
 20
219.7985038026015
 30
0.0
 10
288.7107014891074
 20
219.7963113792142
 30
0.0
 10
288.7082257736452
 20
219.7925134212454
 30
0.0
 10
288.7074919218513
 20
219.7890263494266
 30
0.0
 10
288.7071016512158
 20
219.7871718854244
 30
0.0
  0
SPLINE
  5
D6
330
1F
100
AcDbEntity
  8
0
  6
Continuous
 62
     7
370
    15
100
AcDbSpline
210
0.0
220
0.0
230
1.0
 70
     8
 71
     3
 72
    18
 73
    14
 74
     0
 42
0.00000001
 43
0.00000001
 40
0.0
 40
0.0
 40
0.0
 40
0.0
 40
0.0213945283057917
 40
0.0948537337884224
 40
0.1708621683646699
 40
0.2564169684438776
 40
0.3579405124033941
 40
0.4814675990544767
 40
0.6167496445570179
 40
0.7360729784195401
 40
0.8474753810602523
 40
0.9514728408006903
 40
1.0
 40
1.0
 40
1.0
 40
1.0
 10
289.3310706398727
 20
220.2053670138652
 30
0.0
 10
289.3250142909374
 20
220.2057604414337
 30
0.0
 10
289.2981631586559
 20
220.2075047226493
 30
0.0
 10
289.2502198574114
 20
220.1963972788925
 30
0.0
 10
289.1884688753103
 20
220.1736329330618
 30
0.0
 10
289.1246191819462
 20
220.1384132802051
 30
0.0
 10
289.0552038288917
 20
220.0915713692806
 30
0.0
 10
288.9807194014157
 20
220.0347690763286
 30
0.0
 10
288.910077643937
 20
219.9753595213156
 30
0.0
 10
288.848570530665
 20
219.9219070141311
 30
0.0
 10
288.8001659609297
 20
219.8786738642583
 30
0.0
 10
288.7670622143797
 20
219.8486660905272
 30
0.0
 10
288.7539643982038
 20
219.8366719237344
 30
0.0
 10
288.7497972033265
 20
219.8328558654125
 30
0.0
  0
LINE
  5
D7
330
1F
100
AcDbEntity
  8
0
  6
Continuous
 62
     7
370
    15
100
AcDbLine
 10
289.9561303935
 20
217.3067782373
 30
0.0
 11
289.9561303935
 21
219.7861198634
 31
0.0
  0
LINE
  5
D8
330
1F
100
AcDbEntity
  8
0
  6
Continuous
 62
     7
370
    15
100
AcDbLine
 10
288.7061300955
 20
219.7861198634
 30
0.0
 11
288.7061300955
 21
217.3067782373
 31
0.0
  0
SPLINE
  5
D9
330
1F
100
AcDbEntity
  8
0
  6
Continuous
 62
     7
370
    15
100
AcDbSpline
210
0.0
220
0.0
230
1.0
 70
     8
 71
     3
 72
    21
 73
    17
 74
     0
 42
0.00000001
 43
0.00000001
 40
0.0
 40
0.0
 40
0.0
 40
0.0
 40
0.0015334827686022
 40
0.0313726421300026
 40
0.1040202059933402
 40
0.1832740154516992
 40
0.266305282120592
 40
0.3526643148061087
 40
0.4448235219971374
 40
0.5434202145710383
 40
0.64891172125742
 40
0.7490683946556013
 40
0.8328587853697703
 40
0.9004417654713214
 40
0.9610574324476648
 40
1.0
 40
1.0
 40
1.0
 40
1.0
 10
289.9479228339436
 20
219.8002998084361
 30
0.0
 10
289.9479270447334
 20
219.8002963931337
 30
0.0
 10
289.9480131908615
 20
219.800226521425
 30
0.0
 10
289.9462775649845
 20
219.80180615746
 30
0.0
 10
289.9381259680762
 20
219.809346885027
 30
0.0
 10
289.917267978713
 20
219.8285111415058
 30
0.0
 10
289.8851801253915
 20
219.8577969060382
 30
0.0
 10
289.8425089593134
 20
219.8962383595625
 30
0.0
 10
289.7892031973468
 20
219.9434795611695
 30
0.0
 10
289.7246713848521
 20
219.9985844136131
 30
0.0
 10
289.6517645357076
 20
220.0583189455491
 30
0.0
 10
289.5754269919559
 20
220.1141850370386
 30
0.0
 10
289.5030186436454
 20
220.1589214831535
 30
0.0
 10
289.4363960562718
 20
220.1889058679967
 30
0.0
 10
289.3796963719553
 20
220.2051476348742
 30
0.0
 10
289.3447444479514
 20
220.2052624851248
 30
0.0
 10
289.331072875047
 20
220.2053074092204
 30
0.0
  0
SPLINE
  5
DA
330
1F
100
AcDbEntity
  8
0
  6
Continuous
 62
     7
370
    15
100
AcDbSpline
210
0.0
220
0.0
230
1.0
 70
     8
 71
     3
 72
    20
 73
    16
 74
     0
 42
0.00000001
 43
0.00000001
 40
0.0
 40
0.0
 40
0.0
 40
0.0
 40
0.0195193428045938
 40
0.0665005747246718
 40
0.1038441898582103
 40
0.1308444355794823
 40
0.1459502065524175
 40
0.1504077762986103
 40
0.1535505940497205
 40
0.1573161520069218
 40
0.1638198414580721
 40
0.1795975929846977
 40
0.2441050665231646
 40
0.7435557948326185
 40
1.0
 40
1.0
 40
1.0
 40
1.0
 10
289.9554404697658
 20
219.7867784947688
 30
0.0
 10
289.955350300464
 20
219.7874223386965
 30
0.0
 10
289.955043102089
 20
219.7896158547206
 30
0.0
 10
289.9536325483476
 20
219.7928188944871
 30
0.0
 10
289.9517504483492
 20
219.7960173199192
 30
0.0
 10
289.9501242027354
 20
219.798073266591
 30
0.0
 10
289.9490351394294
 20
219.7992287062796
 30
0.0
 10
289.9485698550075
 20
219.7996920197164
 30
0.0
 10
289.9484106179573
 20
219.7998453997774
 30
0.0
 10
289.9482967815304
 20
219.7999507428109
 30
0.0
 10
289.948186788605
 20
219.8000621851168
 30
0.0
 10
289.9480642550992
 20
219.8001674517632
 30
0.0
 10
289.9477816242643
 20
219.8004491943564
 30
0.0
 10
289.9470445408061
 20
219.8011130828725
 30
0.0
 10
289.9424536818725
 20
219.8053435940683
 30
0.0
 10
289.9408961913826
 20
219.8067788333232
 30
0.0
  0
LINE
  5
DB
330
1F
100
AcDbEntity
  8
0
  6
Continuous
 62
     7
370
    15
100
AcDbLine
 10
282.9561311088
 20
217.3067782373
 30
0.0
 11
282.9561311088
 21
219.8067788333
 31
0.0
  0
LINE
  5
DC
330
1F
100
AcDbEntity
  8
0
  6
Continuous
 62
     7
370
    15
100
AcDbLine
 10
281.7061308108
 20
220.1817784757
 30
0.0
 11
281.7061308108
 21
217.3067782373
 31
0.0
  0
LINE
  5
DD
330
1F
100
AcDbEntity
  8
0
  6
Continuous
 62
     7
370
    15
100
AcDbLine
 10
282.3311302147
 20
219.8067788333
 30
0.0
 11
286.3311301253
 21
219.8067788333
 31
0.0
  0
LINE
  5
DE
330
1F
100
AcDbEntity
  8
0
  6
Continuous
 62
     7
370
    15
100
AcDbLine
 10
286.3311301253
 20
221.0567776412
 30
0.0
 11
282.3311302147
 21
221.0567776412
 31
0.0
  0
LINE
  5
DF
330
1F
100
AcDbEntity
  8
0
  6
Continuous
 62
     7
370
    15
100
AcDbLine
 10
309.081130781
 20
221.0567776412
 30
0.0
 11
286.3311301253
 21
221.0567776412
 31
0.0
  0
LINE
  5
E0
330
1F
100
AcDbEntity
  8
0
  6
Continuous
 62
     7
370
    15
100
AcDbLine
 10
306.6908973537
 20
219.8067788333
 30
0.0
 11
309.081130781
 21
219.8067788333
 31
0.0
  0
LINE
  5
E1
330
1F
100
AcDbEntity
  8
0
  6
Continuous
 62
     7
370
    15
100
AcDbLine
 10
289.9408969364
 20
219.8067788333
 30
0.0
 11
305.4713617347
 21
219.8067788333
 31
0.0
  0
LINE
  5
E2
330
1F
100
AcDbEntity
  8
0
  6
Continuous
 62
     7
370
    15
100
AcDbLine
 10
286.3311301253
 20
219.8067788333
 30
0.0
 11
288.7213620625
 21
219.8067788333
 31
0.0
  0
LINE
  5
E3
330
1F
100
AcDbEntity
  8
0
  6
Continuous
 62
     7
370
    15
100
AcDbLine
 10
309.081130781
 20
219.8067788333
 30
0.0
 11
313.0811306916
 21
219.8067788333
 31
0.0
  0
LINE
  5
E4
330
1F
100
AcDbEntity
  8
0
  6
Continuous
 62
     7
370
    15
100
AcDbLine
 10
313.0811306916
 20
221.0567776412
 30
0.0
 11
309.081130781
 21
221.0567776412
 31
0.0
  0
LINE
  5
E5
330
1F
100
AcDbEntity
  8
0
  6
Continuous
 62
     7
370
    15
100
AcDbLine
 10
312.9730048857
 20
173.0303002354
 30
0.0
 11
312.9730048857
 21
173.4513432552
 31
0.0
  0
LINE
  5
E6
330
1F
100
AcDbEntity
  8
0
  6
Continuous
 62
     7
370
    15
100
AcDbLine
 10
312.6230049215
 20
173.4513432552
 30
0.0
 11
312.6230049215
 21
173.0604489167
 31
0.0
  0
LINE
  5
E7
330
1F
100
AcDbEntity
  8
0
  6
Continuous
 62
     7
370
    15
100
AcDbLine
 10
312.6230049215
 20
172.7595452518
 30
0.0
 11
312.6230049215
 21
172.7454248183
 31
0.0
  0
LINE
  5
E8
330
1F
100
AcDbEntity
  8
0
  6
Continuous
 62
     7
370
    15
100
AcDbLine
 10
307.3256614886
 20
172.352598358
 30
0.0
 11
307.3256614886
 21
172.2425983586
 31
0.0
  0
LINE
  5
E9
330
1F
100
AcDbEntity
  8
0
  6
Continuous
 62
     7
370
    15
100
AcDbLine
 10
312.416598507
 20
171.6783803255
 30
0.0
 11
312.416598507
 21
172.775578063
 31
0.0
  0
LINE
  5
EA
330
1F
100
AcDbEntity
  8
0
  6
Continuous
 62
     7
370
    15
100
AcDbLine
 10
311.9883674464
 20
165.3742891104
 30
0.0
 11
312.1383670054
 21
165.3742891104
 31
0.0
  0
LINE
  5
EB
330
1F
100
AcDbEntity
  8
0
  6
Continuous
 62
     7
370
    15
100
AcDbLine
 10
282.3256614886
 20
172.8413432204
 30
0.0
 11
282.3256614886
 21
171.6783803255
 31
0.0
  0
LINE
  5
EC
330
1F
100
AcDbEntity
  8
0
  6
Continuous
 62
     7
370
    15
100
AcDbLine
 10
287.416599252
 20
172.2425983586
 30
0.0
 11
287.416599252
 21
172.352598358
 31
0.0
  0
LINE
  5
ED
330
1F
100
AcDbEntity
  8
0
  6
Continuous
 62
     7
370
    15
100
AcDbLine
 10
282.6038929901
 20
165.3742891104
 30
0.0
 11
282.7538925491
 21
165.3742891104
 31
0.0
  0
LINE
  5
EE
330
1F
100
AcDbEntity
  8
0
  6
Continuous
 62
     7
370
    15
100
AcDbLine
 10
286.1211302958
 20
170.9913432897
 30
0.0
 11
283.6211296997
 21
170.9913432897
 31
0.0
  0
LINE
  5
EF
330
1F
100
AcDbEntity
  8
0
  6
Continuous
 62
     7
370
    15
100
AcDbLine
 10
283.6211296997
 20
160.9913427681
 30
0.0
 11
286.1211302958
 21
160.9913427681
 31
0.0
  0
LINE
  5
F0
330
1F
100
AcDbEntity
  8
0
  6
Continuous
 62
     7
370
    15
100
AcDbLine
 10
308.6211304448
 20
160.9913427681
 30
0.0
 11
311.1211302958
 21
160.9913427681
 31
0.0
  0
LINE
  5
F1
330
1F
100
AcDbEntity
  8
0
  6
Continuous
 62
     7
370
    15
100
AcDbLine
 10
311.1211302958
 20
170.9913432897
 30
0.0
 11
308.6211304448
 21
170.9913432897
 31
0.0
  0
LINE
  5
F2
330
1F
100
AcDbEntity
  8
0
  6
Continuous
 62
     7
370
    15
100
AcDbLine
 10
289.80113075
 20
171.8925983012
 30
0.0
 11
289.80113075
 21
172.2425983586
 31
0.0
  0
LINE
  5
F3
330
1F
100
AcDbEntity
  8
0
  6
Continuous
 62
     7
370
    15
100
AcDbLine
 10
286.4411304972
 20
172.2425983586
 30
0.0
 11
286.4411304972
 21
171.8925983012
 31
0.0
  0
LINE
  5
F4
330
1F
100
AcDbEntity
  8
0
  6
Continuous
 62
     7
370
    15
100
AcDbLine
 10
308.3011302433
 20
171.8925983012
 30
0.0
 11
308.3011302433
 21
172.2425983586
 31
0.0
  0
LINE
  5
F5
330
1F
100
AcDbEntity
  8
0
  6
Continuous
 62
     7
370
    15
100
AcDbLine
 10
304.9411307357
 20
172.2425983586
 30
0.0
 11
304.9411307357
 21
171.8925983012
 31
0.0
  0
LINE
  5
F6
330
1F
100
AcDbEntity
  8
0
  6
Continuous
 62
     7
370
    15
100
AcDbLine
 10
289.5598802052
 20
172.352598358
 30
0.0
 11
289.5598802052
 21
173.3650983377
 31
0.0
  0
LINE
  5
F7
330
1F
100
AcDbEntity
  8
0
  6
Continuous
 62
     7
370
    15
100
AcDbLine
 10
286.682380297
 20
173.3650983377
 30
0.0
 11
286.682380297
 21
172.352598358
 31
0.0
  0
LINE
  5
F8
330
1F
100
AcDbEntity
  8
0
  6
Continuous
 62
     7
370
    15
100
AcDbLine
 10
288.808630713
 20
173.3650983377
 30
0.0
 11
288.808630713
 21
173.4513432552
 31
0.0
  0
LINE
  5
F9
330
1F
100
AcDbEntity
  8
0
  6
Continuous
 62
     7
370
    15
100
AcDbLine
 10
287.4336305342
 20
173.4513432552
 30
0.0
 11
287.4336305342
 21
173.3650983377
 31
0.0
  0
LINE
  5
FA
330
1F
100
AcDbEntity
  8
0
  6
Continuous
 62
     7
370
    15
100
AcDbLine
 10
308.0598804436
 20
172.352598358
 30
0.0
 11
308.0598804436
 21
173.3650983377
 31
0.0
  0
LINE
  5
FB
330
1F
100
AcDbEntity
  8
0
  6
Continuous
 62
     7
370
    15
100
AcDbLine
 10
305.1823805354
 20
173.3650983377
 30
0.0
 11
305.1823805354
 21
172.352598358
 31
0.0
  0
LINE
  5
FC
330
1F
100
AcDbEntity
  8
0
  6
Continuous
 62
     7
370
    15
100
AcDbLine
 10
307.3086302064
 20
173.3650983377
 30
0.0
 11
307.3086302064
 21
173.4513432552
 31
0.0
  0
LINE
  5
FD
330
1F
100
AcDbEntity
  8
0
  6
Continuous
 62
     7
370
    15
100
AcDbLine
 10
305.9336307726
 20
173.4513432552
 30
0.0
 11
305.9336307726
 21
173.3650983377
 31
0.0
  0
LINE
  5
FE
330
1F
100
AcDbEntity
  8
0
  6
Continuous
 62
     7
370
    15
100
AcDbLine
 10
305.3386303864
 20
162.0675985069
 30
0.0
 11
305.3512553952
 21
162.0675985069
 31
0.0
  0
LINE
  5
FF
330
1F
100
AcDbEntity
  8
0
  6
Continuous
 62
     7
370
    15
100
AcDbLine
 10
307.8910055838
 20
162.0675985069
 30
0.0
 11
307.9036305926
 21
162.0675985069
 31
0.0
  0
LINE
  5
100
330
1F
100
AcDbEntity
  8
0
  6
Continuous
 62
     7
370
    15
100
AcDbLine
 10
307.9036305926
 20
170.1675981582
 30
0.0
 11
307.8910055838
 21
170.1675981582
 31
0.0
  0
LINE
  5
101
330
1F
100
AcDbEntity
  8
0
  6
Continuous
 62
     7
370
    15
100
AcDbLine
 10
305.3512553952
 20
170.1675981582
 30
0.0
 11
305.3386303864
 21
170.1675981582
 31
0.0
  0
ARC
  5
102
330
1F
100
AcDbEntity
  8
0
  6
Continuous
 62
     7
370
    15
100
AcDbCircle
 10
305.8961304189
 20
164.6450983439
 30
0.0
 40
0.7500000000000568
100
AcDbArc
 50
180.0
 51
221.9838560741
  0
ARC
  5
103
330
1F
100
AcDbEntity
  8
0
  6
Continuous
 62
     7
370
    15
100
AcDbCircle
 10
305.8961304189
 20
167.5900983439
 30
0.0
 40
0.7500000000000568
100
AcDbArc
 50
138.0161439259
 51
180.0
  0
ARC
  5
104
330
1F
100
AcDbEntity
  8
0
  6
Continuous
 62
     7
370
    15
100
AcDbCircle
 10
307.3461304189
 20
167.5900983439
 30
0.0
 40
0.75
100
AcDbArc
 50
0.0
 51
41.9838560741
  0
ARC
  5
105
330
1F
100
AcDbEntity
  8
0
  6
Continuous
 62
     7
370
    15
100
AcDbCircle
 10
307.3461304189
 20
164.6450983439
 30
0.0
 40
0.75
100
AcDbArc
 50
318.0161439259
 51
0.0
  0
LINE
  5
106
330
1F
100
AcDbEntity
  8
0
  6
Continuous
 62
     7
370
    15
100
AcDbLine
 10
308.7611305795
 20
165.9175981135
 30
0.0
 11
308.8961306296
 21
165.9175981135
 31
0.0
  0
LINE
  5
107
330
1F
100
AcDbEntity
  8
0
  6
Continuous
 62
     7
370
    15
100
AcDbLine
 10
308.8961306296
 20
166.317598179
 30
0.0
 11
308.7611305795
 21
166.317598179
 31
0.0
  0
LINE
  5
108
330
1F
100
AcDbEntity
  8
0
  6
Continuous
 62
     7
370
    15
100
AcDbLine
 10
308.0961304984
 20
165.9175981135
 30
0.0
 11
308.1461305998
 21
165.9175981135
 31
0.0
  0
LINE
  5
109
330
1F
100
AcDbEntity
  8
0
  6
Continuous
 62
     7
370
    15
100
AcDbLine
 10
308.1461305998
 20
166.317598179
 30
0.0
 11
308.0961304984
 21
166.317598179
 31
0.0
  0
ARC
  5
10A
330
1F
100
AcDbEntity
  8
0
  6
Continuous
 62
     7
370
    15
100
AcDbCircle
 10
304.7711304189
 20
171.7425983439
 30
0.0
 40
0.1500000000000341
100
AcDbArc
 50
90.0
 51
180.0
  0
ARC
  5
10B
330
1F
100
AcDbEntity
  8
0
  6
Continuous
 62
     7
370
    15
100
AcDbCircle
 10
308.4711304189
 20
171.7425983439
 30
0.0
 40
0.1500000000000057
100
AcDbArc
 50
0.0
 51
90.0
  0
LINE
  5
10C
330
1F
100
AcDbEntity
  8
0
  6
Continuous
 62
     7
370
    15
100
AcDbLine
 10
304.6211305342
 20
170.7475982905
 30
0.0
 11
304.6211305342
 21
168.3568839282
 31
0.0
  0
LINE
  5
10D
330
1F
100
AcDbEntity
  8
0
  6
Continuous
 62
     7
370
    15
100
AcDbLine
 10
304.6211305342
 20
171.7425983698
 30
0.0
 11
304.6211305342
 21
170.7475982905
 31
0.0
  0
LINE
  5
10E
330
1F
100
AcDbEntity
  8
0
  6
Continuous
 62
     7
370
    15
100
AcDbLine
 10
308.6211304448
 20
170.8375983239
 30
0.0
 11
308.6211304448
 21
171.7425983698
 31
0.0
  0
LINE
  5
10F
330
1F
100
AcDbEntity
  8
0
  6
Continuous
 62
     7
370
    15
100
AcDbLine
 10
308.6211304448
 20
168.3568839282
 30
0.0
 11
308.6211304448
 21
170.8375983239
 31
0.0
  0
LINE
  5
110
330
1F
100
AcDbEntity
  8
0
  6
Continuous
 62
     7
370
    15
100
AcDbLine
 10
286.838630148
 20
162.0675985069
 30
0.0
 11
286.8512551568
 21
162.0675985069
 31
0.0
  0
LINE
  5
111
330
1F
100
AcDbEntity
  8
0
  6
Continuous
 62
     7
370
    15
100
AcDbLine
 10
289.3910053454
 20
162.0675985069
 30
0.0
 11
289.4036303542
 21
162.0675985069
 31
0.0
  0
LINE
  5
112
330
1F
100
AcDbEntity
  8
0
  6
Continuous
 62
     7
370
    15
100
AcDbLine
 10
289.4036303542
 20
170.1675981582
 30
0.0
 11
289.3910053454
 21
170.1675981582
 31
0.0
  0
LINE
  5
113
330
1F
100
AcDbEntity
  8
0
  6
Continuous
 62
     7
370
    15
100
AcDbLine
 10
286.8512551568
 20
170.1675981582
 30
0.0
 11
286.838630148
 21
170.1675981582
 31
0.0
  0
ARC
  5
114
330
1F
100
AcDbEntity
  8
0
  6
Continuous
 62
     7
370
    15
100
AcDbCircle
 10
287.3961304189
 20
164.6450983439
 30
0.0
 40
0.75
100
AcDbArc
 50
180.0
 51
221.9838560741
  0
ARC
  5
115
330
1F
100
AcDbEntity
  8
0
  6
Continuous
 62
     7
370
    15
100
AcDbCircle
 10
287.3961304189
 20
167.5900983439
 30
0.0
 40
0.75
100
AcDbArc
 50
138.0161439259
 51
180.0
  0
ARC
  5
116
330
1F
100
AcDbEntity
  8
0
  6
Continuous
 62
     7
370
    15
100
AcDbCircle
 10
288.8461304189
 20
167.5900983439
 30
0.0
 40
0.7499999999999577
100
AcDbArc
 50
0.0
 51
41.9838560741
  0
ARC
  5
117
330
1F
100
AcDbEntity
  8
0
  6
Continuous
 62
     7
370
    15
100
AcDbCircle
 10
288.8461304189
 20
164.6450983439
 30
0.0
 40
0.7499999999999577
100
AcDbArc
 50
318.0161439259
 51
0.0
  0
LINE
  5
118
330
1F
100
AcDbEntity
  8
0
  6
Continuous
 62
     7
370
    15
100
AcDbLine
 10
289.59613026
 20
165.9175981135
 30
0.0
 11
289.6461303613
 21
165.9175981135
 31
0.0
  0
LINE
  5
119
330
1F
100
AcDbEntity
  8
0
  6
Continuous
 62
     7
370
    15
100
AcDbLine
 10
289.6461303613
 20
166.317598179
 30
0.0
 11
289.59613026
 21
166.317598179
 31
0.0
  0
LINE
  5
11A
330
1F
100
AcDbEntity
  8
0
  6
Continuous
 62
     7
370
    15
100
AcDbLine
 10
290.2611303411
 20
165.9175981135
 30
0.0
 11
290.3961303911
 21
165.9175981135
 31
0.0
  0
LINE
  5
11B
330
1F
100
AcDbEntity
  8
0
  6
Continuous
 62
     7
370
    15
100
AcDbLine
 10
290.3961303911
 20
166.317598179
 30
0.0
 11
290.2611303411
 21
166.317598179
 31
0.0
  0
ARC
  5
11C
330
1F
100
AcDbEntity
  8
0
  6
Continuous
 62
     7
370
    15
100
AcDbCircle
 10
286.2711304189
 20
171.7425983439
 30
0.0
 40
0.1500000000000341
100
AcDbArc
 50
90.0
 51
180.0
  0
ARC
  5
11D
330
1F
100
AcDbEntity
  8
0
  6
Continuous
 62
     7
370
    15
100
AcDbCircle
 10
289.9711304189
 20
171.7425983439
 30
0.0
 40
0.1500000000000341
100
AcDbArc
 50
0.0
 51
90.0
  0
LINE
  5
11E
330
1F
100
AcDbEntity
  8
0
  6
Continuous
 62
     7
370
    15
100
AcDbLine
 10
286.1211302958
 20
170.7475982905
 30
0.0
 11
286.1211302958
 21
168.3568839282
 31
0.0
  0
LINE
  5
11F
330
1F
100
AcDbEntity
  8
0
  6
Continuous
 62
     7
370
    15
100
AcDbLine
 10
286.1211302958
 20
171.7425983698
 30
0.0
 11
286.1211302958
 21
170.7475982905
 31
0.0
  0
LINE
  5
120
330
1F
100
AcDbEntity
  8
0
  6
Continuous
 62
     7
370
    15
100
AcDbLine
 10
290.1211302064
 20
170.8375983239
 30
0.0
 11
290.1211302064
 21
171.7425983698
 31
0.0
  0
LINE
  5
121
330
1F
100
AcDbEntity
  8
0
  6
Continuous
 62
     7
370
    15
100
AcDbLine
 10
290.1211302064
 20
168.3568839282
 30
0.0
 11
290.1211302064
 21
170.8375983239
 31
0.0
  0
ARC
  5
122
330
1F
100
AcDbEntity
  8
0
  6
Continuous
 62
     7
370
    15
100
AcDbCircle
 10
287.2838245205
 20
161.3675983439
 30
0.0
 40
0.2500000000000065
100
AcDbArc
 50
194.0362434679
 51
270.0
  0
ARC
  5
123
330
1F
100
AcDbEntity
  8
0
  6
Continuous
 62
     7
370
    15
100
AcDbCircle
 10
287.2838245205
 20
170.8675983439
 30
0.0
 40
0.2500000000000284
100
AcDbArc
 50
90.0
 51
165.9637565321
  0
LINE
  5
124
330
1F
100
AcDbEntity
  8
0
  6
Continuous
 62
     7
370
    15
100
AcDbLine
 10
287.2838246904
 20
161.1175988168
 30
0.0
 11
288.9584365568
 21
161.1175988168
 31
0.0
  0
LINE
  5
125
330
1F
100
AcDbEntity
  8
0
  6
Continuous
 62
     7
370
    15
100
AcDbLine
 10
288.9584365568
 20
171.117598407
 30
0.0
 11
287.2838246904
 21
171.117598407
 31
0.0
  0
ARC
  5
126
330
1F
100
AcDbEntity
  8
0
  6
Continuous
 62
     7
370
    15
100
AcDbCircle
 10
288.9584363173
 20
170.8675983439
 30
0.0
 40
0.2500000000000284
100
AcDbArc
 50
14.0362434679
 51
90.0
  0
ARC
  5
127
330
1F
100
AcDbEntity
  8
0
  6
Continuous
 62
     7
370
    15
100
AcDbCircle
 10
288.9584363173
 20
161.3675983439
 30
0.0
 40
0.2500000000000065
100
AcDbArc
 50
270.0
 51
345.9637565321
  0
LINE
  5
128
330
1F
100
AcDbEntity
  8
0
  6
Continuous
 62
     7
370
    15
100
AcDbLine
 10
287.0412889204
 20
170.9282322154
 30
0.0
 11
286.8512551568
 21
170.1680984647
 31
0.0
  0
LINE
  5
129
330
1F
100
AcDbEntity
  8
0
  6
Continuous
 62
     7
370
    15
100
AcDbLine
 10
286.8512551568
 20
162.0670985729
 30
0.0
 11
287.0412889204
 21
161.3069642634
 31
0.0
  0
LINE
  5
12A
330
1F
100
AcDbEntity
  8
0
  6
Continuous
 62
     7
370
    15
100
AcDbLine
 10
289.2009715817
 20
161.3069642634
 30
0.0
 11
289.3910053454
 21
162.0670985729
 31
0.0
  0
LINE
  5
12B
330
1F
100
AcDbEntity
  8
0
  6
Continuous
 62
     7
370
    15
100
AcDbLine
 10
289.3910053454
 20
170.1680984647
 30
0.0
 11
289.2009715817
 21
170.9282322154
 31
0.0
  0
ARC
  5
12C
330
1F
100
AcDbEntity
  8
0
  6
Continuous
 62
     7
370
    15
100
AcDbCircle
 10
305.7838245205
 20
161.3675983439
 30
0.0
 40
0.2500000000000065
100
AcDbArc
 50
194.0362434679
 51
270.0
  0
ARC
  5
12D
330
1F
100
AcDbEntity
  8
0
  6
Continuous
 62
     7
370
    15
100
AcDbCircle
 10
305.7838245205
 20
170.8675983439
 30
0.0
 40
0.2500000000000284
100
AcDbArc
 50
90.0
 51
165.9637565321
  0
LINE
  5
12E
330
1F
100
AcDbEntity
  8
0
  6
Continuous
 62
     7
370
    15
100
AcDbLine
 10
305.7838241837
 20
161.1175988168
 30
0.0
 11
307.4584360502
 21
161.1175988168
 31
0.0
  0
LINE
  5
12F
330
1F
100
AcDbEntity
  8
0
  6
Continuous
 62
     7
370
    15
100
AcDbLine
 10
307.4584360502
 20
171.117598407
 30
0.0
 11
305.7838241837
 21
171.117598407
 31
0.0
  0
ARC
  5
130
330
1F
100
AcDbEntity
  8
0
  6
Continuous
 62
     7
370
    15
100
AcDbCircle
 10
307.4584363173
 20
170.8675983439
 30
0.0
 40
0.2500000000000284
100
AcDbArc
 50
14.0362434679
 51
90.0
  0
ARC
  5
131
330
1F
100
AcDbEntity
  8
0
  6
Continuous
 62
     7
370
    15
100
AcDbCircle
 10
307.4584363173
 20
161.3675983439
 30
0.0
 40
0.2500000000000065
100
AcDbArc
 50
270.0
 51
345.9637565321
  0
LINE
  5
132
330
1F
100
AcDbEntity
  8
0
  6
Continuous
 62
     7
370
    15
100
AcDbLine
 10
307.7009718201
 20
161.3069642634
 30
0.0
 11
307.8910055838
 21
162.0670985729
 31
0.0
  0
LINE
  5
133
330
1F
100
AcDbEntity
  8
0
  6
Continuous
 62
     7
370
    15
100
AcDbLine
 10
307.8910055838
 20
170.1680984647
 30
0.0
 11
307.7009718201
 21
170.9282322154
 31
0.0
  0
LINE
  5
134
330
1F
100
AcDbEntity
  8
0
  6
Continuous
 62
     7
370
    15
100
AcDbLine
 10
305.5412891588
 20
170.9282322154
 30
0.0
 11
305.3512553952
 21
170.1680984647
 31
0.0
  0
LINE
  5
135
330
1F
100
AcDbEntity
  8
0
  6
Continuous
 62
     7
370
    15
100
AcDbLine
 10
305.3512553952
 20
162.0670985729
 30
0.0
 11
305.5412891588
 21
161.3069642634
 31
0.0
  0
ARC
  5
136
330
1F
100
AcDbEntity
  8
0
  6
Continuous
 62
     7
370
    15
100
AcDbCircle
 10
301.0223804189
 20
176.2038432437
 30
0.0
 40
0.0600000000000023
100
AcDbArc
 50
90.0
 51
180.0
  0
ARC
  5
137
330
1F
100
AcDbEntity
  8
0
  6
Continuous
 62
     7
370
    15
100
AcDbCircle
 10
301.7198804189
 20
176.2038432437
 30
0.0
 40
0.0600000000000023
100
AcDbArc
 50
0.0
 51
90.0
  0
LINE
  5
138
330
1F
100
AcDbEntity
  8
0
  6
Continuous
 62
     7
370
    15
100
AcDbLine
 10
301.7798803083
 20
176.2013431937
 30
0.0
 11
301.7798803083
 21
176.203843236
 31
0.0
  0
LINE
  5
139
330
1F
100
AcDbEntity
  8
0
  6
Continuous
 62
     7
370
    15
100
AcDbLine
 10
300.9623802535
 20
176.203843236
 30
0.0
 11
300.9623802535
 21
176.2013431937
 31
0.0
  0
ARC
  5
13A
330
1F
100
AcDbEntity
  8
0
  6
Continuous
 62
     7
370
    15
100
AcDbCircle
 10
299.0223804189
 20
176.2038432437
 30
0.0
 40
0.0600000000000023
100
AcDbArc
 50
90.0
 51
180.0
  0
ARC
  5
13B
330
1F
100
AcDbEntity
  8
0
  6
Continuous
 62
     7
370
    15
100
AcDbCircle
 10
299.7198804189
 20
176.2038432437
 30
0.0
 40
0.0600000000000023
100
AcDbArc
 50
0.0
 51
90.0
  0
LINE
  5
13C
330
1F
100
AcDbEntity
  8
0
  6
Continuous
 62
     7
370
    15
100
AcDbLine
 10
299.779880353
 20
176.2013431937
 30
0.0
 11
299.779880353
 21
176.203843236
 31
0.0
  0
LINE
  5
13D
330
1F
100
AcDbEntity
  8
0
  6
Continuous
 62
     7
370
    15
100
AcDbLine
 10
298.9623803913
 20
176.203843236
 30
0.0
 11
298.9623803913
 21
176.2013431937
 31
0.0
  0
LINE
  5
13E
330
1F
100
AcDbEntity
  8
0
  6
Continuous
 62
     7
370
    15
100
AcDbLine
 10
295.7798804424
 20
176.2013431937
 30
0.0
 11
295.7798804424
 21
176.203843236
 31
0.0
  0
LINE
  5
13F
330
1F
100
AcDbEntity
  8
0
  6
Continuous
 62
     7
370
    15
100
AcDbLine
 10
294.9623803876
 20
176.203843236
 30
0.0
 11
294.9623803876
 21
176.2013431937
 31
0.0
  0
ARC
  5
140
330
1F
100
AcDbEntity
  8
0
  6
Continuous
 62
     7
370
    15
100
AcDbCircle
 10
295.0223804189
 20
176.2038432437
 30
0.0
 40
0.0600000000000023
100
AcDbArc
 50
90.0
 51
180.0
  0
ARC
  5
141
330
1F
100
AcDbEntity
  8
0
  6
Continuous
 62
     7
370
    15
100
AcDbCircle
 10
295.7198804189
 20
176.2038432437
 30
0.0
 40
0.0600000000000023
100
AcDbArc
 50
0.0
 51
90.0
  0
LINE
  5
142
330
1F
100
AcDbEntity
  8
0
  6
Continuous
 62
     7
370
    15
100
AcDbLine
 10
293.7798804871
 20
176.2013431937
 30
0.0
 11
293.7798804871
 21
176.203843236
 31
0.0
  0
LINE
  5
143
330
1F
100
AcDbEntity
  8
0
  6
Continuous
 62
     7
370
    15
100
AcDbLine
 10
292.9623804323
 20
176.203843236
 30
0.0
 11
292.9623804323
 21
176.2013431937
 31
0.0
  0
ARC
  5
144
330
1F
100
AcDbEntity
  8
0
  6
Continuous
 62
     7
370
    15
100
AcDbCircle
 10
293.0223804189
 20
176.2038432437
 30
0.0
 40
0.0600000000000023
100
AcDbArc
 50
90.0
 51
180.0
  0
ARC
  5
145
330
1F
100
AcDbEntity
  8
0
  6
Continuous
 62
     7
370
    15
100
AcDbCircle
 10
293.7198804189
 20
176.2038432437
 30
0.0
 40
0.0600000000000023
100
AcDbArc
 50
0.0
 51
90.0
  0
ARC
  5
146
330
1F
100
AcDbEntity
  8
0
  6
Continuous
 62
     7
370
    15
100
AcDbCircle
 10
281.6086304189
 20
185.053027406
 30
0.0
 40
0.0600000000000023
100
AcDbArc
 50
180.0
 51
270.0
  0
ARC
  5
147
330
1F
100
AcDbEntity
  8
0
  6
Continuous
 62
     7
370
    15
100
AcDbCircle
 10
281.6086304189
 20
185.750527406
 30
0.0
 40
0.0600000000000023
100
AcDbArc
 50
90.0
 51
180.0
  0
LINE
  5
148
330
1F
100
AcDbEntity
  8
0
  6
Continuous
 62
     7
370
    15
100
AcDbLine
 10
281.6111299477
 20
185.8105276079
 30
0.0
 11
281.608631023
 21
185.8105276079
 31
0.0
  0
LINE
  5
149
330
1F
100
AcDbEntity
  8
0
  6
Continuous
 62
     7
370
    15
100
AcDbLine
 10
281.608631023
 20
184.993027553
 30
0.0
 11
281.6111299477
 21
184.993027553
 31
0.0
  0
LINE
  5
14A
330
1F
100
AcDbEntity
  8
0
  6
Continuous
 62
     7
370
    15
100
AcDbLine
 10
281.6111299477
 20
212.6105282754
 30
0.0
 11
281.608631023
 21
212.6105282754
 31
0.0
  0
LINE
  5
14B
330
1F
100
AcDbEntity
  8
0
  6
Continuous
 62
     7
370
    15
100
AcDbLine
 10
281.608631023
 20
211.7930267305
 30
0.0
 11
281.6111299477
 21
211.7930267305
 31
0.0
  0
ARC
  5
14C
330
1F
100
AcDbEntity
  8
0
  6
Continuous
 62
     7
370
    15
100
AcDbCircle
 10
281.6086304189
 20
211.853027406
 30
0.0
 40
0.0600000000000023
100
AcDbArc
 50
180.0
 51
270.0
  0
ARC
  5
14D
330
1F
100
AcDbEntity
  8
0
  6
Continuous
 62
     7
370
    15
100
AcDbCircle
 10
281.6086304189
 20
212.550527406
 30
0.0
 40
0.0600000000000023
100
AcDbArc
 50
90.0
 51
180.0
  0
LINE
  5
14E
330
1F
100
AcDbEntity
  8
0
  6
Continuous
 62
     7
370
    15
100
AcDbLine
 10
281.6111299477
 20
179.6678103805
 30
0.0
 11
281.608631023
 21
179.6678103805
 31
0.0
  0
LINE
  5
14F
330
1F
100
AcDbEntity
  8
0
  6
Continuous
 62
     7
370
    15
100
AcDbLine
 10
281.608631023
 20
178.8503103257
 30
0.0
 11
281.6111299477
 21
178.8503103257
 31
0.0
  0
ARC
  5
150
330
1F
100
AcDbEntity
  8
0
  6
Continuous
 62
     7
370
    15
100
AcDbCircle
 10
281.6086304189
 20
178.9103103248
 30
0.0
 40
0.0600000000000023
100
AcDbArc
 50
180.0
 51
270.0
  0
ARC
  5
151
330
1F
100
AcDbEntity
  8
0
  6
Continuous
 62
     7
370
    15
100
AcDbCircle
 10
281.6086304189
 20
179.6078103248
 30
0.0
 40
0.0600000000000023
100
AcDbArc
 50
90.0
 51
180.0
  0
LINE
  5
152
330
1F
100
AcDbEntity
  8
0
  6
Continuous
 62
     7
370
    15
100
AcDbLine
 10
313.9561298571
 20
215.6280283183
 30
0.0
 11
313.9586302719
 21
215.6280283183
 31
0.0
  0
LINE
  5
153
330
1F
100
AcDbEntity
  8
0
  6
Continuous
 62
     7
370
    15
100
AcDbLine
 10
313.9586302719
 20
216.4455268831
 30
0.0
 11
313.9561298571
 21
216.4455268831
 31
0.0
  0
ARC
  5
154
330
1F
100
AcDbEntity
  8
0
  6
Continuous
 62
     7
370
    15
100
AcDbCircle
 10
313.9586304189
 20
216.385527406
 30
0.0
 40
0.0600000000000023
100
AcDbArc
 50
0.0
 51
90.0
  0
ARC
  5
155
330
1F
100
AcDbEntity
  8
0
  6
Continuous
 62
     7
370
    15
100
AcDbCircle
 10
313.9586304189
 20
215.688027406
 30
0.0
 40
0.0600000000000023
100
AcDbArc
 50
270.0
 51
0.0
  0
LINE
  5
156
330
1F
100
AcDbEntity
  8
0
  6
Continuous
 62
     7
370
    15
100
AcDbLine
 10
313.8961303315
 20
216.3542781324
 30
0.0
 11
313.892594286
 21
216.3542781324
 31
0.0
  0
LINE
  5
157
330
1F
100
AcDbEntity
  8
0
  6
Continuous
 62
     7
370
    15
100
AcDbLine
 10
313.892594286
 20
215.719277069
 30
0.0
 11
313.8961303315
 21
215.719277069
 31
0.0
  0
LINE
  5
158
330
1F
100
AcDbEntity
  8
0
  6
Continuous
 62
     7
370
    15
100
AcDbLine
 10
310.9111297212
 20
176.2263432444
 30
0.0
 11
310.9111297212
 21
176.2013431937
 31
0.0
  0
LINE
  5
159
330
1F
100
AcDbEntity
  8
0
  6
Continuous
 62
     7
370
    15
100
AcDbLine
 10
311.3111305318
 20
176.2013431937
 30
0.0
 11
311.3111305318
 21
176.2263432444
 31
0.0
  0
LINE
  5
15A
330
1F
100
AcDbEntity
  8
0
  6
Continuous
 62
     7
370
    15
100
AcDbLine
 10
309.9111306749
 20
176.2263432444
 30
0.0
 11
309.9111306749
 21
176.2013431937
 31
0.0
  0
LINE
  5
15B
330
1F
100
AcDbEntity
  8
0
  6
Continuous
 62
     7
370
    15
100
AcDbLine
 10
310.3111299954
 20
176.2013431937
 30
0.0
 11
310.3111299954
 21
176.2263432444
 31
0.0
  0
LINE
  5
15C
330
1F
100
AcDbEntity
  8
0
  6
Continuous
 62
     7
370
    15
100
AcDbLine
 10
281.9711300812
 20
176.2263432444
 30
0.0
 11
281.9711300812
 21
176.2013431937
 31
0.0
  0
LINE
  5
15D
330
1F
100
AcDbEntity
  8
0
  6
Continuous
 62
     7
370
    15
100
AcDbLine
 10
282.3711308918
 20
176.2013431937
 30
0.0
 11
282.3711308918
 21
176.2263432444
 31
0.0
  0
LINE
  5
15E
330
1F
100
AcDbEntity
  8
0
  6
Continuous
 62
     7
370
    15
100
AcDbLine
 10
283.0311301432
 20
176.2263432444
 30
0.0
 11
283.0311301432
 21
176.2013431937
 31
0.0
  0
LINE
  5
15F
330
1F
100
AcDbEntity
  8
0
  6
Continuous
 62
     7
370
    15
100
AcDbLine
 10
283.4311309538
 20
176.2013431937
 30
0.0
 11
283.4311309538
 21
176.2263432444
 31
0.0
  0
LINE
  5
160
330
1F
100
AcDbEntity
  8
0
  6
Continuous
 62
     7
370
    15
100
AcDbLine
 10
290.0561305962
 20
176.2940602676
 30
0.0
 11
290.0561305962
 21
176.2013431937
 31
0.0
  0
LINE
  5
161
330
1F
100
AcDbEntity
  8
0
  6
Continuous
 62
     7
370
    15
100
AcDbLine
 10
305.0561304472
 20
176.2940602676
 30
0.0
 11
305.0561304472
 21
176.2013431937
 31
0.0
  0
CIRCLE
  5
162
330
1F
100
AcDbEntity
  8
0
  6
Continuous
 62
     7
370
    15
100
AcDbCircle
 10
299.1411304189
 20
209.586777406
 30
0.0
 40
0.125
  0
CIRCLE
  5
163
330
1F
100
AcDbEntity
  8
0
  6
Continuous
 62
     7
370
    15
100
AcDbCircle
 10
294.1411304189
 20
213.866777406
 30
0.0
 40
0.125
  0
LINE
  5
164
330
1F
100
AcDbEntity
  8
0
  6
Continuous
 62
     7
370
    15
100
AcDbLine
 10
300.2911304391
 20
209.5267776698
 30
0.0
 11
300.0411304913
 21
209.2767779083
 31
0.0
  0
LINE
  5
165
330
1F
100
AcDbEntity
  8
0
  6
Continuous
 62
     7
370
    15
100
AcDbLine
 10
300.0411304913
 20
209.2767779083
 30
0.0
 11
293.1411302916
 21
209.2767779083
 31
0.0
  0
LINE
  5
166
330
1F
100
AcDbEntity
  8
0
  6
Continuous
 62
     7
370
    15
100
AcDbLine
 10
293.1411302916
 20
209.2767779083
 30
0.0
 11
292.89113053
 21
209.5267776698
 31
0.0
  0
LINE
  5
167
330
1F
100
AcDbEntity
  8
0
  6
Continuous
 62
     7
370
    15
100
AcDbLine
 10
292.89113053
 20
209.5267776698
 30
0.0
 11
292.89113053
 21
213.926777646
 31
0.0
  0
LINE
  5
168
330
1F
100
AcDbEntity
  8
0
  6
Continuous
 62
     7
370
    15
100
AcDbLine
 10
292.89113053
 20
213.926777646
 30
0.0
 11
293.1411302916
 21
214.1767774076
 31
0.0
  0
LINE
  5
169
330
1F
100
AcDbEntity
  8
0
  6
Continuous
 62
     7
370
    15
100
AcDbLine
 10
293.1411302916
 20
214.1767774076
 30
0.0
 11
300.0411304913
 21
214.1767774076
 31
0.0
  0
LINE
  5
16A
330
1F
100
AcDbEntity
  8
0
  6
Continuous
 62
     7
370
    15
100
AcDbLine
 10
300.0411304913
 20
214.1767774076
 30
0.0
 11
300.2911304391
 21
213.926777646
 31
0.0
  0
LINE
  5
16B
330
1F
100
AcDbEntity
  8
0
  6
Continuous
 62
     7
370
    15
100
AcDbLine
 10
300.2911304391
 20
213.926777646
 30
0.0
 11
300.2911304391
 21
209.5267776698
 31
0.0
  0
CIRCLE
  5
16C
330
1F
100
AcDbEntity
  8
0
  6
Continuous
 62
     7
370
    15
100
AcDbCircle
 10
299.1411304189
 20
213.866777406
 30
0.0
 40
0.125
  0
CIRCLE
  5
16D
330
1F
100
AcDbEntity
  8
0
  6
Continuous
 62
     7
370
    15
100
AcDbCircle
 10
294.1411304189
 20
209.586777406
 30
0.0
 40
0.1250000000000568
  0
CIRCLE
  5
16E
330
1F
100
AcDbEntity
  8
0
  6
Continuous
 62
     7
370
    15
100
AcDbCircle
 10
294.1411304189
 20
209.586777406
 30
0.0
 40
0.1062499999999948
  0
CIRCLE
  5
16F
330
1F
100
AcDbEntity
  8
0
  6
Continuous
 62
     7
370
    15
100
AcDbCircle
 10
294.1411304189
 20
209.586777406
 30
0.0
 40
0.082499999999978
  0
CIRCLE
  5
170
330
1F
100
AcDbEntity
  8
0
  6
Continuous
 62
     7
370
    15
100
AcDbCircle
 10
299.1411304189
 20
209.586777406
 30
0.0
 40
0.1062499999999948
  0
CIRCLE
  5
171
330
1F
100
AcDbEntity
  8
0
  6
Continuous
 62
     7
370
    15
100
AcDbCircle
 10
299.1411304189
 20
209.586777406
 30
0.0
 40
0.0825000000000018
  0
CIRCLE
  5
172
330
1F
100
AcDbEntity
  8
0
  6
Continuous
 62
     7
370
    15
100
AcDbCircle
 10
299.1411304189
 20
213.866777406
 30
0.0
 40
0.1062499999999948
  0
CIRCLE
  5
173
330
1F
100
AcDbEntity
  8
0
  6
Continuous
 62
     7
370
    15
100
AcDbCircle
 10
299.1411304189
 20
213.866777406
 30
0.0
 40
0.0825000000000018
  0
CIRCLE
  5
174
330
1F
100
AcDbEntity
  8
0
  6
Continuous
 62
     7
370
    15
100
AcDbCircle
 10
294.1411304189
 20
213.866777406
 30
0.0
 40
0.1062500000000497
  0
CIRCLE
  5
175
330
1F
100
AcDbEntity
  8
0
  6
Continuous
 62
     7
370
    15
100
AcDbCircle
 10
294.1411304189
 20
213.866777406
 30
0.0
 40
0.0825000000000639
  0
LINE
  5
176
330
1F
100
AcDbEntity
  8
0
  6
Continuous
 62
     7
370
    15
100
AcDbLine
 10
300.1893625862
 20
209.4250086994
 30
0.0
 11
300.2525949187
 21
209.3617771119
 31
0.0
  0
LINE
  5
177
330
1F
100
AcDbEntity
  8
0
  6
Continuous
 62
     7
370
    15
100
AcDbLine
 10
300.2525949187
 20
214.0917782039
 30
0.0
 11
300.1893625862
 21
214.0285466165
 31
0.0
  0
SPLINE
  5
178
330
1F
100
AcDbEntity
  8
0
  6
Continuous
 62
     7
370
    15
100
AcDbSpline
210
0.0
220
0.0
230
1.0
 70
     8
 71
     3
 72
    12
 73
     8
 74
     0
 42
0.00000001
 43
0.00000001
 40
0.0
 40
0.0
 40
0.0
 40
0.0
 40
0.2277599769978406
 40
0.455578712595515
 40
0.6834020732663342
 40
0.9112296898796438
 40
1.0
 40
1.0
 40
1.0
 40
1.0
 10
300.2525949186924
 20
214.0917782038982
 30
0.0
 10
300.2686960264513
 20
214.097474360395
 30
0.0
 10
300.3009023958097
 20
214.1088681429101
 30
0.0
 10
300.3431378481999
 20
214.1259607604504
 30
0.0
 10
300.3737116272974
 20
214.143042125376
 30
0.0
 10
300.3863834444661
 20
214.1566870882326
 30
0.0
 10
300.3873296608808
 20
214.1645687920019
 30
0.0
 10
300.3875949687602
 20
214.166778728419
 30
0.0
  0
SPLINE
  5
179
330
1F
100
AcDbEntity
  8
0
  6
Continuous
 62
     7
370
    15
100
AcDbSpline
210
0.0
220
0.0
230
1.0
 70
     8
 71
     3
 72
    11
 73
     7
 74
     0
 42
0.00000001
 43
0.00000001
 40
0.0
 40
0.0
 40
0.0
 40
0.0
 40
0.2222093489425403
 40
0.4770340239870352
 40
0.7319500701104246
 40
0.9999999999999999
 40
0.9999999999999999
 40
0.9999999999999999
 40
0.9999999999999999
 10
300.2525949186924
 20
214.0917782038982
 30
0.0
 10
300.2613203193698
 20
214.0973255734692
 30
0.0
 10
300.2800518129632
 20
214.1092345414833
 30
0.0
 10
300.3049028879
 20
214.1275460595162
 30
0.0
 10
300.3237673365468
 20
214.1469874004052
 30
0.0
 10
300.3262978511599
 20
214.1600720818814
 30
0.0
 10
300.3275948844196
 20
214.166778728419
 30
0.0
  0
LINE
  5
17A
330
1F
100
AcDbEntity
  8
0
  6
Continuous
 62
     7
370
    15
100
AcDbLine
 10
300.3275948844
 20
214.1667787284
 30
0.0
 11
300.3875949688
 21
214.1667787284
 31
0.0
  0
LINE
  5
17B
330
1F
100
AcDbEntity
  8
0
  6
Continuous
 62
     7
370
    15
100
AcDbLine
 10
300.3875949688
 20
209.2867765874
 30
0.0
 11
300.3875949688
 21
214.1667787284
 31
0.0
  0
SPLINE
  5
17C
330
1F
100
AcDbEntity
  8
0
  6
Continuous
 62
     7
370
    15
100
AcDbSpline
210
0.0
220
0.0
230
1.0
 70
     8
 71
     3
 72
    12
 73
     8
 74
     0
 42
0.00000001
 43
0.00000001
 40
0.0
 40
0.0
 40
0.0
 40
0.0
 40
0.2277596986132036
 40
0.4555847587943147
 40
0.6834086558377774
 40
0.911227950683407
 40
0.9999999999999999
 40
0.9999999999999999
 40
0.9999999999999999
 40
0.9999999999999999
 10
300.3875949687602
 20
209.2867765874202
 30
0.0
 10
300.3859135858536
 20
209.2924729096516
 30
0.0
 10
300.382550337524
 20
209.3038671888222
 30
0.0
 10
300.3564379217673
 20
209.3209575049893
 30
0.0
 10
300.3184203632331
 20
209.3380453328986
 30
0.0
 10
300.2811216439915
 20
209.3516854505156
 30
0.0
 10
300.2588420932173
 20
209.3595671011701
 30
0.0
 10
300.2525949186924
 20
209.3617771119411
 30
0.0
  0
LINE
  5
17D
330
1F
100
AcDbEntity
  8
0
  6
Continuous
 62
     7
370
    15
100
AcDbLine
 10
300.3275948844
 20
209.2867765874
 30
0.0
 11
300.3875949688
 21
209.2867765874
 31
0.0
  0
SPLINE
  5
17E
330
1F
100
AcDbEntity
  8
0
  6
Continuous
 62
     7
370
    15
100
AcDbSpline
210
0.0
220
0.0
230
1.0
 70
     8
 71
     3
 72
    11
 73
     7
 74
     0
 42
0.00000001
 43
0.00000001
 40
0.0
 40
0.0
 40
0.0
 40
0.0
 40
0.2222306920324295
 40
0.4770406315908084
 40
0.7319494573560923
 40
1.0
 40
1.0
 40
1.0
 40
1.0
 10
300.3275948844196
 20
209.2867765874202
 30
0.0
 10
300.3267019224701
 20
209.2923252518635
 30
0.0
 10
300.3247850894327
 20
209.3042360206521
 30
0.0
 10
300.3088699276696
 20
209.3225436322569
 30
0.0
 10
300.2837099162859
 20
209.3419863990409
 30
0.0
 10
300.2631388978167
 20
209.3550706076886
 30
0.0
 10
300.2525949186924
 20
209.3617771119411
 30
0.0
  0
SPLINE
  5
17F
330
1F
100
AcDbEntity
  8
0
  6
Continuous
 62
     7
370
    15
100
AcDbSpline
210
0.0
220
0.0
230
1.0
 70
     8
 71
     3
 72
    12
 73
     8
 74
     0
 42
0.00000001
 43
0.00000001
 40
0.0
 40
0.0
 40
0.0
 40
0.0
 40
0.2277591305183806
 40
0.4555791376054025
 40
0.6834024229328441
 40
0.9112297192368395
 40
1.0
 40
1.0
 40
1.0
 40
1.0
 10
293.029665880585
 20
209.3617771119411
 30
0.0
 10
293.0135648532998
 20
209.3560809389967
 30
0.0
 10
292.9813584951688
 20
209.3446870706071
 30
0.0
 10
292.9391228028675
 20
209.3275946275884
 30
0.0
 10
292.9085489377678
 20
209.3105131928655
 30
0.0
 10
292.8958773723079
 20
209.296868220285
 30
0.0
 10
292.8949311423884
 20
209.2889865235694
 30
0.0
 10
292.894665830517
 20
209.2867765874202
 30
0.0
  0
LINE
  5
180
330
1F
100
AcDbEntity
  8
0
  6
Continuous
 62
     7
370
    15
100
AcDbLine
 10
292.8946658305
 20
214.1667787284
 30
0.0
 11
292.8946658305
 21
213.9303122014
 31
0.0
  0
LINE
  5
181
330
1F
100
AcDbEntity
  8
0
  6
Continuous
 62
     7
370
    15
100
AcDbLine
 10
292.8946658305
 20
209.5232431144
 30
0.0
 11
292.8946658305
 21
209.2867765874
 31
0.0
  0
SPLINE
  5
182
330
1F
100
AcDbEntity
  8
0
  6
Continuous
 62
     7
370
    15
100
AcDbSpline
210
0.0
220
0.0
230
1.0
 70
     8
 71
     3
 72
    12
 73
     8
 74
     0
 42
0.00000001
 43
0.00000001
 40
0.0
 40
0.0
 40
0.0
 40
0.0
 40
0.2277594779297474
 40
0.4555893161538138
 40
0.6834080620454465
 40
0.9112287644993396
 40
1.0
 40
1.0
 40
1.0
 40
1.0
 10
292.894665830517
 20
214.166778728419
 30
0.0
 10
292.8963472091488
 20
214.1610827795774
 30
0.0
 10
292.89971048583
 20
214.1496891222806
 30
0.0
 10
292.9258220815297
 20
214.1325932014769
 30
0.0
 10
292.9638408906837
 20
214.1155109921518
 30
0.0
 10
293.0011391882023
 20
214.1018698766641
 30
0.0
 10
293.0234187671484
 20
214.0939881980919
 30
0.0
 10
293.029665880585
 20
214.0917782038982
 30
0.0
  0
LINE
  5
183
330
1F
100
AcDbEntity
  8
0
  6
Continuous
 62
     7
370
    15
100
AcDbLine
 10
293.0296658806
 20
209.3617771119
 30
0.0
 11
293.0428981117
 21
209.3750093431
 31
0.0
  0
LINE
  5
184
330
1F
100
AcDbEntity
  8
0
  6
Continuous
 62
     7
370
    15
100
AcDbLine
 10
293.0428981117
 20
214.0785459728
 30
0.0
 11
293.0296658806
 21
214.0917782039
 31
0.0
  0
LINE
  5
185
330
1F
100
AcDbEntity
  8
0
  6
Continuous
 62
     7
370
    15
100
AcDbLine
 10
292.9546661011
 20
214.1667787284
 30
0.0
 11
292.8946658305
 21
214.1667787284
 31
0.0
  0
SPLINE
  5
186
330
1F
100
AcDbEntity
  8
0
  6
Continuous
 62
     7
370
    15
100
AcDbSpline
210
0.0
220
0.0
230
1.0
 70
     8
 71
     3
 72
    11
 73
     7
 74
     0
 42
0.00000001
 43
0.00000001
 40
0.0
 40
0.0
 40
0.0
 40
0.0
 40
0.222230142309721
 40
0.4770514686700463
 40
0.7319485452012248
 40
1.0
 40
1.0
 40
1.0
 40
1.0
 10
292.9546661011221
 20
214.166778728419
 30
0.0
 10
292.9555590199688
 20
214.1612303070577
 30
0.0
 10
292.9574758087661
 20
214.1493197600375
 30
0.0
 10
292.97338945528
 20
214.1310077697651
 30
0.0
 10
292.9985515900481
 20
214.1115695413542
 30
0.0
 10
293.0191219728862
 20
214.0984850267686
 30
0.0
 10
293.029665880585
 20
214.0917782038982
 30
0.0
  0
SPLINE
  5
187
330
1F
100
AcDbEntity
  8
0
  6
Continuous
 62
     7
370
    15
100
AcDbSpline
210
0.0
220
0.0
230
1.0
 70
     8
 71
     3
 72
    11
 73
     7
 74
     0
 42
0.00000001
 43
0.00000001
 40
0.0
 40
0.0
 40
0.0
 40
0.0
 40
0.2222219693193805
 40
0.4770350241875418
 40
0.7319503610517186
 40
1.0
 40
1.0
 40
1.0
 40
1.0
 10
293.029665880585
 20
209.3617771119411
 30
0.0
 10
293.0209406119635
 20
209.3562283832942
 30
0.0
 10
293.0022104263718
 20
209.3443171491692
 30
0.0
 10
292.9773568569355
 20
209.3260099458639
 30
0.0
 10
292.9584936166906
 20
209.30656764089
 30
0.0
 10
292.9559631241443
 20
209.2934831445912
 30
0.0
 10
292.9546661011221
 20
209.2867765874202
 30
0.0
  0
LINE
  5
188
330
1F
100
AcDbEntity
  8
0
  6
Continuous
 62
     7
370
    15
100
AcDbLine
 10
292.9546661011
 20
209.2867765874
 30
0.0
 11
292.8946658305
 21
209.2867765874
 31
0.0
  0
LINE
  5
189
330
1F
100
AcDbEntity
  8
0
  6
Continuous
 62
     7
370
    15
100
AcDbLine
 10
292.9546661011
 20
214.1667787284
 30
0.0
 11
292.9546661011
 21
214.2267767638
 31
0.0
  0
SPLINE
  5
18A
330
1F
100
AcDbEntity
  8
0
  6
Continuous
 62
     7
370
    15
100
AcDbSpline
210
0.0
220
0.0
230
1.0
 70
     8
 71
     3
 72
    12
 73
     8
 74
     0
 42
0.00000001
 43
0.00000001
 40
0.0
 40
0.0
 40
0.0
 40
0.0
 40
0.2277572588856385
 40
0.4555729892698389
 40
0.6834061531853918
 40
0.9112309584978746
 40
1.0
 40
1.0
 40
1.0
 40
1.0
 10
293.029665880585
 20
214.0917782038982
 30
0.0
 10
293.0239701389985
 20
214.1078792696174
 30
0.0
 10
293.0125771935734
 20
214.1400855346384
 30
0.0
 10
292.9954825159646
 20
214.182319024014
 30
0.0
 10
292.9783997845859
 20
214.2128953966914
 30
0.0
 10
292.9647566691592
 20
214.2255677566207
 30
0.0
 10
292.9568758003291
 20
214.226512007465
 30
0.0
 10
292.9546661011221
 20
214.2267767638499
 30
0.0
  0
SPLINE
  5
18B
330
1F
100
AcDbEntity
  8
0
  6
Continuous
 62
     7
370
    15
100
AcDbSpline
210
0.0
220
0.0
230
1.0
 70
     8
 71
     3
 72
    11
 73
     7
 74
     0
 42
0.00000001
 43
0.00000001
 40
0.0
 40
0.0
 40
0.0
 40
0.0
 40
0.2222054505272026
 40
0.4770366811062378
 40
0.7319490023040485
 40
1.0
 40
1.0
 40
1.0
 40
1.0
 10
293.029665880585
 20
214.0917782038982
 30
0.0
 10
293.0241175796634
 20
214.1005026647092
 30
0.0
 10
293.0122063369323
 20
214.1192325735384
 30
0.0
 10
292.9938980421899
 20
214.1440863124351
 30
0.0
 10
292.9744569182755
 20
214.1629499541137
 30
0.0
 10
292.9613726147362
 20
214.1654812717852
 30
0.0
 10
292.9546661011221
 20
214.166778728419
 30
0.0
  0
SPLINE
  5
18C
330
1F
100
AcDbEntity
  8
0
  6
Continuous
 62
     7
370
    15
100
AcDbSpline
210
0.0
220
0.0
230
1.0
 70
     8
 71
     3
 72
    12
 73
     8
 74
     0
 42
0.00000001
 43
0.00000001
 40
0.0
 40
0.0
 40
0.0
 40
0.0
 40
0.227759321327653
 40
0.4555876106314176
 40
0.6834141571161513
 40
0.9112291148856496
 40
1.0
 40
1.0
 40
1.0
 40
1.0
 10
300.3275948844196
 20
214.2267767638499
 30
0.0
 10
300.3218989754142
 20
214.2250957089098
 30
0.0
 10
300.3105054326206
 20
214.221733089988
 30
0.0
 10
300.2934121037715
 20
214.1956209225257
 30
0.0
 10
300.2763292744482
 20
214.1576012899174
 30
0.0
 10
300.2626853221204
 20
214.1203047084943
 30
0.0
 10
300.2548046613254
 20
214.0980253508858
 30
0.0
 10
300.2525949186924
 20
214.0917782038982
 30
0.0
  0
LINE
  5
18D
330
1F
100
AcDbEntity
  8
0
  6
Continuous
 62
     7
370
    15
100
AcDbLine
 10
292.9546661011
 20
214.2267767638
 30
0.0
 11
300.3275948844
 21
214.2267767638
 31
0.0
  0
SPLINE
  5
18E
330
1F
100
AcDbEntity
  8
0
  6
Continuous
 62
     7
370
    15
100
AcDbSpline
210
0.0
220
0.0
230
1.0
 70
     8
 71
     3
 72
    12
 73
     8
 74
     0
 42
0.00000001
 43
0.00000001
 40
0.0
 40
0.0
 40
0.0
 40
0.0
 40
0.2277586216123227
 40
0.455586489728431
 40
0.6834028330138151
 40
0.9112290014571287
 40
1.0
 40
1.0
 40
1.0
 40
1.0
 10
292.9546661011221
 20
209.2267785519893
 30
0.0
 10
292.9603619661846
 20
209.2284595669751
 30
0.0
 10
292.9717554280497
 20
209.2318221080335
 30
0.0
 10
292.9888480676012
 20
209.2579345354648
 30
0.0
 10
293.0059328050875
 20
209.2959515644543
 30
0.0
 10
293.0195747363737
 20
209.33324998016
 30
0.0
 10
293.0274560352536
 20
209.3555299958892
 30
0.0
 10
293.029665880585
 20
209.3617771119411
 30
0.0
  0
LINE
  5
18F
330
1F
100
AcDbEntity
  8
0
  6
Continuous
 62
     7
370
    15
100
AcDbLine
 10
292.9546661011
 20
209.2867765874
 30
0.0
 11
292.9546661011
 21
209.226778552
 31
0.0
  0
SPLINE
  5
190
330
1F
100
AcDbEntity
  8
0
  6
Continuous
 62
     7
370
    15
100
AcDbSpline
210
0.0
220
0.0
230
1.0
 70
     8
 71
     3
 72
    11
 73
     7
 74
     0
 42
0.00000001
 43
0.00000001
 40
0.0
 40
0.0
 40
0.0
 40
0.0
 40
0.2222284021097468
 40
0.4770451211491538
 40
0.7319465479825918
 40
1.0
 40
1.0
 40
1.0
 40
1.0
 10
292.9546661011221
 20
209.2867765874202
 30
0.0
 10
292.9602142214797
 20
209.2876700668774
 30
0.0
 10
292.9721240571399
 20
209.2895880486108
 30
0.0
 10
292.9904336321081
 20
209.3055021962624
 30
0.0
 10
293.0098757628277
 20
209.3306617815726
 30
0.0
 10
293.022959491823
 20
209.3512328845411
 30
0.0
 10
293.029665880585
 20
209.3617771119411
 30
0.0
  0
SPLINE
  5
191
330
1F
100
AcDbEntity
  8
0
  6
Continuous
 62
     7
370
    15
100
AcDbSpline
210
0.0
220
0.0
230
1.0
 70
     8
 71
     3
 72
    12
 73
     8
 74
     0
 42
0.00000001
 43
0.00000001
 40
0.0
 40
0.0
 40
0.0
 40
0.0
 40
0.2277568069676439
 40
0.4555825811500241
 40
0.6834066125326133
 40
0.9112309657067678
 40
1.0
 40
1.0
 40
1.0
 40
1.0
 10
300.2525949186924
 20
209.3617771119411
 30
0.0
 10
300.2582908360959
 20
209.3456762392579
 30
0.0
 10
300.2696843956881
 20
209.3134696183738
 30
0.0
 10
300.2867775985184
 20
209.2712332602253
 30
0.0
 10
300.3038612044344
 20
209.2406604400973
 30
0.0
 10
300.3175040089289
 20
209.2279874947649
 30
0.0
 10
300.3253851155205
 20
209.227043294543
 30
0.0
 10
300.3275948844196
 20
209.2267785519893
 30
0.0
  0
LINE
  5
192
330
1F
100
AcDbEntity
  8
0
  6
Continuous
 62
     7
370
    15
100
AcDbLine
 10
300.3275948844
 20
209.226778552
 30
0.0
 11
292.9546661011
 21
209.226778552
 31
0.0
  0
LINE
  5
193
330
1F
100
AcDbEntity
  8
0
  6
Continuous
 62
     7
370
    15
100
AcDbLine
 10
300.3275948844
 20
214.1667787284
 30
0.0
 11
300.3275948844
 21
214.2267767638
 31
0.0
  0
SPLINE
  5
194
330
1F
100
AcDbEntity
  8
0
  6
Continuous
 62
     7
370
    15
100
AcDbSpline
210
0.0
220
0.0
230
1.0
 70
     8
 71
     3
 72
    11
 73
     7
 74
     0
 42
0.00000001
 43
0.00000001
 40
0.0
 40
0.0
 40
0.0
 40
0.0
 40
0.2222282413604111
 40
0.4770454990930441
 40
0.7319460185193668
 40
1.0
 40
1.0
 40
1.0
 40
1.0
 10
300.3275948844196
 20
214.166778728419
 30
0.0
 10
300.322046780024
 20
214.1658852416814
 30
0.0
 10
300.3101369605781
 20
214.1639672414125
 30
0.0
 10
300.2918270995577
 20
214.1480532045483
 30
0.0
 10
300.2723852801755
 20
214.1228934336133
 30
0.0
 10
300.259301402009
 20
214.1023224159964
 30
0.0
 10
300.2525949186924
 20
214.0917782038982
 30
0.0
  0
LINE
  5
195
330
1F
100
AcDbEntity
  8
0
  6
Continuous
 62
     7
370
    15
100
AcDbLine
 10
300.3275948844
 20
209.2867765874
 30
0.0
 11
300.3275948844
 21
209.226778552
 31
0.0
  0
SPLINE
  5
196
330
1F
100
AcDbEntity
  8
0
  6
Continuous
 62
     7
370
    15
100
AcDbSpline
210
0.0
220
0.0
230
1.0
 70
     8
 71
     3
 72
    11
 73
     7
 74
     0
 42
0.00000001
 43
0.00000001
 40
0.0
 40
0.0
 40
0.0
 40
0.0
 40
0.22222254410433
 40
0.4770368607656849
 40
0.7319491123673775
 40
1.0
 40
1.0
 40
1.0
 40
1.0
 10
300.2525949186924
 20
209.3617771119411
 30
0.0
 10
300.258143016191
 20
209.3530514241378
 30
0.0
 10
300.2700529105028
 20
209.3343203150395
 30
0.0
 10
300.2883634421913
 20
209.3094691001058
 30
0.0
 10
300.3078037654985
 20
209.2906052287103
 30
0.0
 10
300.3208882688429
 20
209.2880739989216
 30
0.0
 10
300.3275948844196
 20
209.2867765874202
 30
0.0
  0
ARC
  5
197
330
1F
100
AcDbEntity
  8
0
  6
Continuous
 62
     7
370
    15
100
AcDbCircle
 10
312.1861304189
 20
177.3094719254
 30
0.0
 40
0.0500000000000206
100
AcDbArc
 50
240.2735288541
 51
266.9581379443
  0
ARC
  5
198
330
1F
100
AcDbEntity
  8
0
  6
Continuous
 62
     7
370
    15
100
AcDbCircle
 10
312.1861304189
 20
214.0786487242
 30
0.0
 40
0.0500000000000104
100
AcDbArc
 50
93.2468540089
 51
119.7265643221
  0
ELLIPSE
  5
199
330
1F
100
AcDbEntity
  8
0
  6
Continuous
 62
     7
370
    15
100
AcDbEllipse
 10
312.1130133136
 20
177.3094719254
 30
0.0
 11
0.03537687128601874
 21
0.03537687128624611
 31
0.0
210
0.0
220
0.0
230
1.0
 40
0.9987823238
 41
3.173230327072996
 42
3.926381608043719
  0
ELLIPSE
  5
19A
330
1F
100
AcDbEntity
  8
0
  6
Continuous
 62
     7
370
    15
100
AcDbEllipse
 10
312.1364912177
 20
177.3094719254
 30
0.0
 11
0.03537687128618926
 21
-0.03537687128599032
 31
0.0
210
0.0
220
0.0
230
1.0
 40
0.9987823238
 41
4.74524507176555
 42
7.069192679522128
  0
ELLIPSE
  5
19B
330
1F
100
AcDbEntity
  8
0
  6
Continuous
 62
     7
370
    15
100
AcDbEllipse
 10
312.1364912177
 20
214.0786487242
 30
0.0
 11
0.03537687128601874
 21
0.03537687128624611
 31
0.0
210
0.0
220
0.0
230
1.0
 40
0.9987823238
 41
5.497177934829841
 42
7.821125542587712
  0
LINE
  5
19C
330
1F
100
AcDbEntity
  8
0
  6
Continuous
 62
     7
370
    15
100
AcDbLine
 10
312.1864917956
 20
177.3290604652
 30
0.0
 11
312.1864917956
 21
214.0590612144
 31
0.0
  0
ELLIPSE
  5
19D
330
1F
100
AcDbEntity
  8
0
  6
Continuous
 62
     7
370
    15
100
AcDbEllipse
 10
312.1130133136
 20
214.0786487242
 30
0.0
 11
0.03537687128624611
 21
-0.03537687128599032
 31
0.0
210
0.0
220
0.0
230
0.9999999999999999
 40
0.9987823238
 41
2.356803699143831
 42
3.109954980099767
  0
LINE
  5
19E
330
1F
100
AcDbEntity
  8
0
  6
Continuous
 62
     7
370
    15
100
AcDbLine
 10
311.6711306653
 20
177.6767917276
 30
0.0
 11
312.1023389778
 21
177.2729952187
 31
0.0
  0
LINE
  5
19F
330
1F
100
AcDbEntity
  8
0
  6
Continuous
 62
     7
370
    15
100
AcDbLine
 10
312.1023389778
 20
214.1151253433
 30
0.0
 11
311.6711306653
 21
213.7113277168
 31
0.0
  0
LINE
  5
1A0
330
1F
100
AcDbEntity
  8
0
  6
Continuous
 62
     7
370
    15
100
AcDbLine
 10
312.0787713013
 20
177.2729952187
 30
0.0
 11
311.6711306653
 21
177.6555963159
 31
0.0
  0
LINE
  5
1A1
330
1F
100
AcDbEntity
  8
0
  6
Continuous
 62
     7
370
    15
100
AcDbLine
 10
311.6711306653
 20
213.7325231284
 30
0.0
 11
312.0787713013
 21
214.1151253433
 31
0.0
  0
ARC
  5
1A2
330
1F
100
AcDbEntity
  8
0
  6
Continuous
 62
     7
370
    15
100
AcDbCircle
 10
278.2951069867
 20
177.0717315256
 30
0.0
 40
33.68228288757776
100
AcDbArc
 50
359.9316660382
 51
0.2080899479
  0
LINE
  5
1A3
330
1F
100
AcDbEntity
  8
0
  6
Continuous
 62
     7
370
    15
100
AcDbLine
 10
311.9771677337
 20
177.1940604151
 30
0.0
 11
311.9794520817
 21
177.1940604151
 31
0.0
  0
ARC
  5
1A4
330
1F
100
AcDbEntity
  8
0
  6
Continuous
 62
     7
370
    15
100
AcDbCircle
 10
293.9911188674
 20
177.0535628597
 30
0.0
 40
17.98616812246242
100
AcDbArc
 50
359.9299097107
 51
0.208645502
  0
ARC
  5
1A5
330
1F
100
AcDbEntity
  8
0
  6
Continuous
 62
     7
370
    15
100
AcDbCircle
 10
312.1273661744
 20
176.6440600622
 30
0.0
 40
0.1500002552250208
100
AcDbArc
 50
179.999935229
 51
252.07195458
  0
LINE
  5
1A6
330
1F
100
AcDbEntity
  8
0
  6
Continuous
 62
     7
370
    15
100
AcDbLine
 10
311.9773659191
 20
177.031560272
 30
0.0
 11
311.9773659191
 21
176.6440602318
 31
0.0
  0
ARC
  5
1A7
330
1F
100
AcDbEntity
  8
0
  6
Continuous
 62
     7
370
    15
100
AcDbCircle
 10
312.2923649439
 20
176.7190603838
 30
0.0
 40
0.1000000163920979
100
AcDbArc
 50
269.9997719393
 51
90.0002280607
  0
LINE
  5
1A8
330
1F
100
AcDbEntity
  8
0
  6
Continuous
 62
     7
370
    15
100
AcDbLine
 10
311.9772735319
 20
177.031560272
 30
0.0
 11
311.9772735319
 21
176.6440602318
 31
0.0
  0
ARC
  5
1A9
330
1F
100
AcDbEntity
  8
0
  6
Continuous
 62
     7
370
    15
100
AcDbCircle
 10
312.1272741156
 20
176.6440607833
 30
0.0
 40
0.1500005836972625
100
AcDbArc
 50
180.0002106521
 51
252.0724615302
  0
ARC
  5
1AA
330
1F
100
AcDbEntity
  8
0
  6
Continuous
 62
     7
370
    15
100
AcDbCircle
 10
312.2922735501
 20
176.7190603838
 30
0.0
 40
0.1000000163913544
100
AcDbArc
 50
270.0000565304
 51
89.9999434696
  0
LINE
  5
1AB
330
1F
100
AcDbEntity
  8
0
  6
Continuous
 62
     7
370
    15
100
AcDbLine
 10
311.9762379012
 20
177.1940604151
 30
0.0
 11
311.9762379012
 21
177.1190602631
 31
0.0
  0
LINE
  5
1AC
330
1F
100
AcDbEntity
  8
0
  6
Continuous
 62
     7
370
    15
100
AcDbLine
 10
311.9771677337
 20
177.1940604151
 30
0.0
 11
311.9762379012
 21
177.1940604151
 31
0.0
  0
LINE
  5
1AD
330
1F
100
AcDbEntity
  8
0
  6
Continuous
 62
     7
370
    15
100
AcDbLine
 10
311.9771677337
 20
177.1190602631
 30
0.0
 11
311.9762379012
 21
177.1190602631
 31
0.0
  0
LINE
  5
1AE
330
1F
100
AcDbEntity
  8
0
  6
Continuous
 62
     7
370
    15
100
AcDbLine
 10
311.9794520817
 20
177.1940604151
 30
0.0
 11
311.980380424
 21
177.1940604151
 31
0.0
  0
LINE
  5
1AF
330
1F
100
AcDbEntity
  8
0
  6
Continuous
 62
     7
370
    15
100
AcDbLine
 10
311.980380424
 20
177.1190602631
 30
0.0
 11
311.980380424
 21
177.1940604151
 31
0.0
  0
LINE
  5
1B0
330
1F
100
AcDbEntity
  8
0
  6
Continuous
 62
     7
370
    15
100
AcDbLine
 10
311.9794520817
 20
177.1190602631
 30
0.0
 11
311.980380424
 21
177.1190602631
 31
0.0
  0
LINE
  5
1B1
330
1F
100
AcDbEntity
  8
0
  6
Continuous
 62
     7
370
    15
100
AcDbLine
 10
313.5953801952
 20
177.1690603644
 30
0.0
 11
313.5953801952
 21
177.1940604151
 31
0.0
  0
LINE
  5
1B2
330
1F
100
AcDbEntity
  8
0
  6
Continuous
 62
     7
370
    15
100
AcDbLine
 10
311.980380424
 20
177.1190602631
 30
0.0
 11
312.1572333656
 21
177.1190602631
 31
0.0
  0
LINE
  5
1B3
330
1F
100
AcDbEntity
  8
0
  6
Continuous
 62
     7
370
    15
100
AcDbLine
 10
311.980380424
 20
177.1940604151
 30
0.0
 11
312.2979152284
 21
177.1940604151
 31
0.0
  0
LINE
  5
1B4
330
1F
100
AcDbEntity
  8
0
  6
Continuous
 62
     7
370
    15
100
AcDbLine
 10
313.5016787133
 20
177.1940604151
 30
0.0
 11
313.5953801952
 21
177.1940604151
 31
0.0
  0
ARC
  5
1B5
330
1F
100
AcDbEntity
  8
0
  6
Continuous
 62
     7
370
    15
100
AcDbCircle
 10
345.2338979399
 20
177.0722530454
 30
0.0
 40
33.25466894089962
100
AcDbArc
 50
179.7901328137
 51
180.0701112002
  0
ARC
  5
1B6
330
1F
100
AcDbEntity
  8
0
  6
Continuous
 62
     7
370
    15
100
AcDbCircle
 10
329.9688793825
 20
177.0532524148
 30
0.0
 40
17.98954766757548
100
AcDbArc
 50
179.7904049371
 51
180.0690883703
  0
LINE
  5
1B7
330
1F
100
AcDbEntity
  8
0
  6
Continuous
 62
     7
370
    15
100
AcDbLine
 10
311.9792538963
 20
177.031560272
 30
0.0
 11
311.9792538963
 21
176.6440602318
 31
0.0
  0
LINE
  5
1B8
330
1F
100
AcDbEntity
  8
0
  6
Continuous
 62
     7
370
    15
100
AcDbLine
 10
311.9793447933
 20
177.031560272
 30
0.0
 11
311.9793447933
 21
176.6440602318
 31
0.0
  0
LINE
  5
1B9
330
1F
100
AcDbEntity
  8
0
  6
Continuous
 62
     7
370
    15
100
AcDbLine
 10
313.382061132
 20
176.5883516819
 30
0.0
 11
313.4943443618
 21
176.8690605015
 31
0.0
  0
ARC
  5
1BA
330
1F
100
AcDbEntity
  8
0
  6
Continuous
 62
     7
370
    15
100
AcDbCircle
 10
313.2427870075
 20
176.6440633995
 30
0.0
 40
0.1500035906905899
100
AcDbArc
 50
288.3467727072
 51
338.19785716
  0
ARC
  5
1BB
330
1F
100
AcDbEntity
  8
0
  6
Continuous
 62
     7
370
    15
100
AcDbCircle
 10
312.129345377
 20
176.6440607833
 30
0.0
 40
0.1500005836972625
100
AcDbArc
 50
180.0002106521
 51
252.0724615302
  0
CIRCLE
  5
1BC
330
1F
100
AcDbEntity
  8
0
  6
Continuous
 62
     7
370
    15
100
AcDbCircle
 10
312.2943456913
 20
176.7190606146
 30
0.0
 40
0.1000002472045294
  0
ARC
  5
1BD
330
1F
100
AcDbEntity
  8
0
  6
Continuous
 62
     7
370
    15
100
AcDbCircle
 10
312.12925448
 20
176.6440607833
 30
0.0
 40
0.1500005836972966
100
AcDbArc
 50
180.0002106522
 51
252.0724615302
  0
ARC
  5
1BE
330
1F
100
AcDbEntity
  8
0
  6
Continuous
 62
     7
370
    15
100
AcDbCircle
 10
312.29425392
 20
176.7190603838
 30
0.0
 40
0.100000016391349
100
AcDbArc
 50
270.0000533216
 51
89.9999466784
  0
LINE
  5
1BF
330
1F
100
AcDbEntity
  8
0
  6
Continuous
 62
     7
370
    15
100
AcDbLine
 10
313.6636304937
 20
177.1690603644
 30
0.0
 11
313.6636304937
 21
177.1940604151
 31
0.0
  0
LINE
  5
1C0
330
1F
100
AcDbEntity
  8
0
  6
Continuous
 62
     7
370
    15
100
AcDbLine
 10
313.5953801952
 20
177.1940604151
 30
0.0
 11
313.6636304937
 21
177.1940604151
 31
0.0
  0
LINE
  5
1C1
330
1F
100
AcDbEntity
  8
0
  6
Continuous
 62
     7
370
    15
100
AcDbLine
 10
313.4513470612
 20
176.5883516819
 30
0.0
 11
313.563630291
 21
176.8690605015
 31
0.0
  0
LWPOLYLINE
  5
1C2
330
1F
100
AcDbEntity
  8
0
  6
Continuous
 62
     7
370
    15
100
AcDbPolyline
 90
        3
 70
   128
 43
0.0
 10
313.4298744879
 20
176.5511978716
 10
313.4415495477
 20
176.5683219135
 10
313.4513470612
 20
176.5883516819
  0
ARC
  5
1C3
330
1F
100
AcDbEntity
  8
0
  6
Continuous
 62
     7
370
    15
100
AcDbCircle
 10
312.3636304189
 20
176.7190603248
 30
0.0
 40
0.1000000000000178
100
AcDbArc
 50
110.2968418485
 51
229.9986625542
  0
LINE
  5
1C4
330
1F
100
AcDbEntity
  8
0
  6
Continuous
 62
     7
370
    15
100
AcDbLine
 10
312.1612536988
 20
176.8690605015
 30
0.0
 11
312.5116798363
 21
176.8690605015
 31
0.0
  0
LINE
  5
1C5
330
1F
100
AcDbEntity
  8
0
  6
Continuous
 62
     7
370
    15
100
AcDbLine
 10
312.1612536988
 20
177.1690603644
 30
0.0
 11
312.5116798363
 21
177.1690603644
 31
0.0
  0
LINE
  5
1C6
330
1F
100
AcDbEntity
  8
0
  6
Continuous
 62
     7
370
    15
100
AcDbLine
 10
312.5116798363
 20
176.8690605015
 30
0.0
 11
314.2116788111
 21
176.8690605015
 31
0.0
  0
LINE
  5
1C7
330
1F
100
AcDbEntity
  8
0
  6
Continuous
 62
     7
370
    15
100
AcDbLine
 10
312.5116798363
 20
177.1690603644
 30
0.0
 11
314.2116788111
 21
177.1690603644
 31
0.0
  0
LINE
  5
1C8
330
1F
100
AcDbEntity
  8
0
  6
Continuous
 62
     7
370
    15
100
AcDbLine
 10
314.5612526021
 20
176.8690605015
 30
0.0
 11
314.5612526021
 21
177.1690603644
 31
0.0
  0
LINE
  5
1C9
330
1F
100
AcDbEntity
  8
0
  6
Continuous
 62
     7
370
    15
100
AcDbLine
 10
314.2116788111
 20
176.8690605015
 30
0.0
 11
314.5612526021
 21
176.8690605015
 31
0.0
  0
LINE
  5
1CA
330
1F
100
AcDbEntity
  8
0
  6
Continuous
 62
     7
370
    15
100
AcDbLine
 10
314.2116788111
 20
177.1690603644
 30
0.0
 11
314.5612526021
 21
177.1690603644
 31
0.0
  0
LINE
  5
1CB
330
1F
100
AcDbEntity
  8
0
  6
Continuous
 62
     7
370
    15
100
AcDbLine
 10
312.1572333656
 20
176.8690605015
 30
0.0
 11
312.1572333656
 21
177.1690603644
 31
0.0
  0
LINE
  5
1CC
330
1F
100
AcDbEntity
  8
0
  6
Continuous
 62
     7
370
    15
100
AcDbLine
 10
312.1572333656
 20
176.8690605015
 30
0.0
 11
312.1612536988
 21
176.8690605015
 31
0.0
  0
LINE
  5
1CD
330
1F
100
AcDbEntity
  8
0
  6
Continuous
 62
     7
370
    15
100
AcDbLine
 10
312.1572333656
 20
177.1690603644
 30
0.0
 11
312.1612536988
 21
177.1690603644
 31
0.0
  0
LINE
  5
1CE
330
1F
100
AcDbEntity
  8
0
  6
Continuous
 62
     7
370
    15
100
AcDbLine
 10
312.1629420004
 20
214.2190609426
 30
0.0
 11
312.5133681379
 21
214.2190609426
 31
0.0
  0
LINE
  5
1CF
330
1F
100
AcDbEntity
  8
0
  6
Continuous
 62
     7
370
    15
100
AcDbLine
 10
312.1629420004
 20
214.5190600604
 30
0.0
 11
312.5133681379
 21
214.5190600604
 31
0.0
  0
LINE
  5
1D0
330
1F
100
AcDbEntity
  8
0
  6
Continuous
 62
     7
370
    15
100
AcDbLine
 10
312.5133681379
 20
214.2190609426
 30
0.0
 11
314.2133671127
 21
214.2190609426
 31
0.0
  0
LINE
  5
1D1
330
1F
100
AcDbEntity
  8
0
  6
Continuous
 62
     7
370
    15
100
AcDbLine
 10
312.5133681379
 20
214.5190600604
 30
0.0
 11
314.2133671127
 21
214.5190600604
 31
0.0
  0
LINE
  5
1D2
330
1F
100
AcDbEntity
  8
0
  6
Continuous
 62
     7
370
    15
100
AcDbLine
 10
314.5629394136
 20
214.2190609426
 30
0.0
 11
314.5629394136
 21
214.5190600604
 31
0.0
  0
LINE
  5
1D3
330
1F
100
AcDbEntity
  8
0
  6
Continuous
 62
     7
370
    15
100
AcDbLine
 10
314.2133671127
 20
214.2190609426
 30
0.0
 11
314.5629394136
 21
214.2190609426
 31
0.0
  0
LINE
  5
1D4
330
1F
100
AcDbEntity
  8
0
  6
Continuous
 62
     7
370
    15
100
AcDbLine
 10
314.2133671127
 20
214.5190600604
 30
0.0
 11
314.5629394136
 21
214.5190600604
 31
0.0
  0
LINE
  5
1D5
330
1F
100
AcDbEntity
  8
0
  6
Continuous
 62
     7
370
    15
100
AcDbLine
 10
312.1589216671
 20
214.2190609426
 30
0.0
 11
312.1589216671
 21
214.5190600604
 31
0.0
  0
LINE
  5
1D6
330
1F
100
AcDbEntity
  8
0
  6
Continuous
 62
     7
370
    15
100
AcDbLine
 10
312.1589216671
 20
214.2190609426
 30
0.0
 11
312.1629420004
 21
214.2190609426
 31
0.0
  0
LINE
  5
1D7
330
1F
100
AcDbEntity
  8
0
  6
Continuous
 62
     7
370
    15
100
AcDbLine
 10
312.1589216671
 20
214.5190600604
 30
0.0
 11
312.1629420004
 21
214.5190600604
 31
0.0
  0
LINE
  5
1D8
330
1F
100
AcDbEntity
  8
0
  6
Continuous
 62
     7
370
    15
100
AcDbLine
 10
314.6111297689
 20
176.8690605015
 30
0.0
 11
314.6111297689
 21
177.1690603644
 31
0.0
  0
LINE
  5
1D9
330
1F
100
AcDbEntity
  8
0
  6
Continuous
 62
     7
370
    15
100
AcDbLine
 10
314.5612526021
 20
176.8690605015
 30
0.0
 11
314.6111297689
 21
176.8690605015
 31
0.0
  0
LINE
  5
1DA
330
1F
100
AcDbEntity
  8
0
  6
Continuous
 62
     7
370
    15
100
AcDbLine
 10
314.5612526021
 20
177.1690603644
 30
0.0
 11
314.6111297689
 21
177.1690603644
 31
0.0
  0
LINE
  5
1DB
330
1F
100
AcDbEntity
  8
0
  6
Continuous
 62
     7
370
    15
100
AcDbLine
 10
314.6128180704
 20
214.2190609426
 30
0.0
 11
314.6128180704
 21
214.5190600604
 31
0.0
  0
LINE
  5
1DC
330
1F
100
AcDbEntity
  8
0
  6
Continuous
 62
     7
370
    15
100
AcDbLine
 10
314.5629394136
 20
214.5190600604
 30
0.0
 11
314.6128180704
 21
214.5190600604
 31
0.0
  0
LINE
  5
1DD
330
1F
100
AcDbEntity
  8
0
  6
Continuous
 62
     7
370
    15
100
AcDbLine
 10
314.5629394136
 20
214.2190609426
 30
0.0
 11
314.6128180704
 21
214.2190609426
 31
0.0
  0
LINE
  5
1DE
330
1F
100
AcDbEntity
  8
0
  6
Continuous
 62
     7
370
    15
100
AcDbLine
 10
313.5511297069
 20
177.2544138432
 30
0.0
 11
313.5017532192
 21
177.2544138432
 31
0.0
  0
SPLINE
  5
1DF
330
1F
100
AcDbEntity
  8
0
  6
Continuous
 62
     7
370
    15
100
AcDbSpline
210
0.0
220
0.0
230
1.0
 70
     8
 71
     3
 72
    10
 73
     6
 74
     0
 42
0.00000001
 43
0.00000001
 40
0.0
 40
0.0
 40
0.0
 40
0.0
 40
0.2566189359303226
 40
0.5705233456650214
 40
1.0
 40
1.0
 40
1.0
 40
1.0
 10
313.6192533455135
 20
177.2669591308171
 30
0.0
 10
313.6299482826664
 20
177.2701977947995
 30
0.0
 10
313.653725605661
 20
177.277398095136
 30
0.0
 10
313.6794745684043
 20
177.3001005488583
 30
0.0
 10
313.6836927621939
 20
177.3184559325088
 30
0.0
 10
313.6861297569515
 20
177.3290604651506
 30
0.0
  0
LINE
  5
1E0
330
1F
100
AcDbEntity
  8
0
  6
Continuous
 62
     7
370
    15
100
AcDbLine
 10
313.686129757
 20
214.0590612144
 30
0.0
 11
313.686129757
 21
177.3290604652
 31
0.0
  0
SPLINE
  5
1E1
330
1F
100
AcDbEntity
  8
0
  6
Continuous
 62
     7
370
    15
100
AcDbSpline
210
0.0
220
0.0
230
1.0
 70
     8
 71
     3
 72
    10
 73
     6
 74
     0
 42
0.00000001
 43
0.00000001
 40
0.0
 40
0.0
 40
0.0
 40
0.0
 40
0.3859670877674983
 40
0.768497829022114
 40
1.0
 40
1.0
 40
1.0
 40
1.0
 10
313.6861297569515
 20
214.059061214381
 30
0.0
 10
313.6841347076699
 20
214.0684221792961
 30
0.0
 10
313.6801623714517
 20
214.0870607664785
 30
0.0
 10
313.6548345018958
 20
214.1104061035372
 30
0.0
 10
313.6295990711399
 20
214.1187547802942
 30
0.0
 10
313.6200848303082
 20
214.1219023913676
 30
0.0
  0
SPLINE
  5
1E2
330
1F
100
AcDbEntity
  8
0
  6
Continuous
 62
     7
370
    15
100
AcDbSpline
210
0.0
220
0.0
230
1.0
 70
     8
 71
     3
 72
    12
 73
     8
 74
     0
 42
0.00000001
 43
0.00000001
 40
0.0
 40
0.0
 40
0.0
 40
0.0
 40
0.2614598989091647
 40
0.5198327935684041
 40
0.7502589748528392
 40
0.948393049298638
 40
1.0
 40
1.0
 40
1.0
 40
1.0
 10
313.6861297569515
 20
177.3290604651506
 30
0.0
 10
313.6842082934131
 20
177.3117773570705
 30
0.0
 10
313.6803880526686
 20
177.2774151990789
 30
0.0
 10
313.6509978377773
 20
177.2334087426954
 30
0.0
 10
313.609078235039
 20
177.2039907174589
 30
0.0
 10
313.5736769855342
 20
177.1946655413159
 30
0.0
 10
313.5549910113921
 20
177.1941640451787
 30
0.0
 10
313.5511297068837
 20
177.1940604150826
 30
0.0
  0
LINE
  5
1E3
330
1F
100
AcDbEntity
  8
0
  6
Continuous
 62
     7
370
    15
100
AcDbLine
 10
313.5511297069
 20
214.1940597743
 30
0.0
 11
313.5016787133
 21
214.1940597743
 31
0.0
  0
SPLINE
  5
1E4
330
1F
100
AcDbEntity
  8
0
  6
Continuous
 62
     7
370
    15
100
AcDbSpline
210
0.0
220
0.0
230
1.0
 70
     8
 71
     3
 72
    13
 73
     9
 74
     0
 42
0.00000001
 43
0.00000001
 40
0.0
 40
0.0
 40
0.0
 40
0.0
 40
0.1331067494541446
 40
0.2604655202086657
 40
0.3828257672747262
 40
0.5010527165426734
 40
0.706710078601353
 40
0.9999999999999999
 40
0.9999999999999999
 40
0.9999999999999999
 40
0.9999999999999999
 10
313.5511297068837
 20
214.1940597743327
 30
0.0
 10
313.5611681672164
 20
214.1934104153755
 30
0.0
 10
313.5808115947913
 20
214.192139738875
 30
0.0
 10
313.6079714534606
 20
214.1824840264541
 30
0.0
 10
313.6313336991131
 20
214.1687379427869
 30
0.0
 10
313.6550609182781
 20
214.1473953262932
 30
0.0
 10
313.6796225863008
 20
214.1119063430694
 30
0.0
 10
313.683720771919
 20
214.0786247283694
 30
0.0
 10
313.6861297569515
 20
214.059061214381
 30
0.0
  0
SPLINE
  5
1E5
330
1F
100
AcDbEntity
  8
0
  6
Continuous
 62
     7
370
    15
100
AcDbSpline
210
0.0
220
0.0
230
1.0
 70
     8
 71
     3
 72
    12
 73
     8
 74
     0
 42
0.00000001
 43
0.00000001
 40
0.0
 40
0.0
 40
0.0
 40
0.0
 40
0.3019097181860465
 40
0.4982003628246194
 40
0.7084472000759465
 40
0.8440355541440311
 40
1.0
 40
1.0
 40
1.0
 40
1.0
 10
312.1865886531116
 20
177.3294139951999
 30
0.0
 10
312.1891558763705
 20
177.3183612568705
 30
0.0
 10
312.1933922141959
 20
177.3001224327645
 30
0.0
 10
312.2214664605099
 20
177.2765298087699
 30
0.0
 10
312.2533489130705
 20
177.266331122886
 30
0.0
 10
312.2882852427291
 20
177.2592676367296
 30
0.0
 10
312.3100898567613
 20
177.2561054410716
 30
0.0
 10
312.3217541060689
 20
177.254413843208
 30
0.0
  0
SPLINE
  5
1E6
330
1F
100
AcDbEntity
  8
0
  6
Continuous
 62
     7
370
    15
100
AcDbSpline
210
0.0
220
0.0
230
1.0
 70
     8
 71
     3
 72
    12
 73
     8
 74
     0
 42
0.00000001
 43
0.00000001
 40
0.0
 40
0.0
 40
0.0
 40
0.0
 40
0.1422913428343992
 40
0.272650174030525
 40
0.4990861541477658
 40
0.7083008873877011
 40
1.0
 40
1.0
 40
1.0
 40
1.0
 10
312.3217541060689
 20
214.1337070912654
 30
0.0
 10
312.3110473832715
 20
214.1326461561234
 30
0.0
 10
312.2905318004129
 20
214.1306132555595
 30
0.0
 10
312.2553162936485
 20
214.124167436566
 30
0.0
 10
312.2218461012296
 20
214.1119206378958
 30
0.0
 10
312.1932061771088
 20
214.0874408386808
 30
0.0
 10
312.1890240484166
 20
214.0692814148288
 30
0.0
 10
312.1865886531116
 20
214.0587065667445
 30
0.0
  0
LINE
  5
1E7
330
1F
100
AcDbEntity
  8
0
  6
Continuous
 62
     7
370
    15
100
AcDbLine
 10
313.5017532192
 20
214.1337070913
 30
0.0
 11
312.3217541061
 21
214.1337070913
 31
0.0
  0
LINE
  5
1E8
330
1F
100
AcDbEntity
  8
0
  6
Continuous
 62
     7
370
    15
100
AcDbLine
 10
313.5017532192
 20
177.2544138432
 30
0.0
 11
312.3217541061
 21
177.2544138432
 31
0.0
  0
SPLINE
  5
1E9
330
1F
100
AcDbEntity
  8
0
  6
Continuous
 62
     7
370
    15
100
AcDbSpline
210
0.0
220
0.0
230
1.0
 70
     8
 71
     3
 72
    12
 73
     8
 74
     0
 42
0.00000001
 43
0.00000001
 40
0.0
 40
0.0
 40
0.0
 40
0.0
 40
0.1453803849869806
 40
0.2766911285163365
 40
0.4978646235320832
 40
0.7099016978929186
 40
1.0
 40
1.0
 40
1.0
 40
1.0
 10
313.5017532191517
 20
177.254413843208
 30
0.0
 10
313.5126567842391
 20
177.255711380659
 30
0.0
 10
313.5334086878
 20
177.2581808823159
 30
0.0
 10
313.5683616474018
 20
177.2648165315487
 30
0.0
 10
313.6017633069696
 20
177.2762380747267
 30
0.0
 10
313.6302481906175
 20
177.2999419750149
 30
0.0
 10
313.6342664184925
 20
177.3183979235587
 30
0.0
 10
313.6365878663304
 20
177.3290604651506
 30
0.0
  0
SPLINE
  5
1EA
330
1F
100
AcDbEntity
  8
0
  6
Continuous
 62
     7
370
    15
100
AcDbSpline
210
0.0
220
0.0
230
1.0
 70
     8
 71
     3
 72
    12
 73
     8
 74
     0
 42
0.00000001
 43
0.00000001
 40
0.0
 40
0.0
 40
0.0
 40
0.0
 40
0.2597276755024994
 40
0.5171395280494082
 40
0.7152405493613765
 40
0.9135207753242558
 40
1.0
 40
1.0
 40
1.0
 40
1.0
 10
313.6365878663304
 20
214.059061214381
 30
0.0
 10
313.634691248775
 20
214.0684733639644
 30
0.0
 10
313.630914924571
 20
214.0872137411079
 30
0.0
 10
313.6029815099337
 20
214.1113260419639
 30
0.0
 10
313.5646782084423
 20
214.1256503054673
 30
0.0
 10
313.5296647146582
 20
214.1316034528575
 30
0.0
 10
313.5082551400221
 20
214.1332170533717
 30
0.0
 10
313.5017532191517
 20
214.1337070912654
 30
0.0
  0
LINE
  5
1EB
330
1F
100
AcDbEntity
  8
0
  6
Continuous
 62
     7
370
    15
100
AcDbLine
 10
313.6365878663
 20
214.0590612144
 30
0.0
 11
313.6365878663
 21
177.3290604652
 31
0.0
  0
SPLINE
  5
1EC
330
1F
100
AcDbEntity
  8
0
  6
Continuous
 62
     7
370
    15
100
AcDbSpline
210
0.0
220
0.0
230
1.0
 70
     8
 71
     3
 72
    12
 73
     8
 74
     0
 42
0.00000001
 43
0.00000001
 40
0.0
 40
0.0
 40
0.0
 40
0.0
 40
0.2614619861260254
 40
0.5198298964934511
 40
0.7502578615723343
 40
0.9483926263409885
 40
1.0
 40
1.0
 40
1.0
 40
1.0
 10
313.6365878663304
 20
177.3290604651506
 30
0.0
 10
313.6346772514351
 20
177.3117774924272
 30
0.0
 10
313.6308786313836
 20
177.2774160693577
 30
0.0
 10
313.6015214982093
 20
177.2334080256067
 30
0.0
 10
313.5596168705503
 20
177.2039908627432
 30
0.0
 10
313.5242231534314
 20
177.1946655297732
 30
0.0
 10
313.5055395436997
 20
177.194164043523
 30
0.0
 10
313.5016787133457
 20
177.1940604150826
 30
0.0
  0
LINE
  5
1ED
330
1F
100
AcDbEntity
  8
0
  6
Continuous
 62
     7
370
    15
100
AcDbLine
 10
313.5016787133
 20
177.1940604151
 30
0.0
 11
313.5016787133
 21
177.2540603132
 31
0.0
  0
LINE
  5
1EE
330
1F
100
AcDbEntity
  8
0
  6
Continuous
 62
     7
370
    15
100
AcDbLine
 10
312.3216796003
 20
177.1940604151
 30
0.0
 11
312.3216796003
 21
177.2540603132
 31
0.0
  0
SPLINE
  5
1EF
330
1F
100
AcDbEntity
  8
0
  6
Continuous
 62
     7
370
    15
100
AcDbSpline
210
0.0
220
0.0
230
1.0
 70
     8
 71
     3
 72
    13
 73
     9
 74
     0
 42
0.00000001
 43
0.00000001
 40
0.0
 40
0.0
 40
0.0
 40
0.0
 40
0.1539008545501577
 40
0.2884014900301289
 40
0.4993708196996937
 40
0.6907253677255208
 40
0.8306523335195535
 40
1.0
 40
1.0
 40
1.0
 40
1.0
 10
312.3216796002629
 20
177.1940604150826
 30
0.0
 10
312.3101498215763
 20
177.1949188548282
 30
0.0
 10
312.2885436689485
 20
177.1965275223201
 30
0.0
 10
312.2537373711039
 20
177.2103599731135
 30
0.0
 10
312.2217501238541
 20
177.2348046370399
 30
0.0
 10
312.200920488994
 20
177.2658060354446
 30
0.0
 10
312.1888560716284
 20
177.2973870176488
 30
0.0
 10
312.1873909183545
 20
177.3178536650542
 30
0.0
 10
312.1865886531116
 20
177.3290604651506
 30
0.0
  0
SPLINE
  5
1F0
330
1F
100
AcDbEntity
  8
0
  6
Continuous
 62
     7
370
    15
100
AcDbSpline
210
0.0
220
0.0
230
1.0
 70
     8
 71
     3
 72
     9
 73
     5
 74
     0
 42
0.00000001
 43
0.00000001
 40
0.0
 40
0.0
 40
0.0
 40
0.0
 40
0.8100425675995767
 40
1.0
 40
1.0
 40
1.0
 40
1.0
 10
312.3216796002629
 20
177.2540603131587
 30
0.0
 10
312.3151560265395
 20
177.2542945958125
 30
0.0
 10
312.3071026550448
 20
177.2545838184573
 30
0.0
 10
312.299947866196
 20
177.2575205561272
 30
0.0
 10
312.2985887608768
 20
177.2580784112747
 30
0.0
  0
SPLINE
  5
1F1
330
1F
100
AcDbEntity
  8
0
  6
Continuous
 62
     7
370
    15
100
AcDbSpline
210
0.0
220
0.0
230
1.0
 70
     8
 71
     3
 72
    12
 73
     8
 74
     0
 42
0.00000001
 43
0.00000001
 40
0.0
 40
0.0
 40
0.0
 40
0.0
 40
0.044362392821637
 40
0.3266493935453287
 40
0.6321423274509635
 40
0.8080211322417595
 40
1.0
 40
1.0
 40
1.0
 40
1.0
 10
312.1740999899151
 20
177.2787094414766
 30
0.0
 10
312.174519105704
 20
177.2765624634178
 30
0.0
 10
312.1776051411848
 20
177.2607538237964
 30
0.0
 10
312.1990881872566
 20
177.2348020035625
 30
0.0
 10
312.2313943795021
 20
177.2092987566926
 30
0.0
 10
312.2667614463692
 20
177.1962337089504
 30
0.0
 10
312.287252550617
 20
177.1948056799341
 30
0.0
 10
312.2979465208294
 20
177.1940604150826
 30
0.0
  0
LINE
  5
1F2
330
1F
100
AcDbEntity
  8
0
  6
Continuous
 62
     7
370
    15
100
AcDbLine
 10
312.3216796003
 20
177.1940604151
 30
0.0
 11
312.3028802953
 21
177.1940604151
 31
0.0
  0
SPLINE
  5
1F3
330
1F
100
AcDbEntity
  8
0
  6
Continuous
 62
     7
370
    15
100
AcDbSpline
210
0.0
220
0.0
230
1.0
 70
     8
 71
     3
 72
    12
 73
     8
 74
     0
 42
0.00000001
 43
0.00000001
 40
0.0
 40
0.0
 40
0.0
 40
0.0
 40
0.2916903720413133
 40
0.5009244782625794
 40
0.7273543858735257
 40
0.8577117630949563
 40
1.0
 40
1.0
 40
1.0
 40
1.0
 10
312.1865886531116
 20
214.059061214381
 30
0.0
 10
312.1890126677125
 20
214.078502709496
 30
0.0
 10
312.1931754662331
 20
214.1118898958094
 30
0.0
 10
312.2217950266694
 20
214.1536119695182
 30
0.0
 10
312.2552505305504
 20
214.1787775316627
 30
0.0
 10
312.2904574363204
 20
214.1918957098918
 30
0.0
 10
312.3109729619669
 20
214.1933176779405
 30
0.0
 10
312.3216796002629
 20
214.1940597743327
 30
0.0
  0
LINE
  5
1F4
330
1F
100
AcDbEntity
  8
0
  6
Continuous
 62
     7
370
    15
100
AcDbLine
 10
312.3216796003
 20
214.1940597743
 30
0.0
 11
312.3216796003
 21
214.1340617389
 31
0.0
  0
SPLINE
  5
1F5
330
1F
100
AcDbEntity
  8
0
  6
Continuous
 62
     7
370
    15
100
AcDbSpline
210
0.0
220
0.0
230
1.0
 70
     8
 71
     3
 72
     9
 73
     5
 74
     0
 42
0.00000001
 43
0.00000001
 40
0.0
 40
0.0
 40
0.0
 40
0.0
 40
0.2721580706551674
 40
1.0
 40
1.0
 40
1.0
 40
1.0
 10
312.2979450307133
 20
214.1297672242458
 30
0.0
 10
312.2999490933025
 20
214.1305598741413
 30
0.0
 10
312.3073126911723
 20
214.1334723356151
 30
0.0
 10
312.3156276352922
 20
214.1338134566845
 30
0.0
 10
312.3216796002629
 20
214.1340617389018
 30
0.0
  0
LINE
  5
1F6
330
1F
100
AcDbEntity
  8
0
  6
Continuous
 62
     7
370
    15
100
AcDbLine
 10
312.1865886531
 20
214.0590612144
 30
0.0
 11
312.2465881787
 21
214.0590612144
 31
0.0
  0
SPLINE
  5
1F7
330
1F
100
AcDbEntity
  8
0
  6
Continuous
 62
     7
370
    15
100
AcDbSpline
210
0.0
220
0.0
230
1.0
 70
     8
 71
     3
 72
    12
 73
     8
 74
     0
 42
0.00000001
 43
0.00000001
 40
0.0
 40
0.0
 40
0.0
 40
0.0
 40
0.2105213788339972
 40
0.3945046526243456
 40
0.6830779858025887
 40
0.9448176003094461
 40
0.9999999999999999
 40
0.9999999999999999
 40
0.9999999999999999
 40
0.9999999999999999
 10
312.2979465208294
 20
214.1940597743327
 30
0.0
 10
312.2864268805261
 20
214.1931991300289
 30
0.0
 10
312.2648397537391
 20
214.1915863333429
 30
0.0
 10
312.2299545417747
 20
214.177782682931
 30
0.0
 10
312.1985337345973
 20
214.1531829202649
 30
0.0
 10
312.1800736241905
 20
214.1283026841427
 30
0.0
 10
312.1749845997485
 20
214.1136782378167
 30
0.0
 10
312.174098499799
 20
214.1111318320567
 30
0.0
  0
LINE
  5
1F8
330
1F
100
AcDbEntity
  8
0
  6
Continuous
 62
     7
370
    15
100
AcDbLine
 10
312.2979465208
 20
214.1940597743
 30
0.0
 11
312.3216796003
 21
214.1940597743
 31
0.0
  0
LINE
  5
1F9
330
1F
100
AcDbEntity
  8
0
  6
Continuous
 62
     7
370
    15
100
AcDbLine
 10
313.5016787133
 20
177.1940604151
 30
0.0
 11
312.3216796003
 21
177.1940604151
 31
0.0
  0
LINE
  5
1FA
330
1F
100
AcDbEntity
  8
0
  6
Continuous
 62
     7
370
    15
100
AcDbLine
 10
313.5016787133
 20
177.2540603132
 30
0.0
 11
312.3216796003
 21
177.2540603132
 31
0.0
  0
LINE
  5
1FB
330
1F
100
AcDbEntity
  8
0
  6
Continuous
 62
     7
370
    15
100
AcDbLine
 10
313.5016787133
 20
214.1940597743
 30
0.0
 11
313.5016787133
 21
214.1340617389
 31
0.0
  0
LINE
  5
1FC
330
1F
100
AcDbEntity
  8
0
  6
Continuous
 62
     7
370
    15
100
AcDbLine
 10
313.5016787133
 20
214.1940597743
 30
0.0
 11
312.3216796003
 21
214.1940597743
 31
0.0
  0
LINE
  5
1FD
330
1F
100
AcDbEntity
  8
0
  6
Continuous
 62
     7
370
    15
100
AcDbLine
 10
313.5016787133
 20
214.1340617389
 30
0.0
 11
312.3216796003
 21
214.1340617389
 31
0.0
  0
SPLINE
  5
1FE
330
1F
100
AcDbEntity
  8
0
  6
Continuous
 62
     7
370
    15
100
AcDbSpline
210
0.0
220
0.0
230
1.0
 70
     8
 71
     3
 72
    13
 73
     9
 74
     0
 42
0.00000001
 43
0.00000001
 40
0.0
 40
0.0
 40
0.0
 40
0.0
 40
0.1331028534238173
 40
0.260462577130565
 40
0.3828267766142161
 40
0.5010542537238305
 40
0.7067080922767027
 40
1.0
 40
1.0
 40
1.0
 40
1.0
 10
313.5016787133457
 20
214.1940597743327
 30
0.0
 10
313.5117158913035
 20
214.1934103918049
 30
0.0
 10
313.5313571624764
 20
214.1921396463447
 30
0.0
 10
313.5585106610022
 20
214.1824838160585
 30
0.0
 10
313.5818651583158
 20
214.1687381898248
 30
0.0
 10
313.60557952213
 20
214.1473956360624
 30
0.0
 10
313.6301141042539
 20
214.1119056144864
 30
0.0
 10
313.6341912344359
 20
214.0786245800468
 30
0.0
 10
313.6365878663304
 20
214.059061214381
 30
0.0
  0
LINE
  5
1FF
330
1F
100
AcDbEntity
  8
0
  6
Continuous
 62
     7
370
    15
100
AcDbLine
 10
312.1865886531
 20
214.0587065667
 30
0.0
 11
312.1864917956
 21
213.9782939405
 31
0.0
  0
LINE
  5
200
330
1F
100
AcDbEntity
  8
0
  6
Continuous
 62
     7
370
    15
100
AcDbLine
 10
312.1865886531
 20
177.3294139952
 30
0.0
 11
312.1864917956
 21
177.4098255039
 31
0.0
  0
LINE
  5
201
330
1F
100
AcDbEntity
  8
0
  6
Continuous
 62
     7
370
    15
100
AcDbLine
 10
312.1865886531
 20
214.0590612144
 30
0.0
 11
312.1865886531
 21
214.0587065667
 31
0.0
  0
LINE
  5
202
330
1F
100
AcDbEntity
  8
0
  6
Continuous
 62
     7
370
    15
100
AcDbLine
 10
312.1865886531
 20
177.3290604652
 30
0.0
 11
312.1865886531
 21
177.3294139952
 31
0.0
  0
LINE
  5
203
330
1F
100
AcDbEntity
  8
0
  6
Continuous
 62
     7
370
    15
100
AcDbLine
 10
311.9711297832
 20
214.986777708
 30
0.0
 11
311.9711297832
 21
215.2867768258
 31
0.0
  0
LINE
  5
204
330
1F
100
AcDbEntity
  8
0
  6
Continuous
 62
     7
370
    15
100
AcDbLine
 10
311.9711297832
 20
214.986777708
 30
0.0
 11
312.3211297474
 21
214.986777708
 31
0.0
  0
LINE
  5
205
330
1F
100
AcDbEntity
  8
0
  6
Continuous
 62
     7
370
    15
100
AcDbLine
 10
312.3211297474
 20
214.986777708
 30
0.0
 11
314.2100784264
 21
214.986777708
 31
0.0
  0
LINE
  5
206
330
1F
100
AcDbEntity
  8
0
  6
Continuous
 62
     7
370
    15
100
AcDbLine
 10
313.821129807
 20
215.2867768258
 30
0.0
 11
314.2100784264
 21
215.2867768258
 31
0.0
  0
LINE
  5
207
330
1F
100
AcDbEntity
  8
0
  6
Continuous
 62
     7
370
    15
100
AcDbLine
 10
314.2100784264
 20
214.986777708
 30
0.0
 11
314.5600783906
 21
214.986777708
 31
0.0
  0
LINE
  5
208
330
1F
100
AcDbEntity
  8
0
  6
Continuous
 62
     7
370
    15
100
AcDbLine
 10
314.2100784264
 20
215.2867768258
 30
0.0
 11
314.5600783906
 21
215.2867768258
 31
0.0
  0
LINE
  5
209
330
1F
100
AcDbEntity
  8
0
  6
Continuous
 62
     7
370
    15
100
AcDbLine
 10
313.8789194904
 20
213.9867786617
 30
0.0
 11
313.8788658462
 21
213.9867786617
 31
0.0
  0
LINE
  5
20A
330
1F
100
AcDbEntity
  8
0
  6
Continuous
 62
     7
370
    15
100
AcDbLine
 10
314.2633947811
 20
213.9867786617
 30
0.0
 11
313.8789194904
 21
213.9867786617
 31
0.0
  0
LINE
  5
20B
330
1F
100
AcDbEntity
  8
0
  6
Continuous
 62
     7
370
    15
100
AcDbLine
 10
313.821129807
 20
214.0867773742
 30
0.0
 11
314.3211308203
 21
214.0867773742
 31
0.0
  0
LINE
  5
20C
330
1F
100
AcDbEntity
  8
0
  6
Continuous
 62
     7
370
    15
100
AcDbLine
 10
314.3211308203
 20
177.4013433904
 30
0.0
 11
313.821129807
 21
177.4013433904
 31
0.0
  0
LINE
  5
20D
330
1F
100
AcDbEntity
  8
0
  6
Continuous
 62
     7
370
    15
100
AcDbLine
 10
313.8788658462
 20
177.5013432205
 30
0.0
 11
314.2633947811
 21
177.5013432205
 31
0.0
  0
LINE
  5
20E
330
1F
100
AcDbEntity
  8
0
  6
Continuous
 62
     7
370
    15
100
AcDbLine
 10
314.3711301766
 20
177.4511978329
 30
0.0
 11
314.2923462472
 21
177.4511978329
 31
0.0
  0
LINE
  5
20F
330
1F
100
AcDbEntity
  8
0
  6
Continuous
 62
     7
370
    15
100
AcDbLine
 10
313.9288652025
 20
177.5511980355
 30
0.0
 11
314.3133956275
 21
177.5511980355
 31
0.0
  0
LINE
  5
210
330
1F
100
AcDbEntity
  8
0
  6
Continuous
 62
     7
370
    15
100
AcDbLine
 10
311.771130868
 20
176.5511978716
 30
0.0
 11
311.771130868
 21
176.5013432429
 31
0.0
  0
LINE
  5
211
330
1F
100
AcDbEntity
  8
0
  6
Continuous
 62
     7
370
    15
100
AcDbLine
 10
312.0114553056
 20
176.5511978716
 30
0.0
 11
311.771130868
 21
176.5511978716
 31
0.0
  0
LINE
  5
212
330
1F
100
AcDbEntity
  8
0
  6
Continuous
 62
     7
370
    15
100
AcDbLine
 10
313.6211308918
 20
176.5511978716
 30
0.0
 11
313.3605885587
 21
176.5511978716
 31
0.0
  0
LINE
  5
213
330
1F
100
AcDbEntity
  8
0
  6
Continuous
 62
     7
370
    15
100
AcDbLine
 10
314.6101358614
 20
176.5511978716
 30
0.0
 11
314.5211297355
 21
176.5511978716
 31
0.0
  0
LINE
  5
214
330
1F
100
AcDbEntity
  8
0
  6
Continuous
 62
     7
370
    15
100
AcDbLine
 10
314.6101358614
 20
176.2511978224
 30
0.0
 11
314.5601365052
 21
176.2511978224
 31
0.0
  0
LINE
  5
215
330
1F
100
AcDbEntity
  8
0
  6
Continuous
 62
     7
370
    15
100
AcDbLine
 10
311.7211300216
 20
176.5013432429
 30
0.0
 11
311.7211300216
 21
176.2013431937
 31
0.0
  0
LINE
  5
216
330
1F
100
AcDbEntity
  8
0
  6
Continuous
 62
     7
370
    15
100
AcDbLine
 10
312.0711299858
 20
176.5013432429
 30
0.0
 11
311.7211300216
 21
176.5013432429
 31
0.0
  0
LINE
  5
217
330
1F
100
AcDbEntity
  8
0
  6
Continuous
 62
     7
370
    15
100
AcDbLine
 10
314.2101365409
 20
176.2013431937
 30
0.0
 11
313.2361310802
 21
176.2013431937
 31
0.0
  0
LINE
  5
218
330
1F
100
AcDbEntity
  8
0
  6
Continuous
 62
     7
370
    15
100
AcDbLine
 10
314.2101365409
 20
176.5013432429
 30
0.0
 11
312.0711299858
 21
176.5013432429
 31
0.0
  0
LINE
  5
219
330
1F
100
AcDbEntity
  8
0
  6
Continuous
 62
     7
370
    15
100
AcDbLine
 10
314.5601365052
 20
176.2013431937
 30
0.0
 11
314.2101365409
 21
176.2013431937
 31
0.0
  0
LINE
  5
21A
330
1F
100
AcDbEntity
  8
0
  6
Continuous
 62
     7
370
    15
100
AcDbLine
 10
314.5601365052
 20
176.5013432429
 30
0.0
 11
314.2101365409
 21
176.5013432429
 31
0.0
  0
LINE
  5
21B
330
1F
100
AcDbEntity
  8
0
  6
Continuous
 62
     7
370
    15
100
AcDbLine
 10
314.4978183589
 20
214.6190617532
 30
0.0
 11
313.6478188715
 21
214.6190617532
 31
0.0
  0
LINE
  5
21C
330
1F
100
AcDbEntity
  8
0
  6
Continuous
 62
     7
370
    15
100
AcDbLine
 10
314.4728186808
 20
214.6440599412
 30
0.0
 11
313.6728185497
 21
214.6440599412
 31
0.0
  0
LINE
  5
21D
330
1F
100
AcDbEntity
  8
0
  6
Continuous
 62
     7
370
    15
100
AcDbLine
 10
314.4978183589
 20
214.5440612287
 30
0.0
 11
313.6478188715
 21
214.5440612287
 31
0.0
  0
LINE
  5
21E
330
1F
100
AcDbEntity
  8
0
  6
Continuous
 62
     7
370
    15
100
AcDbLine
 10
314.3978181563
 20
214.1690615863
 30
0.0
 11
313.7478190742
 21
214.1690615863
 31
0.0
  0
LINE
  5
21F
330
1F
100
AcDbEntity
  8
0
  6
Continuous
 62
     7
370
    15
100
AcDbLine
 10
314.3728184781
 20
214.1440604181
 30
0.0
 11
313.7728187523
 21
214.1440604181
 31
0.0
  0
LINE
  5
220
330
1F
100
AcDbEntity
  8
0
  6
Continuous
 62
     7
370
    15
100
AcDbLine
 10
314.5478192053
 20
214.5440612287
 30
0.0
 11
314.4978183589
 21
214.5440612287
 31
0.0
  0
LINE
  5
221
330
1F
100
AcDbEntity
  8
0
  6
Continuous
 62
     7
370
    15
100
AcDbLine
 10
314.5478192053
 20
214.6190617532
 30
0.0
 11
314.4978183589
 21
214.6190617532
 31
0.0
  0
LINE
  5
222
330
1F
100
AcDbEntity
  8
0
  6
Continuous
 62
     7
370
    15
100
AcDbLine
 10
314.5228180371
 20
214.6440599412
 30
0.0
 11
314.4728186808
 21
214.6440599412
 31
0.0
  0
LINE
  5
223
330
1F
100
AcDbEntity
  8
0
  6
Continuous
 62
     7
370
    15
100
AcDbLine
 10
314.4228193245
 20
214.1440604181
 30
0.0
 11
314.3728184781
 21
214.1440604181
 31
0.0
  0
LINE
  5
224
330
1F
100
AcDbEntity
  8
0
  6
Continuous
 62
     7
370
    15
100
AcDbLine
 10
314.4478190027
 20
214.1690615863
 30
0.0
 11
314.3978181563
 21
214.1690615863
 31
0.0
  0
LINE
  5
225
330
1F
100
AcDbEntity
  8
0
  6
Continuous
 62
     7
370
    15
100
AcDbLine
 10
314.4961300574
 20
176.8440604508
 30
0.0
 11
314.5461309037
 21
176.8440604508
 31
0.0
  0
LINE
  5
226
330
1F
100
AcDbEntity
  8
0
  6
Continuous
 62
     7
370
    15
100
AcDbLine
 10
314.4961300574
 20
176.7690602989
 30
0.0
 11
314.5461309037
 21
176.7690602989
 31
0.0
  0
LINE
  5
227
330
1F
100
AcDbEntity
  8
0
  6
Continuous
 62
     7
370
    15
100
AcDbLine
 10
314.3961298547
 20
177.2190604657
 30
0.0
 11
314.4461307011
 21
177.2190604657
 31
0.0
  0
LINE
  5
228
330
1F
100
AcDbEntity
  8
0
  6
Continuous
 62
     7
370
    15
100
AcDbLine
 10
314.3711301766
 20
177.2440601439
 30
0.0
 11
314.421131023
 21
177.2440601439
 31
0.0
  0
LINE
  5
229
330
1F
100
AcDbEntity
  8
0
  6
Continuous
 62
     7
370
    15
100
AcDbLine
 10
314.4269275747
 20
176.8440604508
 30
0.0
 11
314.4961300574
 21
176.8440604508
 31
0.0
  0
LINE
  5
22A
330
1F
100
AcDbEntity
  8
0
  6
Continuous
 62
     7
370
    15
100
AcDbLine
 10
313.64613057
 20
176.8440604508
 30
0.0
 11
314.4269275747
 21
176.8440604508
 31
0.0
  0
LINE
  5
22B
330
1F
100
AcDbEntity
  8
0
  6
Continuous
 62
     7
370
    15
100
AcDbLine
 10
314.4269275747
 20
176.7690602989
 30
0.0
 11
314.4961300574
 21
176.7690602989
 31
0.0
  0
LINE
  5
22C
330
1F
100
AcDbEntity
  8
0
  6
Continuous
 62
     7
370
    15
100
AcDbLine
 10
313.64613057
 20
176.7690602989
 30
0.0
 11
314.4269275747
 21
176.7690602989
 31
0.0
  0
LINE
  5
22D
330
1F
100
AcDbEntity
  8
0
  6
Continuous
 62
     7
370
    15
100
AcDbLine
 10
314.4059974036
 20
176.7440602482
 30
0.0
 11
314.4711303792
 21
176.7440602482
 31
0.0
  0
LINE
  5
22E
330
1F
100
AcDbEntity
  8
0
  6
Continuous
 62
     7
370
    15
100
AcDbLine
 10
313.6711302481
 20
176.7440602482
 30
0.0
 11
314.4059974036
 21
176.7440602482
 31
0.0
  0
LINE
  5
22F
330
1F
100
AcDbEntity
  8
0
  6
Continuous
 62
     7
370
    15
100
AcDbLine
 10
314.3222811899
 20
177.2440601439
 30
0.0
 11
314.3711301766
 21
177.2440601439
 31
0.0
  0
LINE
  5
230
330
1F
100
AcDbEntity
  8
0
  6
Continuous
 62
     7
370
    15
100
AcDbLine
 10
313.7711304507
 20
177.2440601439
 30
0.0
 11
314.3222811899
 21
177.2440601439
 31
0.0
  0
LINE
  5
231
330
1F
100
AcDbEntity
  8
0
  6
Continuous
 62
     7
370
    15
100
AcDbLine
 10
314.3432098708
 20
177.2190604657
 30
0.0
 11
314.3961298547
 21
177.2190604657
 31
0.0
  0
LINE
  5
232
330
1F
100
AcDbEntity
  8
0
  6
Continuous
 62
     7
370
    15
100
AcDbLine
 10
313.7461307726
 20
177.2190604657
 30
0.0
 11
314.3432098708
 21
177.2190604657
 31
0.0
  0
LINE
  5
233
330
1F
100
AcDbEntity
  8
0
  6
Continuous
 62
     7
370
    15
100
AcDbLine
 10
313.6211308918
 20
176.6013432593
 30
0.0
 11
314.5211297355
 21
176.6013432593
 31
0.0
  0
LINE
  5
234
330
1F
100
AcDbEntity
  8
0
  6
Continuous
 62
     7
370
    15
100
AcDbLine
 10
313.6211308918
 20
176.7013432757
 30
0.0
 11
314.5211297355
 21
176.7013432757
 31
0.0
  0
LINE
  5
235
330
1F
100
AcDbEntity
  8
0
  6
Continuous
 62
     7
370
    15
100
AcDbLine
 10
314.4782680354
 20
176.7511979044
 30
0.0
 11
314.5711305819
 21
176.7511979044
 31
0.0
  0
LINE
  5
236
330
1F
100
AcDbEntity
  8
0
  6
Continuous
 62
     7
370
    15
100
AcDbLine
 10
314.5211297355
 20
176.651197888
 30
0.0
 11
314.5711305819
 21
176.651197888
 31
0.0
  0
LINE
  5
237
330
1F
100
AcDbEntity
  8
0
  6
Continuous
 62
     7
370
    15
100
AcDbLine
 10
285.4961301468
 20
176.2013431937
 30
0.0
 11
285.4961301468
 21
176.2940602676
 31
0.0
  0
LINE
  5
238
330
1F
100
AcDbEntity
  8
0
  6
Continuous
 62
     7
370
    15
100
AcDbLine
 10
285.3961306892
 20
176.2013431937
 30
0.0
 11
285.3961306892
 21
176.2940602676
 31
0.0
  0
LINE
  5
239
330
1F
100
AcDbEntity
  8
0
  6
Continuous
 62
     7
370
    15
100
AcDbLine
 10
291.7961302481
 20
176.2638433204
 30
0.0
 11
291.7961302481
 21
176.2013431937
 31
0.0
  0
LINE
  5
23A
330
1F
100
AcDbEntity
  8
0
  6
Continuous
 62
     7
370
    15
100
AcDbLine
 10
302.9461304925
 20
176.2013431937
 30
0.0
 11
302.9461304925
 21
176.2638433204
 31
0.0
  0
LINE
  5
23B
330
1F
100
AcDbEntity
  8
0
  6
Continuous
 62
     7
370
    15
100
AcDbLine
 10
302.9461304925
 20
176.2940602676
 30
0.0
 11
302.9461304925
 21
176.2638433204
 31
0.0
  0
LINE
  5
23C
330
1F
100
AcDbEntity
  8
0
  6
Continuous
 62
     7
370
    15
100
AcDbLine
 10
291.7961302481
 20
176.2638433204
 30
0.0
 11
291.7961302481
 21
176.2940602676
 31
0.0
  0
LINE
  5
23D
330
1F
100
AcDbEntity
  8
0
  6
Continuous
 62
     7
370
    15
100
AcDbLine
 10
287.9961307428
 20
176.2013431937
 30
0.0
 11
287.9961307428
 21
176.2940602676
 31
0.0
  0
LINE
  5
23E
330
1F
100
AcDbEntity
  8
0
  6
Continuous
 62
     7
370
    15
100
AcDbLine
 10
306.933630564
 20
176.2940602676
 30
0.0
 11
306.933630564
 21
176.2013431937
 31
0.0
  0
LINE
  5
23F
330
1F
100
AcDbEntity
  8
0
  6
Continuous
 62
     7
370
    15
100
AcDbLine
 10
306.9961305044
 20
176.261343278
 30
0.0
 11
306.9961305044
 21
176.2013431937
 31
0.0
  0
LINE
  5
240
330
1F
100
AcDbEntity
  8
0
  6
Continuous
 62
     7
370
    15
100
AcDbLine
 10
306.9961305044
 20
176.261343278
 30
0.0
 11
306.933630564
 21
176.261343278
 31
0.0
  0
ARC
  5
241
330
1F
100
AcDbEntity
  8
0
  6
Continuous
 62
     7
370
    15
100
AcDbCircle
 10
306.1661221777
 20
205.7694930524
 30
0.0
 40
0.4750266480347932
100
AcDbArc
 50
51.5945938187
 51
99.5694629099
  0
ARC
  5
242
330
1F
100
AcDbEntity
  8
0
  6
Continuous
 62
     7
370
    15
100
AcDbCircle
 10
306.1661315084
 20
205.7695210049
 30
0.0
 40
0.4749989471446779
100
AcDbArc
 50
0.0000477048
 51
51.5933812101
  0
ARC
  5
243
330
1F
100
AcDbEntity
  8
0
  6
Continuous
 62
     7
370
    15
100
AcDbCircle
 10
287.1161293209
 20
205.7695216462
 30
0.0
 40
0.4749991634219032
100
AcDbArc
 50
79.5723141676
 51
180.0000296546
  0
LWPOLYLINE
  5
244
330
1F
100
AcDbEntity
  8
0
  6
Continuous
 62
     7
370
    15
100
AcDbPolyline
 90
        3
 70
   128
 43
0.0
 10
286.6411301575
 20
205.7604525537
 10
286.6502571187
 20
205.6677852125
 10
286.6654473624
 20
205.6104187221
  0
LWPOLYLINE
  5
245
330
1F
100
AcDbEntity
  8
0
  6
Continuous
 62
     7
370
    15
100
AcDbPolyline
 90
        3
 70
   128
 43
0.0
 10
306.6411304555
 20
205.7604525537
 10
306.6320034943
 20
205.6677852125
 10
306.6158655367
 20
205.6076024026
  0
ARC
  5
246
330
1F
100
AcDbEntity
  8
0
  6
Continuous
 62
     7
370
    15
100
AcDbCircle
 10
287.11612642
 20
205.7695233943
 30
0.0
 40
0.4749962625294473
100
AcDbArc
 50
82.0991019246
 51
180.0002405073
  0
ARC
  5
247
330
1F
100
AcDbEntity
  8
0
  6
Continuous
 62
     7
370
    15
100
AcDbCircle
 10
306.1661306737
 20
205.7695218161
 30
0.0
 40
0.4749997818498287
100
AcDbArc
 50
359.9999498541
 51
97.8999569239
  0
LINE
  5
248
330
1F
100
AcDbEntity
  8
0
  6
Continuous
 62
     7
370
    15
100
AcDbLine
 10
307.4374574504
 20
206.5905276985
 30
0.0
 11
307.4374574504
 21
206.729332015
 31
0.0
  0
LINE
  5
249
330
1F
100
AcDbEntity
  8
0
  6
Continuous
 62
     7
370
    15
100
AcDbLine
 10
285.8448039077
 20
206.729332015
 30
0.0
 11
285.8448039077
 21
206.5905396194
 31
0.0
  0
LINE
  5
24A
330
1F
100
AcDbEntity
  8
0
  6
Continuous
 62
     7
370
    15
100
AcDbLine
 10
307.1161303005
 20
206.673613593
 30
0.0
 11
307.4161301635
 21
206.673613593
 31
0.0
  0
LINE
  5
24B
330
1F
100
AcDbEntity
  8
0
  6
Continuous
 62
     7
370
    15
100
AcDbLine
 10
307.4161301635
 20
206.7218337507
 30
0.0
 11
307.4161301635
 21
206.673613593
 31
0.0
  0
LINE
  5
24C
330
1F
100
AcDbEntity
  8
0
  6
Continuous
 62
     7
370
    15
100
AcDbLine
 10
307.1161303005
 20
206.7218337507
 30
0.0
 11
307.1161303005
 21
206.673613593
 31
0.0
  0
LINE
  5
24D
330
1F
100
AcDbEntity
  8
0
  6
Continuous
 62
     7
370
    15
100
AcDbLine
 10
307.4161301635
 20
206.673613593
 30
0.0
 11
307.4161301635
 21
206.3673798293
 31
0.0
  0
LINE
  5
24E
330
1F
100
AcDbEntity
  8
0
  6
Continuous
 62
     7
370
    15
100
AcDbLine
 10
307.1161303005
 20
206.673613593
 30
0.0
 11
307.1161303005
 21
206.3617084474
 31
0.0
  0
LINE
  5
24F
330
1F
100
AcDbEntity
  8
0
  6
Continuous
 62
     7
370
    15
100
AcDbLine
 10
285.8661304496
 20
206.673613593
 30
0.0
 11
286.1661303125
 21
206.673613593
 31
0.0
  0
LINE
  5
250
330
1F
100
AcDbEntity
  8
0
  6
Continuous
 62
     7
370
    15
100
AcDbLine
 10
286.1661303125
 20
206.7218337507
 30
0.0
 11
286.1661303125
 21
206.673613593
 31
0.0
  0
LINE
  5
251
330
1F
100
AcDbEntity
  8
0
  6
Continuous
 62
     7
370
    15
100
AcDbLine
 10
285.8661304496
 20
206.7218337507
 30
0.0
 11
285.8661304496
 21
206.673613593
 31
0.0
  0
LINE
  5
252
330
1F
100
AcDbEntity
  8
0
  6
Continuous
 62
     7
370
    15
100
AcDbLine
 10
286.1661303125
 20
206.673613593
 30
0.0
 11
286.1661303125
 21
206.3617084474
 31
0.0
  0
LINE
  5
253
330
1F
100
AcDbEntity
  8
0
  6
Continuous
 62
     7
370
    15
100
AcDbLine
 10
285.8661304496
 20
206.673613593
 30
0.0
 11
285.8661304496
 21
206.3673798293
 31
0.0
  0
ARC
  5
254
330
1F
100
AcDbEntity
  8
0
  6
Continuous
 62
     7
370
    15
100
AcDbCircle
 10
286.016130381
 20
207.1971973086
 30
0.0
 40
0.4750763928977422
100
AcDbArc
 50
181.0260509134
 51
358.9739490866
  0
ARC
  5
255
330
1F
100
AcDbEntity
  8
0
  6
Continuous
 62
     7
370
    15
100
AcDbCircle
 10
286.016130381
 20
207.1711172963
 30
0.0
 40
0.4750763928977407
100
AcDbArc
 50
181.0260509134
 51
358.9739490866
  0
ARC
  5
256
330
1F
100
AcDbEntity
  8
0
  6
Continuous
 62
     7
370
    15
100
AcDbCircle
 10
307.2661306045
 20
207.1971965686
 30
0.0
 40
0.4750760071771895
100
AcDbArc
 50
181.0259624811
 51
358.9740375189
  0
ARC
  5
257
330
1F
100
AcDbEntity
  8
0
  6
Continuous
 62
     7
370
    15
100
AcDbCircle
 10
307.2661306045
 20
207.1711165563
 30
0.0
 40
0.475076007177187
100
AcDbArc
 50
181.0259624811
 51
358.9740375189
  0
LINE
  5
258
330
1F
100
AcDbEntity
  8
0
  6
Continuous
 62
     7
370
    15
100
AcDbLine
 10
283.8711309514
 20
173.4513432552
 30
0.0
 11
310.8711305342
 21
173.4513432552
 31
0.0
  0
LINE
  5
259
330
1F
100
AcDbEntity
  8
0
  6
Continuous
 62
     7
370
    15
100
AcDbLine
 10
283.8711309514
 20
174.026343233
 30
0.0
 11
283.8711309514
 21
173.4513432552
 31
0.0
  0
LINE
  5
25A
330
1F
100
AcDbEntity
  8
0
  6
Continuous
 62
     7
370
    15
100
AcDbLine
 10
283.8711309514
 20
174.026343233
 30
0.0
 11
310.8711305342
 21
174.026343233
 31
0.0
  0
LINE
  5
25B
330
1F
100
AcDbEntity
  8
0
  6
Continuous
 62
     7
370
    15
100
AcDbLine
 10
310.8711305342
 20
174.026343233
 30
0.0
 11
310.8711305342
 21
173.4513432552
 31
0.0
  0
LINE
  5
25C
330
1F
100
AcDbEntity
  8
0
  6
Continuous
 62
     7
370
    15
100
AcDbLine
 10
283.8711309514
 20
174.5763432533
 30
0.0
 11
310.8711305342
 21
174.5763432533
 31
0.0
  0
LINE
  5
25D
330
1F
100
AcDbEntity
  8
0
  6
Continuous
 62
     7
370
    15
100
AcDbLine
 10
283.8711309514
 20
175.1513432079
 30
0.0
 11
310.8711305342
 21
175.1513432079
 31
0.0
  0
LINE
  5
25E
330
1F
100
AcDbEntity
  8
0
  6
Continuous
 62
     7
370
    15
100
AcDbLine
 10
310.8711305342
 20
175.1513432079
 30
0.0
 11
310.8711305342
 21
174.5763432533
 31
0.0
  0
LINE
  5
25F
330
1F
100
AcDbEntity
  8
0
  6
Continuous
 62
     7
370
    15
100
AcDbLine
 10
283.8711309514
 20
175.1513432079
 30
0.0
 11
283.8711309514
 21
174.5763432533
 31
0.0
  0
LINE
  5
260
330
1F
100
AcDbEntity
  8
0
  6
Continuous
 62
     7
370
    15
100
AcDbLine
 10
312.9811304889
 20
174.5614775755
 30
0.0
 11
281.9811302505
 21
174.5614775755
 31
0.0
  0
LINE
  5
261
330
1F
100
AcDbEntity
  8
0
  6
Continuous
 62
     7
370
    15
100
AcDbLine
 10
312.9811304889
 20
174.5614775755
 30
0.0
 11
312.9811304889
 21
174.0439776164
 31
0.0
  0
LINE
  5
262
330
1F
100
AcDbEntity
  8
0
  6
Continuous
 62
     7
370
    15
100
AcDbLine
 10
312.9811304889
 20
174.0439776164
 30
0.0
 11
281.9811302505
 21
174.0439776164
 31
0.0
  0
LINE
  5
263
330
1F
100
AcDbEntity
  8
0
  6
Continuous
 62
     7
370
    15
100
AcDbLine
 10
281.9811302505
 20
174.5614775755
 30
0.0
 11
281.9811302505
 21
174.0439776164
 31
0.0
  0
LINE
  5
264
330
1F
100
AcDbEntity
  8
0
  6
Continuous
 62
     7
370
    15
100
AcDbLine
 10
314.8201513372
 20
174.5613203683
 30
0.0
 11
314.8211303435
 21
174.5614775755
 31
0.0
  0
LINE
  5
265
330
1F
100
AcDbEntity
  8
0
  6
Continuous
 62
     7
370
    15
100
AcDbLine
 10
314.8211303435
 20
174.5614775755
 30
0.0
 11
314.8211303435
 21
174.5263432451
 31
0.0
  0
LINE
  5
266
330
1F
100
AcDbEntity
  8
0
  6
Continuous
 62
     7
370
    15
100
AcDbLine
 10
314.8211303435
 20
174.0763432412
 30
0.0
 11
314.8211303435
 21
174.0439776164
 31
0.0
  0
LINE
  5
267
330
1F
100
AcDbEntity
  8
0
  6
Continuous
 62
     7
370
    15
100
AcDbLine
 10
314.8211303435
 20
174.0439776164
 30
0.0
 11
314.8202988587
 21
174.0441111448
 31
0.0
  0
LINE
  5
268
330
1F
100
AcDbEntity
  8
0
  6
Continuous
 62
     7
370
    15
100
AcDbLine
 10
279.9211311422
 20
174.5614775755
 30
0.0
 11
279.9211311422
 21
174.5263432451
 31
0.0
  0
LINE
  5
269
330
1F
100
AcDbEntity
  8
0
  6
Continuous
 62
     7
370
    15
100
AcDbLine
 10
279.9211311422
 20
174.0763432412
 30
0.0
 11
279.9211311422
 21
174.0439776164
 31
0.0
  0
LINE
  5
26A
330
1F
100
AcDbEntity
  8
0
  6
Continuous
 62
     7
370
    15
100
AcDbLine
 10
279.9221101485
 20
174.5613203683
 30
0.0
 11
279.9211311422
 21
174.5614775755
 31
0.0
  0
LINE
  5
26B
330
1F
100
AcDbEntity
  8
0
  6
Continuous
 62
     7
370
    15
100
AcDbLine
 10
279.9211311422
 20
174.0439776164
 30
0.0
 11
279.921962627
 21
174.0441111448
 31
0.0
  0
LINE
  5
26C
330
1F
100
AcDbEntity
  8
0
  6
Continuous
 62
     7
370
    15
100
AcDbLine
 10
281.1711299501
 20
173.4513432552
 30
0.0
 11
280.5461305461
 21
173.4513432552
 31
0.0
  0
ARC
  5
26D
330
1F
100
AcDbEntity
  8
0
  6
Continuous
 62
     7
370
    15
100
AcDbCircle
 10
280.5461304189
 20
174.0763432437
 30
0.0
 40
0.6249999999999716
100
AcDbArc
 50
180.0
 51
270.0
  0
LINE
  5
26E
330
1F
100
AcDbEntity
  8
0
  6
Continuous
 62
     7
370
    15
100
AcDbLine
 10
279.9211311422
 20
174.5263432451
 30
0.0
 11
279.9211311422
 21
174.0763432412
 31
0.0
  0
ARC
  5
26F
330
1F
100
AcDbEntity
  8
0
  6
Continuous
 62
     7
370
    15
100
AcDbCircle
 10
280.5461304189
 20
174.5263432437
 30
0.0
 40
0.625
100
AcDbArc
 50
90.0
 51
180.0
  0
LINE
  5
270
330
1F
100
AcDbEntity
  8
0
  6
Continuous
 62
     7
370
    15
100
AcDbLine
 10
280.5461305461
 20
175.1513432079
 30
0.0
 11
281.1711299501
 21
175.1513432079
 31
0.0
  0
LINE
  5
271
330
1F
100
AcDbEntity
  8
0
  6
Continuous
 62
     7
370
    15
100
AcDbLine
 10
281.9811302505
 20
174.5263432451
 30
0.0
 11
281.9811302505
 21
174.0763432412
 31
0.0
  0
LINE
  5
272
330
1F
100
AcDbEntity
  8
0
  6
Continuous
 62
     7
370
    15
100
AcDbLine
 10
283.9461299858
 20
174.026343233
 30
0.0
 11
283.9461299858
 21
173.4513432552
 31
0.0
  0
LINE
  5
273
330
1F
100
AcDbEntity
  8
0
  6
Continuous
 62
     7
370
    15
100
AcDbLine
 10
283.9461299858
 20
173.4513432552
 30
0.0
 11
281.1711299501
 21
173.4513432552
 31
0.0
  0
LINE
  5
274
330
1F
100
AcDbEntity
  8
0
  6
Continuous
 62
     7
370
    15
100
AcDbLine
 10
281.9811302505
 20
174.026343233
 30
0.0
 11
281.9811302505
 21
174.0439776164
 31
0.0
  0
LINE
  5
275
330
1F
100
AcDbEntity
  8
0
  6
Continuous
 62
     7
370
    15
100
AcDbLine
 10
281.9811302505
 20
174.026343233
 30
0.0
 11
283.9461299858
 21
174.026343233
 31
0.0
  0
LINE
  5
276
330
1F
100
AcDbEntity
  8
0
  6
Continuous
 62
     7
370
    15
100
AcDbLine
 10
281.1711299501
 20
175.1513432079
 30
0.0
 11
283.9461299858
 21
175.1513432079
 31
0.0
  0
LINE
  5
277
330
1F
100
AcDbEntity
  8
0
  6
Continuous
 62
     7
370
    15
100
AcDbLine
 10
283.9461299858
 20
175.1513432079
 30
0.0
 11
283.9461299858
 21
174.5763432533
 31
0.0
  0
LINE
  5
278
330
1F
100
AcDbEntity
  8
0
  6
Continuous
 62
     7
370
    15
100
AcDbLine
 10
283.9461299858
 20
174.5763432533
 30
0.0
 11
281.9811302505
 21
174.5763432533
 31
0.0
  0
LINE
  5
279
330
1F
100
AcDbEntity
  8
0
  6
Continuous
 62
     7
370
    15
100
AcDbLine
 10
281.9811302505
 20
174.5614775755
 30
0.0
 11
281.9811302505
 21
174.5763432533
 31
0.0
  0
LINE
  5
27A
330
1F
100
AcDbEntity
  8
0
  6
Continuous
 62
     7
370
    15
100
AcDbLine
 10
312.761129745
 20
174.026343233
 30
0.0
 11
312.761129745
 21
174.0439776164
 31
0.0
  0
LINE
  5
27B
330
1F
100
AcDbEntity
  8
0
  6
Continuous
 62
     7
370
    15
100
AcDbLine
 10
313.5711300454
 20
173.4513432552
 30
0.0
 11
310.7961300097
 21
173.4513432552
 31
0.0
  0
LINE
  5
27C
330
1F
100
AcDbEntity
  8
0
  6
Continuous
 62
     7
370
    15
100
AcDbLine
 10
310.7961300097
 20
173.4513432552
 30
0.0
 11
310.7961300097
 21
174.026343233
 31
0.0
  0
LINE
  5
27D
330
1F
100
AcDbEntity
  8
0
  6
Continuous
 62
     7
370
    15
100
AcDbLine
 10
310.7961300097
 20
174.026343233
 30
0.0
 11
312.761129745
 21
174.026343233
 31
0.0
  0
LINE
  5
27E
330
1F
100
AcDbEntity
  8
0
  6
Continuous
 62
     7
370
    15
100
AcDbLine
 10
310.7961300097
 20
174.5763432533
 30
0.0
 11
310.7961300097
 21
175.1513432079
 31
0.0
  0
LINE
  5
27F
330
1F
100
AcDbEntity
  8
0
  6
Continuous
 62
     7
370
    15
100
AcDbLine
 10
310.7961300097
 20
175.1513432079
 30
0.0
 11
313.5711300454
 21
175.1513432079
 31
0.0
  0
LINE
  5
280
330
1F
100
AcDbEntity
  8
0
  6
Continuous
 62
     7
370
    15
100
AcDbLine
 10
312.761129745
 20
174.5614775755
 30
0.0
 11
312.761129745
 21
174.5763432533
 31
0.0
  0
LINE
  5
281
330
1F
100
AcDbEntity
  8
0
  6
Continuous
 62
     7
370
    15
100
AcDbLine
 10
312.761129745
 20
174.5763432533
 30
0.0
 11
310.7961300097
 21
174.5763432533
 31
0.0
  0
LINE
  5
282
330
1F
100
AcDbEntity
  8
0
  6
Continuous
 62
     7
370
    15
100
AcDbLine
 10
314.1961309395
 20
173.4513432552
 30
0.0
 11
313.5711300454
 21
173.4513432552
 31
0.0
  0
ARC
  5
283
330
1F
100
AcDbEntity
  8
0
  6
Continuous
 62
     7
370
    15
100
AcDbCircle
 10
314.1961304189
 20
174.0763432437
 30
0.0
 40
0.625
100
AcDbArc
 50
270.0
 51
0.0
  0
LINE
  5
284
330
1F
100
AcDbEntity
  8
0
  6
Continuous
 62
     7
370
    15
100
AcDbLine
 10
312.761129745
 20
174.0763432412
 30
0.0
 11
312.761129745
 21
174.5263432451
 31
0.0
  0
LINE
  5
285
330
1F
100
AcDbEntity
  8
0
  6
Continuous
 62
     7
370
    15
100
AcDbLine
 10
314.8211303435
 20
174.5263432451
 30
0.0
 11
314.8211303435
 21
174.0763432412
 31
0.0
  0
LINE
  5
286
330
1F
100
AcDbEntity
  8
0
  6
Continuous
 62
     7
370
    15
100
AcDbLine
 10
313.5711300454
 20
175.1513432079
 30
0.0
 11
314.1961309395
 21
175.1513432079
 31
0.0
  0
ARC
  5
287
330
1F
100
AcDbEntity
  8
0
  6
Continuous
 62
     7
370
    15
100
AcDbCircle
 10
314.1961304189
 20
174.5263432437
 30
0.0
 40
0.625
100
AcDbArc
 50
0.0
 51
90.0
  0
LINE
  5
288
330
1F
100
AcDbEntity
  8
0
  6
Continuous
 62
     7
370
    15
100
AcDbLine
 10
313.0626875243
 20
219.8098961562
 30
0.0
 11
313.142232903
 21
219.8145214767
 31
0.0
  0
SPLINE
  5
289
330
1F
100
AcDbEntity
  8
0
  6
Continuous
 62
     7
370
    15
100
AcDbSpline
210
0.0
220
0.0
230
1.0
 70
     8
 71
     3
 72
    10
 73
     6
 74
     0
 42
0.00000001
 43
0.00000001
 40
0.0
 40
0.0
 40
0.0
 40
0.0
 40
0.2423515562211518
 40
0.6992657488416245
 40
1.0
 40
1.0
 40
1.0
 40
1.0
 10
313.5842505178692
 20
220.0638655871684
 30
0.0
 10
313.5949901511698
 20
220.0781847745256
 30
0.0
 10
313.6259776052605
 20
220.1195004459667
 30
0.0
 10
313.6518994269381
 20
220.1768758136638
 30
0.0
 10
313.6563044845463
 20
220.1872678014622
 30
0.0
 10
313.6580529890301
 20
220.1913927048976
 30
0.0
  0
ARC
  5
28A
330
1F
100
AcDbEntity
  8
0
  6
Continuous
 62
     7
370
    15
100
AcDbCircle
 10
313.6811304189
 20
220.181777406
 30
0.0
 40
0.0250000000000057
100
AcDbArc
 50
0.0
 51
157.380135052
  0
LINE
  5
28B
330
1F
100
AcDbEntity
  8
0
  6
Continuous
 62
     7
370
    15
100
AcDbLine
 10
306.0811306618
 20
220.1817784757
 30
0.0
 11
306.0811306618
 21
220.2067766637
 31
0.0
  0
LINE
  5
28C
330
1F
100
AcDbEntity
  8
0
  6
Continuous
 62
     7
370
    15
100
AcDbLine
 10
289.3311302445
 20
220.1817784757
 30
0.0
 11
289.3311302445
 21
220.2067766637
 31
0.0
  0
ARC
  5
28D
330
1F
100
AcDbEntity
  8
0
  6
Continuous
 62
     7
370
    15
100
AcDbCircle
 10
281.7311304189
 20
220.181777406
 30
0.0
 40
0.0250000000000582
100
AcDbArc
 50
22.619864948
 51
180.0
  0
SPLINE
  5
28E
330
1F
100
AcDbEntity
  8
0
  6
Continuous
 62
     7
370
    15
100
AcDbSpline
210
0.0
220
0.0
230
1.0
 70
     8
 71
     3
 72
    11
 73
     7
 74
     0
 42
0.00000001
 43
0.00000001
 40
0.0
 40
0.0
 40
0.0
 40
0.0
 40
0.2525011317033304
 40
0.5833627783471118
 40
0.9384953189754661
 40
1.0
 40
1.0
 40
1.0
 40
1.0
 10
281.7542079172375
 20
220.1913927048976
 30
0.0
 10
281.7553748888824
 20
220.1884075056214
 30
0.0
 10
281.7580709869808
 20
220.1815106884391
 30
0.0
 10
281.7817628590356
 20
220.1324888348103
 30
0.0
 10
281.8060382706003
 20
220.0887455044948
 30
0.0
 10
281.8272966150831
 20
220.0630200236906
 30
0.0
 10
281.8304348073246
 20
220.0592223853404
 30
0.0
  0
LINE
  5
28F
330
1F
100
AcDbEntity
  8
0
  6
Continuous
 62
     7
370
    15
100
AcDbLine
 10
282.3084640584
 20
219.8096517772
 30
0.0
 11
282.3484602652
 21
219.8119763583
 31
0.0
  0
ARC
  5
290
330
1F
100
AcDbEntity
  8
0
  6
Continuous
 62
     7
370
    15
100
AcDbCircle
 10
282.3311304189
 20
220.431777406
 30
0.0
 40
0.625
100
AcDbArc
 50
90.0
 51
270.0
  0
ARC
  5
291
330
1F
100
AcDbEntity
  8
0
  6
Continuous
 62
     7
370
    15
100
AcDbCircle
 10
313.0811304189
 20
220.431777406
 30
0.0
 40
0.625
100
AcDbArc
 50
270.0
 51
90.0
  0
LINE
  5
292
330
1F
100
AcDbEntity
  8
0
  6
Continuous
 62
     7
370
    15
100
AcDbLine
 10
311.8011298857
 20
215.2817759961
 30
0.0
 11
311.7411303602
 21
215.2817759961
 31
0.0
  0
LINE
  5
293
330
1F
100
AcDbEntity
  8
0
  6
Continuous
 62
     7
370
    15
100
AcDbLine
 10
311.8011298857
 20
215.2817759961
 30
0.0
 11
311.8011298857
 21
215.2867768258
 31
0.0
  0
LINE
  5
294
330
1F
100
AcDbEntity
  8
0
  6
Continuous
 62
     7
370
    15
100
AcDbLine
 10
311.7411303602
 20
215.2867768258
 30
0.0
 11
311.7411303602
 21
215.2817759961
 31
0.0
  0
LINE
  5
295
330
1F
100
AcDbEntity
  8
0
  6
Continuous
 62
     7
370
    15
100
AcDbLine
 10
281.7209932289
 20
215.2817759961
 30
0.0
 11
281.7111301503
 21
215.2817759961
 31
0.0
  0
LINE
  5
296
330
1F
100
AcDbEntity
  8
0
  6
Continuous
 62
     7
370
    15
100
AcDbLine
 10
281.7111301503
 20
215.2867768258
 30
0.0
 11
281.7111301503
 21
215.2817759961
 31
0.0
  0
LINE
  5
297
330
1F
100
AcDbEntity
  8
0
  6
Continuous
 62
     7
370
    15
100
AcDbLine
 10
281.5196666203
 20
217.1717766971
 30
0.0
 11
281.5196666203
 21
215.421778366
 31
0.0
  0
LINE
  5
298
330
1F
100
AcDbEntity
  8
0
  6
Continuous
 62
     7
370
    15
100
AcDbLine
 10
313.892594286
 20
217.1717766971
 30
0.0
 11
313.892594286
 21
215.421778366
 31
0.0
  0
SPLINE
  5
299
330
1F
100
AcDbEntity
  8
0
  6
Continuous
 62
     7
370
    15
100
AcDbSpline
210
0.0
220
0.0
230
1.0
 70
     8
 71
     3
 72
    12
 73
     8
 74
     0
 42
0.00000001
 43
0.00000001
 40
0.0
 40
0.0
 40
0.0
 40
0.0
 40
0.2265966105853029
 40
0.4532364841976594
 40
0.6798761435695084
 40
0.90651091759099
 40
1.0
 40
1.0
 40
1.0
 40
1.0
 10
313.8211298070194
 20
217.3067782372768
 30
0.0
 10
313.8265291640394
 20
217.3051147729677
 30
0.0
 10
313.8373289089532
 20
217.3017875267521
 30
0.0
 10
313.8535349256092
 20
217.2759331791535
 30
0.0
 10
313.8697265599999
 20
217.2382558527887
 30
0.0
 10
313.8827846474655
 20
217.2008879918558
 30
0.0
 10
313.8903770098397
 20
217.1783567335945
 30
0.0
 10
313.892594285989
 20
217.1717766970928
 30
0.0
  0
SPLINE
  5
29A
330
1F
100
AcDbEntity
  8
0
  6
Continuous
 62
     7
370
    15
100
AcDbSpline
210
0.0
220
0.0
230
1.0
 70
     8
 71
     3
 72
    12
 73
     8
 74
     0
 42
0.00000001
 43
0.00000001
 40
0.0
 40
0.0
 40
0.0
 40
0.0
 40
0.226582352290768
 40
0.4532334866393125
 40
0.679875648590928
 40
0.9065086330167662
 40
1.0
 40
1.0
 40
1.0
 40
1.0
 10
281.5196666202785
 20
217.1717766970928
 30
0.0
 10
281.5250655894111
 20
217.1877948846526
 30
0.0
 10
281.5358651666044
 20
217.2198361223041
 30
0.0
 10
281.5520690683257
 20
217.2619175628131
 30
0.0
 10
281.568264715407
 20
217.2924971872494
 30
0.0
 10
281.5813189021686
 20
217.3054809407799
 30
0.0
 10
281.5889132054949
 20
217.3064850036846
 30
0.0
 10
281.5911310992481
 20
217.3067782372768
 30
0.0
  0
LINE
  5
29B
330
1F
100
AcDbEntity
  8
0
  6
Continuous
 62
     7
370
    15
100
AcDbLine
 10
281.5911310992
 20
217.3067782373
 30
0.0
 11
313.821129807
 21
217.3067782373
 31
0.0
  0
SPLINE
  5
29C
330
1F
100
AcDbEntity
  8
0
  6
Continuous
 62
     7
370
    15
100
AcDbSpline
210
0.0
220
0.0
230
1.0
 70
     8
 71
     3
 72
    12
 73
     8
 74
     0
 42
0.00000001
 43
0.00000001
 40
0.0
 40
0.0
 40
0.0
 40
0.0
 40
0.2277553936958936
 40
0.4555817051328249
 40
0.6834062737743815
 40
0.9112189751951963
 40
1.0
 40
1.0
 40
1.0
 40
1.0
 10
313.892594285989
 20
215.4217783660228
 30
0.0
 10
313.8868988008103
 20
215.4056774489742
 30
0.0
 10
313.8755060570112
 20
215.3734706014253
 30
0.0
 10
313.8584118606155
 20
215.3312346938885
 30
0.0
 10
313.8413293429438
 20
215.3006616716254
 30
0.0
 10
313.8276831029867
 20
215.2879905416183
 30
0.0
 10
313.8198045894459
 20
215.287042641434
 30
0.0
 10
313.8175952515842
 20
215.2867768258388
 30
0.0
  0
LINE
  5
29D
330
1F
100
AcDbEntity
  8
0
  6
Continuous
 62
     7
370
    15
100
AcDbLine
 10
281.5946656547
 20
215.2867768258
 30
0.0
 11
313.8175952516
 21
215.2867768258
 31
0.0
  0
SPLINE
  5
29E
330
1F
100
AcDbEntity
  8
0
  6
Continuous
 62
     7
370
    15
100
AcDbSpline
210
0.0
220
0.0
230
1.0
 70
     8
 71
     3
 72
    12
 73
     8
 74
     0
 42
0.00000001
 43
0.00000001
 40
0.0
 40
0.0
 40
0.0
 40
0.0
 40
0.2277668194096739
 40
0.4555814431668684
 40
0.6834050986215277
 40
0.9112327169182557
 40
1.0
 40
1.0
 40
1.0
 40
1.0
 10
281.5946656546833
 20
215.2867768258388
 30
0.0
 10
281.5889703270634
 20
215.2884576120548
 30
0.0
 10
281.5775784764719
 20
215.2918195372549
 30
0.0
 10
281.5604828031585
 20
215.3179335522835
 30
0.0
 10
281.5433996619453
 20
215.3559533170909
 30
0.0
 10
281.5297560891763
 20
215.3932501997697
 30
0.0
 10
281.5218760388581
 20
215.4155311927376
 30
0.0
 10
281.5196666202785
 20
215.4217783660228
 30
0.0
  0
SPLINE
  5
29F
330
1F
100
AcDbEntity
  8
0
  6
Continuous
 62
     7
370
    15
100
AcDbSpline
210
0.0
220
0.0
230
1.0
 70
     8
 71
     3
 72
    12
 73
     8
 74
     0
 42
0.00000001
 43
0.00000001
 40
0.0
 40
0.0
 40
0.0
 40
0.0
 40
0.227758300051157
 40
0.4555830597101702
 40
0.6834056440516748
 40
0.9112227487592012
 40
1.0
 40
1.0
 40
1.0
 40
1.0
 10
281.4561310491802
 20
215.4217783660228
 30
0.0
 10
281.4578120300365
 20
215.4056775177007
 30
0.0
 10
281.4611744822572
 20
215.3734711228475
 30
0.0
 10
281.4872874372197
 20
215.3312347024381
 30
0.0
 10
281.5253046791207
 20
215.3006612670282
 30
0.0
 10
281.5626034362793
 20
215.2879907039717
 30
0.0
 10
281.5848834798841
 20
215.2870426677529
 30
0.0
 10
281.5911310992481
 20
215.2867768258388
 30
0.0
  0
LINE
  5
2A0
330
1F
100
AcDbEntity
  8
0
  6
Continuous
 62
     7
370
    15
100
AcDbLine
 10
281.5161305747
 20
215.421778366
 30
0.0
 11
281.4561310492
 21
215.421778366
 31
0.0
  0
SPLINE
  5
2A1
330
1F
100
AcDbEntity
  8
0
  6
Continuous
 62
     7
370
    15
100
AcDbSpline
210
0.0
220
0.0
230
1.0
 70
     8
 71
     3
 72
    10
 73
     6
 74
     0
 42
0.00000001
 43
0.00000001
 40
0.0
 40
0.0
 40
0.0
 40
0.0
 40
0.4369307005521121
 40
0.9379167729199981
 40
0.9999999999999999
 40
0.9999999999999999
 40
0.9999999999999999
 40
0.9999999999999999
 10
281.5161305747272
 20
215.4217783660228
 30
0.0
 10
281.5171338941749
 20
215.4132093001316
 30
0.0
 10
281.5192876227579
 20
215.3948149171838
 30
0.0
 10
281.5289709868341
 20
215.3755968813536
 30
0.0
 10
281.5381913759628
 20
215.3692564641629
 30
0.0
 10
281.5392080030682
 20
215.3685573787029
 30
0.0
  0
LINE
  5
2A2
330
1F
100
AcDbEntity
  8
0
  6
Continuous
 62
     7
370
    15
100
AcDbLine
 10
313.8961303315
 20
215.421778366
 30
0.0
 11
313.9561298571
 21
215.421778366
 31
0.0
  0
SPLINE
  5
2A3
330
1F
100
AcDbEntity
  8
0
  6
Continuous
 62
     7
370
    15
100
AcDbSpline
210
0.0
220
0.0
230
1.0
 70
     8
 71
     3
 72
     9
 73
     5
 74
     0
 42
0.00000001
 43
0.00000001
 40
0.0
 40
0.0
 40
0.0
 40
0.0
 40
0.4813699244439676
 40
1.0
 40
1.0
 40
1.0
 40
1.0
 10
313.8726162991764
 20
215.3674338311488
 30
0.0
 10
313.8791403256294
 20
215.3749396418603
 30
0.0
 10
313.8926933669011
 20
215.3905322460724
 30
0.0
 10
313.894956567594
 20
215.4111074476658
 30
0.0
 10
313.8961303315403
 20
215.4217783660228
 30
0.0
  0
SPLINE
  5
2A4
330
1F
100
AcDbEntity
  8
0
  6
Continuous
 62
     7
370
    15
100
AcDbSpline
210
0.0
220
0.0
230
1.0
 70
     8
 71
     3
 72
    12
 73
     8
 74
     0
 42
0.00000001
 43
0.00000001
 40
0.0
 40
0.0
 40
0.0
 40
0.0
 40
0.2277633452919869
 40
0.4555815932734047
 40
0.6834079442255089
 40
0.9112298798809015
 40
1.0
 40
1.0
 40
1.0
 40
1.0
 10
313.8211298070194
 20
215.2867768258388
 30
0.0
 10
313.8372312241593
 20
215.2884576751168
 30
0.0
 10
313.8694379397095
 20
215.291819778844
 30
0.0
 10
313.9116741291565
 20
215.3179336830481
 30
0.0
 10
313.9422465480922
 20
215.3559520525192
 30
0.0
 10
313.9549183652898
 20
215.3932513896275
 30
0.0
 10
313.9558645529253
 20
215.41553125351
 30
0.0
 10
313.9561298570873
 20
215.4217783660228
 30
0.0
  0
SPLINE
  5
2A5
330
1F
100
AcDbEntity
  8
0
  6
Continuous
 62
     7
370
    15
100
AcDbSpline
210
0.0
220
0.0
230
1.0
 70
     8
 71
     3
 72
    12
 73
     8
 74
     0
 42
0.00000001
 43
0.00000001
 40
0.0
 40
0.0
 40
0.0
 40
0.0
 40
0.2265930049521073
 40
0.453233361291881
 40
0.6798753432314117
 40
0.9065085809588735
 40
1.0
 40
1.0
 40
1.0
 40
1.0
 10
281.5911310992481
 20
217.3067782372768
 30
0.0
 10
281.5751122701523
 20
217.3051147450147
 30
0.0
 10
281.5430712644884
 20
217.3017874128688
 30
0.0
 10
281.5009922210581
 20
217.2759329154761
 30
0.0
 10
281.470409352248
 20
217.2382564780092
 30
0.0
 10
281.4574285901478
 20
217.2008873227255
 30
0.0
 10
281.456424337941
 20
217.1783566969011
 30
0.0
 10
281.4561310491802
 20
217.1717766970928
 30
0.0
  0
SPLINE
  5
2A6
330
1F
100
AcDbEntity
  8
0
  6
Continuous
 62
     7
370
    15
100
AcDbSpline
210
0.0
220
0.0
230
1.0
 70
     8
 71
     3
 72
     9
 73
     5
 74
     0
 42
0.00000001
 43
0.00000001
 40
0.0
 40
0.0
 40
0.0
 40
0.0
 40
0.4426433757203589
 40
1.0
 40
1.0
 40
1.0
 40
1.0
 10
281.53763295033
 20
217.2233257741267
 30
0.0
 10
281.5320157999216
 20
217.2168070948817
 30
0.0
 10
281.5193257864334
 20
217.2020803880054
 30
0.0
 10
281.5172740972722
 20
217.1826219733814
 30
0.0
 10
281.5161305747272
 20
217.1717766970928
 30
0.0
  0
LINE
  5
2A7
330
1F
100
AcDbEntity
  8
0
  6
Continuous
 62
     7
370
    15
100
AcDbLine
 10
281.4561310492
 20
217.1717766971
 30
0.0
 11
281.5161305747
 21
217.1717766971
 31
0.0
  0
SPLINE
  5
2A8
330
1F
100
AcDbEntity
  8
0
  6
Continuous
 62
     7
370
    15
100
AcDbSpline
210
0.0
220
0.0
230
1.0
 70
     8
 71
     3
 72
    12
 73
     8
 74
     0
 42
0.00000001
 43
0.00000001
 40
0.0
 40
0.0
 40
0.0
 40
0.0
 40
0.2265826683511681
 40
0.4532308941227582
 40
0.6798733722182025
 40
0.9065148229301677
 40
1.0
 40
1.0
 40
1.0
 40
1.0
 10
313.9561298570873
 20
217.1717766970928
 30
0.0
 10
313.9544659686148
 20
217.1877948254771
 30
0.0
 10
313.9511377102549
 20
217.219835716789
 30
0.0
 10
313.9252872153981
 20
217.2619178882146
 30
0.0
 10
313.8876089322284
 20
217.2924976643769
 30
0.0
 10
313.850239858487
 20
217.3054806630135
 30
0.0
 10
313.8277093056799
 20
217.3064849575436
 30
0.0
 10
313.8211298070194
 20
217.3067782372768
 30
0.0
  0
LINE
  5
2A9
330
1F
100
AcDbEntity
  8
0
  6
Continuous
 62
     7
370
    15
100
AcDbLine
 10
313.9561298571
 20
217.1717766971
 30
0.0
 11
313.8961303315
 21
217.1717766971
 31
0.0
  0
SPLINE
  5
2AA
330
1F
100
AcDbEntity
  8
0
  6
Continuous
 62
     7
370
    15
100
AcDbSpline
210
0.0
220
0.0
230
1.0
 70
     8
 71
     3
 72
    10
 73
     6
 74
     0
 42
0.00000001
 43
0.00000001
 40
0.0
 40
0.0
 40
0.0
 40
0.0
 40
0.4544565456975007
 40
0.9614290383204467
 40
1.0
 40
1.0
 40
1.0
 40
1.0
 10
313.8961303315403
 20
217.1717766970928
 30
0.0
 10
313.8950896382428
 20
217.1804562444735
 30
0.0
 10
313.8928879915385
 20
217.1988183276481
 30
0.0
 10
313.8835169866744
 20
217.2176379561756
 30
0.0
 10
313.8748697810535
 20
217.2237072842374
 30
0.0
 10
313.87425840714
 20
217.2241363972957
 30
0.0
  0
LINE
  5
2AB
330
1F
100
AcDbEntity
  8
0
  6
Continuous
 62
     7
370
    15
100
AcDbLine
 10
281.5161305747
 20
217.1717766971
 30
0.0
 11
281.5161305747
 21
215.421778366
 31
0.0
  0
LINE
  5
2AC
330
1F
100
AcDbEntity
  8
0
  6
Continuous
 62
     7
370
    15
100
AcDbLine
 10
281.4561310492
 20
217.1717766971
 30
0.0
 11
281.4561310492
 21
215.421778366
 31
0.0
  0
LINE
  5
2AD
330
1F
100
AcDbEntity
  8
0
  6
Continuous
 62
     7
370
    15
100
AcDbLine
 10
313.8961303315
 20
217.1717766971
 30
0.0
 11
313.8961303315
 21
215.421778366
 31
0.0
  0
LINE
  5
2AE
330
1F
100
AcDbEntity
  8
0
  6
Continuous
 62
     7
370
    15
100
AcDbLine
 10
313.9561298571
 20
217.1717766971
 30
0.0
 11
313.9561298571
 21
215.421778366
 31
0.0
  0
LINE
  5
2AF
330
1F
100
AcDbEntity
  8
0
  6
Continuous
 62
     7
370
    15
100
AcDbLine
 10
281.5911310992
 20
215.2867768258
 30
0.0
 11
281.5946656547
 21
215.2867768258
 31
0.0
  0
LINE
  5
2B0
330
1F
100
AcDbEntity
  8
0
  6
Continuous
 62
     7
370
    15
100
AcDbLine
 10
313.8175952516
 20
215.2867768258
 30
0.0
 11
313.821129807
 21
215.2867768258
 31
0.0
  0
SPLINE
  5
2B1
330
1F
100
AcDbEntity
  8
0
  6
Continuous
 62
     7
370
    15
100
AcDbSpline
210
0.0
220
0.0
230
1.0
 70
     8
 71
     3
 72
    12
 73
     8
 74
     0
 42
0.00000001
 43
0.00000001
 40
0.0
 40
0.0
 40
0.0
 40
0.0
 40
0.2265836408367207
 40
0.4532328393752339
 40
0.6798762902129324
 40
0.906514421694783
 40
1.0
 40
1.0
 40
1.0
 40
1.0
 10
283.7636309943439
 20
203.0105237216289
 30
0.0
 10
283.7652948748639
 20
203.0051247603526
 30
0.0
 10
283.7686231173161
 20
202.9943252757124
 30
0.0
 10
283.7944737315055
 20
202.9781213329899
 30
0.0
 10
283.8321513233611
 20
202.9619247355993
 30
0.0
 10
283.8695213994978
 20
202.9488737103972
 30
0.0
 10
283.8920515693677
 20
202.9412787001042
 30
0.0
 10
283.8986310444119
 20
202.9390607327754
 30
0.0
  0
LINE
  5
2B2
330
1F
100
AcDbEntity
  8
0
  6
Continuous
 62
     7
370
    15
100
AcDbLine
 10
283.7636309943
 20
203.0105237216
 30
0.0
 11
283.8236305199
 21
203.0105237216
 31
0.0
  0
SPLINE
  5
2B3
330
1F
100
AcDbEntity
  8
0
  6
Continuous
 62
     7
370
    15
100
AcDbSpline
210
0.0
220
0.0
230
1.0
 70
     8
 71
     3
 72
    11
 73
     7
 74
     0
 42
0.00000001
 43
0.00000001
 40
0.0
 40
0.0
 40
0.0
 40
0.0
 40
0.2253848848507025
 40
0.4768386711842352
 40
0.7283407325644092
 40
1.0
 40
1.0
 40
1.0
 40
1.0
 10
283.823630519891
 20
203.0105237216289
 30
0.0
 10
283.8245484900109
 20
203.0051618463942
 30
0.0
 10
283.8264906062821
 20
202.9938179203645
 30
0.0
 10
283.8423738808298
 20
202.9764590163254
 30
0.0
 10
283.8673575895883
 20
202.9580125160523
 30
0.0
 10
283.8879421872438
 20
202.945538204026
 30
0.0
 10
283.8986310444119
 20
202.9390607327754
 30
0.0
  0
SPLINE
  5
2B4
330
1F
100
AcDbEntity
  8
0
  6
Continuous
 62
     7
370
    15
100
AcDbSpline
210
0.0
220
0.0
230
1.0
 70
     8
 71
     3
 72
    12
 73
     8
 74
     0
 42
0.00000001
 43
0.00000001
 40
0.0
 40
0.0
 40
0.0
 40
0.0
 40
0.2265869671055339
 40
0.4532296666649525
 40
0.6798721519811921
 40
0.9065097518861494
 40
1.0
 40
1.0
 40
1.0
 40
1.0
 10
283.8986310444119
 20
202.9390607327754
 30
0.0
 10
283.8932316077509
 20
202.9550790183243
 30
0.0
 10
283.8824314063567
 20
202.9871195293591
 30
0.0
 10
283.8662259899525
 20
203.0291985983482
 30
0.0
 10
283.8500342738427
 20
203.0597786318603
 30
0.0
 10
283.8369762055282
 20
203.0727618918619
 30
0.0
 10
283.8293838419447
 20
203.0737660407396
 30
0.0
 10
283.8271665654423
 20
203.0740592927272
 30
0.0
  0
SPLINE
  5
2B5
330
1F
100
AcDbEntity
  8
0
  6
Continuous
 62
     7
370
    15
100
AcDbSpline
210
0.0
220
0.0
230
1.0
 70
     8
 71
     3
 72
    11
 73
     7
 74
     0
 42
0.00000001
 43
0.00000001
 40
0.0
 40
0.0
 40
0.0
 40
0.0
 40
0.2253970836890077
 40
0.4768510517230145
 40
0.7283300694302083
 40
1.0
 40
1.0
 40
1.0
 40
1.0
 10
283.8986310444119
 20
202.9390607327754
 30
0.0
 10
283.8932678520231
 20
202.9479116049992
 30
0.0
 10
283.881921458852
 20
202.9666365488161
 30
0.0
 10
283.8645661326944
 20
202.9913130355068
 30
0.0
 10
283.846118959081
 20
203.0101632631558
 30
0.0
 10
283.8336445135648
 20
203.0127289187904
 30
0.0
 10
283.8271665654423
 20
203.0140612572963
 30
0.0
  0
LINE
  5
2B6
330
1F
100
AcDbEntity
  8
0
  6
Continuous
 62
     7
370
    15
100
AcDbLine
 10
283.8271665654
 20
203.0740592927
 30
0.0
 11
283.8271665654
 21
203.0140612573
 31
0.0
  0
LINE
  5
2B7
330
1F
100
AcDbEntity
  8
0
  6
Continuous
 62
     7
370
    15
100
AcDbLine
 10
309.4550947926
 20
203.0740592927
 30
0.0
 11
283.8271665654
 21
203.0740592927
 31
0.0
  0
SPLINE
  5
2B8
330
1F
100
AcDbEntity
  8
0
  6
Continuous
 62
     7
370
    15
100
AcDbSpline
210
0.0
220
0.0
230
1.0
 70
     8
 71
     3
 72
    12
 73
     8
 74
     0
 42
0.00000001
 43
0.00000001
 40
0.0
 40
0.0
 40
0.0
 40
0.0
 40
0.226586102010847
 40
0.4532313181517959
 40
0.6798740111721331
 40
0.9065216809340972
 40
1.0
 40
1.0
 40
1.0
 40
1.0
 10
309.4550947926285
 20
203.0740592927272
 30
0.0
 10
309.449695201349
 20
203.0723953206071
 30
0.0
 10
309.4388946100885
 20
203.0690669422527
 30
0.0
 10
309.4226914075
 20
203.0432183665199
 30
0.0
 10
309.4064964293526
 20
203.0055395081685
 30
0.0
 10
309.3934425730571
 20
202.968170149015
 30
0.0
 10
309.3858479731399
 20
202.9456397244521
 30
0.0
 10
309.3836303136589
 20
202.9390607327754
 30
0.0
  0
SPLINE
  5
2B9
330
1F
100
AcDbEntity
  8
0
  6
Continuous
 62
     7
370
    15
100
AcDbSpline
210
0.0
220
0.0
230
1.0
 70
     8
 71
     3
 72
    12
 73
     8
 74
     0
 42
0.00000001
 43
0.00000001
 40
0.0
 40
0.0
 40
0.0
 40
0.0
 40
0.2265910757461345
 40
0.453230844303759
 40
0.679876798606547
 40
0.9065097167720533
 40
1.0
 40
1.0
 40
1.0
 40
1.0
 10
283.8986310444119
 20
176.4290603176291
 30
0.0
 10
283.8826122095455
 20
176.4236608992778
 30
0.0
 10
283.850571097479
 20
176.4128609022789
 30
0.0
 10
283.8084917100083
 20
176.3966565121856
 30
0.0
 10
283.7779096387092
 20
176.3804632108632
 30
0.0
 10
283.7649285402325
 20
176.3674063764861
 30
0.0
 10
283.7639242824912
 20
176.3598133436349
 30
0.0
 10
283.7636309943439
 20
176.3575958386595
 30
0.0
  0
LINE
  5
2BA
330
1F
100
AcDbEntity
  8
0
  6
Continuous
 62
     7
370
    15
100
AcDbLine
 10
283.7636309943
 20
203.0105237216
 30
0.0
 11
283.7636309943
 21
176.3575958387
 31
0.0
  0
SPLINE
  5
2BB
330
1F
100
AcDbEntity
  8
0
  6
Continuous
 62
     7
370
    15
100
AcDbSpline
210
0.0
220
0.0
230
1.0
 70
     8
 71
     3
 72
    12
 73
     8
 74
     0
 42
0.00000001
 43
0.00000001
 40
0.0
 40
0.0
 40
0.0
 40
0.0
 40
0.2265868757330352
 40
0.453231238493099
 40
0.6798767998464553
 40
0.9065123273988049
 40
1.0
 40
1.0
 40
1.0
 40
1.0
 10
309.3836303136589
 20
202.9390607327754
 30
0.0
 10
309.3996488811658
 20
202.944459583791
 30
0.0
 10
309.431690080227
 20
202.9552586555569
 30
0.0
 10
309.4737696716322
 20
202.97146403346
 30
0.0
 10
309.5043506193675
 20
202.9876574478368
 30
0.0
 10
309.5173328257072
 20
203.0007164684501
 30
0.0
 10
309.5183370836959
 20
203.0083070069952
 30
0.0
 10
309.5186303637268
 20
203.0105237216289
 30
0.0
  0
LINE
  5
2BC
330
1F
100
AcDbEntity
  8
0
  6
Continuous
 62
     7
370
    15
100
AcDbLine
 10
309.5186303637
 20
176.3575958387
 30
0.0
 11
309.5186303637
 21
203.0105237216
 31
0.0
  0
SPLINE
  5
2BD
330
1F
100
AcDbEntity
  8
0
  6
Continuous
 62
     7
370
    15
100
AcDbSpline
210
0.0
220
0.0
230
1.0
 70
     8
 71
     3
 72
    12
 73
     8
 74
     0
 42
0.00000001
 43
0.00000001
 40
0.0
 40
0.0
 40
0.0
 40
0.0
 40
0.2265860227931606
 40
0.4532343598613062
 40
0.6798742192122014
 40
0.9065157811692809
 40
1.0
 40
1.0
 40
1.0
 40
1.0
 10
309.5186303637268
 20
176.3575958386595
 30
0.0
 10
309.5169662021634
 20
176.3629953531176
 30
0.0
 10
309.5136374213691
 20
176.3737958669747
 30
0.0
 10
309.4877870523098
 20
176.3899991149744
 30
0.0
 10
309.4501093077866
 20
176.4061937966064
 30
0.0
 10
309.4127405755517
 20
176.4192490329174
 30
0.0
 10
309.3902098211551
 20
176.4268427690015
 30
0.0
 10
309.3836303136589
 20
176.4290603176291
 30
0.0
  0
SPLINE
  5
2BE
330
1F
100
AcDbEntity
  8
0
  6
Continuous
 62
     7
370
    15
100
AcDbSpline
210
0.0
220
0.0
230
1.0
 70
     8
 71
     3
 72
    11
 73
     7
 74
     0
 42
0.00000001
 43
0.00000001
 40
0.0
 40
0.0
 40
0.0
 40
0.0
 40
0.22540250944306
 40
0.4768438737902694
 40
0.7283376475070714
 40
1.0
 40
1.0
 40
1.0
 40
1.0
 10
309.3836303136589
 20
202.9390607327754
 30
0.0
 10
309.3924815250683
 20
202.9444239641167
 30
0.0
 10
309.4112064538483
 20
202.9557699957786
 30
0.0
 10
309.4358819900348
 20
202.9731244108056
 30
0.0
 10
309.4547350087267
 20
202.9915727297216
 30
0.0
 10
309.4572987856367
 20
203.004046430044
 30
0.0
 10
309.4586300931218
 20
203.0105237216289
 30
0.0
  0
LINE
  5
2BF
330
1F
100
AcDbEntity
  8
0
  6
Continuous
 62
     7
370
    15
100
AcDbLine
 10
309.5186303637
 20
203.0105237216
 30
0.0
 11
309.4586300931
 21
203.0105237216
 31
0.0
  0
LINE
  5
2C0
330
1F
100
AcDbEntity
  8
0
  6
Continuous
 62
     7
370
    15
100
AcDbLine
 10
309.4550947926
 20
203.0740592927
 30
0.0
 11
309.4550947926
 21
203.0140612573
 31
0.0
  0
SPLINE
  5
2C1
330
1F
100
AcDbEntity
  8
0
  6
Continuous
 62
     7
370
    15
100
AcDbSpline
210
0.0
220
0.0
230
1.0
 70
     8
 71
     3
 72
    11
 73
     7
 74
     0
 42
0.00000001
 43
0.00000001
 40
0.0
 40
0.0
 40
0.0
 40
0.0
 40
0.2253926956229693
 40
0.4768449238741375
 40
0.7283358787412668
 40
1.0
 40
1.0
 40
1.0
 40
1.0
 10
309.4550947926285
 20
203.0140612572963
 30
0.0
 10
309.4497319016642
 20
203.013143493807
 30
0.0
 10
309.438386071106
 20
203.0112018565237
 30
0.0
 10
309.421030154029
 20
202.9953159463438
 30
0.0
 10
309.4025832946871
 20
202.9703337931091
 30
0.0
 10
309.3901083214287
 20
202.9497496649031
 30
0.0
 10
309.3836303136589
 20
202.9390607327754
 30
0.0
  0
SPLINE
  5
2C2
330
1F
100
AcDbEntity
  8
0
  6
Continuous
 62
     7
370
    15
100
AcDbSpline
210
0.0
220
0.0
230
1.0
 70
     8
 71
     3
 72
    11
 73
     7
 74
     0
 42
0.00000001
 43
0.00000001
 40
0.0
 40
0.0
 40
0.0
 40
0.0
 40
0.225402964845241
 40
0.4768448599556003
 40
0.728336213100441
 40
1.0
 40
1.0
 40
1.0
 40
1.0
 10
283.8986310444119
 20
176.4290603176291
 30
0.0
 10
283.8897794950524
 20
176.4236973465819
 30
0.0
 10
283.8710538504383
 20
176.4123518650367
 30
0.0
 10
283.8463791582955
 20
176.3949955689029
 30
0.0
 10
283.8275242555978
 20
176.3765488106118
 30
0.0
 10
283.824961372682
 20
176.3640738375584
 30
0.0
 10
283.823630519891
 20
176.3575958386595
 30
0.0
  0
LINE
  5
2C3
330
1F
100
AcDbEntity
  8
0
  6
Continuous
 62
     7
370
    15
100
AcDbLine
 10
283.7636309943
 20
176.3575958387
 30
0.0
 11
283.8236305199
 21
176.3575958387
 31
0.0
  0
SPLINE
  5
2C4
330
1F
100
AcDbEntity
  8
0
  6
Continuous
 62
     7
370
    15
100
AcDbSpline
210
0.0
220
0.0
230
1.0
 70
     8
 71
     3
 72
    12
 73
     8
 74
     0
 42
0.00000001
 43
0.00000001
 40
0.0
 40
0.0
 40
0.0
 40
0.0
 40
0.2265839949314096
 40
0.4532335299696547
 40
0.6798750679267607
 40
0.9065160292385994
 40
1.0
 40
1.0
 40
1.0
 40
1.0
 10
283.8271665654423
 20
176.2940602675612
 30
0.0
 10
283.8325655205416
 20
176.2957243610817
 30
0.0
 10
283.8433649924041
 20
176.2990530294669
 30
0.0
 10
283.8595689733605
 20
176.3249037136798
 30
0.0
 10
283.8757652307084
 20
176.3625811187143
 30
0.0
 10
283.8888180352392
 20
176.3999507227331
 30
0.0
 10
283.8964131060254
 20
176.4224809608999
 30
0.0
 10
283.8986310444119
 20
176.4290603176291
 30
0.0
  0
LINE
  5
2C5
330
1F
100
AcDbEntity
  8
0
  6
Continuous
 62
     7
370
    15
100
AcDbLine
 10
283.8271665654
 20
176.2940602676
 30
0.0
 11
283.8271665654
 21
176.3540603519
 31
0.0
  0
SPLINE
  5
2C6
330
1F
100
AcDbEntity
  8
0
  6
Continuous
 62
     7
370
    15
100
AcDbSpline
210
0.0
220
0.0
230
1.0
 70
     8
 71
     3
 72
    11
 73
     7
 74
     0
 42
0.00000001
 43
0.00000001
 40
0.0
 40
0.0
 40
0.0
 40
0.0
 40
0.2253902683187418
 40
0.4768393015559781
 40
0.7283410580775262
 40
0.9999999999999999
 40
0.9999999999999999
 40
0.9999999999999999
 40
0.9999999999999999
 10
283.8271665654423
 20
176.3540603519018
 30
0.0
 10
283.8325291353403
 20
176.3549782244294
 30
0.0
 10
283.8438742750565
 20
176.3569200904126
 30
0.0
 10
283.8612309562537
 20
176.3728043874631
 30
0.0
 10
283.8796775457043
 20
176.3977879637574
 30
0.0
 10
283.892152986821
 20
176.4183718367049
 30
0.0
 10
283.8986310444119
 20
176.4290603176291
 30
0.0
  0
SPLINE
  5
2C7
330
1F
100
AcDbEntity
  8
0
  6
Continuous
 62
     7
370
    15
100
AcDbSpline
210
0.0
220
0.0
230
1.0
 70
     8
 71
     3
 72
    12
 73
     8
 74
     0
 42
0.00000001
 43
0.00000001
 40
0.0
 40
0.0
 40
0.0
 40
0.0
 40
0.2265872212213358
 40
0.4532309504871077
 40
0.6798746986259009
 40
0.9065091635156095
 40
1.0
 40
1.0
 40
1.0
 40
1.0
 10
309.3836303136589
 20
176.4290603176291
 30
0.0
 10
309.3890298700222
 20
176.4130419470448
 30
0.0
 10
309.3998303293312
 20
176.3810012110931
 30
0.0
 10
309.4160339921685
 20
176.3389210820251
 30
0.0
 10
309.432227692518
 20
176.3083404480433
 30
0.0
 10
309.4452839010643
 20
176.2953580026353
 30
0.0
 10
309.4528772087988
 20
176.2943535983249
 30
0.0
 10
309.4550947926285
 20
176.2940602675612
 30
0.0
  0
LINE
  5
2C8
330
1F
100
AcDbEntity
  8
0
  6
Continuous
 62
     7
370
    15
100
AcDbLine
 10
283.8271665654
 20
176.2940602676
 30
0.0
 11
309.4550947926
 21
176.2940602676
 31
0.0
  0
SPLINE
  5
2C9
330
1F
100
AcDbEntity
  8
0
  6
Continuous
 62
     7
370
    15
100
AcDbSpline
210
0.0
220
0.0
230
1.0
 70
     8
 71
     3
 72
    11
 73
     7
 74
     0
 42
0.00000001
 43
0.00000001
 40
0.0
 40
0.0
 40
0.0
 40
0.0
 40
0.2254011492230901
 40
0.4768428397235325
 40
0.7283336202453361
 40
1.0
 40
1.0
 40
1.0
 40
1.0
 10
309.3836303136589
 20
176.4290603176291
 30
0.0
 10
309.3889934651382
 20
176.4202090600556
 30
0.0
 10
309.4003393717145
 20
176.4014839612218
 30
0.0
 10
309.4176951753236
 20
176.3768092252893
 30
0.0
 10
309.4361419163616
 20
176.3579550633189
 30
0.0
 10
309.4486168022041
 20
176.3553915431632
 30
0.0
 10
309.4550947926285
 20
176.3540603519018
 30
0.0
  0
LINE
  5
2CA
330
1F
100
AcDbEntity
  8
0
  6
Continuous
 62
     7
370
    15
100
AcDbLine
 10
309.4550947926
 20
176.2940602676
 30
0.0
 11
309.4550947926
 21
176.3540603519
 31
0.0
  0
LINE
  5
2CB
330
1F
100
AcDbEntity
  8
0
  6
Continuous
 62
     7
370
    15
100
AcDbLine
 10
309.5186303637
 20
176.3575958387
 30
0.0
 11
309.4586300931
 21
176.3575958387
 31
0.0
  0
SPLINE
  5
2CC
330
1F
100
AcDbEntity
  8
0
  6
Continuous
 62
     7
370
    15
100
AcDbSpline
210
0.0
220
0.0
230
1.0
 70
     8
 71
     3
 72
    11
 73
     7
 74
     0
 42
0.00000001
 43
0.00000001
 40
0.0
 40
0.0
 40
0.0
 40
0.0
 40
0.2253945303527962
 40
0.4768402476309198
 40
0.7283399022683277
 40
0.9999999999999999
 40
0.9999999999999999
 40
0.9999999999999999
 40
0.9999999999999999
 10
309.4586300931218
 20
176.3575958386595
 30
0.0
 10
309.4577122289655
 20
176.3629588710228
 30
0.0
 10
309.455770413559
 20
176.3743047971025
 30
0.0
 10
309.4398865160776
 20
176.3916607720078
 30
0.0
 10
309.4149026563297
 20
176.4101068160365
 30
0.0
 10
309.3943188334098
 20
176.4225822331998
 30
0.0
 10
309.3836303136589
 20
176.4290603176291
 30
0.0
  0
LINE
  5
2CD
330
1F
100
AcDbEntity
  8
0
  6
Continuous
 62
     7
370
    15
100
AcDbLine
 10
307.1036304615
 20
206.3767765016
 30
0.0
 11
307.1036304615
 21
206.6467766017
 31
0.0
  0
LINE
  5
2CE
330
1F
100
AcDbEntity
  8
0
  6
Continuous
 62
     7
370
    15
100
AcDbLine
 10
307.0636305294
 20
206.6467766017
 30
0.0
 11
307.1036304615
 21
206.6467766017
 31
0.0
  0
LINE
  5
2CF
330
1F
100
AcDbEntity
  8
0
  6
Continuous
 62
     7
370
    15
100
AcDbLine
 10
307.1036304615
 20
206.6467766017
 30
0.0
 11
307.1036304615
 21
206.7260925025
 31
0.0
  0
LINE
  5
2D0
330
1F
100
AcDbEntity
  8
0
  6
Continuous
 62
     7
370
    15
100
AcDbLine
 10
286.1786301515
 20
206.6467766017
 30
0.0
 11
286.1786301515
 21
206.3767765016
 31
0.0
  0
LINE
  5
2D1
330
1F
100
AcDbEntity
  8
0
  6
Continuous
 62
     7
370
    15
100
AcDbLine
 10
286.1786301515
 20
206.6467766017
 30
0.0
 11
286.2186300836
 21
206.6467766017
 31
0.0
  0
LINE
  5
2D2
330
1F
100
AcDbEntity
  8
0
  6
Continuous
 62
     7
370
    15
100
AcDbLine
 10
286.1786301515
 20
206.7260925025
 30
0.0
 11
286.1786301515
 21
206.6467766017
 31
0.0
  0
SPLINE
  5
2D3
330
1F
100
AcDbEntity
  8
0
  6
Continuous
 62
     7
370
    15
100
AcDbSpline
210
0.0
220
0.0
230
1.0
 70
     8
 71
     3
 72
    12
 73
     8
 74
     0
 42
0.00000001
 43
0.00000001
 40
0.0
 40
0.0
 40
0.0
 40
0.0
 40
0.2265869690609704
 40
0.4532275244840412
 40
0.679872157830169
 40
0.906507613550444
 40
1.0
 40
1.0
 40
1.0
 40
1.0
 10
283.9011299691441
 20
215.151778265887
 30
0.0
 10
283.8957303208166
 20
215.167796500776
 30
0.0
 10
283.8849297471795
 20
215.1998367587638
 30
0.0
 10
283.8687275067645
 20
215.2419166162151
 30
0.0
 10
283.8525317926912
 20
215.2724958092974
 30
0.0
 10
283.8394776944782
 20
215.2854795263673
 30
0.0
 10
283.8318833855607
 20
215.2864835915743
 30
0.0
 10
283.8296654901745
 20
215.2867768258388
 30
0.0
  0
SPLINE
  5
2D4
330
1F
100
AcDbEntity
  8
0
  6
Continuous
 62
     7
370
    15
100
AcDbSpline
210
0.0
220
0.0
230
1.0
 70
     8
 71
     3
 72
    12
 73
     8
 74
     0
 42
0.00000001
 43
0.00000001
 40
0.0
 40
0.0
 40
0.0
 40
0.0
 40
0.2265868718287413
 40
0.453239307392635
 40
0.6798729235559359
 40
0.9065213633449685
 40
1.0
 40
1.0
 40
1.0
 40
1.0
 10
309.4525951228383
 20
215.2867768258388
 30
0.0
 10
309.4471954578405
 20
215.2851131326367
 30
0.0
 10
309.4363945654324
 20
215.2817852648369
 30
0.0
 10
309.4201925499375
 20
215.2559323363143
 30
0.0
 10
309.4039962152445
 20
215.2182571618023
 30
0.0
 10
309.390942930731
 20
215.1808876116509
 30
0.0
 10
309.3833483095568
 20
215.1583572416355
 30
0.0
 10
309.3811306438686
 20
215.151778265887
 30
0.0
  0
SPLINE
  5
2D5
330
1F
100
AcDbEntity
  8
0
  6
Continuous
 62
     7
370
    15
100
AcDbSpline
210
0.0
220
0.0
230
1.0
 70
     8
 71
     3
 72
    11
 73
     7
 74
     0
 42
0.00000001
 43
0.00000001
 40
0.0
 40
0.0
 40
0.0
 40
0.0
 40
0.2253925421025703
 40
0.4768319540068381
 40
0.7283287248983473
 40
0.9999999999999999
 40
0.9999999999999999
 40
0.9999999999999999
 40
0.9999999999999999
 10
283.9011299691441
 20
215.151778265887
 30
0.0
 10
283.8957674662589
 20
215.1606293806024
 30
0.0
 10
283.8844227575775
 20
215.1793544647844
 30
0.0
 10
283.8670653882919
 20
215.2040272916569
 30
0.0
 10
283.8486182990424
 20
215.2228814549366
 30
0.0
 10
283.8361434456747
 20
215.2254467047034
 30
0.0
 10
283.8296654901745
 20
215.2267787904078
 30
0.0
  0
LINE
  5
2D6
330
1F
100
AcDbEntity
  8
0
  6
Continuous
 62
     7
370
    15
100
AcDbLine
 10
283.8296654902
 20
215.2867768258
 30
0.0
 11
283.8296654902
 21
215.2267787904
 31
0.0
  0
SPLINE
  5
2D7
330
1F
100
AcDbEntity
  8
0
  6
Continuous
 62
     7
370
    15
100
AcDbSpline
210
0.0
220
0.0
230
1.0
 70
     8
 71
     3
 72
    12
 73
     8
 74
     0
 42
0.00000001
 43
0.00000001
 40
0.0
 40
0.0
 40
0.0
 40
0.0
 40
0.2265856918929861
 40
0.4532358199298992
 40
0.6798752767903147
 40
0.9065246338343941
 40
1.0
 40
1.0
 40
1.0
 40
1.0
 10
283.7661299190762
 20
215.2232412547405
 30
0.0
 10
283.7677944085839
 20
215.217842322414
 30
0.0
 10
283.7711238609448
 20
215.2070429224199
 30
0.0
 10
283.7969739565182
 20
215.1908387161413
 30
0.0
 10
283.8346513593917
 20
215.1746432402704
 30
0.0
 10
283.8720197854479
 20
215.1615869059833
 30
0.0
 10
283.8945509447433
 20
215.1539950599548
 30
0.0
 10
283.9011299691441
 20
215.151778265887
 30
0.0
  0
LINE
  5
2D8
330
1F
100
AcDbEntity
  8
0
  6
Continuous
 62
     7
370
    15
100
AcDbLine
 10
283.7661299191
 20
215.2232412547
 30
0.0
 11
283.8261309347
 21
215.2232412547
 31
0.0
  0
SPLINE
  5
2D9
330
1F
100
AcDbEntity
  8
0
  6
Continuous
 62
     7
370
    15
100
AcDbSpline
210
0.0
220
0.0
230
1.0
 70
     8
 71
     3
 72
    11
 73
     7
 74
     0
 42
0.00000001
 43
0.00000001
 40
0.0
 40
0.0
 40
0.0
 40
0.0
 40
0.2253982433019351
 40
0.4768429860863798
 40
0.7283473290084227
 40
1.0
 40
1.0
 40
1.0
 40
1.0
 10
283.8261309347393
 20
215.2232412547405
 30
0.0
 10
283.8270487569125
 20
215.2178779963733
 30
0.0
 10
283.8289904626657
 20
215.2065317139113
 30
0.0
 10
283.8448748471948
 20
215.1891772062397
 30
0.0
 10
283.8698577497268
 20
215.1707301596483
 30
0.0
 10
283.8904416470289
 20
215.1582557065352
 30
0.0
 10
283.9011299691441
 20
215.151778265887
 30
0.0
  0
SPLINE
  5
2DA
330
1F
100
AcDbEntity
  8
0
  6
Continuous
 62
     7
370
    15
100
AcDbSpline
210
0.0
220
0.0
230
1.0
 70
     8
 71
     3
 72
    12
 73
     8
 74
     0
 42
0.00000001
 43
0.00000001
 40
0.0
 40
0.0
 40
0.0
 40
0.0
 40
0.2265873935197475
 40
0.4532338249699628
 40
0.6798724442097599
 40
0.9065083239559727
 40
1.0
 40
1.0
 40
1.0
 40
1.0
 10
283.9011299691441
 20
203.3017788380916
 30
0.0
 10
283.8851117733699
 20
203.2963787744698
 30
0.0
 10
283.8530712082393
 20
203.2855772402256
 30
0.0
 10
283.8109908969398
 20
203.2693723114166
 30
0.0
 10
283.7804104610098
 20
203.2531821127162
 30
0.0
 10
283.7674272702215
 20
203.2401248629717
 30
0.0
 10
283.7664231634992
 20
203.2325307053408
 30
0.0
 10
283.7661299190762
 20
203.2303128690059
 30
0.0
  0
LINE
  5
2DB
330
1F
100
AcDbEntity
  8
0
  6
Continuous
 62
     7
370
    15
100
AcDbLine
 10
283.7661299191
 20
215.2232412547
 30
0.0
 11
283.7661299191
 21
203.230312869
 31
0.0
  0
ARC
  5
2DC
330
1F
100
AcDbEntity
  8
0
  6
Continuous
 62
     7
370
    15
100
AcDbCircle
 10
307.2636304189
 20
206.496777406
 30
0.0
 40
0.2000000000000455
100
AcDbArc
 50
180.0
 51
0.0
  0
LINE
  5
2DD
330
1F
100
AcDbEntity
  8
0
  6
Continuous
 62
     7
370
    15
100
AcDbLine
 10
307.463630595
 20
206.4967785329
 30
0.0
 11
307.463630595
 21
206.7401234359
 31
0.0
  0
LINE
  5
2DE
330
1F
100
AcDbEntity
  8
0
  6
Continuous
 62
     7
370
    15
100
AcDbLine
 10
307.0636305294
 20
206.7423913926
 30
0.0
 11
307.0636305294
 21
206.4967785329
 31
0.0
  0
ARC
  5
2DF
330
1F
100
AcDbEntity
  8
0
  6
Continuous
 62
     7
370
    15
100
AcDbCircle
 10
286.0186304189
 20
206.496777406
 30
0.0
 40
0.2000000000000455
100
AcDbArc
 50
180.0
 51
0.0
  0
LINE
  5
2E0
330
1F
100
AcDbEntity
  8
0
  6
Continuous
 62
     7
370
    15
100
AcDbLine
 10
286.2186300836
 20
206.4967785329
 30
0.0
 11
286.2186300836
 21
206.7423913926
 31
0.0
  0
LINE
  5
2E1
330
1F
100
AcDbEntity
  8
0
  6
Continuous
 62
     7
370
    15
100
AcDbLine
 10
285.8186307631
 20
206.7401234359
 30
0.0
 11
285.8186307631
 21
206.4967785329
 31
0.0
  0
SPLINE
  5
2E2
330
1F
100
AcDbEntity
  8
0
  6
Continuous
 62
     7
370
    15
100
AcDbSpline
210
0.0
220
0.0
230
1.0
 70
     8
 71
     3
 72
    11
 73
     7
 74
     0
 42
0.00000001
 43
0.00000001
 40
0.0
 40
0.0
 40
0.0
 40
0.0
 40
0.2253960280850593
 40
0.4768465806535487
 40
0.7283296044435748
 40
1.0
 40
1.0
 40
1.0
 40
1.0
 10
283.9011299691441
 20
203.3017788380916
 30
0.0
 10
283.892278893314
 20
203.2964158570869
 30
0.0
 10
283.8735536066242
 20
203.2850699643669
 30
0.0
 10
283.8488805194598
 20
203.2677109159942
 30
0.0
 10
283.8300241283916
 20
203.2492680234669
 30
0.0
 10
283.8274616264469
 20
203.2367917316339
 30
0.0
 10
283.8261309347393
 20
203.2303128690059
 30
0.0
  0
LINE
  5
2E3
330
1F
100
AcDbEntity
  8
0
  6
Continuous
 62
     7
370
    15
100
AcDbLine
 10
283.7661299191
 20
203.230312869
 30
0.0
 11
283.8261309347
 21
203.230312869
 31
0.0
  0
SPLINE
  5
2E4
330
1F
100
AcDbEntity
  8
0
  6
Continuous
 62
     7
370
    15
100
AcDbSpline
210
0.0
220
0.0
230
1.0
 70
     8
 71
     3
 72
    12
 73
     8
 74
     0
 42
0.00000001
 43
0.00000001
 40
0.0
 40
0.0
 40
0.0
 40
0.0
 40
0.2265966115902627
 40
0.4532354131528915
 40
0.679876146531363
 40
0.906509848478949
 40
1.0
 40
1.0
 40
1.0
 40
1.0
 10
309.3811306438686
 20
203.3017788380916
 30
0.0
 10
309.3865301067298
 20
203.2857595227936
 30
0.0
 10
309.397330037777
 20
203.253717909565
 30
0.0
 10
309.4135344664206
 20
203.211637770123
 30
0.0
 10
309.4297280997927
 20
203.1810581310681
 30
0.0
 10
309.4427842021958
 20
203.1680746485697
 30
0.0
 10
309.4503775372478
 20
203.1670705411453
 30
0.0
 10
309.4525951228383
 20
203.1667772979075
 30
0.0
  0
LINE
  5
2E5
330
1F
100
AcDbEntity
  8
0
  6
Continuous
 62
     7
370
    15
100
AcDbLine
 10
283.8296654902
 20
203.1667772979
 30
0.0
 11
309.4525951228
 21
203.1667772979
 31
0.0
  0
SPLINE
  5
2E6
330
1F
100
AcDbEntity
  8
0
  6
Continuous
 62
     7
370
    15
100
AcDbSpline
210
0.0
220
0.0
230
1.0
 70
     8
 71
     3
 72
    12
 73
     8
 74
     0
 42
0.00000001
 43
0.00000001
 40
0.0
 40
0.0
 40
0.0
 40
0.0
 40
0.2265844963544403
 40
0.4532356287616091
 40
0.6798756427213731
 40
0.9065107713231263
 40
1.0
 40
1.0
 40
1.0
 40
1.0
 10
283.8296654901745
 20
203.1667772979075
 30
0.0
 10
283.8350650151286
 20
203.1684410596523
 30
0.0
 10
283.8458656529788
 20
203.171769072436
 30
0.0
 10
283.8620700045366
 20
203.197621396279
 30
0.0
 10
283.8782623376518
 20
203.2352997798943
 30
0.0
 10
283.8913203222265
 20
203.2726675346678
 30
0.0
 10
283.8989126910975
 20
203.2951987996323
 30
0.0
 10
283.9011299691441
 20
203.3017788380916
 30
0.0
  0
LINE
  5
2E7
330
1F
100
AcDbEntity
  8
0
  6
Continuous
 62
     7
370
    15
100
AcDbLine
 10
283.8296654902
 20
203.1667772979
 30
0.0
 11
283.8296654902
 21
203.2267783136
 31
0.0
  0
SPLINE
  5
2E8
330
1F
100
AcDbEntity
  8
0
  6
Continuous
 62
     7
370
    15
100
AcDbSpline
210
0.0
220
0.0
230
1.0
 70
     8
 71
     3
 72
    11
 73
     7
 74
     0
 42
0.00000001
 43
0.00000001
 40
0.0
 40
0.0
 40
0.0
 40
0.0
 40
0.2253943227444625
 40
0.4768354976748041
 40
0.7283373268174956
 40
1.0
 40
1.0
 40
1.0
 40
1.0
 10
283.8296654901745
 20
203.2267783135707
 30
0.0
 10
283.8350285681995
 20
203.2276963187445
 30
0.0
 10
283.8463744883096
 20
203.2296384149278
 30
0.0
 10
283.8637321753731
 20
203.2455197176998
 30
0.0
 10
283.8821760412078
 20
203.2705062473721
 30
0.0
 10
283.8946517372855
 20
203.2910902307389
 30
0.0
 10
283.9011299691441
 20
203.3017788380916
 30
0.0
  0
SPLINE
  5
2E9
330
1F
100
AcDbEntity
  8
0
  6
Continuous
 62
     7
370
    15
100
AcDbSpline
210
0.0
220
0.0
230
1.0
 70
     8
 71
     3
 72
    12
 73
     8
 74
     0
 42
0.00000001
 43
0.00000001
 40
0.0
 40
0.0
 40
0.0
 40
0.0
 40
0.2265844163010741
 40
0.4532294370321649
 40
0.6798756563600279
 40
0.9065075497422821
 40
1.0
 40
1.0
 40
1.0
 40
1.0
 10
309.3811306438686
 20
215.151778265887
 30
0.0
 10
309.3971489497661
 20
215.1571771756107
 30
0.0
 10
309.42918984597
 20
215.1679764391021
 30
0.0
 10
309.4712692359037
 20
215.1841810847685
 30
0.0
 10
309.5018501073344
 20
215.2003766297103
 30
0.0
 10
309.514832060056
 20
215.2134290023658
 30
0.0
 10
309.5158371554118
 20
215.2210233285571
 30
0.0
 10
309.5161306939365
 20
215.2232412547405
 30
0.0
  0
SPLINE
  5
2EA
330
1F
100
AcDbEntity
  8
0
  6
Continuous
 62
     7
370
    15
100
AcDbSpline
210
0.0
220
0.0
230
1.0
 70
     8
 71
     3
 72
    11
 73
     7
 74
     0
 42
0.00000001
 43
0.00000001
 40
0.0
 40
0.0
 40
0.0
 40
0.0
 40
0.2254027886327411
 40
0.4768405142078648
 40
0.7283373110186899
 40
1.0
 40
1.0
 40
1.0
 40
1.0
 10
309.3811306438686
 20
215.151778265887
 30
0.0
 10
309.3899819059323
 20
215.1571414652243
 30
0.0
 10
309.4087067867532
 20
215.1684873351903
 30
0.0
 10
309.4333814383866
 20
215.1858422734038
 30
0.0
 10
309.4522355501371
 20
215.2042900984653
 30
0.0
 10
309.4547991925747
 20
215.2167639290739
 30
0.0
 10
309.4561304233315
 20
215.2232412547405
 30
0.0
  0
LINE
  5
2EB
330
1F
100
AcDbEntity
  8
0
  6
Continuous
 62
     7
370
    15
100
AcDbLine
 10
309.5161306939
 20
215.2232412547
 30
0.0
 11
309.4561304233
 21
215.2232412547
 31
0.0
  0
LINE
  5
2EC
330
1F
100
AcDbEntity
  8
0
  6
Continuous
 62
     7
370
    15
100
AcDbLine
 10
309.4525951228
 20
215.2867768258
 30
0.0
 11
309.4525951228
 21
215.2267787904
 31
0.0
  0
SPLINE
  5
2ED
330
1F
100
AcDbEntity
  8
0
  6
Continuous
 62
     7
370
    15
100
AcDbSpline
210
0.0
220
0.0
230
1.0
 70
     8
 71
     3
 72
    11
 73
     7
 74
     0
 42
0.00000001
 43
0.00000001
 40
0.0
 40
0.0
 40
0.0
 40
0.0
 40
0.2253962178536499
 40
0.4768463889175829
 40
0.7283531637025421
 40
1.0
 40
1.0
 40
1.0
 40
1.0
 10
309.4525951228383
 20
215.2267787904078
 30
0.0
 10
309.4472319181168
 20
215.2258610253282
 30
0.0
 10
309.4358855662178
 20
215.2239194090567
 30
0.0
 10
309.4185298363092
 20
215.2080335598093
 30
0.0
 10
309.4000850662079
 20
215.1830487347683
 30
0.0
 10
309.3876088848904
 20
215.1624658843567
 30
0.0
 10
309.3811306438686
 20
215.151778265887
 30
0.0
  0
LINE
  5
2EE
330
1F
100
AcDbEntity
  8
0
  6
Continuous
 62
     7
370
    15
100
AcDbLine
 10
309.5161306939
 20
203.230312869
 30
0.0
 11
309.5161306939
 21
215.2232412547
 31
0.0
  0
SPLINE
  5
2EF
330
1F
100
AcDbEntity
  8
0
  6
Continuous
 62
     7
370
    15
100
AcDbSpline
210
0.0
220
0.0
230
1.0
 70
     8
 71
     3
 72
    12
 73
     8
 74
     0
 42
0.00000001
 43
0.00000001
 40
0.0
 40
0.0
 40
0.0
 40
0.0
 40
0.2265836957588392
 40
0.4532323881872553
 40
0.6798728712059265
 40
0.9065177905987918
 40
1.0
 40
1.0
 40
1.0
 40
1.0
 10
309.5161306939365
 20
203.2303128690059
 30
0.0
 10
309.5144665074995
 20
203.2357118114597
 30
0.0
 10
309.5111376572453
 20
203.246511245081
 30
0.0
 10
309.4852873237185
 20
203.2627153848198
 30
0.0
 10
309.4476096262981
 20
203.2789112246499
 30
0.0
 10
309.4102402927526
 20
203.2919657517582
 30
0.0
 10
309.3877098819111
 20
203.299560926389
 30
0.0
 10
309.3811306438686
 20
203.3017788380916
 30
0.0
  0
SPLINE
  5
2F0
330
1F
100
AcDbEntity
  8
0
  6
Continuous
 62
     7
370
    15
100
AcDbSpline
210
0.0
220
0.0
230
1.0
 70
     8
 71
     3
 72
    11
 73
     7
 74
     0
 42
0.00000001
 43
0.00000001
 40
0.0
 40
0.0
 40
0.0
 40
0.0
 40
0.2254104050785287
 40
0.47684338200357
 40
0.7283365482963442
 40
1.0
 40
1.0
 40
1.0
 40
1.0
 10
309.3811306438686
 20
203.3017788380916
 30
0.0
 10
309.3864933813555
 20
203.292926669004
 30
0.0
 10
309.3978379591675
 20
203.2742003895126
 30
0.0
 10
309.4151951777788
 20
203.2495268789447
 30
0.0
 10
309.4336421874318
 20
203.230672056047
 30
0.0
 10
309.4461171537371
 20
203.22810916512
 30
0.0
 10
309.4525951228383
 20
203.2267783135707
 30
0.0
  0
LINE
  5
2F1
330
1F
100
AcDbEntity
  8
0
  6
Continuous
 62
     7
370
    15
100
AcDbLine
 10
309.4525951228
 20
203.1667772979
 30
0.0
 11
309.4525951228
 21
203.2267783136
 31
0.0
  0
LINE
  5
2F2
330
1F
100
AcDbEntity
  8
0
  6
Continuous
 62
     7
370
    15
100
AcDbLine
 10
309.5161306939
 20
203.230312869
 30
0.0
 11
309.4561304233
 21
203.230312869
 31
0.0
  0
SPLINE
  5
2F3
330
1F
100
AcDbEntity
  8
0
  6
Continuous
 62
     7
370
    15
100
AcDbSpline
210
0.0
220
0.0
230
1.0
 70
     8
 71
     3
 72
    11
 73
     7
 74
     0
 42
0.00000001
 43
0.00000001
 40
0.0
 40
0.0
 40
0.0
 40
0.0
 40
0.2253951413027892
 40
0.4768388519841902
 40
0.728339733627008
 40
1.0
 40
1.0
 40
1.0
 40
1.0
 10
309.4561304233315
 20
203.2303128690059
 30
0.0
 10
309.4552126488385
 20
203.2356761343136
 30
0.0
 10
309.4532710340678
 20
203.2470224892414
 30
0.0
 10
309.4373857070029
 20
203.2643769349816
 30
0.0
 10
309.4124022200356
 20
203.2828237177814
 30
0.0
 10
309.3918188872371
 20
203.2953002091324
 30
0.0
 10
309.3811306438686
 20
203.3017788380916
 30
0.0
  0
LINE
  5
2F4
330
1F
100
AcDbEntity
  8
0
  6
Continuous
 62
     7
370
    15
100
AcDbLine
 10
283.8261309347
 20
203.230312869
 30
0.0
 11
283.8407266221
 21
203.230312869
 31
0.0
  0
LINE
  5
2F5
330
1F
100
AcDbEntity
  8
0
  6
Continuous
 62
     7
370
    15
100
AcDbLine
 10
283.8386136375
 20
215.2232412547
 30
0.0
 11
283.8261309347
 21
215.2232412547
 31
0.0
  0
LINE
  5
2F6
330
1F
100
AcDbEntity
  8
0
  6
Continuous
 62
     7
370
    15
100
AcDbLine
 10
309.4436477206
 20
203.230312869
 30
0.0
 11
309.4561304233
 21
203.230312869
 31
0.0
  0
LINE
  5
2F7
330
1F
100
AcDbEntity
  8
0
  6
Continuous
 62
     7
370
    15
100
AcDbLine
 10
309.4561304233
 20
215.2232412547
 30
0.0
 11
309.4415347359
 21
215.2232412547
 31
0.0
  0
LINE
  5
2F8
330
1F
100
AcDbEntity
  8
0
  6
Continuous
 62
     7
370
    15
100
AcDbLine
 10
308.6525949917
 20
203.0917767734
 30
0.0
 11
308.6525949917
 21
203.1667772979
 31
0.0
  0
LINE
  5
2F9
330
1F
100
AcDbEntity
  8
0
  6
Continuous
 62
     7
370
    15
100
AcDbLine
 10
284.6296656213
 20
203.1667772979
 30
0.0
 11
284.6296656213
 21
203.0917767734
 31
0.0
  0
LINE
  5
2FA
330
1F
100
AcDbEntity
  8
0
  6
Continuous
 62
     7
370
    15
100
AcDbLine
 10
308.6525949917
 20
203.0917767734
 30
0.0
 11
308.6525949917
 21
203.0740592927
 31
0.0
  0
LINE
  5
2FB
330
1F
100
AcDbEntity
  8
0
  6
Continuous
 62
     7
370
    15
100
AcDbLine
 10
284.6296656213
 20
203.0740592927
 30
0.0
 11
284.6296656213
 21
203.0917767734
 31
0.0
  0
SPLINE
  5
2FC
330
1F
100
AcDbEntity
  8
0
  6
Continuous
 62
     7
370
    15
100
AcDbSpline
210
0.0
220
0.0
230
1.0
 70
     8
 71
     3
 72
    11
 73
     7
 74
     0
 42
0.00000001
 43
0.00000001
 40
0.0
 40
0.0
 40
0.0
 40
0.0
 40
0.2499991567894938
 40
0.4999960126203664
 40
0.7500008432105062
 40
1.0
 40
1.0
 40
1.0
 40
1.0
 10
281.7496660433056
 20
215.2867768258388
 30
0.0
 10
281.7493714541886
 20
215.2847476408747
 30
0.0
 10
281.7487822786662
 20
215.2806892896227
 30
0.0
 10
281.7478992782928
 20
215.2494719947864
 30
0.0
 10
281.7470131452639
 20
215.2048488505069
 30
0.0
 10
281.7464243780305
 20
215.1694683269334
 30
0.0
 10
281.7461299977543
 20
215.151778265887
 30
0.0
  0
LINE
  5
2FD
330
1F
100
AcDbEntity
  8
0
  6
Continuous
 62
     7
370
    15
100
AcDbLine
 10
283.5961300216
 20
215.1517782659
 30
0.0
 11
283.5961300216
 21
215.2867768258
 31
0.0
  0
LINE
  5
2FE
330
1F
100
AcDbEntity
  8
0
  6
Continuous
 62
     7
370
    15
100
AcDbLine
 10
281.7461299978
 20
176.361777477
 30
0.0
 11
281.6111299477
 21
176.361777477
 31
0.0
  0
LINE
  5
2FF
330
1F
100
AcDbEntity
  8
0
  6
Continuous
 62
     7
370
    15
100
AcDbLine
 10
281.6111299477
 20
176.361777477
 30
0.0
 11
281.6111299477
 21
215.1517782659
 31
0.0
  0
LINE
  5
300
330
1F
100
AcDbEntity
  8
0
  6
Continuous
 62
     7
370
    15
100
AcDbLine
 10
281.6111299477
 20
215.1517782659
 30
0.0
 11
281.7461299978
 21
215.1517782659
 31
0.0
  0
SPLINE
  5
301
330
1F
100
AcDbEntity
  8
0
  6
Continuous
 62
     7
370
    15
100
AcDbSpline
210
0.0
220
0.0
230
1.0
 70
     8
 71
     3
 72
    11
 73
     7
 74
     0
 42
0.00000001
 43
0.00000001
 40
0.0
 40
0.0
 40
0.0
 40
0.0
 40
0.2500006403120789
 40
0.4999982563689978
 40
0.7500038283856414
 40
0.9999999999999999
 40
0.9999999999999999
 40
0.9999999999999999
 40
0.9999999999999999
 10
283.731130071664
 20
215.2267787904078
 30
0.0
 10
283.7291010685481
 20
215.2205279338565
 30
0.0
 10
283.7250430868609
 20
215.2080262963702
 30
0.0
 10
283.6938231616618
 20
215.1892793694506
 30
0.0
 10
283.649201178448
 20
215.1705263130648
 30
0.0
 10
283.6138201854839
 20
215.1580275366175
 30
0.0
 10
283.5961300215962
 20
215.151778265887
 30
0.0
  0
LINE
  5
302
330
1F
100
AcDbEntity
  8
0
  6
Continuous
 62
     7
370
    15
100
AcDbLine
 10
283.7311300717
 20
215.2264241428
 30
0.0
 11
283.7311300717
 21
215.2267787904
 31
0.0
  0
LINE
  5
303
330
1F
100
AcDbEntity
  8
0
  6
Continuous
 62
     7
370
    15
100
AcDbLine
 10
283.7311300717
 20
176.2871310413
 30
0.0
 11
283.7311300717
 21
215.2264241428
 31
0.0
  0
LINE
  5
304
330
1F
100
AcDbEntity
  8
0
  6
Continuous
 62
     7
370
    15
100
AcDbLine
 10
283.7311300717
 20
176.286777325
 30
0.0
 11
283.7311300717
 21
176.2871310413
 31
0.0
  0
SPLINE
  5
305
330
1F
100
AcDbEntity
  8
0
  6
Continuous
 62
     7
370
    15
100
AcDbSpline
210
0.0
220
0.0
230
1.0
 70
     8
 71
     3
 72
    12
 73
     8
 74
     0
 42
0.00000001
 43
0.00000001
 40
0.0
 40
0.0
 40
0.0
 40
0.0
 40
0.2277668660484583
 40
0.4555886324471034
 40
0.6834042613954293
 40
0.9112297154708774
 40
1.0
 40
1.0
 40
1.0
 40
1.0
 10
283.5961300215961
 20
176.3617774770195
 30
0.0
 10
283.6122314894696
 20
176.3560815601296
 30
0.0
 10
283.6444383062735
 20
176.3446883534203
 30
0.0
 10
283.6866728540566
 20
176.3275948387619
 30
0.0
 10
283.717247896322
 20
176.3105104374909
 30
0.0
 10
283.7299184821719
 20
176.2968685009993
 30
0.0
 10
283.7308647481346
 20
176.2889871712188
 30
0.0
 10
283.731130071664
 20
176.2867773250277
 30
0.0
  0
SPLINE
  5
306
330
1F
100
AcDbEntity
  8
0
  6
Continuous
 62
     7
370
    15
100
AcDbSpline
210
0.0
220
0.0
230
1.0
 70
     8
 71
     3
 72
    11
 73
     7
 74
     0
 42
0.00000001
 43
0.00000001
 40
0.0
 40
0.0
 40
0.0
 40
0.0
 40
0.2500124128939436
 40
0.5000023003317225
 40
0.7500062429804959
 40
1.0
 40
1.0
 40
1.0
 40
1.0
 10
283.671130546117
 20
215.2267787904078
 30
0.0
 10
283.6700036048302
 20
215.2205280756751
 30
0.0
 10
283.667749823791
 20
215.2080272093824
 30
0.0
 10
283.6504034800385
 20
215.1892789775677
 30
0.0
 10
283.6256138756594
 20
215.1705264072654
 30
0.0
 10
283.6059578394772
 20
215.1580275614737
 30
0.0
 10
283.5961300215962
 20
215.151778265887
 30
0.0
  0
LINE
  5
307
330
1F
100
AcDbEntity
  8
0
  6
Continuous
 62
     7
370
    15
100
AcDbLine
 10
283.6711305461
 20
215.2267787904
 30
0.0
 11
283.7311300717
 21
215.2267787904
 31
0.0
  0
LINE
  5
308
330
1F
100
AcDbEntity
  8
0
  6
Continuous
 62
     7
370
    15
100
AcDbLine
 10
283.5961300216
 20
176.226777427
 30
0.0
 11
283.5961300216
 21
176.361777477
 31
0.0
  0
LINE
  5
309
330
1F
100
AcDbEntity
  8
0
  6
Continuous
 62
     7
370
    15
100
AcDbLine
 10
281.7496660433
 20
176.226777427
 30
0.0
 11
283.5961300216
 21
176.226777427
 31
0.0
  0
SPLINE
  5
30A
330
1F
100
AcDbEntity
  8
0
  6
Continuous
 62
     7
370
    15
100
AcDbSpline
210
0.0
220
0.0
230
1.0
 70
     8
 71
     3
 72
    11
 73
     7
 74
     0
 42
0.00000001
 43
0.00000001
 40
0.0
 40
0.0
 40
0.0
 40
0.0
 40
0.2499984560120895
 40
0.5000011161537719
 40
0.7500011991606804
 40
1.0
 40
1.0
 40
1.0
 40
1.0
 10
281.7461299977543
 20
176.3617774770195
 30
0.0
 10
281.7464243770361
 20
176.3440873704234
 30
0.0
 10
281.7470131405501
 20
176.3087068597431
 30
0.0
 10
281.7478992913911
 20
176.2640842276317
 30
0.0
 10
281.7487822695946
 20
176.2328651293383
 30
0.0
 10
281.7493714525722
 20
176.2288066576114
 30
0.0
 10
281.7496660433056
 20
176.2267774269516
 30
0.0
  0
LINE
  5
30B
330
1F
100
AcDbEntity
  8
0
  6
Continuous
 62
     7
370
    15
100
AcDbLine
 10
283.6711305461
 20
176.286777325
 30
0.0
 11
283.7311300717
 21
176.286777325
 31
0.0
  0
SPLINE
  5
30C
330
1F
100
AcDbEntity
  8
0
  6
Continuous
 62
     7
370
    15
100
AcDbSpline
210
0.0
220
0.0
230
1.0
 70
     8
 71
     3
 72
    11
 73
     7
 74
     0
 42
0.00000001
 43
0.00000001
 40
0.0
 40
0.0
 40
0.0
 40
0.0
 40
0.2199808617492947
 40
0.4748008007079306
 40
0.7296997816805934
 40
1.0
 40
1.0
 40
1.0
 40
1.0
 10
283.5961300215962
 20
176.3617774770195
 30
0.0
 10
283.6047668496642
 20
176.3562858920344
 30
0.0
 10
283.623408348064
 20
176.3444330020723
 30
0.0
 10
283.6482358032425
 20
176.3261797169043
 30
0.0
 10
283.6672498500692
 20
176.3066818509098
 30
0.0
 10
283.6698119367432
 20
176.2935406206032
 30
0.0
 10
283.671130546117
 20
176.2867773250277
 30
0.0
  0
SPLINE
  5
30D
330
1F
100
AcDbEntity
  8
0
  6
Continuous
 62
     7
370
    15
100
AcDbSpline
210
0.0
220
0.0
230
1.0
 70
     8
 71
     3
 72
    11
 73
     7
 74
     0
 42
0.00000001
 43
0.00000001
 40
0.0
 40
0.0
 40
0.0
 40
0.0
 40
0.2500025541427819
 40
0.5000055931179835
 40
0.749998825254598
 40
1.0
 40
1.0
 40
1.0
 40
1.0
 10
281.6111299476864
 20
215.151778265887
 30
0.0
 10
281.6131596776548
 20
215.1694682509628
 30
0.0
 10
281.6172191415277
 20
215.2048482554207
 30
0.0
 10
281.6484368337856
 20
215.2494719004522
 30
0.0
 10
281.6930605593502
 20
215.2806895396818
 30
0.0
 10
281.7284399976141
 20
215.2847477089645
 30
0.0
 10
281.7461299977543
 20
215.2867768258388
 30
0.0
  0
LINE
  5
30E
330
1F
100
AcDbEntity
  8
0
  6
Continuous
 62
     7
370
    15
100
AcDbLine
 10
281.7461299978
 20
215.2867768258
 30
0.0
 11
281.7461299978
 21
215.2267787904
 31
0.0
  0
SPLINE
  5
30F
330
1F
100
AcDbEntity
  8
0
  6
Continuous
 62
     7
370
    15
100
AcDbSpline
210
0.0
220
0.0
230
1.0
 70
     8
 71
     3
 72
    11
 73
     7
 74
     0
 42
0.00000001
 43
0.00000001
 40
0.0
 40
0.0
 40
0.0
 40
0.0
 40
0.2499867274242283
 40
0.4999978098639171
 40
0.7499983168754161
 40
1.0
 40
1.0
 40
1.0
 40
1.0
 10
281.6711309633496
 20
215.151778265887
 30
0.0
 10
281.6722584495234
 20
215.1616053498182
 30
0.0
 10
281.6745135317167
 20
215.1812604750863
 30
0.0
 10
281.6918546098427
 20
215.2060530670385
 30
0.0
 10
281.7166471419455
 20
215.2233950011023
 30
0.0
 10
281.7363023637403
 20
215.2256508588706
 30
0.0
 10
281.7461299977543
 20
215.2267787904078
 30
0.0
  0
SPLINE
  5
310
330
1F
100
AcDbEntity
  8
0
  6
Continuous
 62
     7
370
    15
100
AcDbSpline
210
0.0
220
0.0
230
1.0
 70
     8
 71
     3
 72
    11
 73
     7
 74
     0
 42
0.00000001
 43
0.00000001
 40
0.0
 40
0.0
 40
0.0
 40
0.0
 40
0.2500008187697989
 40
0.4999972781937964
 40
0.7499981466670284
 40
1.0
 40
1.0
 40
1.0
 40
1.0
 10
281.7461299977543
 20
176.2267774269516
 30
0.0
 10
281.7284399258061
 20
176.2288065895215
 30
0.0
 10
281.6930600903772
 20
176.2328648792782
 30
0.0
 10
281.6484373972075
 20
176.2640843219455
 30
0.0
 10
281.6172189928716
 20
176.3087074548308
 30
0.0
 10
281.6131596320801
 20
176.3440874463938
 30
0.0
 10
281.6111299476864
 20
176.3617774770195
 30
0.0
  0
LINE
  5
311
330
1F
100
AcDbEntity
  8
0
  6
Continuous
 62
     7
370
    15
100
AcDbLine
 10
281.7461299978
 20
176.226777427
 30
0.0
 11
281.7461299978
 21
176.286777325
 31
0.0
  0
SPLINE
  5
312
330
1F
100
AcDbEntity
  8
0
  6
Continuous
 62
     7
370
    15
100
AcDbSpline
210
0.0
220
0.0
230
1.0
 70
     8
 71
     3
 72
    11
 73
     7
 74
     0
 42
0.00000001
 43
0.00000001
 40
0.0
 40
0.0
 40
0.0
 40
0.0
 40
0.2499994330900903
 40
0.5000027739641476
 40
0.749999938092692
 40
1.0
 40
1.0
 40
1.0
 40
1.0
 10
281.7461299977543
 20
176.2867773250277
 30
0.0
 10
281.7363022920272
 20
176.2879048069367
 30
0.0
 10
281.7166467269545
 20
176.2901597883786
 30
0.0
 10
281.6918555359073
 20
176.3075028686302
 30
0.0
 10
281.6745127381329
 20
176.3322942923022
 30
0.0
 10
281.6722582259661
 20
176.3519497108088
 30
0.0
 10
281.6711309633496
 20
176.3617774770195
 30
0.0
  0
LINE
  5
313
330
1F
100
AcDbEntity
  8
0
  6
Continuous
 62
     7
370
    15
100
AcDbLine
 10
283.6707773886
 20
215.2867768258
 30
0.0
 11
283.6707773886
 21
215.2267787904
 31
0.0
  0
LINE
  5
314
330
1F
100
AcDbEntity
  8
0
  6
Continuous
 62
     7
370
    15
100
AcDbLine
 10
283.5961300216
 20
215.2267787904
 30
0.0
 11
283.6707773886
 21
215.2267787904
 31
0.0
  0
LINE
  5
315
330
1F
100
AcDbEntity
  8
0
  6
Continuous
 62
     7
370
    15
100
AcDbLine
 10
283.6707773886
 20
176.226777427
 30
0.0
 11
283.6707773886
 21
176.286777325
 31
0.0
  0
LINE
  5
316
330
1F
100
AcDbEntity
  8
0
  6
Continuous
 62
     7
370
    15
100
AcDbLine
 10
283.5961300216
 20
176.286777325
 30
0.0
 11
283.6707773886
 21
176.286777325
 31
0.0
  0
LINE
  5
317
330
1F
100
AcDbEntity
  8
0
  6
Continuous
 62
     7
370
    15
100
AcDbLine
 10
283.5961300216
 20
176.226777427
 30
0.0
 11
283.6707773886
 21
176.226777427
 31
0.0
  0
LINE
  5
318
330
1F
100
AcDbEntity
  8
0
  6
Continuous
 62
     7
370
    15
100
AcDbLine
 10
281.7461299978
 20
176.226777427
 30
0.0
 11
281.7496660433
 21
176.226777427
 31
0.0
  0
LINE
  5
319
330
1F
100
AcDbEntity
  8
0
  6
Continuous
 62
     7
370
    15
100
AcDbLine
 10
283.7311300717
 20
176.286777325
 30
0.0
 11
283.8061305962
 21
176.286777325
 31
0.0
  0
LINE
  5
31A
330
1F
100
AcDbEntity
  8
0
  6
Continuous
 62
     7
370
    15
100
AcDbLine
 10
283.8061305962
 20
215.2267787904
 30
0.0
 11
283.7311300717
 21
215.2267787904
 31
0.0
  0
LINE
  5
31B
330
1F
100
AcDbEntity
  8
0
  6
Continuous
 62
     7
370
    15
100
AcDbLine
 10
284.5811310492
 20
203.1667772979
 30
0.0
 11
284.5811310492
 21
203.0740592927
 31
0.0
  0
LINE
  5
31C
330
1F
100
AcDbEntity
  8
0
  6
Continuous
 62
     7
370
    15
100
AcDbLine
 10
284.5811310492
 20
176.2940602676
 30
0.0
 11
284.5811310492
 21
176.286777325
 31
0.0
  0
LINE
  5
31D
330
1F
100
AcDbEntity
  8
0
  6
Continuous
 62
     7
370
    15
100
AcDbLine
 10
284.5811310492
 20
176.286777325
 30
0.0
 11
283.8061305962
 21
176.286777325
 31
0.0
  0
LINE
  5
31E
330
1F
100
AcDbEntity
  8
0
  6
Continuous
 62
     7
370
    15
100
AcDbLine
 10
283.8061305962
 20
215.2267787904
 30
0.0
 11
283.8296654902
 21
215.2267787904
 31
0.0
  0
LINE
  5
31F
330
1F
100
AcDbEntity
  8
0
  6
Continuous
 62
     7
370
    15
100
AcDbLine
 10
281.7461299978
 20
176.286777325
 30
0.0
 11
281.7020061693
 21
176.3027914167
 31
0.0
  0
LINE
  5
320
330
1F
100
AcDbEntity
  8
0
  6
Continuous
 62
     7
370
    15
100
AcDbLine
 10
281.7020061693
 20
215.2107630224
 30
0.0
 11
281.7461299978
 21
215.2267787904
 31
0.0
  0
LINE
  5
321
330
1F
100
AcDbEntity
  8
0
  6
Continuous
 62
     7
370
    15
100
AcDbLine
 10
281.6111299477
 20
176.286777325
 30
0.0
 11
281.6111299477
 21
176.361777477
 31
0.0
  0
LINE
  5
322
330
1F
100
AcDbEntity
  8
0
  6
Continuous
 62
     7
370
    15
100
AcDbLine
 10
281.6338810406
 20
176.286777325
 30
0.0
 11
281.6111299477
 21
176.286777325
 31
0.0
  0
SPLINE
  5
323
330
1F
100
AcDbEntity
  8
0
  6
Continuous
 62
     7
370
    15
100
AcDbSpline
210
0.0
220
0.0
230
1.0
 70
     8
 71
     3
 72
    12
 73
     8
 74
     0
 42
0.00000001
 43
0.00000001
 40
0.0
 40
0.0
 40
0.0
 40
0.0
 40
0.3438811932551289
 40
0.5689426271639714
 40
0.7498672336493803
 40
0.9315259199746714
 40
1.0
 40
1.0
 40
1.0
 40
1.0
 10
309.6861305914165
 20
215.151778265887
 30
0.0
 10
309.6746382868458
 20
215.1634185723041
 30
0.0
 10
309.6556245632607
 20
215.1826771611534
 30
0.0
 10
309.632521647117
 20
215.2052374573655
 30
0.0
 10
309.6194799651454
 20
215.2199765162059
 30
0.0
 10
309.613570818394
 20
215.2261868153182
 30
0.0
 10
309.6119324691267
 20
215.2266515648001
 30
0.0
 10
309.611483969474
 20
215.2267787904078
 30
0.0
  0
LINE
  5
324
330
1F
100
AcDbEntity
  8
0
  6
Continuous
 62
     7
370
    15
100
AcDbLine
 10
309.6114839695
 20
215.2867768258
 30
0.0
 11
309.6114839695
 21
215.2267787904
 31
0.0
  0
SPLINE
  5
325
330
1F
100
AcDbEntity
  8
0
  6
Continuous
 62
     7
370
    15
100
AcDbSpline
210
0.0
220
0.0
230
1.0
 70
     8
 71
     3
 72
    12
 73
     8
 74
     0
 42
0.00000001
 43
0.00000001
 40
0.0
 40
0.0
 40
0.0
 40
0.0
 40
0.2601216099215208
 40
0.5181392921058428
 40
0.7503231954861102
 40
0.9504987423688751
 40
1.0
 40
1.0
 40
1.0
 40
1.0
 10
309.6861305914165
 20
215.151778265887
 30
0.0
 10
309.6766861838881
 20
215.1690338212637
 30
0.0
 10
309.6578737575286
 20
215.2034053648292
 30
0.0
 10
309.6327255112241
 20
215.2473227579576
 30
0.0
 10
309.6184273081071
 20
215.2768115756676
 30
0.0
 10
309.6131367986567
 20
215.28619923102
 30
0.0
 10
309.6117574424774
 20
215.2866812584375
 30
0.0
 10
309.611483969474
 20
215.2867768258388
 30
0.0
  0
SPLINE
  5
326
330
1F
100
AcDbEntity
  8
0
  6
Continuous
 62
     7
370
    15
100
AcDbSpline
210
0.0
220
0.0
230
1.0
 70
     8
 71
     3
 72
    11
 73
     7
 74
     0
 42
0.00000001
 43
0.00000001
 40
0.0
 40
0.0
 40
0.0
 40
0.0
 40
0.2499995172807135
 40
0.500000480518855
 40
0.7500004827192864
 40
1.0
 40
1.0
 40
1.0
 40
1.0
 10
309.5511305413486
 20
215.2264241427715
 30
0.0
 10
309.5531596478352
 20
215.2202034822456
 30
0.0
 10
309.5572178725445
 20
215.2077621252146
 30
0.0
 10
309.5884364728508
 20
215.1890986993744
 30
0.0
 10
309.6330605627048
 20
215.1704415060243
 30
0.0
 10
309.6684405932836
 20
215.1579993419105
 30
0.0
 10
309.6861305914165
 20
215.151778265887
 30
0.0
  0
SPLINE
  5
327
330
1F
100
AcDbEntity
  8
0
  6
Continuous
 62
     7
370
    15
100
AcDbSpline
210
0.0
220
0.0
230
1.0
 70
     8
 71
     3
 72
    12
 73
     8
 74
     0
 42
0.00000001
 43
0.00000001
 40
0.0
 40
0.0
 40
0.0
 40
0.0
 40
0.2276432483218178
 40
0.4553413015091075
 40
0.6830499218725193
 40
0.9107470645636055
 40
1.0
 40
1.0
 40
1.0
 40
1.0
 10
309.6861305914165
 20
176.3617774770195
 30
0.0
 10
309.6700380311345
 20
176.3561114923775
 30
0.0
 10
309.637849036304
 20
176.3447781590138
 30
0.0
 10
309.5956273715929
 20
176.3277728207902
 30
0.0
 10
309.5650547231211
 20
176.3107803297799
 30
0.0
 10
309.5523506858516
 20
176.297194635781
 30
0.0
 10
309.5513986375344
 20
176.2893422640917
 30
0.0
 10
309.5511305413486
 20
176.2871310413415
 30
0.0
  0
LINE
  5
328
330
1F
100
AcDbEntity
  8
0
  6
Continuous
 62
     7
370
    15
100
AcDbLine
 10
309.5511305413
 20
176.2871310413
 30
0.0
 11
309.5511305413
 21
215.2264241428
 31
0.0
  0
LINE
  5
329
330
1F
100
AcDbEntity
  8
0
  6
Continuous
 62
     7
370
    15
100
AcDbLine
 10
309.5511305413
 20
215.2264241428
 30
0.0
 11
309.6111300669
 21
215.2264241428
 31
0.0
  0
SPLINE
  5
32A
330
1F
100
AcDbEntity
  8
0
  6
Continuous
 62
     7
370
    15
100
AcDbSpline
210
0.0
220
0.0
230
1.0
 70
     8
 71
     3
 72
    11
 73
     7
 74
     0
 42
0.00000001
 43
0.00000001
 40
0.0
 40
0.0
 40
0.0
 40
0.0
 40
0.2500108246269018
 40
0.5000072621340761
 40
0.749997168403186
 40
1.0
 40
1.0
 40
1.0
 40
1.0
 10
309.6111300668957
 20
215.2264241427715
 30
0.0
 10
309.6122575273898
 20
215.2202035719278
 30
0.0
 10
309.6145123834972
 20
215.2077627882093
 30
0.0
 10
309.6318555374116
 20
215.1890989438608
 30
0.0
 10
309.6566484295283
 20
215.1704408956482
 30
0.0
 10
309.6763030347565
 20
215.1579992496839
 30
0.0
 10
309.6861305914165
 20
215.151778265887
 30
0.0
  0
SPLINE
  5
32B
330
1F
100
AcDbEntity
  8
0
  6
Continuous
 62
     7
370
    15
100
AcDbSpline
210
0.0
220
0.0
230
1.0
 70
     8
 71
     3
 72
    11
 73
     7
 74
     0
 42
0.00000001
 43
0.00000001
 40
0.0
 40
0.0
 40
0.0
 40
0.0
 40
0.2499991567885612
 40
0.4999961313272028
 40
0.7500008432114387
 40
1.0
 40
1.0
 40
1.0
 40
1.0
 10
311.5325945697071
 20
215.2867768258388
 30
0.0
 10
311.5328889460101
 20
215.2847476382801
 30
0.0
 10
311.5334776960465
 20
215.2806892808756
 30
0.0
 10
311.5343638886259
 20
215.2494720189909
 30
0.0
 10
311.5352468294556
 20
215.2048488344578
 30
0.0
 10
311.5358360221728
 20
215.1694683243835
 30
0.0
 10
311.5361306152584
 20
215.151778265887
 30
0.0
  0
LINE
  5
32C
330
1F
100
AcDbEntity
  8
0
  6
Continuous
 62
     7
370
    15
100
AcDbLine
 10
311.6711306653
 20
176.361777477
 30
0.0
 11
311.5361306153
 21
176.361777477
 31
0.0
  0
LINE
  5
32D
330
1F
100
AcDbEntity
  8
0
  6
Continuous
 62
     7
370
    15
100
AcDbLine
 10
311.5361306153
 20
215.1517782659
 30
0.0
 11
311.6711306653
 21
215.1517782659
 31
0.0
  0
LINE
  5
32E
330
1F
100
AcDbEntity
  8
0
  6
Continuous
 62
     7
370
    15
100
AcDbLine
 10
311.6711306653
 20
215.1517782659
 30
0.0
 11
311.6711306653
 21
176.361777477
 31
0.0
  0
SPLINE
  5
32F
330
1F
100
AcDbEntity
  8
0
  6
Continuous
 62
     7
370
    15
100
AcDbSpline
210
0.0
220
0.0
230
1.0
 70
     8
 71
     3
 72
    11
 73
     7
 74
     0
 42
0.00000001
 43
0.00000001
 40
0.0
 40
0.0
 40
0.0
 40
0.0
 40
0.2225419646593197
 40
0.4770212211358267
 40
0.7315695249328933
 40
1.0
 40
1.0
 40
1.0
 40
1.0
 10
309.6861305914165
 20
176.3617774770195
 30
0.0
 10
309.6773924928964
 20
176.3562474641357
 30
0.0
 10
309.6586622797751
 20
176.3443938189019
 30
0.0
 10
309.6338287109955
 20
176.3261808210163
 30
0.0
 10
309.6149647781559
 20
176.306837757584
 30
0.0
 10
309.6124307256385
 20
176.2938151724364
 30
0.0
 10
309.6111300668957
 20
176.2871310413415
 30
0.0
  0
LINE
  5
330
330
1F
100
AcDbEntity
  8
0
  6
Continuous
 62
     7
370
    15
100
AcDbLine
 10
309.6111300669
 20
176.2871310413
 30
0.0
 11
309.5511305413
 21
176.2871310413
 31
0.0
  0
LWPOLYLINE
  5
331
330
1F
100
AcDbEntity
  8
0
  6
Continuous
 62
     7
370
    15
100
AcDbPolyline
 90
        2
 70
   128
 43
0.0
 10
309.6861305914
 20
176.361777477
 10
309.6861305914
 20
176.361777477
  0
SPLINE
  5
332
330
1F
100
AcDbEntity
  8
0
  6
Continuous
 62
     7
370
    15
100
AcDbSpline
210
0.0
220
0.0
230
1.0
 70
     8
 71
     3
 72
    11
 73
     7
 74
     0
 42
0.00000001
 43
0.00000001
 40
0.0
 40
0.0
 40
0.0
 40
0.0
 40
0.2499984560117977
 40
0.500000997447852
 40
0.7500011991609722
 40
1.0
 40
1.0
 40
1.0
 40
1.0
 10
311.5361306152584
 20
176.3617774770195
 30
0.0
 10
311.5358360231671
 20
176.3440873729732
 30
0.0
 10
311.5352468341705
 20
176.3087068757924
 30
0.0
 10
311.5343638755285
 20
176.2640842034268
 30
0.0
 10
311.5334777051227
 20
176.2328651380855
 30
0.0
 10
311.5328889476291
 20
176.2288066602059
 30
0.0
 10
311.5325945697071
 20
176.2267774269516
 30
0.0
  0
LINE
  5
333
330
1F
100
AcDbEntity
  8
0
  6
Continuous
 62
     7
370
    15
100
AcDbLine
 10
309.6114839695
 20
176.226777427
 30
0.0
 11
311.5325945697
 21
176.226777427
 31
0.0
  0
SPLINE
  5
334
330
1F
100
AcDbEntity
  8
0
  6
Continuous
 62
     7
370
    15
100
AcDbSpline
210
0.0
220
0.0
230
1.0
 70
     8
 71
     3
 72
    13
 73
     9
 74
     0
 42
0.00000001
 43
0.00000001
 40
0.0
 40
0.0
 40
0.0
 40
0.0
 40
0.1405437034704169
 40
0.2757609792702094
 40
0.4065340901369258
 40
0.5338376268862014
 40
0.725347548664276
 40
1.0
 40
1.0
 40
1.0
 40
1.0
 10
309.611483969474
 20
176.2267774269516
 30
0.0
 10
309.6123958693453
 20
176.2275028353413
 30
0.0
 10
309.6141851092422
 20
176.228926160065
 30
0.0
 10
309.619775291669
 20
176.2397411822631
 30
0.0
 10
309.6274493919531
 20
176.255182699636
 30
0.0
 10
309.6392382123267
 20
176.2776568030182
 30
0.0
 10
309.6591451236899
 20
176.3124219984873
 30
0.0
 10
309.6761258984528
 20
176.3434792428072
 30
0.0
 10
309.6861305914165
 20
176.3617774770195
 30
0.0
  0
SPLINE
  5
335
330
1F
100
AcDbEntity
  8
0
  6
Continuous
 62
     7
370
    15
100
AcDbSpline
210
0.0
220
0.0
230
1.0
 70
     8
 71
     3
 72
    13
 73
     9
 74
     0
 42
0.00000001
 43
0.00000001
 40
0.0
 40
0.0
 40
0.0
 40
0.0
 40
0.1257458766190533
 40
0.249567495369539
 40
0.3737417020080674
 40
0.5005051834360053
 40
0.701951143818128
 40
1.0
 40
1.0
 40
1.0
 40
1.0
 10
309.611483969474
 20
176.2867773250277
 30
0.0
 10
309.6124036226078
 20
176.2871886770533
 30
0.0
 10
309.6142288556522
 20
176.2880050862867
 30
0.0
 10
309.6198936791543
 20
176.2941135680869
 30
0.0
 10
309.6276598405728
 20
176.3027902124267
 30
0.0
 10
309.6396518240011
 20
176.3154613480228
 30
0.0
 10
309.6595111240508
 20
176.3347140085976
 30
0.0
 10
309.6761826699777
 20
176.3516636286083
 30
0.0
 10
309.6861305914165
 20
176.3617774770195
 30
0.0
  0
LINE
  5
336
330
1F
100
AcDbEntity
  8
0
  6
Continuous
 62
     7
370
    15
100
AcDbLine
 10
309.6114839695
 20
176.226777427
 30
0.0
 11
309.6114839695
 21
176.286777325
 31
0.0
  0
SPLINE
  5
337
330
1F
100
AcDbEntity
  8
0
  6
Continuous
 62
     7
370
    15
100
AcDbSpline
210
0.0
220
0.0
230
1.0
 70
     8
 71
     3
 72
    11
 73
     7
 74
     0
 42
0.00000001
 43
0.00000001
 40
0.0
 40
0.0
 40
0.0
 40
0.0
 40
0.2499885886229383
 40
0.4999990506465343
 40
0.749998937268184
 40
1.0
 40
1.0
 40
1.0
 40
1.0
 10
311.6111311397793
 20
215.151778265887
 30
0.0
 10
311.6100030401897
 20
215.1616053281693
 30
0.0
 10
311.6077467423044
 20
215.1812603125781
 30
0.0
 10
311.5904061088673
 20
215.2060530884985
 30
0.0
 10
311.5656134446432
 20
215.2233949957374
 30
0.0
 10
311.5459582404644
 20
215.2256508570823
 30
0.0
 10
311.5361306152584
 20
215.2267787904078
 30
0.0
  0
LINE
  5
338
330
1F
100
AcDbEntity
  8
0
  6
Continuous
 62
     7
370
    15
100
AcDbLine
 10
311.5361306153
 20
215.2867768258
 30
0.0
 11
311.5361306153
 21
215.2267787904
 31
0.0
  0
SPLINE
  5
339
330
1F
100
AcDbEntity
  8
0
  6
Continuous
 62
     7
370
    15
100
AcDbSpline
210
0.0
220
0.0
230
1.0
 70
     8
 71
     3
 72
    11
 73
     7
 74
     0
 42
0.00000001
 43
0.00000001
 40
0.0
 40
0.0
 40
0.0
 40
0.0
 40
0.2500000498823016
 40
0.500001963986015
 40
0.7499999501176985
 40
1.0
 40
1.0
 40
1.0
 40
1.0
 10
311.6711306653263
 20
215.151778265887
 30
0.0
 10
311.6691015376536
 20
215.1694682555036
 30
0.0
 10
311.6650432671772
 20
215.204848366649
 30
0.0
 10
311.6338250523193
 20
215.2494724341927
 30
0.0
 10
311.58920031799
 20
215.2806892115568
 30
0.0
 10
311.5538205648458
 20
215.2847476154944
 30
0.0
 10
311.5361306152584
 20
215.2867768258388
 30
0.0
  0
LINE
  5
33A
330
1F
100
AcDbEntity
  8
0
  6
Continuous
 62
     7
370
    15
100
AcDbLine
 10
311.5361306153
 20
176.226777427
 30
0.0
 11
311.5361306153
 21
176.286777325
 31
0.0
  0
SPLINE
  5
33B
330
1F
100
AcDbEntity
  8
0
  6
Continuous
 62
     7
370
    15
100
AcDbSpline
210
0.0
220
0.0
230
1.0
 70
     8
 71
     3
 72
    11
 73
     7
 74
     0
 42
0.00000001
 43
0.00000001
 40
0.0
 40
0.0
 40
0.0
 40
0.0
 40
0.2499996939345456
 40
0.5000009072564884
 40
0.7500006508942434
 40
1.0
 40
1.0
 40
1.0
 40
1.0
 10
311.5361306152584
 20
176.2267774269516
 30
0.0
 10
311.5538206366509
 20
176.2288066829918
 30
0.0
 10
311.589200786948
 20
176.2328652074051
 30
0.0
 10
311.6338244889066
 20
176.2640837882116
 30
0.0
 10
311.6650434158268
 20
176.3087073436049
 30
0.0
 10
311.6691015832272
 20
176.3440874418537
 30
0.0
 10
311.6711306653263
 20
176.3617774770195
 30
0.0
  0
SPLINE
  5
33C
330
1F
100
AcDbEntity
  8
0
  6
Continuous
 62
     7
370
    15
100
AcDbSpline
210
0.0
220
0.0
230
1.0
 70
     8
 71
     3
 72
    11
 73
     7
 74
     0
 42
0.00000001
 43
0.00000001
 40
0.0
 40
0.0
 40
0.0
 40
0.0
 40
0.2499988127394651
 40
0.5000015332532004
 40
0.7499980770367499
 40
1.0
 40
1.0
 40
1.0
 40
1.0
 10
311.5361306152584
 20
176.2867773250277
 30
0.0
 10
311.5459583121782
 20
176.2879048087248
 30
0.0
 10
311.5656138596364
 20
176.2901597937429
 30
0.0
 10
311.5904051827939
 20
176.307502847173
 30
0.0
 10
311.6077475359355
 20
176.3322944547889
 30
0.0
 10
311.610003263742
 20
176.3519497324562
 30
0.0
 10
311.6111311397793
 20
176.3617774770195
 30
0.0
  0
LINE
  5
33D
330
1F
100
AcDbEntity
  8
0
  6
Continuous
 62
     7
370
    15
100
AcDbLine
 10
311.5325945697
 20
176.226777427
 30
0.0
 11
311.5361306153
 21
176.226777427
 31
0.0
  0
LINE
  5
33E
330
1F
100
AcDbEntity
  8
0
  6
Continuous
 62
     7
370
    15
100
AcDbLine
 10
309.4761307619
 20
176.286777325
 30
0.0
 11
309.5511305413
 21
176.286777325
 31
0.0
  0
LINE
  5
33F
330
1F
100
AcDbEntity
  8
0
  6
Continuous
 62
     7
370
    15
100
AcDbLine
 10
309.5511305413
 20
215.2267787904
 30
0.0
 11
309.4761307619
 21
215.2267787904
 31
0.0
  0
LINE
  5
340
330
1F
100
AcDbEntity
  8
0
  6
Continuous
 62
     7
370
    15
100
AcDbLine
 10
309.4525951228
 20
215.2267787904
 30
0.0
 11
309.4761307619
 21
215.2267787904
 31
0.0
  0
LINE
  5
341
330
1F
100
AcDbEntity
  8
0
  6
Continuous
 62
     7
370
    15
100
AcDbLine
 10
309.4761307619
 20
176.286777325
 30
0.0
 11
308.7011303089
 21
176.286777325
 31
0.0
  0
LINE
  5
342
330
1F
100
AcDbEntity
  8
0
  6
Continuous
 62
     7
370
    15
100
AcDbLine
 10
308.7011303089
 20
176.286777325
 30
0.0
 11
308.7011303089
 21
176.2940602676
 31
0.0
  0
LINE
  5
343
330
1F
100
AcDbEntity
  8
0
  6
Continuous
 62
     7
370
    15
100
AcDbLine
 10
308.7011303089
 20
203.0740592927
 30
0.0
 11
308.7011303089
 21
203.1667772979
 31
0.0
  0
SPLINE
  5
344
330
1F
100
AcDbEntity
  8
0
  6
Continuous
 62
     7
370
    15
100
AcDbSpline
210
0.0
220
0.0
230
1.0
 70
     8
 71
     3
 72
     9
 73
     5
 74
     0
 42
0.00000001
 43
0.00000001
 40
0.0
 40
0.0
 40
0.0
 40
0.0
 40
0.6018568403843466
 40
1.0
 40
1.0
 40
1.0
 40
1.0
 10
311.5819621167423
 20
215.2097110003764
 30
0.0
 10
311.5730886641321
 20
215.2130740671539
 30
0.0
 10
311.5583452035368
 20
215.2186618856378
 30
0.0
 10
311.542456567151
 20
215.2242137184957
 30
0.0
 10
311.5361306152584
 20
215.2264241427715
 30
0.0
  0
LINE
  5
345
330
1F
100
AcDbEntity
  8
0
  6
Continuous
 62
     7
370
    15
100
AcDbLine
 10
310.6111306033
 20
176.2013431937
 30
0.0
 11
310.6111306033
 21
176.226777427
 31
0.0
  0
LINE
  5
346
330
1F
100
AcDbEntity
  8
0
  6
Continuous
 62
     7
370
    15
100
AcDbLine
 10
311.6711306653
 20
176.3363432438
 30
0.0
 11
311.6711306653
 21
176.361777477
 31
0.0
  0
LINE
  5
347
330
1F
100
AcDbEntity
  8
0
  6
Continuous
 62
     7
370
    15
100
AcDbLine
 10
311.6111311398
 20
176.3363432438
 30
0.0
 11
311.6111311398
 21
176.361777477
 31
0.0
  0
ARC
  5
348
330
1F
100
AcDbEntity
  8
0
  6
Continuous
 62
     7
370
    15
100
AcDbCircle
 10
311.5361304189
 20
176.3363432437
 30
0.0
 40
0.1349999999999909
100
AcDbArc
 50
270.0
 51
0.0
  0
ARC
  5
349
330
1F
100
AcDbEntity
  8
0
  6
Continuous
 62
     7
370
    15
100
AcDbCircle
 10
312.7980050278
 20
172.5704248026
 30
0.0
 40
0.1749999999999892
100
AcDbArc
 50
13.0691970854
 51
338.0476178572
  0
LWPOLYLINE
  5
34A
330
1F
100
AcDbEntity
  8
0
  6
Continuous
 62
     7
370
    15
100
AcDbPolyline
 90
        3
 70
   128
 43
0.0
 10
312.9730048857
 20
173.0633610227
 10
312.9899743281
 20
173.0276656636
 10
312.9904466949
 20
173.0262721722
  0
LINE
  5
34B
330
1F
100
AcDbEntity
  8
0
  6
Continuous
 62
     7
370
    15
100
AcDbLine
 10
312.8047916374
 20
172.7454248183
 30
0.0
 11
312.6230049215
 21
172.7454248183
 31
0.0
  0
LINE
  5
34C
330
1F
100
AcDbEntity
  8
0
  6
Continuous
 62
     7
370
    15
100
AcDbLine
 10
313.2736298523
 20
176.1939093769
 30
0.0
 11
313.2736298523
 21
176.2013431937
 31
0.0
  0
LINE
  5
34D
330
1F
100
AcDbEntity
  8
0
  6
Continuous
 62
     7
370
    15
100
AcDbLine
 10
313.2986310206
 20
176.2013431937
 30
0.0
 11
313.2986310206
 21
176.1855025143
 31
0.0
  0
LINE
  5
34E
330
1F
100
AcDbEntity
  8
0
  6
Continuous
 62
     7
370
    15
100
AcDbLine
 10
313.2986310206
 20
176.1051029265
 30
0.0
 11
313.2986310206
 21
176.092481643
 31
0.0
  0
LINE
  5
34F
330
1F
100
AcDbEntity
  8
0
  6
Continuous
 62
     7
370
    15
100
AcDbLine
 10
312.2986304841
 20
176.6192626507
 30
0.0
 11
312.2986304841
 21
176.6604878307
 31
0.0
  0
LINE
  5
350
330
1F
100
AcDbEntity
  8
0
  6
Continuous
 62
     7
370
    15
100
AcDbLine
 10
312.2986304841
 20
176.6604878307
 30
0.0
 11
312.3236301623
 21
176.6604878307
 31
0.0
  0
LINE
  5
351
330
1F
100
AcDbEntity
  8
0
  6
Continuous
 62
     7
370
    15
100
AcDbLine
 10
312.3236301623
 20
176.6604878307
 30
0.0
 11
312.3236301623
 21
176.6241036654
 31
0.0
  0
LINE
  5
352
330
1F
100
AcDbEntity
  8
0
  6
Continuous
 62
     7
370
    15
100
AcDbLine
 10
312.3918104253
 20
176.7286684663
 30
0.0
 11
312.3236301623
 21
176.6604878307
 31
0.0
  0
LINE
  5
353
330
1F
100
AcDbEntity
  8
0
  6
Continuous
 62
     7
370
    15
100
AcDbLine
 10
312.4236303649
 20
177.2544138432
 30
0.0
 11
312.4236303649
 21
177.2540603132
 31
0.0
  0
LINE
  5
354
330
1F
100
AcDbEntity
  8
0
  6
Continuous
 62
     7
370
    15
100
AcDbLine
 10
312.5973898254
 20
177.2540603132
 30
0.0
 11
312.5967773876
 21
177.2544138432
 31
0.0
  0
LINE
  5
355
330
1F
100
AcDbEntity
  8
0
  6
Continuous
 62
     7
370
    15
100
AcDbLine
 10
312.3059529147
 20
176.678165637
 30
0.0
 11
312.3236301623
 21
176.6604878307
 31
0.0
  0
ARC
  5
356
330
1F
100
AcDbEntity
  8
0
  6
Continuous
 62
     7
370
    15
100
AcDbCircle
 10
312.3236304189
 20
176.6604879046
 30
0.0
 40
0.0249999999999773
100
AcDbArc
 50
135.0
 51
180.0
  0
LINE
  5
357
330
1F
100
AcDbEntity
  8
0
  6
Continuous
 62
     7
370
    15
100
AcDbLine
 10
312.3059529147
 20
176.678165637
 30
0.0
 11
312.3847934685
 21
176.7570069358
 31
0.0
  0
LINE
  5
358
330
1F
100
AcDbEntity
  8
0
  6
Continuous
 62
     7
370
    15
100
AcDbLine
 10
312.3986306868
 20
177.2540603132
 30
0.0
 11
312.3986306868
 21
177.2544138432
 31
0.0
  0
LINE
  5
359
330
1F
100
AcDbEntity
  8
0
  6
Continuous
 62
     7
370
    15
100
AcDbLine
 10
313.2986310206
 20
176.5048418493
 30
0.0
 11
313.2986310206
 21
176.5013432429
 31
0.0
  0
LINE
  5
35A
330
1F
100
AcDbEntity
  8
0
  6
Continuous
 62
     7
370
    15
100
AcDbLine
 10
311.1874866567
 20
172.871050641
 30
0.0
 11
312.5437873683
 21
170.5218695403
 31
0.0
  0
LINE
  5
35B
330
1F
100
AcDbEntity
  8
0
  6
Continuous
 62
     7
370
    15
100
AcDbLine
 10
311.8470597348
 20
171.1286364422
 30
0.0
 11
312.2839796624
 21
170.3718696088
 31
0.0
  0
ARC
  5
35C
330
1F
100
AcDbEntity
  8
0
  6
Continuous
 62
     7
370
    15
100
AcDbCircle
 10
312.6087393103
 20
170.5593695727
 30
0.0
 40
0.075000000000023
100
AcDbArc
 50
210.0
 51
270.0
  0
ARC
  5
35D
330
1F
100
AcDbEntity
  8
0
  6
Continuous
 62
     7
370
    15
100
AcDbCircle
 10
312.6087393103
 20
170.5593695727
 30
0.0
 40
0.3750000000000308
100
AcDbArc
 50
210.0
 51
270.0
  0
LINE
  5
35E
330
1F
100
AcDbEntity
  8
0
  6
Continuous
 62
     7
370
    15
100
AcDbLine
 10
313.4154382429
 20
170.4843696505
 30
0.0
 11
312.6087400398
 21
170.4843696505
 31
0.0
  0
LINE
  5
35F
330
1F
100
AcDbEntity
  8
0
  6
Continuous
 62
     7
370
    15
100
AcDbLine
 10
313.4154382429
 20
170.1843694151
 30
0.0
 11
312.6087400398
 21
170.1843694151
 31
0.0
  0
LINE
  5
360
330
1F
100
AcDbEntity
  8
0
  6
Continuous
 62
     7
370
    15
100
AcDbLine
 10
313.9154377661
 20
170.1843694151
 30
0.0
 11
313.9154377661
 21
170.4843696505
 31
0.0
  0
LINE
  5
361
330
1F
100
AcDbEntity
  8
0
  6
Continuous
 62
     7
370
    15
100
AcDbLine
 10
313.9154377661
 20
170.4843696505
 30
0.0
 11
313.4154382429
 21
170.4843696505
 31
0.0
  0
LINE
  5
362
330
1F
100
AcDbEntity
  8
0
  6
Continuous
 62
     7
370
    15
100
AcDbLine
 10
313.9154377661
 20
170.1843694151
 30
0.0
 11
313.4154382429
 21
170.1843694151
 31
0.0
  0
LINE
  5
363
330
1F
100
AcDbEntity
  8
0
  6
Continuous
 62
     7
370
    15
100
AcDbLine
 10
311.9566965184
 20
170.8993818909
 30
0.0
 11
311.9883674464
 21
170.8439294547
 31
0.0
  0
ARC
  5
364
330
1F
100
AcDbEntity
  8
0
  6
Continuous
 62
     7
370
    15
100
AcDbCircle
 10
312.5959240817
 20
170.5363008238
 30
0.0
 40
0.3750000000000275
100
AcDbArc
 50
225.3371286429
 51
269.732803846
  0
LINE
  5
365
330
1F
100
AcDbEntity
  8
0
  6
Continuous
 62
     7
370
    15
100
AcDbLine
 10
313.9008599601
 20
170.1552111954
 30
0.0
 11
313.9009955607
 21
170.1843694151
 31
0.0
  0
LWPOLYLINE
  5
366
330
1F
100
AcDbEntity
  8
0
  6
Continuous
 62
     7
370
    15
100
AcDbPolyline
 90
        9
 70
   128
 43
0.0
 10
313.9008599601
 20
170.1552111954
 10
313.8912531815
 20
170.1552558989
 10
313.8627994142
 20
170.1553885192
 10
313.8165953837
 20
170.1556042135
 10
313.7544143281
 20
170.1558940411
 10
313.6786478839
 20
170.1562475712
 10
313.5922047577
 20
170.1566506476
 10
313.4984093986
 20
170.1570879967
 10
313.4008649073
 20
170.1575428546
  0
LINE
  5
367
330
1F
100
AcDbEntity
  8
0
  6
Continuous
 62
     7
370
    15
100
AcDbLine
 10
313.4008649073
 20
170.1575428546
 30
0.0
 11
312.5941756449
 21
170.1613050253
 31
0.0
  0
LINE
  5
368
330
1F
100
AcDbEntity
  8
0
  6
Continuous
 62
     7
370
    15
100
AcDbLine
 10
309.3389082036
 20
173.0146409777
 30
0.0
 11
309.3156758032
 21
172.7155419365
 31
0.0
  0
LWPOLYLINE
  5
369
330
1F
100
AcDbEntity
  8
0
  6
Continuous
 62
     7
370
    15
100
AcDbPolyline
 90
        9
 70
   128
 43
0.0
 10
309.8141740344
 20
172.6768205241
 10
309.7169216058
 20
172.6843746678
 10
309.6234071336
 20
172.6916386113
 10
309.5372232876
 20
172.698332958
 10
309.461682596
 20
172.7042006627
 10
309.399687805
 20
172.7090161592
 10
309.3536216102
 20
172.7125944868
 10
309.3252542696
 20
172.7147979029
 10
309.3156758032
 20
172.7155419365
  0
LINE
  5
36A
330
1F
100
AcDbEntity
  8
0
  6
Continuous
 62
     7
370
    15
100
AcDbLine
 10
310.7679995976
 20
172.6027311124
 30
0.0
 11
309.8141740344
 21
172.6768205241
 31
0.0
  0
LINE
  5
36B
330
1F
100
AcDbEntity
  8
0
  6
Continuous
 62
     7
370
    15
100
AcDbLine
 10
310.791231998
 20
172.901830107
 30
0.0
 11
309.8374071799
 21
172.9759195652
 31
0.0
  0
ARC
  5
36C
330
1F
100
AcDbEntity
  8
0
  6
Continuous
 62
     7
370
    15
100
AcDbCircle
 10
310.7621914748
 20
172.5279563528
 30
0.0
 40
0.3749999999999872
100
AcDbArc
 50
25.5584074713
 51
85.5584074713
  0
ARC
  5
36D
330
1F
100
AcDbEntity
  8
0
  6
Continuous
 62
     7
370
    15
100
AcDbCircle
 10
310.7621914748
 20
172.5279563528
 30
0.0
 40
0.0749999999999716
100
AcDbArc
 50
25.5584074713
 51
85.5584074713
  0
LINE
  5
36E
330
1F
100
AcDbEntity
  8
0
  6
Continuous
 62
     7
370
    15
100
AcDbLine
 10
311.1004966579
 20
172.6897429973
 30
0.0
 11
312.3142826638
 21
170.1516479552
 31
0.0
  0
LINE
  5
36F
330
1F
100
AcDbEntity
  8
0
  6
Continuous
 62
     7
370
    15
100
AcDbLine
 10
310.8298528276
 20
172.5603136533
 30
0.0
 11
312.0436388335
 21
170.0222187043
 31
0.0
  0
ARC
  5
370
330
1F
100
AcDbEntity
  8
0
  6
Continuous
 62
     7
370
    15
100
AcDbCircle
 10
312.3819439502
 20
170.1840051621
 30
0.0
 40
0.3750000000000177
100
AcDbArc
 50
205.5584074713
 51
265.5584074713
  0
ARC
  5
371
330
1F
100
AcDbEntity
  8
0
  6
Continuous
 62
     7
370
    15
100
AcDbCircle
 10
312.3819439502
 20
170.1840051621
 30
0.0
 40
0.0750000000000188
100
AcDbArc
 50
205.5584074713
 51
265.5584074713
  0
LINE
  5
372
330
1F
100
AcDbEntity
  8
0
  6
Continuous
 62
     7
370
    15
100
AcDbLine
 10
313.1804111681
 20
170.046757564
 30
0.0
 11
312.3761358938
 21
170.1092303098
 31
0.0
  0
LINE
  5
373
330
1F
100
AcDbEntity
  8
0
  6
Continuous
 62
     7
370
    15
100
AcDbLine
 10
313.1571787677
 20
169.7476584763
 30
0.0
 11
312.3529034934
 21
169.8101312221
 31
0.0
  0
LINE
  5
374
330
1F
100
AcDbEntity
  8
0
  6
Continuous
 62
     7
370
    15
100
AcDbLine
 10
313.6556777439
 20
169.7089370639
 30
0.0
 11
313.6789101444
 21
170.0080361516
 31
0.0
  0
LWPOLYLINE
  5
375
330
1F
100
AcDbEntity
  8
0
  6
Continuous
 62
     7
370
    15
100
AcDbPolyline
 90
        9
 70
   128
 43
0.0
 10
313.6789101444
 20
170.0080361516
 10
313.6693316779
 20
170.0087800921
 10
313.6409643374
 20
170.0109836013
 10
313.5948973975
 20
170.0145617426
 10
313.5329040966
 20
170.0193770528
 10
313.45736266
 20
170.0252447576
 10
313.371178814
 20
170.0319394768
 10
313.2776635967
 20
170.0392030478
 10
313.1804111681
 20
170.046757564
  0
LWPOLYLINE
  5
376
330
1F
100
AcDbEntity
  8
0
  6
Continuous
 62
     7
370
    15
100
AcDbPolyline
 90
        9
 70
   128
 43
0.0
 10
313.6556777439
 20
169.7089370639
 10
313.6460992775
 20
169.7096810043
 10
313.617731937
 20
169.7118845136
 10
313.5716649971
 20
169.7154626549
 10
313.5096702061
 20
169.7202783377
 10
313.4341302595
 20
169.7261460424
 10
313.3479464135
 20
169.7328403891
 10
313.2544311962
 20
169.7401043326
 10
313.1571787677
 20
169.7476584763
  0
LINE
  5
377
330
1F
100
AcDbEntity
  8
0
  6
Continuous
 62
     7
370
    15
100
AcDbLine
 10
313.0045223317
 20
173.045896303
 30
0.0
 11
313.0044135533
 21
173.0224041101
 31
0.0
  0
ARC
  5
378
330
1F
100
AcDbEntity
  8
0
  6
Continuous
 62
     7
370
    15
100
AcDbCircle
 10
312.9295237862
 20
173.0462460668
 30
0.0
 40
0.074999999999995
100
AcDbArc
 50
359.732803846
 51
54.5670469651
  0
LINE
  5
379
330
1F
100
AcDbEntity
  8
0
  6
Continuous
 62
     7
370
    15
100
AcDbLine
 10
313.3020716987
 20
172.5195030049
 30
0.0
 11
313.2623615942
 21
172.5196881518
 31
0.0
  0
LWPOLYLINE
  5
37A
330
1F
100
AcDbEntity
  8
0
  6
Continuous
 62
     7
370
    15
100
AcDbPolyline
 90
        4
 70
   128
 43
0.0
 10
313.3021938882
 20
172.5458432288
 10
313.3021417341
 20
172.5347268694
 10
313.3020895801
 20
172.5233459212
 10
313.3020716987
 20
172.5195030049
  0
LINE
  5
37B
330
1F
100
AcDbEntity
  8
0
  6
Continuous
 62
     7
370
    15
100
AcDbLine
 10
307.5056302629
 20
173.3650983377
 30
0.0
 11
307.5056302629
 21
173.4458432366
 31
0.0
  0
LINE
  5
37C
330
1F
100
AcDbEntity
  8
0
  6
Continuous
 62
     7
370
    15
100
AcDbLine
 10
307.5056302629
 20
173.4458432366
 30
0.0
 11
307.5168299756
 21
173.4458432366
 31
0.0
  0
LINE
  5
37D
330
1F
100
AcDbEntity
  8
0
  6
Continuous
 62
     7
370
    15
100
AcDbLine
 10
307.6614472351
 20
173.4458432366
 30
0.0
 11
307.7056306682
 21
173.4458432366
 31
0.0
  0
LINE
  5
37E
330
1F
100
AcDbEntity
  8
0
  6
Continuous
 62
     7
370
    15
100
AcDbLine
 10
312.6230049215
 20
173.4458432366
 30
0.0
 11
308.5961307667
 21
173.4458432366
 31
0.0
  0
LINE
  5
37F
330
1F
100
AcDbEntity
  8
0
  6
Continuous
 62
     7
370
    15
100
AcDbLine
 10
307.8257601044
 20
173.4458432366
 30
0.0
 11
307.7056306682
 21
173.4458432366
 31
0.0
  0
LINE
  5
380
330
1F
100
AcDbEntity
  8
0
  6
Continuous
 62
     7
370
    15
100
AcDbLine
 10
312.6230049215
 20
173.145843234
 30
0.0
 11
311.5236404619
 21
173.145843234
 31
0.0
  0
LINE
  5
381
330
1F
100
AcDbEntity
  8
0
  6
Continuous
 62
     7
370
    15
100
AcDbLine
 10
313.305630096
 20
172.5458432288
 30
0.0
 11
313.2643926225
 21
172.5458432288
 31
0.0
  0
LINE
  5
382
330
1F
100
AcDbEntity
  8
0
  6
Continuous
 62
     7
370
    15
100
AcDbLine
 10
313.305630096
 20
172.7458432615
 30
0.0
 11
313.305630096
 21
172.5458432288
 31
0.0
  0
ARC
  5
383
330
1F
100
AcDbEntity
  8
0
  6
Continuous
 62
     7
370
    15
100
AcDbCircle
 10
312.9306304189
 20
173.0708432437
 30
0.0
 40
0.375
100
AcDbArc
 50
0.0
 51
83.5117786268
  0
ARC
  5
384
330
1F
100
AcDbEntity
  8
0
  6
Continuous
 62
     7
370
    15
100
AcDbCircle
 10
312.9306304189
 20
173.0708432437
 30
0.0
 40
0.0750000000000016
100
AcDbArc
 50
0.0
 51
55.5980708185
  0
LINE
  5
385
330
1F
100
AcDbEntity
  8
0
  6
Continuous
 62
     7
370
    15
100
AcDbLine
 10
313.305630096
 20
173.0708432217
 30
0.0
 11
313.305630096
 21
172.7458432615
 31
0.0
  0
LINE
  5
386
330
1F
100
AcDbEntity
  8
0
  6
Continuous
 62
     7
370
    15
100
AcDbLine
 10
313.0056309781
 20
173.0708432217
 30
0.0
 11
313.0056309781
 21
173.0220393576
 31
0.0
  0
LINE
  5
387
330
1F
100
AcDbEntity
  8
0
  6
Continuous
 62
     7
370
    15
100
AcDbLine
 10
312.9264044843
 20
173.0368820318
 30
0.0
 11
307.7170963667
 21
173.4415206193
 31
0.0
  0
LINE
  5
388
330
1F
100
AcDbEntity
  8
0
  6
Continuous
 62
     7
370
    15
100
AcDbLine
 10
312.9031720839
 20
172.737782944
 30
0.0
 11
308.0598804436
 21
173.1139908378
 31
0.0
  0
LINE
  5
389
330
1F
100
AcDbEntity
  8
0
  6
Continuous
 62
     7
370
    15
100
AcDbLine
 10
307.5105580769
 20
173.3650983377
 30
0.0
 11
307.5172568939
 21
173.4513432552
 31
0.0
  0
LWPOLYLINE
  5
38A
330
1F
100
AcDbEntity
  8
0
  6
Continuous
 62
     7
370
    15
100
AcDbPolyline
 90
        5
 70
   128
 43
0.0
 10
307.5906406424
 20
173.4513432552
 10
307.606316664
 20
173.4501255975
 10
307.6407897554
 20
173.4474478355
 10
307.6781961403
 20
173.4445422954
 10
307.7170963667
 20
173.4415206193
  0
LINE
  5
38B
330
1F
100
AcDbEntity
  8
0
  6
Continuous
 62
     7
370
    15
100
AcDbLine
 10
313.2305803976
 20
172.1105438024
 30
0.0
 11
312.9314813099
 21
172.1337767616
 31
0.0
  0
LWPOLYLINE
  5
38C
330
1F
100
AcDbEntity
  8
0
  6
Continuous
 62
     7
370
    15
100
AcDbPolyline
 90
        9
 70
   128
 43
0.0
 10
312.9314813099
 20
172.1337767616
 10
312.9317793331
 20
172.1376081296
 10
312.9326599918
 20
172.1489550844
 10
312.9340919934
 20
172.167381581
 10
312.9360172234
 20
172.1921794415
 10
312.9383641563
 20
172.2223957368
 10
312.9410418949
 20
172.2568692007
 10
312.9439476214
 20
172.2942752131
 10
312.9469695769
 20
172.3331760914
  0
LWPOLYLINE
  5
38D
330
1F
100
AcDbEntity
  8
0
  6
Continuous
 62
     7
370
    15
100
AcDbPolyline
 90
        9
 70
   128
 43
0.0
 10
313.2460686646
 20
172.3099432253
 10
313.2430467091
 20
172.271042347
 10
313.2401409827
 20
172.2336364277
 10
313.237463244
 20
172.1991628707
 10
313.2351163111
 20
172.1689465754
 10
313.2331910811
 20
172.1441487149
 10
313.2317590795
 20
172.1257223115
 10
313.2308784209
 20
172.1143752635
 10
313.2305803976
 20
172.1105438024
  0
ARC
  5
38E
330
1F
100
AcDbEntity
  8
0
  6
Continuous
 62
     7
370
    15
100
AcDbCircle
 10
312.897363895
 20
172.663008221
 30
0.0
 40
0.3749999999999894
100
AcDbArc
 50
355.5584074713
 51
85.5584074713
  0
ARC
  5
38F
330
1F
100
AcDbEntity
  8
0
  6
Continuous
 62
     7
370
    15
100
AcDbCircle
 10
312.897363895
 20
172.663008221
 30
0.0
 40
0.0750000000000232
100
AcDbArc
 50
355.5584074713
 51
85.5584074713
  0
LINE
  5
390
330
1F
100
AcDbEntity
  8
0
  6
Continuous
 62
     7
370
    15
100
AcDbLine
 10
313.2712382159
 20
172.6339672059
 30
0.0
 11
313.2460686646
 21
172.3099432253
 31
0.0
  0
LINE
  5
391
330
1F
100
AcDbEntity
  8
0
  6
Continuous
 62
     7
370
    15
100
AcDbLine
 10
312.9721391282
 20
172.6571999789
 30
0.0
 11
312.9469695769
 21
172.3331760914
 31
0.0
  0
LINE
  5
392
330
1F
100
AcDbEntity
  8
0
  6
Continuous
 62
     7
370
    15
100
AcDbLine
 10
307.436130502
 20
173.3938432364
 30
0.0
 11
307.436130502
 21
173.3650983377
 31
0.0
  0
ARC
  5
393
330
1F
100
AcDbEntity
  8
0
  6
Continuous
 62
     7
370
    15
100
AcDbCircle
 10
307.4236304189
 20
173.3938432437
 30
0.0
 40
0.0125000000000171
100
AcDbArc
 50
0.0
 51
90.0
  0
ARC
  5
394
330
1F
100
AcDbEntity
  8
0
  6
Continuous
 62
     7
370
    15
100
AcDbCircle
 10
307.4461304189
 20
173.4163432437
 30
0.0
 40
0.050000000000016
100
AcDbArc
 50
0.0
 51
44.4270040008
  0
LINE
  5
395
330
1F
100
AcDbEntity
  8
0
  6
Continuous
 62
     7
370
    15
100
AcDbLine
 10
307.4961307726
 20
173.3650983377
 30
0.0
 11
307.4961307726
 21
173.4163432448
 31
0.0
  0
ARC
  5
396
330
1F
100
AcDbEntity
  8
0
  6
Continuous
 62
     7
370
    15
100
AcDbCircle
 10
307.8661304189
 20
173.4163432437
 30
0.0
 40
0.0500000000000451
100
AcDbArc
 50
135.5729959992
 51
159.8225097007
  0
LINE
  5
397
330
1F
100
AcDbEntity
  8
0
  6
Continuous
 62
     7
370
    15
100
AcDbLine
 10
308.1699694774
 20
173.4063432385
 30
0.0
 11
308.4461304627
 21
173.4063432385
 31
0.0
  0
LINE
  5
398
330
1F
100
AcDbEntity
  8
0
  6
Continuous
 62
     7
370
    15
100
AcDbLine
 10
307.3086302064
 20
173.4063432385
 30
0.0
 11
307.4236306629
 21
173.4063432385
 31
0.0
  0
LINE
  5
399
330
1F
100
AcDbEntity
  8
0
  6
Continuous
 62
     7
370
    15
100
AcDbLine
 10
308.5961307667
 20
173.4513432552
 30
0.0
 11
308.5961307667
 21
173.4063432385
 31
0.0
  0
LINE
  5
39A
330
1F
100
AcDbEntity
  8
0
  6
Continuous
 62
     7
370
    15
100
AcDbLine
 10
308.5961307667
 20
173.4063432385
 30
0.0
 11
308.4461304627
 21
173.4063432385
 31
0.0
  0
LINE
  5
39B
330
1F
100
AcDbEntity
  8
0
  6
Continuous
 62
     7
370
    15
100
AcDbLine
 10
311.9883674464
 20
165.5255448372
 30
0.0
 11
311.9883674464
 21
166.8961931319
 31
0.0
  0
ELLIPSE
  5
39C
330
1F
100
AcDbEntity
  8
0
  6
Continuous
 62
     7
370
    15
100
AcDbEllipse
 10
322.10527417
 20
164.9913432437
 30
0.0
 11
0.0
 21
23.60814814814822
 31
0.0
210
0.0
220
0.0
230
1.0
 40
0.4299363057
 41
1.423717971406491
 42
1.490022401564532
  0
LINE
  5
39D
330
1F
100
AcDbEntity
  8
0
  6
Continuous
 62
     7
370
    15
100
AcDbLine
 10
312.0648595772
 20
168.4510857165
 30
0.0
 11
312.1561649523
 21
169.8845908344
 31
0.0
  0
LINE
  5
39E
330
1F
100
AcDbEntity
  8
0
  6
Continuous
 62
     7
370
    15
100
AcDbLine
 10
312.1897596202
 20
170.412032336
 30
0.0
 11
312.1968183003
 21
170.5228384883
 31
0.0
  0
LINE
  5
39F
330
1F
100
AcDbEntity
  8
0
  6
Continuous
 62
     7
370
    15
100
AcDbLine
 10
312.2312370024
 20
171.0632223934
 30
0.0
 11
312.2628200135
 21
171.559078835
 31
0.0
  0
ELLIPSE
  5
3A0
330
1F
100
AcDbEntity
  8
0
  6
Continuous
 62
     7
370
    15
100
AcDbEllipse
 10
311.9165991573
 20
171.6783802807
 30
0.0
 11
0.0
 21
0.8140740740740852
 31
0.0
210
0.0
220
0.0
230
1.0
 40
0.4299363057
 41
4.565310624996286
 42
6.283185307179586
  0
LINE
  5
3A1
330
1F
100
AcDbEntity
  8
0
  6
Continuous
 62
     7
370
    15
100
AcDbLine
 10
311.9165989838
 20
172.492454324
 30
0.0
 11
311.9165989838
 21
172.6913432889
 31
0.0
  0
LINE
  5
3A2
330
1F
100
AcDbEntity
  8
0
  6
Continuous
 62
     7
370
    15
100
AcDbLine
 10
308.0598804436
 20
172.6913432889
 30
0.0
 11
309.6272091649
 21
172.6913432889
 31
0.0
  0
LINE
  5
3A3
330
1F
100
AcDbEntity
  8
0
  6
Continuous
 62
     7
370
    15
100
AcDbLine
 10
311.2912404619
 20
172.6913432889
 30
0.0
 11
311.9165989838
 21
172.6913432889
 31
0.0
  0
ELLIPSE
  5
3A4
330
1F
100
AcDbEntity
  8
0
  6
Continuous
 62
     7
370
    15
100
AcDbEllipse
 10
307.8256616806
 20
171.6783802807
 30
0.0
 11
0.0
 21
0.8140740740740852
 31
0.0
210
0.0
220
0.0
230
1.0
 40
0.4299363057
 41
0.5949039133902277
 42
0.8050440060269741
  0
LINE
  5
3A5
330
1F
100
AcDbEntity
  8
0
  6
Continuous
 62
     7
370
    15
100
AcDbLine
 10
307.5059677742
 20
171.1425982714
 30
0.0
 11
307.5078743778
 21
171.1126612798
 31
0.0
  0
LINE
  5
3A6
330
1F
100
AcDbEntity
  8
0
  6
Continuous
 62
     7
370
    15
100
AcDbLine
 10
307.3543305776
 20
171.1425982714
 30
0.0
 11
307.3559227667
 21
171.117598407
 31
0.0
  0
ELLIPSE
  5
3A7
330
1F
100
AcDbEntity
  8
0
  6
Continuous
 62
     7
370
    15
100
AcDbEllipse
 10
307.8256616806
 20
171.6783802807
 30
0.0
 11
0.0
 21
1.162962962962979
 31
0.0
210
0.0
220
0.0
230
1.0
 40
0.4299363057
 41
0.9523847475100367
 42
1.0642551550148
  0
ELLIPSE
  5
3A8
330
1F
100
AcDbEntity
  8
0
  6
Continuous
 62
     7
370
    15
100
AcDbEllipse
 10
311.9165991573
 20
171.6783802807
 30
0.0
 11
0.0
 21
1.16296296296295
 31
0.0
210
0.0
220
0.0
230
1.0
 40
0.4299363057
 41
4.565310624996293
 42
6.031662597346313
  0
LINE
  5
3A9
330
1F
100
AcDbEntity
  8
0
  6
Continuous
 62
     7
370
    15
100
AcDbLine
 10
312.2132393799
 20
168.3999564797
 30
0.0
 11
312.3035165749
 21
169.8172979355
 31
0.0
  0
LINE
  5
3AA
330
1F
100
AcDbEntity
  8
0
  6
Continuous
 62
     7
370
    15
100
AcDbLine
 10
312.3238521896
 20
170.1365679801
 30
0.0
 11
312.3344916187
 21
170.3036099971
 31
0.0
  0
LINE
  5
3AB
330
1F
100
AcDbEntity
  8
0
  6
Continuous
 62
     7
370
    15
100
AcDbLine
 10
312.3678076349
 20
170.8266754002
 30
0.0
 11
312.4112013064
 21
171.5079495982
 31
0.0
  0
ELLIPSE
  5
3AC
330
1F
100
AcDbEntity
  8
0
  6
Continuous
 62
     7
370
    15
100
AcDbEllipse
 10
322.10527417
 20
164.9913432437
 30
0.0
 11
0.0
 21
23.25925925925932
 31
0.0
210
0.0
220
0.0
230
1.0
 40
0.4299363057
 41
1.423717971406493
 42
1.4894185199531
  0
LINE
  5
3AD
330
1F
100
AcDbEntity
  8
0
  6
Continuous
 62
     7
370
    15
100
AcDbLine
 10
312.1383670054
 20
165.5255448372
 30
0.0
 11
312.1383670054
 21
166.8820422441
 31
0.0
  0
LINE
  5
3AE
330
1F
100
AcDbEntity
  8
0
  6
Continuous
 62
     7
370
    15
100
AcDbLine
 10
311.9883674464
 20
172.4751560316
 30
0.0
 11
311.9883674464
 21
171.4838847817
 31
0.0
  0
LINE
  5
3AF
330
1F
100
AcDbEntity
  8
0
  6
Continuous
 62
     7
370
    15
100
AcDbLine
 10
311.9883674464
 20
170.8838848696
 30
0.0
 11
311.9883674464
 21
170.8331547976
 31
0.0
  0
LINE
  5
3B0
330
1F
100
AcDbEntity
  8
0
  6
Continuous
 62
     7
370
    15
100
AcDbLine
 10
311.9883674464
 20
170.1377943457
 30
0.0
 11
311.9883674464
 21
166.8961931319
 31
0.0
  0
LINE
  5
3B1
330
1F
100
AcDbEntity
  8
0
  6
Continuous
 62
     7
370
    15
100
AcDbLine
 10
307.7538932941
 20
172.352598358
 30
0.0
 11
307.7538932941
 21
172.2425983586
 31
0.0
  0
LINE
  5
3B2
330
1F
100
AcDbEntity
  8
0
  6
Continuous
 62
     7
370
    15
100
AcDbLine
 10
307.7538932941
 20
171.00092455
 30
0.0
 11
307.7538932941
 21
170.7165472508
 31
0.0
  0
LINE
  5
3B3
330
1F
100
AcDbEntity
  8
0
  6
Continuous
 62
     7
370
    15
100
AcDbLine
 10
312.1383670054
 20
165.3742891104
 30
0.0
 11
312.1383670054
 21
165.5255448372
 31
0.0
  0
LINE
  5
3B4
330
1F
100
AcDbEntity
  8
0
  6
Continuous
 62
     7
370
    15
100
AcDbLine
 10
311.9883674464
 20
165.3742891104
 30
0.0
 11
311.9883674464
 21
165.5255448372
 31
0.0
  0
ELLIPSE
  5
3B5
330
1F
100
AcDbEntity
  8
0
  6
Continuous
 62
     7
370
    15
100
AcDbEllipse
 10
286.9165991573
 20
171.6783802807
 30
0.0
 11
0.0
 21
1.162962962962979
 31
0.0
210
0.0
220
0.0
230
1.0
 40
0.4299363057
 41
5.218930152164909
 42
5.330800559669631
  0
LINE
  5
3B6
330
1F
100
AcDbEntity
  8
0
  6
Continuous
 62
     7
370
    15
100
AcDbLine
 10
287.3863379739
 20
171.117598407
 30
0.0
 11
287.3879301629
 21
171.1425982714
 31
0.0
  0
LINE
  5
3B7
330
1F
100
AcDbEntity
  8
0
  6
Continuous
 62
     7
370
    15
100
AcDbLine
 10
287.2343863628
 20
171.1126612798
 30
0.0
 11
287.2362929664
 21
171.1425982714
 31
0.0
  0
ELLIPSE
  5
3B8
330
1F
100
AcDbEntity
  8
0
  6
Continuous
 62
     7
370
    15
100
AcDbEllipse
 10
286.9165991573
 20
171.6783802807
 30
0.0
 11
0.0
 21
0.8140740740740852
 31
0.0
210
0.0
220
0.0
230
1.0
 40
0.4299363057
 41
5.478141301152631
 42
5.688281393789381
  0
LINE
  5
3B9
330
1F
100
AcDbEntity
  8
0
  6
Continuous
 62
     7
370
    15
100
AcDbLine
 10
282.8256610117
 20
172.6913432889
 30
0.0
 11
286.682380297
 21
172.6913432889
 31
0.0
  0
LINE
  5
3BA
330
1F
100
AcDbEntity
  8
0
  6
Continuous
 62
     7
370
    15
100
AcDbLine
 10
282.8256610117
 20
172.6913432889
 30
0.0
 11
282.8256610117
 21
172.492454324
 31
0.0
  0
ELLIPSE
  5
3BB
330
1F
100
AcDbEntity
  8
0
  6
Continuous
 62
     7
370
    15
100
AcDbEllipse
 10
282.8256616806
 20
171.6783802807
 30
0.0
 11
0.0
 21
0.8140740740740852
 31
0.0
210
0.0
220
0.0
230
1.0
 40
0.4299363057
 41
0.0
 42
1.717874682183284
  0
LINE
  5
3BC
330
1F
100
AcDbEntity
  8
0
  6
Continuous
 62
     7
370
    15
100
AcDbLine
 10
282.479439982
 20
171.559078835
 30
0.0
 11
282.6774019084
 21
168.4510857165
 31
0.0
  0
ELLIPSE
  5
3BD
330
1F
100
AcDbEntity
  8
0
  6
Continuous
 62
     7
370
    15
100
AcDbEllipse
 10
272.6369866679
 20
164.9913432437
 30
0.0
 11
0.0
 21
23.60814814814816
 31
0.0
210
0.0
220
0.0
230
1.0
 40
0.4299363057
 41
4.793162905615064
 42
4.859467335773102
  0
LINE
  5
3BE
330
1F
100
AcDbEntity
  8
0
  6
Continuous
 62
     7
370
    15
100
AcDbLine
 10
282.7538925491
 20
166.8961931319
 30
0.0
 11
282.7538925491
 21
165.5255448372
 31
0.0
  0
LINE
  5
3BF
330
1F
100
AcDbEntity
  8
0
  6
Continuous
 62
     7
370
    15
100
AcDbLine
 10
282.6038929901
 20
166.8820422441
 30
0.0
 11
282.6038929901
 21
165.5255448372
 31
0.0
  0
ELLIPSE
  5
3C0
330
1F
100
AcDbEntity
  8
0
  6
Continuous
 62
     7
370
    15
100
AcDbEllipse
 10
272.6369866679
 20
164.9913432437
 30
0.0
 11
0.0
 21
23.25925925925926
 31
0.0
210
0.0
220
0.0
230
1.0
 40
0.4299363057
 41
4.793766787226497
 42
4.859467335773101
  0
LINE
  5
3C1
330
1F
100
AcDbEntity
  8
0
  6
Continuous
 62
     7
370
    15
100
AcDbLine
 10
282.3310601793
 20
171.5079495982
 30
0.0
 11
282.5290206156
 21
168.3999564797
 31
0.0
  0
ELLIPSE
  5
3C2
330
1F
100
AcDbEntity
  8
0
  6
Continuous
 62
     7
370
    15
100
AcDbEllipse
 10
282.8256616806
 20
171.6783802807
 30
0.0
 11
0.0
 21
1.16296296296295
 31
0.0
210
0.0
220
0.0
230
1.0
 40
0.4299363057
 41
0.0
 42
1.717874682183316
  0
LINE
  5
3C3
330
1F
100
AcDbEntity
  8
0
  6
Continuous
 62
     7
370
    15
100
AcDbLine
 10
282.7538925491
 20
172.4751560316
 30
0.0
 11
282.7538925491
 21
166.8961931319
 31
0.0
  0
LINE
  5
3C4
330
1F
100
AcDbEntity
  8
0
  6
Continuous
 62
     7
370
    15
100
AcDbLine
 10
286.9883674464
 20
172.352598358
 30
0.0
 11
286.9883674464
 21
172.2425983586
 31
0.0
  0
LINE
  5
3C5
330
1F
100
AcDbEntity
  8
0
  6
Continuous
 62
     7
370
    15
100
AcDbLine
 10
286.9883674464
 20
171.00092455
 30
0.0
 11
286.9883674464
 21
170.7165472508
 31
0.0
  0
LINE
  5
3C6
330
1F
100
AcDbEntity
  8
0
  6
Continuous
 62
     7
370
    15
100
AcDbLine
 10
282.6038929901
 20
165.5255448372
 30
0.0
 11
282.6038929901
 21
165.3742891104
 31
0.0
  0
LINE
  5
3C7
330
1F
100
AcDbEntity
  8
0
  6
Continuous
 62
     7
370
    15
100
AcDbLine
 10
282.7538925491
 20
165.5255448372
 30
0.0
 11
282.7538925491
 21
165.3742891104
 31
0.0
  0
LINE
  5
3C8
330
1F
100
AcDbEntity
  8
0
  6
Continuous
 62
     7
370
    15
100
AcDbLine
 10
286.1211302958
 20
165.9913432152
 30
0.0
 11
286.1211302958
 21
168.3568839282
 31
0.0
  0
LINE
  5
3C9
330
1F
100
AcDbEntity
  8
0
  6
Continuous
 62
     7
370
    15
100
AcDbLine
 10
286.1211302958
 20
160.9913427681
 30
0.0
 11
286.1211302958
 21
165.9913432152
 31
0.0
  0
LINE
  5
3CA
330
1F
100
AcDbEntity
  8
0
  6
Continuous
 62
     7
370
    15
100
AcDbLine
 10
283.6211296997
 20
165.9913432152
 30
0.0
 11
283.6211296997
 21
170.9913432897
 31
0.0
  0
LINE
  5
3CB
330
1F
100
AcDbEntity
  8
0
  6
Continuous
 62
     7
370
    15
100
AcDbLine
 10
283.6211296997
 20
160.9913427681
 30
0.0
 11
283.6211296997
 21
165.9913432152
 31
0.0
  0
LINE
  5
3CC
330
1F
100
AcDbEntity
  8
0
  6
Continuous
 62
     7
370
    15
100
AcDbLine
 10
308.6211304448
 20
168.3568839282
 30
0.0
 11
308.6211304448
 21
166.4395984561
 31
0.0
  0
LINE
  5
3CD
330
1F
100
AcDbEntity
  8
0
  6
Continuous
 62
     7
370
    15
100
AcDbLine
 10
308.6211304448
 20
165.7955985815
 30
0.0
 11
308.6211304448
 21
160.9913427681
 31
0.0
  0
LINE
  5
3CE
330
1F
100
AcDbEntity
  8
0
  6
Continuous
 62
     7
370
    15
100
AcDbLine
 10
311.1211302958
 20
170.9913432897
 30
0.0
 11
311.1211302958
 21
160.9913427681
 31
0.0
  0
LINE
  5
3CF
330
1F
100
AcDbEntity
  8
0
  6
Continuous
 62
     7
370
    15
100
AcDbLine
 10
286.4411304972
 20
172.2425983586
 30
0.0
 11
289.80113075
 21
172.2425983586
 31
0.0
  0
LINE
  5
3D0
330
1F
100
AcDbEntity
  8
0
  6
Continuous
 62
     7
370
    15
100
AcDbLine
 10
304.9411307357
 20
172.2425983586
 30
0.0
 11
308.3011302433
 21
172.2425983586
 31
0.0
  0
LINE
  5
3D1
330
1F
100
AcDbEntity
  8
0
  6
Continuous
 62
     7
370
    15
100
AcDbLine
 10
286.682380297
 20
172.352598358
 30
0.0
 11
289.5598802052
 21
172.352598358
 31
0.0
  0
LINE
  5
3D2
330
1F
100
AcDbEntity
  8
0
  6
Continuous
 62
     7
370
    15
100
AcDbLine
 10
286.682380297
 20
173.3650983377
 30
0.0
 11
289.5598802052
 21
173.3650983377
 31
0.0
  0
LINE
  5
3D3
330
1F
100
AcDbEntity
  8
0
  6
Continuous
 62
     7
370
    15
100
AcDbLine
 10
305.1823805354
 20
173.3650983377
 30
0.0
 11
308.0598804436
 21
173.3650983377
 31
0.0
  0
LINE
  5
3D4
330
1F
100
AcDbEntity
  8
0
  6
Continuous
 62
     7
370
    15
100
AcDbLine
 10
305.1823805354
 20
172.352598358
 30
0.0
 11
308.0598804436
 21
172.352598358
 31
0.0
  0
LINE
  5
3D5
330
1F
100
AcDbEntity
  8
0
  6
Continuous
 62
     7
370
    15
100
AcDbLine
 10
307.9036305926
 20
166.1175985188
 30
0.0
 11
307.9036305926
 21
170.1675981582
 31
0.0
  0
LINE
  5
3D6
330
1F
100
AcDbEntity
  8
0
  6
Continuous
 62
     7
370
    15
100
AcDbLine
 10
307.9036305926
 20
162.0675985069
 30
0.0
 11
307.9036305926
 21
166.1175985188
 31
0.0
  0
LINE
  5
3D7
330
1F
100
AcDbEntity
  8
0
  6
Continuous
 62
     7
370
    15
100
AcDbLine
 10
305.3386303864
 20
166.1175985188
 30
0.0
 11
305.3386303864
 21
170.1675981582
 31
0.0
  0
LINE
  5
3D8
330
1F
100
AcDbEntity
  8
0
  6
Continuous
 62
     7
370
    15
100
AcDbLine
 10
305.3386303864
 20
162.0675985069
 30
0.0
 11
305.3386303864
 21
166.1175985188
 31
0.0
  0
LINE
  5
3D9
330
1F
100
AcDbEntity
  8
0
  6
Continuous
 62
     7
370
    15
100
AcDbLine
 10
305.1461304806
 20
164.6450985522
 30
0.0
 11
305.1461304806
 21
167.5900984854
 31
0.0
  0
LINE
  5
3DA
330
1F
100
AcDbEntity
  8
0
  6
Continuous
 62
     7
370
    15
100
AcDbLine
 10
308.0961304984
 20
167.5900984854
 30
0.0
 11
308.0961304984
 21
164.6450985522
 31
0.0
  0
LINE
  5
3DB
330
1F
100
AcDbEntity
  8
0
  6
Continuous
 62
     7
370
    15
100
AcDbLine
 10
305.0961303792
 20
165.1425984055
 30
0.0
 11
304.9461300752
 21
165.1425984055
 31
0.0
  0
LINE
  5
3DC
330
1F
100
AcDbEntity
  8
0
  6
Continuous
 62
     7
370
    15
100
AcDbLine
 10
304.9461300752
 20
165.1425984055
 30
0.0
 11
304.9461300752
 21
165.768079117
 31
0.0
  0
LINE
  5
3DD
330
1F
100
AcDbEntity
  8
0
  6
Continuous
 62
     7
370
    15
100
AcDbLine
 10
305.0961303792
 20
165.768079117
 30
0.0
 11
305.0961303792
 21
165.1425984055
 31
0.0
  0
LINE
  5
3DE
330
1F
100
AcDbEntity
  8
0
  6
Continuous
 62
     7
370
    15
100
AcDbLine
 10
308.2961301587
 20
165.768079117
 30
0.0
 11
308.2961301587
 21
165.1425984055
 31
0.0
  0
LINE
  5
3DF
330
1F
100
AcDbEntity
  8
0
  6
Continuous
 62
     7
370
    15
100
AcDbLine
 10
308.2961301587
 20
165.1425984055
 30
0.0
 11
308.1461305998
 21
165.1425984055
 31
0.0
  0
LINE
  5
3E0
330
1F
100
AcDbEntity
  8
0
  6
Continuous
 62
     7
370
    15
100
AcDbLine
 10
308.1461305998
 20
165.1425984055
 30
0.0
 11
308.1461305998
 21
165.768079117
 31
0.0
  0
ARC
  5
3E1
330
1F
100
AcDbEntity
  8
0
  6
Continuous
 62
     7
370
    15
100
AcDbCircle
 10
308.0711304189
 20
171.6675983439
 30
0.0
 40
0.0750000000000171
100
AcDbArc
 50
0.0
 51
90.0
  0
LINE
  5
3E2
330
1F
100
AcDbEntity
  8
0
  6
Continuous
 62
     7
370
    15
100
AcDbLine
 10
305.1711301587
 20
171.7425983698
 30
0.0
 11
308.0711300752
 21
171.7425983698
 31
0.0
  0
ARC
  5
3E3
330
1F
100
AcDbEntity
  8
0
  6
Continuous
 62
     7
370
    15
100
AcDbCircle
 10
305.1711304189
 20
171.6675983439
 30
0.0
 40
0.0750000000000455
100
AcDbArc
 50
90.0
 51
180.0
  0
ARC
  5
3E4
330
1F
100
AcDbEntity
  8
0
  6
Continuous
 62
     7
370
    15
100
AcDbCircle
 10
305.0961304189
 20
171.7425983439
 30
0.0
 40
0.1500000000000057
100
AcDbArc
 50
90.0
 51
180.0
  0
LINE
  5
3E5
330
1F
100
AcDbEntity
  8
0
  6
Continuous
 62
     7
370
    15
100
AcDbLine
 10
305.0961303792
 20
171.8925983012
 30
0.0
 11
308.1461305998
 21
171.8925983012
 31
0.0
  0
ARC
  5
3E6
330
1F
100
AcDbEntity
  8
0
  6
Continuous
 62
     7
370
    15
100
AcDbCircle
 10
308.1461304189
 20
171.7425983439
 30
0.0
 40
0.1500000000000341
100
AcDbArc
 50
0.0
 51
90.0
  0
LINE
  5
3E7
330
1F
100
AcDbEntity
  8
0
  6
Continuous
 62
     7
370
    15
100
AcDbLine
 10
308.2961301587
 20
171.7425983698
 30
0.0
 11
308.2961301587
 21
165.768079117
 31
0.0
  0
LINE
  5
3E8
330
1F
100
AcDbEntity
  8
0
  6
Continuous
 62
     7
370
    15
100
AcDbLine
 10
308.1461305998
 20
171.667598404
 30
0.0
 11
308.1461305998
 21
165.768079117
 31
0.0
  0
LINE
  5
3E9
330
1F
100
AcDbEntity
  8
0
  6
Continuous
 62
     7
370
    15
100
AcDbLine
 10
304.9461300752
 20
165.768079117
 30
0.0
 11
304.9461300752
 21
171.7425983698
 31
0.0
  0
LINE
  5
3EA
330
1F
100
AcDbEntity
  8
0
  6
Continuous
 62
     7
370
    15
100
AcDbLine
 10
305.0961303792
 20
165.768079117
 30
0.0
 11
305.0961303792
 21
171.667598404
 31
0.0
  0
LINE
  5
3EB
330
1F
100
AcDbEntity
  8
0
  6
Continuous
 62
     7
370
    15
100
AcDbLine
 10
308.7611305795
 20
166.4395984561
 30
0.0
 11
308.2961301587
 21
166.4395984561
 31
0.0
  0
LINE
  5
3EC
330
1F
100
AcDbEntity
  8
0
  6
Continuous
 62
     7
370
    15
100
AcDbLine
 10
308.7611305795
 20
166.1175985188
 30
0.0
 11
308.2961301587
 21
166.1175985188
 31
0.0
  0
LINE
  5
3ED
330
1F
100
AcDbEntity
  8
0
  6
Continuous
 62
     7
370
    15
100
AcDbLine
 10
308.7611305795
 20
166.4395984561
 30
0.0
 11
308.7611305795
 21
166.1175985188
 31
0.0
  0
LINE
  5
3EE
330
1F
100
AcDbEntity
  8
0
  6
Continuous
 62
     7
370
    15
100
AcDbLine
 10
308.7611305795
 20
165.7955985815
 30
0.0
 11
308.2961301587
 21
165.7955985815
 31
0.0
  0
LINE
  5
3EF
330
1F
100
AcDbEntity
  8
0
  6
Continuous
 62
     7
370
    15
100
AcDbLine
 10
308.7611305795
 20
166.1175985188
 30
0.0
 11
308.7611305795
 21
165.7955985815
 31
0.0
  0
LINE
  5
3F0
330
1F
100
AcDbEntity
  8
0
  6
Continuous
 62
     7
370
    15
100
AcDbLine
 10
304.6811300597
 20
165.7988485247
 30
0.0
 11
304.9461300752
 21
165.7988485247
 31
0.0
  0
LINE
  5
3F1
330
1F
100
AcDbEntity
  8
0
  6
Continuous
 62
     7
370
    15
100
AcDbLine
 10
304.6811300597
 20
166.1175985188
 30
0.0
 11
304.9461300752
 21
166.1175985188
 31
0.0
  0
LINE
  5
3F2
330
1F
100
AcDbEntity
  8
0
  6
Continuous
 62
     7
370
    15
100
AcDbLine
 10
304.6811300597
 20
165.7988485247
 30
0.0
 11
304.6811300597
 21
166.1175985188
 31
0.0
  0
LINE
  5
3F3
330
1F
100
AcDbEntity
  8
0
  6
Continuous
 62
     7
370
    15
100
AcDbLine
 10
304.6811300597
 20
166.4363485128
 30
0.0
 11
304.9461300752
 21
166.4363485128
 31
0.0
  0
LINE
  5
3F4
330
1F
100
AcDbEntity
  8
0
  6
Continuous
 62
     7
370
    15
100
AcDbLine
 10
304.6811300597
 20
166.1175985188
 30
0.0
 11
304.6811300597
 21
166.4363485128
 31
0.0
  0
LINE
  5
3F5
330
1F
100
AcDbEntity
  8
0
  6
Continuous
 62
     7
370
    15
100
AcDbLine
 10
308.8961306296
 20
166.317598179
 30
0.0
 11
308.8961306296
 21
165.9175981135
 31
0.0
  0
ELLIPSE
  5
3F6
330
1F
100
AcDbEntity
  8
0
  6
Continuous
 62
     7
370
    15
100
AcDbEllipse
 10
306.6211304189
 20
168.3568840582
 30
0.0
 11
0.0
 21
3.589285714285751
 31
0.0
210
0.0
220
0.0
230
1.0
 40
0.4666666667
 41
5.138820000035535
 42
5.600877320272666
  0
LINE
  5
3F7
330
1F
100
AcDbEntity
  8
0
  6
Continuous
 62
     7
370
    15
100
AcDbLine
 10
307.6773616753
 20
171.1425982714
 30
0.0
 11
305.5648985586
 21
171.1425982714
 31
0.0
  0
ELLIPSE
  5
3F8
330
1F
100
AcDbEntity
  8
0
  6
Continuous
 62
     7
370
    15
100
AcDbEllipse
 10
306.6211304189
 20
168.3568840582
 30
0.0
 11
0.0
 21
3.589285714285751
 31
0.0
210
0.0
220
0.0
230
1.0
 40
0.4666666667
 41
0.6823079869069731
 42
1.144365307144018
  0
LINE
  5
3F9
330
1F
100
AcDbEntity
  8
0
  6
Continuous
 62
     7
370
    15
100
AcDbLine
 10
308.1461305998
 20
171.8925983012
 30
0.0
 11
308.4711301408
 21
171.8925983012
 31
0.0
  0
LINE
  5
3FA
330
1F
100
AcDbEntity
  8
0
  6
Continuous
 62
     7
370
    15
100
AcDbLine
 10
304.7711300931
 20
171.8925983012
 30
0.0
 11
305.0961303792
 21
171.8925983012
 31
0.0
  0
ELLIPSE
  5
3FB
330
1F
100
AcDbEntity
  8
0
  6
Continuous
 62
     7
370
    15
100
AcDbEllipse
 10
306.6211304189
 20
168.3568840582
 30
0.0
 11
0.0
 21
4.285714285714306
 31
0.0
210
0.0
220
0.0
230
1.0
 40
0.4666666667
 41
1.57079632679489
 42
2.035463176893803
  0
ELLIPSE
  5
3FC
330
1F
100
AcDbEntity
  8
0
  6
Continuous
 62
     7
370
    15
100
AcDbEllipse
 10
306.6211304189
 20
168.3568840582
 30
0.0
 11
0.0
 21
4.285714285714278
 31
0.0
210
0.0
220
0.0
230
1.0
 40
0.4666666667
 41
4.248570225293243
 42
4.712388980384696
  0
LINE
  5
3FD
330
1F
100
AcDbEntity
  8
0
  6
Continuous
 62
     7
370
    15
100
AcDbLine
 10
289.4036303542
 20
166.1175985188
 30
0.0
 11
289.4036303542
 21
170.1675981582
 31
0.0
  0
LINE
  5
3FE
330
1F
100
AcDbEntity
  8
0
  6
Continuous
 62
     7
370
    15
100
AcDbLine
 10
289.4036303542
 20
162.0675985069
 30
0.0
 11
289.4036303542
 21
166.1175985188
 31
0.0
  0
LINE
  5
3FF
330
1F
100
AcDbEntity
  8
0
  6
Continuous
 62
     7
370
    15
100
AcDbLine
 10
286.838630148
 20
166.1175985188
 30
0.0
 11
286.838630148
 21
170.1675981582
 31
0.0
  0
LINE
  5
400
330
1F
100
AcDbEntity
  8
0
  6
Continuous
 62
     7
370
    15
100
AcDbLine
 10
286.838630148
 20
162.0675985069
 30
0.0
 11
286.838630148
 21
166.1175985188
 31
0.0
  0
LINE
  5
401
330
1F
100
AcDbEntity
  8
0
  6
Continuous
 62
     7
370
    15
100
AcDbLine
 10
286.6461302421
 20
164.6450985522
 30
0.0
 11
286.6461302421
 21
167.5900984854
 31
0.0
  0
LINE
  5
402
330
1F
100
AcDbEntity
  8
0
  6
Continuous
 62
     7
370
    15
100
AcDbLine
 10
289.59613026
 20
167.5900984854
 30
0.0
 11
289.59613026
 21
164.6450985522
 31
0.0
  0
LINE
  5
403
330
1F
100
AcDbEntity
  8
0
  6
Continuous
 62
     7
370
    15
100
AcDbLine
 10
286.5961301408
 20
165.1425984055
 30
0.0
 11
286.4461305819
 21
165.1425984055
 31
0.0
  0
LINE
  5
404
330
1F
100
AcDbEntity
  8
0
  6
Continuous
 62
     7
370
    15
100
AcDbLine
 10
286.4461305819
 20
165.1425984055
 30
0.0
 11
286.4461305819
 21
165.768079117
 31
0.0
  0
LINE
  5
405
330
1F
100
AcDbEntity
  8
0
  6
Continuous
 62
     7
370
    15
100
AcDbLine
 10
286.5961301408
 20
165.768079117
 30
0.0
 11
286.5961301408
 21
165.1425984055
 31
0.0
  0
LINE
  5
406
330
1F
100
AcDbEntity
  8
0
  6
Continuous
 62
     7
370
    15
100
AcDbLine
 10
289.7961306653
 20
165.1425984055
 30
0.0
 11
289.6461303613
 21
165.1425984055
 31
0.0
  0
LINE
  5
407
330
1F
100
AcDbEntity
  8
0
  6
Continuous
 62
     7
370
    15
100
AcDbLine
 10
289.6461303613
 20
165.1425984055
 30
0.0
 11
289.6461303613
 21
165.768079117
 31
0.0
  0
LINE
  5
408
330
1F
100
AcDbEntity
  8
0
  6
Continuous
 62
     7
370
    15
100
AcDbLine
 10
289.7961306653
 20
165.768079117
 30
0.0
 11
289.7961306653
 21
165.1425984055
 31
0.0
  0
ARC
  5
409
330
1F
100
AcDbEntity
  8
0
  6
Continuous
 62
     7
370
    15
100
AcDbCircle
 10
289.5711304189
 20
171.6675983439
 30
0.0
 40
0.0749999999999886
100
AcDbArc
 50
360.0
 51
90.0
  0
LINE
  5
40A
330
1F
100
AcDbEntity
  8
0
  6
Continuous
 62
     7
370
    15
100
AcDbLine
 10
286.6711306653
 20
171.7425983698
 30
0.0
 11
289.5711305819
 21
171.7425983698
 31
0.0
  0
ARC
  5
40B
330
1F
100
AcDbEntity
  8
0
  6
Continuous
 62
     7
370
    15
100
AcDbCircle
 10
286.6711304189
 20
171.6675983439
 30
0.0
 40
0.0750000000000455
100
AcDbArc
 50
90.0
 51
180.0
  0
ARC
  5
40C
330
1F
100
AcDbEntity
  8
0
  6
Continuous
 62
     7
370
    15
100
AcDbCircle
 10
286.5961304189
 20
171.7425983439
 30
0.0
 40
0.1500000000000057
100
AcDbArc
 50
90.0
 51
180.0
  0
LINE
  5
40D
330
1F
100
AcDbEntity
  8
0
  6
Continuous
 62
     7
370
    15
100
AcDbLine
 10
286.5961301408
 20
171.8925983012
 30
0.0
 11
289.6461303613
 21
171.8925983012
 31
0.0
  0
ARC
  5
40E
330
1F
100
AcDbEntity
  8
0
  6
Continuous
 62
     7
370
    15
100
AcDbCircle
 10
289.6461304189
 20
171.7425983439
 30
0.0
 40
0.1500000000000341
100
AcDbArc
 50
0.0
 51
90.0
  0
LINE
  5
40F
330
1F
100
AcDbEntity
  8
0
  6
Continuous
 62
     7
370
    15
100
AcDbLine
 10
289.6461303613
 20
171.667598404
 30
0.0
 11
289.6461303613
 21
165.768079117
 31
0.0
  0
LINE
  5
410
330
1F
100
AcDbEntity
  8
0
  6
Continuous
 62
     7
370
    15
100
AcDbLine
 10
289.7961306653
 20
171.7425983698
 30
0.0
 11
289.7961306653
 21
165.768079117
 31
0.0
  0
LINE
  5
411
330
1F
100
AcDbEntity
  8
0
  6
Continuous
 62
     7
370
    15
100
AcDbLine
 10
286.4461305819
 20
165.768079117
 30
0.0
 11
286.4461305819
 21
171.7425983698
 31
0.0
  0
LINE
  5
412
330
1F
100
AcDbEntity
  8
0
  6
Continuous
 62
     7
370
    15
100
AcDbLine
 10
286.5961301408
 20
165.768079117
 30
0.0
 11
286.5961301408
 21
171.667598404
 31
0.0
  0
LINE
  5
413
330
1F
100
AcDbEntity
  8
0
  6
Continuous
 62
     7
370
    15
100
AcDbLine
 10
290.2611303411
 20
166.4395984561
 30
0.0
 11
289.7961306653
 21
166.4395984561
 31
0.0
  0
LINE
  5
414
330
1F
100
AcDbEntity
  8
0
  6
Continuous
 62
     7
370
    15
100
AcDbLine
 10
290.2611303411
 20
166.1175985188
 30
0.0
 11
289.7961306653
 21
166.1175985188
 31
0.0
  0
LINE
  5
415
330
1F
100
AcDbEntity
  8
0
  6
Continuous
 62
     7
370
    15
100
AcDbLine
 10
290.2611303411
 20
166.4395984561
 30
0.0
 11
290.2611303411
 21
166.1175985188
 31
0.0
  0
LINE
  5
416
330
1F
100
AcDbEntity
  8
0
  6
Continuous
 62
     7
370
    15
100
AcDbLine
 10
290.2611303411
 20
165.7955985815
 30
0.0
 11
289.7961306653
 21
165.7955985815
 31
0.0
  0
LINE
  5
417
330
1F
100
AcDbEntity
  8
0
  6
Continuous
 62
     7
370
    15
100
AcDbLine
 10
290.2611303411
 20
166.1175985188
 30
0.0
 11
290.2611303411
 21
165.7955985815
 31
0.0
  0
LINE
  5
418
330
1F
100
AcDbEntity
  8
0
  6
Continuous
 62
     7
370
    15
100
AcDbLine
 10
286.1811305664
 20
165.7988485247
 30
0.0
 11
286.4461305819
 21
165.7988485247
 31
0.0
  0
LINE
  5
419
330
1F
100
AcDbEntity
  8
0
  6
Continuous
 62
     7
370
    15
100
AcDbLine
 10
286.1811305664
 20
165.7988485247
 30
0.0
 11
286.1811305664
 21
166.1175985188
 31
0.0
  0
LINE
  5
41A
330
1F
100
AcDbEntity
  8
0
  6
Continuous
 62
     7
370
    15
100
AcDbLine
 10
286.1811305664
 20
166.1175985188
 30
0.0
 11
286.4461305819
 21
166.1175985188
 31
0.0
  0
LINE
  5
41B
330
1F
100
AcDbEntity
  8
0
  6
Continuous
 62
     7
370
    15
100
AcDbLine
 10
286.1811305664
 20
166.1175985188
 30
0.0
 11
286.1811305664
 21
166.4363485128
 31
0.0
  0
LINE
  5
41C
330
1F
100
AcDbEntity
  8
0
  6
Continuous
 62
     7
370
    15
100
AcDbLine
 10
286.1811305664
 20
166.4363485128
 30
0.0
 11
286.4461305819
 21
166.4363485128
 31
0.0
  0
LINE
  5
41D
330
1F
100
AcDbEntity
  8
0
  6
Continuous
 62
     7
370
    15
100
AcDbLine
 10
290.3961303911
 20
166.317598179
 30
0.0
 11
290.3961303911
 21
165.9175981135
 31
0.0
  0
ELLIPSE
  5
41E
330
1F
100
AcDbEntity
  8
0
  6
Continuous
 62
     7
370
    15
100
AcDbEllipse
 10
288.1211304189
 20
168.3568840582
 30
0.0
 11
0.0
 21
3.589285714285751
 31
0.0
210
0.0
220
0.0
230
1.0
 40
0.4666666667
 41
5.138820000035535
 42
5.600877320272638
  0
LINE
  5
41F
330
1F
100
AcDbEntity
  8
0
  6
Continuous
 62
     7
370
    15
100
AcDbLine
 10
289.1773621819
 20
171.1425982714
 30
0.0
 11
287.0648990653
 21
171.1425982714
 31
0.0
  0
ELLIPSE
  5
420
330
1F
100
AcDbEntity
  8
0
  6
Continuous
 62
     7
370
    15
100
AcDbEllipse
 10
288.1211304189
 20
168.3568840582
 30
0.0
 11
0.0
 21
3.589285714285751
 31
0.0
210
0.0
220
0.0
230
1.0
 40
0.4666666667
 41
0.6823079869069731
 42
1.144365307144018
  0
LINE
  5
421
330
1F
100
AcDbEntity
  8
0
  6
Continuous
 62
     7
370
    15
100
AcDbLine
 10
289.6461303613
 20
171.8925983012
 30
0.0
 11
289.9711306474
 21
171.8925983012
 31
0.0
  0
LINE
  5
422
330
1F
100
AcDbEntity
  8
0
  6
Continuous
 62
     7
370
    15
100
AcDbLine
 10
286.2711305998
 20
171.8925983012
 30
0.0
 11
286.5961301408
 21
171.8925983012
 31
0.0
  0
ELLIPSE
  5
423
330
1F
100
AcDbEntity
  8
0
  6
Continuous
 62
     7
370
    15
100
AcDbEllipse
 10
288.1211304189
 20
168.3568840582
 30
0.0
 11
0.0
 21
4.285714285714306
 31
0.0
210
0.0
220
0.0
230
1.0
 40
0.4666666667
 41
4.248570225293246
 42
4.712388980384696
  0
ELLIPSE
  5
424
330
1F
100
AcDbEntity
  8
0
  6
Continuous
 62
     7
370
    15
100
AcDbEllipse
 10
288.1211304189
 20
168.3568840582
 30
0.0
 11
0.0
 21
4.285714285714306
 31
0.0
210
0.0
220
0.0
230
1.0
 40
0.4666666667
 41
1.57079632679489
 42
2.035463176893803
  0
LINE
  5
425
330
1F
100
AcDbEntity
  8
0
  6
Continuous
 62
     7
370
    15
100
AcDbLine
 10
286.8512551568
 20
162.0670985729
 30
0.0
 11
286.8512551568
 21
170.1680984647
 31
0.0
  0
LINE
  5
426
330
1F
100
AcDbEntity
  8
0
  6
Continuous
 62
     7
370
    15
100
AcDbLine
 10
289.3910053454
 20
166.1175985188
 30
0.0
 11
289.3910053454
 21
162.0670985729
 31
0.0
  0
LINE
  5
427
330
1F
100
AcDbEntity
  8
0
  6
Continuous
 62
     7
370
    15
100
AcDbLine
 10
289.3910053454
 20
170.1680984647
 30
0.0
 11
289.3910053454
 21
166.1175985188
 31
0.0
  0
LINE
  5
428
330
1F
100
AcDbEntity
  8
0
  6
Continuous
 62
     7
370
    15
100
AcDbLine
 10
307.8910055838
 20
166.1175985188
 30
0.0
 11
307.8910055838
 21
162.0670985729
 31
0.0
  0
LINE
  5
429
330
1F
100
AcDbEntity
  8
0
  6
Continuous
 62
     7
370
    15
100
AcDbLine
 10
307.8910055838
 20
170.1680984647
 30
0.0
 11
307.8910055838
 21
166.1175985188
 31
0.0
  0
LINE
  5
42A
330
1F
100
AcDbEntity
  8
0
  6
Continuous
 62
     7
370
    15
100
AcDbLine
 10
305.3512553952
 20
162.0670985729
 30
0.0
 11
305.3512553952
 21
170.1680984647
 31
0.0
  0
CIRCLE
  5
42B
330
1F
100
AcDbEntity
  8
0
  6
Continuous
 62
     7
370
    15
100
AcDbCircle
 10
284.2736304189
 20
200.0140603248
 30
0.0
 40
0.4087500000000546
  0
LINE
  5
42C
330
1F
100
AcDbEntity
  8
0
  6
Continuous
 62
     7
370
    15
100
AcDbLine
 10
301.0223805241
 20
176.2638433204
 30
0.0
 11
301.7198804102
 21
176.2638433204
 31
0.0
  0
CIRCLE
  5
42D
330
1F
100
AcDbEntity
  8
0
  6
Continuous
 62
     7
370
    15
100
AcDbCircle
 10
309.0061304189
 20
205.051777406
 30
0.0
 40
0.4087499999999977
  0
CIRCLE
  5
42E
330
1F
100
AcDbEntity
  8
0
  6
Continuous
 62
     7
370
    15
100
AcDbCircle
 10
284.2736304189
 20
179.3540603248
 30
0.0
 40
0.4087499999999977
  0
LINE
  5
42F
330
1F
100
AcDbEntity
  8
0
  6
Continuous
 62
     7
370
    15
100
AcDbLine
 10
299.0223803825
 20
176.2638433204
 30
0.0
 11
299.7198804549
 21
176.2638433204
 31
0.0
  0
CIRCLE
  5
430
330
1F
100
AcDbEntity
  8
0
  6
Continuous
 62
     7
370
    15
100
AcDbCircle
 10
309.0061304189
 20
212.601777406
 30
0.0
 40
0.4087499999999409
  0
LINE
  5
431
330
1F
100
AcDbEntity
  8
0
  6
Continuous
 62
     7
370
    15
100
AcDbLine
 10
295.0223804719
 20
176.2638433204
 30
0.0
 11
295.7198803581
 21
176.2638433204
 31
0.0
  0
LINE
  5
432
330
1F
100
AcDbEntity
  8
0
  6
Continuous
 62
     7
370
    15
100
AcDbLine
 10
293.0223803303
 20
176.2638433204
 30
0.0
 11
293.719880589
 21
176.2638433204
 31
0.0
  0
CIRCLE
  5
433
330
1F
100
AcDbEntity
  8
0
  6
Continuous
 62
     7
370
    15
100
AcDbCircle
 10
284.2761304189
 20
205.051777406
 30
0.0
 40
0.4087499999999409
  0
CIRCLE
  5
434
330
1F
100
AcDbEntity
  8
0
  6
Continuous
 62
     7
370
    15
100
AcDbCircle
 10
309.0086304189
 20
179.3540603248
 30
0.0
 40
0.4087499999999977
  0
LINE
  5
435
330
1F
100
AcDbEntity
  8
0
  6
Continuous
 62
     7
370
    15
100
AcDbLine
 10
281.5486300073
 20
185.0530270786
 30
0.0
 11
281.5486300073
 21
185.7505273372
 31
0.0
  0
LINE
  5
436
330
1F
100
AcDbEntity
  8
0
  6
Continuous
 62
     7
370
    15
100
AcDbLine
 10
281.5486300073
 20
211.8530277461
 30
0.0
 11
281.5486300073
 21
212.5505272598
 31
0.0
  0
LINE
  5
437
330
1F
100
AcDbEntity
  8
0
  6
Continuous
 62
     7
370
    15
100
AcDbLine
 10
281.5486300073
 20
178.9103102238
 30
0.0
 11
281.5486300073
 21
179.6078104824
 31
0.0
  0
CIRCLE
  5
438
330
1F
100
AcDbEntity
  8
0
  6
Continuous
 62
     7
370
    15
100
AcDbCircle
 10
284.2761304189
 20
212.601777406
 30
0.0
 40
0.4087499999999977
  0
LINE
  5
439
330
1F
100
AcDbEntity
  8
0
  6
Continuous
 62
     7
370
    15
100
AcDbLine
 10
313.8961303315
 20
216.1109630317
 30
0.0
 11
313.892594286
 21
216.1109630317
 31
0.0
  0
CIRCLE
  5
43A
330
1F
100
AcDbEntity
  8
0
  6
Continuous
 62
     7
370
    15
100
AcDbCircle
 10
309.0086304189
 20
200.0140603248
 30
0.0
 40
0.4087500000000546
  0
LINE
  5
43B
330
1F
100
AcDbEntity
  8
0
  6
Continuous
 62
     7
370
    15
100
AcDbLine
 10
314.0186297975
 20
216.3589272947
 30
0.0
 11
314.0186297975
 21
215.6880263538
 31
0.0
  0
LINE
  5
43C
330
1F
100
AcDbEntity
  8
0
  6
Continuous
 62
     7
370
    15
100
AcDbLine
 10
314.0186297975
 20
216.3855288476
 30
0.0
 11
314.0186297975
 21
216.3589272947
 31
0.0
  0
LINE
  5
43D
330
1F
100
AcDbEntity
  8
0
  6
Continuous
 62
     7
370
    15
100
AcDbLine
 10
313.892594286
 20
216.1148492545
 30
0.0
 11
313.8961303315
 21
216.1148492545
 31
0.0
  0
LINE
  5
43E
330
1F
100
AcDbEntity
  8
0
  6
Continuous
 62
     7
370
    15
100
AcDbLine
 10
313.8961303315
 20
215.763831541
 30
0.0
 11
313.892594286
 21
215.763831541
 31
0.0
  0
LINE
  5
43F
330
1F
100
AcDbEntity
  8
0
  6
Continuous
 62
     7
370
    15
100
AcDbLine
 10
313.8961303315
 20
215.9411225766
 30
0.0
 11
313.892594286
 21
215.9411225766
 31
0.0
  0
LINE
  5
440
330
1F
100
AcDbEntity
  8
0
  6
Continuous
 62
     7
370
    15
100
AcDbLine
 10
313.8961303315
 20
216.0328571052
 30
0.0
 11
313.892594286
 21
216.0328571052
 31
0.0
  0
LINE
  5
441
330
1F
100
AcDbEntity
  8
0
  6
Continuous
 62
     7
370
    15
100
AcDbLine
 10
313.8961303315
 20
216.0336587877
 30
0.0
 11
313.892594286
 21
216.0336587877
 31
0.0
  0
LINE
  5
442
330
1F
100
AcDbEntity
  8
0
  6
Continuous
 62
     7
370
    15
100
AcDbLine
 10
313.892594286
 20
215.9333978147
 30
0.0
 11
313.8961303315
 21
215.9333978147
 31
0.0
  0
LINE
  5
443
330
1F
100
AcDbEntity
  8
0
  6
Continuous
 62
     7
370
    15
100
AcDbLine
 10
313.8961303315
 20
215.8303771467
 30
0.0
 11
313.892594286
 21
215.8303771467
 31
0.0
  0
LINE
  5
444
330
1F
100
AcDbEntity
  8
0
  6
Continuous
 62
     7
370
    15
100
AcDbLine
 10
313.8961303315
 20
215.8724997491
 30
0.0
 11
313.892594286
 21
215.8724997491
 31
0.0
  0
LINE
  5
445
330
1F
100
AcDbEntity
  8
0
  6
Continuous
 62
     7
370
    15
100
AcDbLine
 10
313.8961303315
 20
215.7712880821
 30
0.0
 11
313.892594286
 21
215.7712880821
 31
0.0
  0
LINE
  5
446
330
1F
100
AcDbEntity
  8
0
  6
Continuous
 62
     7
370
    15
100
AcDbLine
 10
313.8961303315
 20
216.0919700116
 30
0.0
 11
313.892594286
 21
216.0919700116
 31
0.0
  0
LINE
  5
447
330
1F
100
AcDbEntity
  8
0
  6
Continuous
 62
     7
370
    15
100
AcDbLine
 10
313.8961303315
 20
216.1061231345
 30
0.0
 11
313.892594286
 21
216.1061231345
 31
0.0
  0
LINE
  5
448
330
1F
100
AcDbEntity
  8
0
  6
Continuous
 62
     7
370
    15
100
AcDbLine
 10
311.278564044
 20
176.2263432444
 30
0.0
 11
311.3111305318
 21
176.2263432444
 31
0.0
  0
LINE
  5
449
330
1F
100
AcDbEntity
  8
0
  6
Continuous
 62
     7
370
    15
100
AcDbLine
 10
310.9111297212
 20
176.2263432444
 30
0.0
 11
311.278564044
 21
176.2263432444
 31
0.0
  0
LINE
  5
44A
330
1F
100
AcDbEntity
  8
0
  6
Continuous
 62
     7
370
    15
100
AcDbLine
 10
310.2785635076
 20
176.2263432444
 30
0.0
 11
310.3111299954
 21
176.2263432444
 31
0.0
  0
LINE
  5
44B
330
1F
100
AcDbEntity
  8
0
  6
Continuous
 62
     7
370
    15
100
AcDbLine
 10
309.9111306749
 20
176.2263432444
 30
0.0
 11
310.2785635076
 21
176.2263432444
 31
0.0
  0
LINE
  5
44C
330
1F
100
AcDbEntity
  8
0
  6
Continuous
 62
     7
370
    15
100
AcDbLine
 10
282.338564404
 20
176.2263432444
 30
0.0
 11
282.3711308918
 21
176.2263432444
 31
0.0
  0
LINE
  5
44D
330
1F
100
AcDbEntity
  8
0
  6
Continuous
 62
     7
370
    15
100
AcDbLine
 10
281.9711300812
 20
176.2263432444
 30
0.0
 11
282.338564404
 21
176.2263432444
 31
0.0
  0
LINE
  5
44E
330
1F
100
AcDbEntity
  8
0
  6
Continuous
 62
     7
370
    15
100
AcDbLine
 10
283.398564466
 20
176.2263432444
 30
0.0
 11
283.4311309538
 21
176.2263432444
 31
0.0
  0
LINE
  5
44F
330
1F
100
AcDbEntity
  8
0
  6
Continuous
 62
     7
370
    15
100
AcDbLine
 10
283.0311301432
 20
176.2263432444
 30
0.0
 11
283.398564466
 21
176.2263432444
 31
0.0
  0
LINE
  5
450
330
1F
100
AcDbEntity
  8
0
  6
Continuous
 62
     7
370
    15
100
AcDbLine
 10
313.3075955591
 20
176.0663433299
 30
0.0
 11
313.3075955591
 21
175.1513432079
 31
0.0
  0
LINE
  5
451
330
1F
100
AcDbEntity
  8
0
  6
Continuous
 62
     7
370
    15
100
AcDbLine
 10
281.4346659265
 20
176.0663433299
 30
0.0
 11
281.4346659265
 21
175.1513432079
 31
0.0
  0
SPLINE
  5
452
330
1F
100
AcDbEntity
  8
0
  6
Continuous
 62
     7
370
    15
100
AcDbSpline
210
0.0
220
0.0
230
1.0
 70
     8
 71
     3
 72
    12
 73
     8
 74
     0
 42
0.00000001
 43
0.00000001
 40
0.0
 40
0.0
 40
0.0
 40
0.0
 40
0.2265864053793872
 40
0.4532279904155207
 40
0.6798714642567323
 40
0.906514976882629
 40
1.0
 40
1.0
 40
1.0
 40
1.0
 10
313.2361310801746
 20
176.2013431937034
 30
0.0
 10
313.2415299524788
 20
176.1996793572829
 30
0.0
 10
313.2523290118523
 20
176.1963512792546
 30
0.0
 10
313.2685339767584
 20
176.1704987440704
 30
0.0
 10
313.2847297027501
 20
176.1328226358579
 30
0.0
 10
313.2977825550684
 20
176.0954529115521
 30
0.0
 10
313.3053776219098
 20
176.0729226836358
 30
0.0
 10
313.3075955591442
 20
176.0663433299
 30
0.0
  0
LINE
  5
453
330
1F
100
AcDbEntity
  8
0
  6
Continuous
 62
     7
370
    15
100
AcDbLine
 10
281.5061304055
 20
176.2013431937
 30
0.0
 11
313.2361310802
 21
176.2013431937
 31
0.0
  0
SPLINE
  5
454
330
1F
100
AcDbEntity
  8
0
  6
Continuous
 62
     7
370
    15
100
AcDbSpline
210
0.0
220
0.0
230
1.0
 70
     8
 71
     3
 72
    12
 73
     8
 74
     0
 42
0.00000001
 43
0.00000001
 40
0.0
 40
0.0
 40
0.0
 40
0.0
 40
0.2265893820323186
 40
0.4532349791351568
 40
0.6798832393993919
 40
0.9065217181252914
 40
1.0
 40
1.0
 40
1.0
 40
1.0
 10
281.4346659264805
 20
176.0663433299
 30
0.0
 10
281.4400655782143
 20
176.0823616133242
 30
0.0
 10
281.4508662212936
 20
176.1144021541847
 30
0.0
 10
281.4670685021479
 20
176.1564826043603
 30
0.0
 10
281.4832633892195
 20
176.1870631572493
 30
0.0
 10
281.4963197940712
 20
176.2000454054337
 30
0.0
 10
281.5039130696465
 20
176.2010498753479
 30
0.0
 10
281.5061304054501
 20
176.2013431937034
 30
0.0
  0
SPLINE
  5
455
330
1F
100
AcDbEntity
  8
0
  6
Continuous
 62
     7
370
    15
100
AcDbSpline
210
0.0
220
0.0
230
1.0
 70
     8
 71
     3
 72
     9
 73
     5
 74
     0
 42
0.00000001
 43
0.00000001
 40
0.0
 40
0.0
 40
0.0
 40
0.0
 40
0.4426458628369225
 40
1.0
 40
1.0
 40
1.0
 40
1.0
 10
281.4526322565319
 20
176.1178920344049
 30
0.0
 10
281.4470158001429
 20
176.1113730064465
 30
0.0
 10
281.434327425845
 20
176.0966455945223
 30
0.0
 10
281.432274235219
 20
176.0771880646649
 30
0.0
 10
281.4311298809292
 20
176.0663433299
 30
0.0
  0
LINE
  5
456
330
1F
100
AcDbEntity
  8
0
  6
Continuous
 62
     7
370
    15
100
AcDbLine
 10
281.3711303554
 20
176.0663433299
 30
0.0
 11
281.4311298809
 21
176.0663433299
 31
0.0
  0
SPLINE
  5
457
330
1F
100
AcDbEntity
  8
0
  6
Continuous
 62
     7
370
    15
100
AcDbSpline
210
0.0
220
0.0
230
1.0
 70
     8
 71
     3
 72
    12
 73
     8
 74
     0
 42
0.00000001
 43
0.00000001
 40
0.0
 40
0.0
 40
0.0
 40
0.0
 40
0.2265856562175755
 40
0.4532319441106165
 40
0.6798746686013312
 40
0.9065152859718225
 40
1.0
 40
1.0
 40
1.0
 40
1.0
 10
281.5061304054501
 20
176.2013431937034
 30
0.0
 10
281.4901121964311
 20
176.1996792800266
 30
0.0
 10
281.4580714921075
 20
176.1963510074292
 30
0.0
 10
281.4159909402669
 20
176.1704991732068
 30
0.0
 10
281.3854109053036
 20
176.1328228858335
 30
0.0
 10
281.3724279370759
 20
176.0954527125425
 30
0.0
 10
281.3714236365897
 20
176.0729226727906
 30
0.0
 10
281.3711303553821
 20
176.0663433299
 30
0.0
  0
SPLINE
  5
458
330
1F
100
AcDbEntity
  8
0
  6
Continuous
 62
     7
370
    15
100
AcDbSpline
210
0.0
220
0.0
230
1.0
 70
     8
 71
     3
 72
    12
 73
     8
 74
     0
 42
0.00000001
 43
0.00000001
 40
0.0
 40
0.0
 40
0.0
 40
0.0
 40
0.2265879581886814
 40
0.4532320767341876
 40
0.6798799372529009
 40
0.906524020395336
 40
1.0
 40
1.0
 40
1.0
 40
1.0
 10
313.3711311302426
 20
176.0663433299
 30
0.0
 10
313.3694667522294
 20
176.0823616118203
 30
0.0
 10
313.3661375836831
 20
176.1144021458296
 30
0.0
 10
313.3402862773441
 20
176.1564826793326
 30
0.0
 10
313.3026089154935
 20
176.1870635359248
 30
0.0
 10
313.2652408175428
 20
176.2000452641001
 30
0.0
 10
313.242710111253
 20
176.2010498513386
 30
0.0
 10
313.2361310801746
 20
176.2013431937034
 30
0.0
  0
LINE
  5
459
330
1F
100
AcDbEntity
  8
0
  6
Continuous
 62
     7
370
    15
100
AcDbLine
 10
313.3711311302
 20
176.0663433299
 30
0.0
 11
313.3111301146
 21
176.0663433299
 31
0.0
  0
SPLINE
  5
45A
330
1F
100
AcDbEntity
  8
0
  6
Continuous
 62
     7
370
    15
100
AcDbSpline
210
0.0
220
0.0
230
1.0
 70
     8
 71
     3
 72
    10
 73
     6
 74
     0
 42
0.00000001
 43
0.00000001
 40
0.0
 40
0.0
 40
0.0
 40
0.0
 40
0.4544641106659606
 40
0.9614194186225199
 40
1.0
 40
1.0
 40
1.0
 40
1.0
 10
313.3111301145794
 20
176.0663433299
 30
0.0
 10
313.3100897376089
 20
176.0750236593325
 30
0.0
 10
313.3078888187713
 20
176.093386907564
 30
0.0
 10
313.2985144372116
 20
176.1121996310278
 30
0.0
 10
313.2898695603591
 20
176.1182736580242
 30
0.0
 10
313.2892581901791
 20
176.1187032163674
 30
0.0
  0
LINE
  5
45B
330
1F
100
AcDbEntity
  8
0
  6
Continuous
 62
     7
370
    15
100
AcDbLine
 10
281.4311298809
 20
176.0663433299
 30
0.0
 11
281.4311298809
 21
175.1513432079
 31
0.0
  0
LINE
  5
45C
330
1F
100
AcDbEntity
  8
0
  6
Continuous
 62
     7
370
    15
100
AcDbLine
 10
281.3711303554
 20
175.1513432079
 30
0.0
 11
281.3711303554
 21
176.0663433299
 31
0.0
  0
LINE
  5
45D
330
1F
100
AcDbEntity
  8
0
  6
Continuous
 62
     7
370
    15
100
AcDbLine
 10
313.3711311302
 20
176.0663433299
 30
0.0
 11
313.3711311302
 21
175.1513432079
 31
0.0
  0
LINE
  5
45E
330
1F
100
AcDbEntity
  8
0
  6
Continuous
 62
     7
370
    15
100
AcDbLine
 10
313.3111301146
 20
176.0663433299
 30
0.0
 11
313.3111301146
 21
175.1513432079
 31
0.0
  0
LINE
  5
45F
330
1F
100
AcDbEntity
  8
0
  6
Continuous
 62
     7
370
    15
100
AcDbLine
 10
281.8711298785
 20
173.4513432552
 30
0.0
 11
281.8711298785
 21
173.4163432448
 31
0.0
  0
LINE
  5
460
330
1F
100
AcDbEntity
  8
0
  6
Continuous
 62
     7
370
    15
100
AcDbLine
 10
281.8711298785
 20
173.4163432448
 30
0.0
 11
282.3711308918
 21
173.4163432448
 31
0.0
  0
LINE
  5
461
330
1F
100
AcDbEntity
  8
0
  6
Continuous
 62
     7
370
    15
100
AcDbLine
 10
282.3711308918
 20
173.4163432448
 30
0.0
 11
287.4336305342
 21
173.4163432448
 31
0.0
  0
LINE
  5
462
330
1F
100
AcDbEntity
  8
0
  6
Continuous
 62
     7
370
    15
100
AcDbLine
 10
288.808630713
 20
173.4163432448
 30
0.0
 11
305.9336307726
 21
173.4163432448
 31
0.0
  0
LINE
  5
463
330
1F
100
AcDbEntity
  8
0
  6
Continuous
 62
     7
370
    15
100
AcDbLine
 10
307.4961307726
 20
173.4163432448
 30
0.0
 11
307.5056302629
 21
173.4163432448
 31
0.0
  0
LINE
  5
464
330
1F
100
AcDbEntity
  8
0
  6
Continuous
 62
     7
370
    15
100
AcDbLine
 10
281.8711298785
 20
173.4163432448
 30
0.0
 11
281.8711298785
 21
173.3288432537
 31
0.0
  0
LINE
  5
465
330
1F
100
AcDbEntity
  8
0
  6
Continuous
 62
     7
370
    15
100
AcDbLine
 10
311.5699398599
 20
172.8413432204
 30
0.0
 11
311.2046393833
 21
172.8413432204
 31
0.0
  0
LINE
  5
466
330
1F
100
AcDbEntity
  8
0
  6
Continuous
 62
     7
370
    15
100
AcDbLine
 10
309.3254472397
 20
172.8413432204
 30
0.0
 11
308.0598804436
 21
172.8413432204
 31
0.0
  0
LINE
  5
467
330
1F
100
AcDbEntity
  8
0
  6
Continuous
 62
     7
370
    15
100
AcDbLine
 10
305.1823805354
 20
172.8413432204
 30
0.0
 11
289.5598802052
 21
172.8413432204
 31
0.0
  0
LINE
  5
468
330
1F
100
AcDbEntity
  8
0
  6
Continuous
 62
     7
370
    15
100
AcDbLine
 10
286.682380297
 20
172.8413432204
 30
0.0
 11
281.8711298785
 21
172.8413432204
 31
0.0
  0
LINE
  5
469
330
1F
100
AcDbEntity
  8
0
  6
Continuous
 62
     7
370
    15
100
AcDbLine
 10
281.8711298785
 20
172.8413432204
 30
0.0
 11
281.8711298785
 21
173.0038432237
 31
0.0
  0
LINE
  5
46A
330
1F
100
AcDbEntity
  8
0
  6
Continuous
 62
     7
370
    15
100
AcDbLine
 10
281.8711298785
 20
173.3288432537
 30
0.0
 11
281.8711298785
 21
173.0038432237
 31
0.0
  0
LINE
  5
46B
330
1F
100
AcDbEntity
  8
0
  6
CENTERX2
 62
     7
370
     0
100
AcDbLine
 10
283.6211304189
 20
160.9913432437
 30
0.0
 11
138.236828604
 21
160.9913432437
 31
0.0
  0
ENDSEC
  0
SECTION
  2
OBJECTS
  0
DICTIONARY
  5
C
330
0
100
AcDbDictionary
281
     1
  3
ACAD_GROUP
350
D
  3
ACAD_LAYOUT
350
1A
  3
ACAD_MATERIAL
350
3B
  3
ACAD_MLEADERSTYLE
350
46E
  3
ACAD_MLINESTYLE
350
17
  3
ACAD_PLOTSETTINGS
350
19
  3
ACAD_PLOTSTYLENAME
350
E
  3
ACAD_SCALELIST
350
48
  3
ACAD_VISUALSTYLE
350
2A
  3
AcDbVariableDictionary
350
46C
  0
DICTIONARY
  5
D
102
{ACAD_REACTORS
330
C
102
}
330
C
100
AcDbDictionary
281
     1
  0
DICTIONARY
  5
1A
102
{ACAD_REACTORS
330
C
102
}
330
C
100
AcDbDictionary
281
     1
  3
Layout1
350
1E
  3
Layout2
350
26
  3
Model
350
22
  0
DICTIONARY
  5
3B
102
{ACAD_REACTORS
330
C
102
}
330
C
100
AcDbDictionary
281
     1
  3
ByBlock
350
3D
  3
ByLayer
350
3C
  3
Global
350
3E
  0
DICTIONARY
  5
46E
102
{ACAD_REACTORS
330
C
102
}
330
C
100
AcDbDictionary
281
     1
  0
DICTIONARY
  5
17
102
{ACAD_REACTORS
330
C
102
}
330
C
100
AcDbDictionary
281
     1
  3
Standard
350
18
  0
DICTIONARY
  5
19
102
{ACAD_REACTORS
330
C
102
}
330
C
100
AcDbDictionary
281
     1
  0
ACDBDICTIONARYWDFLT
  5
E
102
{ACAD_REACTORS
330
C
102
}
330
C
100
AcDbDictionary
281
     1
  3
Normal
350
F
100
AcDbDictionaryWithDefault
340
F
  0
DICTIONARY
  5
48
102
{ACAD_REACTORS
330
C
102
}
330
C
100
AcDbDictionary
281
     1
  3
A0
350
49
  3
A1
350
4A
  3
A2
350
4B
  3
A3
350
4C
  3
A4
350
4D
  3
A5
350
4E
  3
A6
350
4F
  3
A7
350
50
  3
A8
350
51
  3
A9
350
52
  3
B0
350
53
  3
B1
350
54
  3
B2
350
55
  3
B3
350
56
  3
B4
350
57
  3
B5
350
58
  3
B6
350
59
  3
B7
350
5A
  3
B8
350
5B
  3
B9
350
5C
  3
C0
350
5D
  3
C1
350
5E
  3
C2
350
5F
  3
C3
350
60
  3
C4
350
61
  3
C5
350
62
  3
C6
350
63
  3
C7
350
64
  3
C8
350
65
  3
C9
350
66
  3
D0
350
67
  3
D1
350
68
  3
D2
350
69
  0
DICTIONARY
  5
2A
102
{ACAD_REACTORS
330
C
102
}
330
C
100
AcDbDictionary
281
     1
  3
2dWireframe
350
2F
  3
3D Hidden
350
31
  3
3dWireframe
350
30
  3
Basic
350
32
  3
Brighten
350
36
  3
ColorChange
350
3A
  3
Conceptual
350
34
  3
Dim
350
35
  3
Facepattern
350
39
  3
Flat
350
2B
  3
FlatWithEdges
350
2C
  3
Gouraud
350
2D
  3
GouraudWithEdges
350
2E
  3
Linepattern
350
38
  3
Realistic
350
33
  3
Thicken
350
37
  0
DICTIONARY
  5
46C
102
{ACAD_REACTORS
330
C
102
}
330
C
100
AcDbDictionary
281
     1
  3
CANNOSCALE
350
471
  3
DIMASSOC
350
472
  3
HIDETEXT
350
473
  3
PSOLHEIGHT
350
470
  3
PSOLWIDTH
350
46F
  0
LAYOUT
  5
1E
102
{ACAD_REACTORS
330
1A
102
}
330
1A
100
AcDbPlotSettings
  1

  2
none_device
  4

  6

 40
0.0
 41
0.0
 42
0.0
 43
0.0
 44
0.0
 45
0.0
 46
0.0
 47
0.0
 48
0.0
 49
0.0
140
0.0
141
0.0
142
1.0
143
1.0
 70
   688
 72
     0
 73
     0
 74
     5
  7

 75
    16
147
1.0
148
0.0
149
0.0
100
AcDbLayout
  1
Layout1
 70
     1
 71
     1
 10
0.0
 20
0.0
 11
420.0
 21
297.0
 12
0.0
 22
0.0
 32
0.0
 14
1.0000000000E+20
 24
1.0000000000E+20
 34
1.0000000000E+20
 15
-1.0000000000E+20
 25
-1.0000000000E+20
 35
-1.0000000000E+20
146
0.0
 13
0.0
 23
0.0
 33
0.0
 16
1.0
 26
0.0
 36
0.0
 17
0.0
 27
1.0
 37
0.0
 76
     0
330
1B
  0
LAYOUT
  5
26
102
{ACAD_REACTORS
330
1A
102
}
330
1A
100
AcDbPlotSettings
  1

  2
none_device
  4

  6

 40
0.0
 41
0.0
 42
0.0
 43
0.0
 44
0.0
 45
0.0
 46
0.0
 47
0.0
 48
0.0
 49
0.0
140
0.0
141
0.0
142
1.0
143
1.0
 70
   688
 72
     0
 73
     0
 74
     5
  7

 75
    16
147
1.0
148
0.0
149
0.0
100
AcDbLayout
  1
Layout2
 70
     1
 71
     2
 10
0.0
 20
0.0
 11
0.0
 21
0.0
 12
0.0
 22
0.0
 32
0.0
 14
0.0
 24
0.0
 34
0.0
 15
0.0
 25
0.0
 35
0.0
146
0.0
 13
0.0
 23
0.0
 33
0.0
 16
1.0
 26
0.0
 36
0.0
 17
0.0
 27
1.0
 37
0.0
 76
     0
330
23
  0
LAYOUT
  5
22
102
{ACAD_REACTORS
330
1A
102
}
330
1A
100
AcDbPlotSettings
  1

  2
none_device
  4

  6

 40
0.0
 41
0.0
 42
0.0
 43
0.0
 44
0.0
 45
0.0
 46
0.0
 47
0.0
 48
0.0
 49
0.0
140
0.0
141
0.0
142
1.0
143
1.0
 70
  1712
 72
     0
 73
     0
 74
     0
  7

 75
     0
147
1.0
148
0.0
149
0.0
100
AcDbLayout
  1
Model
 70
     1
 71
     0
 10
0.0
 20
0.0
 11
420.0
 21
297.0
 12
0.0
 22
0.0
 32
0.0
 14
0.0
 24
0.0
 34
0.0
 15
420.0
 25
297.0
 35
0.0
146
0.0
 13
0.0
 23
0.0
 33
0.0
 16
1.0
 26
0.0
 36
0.0
 17
0.0
 27
1.0
 37
0.0
 76
     0
330
1F
331
29
  0
MATERIAL
  5
3D
102
{ACAD_REACTORS
330
3B
102
}
102
{ACAD_XDICTIONARY
360
496
102
}
330
3B
100
AcDbMaterial
  1
ByBlock
  0
MATERIAL
  5
3C
102
{ACAD_REACTORS
330
3B
102
}
102
{ACAD_XDICTIONARY
360
494
102
}
330
3B
100
AcDbMaterial
  1
ByLayer
  0
MATERIAL
  5
3E
102
{ACAD_REACTORS
330
3B
102
}
102
{ACAD_XDICTIONARY
360
498
102
}
330
3B
100
AcDbMaterial
  1
Global
  0
MLINESTYLE
  5
18
102
{ACAD_REACTORS
330
17
102
}
330
17
100
AcDbMlineStyle
  2
Standard
 70
     0
  3

 62
   256
 51
90.0
 52
90.0
 71
     2
 49
0.5
 62
   256
  6
BYLAYER
 49
-0.5
 62
   256
  6
BYLAYER
  0
ACDBPLACEHOLDER
  5
F
102
{ACAD_REACTORS
330
E
102
}
330
E
  0
SCALE
  5
49
102
{ACAD_REACTORS
330
48
102
}
330
48
100
AcDbScale
 70
     0
300
1:1
140
1.0
141
1.0
290
     1
  0
SCALE
  5
4A
102
{ACAD_REACTORS
330
48
102
}
330
48
100
AcDbScale
 70
     0
300
1:2
140
1.0
141
2.0
290
     0
  0
SCALE
  5
4B
102
{ACAD_REACTORS
330
48
102
}
330
48
100
AcDbScale
 70
     0
300
1:4
140
1.0
141
4.0
290
     0
  0
SCALE
  5
4C
102
{ACAD_REACTORS
330
48
102
}
330
48
100
AcDbScale
 70
     0
300
1:5
140
1.0
141
5.0
290
     0
  0
SCALE
  5
4D
102
{ACAD_REACTORS
330
48
102
}
330
48
100
AcDbScale
 70
     0
300
1:8
140
1.0
141
8.0
290
     0
  0
SCALE
  5
4E
102
{ACAD_REACTORS
330
48
102
}
330
48
100
AcDbScale
 70
     0
300
1:10
140
1.0
141
10.0
290
     0
  0
SCALE
  5
4F
102
{ACAD_REACTORS
330
48
102
}
330
48
100
AcDbScale
 70
     0
300
1:16
140
1.0
141
16.0
290
     0
  0
SCALE
  5
50
102
{ACAD_REACTORS
330
48
102
}
330
48
100
AcDbScale
 70
     0
300
1:20
140
1.0
141
20.0
290
     0
  0
SCALE
  5
51
102
{ACAD_REACTORS
330
48
102
}
330
48
100
AcDbScale
 70
     0
300
1:30
140
1.0
141
30.0
290
     0
  0
SCALE
  5
52
102
{ACAD_REACTORS
330
48
102
}
330
48
100
AcDbScale
 70
     0
300
1:40
140
1.0
141
40.0
290
     0
  0
SCALE
  5
53
102
{ACAD_REACTORS
330
48
102
}
330
48
100
AcDbScale
 70
     0
300
1:50
140
1.0
141
50.0
290
     0
  0
SCALE
  5
54
102
{ACAD_REACTORS
330
48
102
}
330
48
100
AcDbScale
 70
     0
300
1:100
140
1.0
141
100.0
290
     0
  0
SCALE
  5
55
102
{ACAD_REACTORS
330
48
102
}
330
48
100
AcDbScale
 70
     0
300
2:1
140
2.0
141
1.0
290
     0
  0
SCALE
  5
56
102
{ACAD_REACTORS
330
48
102
}
330
48
100
AcDbScale
 70
     0
300
4:1
140
4.0
141
1.0
290
     0
  0
SCALE
  5
57
102
{ACAD_REACTORS
330
48
102
}
330
48
100
AcDbScale
 70
     0
300
8:1
140
8.0
141
1.0
290
     0
  0
SCALE
  5
58
102
{ACAD_REACTORS
330
48
102
}
330
48
100
AcDbScale
 70
     0
300
10:1
140
10.0
141
1.0
290
     0
  0
SCALE
  5
59
102
{ACAD_REACTORS
330
48
102
}
330
48
100
AcDbScale
 70
     0
300
100:1
140
100.0
141
1.0
290
     0
  0
SCALE
  5
5A
102
{ACAD_REACTORS
330
48
102
}
330
48
100
AcDbScale
 70
     0
300
1/128" = 1'-0"
140
0.0078125
141
12.0
290
     0
  0
SCALE
  5
5B
102
{ACAD_REACTORS
330
48
102
}
330
48
100
AcDbScale
 70
     0
300
1/64" = 1'-0"
140
0.015625
141
12.0
290
     0
  0
SCALE
  5
5C
102
{ACAD_REACTORS
330
48
102
}
330
48
100
AcDbScale
 70
     0
300
1/32" = 1'-0"
140
0.03125
141
12.0
290
     0
  0
SCALE
  5
5D
102
{ACAD_REACTORS
330
48
102
}
330
48
100
AcDbScale
 70
     0
300
1/16" = 1'-0"
140
0.0625
141
12.0
290
     0
  0
SCALE
  5
5E
102
{ACAD_REACTORS
330
48
102
}
330
48
100
AcDbScale
 70
     0
300
3/32" = 1'-0"
140
0.09375
141
12.0
290
     0
  0
SCALE
  5
5F
102
{ACAD_REACTORS
330
48
102
}
330
48
100
AcDbScale
 70
     0
300
1/8" = 1'-0"
140
0.125
141
12.0
290
     0
  0
SCALE
  5
60
102
{ACAD_REACTORS
330
48
102
}
330
48
100
AcDbScale
 70
     0
300
3/16" = 1'-0"
140
0.1875
141
12.0
290
     0
  0
SCALE
  5
61
102
{ACAD_REACTORS
330
48
102
}
330
48
100
AcDbScale
 70
     0
300
1/4" = 1'-0"
140
0.25
141
12.0
290
     0
  0
SCALE
  5
62
102
{ACAD_REACTORS
330
48
102
}
330
48
100
AcDbScale
 70
     0
300
3/8" = 1'-0"
140
0.375
141
12.0
290
     0
  0
SCALE
  5
63
102
{ACAD_REACTORS
330
48
102
}
330
48
100
AcDbScale
 70
     0
300
1/2" = 1'-0"
140
0.5
141
12.0
290
     0
  0
SCALE
  5
64
102
{ACAD_REACTORS
330
48
102
}
330
48
100
AcDbScale
 70
     0
300
3/4" = 1'-0"
140
0.75
141
12.0
290
     0
  0
SCALE
  5
65
102
{ACAD_REACTORS
330
48
102
}
330
48
100
AcDbScale
 70
     0
300
1" = 1'-0"
140
1.0
141
12.0
290
     0
  0
SCALE
  5
66
102
{ACAD_REACTORS
330
48
102
}
330
48
100
AcDbScale
 70
     0
300
1-1/2" = 1'-0"
140
1.5
141
12.0
290
     0
  0
SCALE
  5
67
102
{ACAD_REACTORS
330
48
102
}
330
48
100
AcDbScale
 70
     0
300
3" = 1'-0"
140
3.0
141
12.0
290
     0
  0
SCALE
  5
68
102
{ACAD_REACTORS
330
48
102
}
330
48
100
AcDbScale
 70
     0
300
6" = 1'-0"
140
6.0
141
12.0
290
     0
  0
SCALE
  5
69
102
{ACAD_REACTORS
330
48
102
}
330
48
100
AcDbScale
 70
     0
300
1'-0" = 1'-0"
140
12.0
141
12.0
290
     0
  0
VISUALSTYLE
  5
2F
102
{ACAD_REACTORS
330
2A
102
}
102
{ACAD_XDICTIONARY
360
47C
102
}
330
2A
100
AcDbVisualStyle
  2
2dWireframe
 70
     4
 71
     0
 72
     2
 73
     0
 90
        0
 40
-0.6
 41
-30.0
 62
     5
 63
     7
 74
     1
 91
        4
 64
     7
 65
   257
 75
     1
175
     1
 42
1.0
 92
        0
 66
   257
 43
1.0
 76
     1
 77
     6
 78
     2
 67
     7
 79
     5
170
     0
171
     0
290
     0
174
     0
 93
        1
 44
0.0
173
     0
291
     0
 45
0.0
1001
ACAD
1000
AcDbSavedByObjectVersion
1070
     0
  0
VISUALSTYLE
  5
31
102
{ACAD_REACTORS
330
2A
102
}
102
{ACAD_XDICTIONARY
360
480
102
}
330
2A
100
AcDbVisualStyle
  2
3D Hidden
 70
     6
 71
     1
 72
     2
 73
     2
 90
        0
 40
-0.6
 41
-30.0
 62
     5
 63
     7
 74
     2
 91
        2
 64
     7
 65
   257
 75
     2
175
     1
 42
40.0
 92
        0
 66
   257
 43
1.0
 76
     1
 77
     6
 78
     2
 67
     7
 79
     3
170
     0
171
     0
290
     0
174
     0
 93
        1
 44
0.0
173
     0
291
     0
 45
0.0
1001
ACAD
1000
AcDbSavedByObjectVersion
1070
     0
  0
VISUALSTYLE
  5
30
102
{ACAD_REACTORS
330
2A
102
}
102
{ACAD_XDICTIONARY
360
47E
102
}
330
2A
100
AcDbVisualStyle
  2
3dWireframe
 70
     5
 71
     0
 72
     2
 73
     0
 90
        0
 40
-0.6
 41
-30.0
 62
     5
 63
     7
 74
     1
 91
        4
 64
     7
 65
   257
 75
     1
175
     1
 42
1.0
 92
        0
 66
   257
 43
1.0
 76
     1
 77
     6
 78
     2
 67
     7
 79
     5
170
     0
171
     0
290
     0
174
     0
 93
        1
 44
0.0
173
     0
291
     0
 45
0.0
1001
ACAD
1000
AcDbSavedByObjectVersion
1070
     0
  0
VISUALSTYLE
  5
32
102
{ACAD_REACTORS
330
2A
102
}
102
{ACAD_XDICTIONARY
360
482
102
}
330
2A
100
AcDbVisualStyle
  2
Basic
 70
     7
 71
     1
 72
     0
 73
     1
 90
        0
 40
-0.6
 41
-30.0
 62
     5
 63
     7
 74
     0
 91
        4
 64
     7
 65
   257
 75
     1
175
     1
 42
1.0
 92
        8
 66
     7
 43
1.0
 76
     1
 77
     6
 78
     2
 67
     7
 79
     5
170
     0
171
     0
290
     0
174
     0
 93
        1
 44
0.0
173
     0
291
     1
 45
0.0
1001
ACAD
1000
AcDbSavedByObjectVersion
1070
     0
  0
VISUALSTYLE
  5
36
102
{ACAD_REACTORS
330
2A
102
}
102
{ACAD_XDICTIONARY
360
48A
102
}
330
2A
100
AcDbVisualStyle
  2
Brighten
 70
    12
 71
     2
 72
     2
 73
     0
 90
        0
 40
-0.6
 41
-30.0
 62
     5
 63
     7
 74
     1
 91
        4
 64
     7
 65
   257
 75
     1
175
     1
 42
1.0
 92
        8
 66
     7
 43
1.0
 76
     1
 77
     6
 78
     2
 67
     7
 79
     5
170
     0
171
     0
290
     0
174
     0
 93
        1
 44
50.0
173
     0
291
     1
 45
0.0
1001
ACAD
1000
AcDbSavedByObjectVersion
1070
     0
  0
VISUALSTYLE
  5
3A
102
{ACAD_REACTORS
330
2A
102
}
102
{ACAD_XDICTIONARY
360
492
102
}
330
2A
100
AcDbVisualStyle
  2
ColorChange
 70
    16
 71
     2
 72
     2
 73
     3
 90
        0
 40
-0.6
 41
-30.0
 62
     5
 63
     8
 74
     1
 91
        4
 64
     7
 65
   257
 75
     1
175
     1
 42
1.0
 92
        8
 66
     8
 43
1.0
 76
     1
 77
     6
 78
     2
 67
     7
 79
     5
170
     0
171
     0
290
     0
174
     0
 93
        1
 44
0.0
173
     0
291
     1
 45
0.0
1001
ACAD
1000
AcDbSavedByObjectVersion
1070
     0
  0
VISUALSTYLE
  5
34
102
{ACAD_REACTORS
330
2A
102
}
102
{ACAD_XDICTIONARY
360
486
102
}
330
2A
100
AcDbVisualStyle
  2
Conceptual
 70
     9
 71
     3
 72
     2
 73
     0
 90
        0
 40
-0.6
 41
-30.0
 62
     5
 63
     7
 74
     2
 91
        2
 64
     7
 65
   257
 75
     1
175
     1
 42
40.0
 92
        8
 66
     7
 43
1.0
 76
     1
 77
     6
 78
     2
 67
     7
 79
     3
170
     0
171
     0
290
     0
174
     0
 93
        1
 44
0.0
173
     0
291
     0
 45
0.0
1001
ACAD
1000
AcDbSavedByObjectVersion
1070
     0
  0
VISUALSTYLE
  5
35
102
{ACAD_REACTORS
330
2A
102
}
102
{ACAD_XDICTIONARY
360
488
102
}
330
2A
100
AcDbVisualStyle
  2
Dim
 70
    11
 71
     2
 72
     2
 73
     0
 90
        0
 40
-0.6
 41
-30.0
 62
     5
 63
     7
 74
     1
 91
        4
 64
     7
 65
   257
 75
     1
175
     1
 42
1.0
 92
        8
 66
     7
 43
1.0
 76
     1
 77
     6
 78
     2
 67
     7
 79
     5
170
     0
171
     0
290
     0
174
     0
 93
        1
 44
-50.0
173
     0
291
     1
 45
0.0
1001
ACAD
1000
AcDbSavedByObjectVersion
1070
     0
  0
VISUALSTYLE
  5
39
102
{ACAD_REACTORS
330
2A
102
}
102
{ACAD_XDICTIONARY
360
490
102
}
330
2A
100
AcDbVisualStyle
  2
Facepattern
 70
    15
 71
     2
 72
     2
 73
     0
 90
        0
 40
-0.6
 41
-30.0
 62
     5
 63
     7
 74
     1
 91
        4
 64
     7
 65
   257
 75
     1
175
     1
 42
1.0
 92
        8
 66
     7
 43
1.0
 76
     1
 77
     6
 78
     2
 67
     7
 79
     5
170
     0
171
     0
290
     0
174
     0
 93
        1
 44
0.0
173
     0
291
     1
 45
0.0
1001
ACAD
1000
AcDbSavedByObjectVersion
1070
     0
  0
VISUALSTYLE
  5
2B
102
{ACAD_REACTORS
330
2A
102
}
102
{ACAD_XDICTIONARY
360
474
102
}
330
2A
100
AcDbVisualStyle
  2
Flat
 70
     0
 71
     2
 72
     1
 73
     1
 90
        2
 40
-0.6
 41
30.0
 62
     5
 63
     7
 74
     0
 91
        4
 64
     7
 65
   257
 75
     1
175
     1
 42
1.0
 92
        8
 66
     7
 43
1.0
 76
     1
 77
     6
 78
     2
 67
     7
 79
     5
170
     0
171
     0
290
     0
174
     0
 93
       13
 44
0.0
173
     0
291
     1
 45
0.0
1001
ACAD
1000
AcDbSavedByObjectVersion
1070
     0
  0
VISUALSTYLE
  5
2C
102
{ACAD_REACTORS
330
2A
102
}
102
{ACAD_XDICTIONARY
360
476
102
}
330
2A
100
AcDbVisualStyle
  2
FlatWithEdges
 70
     1
 71
     2
 72
     1
 73
     1
 90
        2
 40
-0.6
 41
30.0
 62
     5
 63
     7
 74
     1
 91
        4
 64
     7
 65
   257
 75
     1
175
     1
 42
1.0
 92
        0
 66
   257
 43
1.0
 76
     1
 77
     6
 78
     2
 67
     7
 79
     5
170
     0
171
     0
290
     0
174
     0
 93
       13
 44
0.0
173
     0
291
     1
 45
0.0
1001
ACAD
1000
AcDbSavedByObjectVersion
1070
     0
  0
VISUALSTYLE
  5
2D
102
{ACAD_REACTORS
330
2A
102
}
102
{ACAD_XDICTIONARY
360
478
102
}
330
2A
100
AcDbVisualStyle
  2
Gouraud
 70
     2
 71
     2
 72
     2
 73
     1
 90
        2
 40
-0.6
 41
30.0
 62
     5
 63
     7
 74
     0
 91
        4
 64
     7
 65
   257
 75
     1
175
     1
 42
1.0
 92
        0
 66
     7
 43
1.0
 76
     1
 77
     6
 78
     2
 67
     7
 79
     5
170
     0
171
     0
290
     0
174
     0
 93
       13
 44
0.0
173
     0
291
     1
 45
0.0
1001
ACAD
1000
AcDbSavedByObjectVersion
1070
     0
  0
VISUALSTYLE
  5
2E
102
{ACAD_REACTORS
330
2A
102
}
102
{ACAD_XDICTIONARY
360
47A
102
}
330
2A
100
AcDbVisualStyle
  2
GouraudWithEdges
 70
     3
 71
     2
 72
     2
 73
     1
 90
        2
 40
-0.6
 41
30.0
 62
     5
 63
     7
 74
     1
 91
        4
 64
     7
 65
   257
 75
     1
175
     1
 42
1.0
 92
        0
 66
   257
 43
1.0
 76
     1
 77
     6
 78
     2
 67
     7
 79
     5
170
     0
171
     0
290
     0
174
     0
 93
       13
 44
0.0
173
     0
291
     1
 45
0.0
1001
ACAD
1000
AcDbSavedByObjectVersion
1070
     0
  0
VISUALSTYLE
  5
38
102
{ACAD_REACTORS
330
2A
102
}
102
{ACAD_XDICTIONARY
360
48E
102
}
330
2A
100
AcDbVisualStyle
  2
Linepattern
 70
    14
 71
     2
 72
     2
 73
     0
 90
        0
 40
-0.6
 41
-30.0
 62
     5
 63
     7
 74
     1
 91
        4
 64
     7
 65
   257
 75
     7
175
     7
 42
1.0
 92
        8
 66
     7
 43
1.0
 76
     1
 77
     6
 78
     2
 67
     7
 79
     5
170
     0
171
     0
290
     0
174
     0
 93
        1
 44
0.0
173
     0
291
     1
 45
0.0
1001
ACAD
1000
AcDbSavedByObjectVersion
1070
     0
  0
VISUALSTYLE
  5
33
102
{ACAD_REACTORS
330
2A
102
}
102
{ACAD_XDICTIONARY
360
484
102
}
330
2A
100
AcDbVisualStyle
  2
Realistic
 70
     8
 71
     2
 72
     2
 73
     0
 90
        0
 40
-0.6
 41
-30.0
 62
     5
 63
     7
 74
     1
 91
        0
 64
     7
 65
   257
 75
     1
175
     1
 42
1.0
 92
        8
 66
     8
 43
1.0
 76
     1
 77
     6
 78
     2
 67
     7
 79
     5
170
     0
171
     0
290
     0
174
     0
 93
       13
 44
0.0
173
     0
291
     0
 45
0.0
1001
ACAD
1000
AcDbSavedByObjectVersion
1070
     0
  0
VISUALSTYLE
  5
37
102
{ACAD_REACTORS
330
2A
102
}
102
{ACAD_XDICTIONARY
360
48C
102
}
330
2A
100
AcDbVisualStyle
  2
Thicken
 70
    13
 71
     2
 72
     2
 73
     0
 90
        0
 40
-0.6
 41
-30.0
 62
     5
 63
     7
 74
     1
 91
        4
 64
     7
 65
   257
 75
     1
175
     1
 42
1.0
 92
       12
 66
     7
 43
1.0
 76
     1
 77
     6
 78
     2
 67
     7
 79
     5
170
     0
171
     0
290
     0
174
     0
 93
        1
 44
0.0
173
     0
291
     1
 45
0.0
1001
ACAD
1000
AcDbSavedByObjectVersion
1070
     0
  0
DICTIONARYVAR
  5
471
102
{ACAD_REACTORS
330
46C
102
}
330
46C
100
DictionaryVariables
280
     0
  1
1:1
  0
DICTIONARYVAR
  5
472
102
{ACAD_REACTORS
330
46C
102
}
330
46C
100
DictionaryVariables
280
     0
  1
2
  0
DICTIONARYVAR
  5
473
102
{ACAD_REACTORS
330
46C
102
}
330
46C
100
DictionaryVariables
280
     0
  1
1
  0
DICTIONARYVAR
  5
470
102
{ACAD_REACTORS
330
46C
102
}
330
46C
100
DictionaryVariables
280
     0
  1
80.000000
  0
DICTIONARYVAR
  5
46F
102
{ACAD_REACTORS
330
46C
102
}
330
46C
100
DictionaryVariables
280
     0
  1
5.000000
  0
DICTIONARY
  5
496
330
3D
100
AcDbDictionary
280
     1
281
     1
  3
ACAD_XREC_ROUNDTRIP
360
497
  0
DICTIONARY
  5
494
330
3C
100
AcDbDictionary
280
     1
281
     1
  3
ACAD_XREC_ROUNDTRIP
360
495
  0
DICTIONARY
  5
498
330
3E
100
AcDbDictionary
280
     1
281
     1
  3
ACAD_XREC_ROUNDTRIP
360
499
  0
DICTIONARY
  5
47C
330
2F
100
AcDbDictionary
280
     1
281
     1
  3
ACAD_XREC_ROUNDTRIP
360
47D
  0
DICTIONARY
  5
480
330
31
100
AcDbDictionary
280
     1
281
     1
  3
ACAD_XREC_ROUNDTRIP
360
481
  0
DICTIONARY
  5
47E
330
30
100
AcDbDictionary
280
     1
281
     1
  3
ACAD_XREC_ROUNDTRIP
360
47F
  0
DICTIONARY
  5
482
330
32
100
AcDbDictionary
280
     1
281
     1
  3
ACAD_XREC_ROUNDTRIP
360
483
  0
DICTIONARY
  5
48A
330
36
100
AcDbDictionary
280
     1
281
     1
  3
ACAD_XREC_ROUNDTRIP
360
48B
  0
DICTIONARY
  5
492
330
3A
100
AcDbDictionary
280
     1
281
     1
  3
ACAD_XREC_ROUNDTRIP
360
493
  0
DICTIONARY
  5
486
330
34
100
AcDbDictionary
280
     1
281
     1
  3
ACAD_XREC_ROUNDTRIP
360
487
  0
DICTIONARY
  5
488
330
35
100
AcDbDictionary
280
     1
281
     1
  3
ACAD_XREC_ROUNDTRIP
360
489
  0
DICTIONARY
  5
490
330
39
100
AcDbDictionary
280
     1
281
     1
  3
ACAD_XREC_ROUNDTRIP
360
491
  0
DICTIONARY
  5
474
330
2B
100
AcDbDictionary
280
     1
281
     1
  3
ACAD_XREC_ROUNDTRIP
360
475
  0
DICTIONARY
  5
476
330
2C
100
AcDbDictionary
280
     1
281
     1
  3
ACAD_XREC_ROUNDTRIP
360
477
  0
DICTIONARY
  5
478
330
2D
100
AcDbDictionary
280
     1
281
     1
  3
ACAD_XREC_ROUNDTRIP
360
479
  0
DICTIONARY
  5
47A
330
2E
100
AcDbDictionary
280
     1
281
     1
  3
ACAD_XREC_ROUNDTRIP
360
47B
  0
DICTIONARY
  5
48E
330
38
100
AcDbDictionary
280
     1
281
     1
  3
ACAD_XREC_ROUNDTRIP
360
48F
  0
DICTIONARY
  5
484
330
33
100
AcDbDictionary
280
     1
281
     1
  3
ACAD_XREC_ROUNDTRIP
360
485
  0
DICTIONARY
  5
48C
330
37
100
AcDbDictionary
280
     1
281
     1
  3
ACAD_XREC_ROUNDTRIP
360
48D
  0
XRECORD
  5
497
102
{ACAD_REACTORS
330
496
102
}
330
496
100
AcDbXrecord
280
     1
102
MATERIAL
148
0.0
149
0.0
149
0.0
 93
        0
 94
      127
282
     0
 72
     1
 77
     1
171
     1
175
     1
179
     1
273
     0
  0
XRECORD
  5
495
102
{ACAD_REACTORS
330
494
102
}
330
494
100
AcDbXrecord
280
     1
102
MATERIAL
148
0.0
149
0.0
149
0.0
 93
        0
 94
      127
282
     0
 72
     1
 77
     1
171
     1
175
     1
179
     1
273
     0
  0
XRECORD
  5
499
102
{ACAD_REACTORS
330
498
102
}
330
498
100
AcDbXrecord
280
     1
102
MATERIAL
148
0.0
149
0.0
149
0.0
 93
        0
 94
      127
282
     0
 72
     1
 77
     1
171
     1
175
     1
179
     1
273
     0
  0
XRECORD
  5
47D
102
{ACAD_REACTORS
330
47C
102
}
330
47C
100
AcDbXrecord
280
     1
102
RTVSPropertyOp0
 70
     1
102
RTVSPropertyOp1
 70
     1
102
RTVSPropertyOp2
 70
     1
102
RTVSPropertyOp3
 70
     1
102
RTVSPropertyOp4
 70
     1
102
RTVSPropertyOp5
 70
     1
102
RTVSPropertyOp6
 70
     1
102
RTVSPropertyOp7
 70
     1
102
RTVSPropertyOp8
 70
     1
102
RTVSPropertyOp9
 70
     1
102
RTVSPropertyOp10
 70
     1
102
RTVSPropertyOp11
 70
     1
102
RTVSPropertyOp12
 70
     1
102
RTVSPropertyOp13
 70
     1
102
RTVSPropertyOp14
 70
     1
102
RTVSPropertyOp15
 70
     1
102
RTVSPropertyOp16
 70
     1
102
RTVSPropertyOp17
 70
     1
102
RTVSPropertyOp18
 70
     1
102
RTVSPropertyOp19
 70
     1
102
RTVSPropertyOp20
 70
     1
102
RTVSPropertyOp21
 70
     1
102
RTVSPropertyOp22
 70
     1
102
RTVSPropertyOp23
 70
     1
102
RTVSPropertyOp24
 70
     1
102
RTVSPropertyOp25
 70
     1
102
RTVSPropertyOp26
 70
     1
102
RTVSPropertyOp27
 70
     1
  0
XRECORD
  5
481
102
{ACAD_REACTORS
330
480
102
}
330
480
100
AcDbXrecord
280
     1
102
RTVSPropertyOp0
 70
     1
102
RTVSPropertyOp1
 70
     1
102
RTVSPropertyOp2
 70
     1
102
RTVSPropertyOp3
 70
     1
102
RTVSPropertyOp4
 70
     1
102
RTVSPropertyOp5
 70
     1
102
RTVSPropertyOp6
 70
     1
102
RTVSPropertyOp7
 70
     1
102
RTVSPropertyOp8
 70
     1
102
RTVSPropertyOp9
 70
     1
102
RTVSPropertyOp10
 70
     1
102
RTVSPropertyOp11
 70
     1
102
RTVSPropertyOp12
 70
     1
102
RTVSPropertyOp13
 70
     1
102
RTVSPropertyOp14
 70
     1
102
RTVSPropertyOp15
 70
     1
102
RTVSPropertyOp16
 70
     1
102
RTVSPropertyOp17
 70
     1
102
RTVSPropertyOp18
 70
     1
102
RTVSPropertyOp19
 70
     1
102
RTVSPropertyOp20
 70
     1
102
RTVSPropertyOp21
 70
     1
102
RTVSPropertyOp22
 70
     1
102
RTVSPropertyOp23
 70
     1
102
RTVSPropertyOp24
 70
     1
102
RTVSPropertyOp25
 70
     1
102
RTVSPropertyOp26
 70
     1
102
RTVSPropertyOp27
 70
     1
  0
XRECORD
  5
47F
102
{ACAD_REACTORS
330
47E
102
}
330
47E
100
AcDbXrecord
280
     1
102
RTVSPropertyOp0
 70
     1
102
RTVSPropertyOp1
 70
     1
102
RTVSPropertyOp2
 70
     1
102
RTVSPropertyOp3
 70
     1
102
RTVSPropertyOp4
 70
     1
102
RTVSPropertyOp5
 70
     1
102
RTVSPropertyOp6
 70
     1
102
RTVSPropertyOp7
 70
     1
102
RTVSPropertyOp8
 70
     1
102
RTVSPropertyOp9
 70
     1
102
RTVSPropertyOp10
 70
     1
102
RTVSPropertyOp11
 70
     1
102
RTVSPropertyOp12
 70
     1
102
RTVSPropertyOp13
 70
     1
102
RTVSPropertyOp14
 70
     1
102
RTVSPropertyOp15
 70
     1
102
RTVSPropertyOp16
 70
     1
102
RTVSPropertyOp17
 70
     1
102
RTVSPropertyOp18
 70
     1
102
RTVSPropertyOp19
 70
     1
102
RTVSPropertyOp20
 70
     1
102
RTVSPropertyOp21
 70
     1
102
RTVSPropertyOp22
 70
     1
102
RTVSPropertyOp23
 70
     1
102
RTVSPropertyOp24
 70
     1
102
RTVSPropertyOp25
 70
     1
102
RTVSPropertyOp26
 70
     1
102
RTVSPropertyOp27
 70
     1
  0
XRECORD
  5
483
102
{ACAD_REACTORS
330
482
102
}
330
482
100
AcDbXrecord
280
     1
102
RTVSPropertyOp0
 70
     1
102
RTVSPropertyOp1
 70
     1
102
RTVSPropertyOp2
 70
     1
102
RTVSPropertyOp3
 70
     1
102
RTVSPropertyOp4
 70
     1
102
RTVSPropertyOp5
 70
     1
102
RTVSPropertyOp6
 70
     1
102
RTVSPropertyOp7
 70
     1
102
RTVSPropertyOp8
 70
     1
102
RTVSPropertyOp9
 70
     1
102
RTVSPropertyOp10
 70
     1
102
RTVSPropertyOp11
 70
     1
102
RTVSPropertyOp12
 70
     1
102
RTVSPropertyOp13
 70
     1
102
RTVSPropertyOp14
 70
     1
102
RTVSPropertyOp15
 70
     1
102
RTVSPropertyOp16
 70
     1
102
RTVSPropertyOp17
 70
     1
102
RTVSPropertyOp18
 70
     1
102
RTVSPropertyOp19
 70
     1
102
RTVSPropertyOp20
 70
     1
102
RTVSPropertyOp21
 70
     1
102
RTVSPropertyOp22
 70
     1
102
RTVSPropertyOp23
 70
     1
102
RTVSPropertyOp24
 70
     1
102
RTVSPropertyOp25
 70
     1
102
RTVSPropertyOp26
 70
     1
102
RTVSPropertyOp27
 70
     1
  0
XRECORD
  5
48B
102
{ACAD_REACTORS
330
48A
102
}
330
48A
100
AcDbXrecord
280
     1
102
RTVSPropertyOp0
 70
     1
102
RTVSPropertyOp1
 70
     1
102
RTVSPropertyOp2
 70
     1
102
RTVSPropertyOp3
 70
     1
102
RTVSPropertyOp4
 70
     1
102
RTVSPropertyOp5
 70
     1
102
RTVSPropertyOp6
 70
     1
102
RTVSPropertyOp7
 70
     1
102
RTVSPropertyOp8
 70
     1
102
RTVSPropertyOp9
 70
     1
102
RTVSPropertyOp10
 70
     1
102
RTVSPropertyOp11
 70
     1
102
RTVSPropertyOp12
 70
     1
102
RTVSPropertyOp13
 70
     1
102
RTVSPropertyOp14
 70
     1
102
RTVSPropertyOp15
 70
     1
102
RTVSPropertyOp16
 70
     1
102
RTVSPropertyOp17
 70
     1
102
RTVSPropertyOp18
 70
     1
102
RTVSPropertyOp19
 70
     1
102
RTVSPropertyOp20
 70
     1
102
RTVSPropertyOp21
 70
     1
102
RTVSPropertyOp22
 70
     1
102
RTVSPropertyOp23
 70
     1
102
RTVSPropertyOp24
 70
     1
102
RTVSPropertyOp25
 70
     1
102
RTVSPropertyOp26
 70
     1
102
RTVSPropertyOp27
 70
     1
  0
XRECORD
  5
493
102
{ACAD_REACTORS
330
492
102
}
330
492
100
AcDbXrecord
280
     1
102
RTVSPropertyOp0
 70
     1
102
RTVSPropertyOp1
 70
     1
102
RTVSPropertyOp2
 70
     1
102
RTVSPropertyOp3
 70
     1
102
RTVSPropertyOp4
 70
     1
102
RTVSPropertyOp5
 70
     1
102
RTVSPropertyOp6
 70
     1
102
RTVSPropertyOp7
 70
     1
102
RTVSPropertyOp8
 70
     1
102
RTVSPropertyOp9
 70
     1
102
RTVSPropertyOp10
 70
     1
102
RTVSPropertyOp11
 70
     1
102
RTVSPropertyOp12
 70
     1
102
RTVSPropertyOp13
 70
     1
102
RTVSPropertyOp14
 70
     1
102
RTVSPropertyOp15
 70
     1
102
RTVSPropertyOp16
 70
     1
102
RTVSPropertyOp17
 70
     1
102
RTVSPropertyOp18
 70
     1
102
RTVSPropertyOp19
 70
     1
102
RTVSPropertyOp20
 70
     1
102
RTVSPropertyOp21
 70
     1
102
RTVSPropertyOp22
 70
     1
102
RTVSPropertyOp23
 70
     1
102
RTVSPropertyOp24
 70
     1
102
RTVSPropertyOp25
 70
     1
102
RTVSPropertyOp26
 70
     1
102
RTVSPropertyOp27
 70
     1
  0
XRECORD
  5
487
102
{ACAD_REACTORS
330
486
102
}
330
486
100
AcDbXrecord
280
     1
102
RTVSPropertyOp0
 70
     1
102
RTVSPropertyOp1
 70
     1
102
RTVSPropertyOp2
 70
     1
102
RTVSPropertyOp3
 70
     1
102
RTVSPropertyOp4
 70
     1
102
RTVSPropertyOp5
 70
     1
102
RTVSPropertyOp6
 70
     1
102
RTVSPropertyOp7
 70
     1
102
RTVSPropertyOp8
 70
     1
102
RTVSPropertyOp9
 70
     1
102
RTVSPropertyOp10
 70
     1
102
RTVSPropertyOp11
 70
     1
102
RTVSPropertyOp12
 70
     1
102
RTVSPropertyOp13
 70
     1
102
RTVSPropertyOp14
 70
     1
102
RTVSPropertyOp15
 70
     1
102
RTVSPropertyOp16
 70
     1
102
RTVSPropertyOp17
 70
     1
102
RTVSPropertyOp18
 70
     1
102
RTVSPropertyOp19
 70
     1
102
RTVSPropertyOp20
 70
     1
102
RTVSPropertyOp21
 70
     1
102
RTVSPropertyOp22
 70
     1
102
RTVSPropertyOp23
 70
     1
102
RTVSPropertyOp24
 70
     1
102
RTVSPropertyOp25
 70
     1
102
RTVSPropertyOp26
 70
     1
102
RTVSPropertyOp27
 70
     1
  0
XRECORD
  5
489
102
{ACAD_REACTORS
330
488
102
}
330
488
100
AcDbXrecord
280
     1
102
RTVSPropertyOp0
 70
     1
102
RTVSPropertyOp1
 70
     1
102
RTVSPropertyOp2
 70
     1
102
RTVSPropertyOp3
 70
     1
102
RTVSPropertyOp4
 70
     1
102
RTVSPropertyOp5
 70
     1
102
RTVSPropertyOp6
 70
     1
102
RTVSPropertyOp7
 70
     1
102
RTVSPropertyOp8
 70
     1
102
RTVSPropertyOp9
 70
     1
102
RTVSPropertyOp10
 70
     1
102
RTVSPropertyOp11
 70
     1
102
RTVSPropertyOp12
 70
     1
102
RTVSPropertyOp13
 70
     1
102
RTVSPropertyOp14
 70
     1
102
RTVSPropertyOp15
 70
     1
102
RTVSPropertyOp16
 70
     1
102
RTVSPropertyOp17
 70
     1
102
RTVSPropertyOp18
 70
     1
102
RTVSPropertyOp19
 70
     1
102
RTVSPropertyOp20
 70
     1
102
RTVSPropertyOp21
 70
     1
102
RTVSPropertyOp22
 70
     1
102
RTVSPropertyOp23
 70
     1
102
RTVSPropertyOp24
 70
     1
102
RTVSPropertyOp25
 70
     1
102
RTVSPropertyOp26
 70
     1
102
RTVSPropertyOp27
 70
     1
  0
XRECORD
  5
491
102
{ACAD_REACTORS
330
490
102
}
330
490
100
AcDbXrecord
280
     1
102
RTVSPropertyOp0
 70
     1
102
RTVSPropertyOp1
 70
     1
102
RTVSPropertyOp2
 70
     1
102
RTVSPropertyOp3
 70
     1
102
RTVSPropertyOp4
 70
     1
102
RTVSPropertyOp5
 70
     1
102
RTVSPropertyOp6
 70
     1
102
RTVSPropertyOp7
 70
     1
102
RTVSPropertyOp8
 70
     1
102
RTVSPropertyOp9
 70
     1
102
RTVSPropertyOp10
 70
     1
102
RTVSPropertyOp11
 70
     1
102
RTVSPropertyOp12
 70
     1
102
RTVSPropertyOp13
 70
     1
102
RTVSPropertyOp14
 70
     1
102
RTVSPropertyOp15
 70
     1
102
RTVSPropertyOp16
 70
     1
102
RTVSPropertyOp17
 70
     1
102
RTVSPropertyOp18
 70
     1
102
RTVSPropertyOp19
 70
     1
102
RTVSPropertyOp20
 70
     1
102
RTVSPropertyOp21
 70
     1
102
RTVSPropertyOp22
 70
     1
102
RTVSPropertyOp23
 70
     1
102
RTVSPropertyOp24
 70
     1
102
RTVSPropertyOp25
 70
     1
102
RTVSPropertyOp26
 70
     1
102
RTVSPropertyOp27
 70
     1
  0
XRECORD
  5
475
102
{ACAD_REACTORS
330
474
102
}
330
474
100
AcDbXrecord
280
     1
102
RTVSPropertyOp0
 70
     1
102
RTVSPropertyOp1
 70
     1
102
RTVSPropertyOp2
 70
     1
102
RTVSPropertyOp3
 70
     1
102
RTVSPropertyOp4
 70
     1
102
RTVSPropertyOp5
 70
     1
102
RTVSPropertyOp6
 70
     1
102
RTVSPropertyOp7
 70
     1
102
RTVSPropertyOp8
 70
     1
102
RTVSPropertyOp9
 70
     1
102
RTVSPropertyOp10
 70
     1
102
RTVSPropertyOp11
 70
     1
102
RTVSPropertyOp12
 70
     1
102
RTVSPropertyOp13
 70
     1
102
RTVSPropertyOp14
 70
     1
102
RTVSPropertyOp15
 70
     1
102
RTVSPropertyOp16
 70
     1
102
RTVSPropertyOp17
 70
     1
102
RTVSPropertyOp18
 70
     1
102
RTVSPropertyOp19
 70
     1
102
RTVSPropertyOp20
 70
     1
102
RTVSPropertyOp21
 70
     1
102
RTVSPropertyOp22
 70
     1
102
RTVSPropertyOp23
 70
     1
102
RTVSPropertyOp24
 70
     1
102
RTVSPropertyOp25
 70
     1
102
RTVSPropertyOp26
 70
     1
102
RTVSPropertyOp27
 70
     1
  0
XRECORD
  5
477
102
{ACAD_REACTORS
330
476
102
}
330
476
100
AcDbXrecord
280
     1
102
RTVSPropertyOp0
 70
     1
102
RTVSPropertyOp1
 70
     1
102
RTVSPropertyOp2
 70
     1
102
RTVSPropertyOp3
 70
     1
102
RTVSPropertyOp4
 70
     1
102
RTVSPropertyOp5
 70
     1
102
RTVSPropertyOp6
 70
     1
102
RTVSPropertyOp7
 70
     1
102
RTVSPropertyOp8
 70
     1
102
RTVSPropertyOp9
 70
     1
102
RTVSPropertyOp10
 70
     1
102
RTVSPropertyOp11
 70
     1
102
RTVSPropertyOp12
 70
     1
102
RTVSPropertyOp13
 70
     1
102
RTVSPropertyOp14
 70
     1
102
RTVSPropertyOp15
 70
     1
102
RTVSPropertyOp16
 70
     1
102
RTVSPropertyOp17
 70
     1
102
RTVSPropertyOp18
 70
     1
102
RTVSPropertyOp19
 70
     1
102
RTVSPropertyOp20
 70
     1
102
RTVSPropertyOp21
 70
     1
102
RTVSPropertyOp22
 70
     1
102
RTVSPropertyOp23
 70
     1
102
RTVSPropertyOp24
 70
     1
102
RTVSPropertyOp25
 70
     1
102
RTVSPropertyOp26
 70
     1
102
RTVSPropertyOp27
 70
     1
  0
XRECORD
  5
479
102
{ACAD_REACTORS
330
478
102
}
330
478
100
AcDbXrecord
280
     1
102
RTVSPropertyOp0
 70
     1
102
RTVSPropertyOp1
 70
     1
102
RTVSPropertyOp2
 70
     1
102
RTVSPropertyOp3
 70
     1
102
RTVSPropertyOp4
 70
     1
102
RTVSPropertyOp5
 70
     1
102
RTVSPropertyOp6
 70
     1
102
RTVSPropertyOp7
 70
     1
102
RTVSPropertyOp8
 70
     1
102
RTVSPropertyOp9
 70
     1
102
RTVSPropertyOp10
 70
     1
102
RTVSPropertyOp11
 70
     1
102
RTVSPropertyOp12
 70
     1
102
RTVSPropertyOp13
 70
     1
102
RTVSPropertyOp14
 70
     1
102
RTVSPropertyOp15
 70
     1
102
RTVSPropertyOp16
 70
     1
102
RTVSPropertyOp17
 70
     1
102
RTVSPropertyOp18
 70
     1
102
RTVSPropertyOp19
 70
     1
102
RTVSPropertyOp20
 70
     1
102
RTVSPropertyOp21
 70
     1
102
RTVSPropertyOp22
 70
     1
102
RTVSPropertyOp23
 70
     1
102
RTVSPropertyOp24
 70
     1
102
RTVSPropertyOp25
 70
     1
102
RTVSPropertyOp26
 70
     1
102
RTVSPropertyOp27
 70
     1
  0
XRECORD
  5
47B
102
{ACAD_REACTORS
330
47A
102
}
330
47A
100
AcDbXrecord
280
     1
102
RTVSPropertyOp0
 70
     1
102
RTVSPropertyOp1
 70
     1
102
RTVSPropertyOp2
 70
     1
102
RTVSPropertyOp3
 70
     1
102
RTVSPropertyOp4
 70
     1
102
RTVSPropertyOp5
 70
     1
102
RTVSPropertyOp6
 70
     1
102
RTVSPropertyOp7
 70
     1
102
RTVSPropertyOp8
 70
     1
102
RTVSPropertyOp9
 70
     1
102
RTVSPropertyOp10
 70
     1
102
RTVSPropertyOp11
 70
     1
102
RTVSPropertyOp12
 70
     1
102
RTVSPropertyOp13
 70
     1
102
RTVSPropertyOp14
 70
     1
102
RTVSPropertyOp15
 70
     1
102
RTVSPropertyOp16
 70
     1
102
RTVSPropertyOp17
 70
     1
102
RTVSPropertyOp18
 70
     1
102
RTVSPropertyOp19
 70
     1
102
RTVSPropertyOp20
 70
     1
102
RTVSPropertyOp21
 70
     1
102
RTVSPropertyOp22
 70
     1
102
RTVSPropertyOp23
 70
     1
102
RTVSPropertyOp24
 70
     1
102
RTVSPropertyOp25
 70
     1
102
RTVSPropertyOp26
 70
     1
102
RTVSPropertyOp27
 70
     1
  0
XRECORD
  5
48F
102
{ACAD_REACTORS
330
48E
102
}
330
48E
100
AcDbXrecord
280
     1
102
RTVSPropertyOp0
 70
     1
102
RTVSPropertyOp1
 70
     1
102
RTVSPropertyOp2
 70
     1
102
RTVSPropertyOp3
 70
     1
102
RTVSPropertyOp4
 70
     1
102
RTVSPropertyOp5
 70
     1
102
RTVSPropertyOp6
 70
     1
102
RTVSPropertyOp7
 70
     1
102
RTVSPropertyOp8
 70
     1
102
RTVSPropertyOp9
 70
     1
102
RTVSPropertyOp10
 70
     1
102
RTVSPropertyOp11
 70
     1
102
RTVSPropertyOp12
 70
     1
102
RTVSPropertyOp13
 70
     1
102
RTVSPropertyOp14
 70
     1
102
RTVSPropertyOp15
 70
     1
102
RTVSPropertyOp16
 70
     1
102
RTVSPropertyOp17
 70
     1
102
RTVSPropertyOp18
 70
     1
102
RTVSPropertyOp19
 70
     1
102
RTVSPropertyOp20
 70
     1
102
RTVSPropertyOp21
 70
     1
102
RTVSPropertyOp22
 70
     1
102
RTVSPropertyOp23
 70
     1
102
RTVSPropertyOp24
 70
     1
102
RTVSPropertyOp25
 70
     1
102
RTVSPropertyOp26
 70
     1
102
RTVSPropertyOp27
 70
     1
  0
XRECORD
  5
485
102
{ACAD_REACTORS
330
484
102
}
330
484
100
AcDbXrecord
280
     1
102
RTVSPropertyOp0
 70
     1
102
RTVSPropertyOp1
 70
     1
102
RTVSPropertyOp2
 70
     1
102
RTVSPropertyOp3
 70
     1
102
RTVSPropertyOp4
 70
     1
102
RTVSPropertyOp5
 70
     1
102
RTVSPropertyOp6
 70
     1
102
RTVSPropertyOp7
 70
     1
102
RTVSPropertyOp8
 70
     1
102
RTVSPropertyOp9
 70
     1
102
RTVSPropertyOp10
 70
     1
102
RTVSPropertyOp11
 70
     1
102
RTVSPropertyOp12
 70
     1
102
RTVSPropertyOp13
 70
     1
102
RTVSPropertyOp14
 70
     1
102
RTVSPropertyOp15
 70
     1
102
RTVSPropertyOp16
 70
     1
102
RTVSPropertyOp17
 70
     1
102
RTVSPropertyOp18
 70
     1
102
RTVSPropertyOp19
 70
     1
102
RTVSPropertyOp20
 70
     1
102
RTVSPropertyOp21
 70
     1
102
RTVSPropertyOp22
 70
     1
102
RTVSPropertyOp23
 70
     1
102
RTVSPropertyOp24
 70
     1
102
RTVSPropertyOp25
 70
     1
102
RTVSPropertyOp26
 70
     1
102
RTVSPropertyOp27
 70
     1
  0
XRECORD
  5
48D
102
{ACAD_REACTORS
330
48C
102
}
330
48C
100
AcDbXrecord
280
     1
102
RTVSPropertyOp0
 70
     1
102
RTVSPropertyOp1
 70
     1
102
RTVSPropertyOp2
 70
     1
102
RTVSPropertyOp3
 70
     1
102
RTVSPropertyOp4
 70
     1
102
RTVSPropertyOp5
 70
     1
102
RTVSPropertyOp6
 70
     1
102
RTVSPropertyOp7
 70
     1
102
RTVSPropertyOp8
 70
     1
102
RTVSPropertyOp9
 70
     1
102
RTVSPropertyOp10
 70
     1
102
RTVSPropertyOp11
 70
     1
102
RTVSPropertyOp12
 70
     1
102
RTVSPropertyOp13
 70
     1
102
RTVSPropertyOp14
 70
     1
102
RTVSPropertyOp15
 70
     1
102
RTVSPropertyOp16
 70
     1
102
RTVSPropertyOp17
 70
     1
102
RTVSPropertyOp18
 70
     1
102
RTVSPropertyOp19
 70
     1
102
RTVSPropertyOp20
 70
     1
102
RTVSPropertyOp21
 70
     1
102
RTVSPropertyOp22
 70
     1
102
RTVSPropertyOp23
 70
     1
102
RTVSPropertyOp24
 70
     1
102
RTVSPropertyOp25
 70
     1
102
RTVSPropertyOp26
 70
     1
102
RTVSPropertyOp27
 70
     1
  0
ENDSEC
  0
EOF
