  0
SECTION
  2
HEADER
  9
$LIMMIN
 10
0.000000
 20
0.000000
  9
$LIMMAX
 10
1681.800000
 20
1189.210000
  9
$EXTMIN
 10
0.000000
 20
0.000000
  9
$EXTMAX
 10
1681.800000
 20
1189.210000
  9
$ANGBASE
 50
0.0
  9
$ANGDIR
 70
0
  9
$DIMRND
 40
0.100000
  9
$DIMSE1
 70
0
  9
$DIMSE2
 70
0
  9
$DIMTXT
 40
3.500000
  9
$LTSCALE
 40
1.000000
  9
$LUPREC
 70
5
  9
$AUPREC
 70
5
  9
$PDMODE
 70
2
  9
$PDSIZE
 40
8.409000
  0
ENDSEC
  0
SECTION
  2
TABLES
  0
TABLE
  2
VPORT
  70
1
  0
VPORT
  2
*ACTIVE
 70
0
  10
0.0
 20
0.0
 11
1.0
 21
1.0
 12
594.0
 22
420.0
 13
0.0
 23
0.0
 14
10.0
 24
10.0
 15
10.0
 25
10.0
 16
0.0
 26
0.0
 36
1.0
 17
594.0
 27
420.0
 37
100.0
 40
1000.0
 41
1.0
 42
50.0
 43
0.0
 44
0.0
 50
0.0
 51
0.0
 71
0
 72
2000
 73
1
 74
3
 75
0
 76
0
 77
0
 78
1
  0
ENDTAB
  0
TABLE
  2
LTYPE
 70
4
  0
LTYPE
  2
CONTINUOUS
 70
0
  3
Solid line
 72
65
 73
0
 40
0.0
  0
LTYPE
  2
DASHED
 70
0
  3
Dashed line
 72
65
 73
2
 40
6.000000
 49
3.000000
 49
-3.000000
  0
LTYPE
  2
CENTER
 70
0
  3
Chain line
 72
65
 73
4
 40
24.000000
 49
15.000000
 49
-3.000000
 49
3.000000
 49
-3.000000
  0
LTYPE
  2
RANDOM
 70
0
  3
Random line
 72
65
 73
4
 40
22.500000
 49
6.000000
 49
-3.000000
 49
4.500000
 49
-9.000000
  0
ENDTAB
  0
TABLE
  2
STYLE
 70
9
  0
STYLE
  2
STANDARD
 40
0
 41
1.0
 50
0.0
 71
0
 42
0
  3
simplex
  4

 70
0
  0
ENDTAB
  0
TABLE
  2
LAYER
 70
2
  0
LAYER
  2
0
 70
0
 62
7
  6
CONTINUOUS
  0
LAYER
  2
0
 62
1
  6
CONTINUOUS
 70
0
  0
ENDTAB
  0
ENDSEC
  0
SECTION
  2
BLOCKS
  0
ENDSEC
  0
SECTION
  2
ENTITIES
  0
LINE
  8
0
  6
CONTINUOUS
 62
1
 10
492.125368
 20
418.031729
 11
991.196624
 21
418.031729
  0
LINE
  8
0
  6
CONTINUOUS
 62
1
 10
492.125368
 20
418.031729
 11
492.125368
 21
535.231762
  0
ARC
  8
0
  6
CONTINUOUS
 62
1
 10
445.625368
 20
536.131725
 40
0.900000
 50
180.000000
 51
270.000000
  0
LINE
  8
0
  6
CONTINUOUS
 62
1
 10
445.625368
 20
535.231762
 11
492.125368
 21
535.231762
  0
LINE
  8
0
  6
CONTINUOUS
 62
7
 10
444.725404
 20
699.131640
 11
444.725465
 21
699.131640
  0
LINE
  8
0
  6
CONTINUOUS
 62
1
 10
500.434172
 20
639.231640
 11
991.148604
 21
639.231640
  0
LINE
  8
0
  6
CONTINUOUS
 62
1
 10
444.725404
 20
698.931615
 11
444.725404
 21
536.131725
  0
LINE
  8
0
  6
CONTINUOUS
 62
1
 10
991.148604
 20
639.231640
 11
1012.583469
 21
654.131664
  0
LINE
  8
0
  6
CONTINUOUS
 62
1
 10
1046.237078
 20
654.131664
 11
1012.583469
 21
654.131664
  0
LINE
  8
0
  6
CONTINUOUS
 62
1
 10
473.881600
 20
692.964819
 11
500.434172
 21
639.231640
  0
LINE
  8
0
  6
CONTINUOUS
 62
1
 10
464.285414
 20
698.931615
 11
444.725404
 21
698.931615
  0
LINE
  8
0
  6
CONTINUOUS
 62
1
 10
1040.648151
 20
585.540460
 11
1072.194646
 21
624.232994
  0
LINE
  8
0
  6
CONTINUOUS
 62
1
 10
1071.291973
 20
633.735687
 11
1046.237078
 21
654.131664
  0
ARC
  8
0
  6
CONTINUOUS
 62
1
 10
1067.062148
 20
628.539671
 40
6.700000
 50
320.000000
 51
50.852633
  0
LINE
  8
0
  6
CONTINUOUS
 62
1
 10
493.528779
 20
653.231762
 11
1011.288888
 21
653.231762
  0
ARC
  8
0
  6
CONTINUOUS
 62
1
 10
464.285414
 20
688.231615
 40
10.700000
 50
26.254268
 51
90.000000
  0
ARC
  8
0
  6
CONTINUOUS
 62
1
 10
1039.748157
 20
419.031729
 40
0.900000
 50
270.000000
 51
0.000000
  0
LINE
  8
0
  6
CONTINUOUS
 62
1
 10
1040.648151
 20
419.028421
 11
1040.648151
 21
585.540460
  0
LINE
  8
0
  6
CONTINUOUS
 62
1
 10
1039.748157
 20
418.131729
 11
991.196624
 21
418.131729
  0
LINE
  8
0
  6
CONTINUOUS
 62
1
 10
494.125368
 20
417.131729
 11
1038.648151
 21
417.131729
  0
LINE
  8
0
  6
CONTINUOUS
 62
1
 10
494.125368
 20
417.131729
 11
494.125368
 21
418.031729
  0
LINE
  8
0
  6
CONTINUOUS
 62
1
 10
1038.648151
 20
417.131729
 11
1038.648151
 21
418.031729
  0
ARC
  8
0
  6
CONTINUOUS
 62
1
 10
571.625245
 20
415.131729
 40
1.000000
 50
270.000000
 51
300.963760
  0
LINE
  8
0
  6
CONTINUOUS
 62
1
 10
576.771486
 20
417.053238
 11
572.139772
 21
414.274185
  0
LINE
  8
0
  6
CONTINUOUS
 62
1
 10
546.625459
 20
414.131729
 11
571.625245
 21
414.131729
  0
ARC
  8
0
  6
CONTINUOUS
 62
1
 10
546.625490
 20
415.131729
 40
1.000008
 50
239.036240
 51
270.000000
  0
LINE
  8
0
  6
CONTINUOUS
 62
1
 10
541.348482
 20
417.131729
 11
546.110963
 21
414.274185
  0
ARC
  8
0
  6
CONTINUOUS
 62
1
 10
986.148029
 20
415.131729
 40
1.000000
 50
270.000000
 51
300.963760
  0
LINE
  8
0
  6
CONTINUOUS
 62
1
 10
991.294269
 20
417.053238
 11
986.662555
 21
414.274185
  0
LINE
  8
0
  6
CONTINUOUS
 62
1
 10
961.148242
 20
414.131729
 11
986.148029
 21
414.131729
  0
ARC
  8
0
  6
CONTINUOUS
 62
1
 10
961.148273
 20
415.131729
 40
1.000008
 50
239.036240
 51
270.000000
  0
LINE
  8
0
  6
CONTINUOUS
 62
1
 10
955.871265
 20
417.131729
 11
960.633747
 21
414.274185
  0
LINE
  8
0
  6
CONTINUOUS
 62
1
 10
1066.648151
 20
525.650879
 11
1066.648151
 21
480.212431
  0
LINE
  8
0
  6
CONTINUOUS
 62
1
 10
1046.648151
 20
474.522080
 11
1065.890687
 21
479.242289
  0
ARC
  8
0
  6
CONTINUOUS
 62
1
 10
1065.648151
 20
480.212431
 40
1.000000
 50
284.036243
 51
0.000000
  0
ARC
  8
0
  6
CONTINUOUS
 62
1
 10
1065.648151
 20
525.650879
 40
1.000000
 50
0.000000
 51
75.963757
  0
LINE
  8
0
  6
CONTINUOUS
 62
1
 10
1040.648151
 20
531.396748
 11
1046.648151
 21
531.344386
  0
LINE
  8
0
  6
CONTINUOUS
 62
1
 10
1040.648151
 20
474.466562
 11
1046.648151
 21
474.518924
  0
LINE
  8
0
  6
CONTINUOUS
 62
1
 10
1047.009852
 20
531.341230
 11
1065.890687
 21
526.621021
  0
LINE
  8
0
  6
CONTINUOUS
 62
1
 10
1046.648151
 20
474.522080
 11
1046.648151
 21
531.344386
  0
LINE
  8
0
  6
CONTINUOUS
 62
1
 10
530.162148
 20
653.231762
 11
530.162148
 21
692.231762
  0
LINE
  8
0
  6
CONTINUOUS
 62
1
 10
734.162148
 20
692.231762
 11
734.162148
 21
653.231762
  0
LINE
  8
0
  6
CONTINUOUS
 62
1
 10
739.162148
 20
693.231762
 11
525.162148
 21
693.231762
  0
LINE
  8
0
  6
CONTINUOUS
 62
1
 10
527.162148
 20
692.231762
 11
737.162148
 21
692.231762
  0
ARC
  8
0
  6
CONTINUOUS
 62
1
 10
528.162148
 20
692.231762
 40
1.000000
 50
90.000000
 51
180.000000
  0
ARC
  8
0
  6
CONTINUOUS
 62
1
 10
736.162148
 20
692.231762
 40
1.000000
 50
0.000000
 51
90.000000
  0
LINE
  8
0
  6
CONTINUOUS
 62
1
 10
525.162148
 20
694.231762
 11
739.162148
 21
694.231762
  0
LINE
  8
0
  6
CONTINUOUS
 62
1
 10
525.162148
 20
694.231762
 11
525.162148
 21
693.231762
  0
LINE
  8
0
  6
CONTINUOUS
 62
1
 10
739.162148
 20
693.231762
 11
739.162148
 21
694.231762
  0
LINE
  8
0
  6
CONTINUOUS
 62
1
 10
758.162148
 20
653.231762
 11
758.162148
 21
692.231762
  0
LINE
  8
0
  6
CONTINUOUS
 62
1
 10
962.162148
 20
692.231762
 11
962.162148
 21
653.231762
  0
LINE
  8
0
  6
CONTINUOUS
 62
1
 10
967.162148
 20
693.231762
 11
753.162148
 21
693.231762
  0
LINE
  8
0
  6
CONTINUOUS
 62
1
 10
755.162148
 20
692.231762
 11
965.162148
 21
692.231762
  0
ARC
  8
0
  6
CONTINUOUS
 62
1
 10
756.162148
 20
692.231762
 40
1.000000
 50
90.000000
 51
180.000000
  0
ARC
  8
0
  6
CONTINUOUS
 62
1
 10
964.162148
 20
692.231762
 40
1.000000
 50
0.000000
 51
90.000000
  0
LINE
  8
0
  6
CONTINUOUS
 62
1
 10
753.162148
 20
694.231762
 11
967.162148
 21
694.231762
  0
LINE
  8
0
  6
CONTINUOUS
 62
1
 10
753.162148
 20
694.231762
 11
753.162148
 21
693.231762
  0
LINE
  8
0
  6
CONTINUOUS
 62
1
 10
967.162148
 20
693.231762
 11
967.162148
 21
694.231762
  0
ENDSEC
  0
EOF
