  0
SECTION
  2
HEADER
  9
$LIMMIN
 10
0.000000
 20
0.000000
  9
$LIMMAX
 10
1681.800000
 20
1189.210000
  9
$EXTMIN
 10
0.000000
 20
0.000000
  9
$EXTMAX
 10
1681.800000
 20
1189.210000
  9
$ANGBASE
 50
0.0
  9
$ANGDIR
 70
0
  9
$DIMRND
 40
0.100000
  9
$DIMSE1
 70
0
  9
$DIMSE2
 70
0
  9
$DIMTXT
 40
3.500000
  9
$LTSCALE
 40
1.000000
  9
$LUPREC
 70
5
  9
$AUPREC
 70
5
  9
$PDMODE
 70
2
  9
$PDSIZE
 40
8.409000
  0
ENDSEC
  0
SECTION
  2
TABLES
  0
TABLE
  2
VPORT
  70
1
  0
VPORT
  2
*ACTIVE
 70
0
  10
0.0
 20
0.0
 11
1.0
 21
1.0
 12
594.0
 22
420.0
 13
0.0
 23
0.0
 14
10.0
 24
10.0
 15
10.0
 25
10.0
 16
0.0
 26
0.0
 36
1.0
 17
594.0
 27
420.0
 37
100.0
 40
1000.0
 41
1.0
 42
50.0
 43
0.0
 44
0.0
 50
0.0
 51
0.0
 71
0
 72
2000
 73
1
 74
3
 75
0
 76
0
 77
0
 78
1
  0
ENDTAB
  0
TABLE
  2
LTYPE
 70
4
  0
LTYPE
  2
CONTINUOUS
 70
0
  3
Solid line
 72
65
 73
0
 40
0.0
  0
LTYPE
  2
DASHED
 70
0
  3
Dashed line
 72
65
 73
2
 40
6.000000
 49
3.000000
 49
-3.000000
  0
LTYPE
  2
CENTER
 70
0
  3
Chain line
 72
65
 73
4
 40
24.000000
 49
15.000000
 49
-3.000000
 49
3.000000
 49
-3.000000
  0
LTYPE
  2
RANDOM
 70
0
  3
Random line
 72
65
 73
4
 40
22.500000
 49
6.000000
 49
-3.000000
 49
4.500000
 49
-9.000000
  0
ENDTAB
  0
TABLE
  2
STYLE
 70
9
  0
STYLE
  2
STANDARD
 40
0
 41
1.0
 50
0.0
 71
0
 42
0
  3
simplex
  4

 70
0
  0
ENDTAB
  0
TABLE
  2
LAYER
 70
2
  0
LAYER
  2
0
 70
0
 62
7
  6
CONTINUOUS
  0
LAYER
  2
0
 62
1
  6
CONTINUOUS
 70
0
  0
ENDTAB
  0
ENDSEC
  0
SECTION
  2
BLOCKS
  0
ENDSEC
  0
SECTION
  2
ENTITIES
  0
LINE
  8
0
  6
CONTINUOUS
 62
1
 10
522.406697
 20
367.538839
 11
522.406697
 21
648.638799
  0
LINE
  8
0
  6
CONTINUOUS
 62
1
 10
970.406715
 20
367.538839
 11
522.406697
 21
367.538839
  0
LINE
  8
0
  6
CONTINUOUS
 62
1
 10
970.406715
 20
367.538839
 11
970.406715
 21
648.638799
  0
LINE
  8
0
  6
CONTINUOUS
 62
1
 10
663.646607
 20
412.638839
 11
829.166806
 21
412.638839
  0
LINE
  8
0
  6
CONTINUOUS
 62
1
 10
647.286309
 20
508.842809
 11
655.686309
 21
419.842809
  0
LINE
  8
0
  6
CONTINUOUS
 62
1
 10
837.127103
 20
419.842809
 11
845.527103
 21
508.842809
  0
LINE
  8
0
  6
CONTINUOUS
 62
1
 10
837.566806
 20
517.638839
 11
655.246607
 21
517.638839
  0
ARC
  8
0
  6
CONTINUOUS
 62
1
 10
837.566806
 20
509.638839
 40
8.000000
 50
354.289407
 51
90.000000
  0
ARC
  8
0
  6
CONTINUOUS
 62
1
 10
655.246607
 20
509.638839
 40
8.000000
 50
90.000000
 51
185.710593
  0
ARC
  8
0
  6
CONTINUOUS
 62
1
 10
663.646607
 20
420.638839
 40
8.000000
 50
185.710593
 51
270.000000
  0
ARC
  8
0
  6
CONTINUOUS
 62
1
 10
829.166806
 20
420.638839
 40
8.000000
 50
270.000000
 51
354.289407
  0
LINE
  8
0
  6
CONTINUOUS
 62
1
 10
616.406706
 20
537.638839
 11
876.406706
 21
537.638839
  0
CIRCLE
  8
0
  6
CONTINUOUS
 62
1
 10
746.406675
 20
495.138808
 40
3.000000
  0
LINE
  8
0
  6
CONTINUOUS
 62
1
 10
655.246607
 20
525.638839
 11
837.566806
 21
525.638839
  0
LINE
  8
0
  6
CONTINUOUS
 62
1
 10
647.714952
 20
419.166451
 11
639.314952
 21
508.166451
  0
ARC
  8
0
  6
CONTINUOUS
 62
1
 10
655.246607
 20
509.638839
 40
16.000000
 50
90.000000
 51
185.710593
  0
ARC
  8
0
  6
CONTINUOUS
 62
1
 10
663.646607
 20
420.638839
 40
16.000000
 50
185.710593
 51
270.000000
  0
LINE
  8
0
  6
CONTINUOUS
 62
1
 10
829.166806
 20
404.638839
 11
663.646607
 21
404.638839
  0
ARC
  8
0
  6
CONTINUOUS
 62
1
 10
829.166806
 20
420.638839
 40
16.000000
 50
270.000000
 51
354.289407
  0
LINE
  8
0
  6
CONTINUOUS
 62
1
 10
853.498461
 20
508.166451
 11
845.098461
 21
419.166451
  0
ARC
  8
0
  6
CONTINUOUS
 62
1
 10
837.566806
 20
509.638839
 40
16.000000
 50
354.289407
 51
90.000000
  0
CIRCLE
  8
0
  6
CONTINUOUS
 62
1
 10
746.406675
 20
506.138808
 40
5.000000
  0
LINE
  8
0
  6
CONTINUOUS
 62
1
 10
524.406697
 20
366.638839
 11
968.406715
 21
366.638839
  0
LINE
  8
0
  6
CONTINUOUS
 62
1
 10
524.406697
 20
366.638839
 11
524.406697
 21
367.538839
  0
LINE
  8
0
  6
CONTINUOUS
 62
1
 10
968.406715
 20
366.638839
 11
968.406715
 21
367.538839
  0
ARC
  8
0
  6
CONTINUOUS
 62
1
 10
600.906584
 20
364.638839
 40
1.000000
 50
270.000000
 51
300.963760
  0
LINE
  8
0
  6
CONTINUOUS
 62
1
 10
606.052824
 20
366.560348
 11
601.421111
 21
363.781295
  0
LINE
  8
0
  6
CONTINUOUS
 62
1
 10
575.906798
 20
363.638839
 11
600.906584
 21
363.638839
  0
ARC
  8
0
  6
CONTINUOUS
 62
1
 10
575.906828
 20
364.638839
 40
1.000008
 50
239.036240
 51
270.000000
  0
LINE
  8
0
  6
CONTINUOUS
 62
1
 10
570.629820
 20
366.638839
 11
575.392302
 21
363.781295
  0
ARC
  8
0
  6
CONTINUOUS
 62
1
 10
916.906584
 20
364.638839
 40
1.000000
 50
270.000000
 51
300.963760
  0
LINE
  8
0
  6
CONTINUOUS
 62
1
 10
922.052824
 20
366.560348
 11
917.421111
 21
363.781295
  0
LINE
  8
0
  6
CONTINUOUS
 62
1
 10
891.906798
 20
363.638839
 11
916.906584
 21
363.638839
  0
ARC
  8
0
  6
CONTINUOUS
 62
1
 10
891.906828
 20
364.638839
 40
1.000008
 50
239.036240
 51
270.000000
  0
LINE
  8
0
  6
CONTINUOUS
 62
1
 10
886.629820
 20
366.638839
 11
891.392302
 21
363.781295
  0
LINE
  8
0
  6
CONTINUOUS
 62
1
 10
970.406715
 20
648.638799
 11
522.406697
 21
648.638799
  0
LINE
  8
0
  6
CONTINUOUS
 62
1
 10
522.406697
 20
537.638839
 11
970.406715
 21
537.638839
  0
LINE
  8
0
  6
CONTINUOUS
 62
1
 10
523.406675
 20
603.538799
 11
969.406738
 21
603.538799
  0
ARC
  8
0
  6
CONTINUOUS
 62
1
 10
817.631675
 20
452.638839
 40
61.225000
 50
156.706520
 51
203.293480
  0
ARC
  8
0
  6
CONTINUOUS
 62
1
 10
675.181675
 20
452.638839
 40
61.225000
 50
336.706520
 51
23.293480
  0
ARC
  8
0
  6
CONTINUOUS
 62
1
 10
746.406675
 20
481.138839
 40
0.250000
 50
180.251298
 51
359.748702
  0
LINE
  8
0
  6
CONTINUOUS
 62
1
 10
744.907439
 20
476.090966
 11
746.156678
 21
481.137742
  0
LINE
  8
0
  6
CONTINUOUS
 62
1
 10
746.656673
 20
481.137742
 11
747.905911
 21
476.090966
  0
ARC
  8
0
  6
CONTINUOUS
 62
1
 10
758.391933
 20
471.680992
 40
1.000000
 50
0.000000
 51
57.813415
  0
ARC
  8
0
  6
CONTINUOUS
 62
1
 10
758.391933
 20
433.596686
 40
1.000000
 50
0.000000
 51
17.819597
  0
ARC
  8
0
  6
CONTINUOUS
 62
1
 10
734.421417
 20
471.680992
 40
1.000000
 50
122.186572
 51
197.819610
  0
ARC
  8
0
  6
CONTINUOUS
 62
1
 10
758.391933
 20
471.680992
 40
1.000000
 50
342.180403
 51
0.000000
  0
ARC
  8
0
  6
CONTINUOUS
 62
1
 10
758.391933
 20
433.596686
 40
1.000000
 50
302.186585
 51
0.000000
  0
ARC
  8
0
  6
CONTINUOUS
 62
1
 10
734.421417
 20
433.596686
 40
1.000000
 50
162.180340
 51
237.813402
  0
CIRCLE
  8
0
  6
CONTINUOUS
 62
1
 10
746.406675
 20
452.638839
 40
28.500000
  0
ARC
  8
0
  6
CONTINUOUS
 62
1
 10
746.406675
 20
452.638839
 40
23.500000
 50
55.900642
 51
86.342201
  0
ARC
  8
0
  6
CONTINUOUS
 62
1
 10
746.406675
 20
452.638839
 40
23.500000
 50
235.900642
 51
304.099358
  0
ARC
  8
0
  6
CONTINUOUS
 62
1
 10
746.406675
 20
476.795263
 40
1.656425
 50
205.162757
 51
334.837243
  0
ARC
  8
0
  6
CONTINUOUS
 62
1
 10
746.406675
 20
452.638839
 40
23.500000
 50
93.657799
 51
124.099358
  0
LINE
  8
0
  6
CONTINUOUS
 62
1
 10
531.906685
 20
603.538799
 11
531.906685
 21
642.538799
  0
LINE
  8
0
  6
CONTINUOUS
 62
1
 10
735.906685
 20
642.538799
 11
735.906685
 21
603.538799
  0
LINE
  8
0
  6
CONTINUOUS
 62
1
 10
740.906685
 20
643.538799
 11
526.906685
 21
643.538799
  0
LINE
  8
0
  6
CONTINUOUS
 62
1
 10
528.906685
 20
642.538799
 11
738.906685
 21
642.538799
  0
ARC
  8
0
  6
CONTINUOUS
 62
1
 10
529.906685
 20
642.538799
 40
1.000000
 50
90.000000
 51
180.000000
  0
ARC
  8
0
  6
CONTINUOUS
 62
1
 10
737.906685
 20
642.538799
 40
1.000000
 50
0.000000
 51
90.000000
  0
LINE
  8
0
  6
CONTINUOUS
 62
1
 10
526.906685
 20
644.538799
 11
740.906685
 21
644.538799
  0
LINE
  8
0
  6
CONTINUOUS
 62
1
 10
526.906685
 20
644.538799
 11
526.906685
 21
643.538799
  0
LINE
  8
0
  6
CONTINUOUS
 62
1
 10
740.906685
 20
643.538799
 11
740.906685
 21
644.538799
  0
LINE
  8
0
  6
CONTINUOUS
 62
1
 10
756.906715
 20
603.538799
 11
756.906715
 21
642.538799
  0
LINE
  8
0
  6
CONTINUOUS
 62
1
 10
960.906715
 20
642.538799
 11
960.906715
 21
603.538799
  0
LINE
  8
0
  6
CONTINUOUS
 62
1
 10
965.906715
 20
643.538799
 11
751.906715
 21
643.538799
  0
LINE
  8
0
  6
CONTINUOUS
 62
1
 10
753.906715
 20
642.538799
 11
963.906715
 21
642.538799
  0
ARC
  8
0
  6
CONTINUOUS
 62
1
 10
754.906715
 20
642.538799
 40
1.000000
 50
90.000000
 51
180.000000
  0
ARC
  8
0
  6
CONTINUOUS
 62
1
 10
962.906715
 20
642.538799
 40
1.000000
 50
0.000000
 51
90.000000
  0
LINE
  8
0
  6
CONTINUOUS
 62
1
 10
751.906715
 20
644.538799
 11
965.906715
 21
644.538799
  0
LINE
  8
0
  6
CONTINUOUS
 62
1
 10
751.906715
 20
644.538799
 11
751.906715
 21
643.538799
  0
LINE
  8
0
  6
CONTINUOUS
 62
1
 10
965.906715
 20
643.538799
 11
965.906715
 21
644.538799
  0
ENDSEC
  0
EOF
