  0
SECTION
  2
HEADER
  9
$LIMMIN
 10
0.000000
 20
0.000000
  9
$LIMMAX
 10
1681.800000
 20
1189.210000
  9
$EXTMIN
 10
0.000000
 20
0.000000
  9
$EXTMAX
 10
1681.800000
 20
1189.210000
  9
$ANGBASE
 50
0.0
  9
$ANGDIR
 70
0
  9
$DIMRND
 40
0.100000
  9
$DIMSE1
 70
0
  9
$DIMSE2
 70
0
  9
$DIMTXT
 40
3.500000
  9
$LTSCALE
 40
1.000000
  9
$LUPREC
 70
5
  9
$AUPREC
 70
5
  9
$PDMODE
 70
2
  9
$PDSIZE
 40
8.409000
  0
ENDSEC
  0
SECTION
  2
TABLES
  0
TABLE
  2
VPORT
  70
1
  0
VPORT
  2
*ACTIVE
 70
0
  10
0.0
 20
0.0
 11
1.0
 21
1.0
 12
594.0
 22
420.0
 13
0.0
 23
0.0
 14
10.0
 24
10.0
 15
10.0
 25
10.0
 16
0.0
 26
0.0
 36
1.0
 17
594.0
 27
420.0
 37
100.0
 40
1000.0
 41
1.0
 42
50.0
 43
0.0
 44
0.0
 50
0.0
 51
0.0
 71
0
 72
2000
 73
1
 74
3
 75
0
 76
0
 77
0
 78
1
  0
ENDTAB
  0
TABLE
  2
LTYPE
 70
4
  0
LTYPE
  2
CONTINUOUS
 70
0
  3
Solid line
 72
65
 73
0
 40
0.0
  0
LTYPE
  2
DASHED
 70
0
  3
Dashed line
 72
65
 73
2
 40
6.000000
 49
3.000000
 49
-3.000000
  0
LTYPE
  2
CENTER
 70
0
  3
Chain line
 72
65
 73
4
 40
24.000000
 49
15.000000
 49
-3.000000
 49
3.000000
 49
-3.000000
  0
LTYPE
  2
RANDOM
 70
0
  3
Random line
 72
65
 73
4
 40
22.500000
 49
6.000000
 49
-3.000000
 49
4.500000
 49
-9.000000
  0
ENDTAB
  0
TABLE
  2
STYLE
 70
9
  0
STYLE
  2
STANDARD
 40
0
 41
1.0
 50
0.0
 71
0
 42
0
  3
simplex
  4

 70
0
  0
ENDTAB
  0
TABLE
  2
LAYER
 70
2
  0
LAYER
  2
0
 70
0
 62
7
  6
CONTINUOUS
  0
LAYER
  2
0
 62
1
  6
CONTINUOUS
 70
0
  0
ENDTAB
  0
ENDSEC
  0
SECTION
  2
BLOCKS
  0
ENDSEC
  0
SECTION
  2
ENTITIES
  0
LINE
  8
0
  6
CONTINUOUS
 62
1
 10
916.029810
 20
778.754965
 11
468.029792
 21
778.754965
  0
LINE
  8
0
  6
CONTINUOUS
 62
1
 10
468.029792
 20
210.755026
 11
916.029810
 21
210.755026
  0
LINE
  8
0
  6
CONTINUOUS
 62
1
 10
915.329810
 20
723.254965
 11
468.029792
 21
723.254965
  0
LINE
  8
0
  6
CONTINUOUS
 62
1
 10
468.029792
 20
778.754965
 11
468.029792
 21
149.718221
  0
LINE
  8
0
  6
CONTINUOUS
 62
1
 10
916.029810
 20
778.754965
 11
916.029810
 21
149.718221
  0
LINE
  8
0
  6
CONTINUOUS
 62
1
 10
916.029810
 20
149.718221
 11
468.029792
 21
149.718221
  0
LINE
  8
0
  6
CONTINUOUS
 62
1
 10
916.029810
 20
231.324760
 11
468.029792
 21
231.324760
  0
ARC
  8
0
  6
CONTINUOUS
 62
1
 10
579.529779
 20
591.358115
 40
99.384483
 50
270.000000
 51
185.774835
  0
ARC
  8
0
  6
CONTINUOUS
 62
1
 10
579.529779
 20
591.358115
 40
93.200000
 50
270.000000
 51
186.150569
  0
CIRCLE
  8
0
  6
CONTINUOUS
 62
1
 10
579.529779
 20
591.358115
 40
50.000000
  0
LINE
  8
0
  6
CONTINUOUS
 62
1
 10
572.029779
 20
541.923816
 11
572.029779
 21
641.358115
  0
LINE
  8
0
  6
CONTINUOUS
 62
1
 10
587.029779
 20
541.923816
 11
587.029779
 21
641.358115
  0
CIRCLE
  8
0
  6
CONTINUOUS
 62
1
 10
579.529779
 20
591.358115
 40
60.000000
  0
ARC
  8
0
  6
CONTINUOUS
 62
1
 10
486.329779
 20
591.358115
 40
10.000000
 50
270.000000
 51
90.000000
  0
LINE
  8
0
  6
CONTINUOUS
 62
1
 10
486.329779
 20
601.358115
 11
480.649672
 21
601.358115
  0
LINE
  8
0
  6
CONTINUOUS
 62
1
 10
486.329779
 20
581.358115
 11
480.649672
 21
581.358115
  0
ARC
  8
0
  6
CONTINUOUS
 62
1
 10
579.529779
 20
591.358115
 40
99.384483
 50
185.774835
 51
270.000000
  0
ARC
  8
0
  6
CONTINUOUS
 62
1
 10
579.529779
 20
591.358115
 40
93.200000
 50
186.150569
 51
270.000000
  0
ARC
  8
0
  6
CONTINUOUS
 62
1
 10
804.529810
 20
591.358115
 40
99.384483
 50
270.000000
 51
185.774835
  0
ARC
  8
0
  6
CONTINUOUS
 62
1
 10
804.529810
 20
591.358115
 40
93.200000
 50
270.000000
 51
186.150569
  0
CIRCLE
  8
0
  6
CONTINUOUS
 62
1
 10
804.529810
 20
591.358115
 40
50.000000
  0
LINE
  8
0
  6
CONTINUOUS
 62
1
 10
797.029810
 20
541.923816
 11
797.029810
 21
641.358115
  0
LINE
  8
0
  6
CONTINUOUS
 62
1
 10
812.029810
 20
541.923816
 11
812.029810
 21
641.358115
  0
CIRCLE
  8
0
  6
CONTINUOUS
 62
1
 10
804.529810
 20
591.358115
 40
60.000000
  0
ARC
  8
0
  6
CONTINUOUS
 62
1
 10
711.329810
 20
591.358115
 40
10.000000
 50
270.000000
 51
90.000000
  0
LINE
  8
0
  6
CONTINUOUS
 62
1
 10
711.329810
 20
601.358115
 11
705.649703
 21
601.358115
  0
LINE
  8
0
  6
CONTINUOUS
 62
1
 10
711.329810
 20
581.358115
 11
705.649703
 21
581.358115
  0
ARC
  8
0
  6
CONTINUOUS
 62
1
 10
804.529810
 20
591.358115
 40
99.384483
 50
185.774835
 51
270.000000
  0
ARC
  8
0
  6
CONTINUOUS
 62
1
 10
804.529810
 20
591.358115
 40
93.200000
 50
186.150569
 51
270.000000
  0
ARC
  8
0
  6
CONTINUOUS
 62
1
 10
804.529810
 20
363.358054
 40
99.384483
 50
270.000000
 51
185.774835
  0
ARC
  8
0
  6
CONTINUOUS
 62
1
 10
804.529810
 20
363.358054
 40
93.200000
 50
270.000000
 51
186.150569
  0
CIRCLE
  8
0
  6
CONTINUOUS
 62
1
 10
804.529810
 20
363.358054
 40
50.000000
  0
LINE
  8
0
  6
CONTINUOUS
 62
1
 10
797.029810
 20
313.923754
 11
797.029810
 21
413.358054
  0
LINE
  8
0
  6
CONTINUOUS
 62
1
 10
812.029810
 20
313.923754
 11
812.029810
 21
413.358054
  0
CIRCLE
  8
0
  6
CONTINUOUS
 62
1
 10
804.529810
 20
363.358054
 40
60.000000
  0
ARC
  8
0
  6
CONTINUOUS
 62
1
 10
711.329810
 20
363.358054
 40
10.000000
 50
270.000000
 51
90.000000
  0
LINE
  8
0
  6
CONTINUOUS
 62
1
 10
711.329810
 20
373.358054
 11
705.649703
 21
373.358054
  0
LINE
  8
0
  6
CONTINUOUS
 62
1
 10
711.329810
 20
353.358054
 11
705.649703
 21
353.358054
  0
ARC
  8
0
  6
CONTINUOUS
 62
1
 10
804.529810
 20
363.358054
 40
99.384483
 50
185.774835
 51
270.000000
  0
ARC
  8
0
  6
CONTINUOUS
 62
1
 10
804.529810
 20
363.358054
 40
93.200000
 50
186.150569
 51
270.000000
  0
ARC
  8
0
  6
CONTINUOUS
 62
1
 10
579.529779
 20
363.358054
 40
99.384483
 50
270.000000
 51
185.774835
  0
ARC
  8
0
  6
CONTINUOUS
 62
1
 10
579.529779
 20
363.358054
 40
93.200000
 50
270.000000
 51
186.150569
  0
CIRCLE
  8
0
  6
CONTINUOUS
 62
1
 10
579.529779
 20
363.358054
 40
50.000000
  0
LINE
  8
0
  6
CONTINUOUS
 62
1
 10
572.029779
 20
313.923754
 11
572.029779
 21
413.358054
  0
LINE
  8
0
  6
CONTINUOUS
 62
1
 10
587.029779
 20
313.923754
 11
587.029779
 21
413.358054
  0
CIRCLE
  8
0
  6
CONTINUOUS
 62
1
 10
579.529779
 20
363.358054
 40
60.000000
  0
ARC
  8
0
  6
CONTINUOUS
 62
1
 10
486.329779
 20
363.358054
 40
10.000000
 50
270.000000
 51
90.000000
  0
LINE
  8
0
  6
CONTINUOUS
 62
1
 10
486.329779
 20
373.358054
 11
480.649672
 21
373.358054
  0
LINE
  8
0
  6
CONTINUOUS
 62
1
 10
486.329779
 20
353.358054
 11
480.649672
 21
353.358054
  0
ARC
  8
0
  6
CONTINUOUS
 62
1
 10
579.529779
 20
363.358054
 40
99.384483
 50
185.774835
 51
270.000000
  0
ARC
  8
0
  6
CONTINUOUS
 62
1
 10
579.529779
 20
363.358054
 40
93.200000
 50
186.150569
 51
270.000000
  0
ENDSEC
  0
EOF
